  0
SECTION
  2
HEADER
  9
$ACADVER
  1
AC1015
  9
$ACADMAINTVER
 70
     6
  9
$DWGCODEPAGE
  3
ANSI_932
  9
$INSBASE
 10
0.0
 20
0.0
 30
0.0
  9
$EXTMIN
 10
250.0642417112919
 20
48.27036824153674
 30
0.0
  9
$EXTMAX
 10
1432.361160534812
 20
1062.213433711484
 30
0.0
  9
$LIMMIN
 10
0.0
 20
0.0
  9
$LIMMAX
 10
1000000000000000E+84
 20
0.0
  9
$ORTHOMODE
 70
     1
  9
$REGENMODE
 70
     1
  9
$FILLMODE
 70
     1
  9
$QTEXTMODE
 70
     0
  9
$MIRRTEXT
 70
     1
  9
$LTSCALE
 40
5.0
  9
$ATTMODE
 70
     1
  9
$TEXTSIZE
 40
12.0
  9
$TRACEWID
 40
0.05
  9
$TEXTSTYLE
  7
KANJI
  9
$CLAYER
  8
2
  9
$CELTYPE
  6
BYLAYER
  9
$CECOLOR
 62
   256
  9
$CELTSCALE
 40
1.0
  9
$DISPSILH
 70
     0
  9
$DIMSCALE
 40
4.0
  9
$DIMASZ
 40
2.0
  9
$DIMEXO
 40
0.5
  9
$DIMDLI
 40
0.0
  9
$DIMRND
 40
0.0
  9
$DIMDLE
 40
0.0
  9
$DIMEXE
 40
1.0
  9
$DIMTP
 40
0.0
  9
$DIMTM
 40
0.0
  9
$DIMTXT
 40
3.0
  9
$DIMCEN
 40
0.09
  9
$DIMTSZ
 40
0.0
  9
$DIMTOL
 70
     0
  9
$DIMLIM
 70
     0
  9
$DIMTIH
 70
     0
  9
$DIMTOH
 70
     0
  9
$DIMSE1
 70
     0
  9
$DIMSE2
 70
     0
  9
$DIMTAD
 70
     0
  9
$DIMZIN
 70
     8
  9
$DIMBLK
  1

  9
$DIMASO
 70
     0
  9
$DIMSHO
 70
     0
  9
$DIMPOST
  1

  9
$DIMAPOST
  1

  9
$DIMALT
 70
     0
  9
$DIMALTD
 70
     2
  9
$DIMALTF
 40
25.4
  9
$DIMLFAC
 40
1.0
  9
$DIMTOFL
 70
     1
  9
$DIMTVP
 40
1.0
  9
$DIMTIX
 70
     1
  9
$DIMSOXD
 70
     1
  9
$DIMSAH
 70
     0
  9
$DIMBLK1
  1

  9
$DIMBLK2
  1

  9
$DIMSTYLE
  2
STANDARD
  9
$DIMCLRD
 70
   256
  9
$DIMCLRE
 70
   256
  9
$DIMCLRT
 70
   256
  9
$DIMTFAC
 40
1.0
  9
$DIMGAP
 40
0.09
  9
$DIMJUST
 70
     0
  9
$DIMSD1
 70
     0
  9
$DIMSD2
 70
     0
  9
$DIMTOLJ
 70
     1
  9
$DIMTZIN
 70
     0
  9
$DIMALTZ
 70
     0
  9
$DIMALTTZ
 70
     0
  9
$DIMUPT
 70
     0
  9
$DIMDEC
 70
     1
  9
$DIMTDEC
 70
     4
  9
$DIMALTU
 70
     2
  9
$DIMALTTD
 70
     2
  9
$DIMTXSTY
  7
STANDARD
  9
$DIMAUNIT
 70
     0
  9
$DIMADEC
 70
     0
  9
$DIMALTRND
 40
0.0
  9
$DIMAZIN
 70
     0
  9
$DIMDSEP
 70
    46
  9
$DIMATFIT
 70
     3
  9
$DIMFRAC
 70
     0
  9
$DIMLDRBLK
  1

  9
$DIMLUNIT
 70
     2
  9
$DIMLWD
 70
    -2
  9
$DIMLWE
 70
    -2
  9
$DIMTMOVE
 70
     0
  9
$LUNITS
 70
     2
  9
$LUPREC
 70
     3
  9
$SKETCHINC
 40
0.1
  9
$FILLETRAD
 40
1.2
  9
$AUNITS
 70
     0
  9
$AUPREC
 70
     3
  9
$MENU
  1
C:\R13\WIN\SUPPORT\ACADFULL
  9
$ELEVATION
 40
0.0
  9
$PELEVATION
 40
0.0
  9
$THICKNESS
 40
0.0
  9
$LIMCHECK
 70
     0
  9
$CHAMFERA
 40
0.0
  9
$CHAMFERB
 40
0.0
  9
$CHAMFERC
 40
0.0
  9
$CHAMFERD
 40
0.0
  9
$SKPOLY
 70
     0
  9
$TDCREATE
 40
2457620.67566485
  9
$TDUCREATE
 40
2457620.30066485
  9
$TDUPDATE
 40
2458124.750349132
  9
$TDUUPDATE
 40
2458124.375349132
  9
$TDINDWG
 40
0.0917748032
  9
$TDUSRTIMER
 40
0.0917739931
  9
$USRTIMER
 70
     1
  9
$ANGBASE
 50
0.0
  9
$ANGDIR
 70
     0
  9
$PDMODE
 70
     0
  9
$PDSIZE
 40
0.0
  9
$PLINEWID
 40
0.0
  9
$SPLFRAME
 70
     0
  9
$SPLINETYPE
 70
     6
  9
$SPLINESEGS
 70
     8
  9
$HANDSEED
  5
1B35C
  9
$SURFTAB1
 70
     6
  9
$SURFTAB2
 70
     6
  9
$SURFTYPE
 70
     6
  9
$SURFU
 70
     6
  9
$SURFV
 70
     6
  9
$UCSBASE
  2

  9
$UCSNAME
  2

  9
$UCSORG
 10
0.0
 20
0.0
 30
0.0
  9
$UCSXDIR
 10
1.0
 20
0.0
 30
0.0
  9
$UCSYDIR
 10
0.0
 20
1.0
 30
0.0
  9
$UCSORTHOREF
  2

  9
$UCSORTHOVIEW
 70
     0
  9
$UCSORGTOP
 10
0.0
 20
0.0
 30
0.0
  9
$UCSORGBOTTOM
 10
0.0
 20
0.0
 30
0.0
  9
$UCSORGLEFT
 10
0.0
 20
0.0
 30
0.0
  9
$UCSORGRIGHT
 10
0.0
 20
0.0
 30
0.0
  9
$UCSORGFRONT
 10
0.0
 20
0.0
 30
0.0
  9
$UCSORGBACK
 10
0.0
 20
0.0
 30
0.0
  9
$PUCSBASE
  2

  9
$PUCSNAME
  2

  9
$PUCSORG
 10
0.0
 20
0.0
 30
0.0
  9
$PUCSXDIR
 10
1.0
 20
0.0
 30
0.0
  9
$PUCSYDIR
 10
0.0
 20
1.0
 30
0.0
  9
$PUCSORTHOREF
  2

  9
$PUCSORTHOVIEW
 70
     0
  9
$PUCSORGTOP
 10
0.0
 20
0.0
 30
0.0
  9
$PUCSORGBOTTOM
 10
0.0
 20
0.0
 30
0.0
  9
$PUCSORGLEFT
 10
0.0
 20
0.0
 30
0.0
  9
$PUCSORGRIGHT
 10
0.0
 20
0.0
 30
0.0
  9
$PUCSORGFRONT
 10
0.0
 20
0.0
 30
0.0
  9
$PUCSORGBACK
 10
0.0
 20
0.0
 30
0.0
  9
$USERI1
 70
     0
  9
$USERI2
 70
     0
  9
$USERI3
 70
     0
  9
$USERI4
 70
     0
  9
$USERI5
 70
     0
  9
$USERR1
 40
0.0
  9
$USERR2
 40
0.0
  9
$USERR3
 40
0.0
  9
$USERR4
 40
2448925.372986111
  9
$USERR5
 40
0.04166667
  9
$WORLDVIEW
 70
     1
  9
$SHADEDGE
 70
     3
  9
$SHADEDIF
 70
    70
  9
$TILEMODE
 70
     1
  9
$MAXACTVP
 70
    16
  9
$PINSBASE
 10
0.0
 20
0.0
 30
0.0
  9
$PLIMCHECK
 70
     0
  9
$PEXTMIN
 10
1000000000000000E+20
 20
1000000000000000E+20
 30
1000000000000000E+20
  9
$PEXTMAX
 10
-1000000000000000E+20
 20
-1000000000000000E+20
 30
-1000000000000000E+20
  9
$PLIMMIN
 10
0.0
 20
0.0
  9
$PLIMMAX
 10
12.0
 20
9.0
  9
$UNITMODE
 70
     0
  9
$VISRETAIN
 70
     0
  9
$PLINEGEN
 70
     0
  9
$PSLTSCALE
 70
     0
  9
$TREEDEPTH
 70
  3020
  9
$CMLSTYLE
  2
STANDARD
  9
$CMLJUST
 70
     0
  9
$CMLSCALE
 40
1.0
  9
$PROXYGRAPHICS
 70
     1
  9
$MEASUREMENT
 70
     0
  9
$CELWEIGHT
370
    -1
  9
$ENDCAPS
280
     0
  9
$JOINSTYLE
280
     0
  9
$LWDISPLAY
290
     0
  9
$INSUNITS
 70
     0
  9
$HYPERLINKBASE
  1

  9
$STYLESHEET
  1

  9
$XEDIT
290
     1
  9
$CEPSNTYPE
380
     0
  9
$PSTYLEMODE
290
     1
  9
$FINGERPRINTGUID
  2
{22EB5CE4-6AF4-46D6-B4AC-CC9D87612832}
  9
$VERSIONGUID
  2
{11990B0F-0822-4255-B021-643CA203D62B}
  9
$EXTNAMES
290
     1
  9
$PSVPSCALE
 40
0.0
  9
$OLESTARTUP
290
     0
  0
ENDSEC
  0
SECTION
  2
CLASSES
  0
CLASS
  1
LWPOLYLINE
  2
AcDbPolyline
  3
AutoCAD 2000
 90
        0
280
     0
281
     1
  0
CLASS
  1
XRECORD
  2
AcDbXrecord
  3
AutoCAD 2000
 90
        0
280
     0
281
     0
  0
CLASS
  1
ACDBDICTIONARYWDFLT
  2
AcDbDictionaryWithDefault
  3
ObjectDBX Classes
 90
        0
280
     0
281
     0
  0
CLASS
  1
ACDBPLACEHOLDER
  2
AcDbPlaceHolder
  3
ObjectDBX Classes
 90
        0
280
     0
281
     0
  0
CLASS
  1
LAYOUT
  2
AcDbLayout
  3
ObjectDBX Classes
 90
        0
280
     0
281
     0
  0
CLASS
  1
DICTIONARYVAR
  2
AcDbDictionaryVar
  3
ObjectDBX Classes
 90
        0
280
     0
281
     0
  0
CLASS
  1
DUMMY
  2
AcDbLongTransaction
  3
DUMMY
 90
        0
280
     0
281
     0
  0
CLASS
  1
LWPOLYLINE
  2
AcDbPolyline
  3
AutoCAD 2000
 90
        0
280
     0
281
     1
  0
CLASS
  1
HATCH
  2
AcDbHatch
  3
AutoCAD 2000
 90
        0
280
     0
281
     1
  0
CLASS
  1
XRECORD
  2
AcDbXrecord
  3
AutoCAD 2000
 90
        0
280
     0
281
     0
  0
CLASS
  1
MATERIAL
  2
AcDbMaterial
  3
ObjectDBX Classes
 90
     1153
280
     0
281
     0
  0
CLASS
  1
VISUALSTYLE
  2
AcDbVisualStyle
  3
ObjectDBX Classes
 90
     4095
280
     0
281
     0
  0
CLASS
  1
TABLESTYLE
  2
AcDbTableStyle
  3
ObjectDBX Classes
 90
     4095
280
     0
281
     0
  0
CLASS
  1
SCALE
  2
AcDbScale
  3
ObjectDBX Classes
 90
     1153
280
     0
281
     0
  0
CLASS
  1
MLEADERSTYLE
  2
AcDbMLeaderStyle
  3
ACDB_MLEADERSTYLE_CLASS
 90
     4095
280
     0
281
     0
  0
CLASS
  1
ACDBSECTIONVIEWSTYLE
  2
AcDbSectionViewStyle
  3
ObjectDBX Classes
 90
     1025
280
     1
281
     0
  0
CLASS
  1
ACDBDETAILVIEWSTYLE
  2
AcDbDetailViewStyle
  3
ObjectDBX Classes
 90
     1025
280
     1
281
     0
  0
CLASS
  1
SORTENTSTABLE
  2
AcDbSortentsTable
  3
ObjectDBX Classes
 90
        0
280
     0
281
     0
  0
ENDSEC
  0
SECTION
  2
TABLES
  0
TABLE
  2
VPORT
  5
12
102
{ACAD_XDICTIONARY
360
1B322
102
}
330
0
100
AcDbSymbolTable
 70
     1
  0
VPORT
  5
18CAA
330
12
100
AcDbSymbolTableRecord
100
AcDbViewportTableRecord
  2
*ACTIVE
 70
     0
 10
0.0
 20
0.0
 11
1.0
 21
1.0
 12
1312.927909620226
 22
568.8307257012106
 13
0.0
 23
0.0
 14
1.0
 24
1.0
 15
50.0
 25
50.0
 16
0.0
 26
0.0
 36
1.0
 17
0.0
 27
0.0
 37
0.0
 40
1611.965533297888
 41
1.82716049382716
 42
50.0
 43
0.0
 44
0.0
 50
0.0
 51
0.0
 71
     0
 72
 20000
 73
     1
 74
     0
 75
     0
 76
     0
 77
     0
 78
     0
281
     0
 65
     1
110
0.0
120
0.0
130
0.0
111
1.0
121
0.0
131
0.0
112
0.0
122
1.0
132
0.0
 79
     0
146
0.0
1001
ACAD_NAV_VCDISPLAY
1070
     3
  0
ENDTAB
  0
TABLE
  2
LTYPE
  5
D
330
0
100
AcDbSymbolTable
 70
     5
  0
LTYPE
  5
E
330
D
100
AcDbSymbolTableRecord
100
AcDbLinetypeTableRecord
  2
BYBLOCK
 70
     0
  3

 72
    65
 73
     0
 40
0.0
  0
LTYPE
  5
F
330
D
100
AcDbSymbolTableRecord
100
AcDbLinetypeTableRecord
  2
BYLAYER
 70
     0
  3

 72
    65
 73
     0
 40
0.0
  0
LTYPE
  5
5
330
D
100
AcDbSymbolTableRecord
100
AcDbLinetypeTableRecord
  2
CONTINUOUS
 70
     0
  3
Solid line
 72
    65
 73
     0
 40
0.0
  0
LTYPE
  5
24
330
D
100
AcDbSymbolTableRecord
100
AcDbLinetypeTableRecord
  2
CENTER
 70
     0
  3
____ _ ____ _ ____ _ ____ _ ____ _ ____ _ ____
 72
    65
 73
     4
 40
2.0
 49
1.25
 74
     0
 49
-0.25
 74
     0
 49
0.25
 74
     0
 49
-0.25
 74
     0
  0
LTYPE
  5
113
330
D
100
AcDbSymbolTableRecord
100
AcDbLinetypeTableRecord
  2
DASHDOT
 70
     0
  3
__ . __ . __ . __ . __ . __ . __ . __ . __ . __
 72
    65
 73
     4
 40
1.0
 49
0.5
 74
     0
 49
-0.25
 74
     0
 49
0.0
 74
     0
 49
-0.25
 74
     0
  0
LTYPE
  5
17370
330
D
100
AcDbSymbolTableRecord
100
AcDbLinetypeTableRecord
  2
HIDDEN
 70
     0
  3
__ __ __ __ __ __ __ __ __ __ __ __ __ __ __ __
 72
    65
 73
     2
 40
0.375
 49
0.25
 74
     0
 49
-0.125
 74
     0
  0
LTYPE
  5
19B27
330
D
100
AcDbSymbolTableRecord
100
AcDbLinetypeTableRecord
  2
DASHED2
 70
     0
  3
_ _ _ _ _ _ _ _ _ _ _ _ _ _ _ _ _ _ _ _ _ _ _ _
 72
    65
 73
     2
 40
0.375
 49
0.25
 74
     0
 49
-0.125
 74
     0
  0
ENDTAB
  0
TABLE
  2
LAYER
  5
A
102
{ACAD_XDICTIONARY
360
18D10
102
}
330
0
100
AcDbSymbolTable
 70
     9
  0
LAYER
  5
4
102
{ACAD_XDICTIONARY
360
18CFD
102
}
330
A
100
AcDbSymbolTableRecord
100
AcDbLayerTableRecord
  2
0
 70
     0
 62
     7
  6
CONTINUOUS
370
    -3
390
2F78
  0
LAYER
  5
26
102
{ACAD_XDICTIONARY
360
18CFF
102
}
330
A
100
AcDbSymbolTableRecord
100
AcDbLayerTableRecord
  2
1
 70
     0
 62
     9
  6
CONTINUOUS
370
    -3
390
2F78
  0
LAYER
  5
1B
102
{ACAD_XDICTIONARY
360
18D01
102
}
330
A
100
AcDbSymbolTableRecord
100
AcDbLayerTableRecord
  2
2
 70
     0
 62
     4
  6
CONTINUOUS
370
    -3
390
2F78
  0
LAYER
  5
35
102
{ACAD_XDICTIONARY
360
18D03
102
}
330
A
100
AcDbSymbolTableRecord
100
AcDbLayerTableRecord
  2
4
 70
     0
 62
     3
  6
CONTINUOUS
370
    -3
390
2F78
  0
LAYER
  5
23
102
{ACAD_XDICTIONARY
360
18D05
102
}
330
A
100
AcDbSymbolTableRecord
100
AcDbLayerTableRecord
  2
L-CENTER
 70
     0
 62
     1
  6
CENTER
370
    -3
390
2F78
  0
LAYER
  5
3C4
330
A
100
AcDbSymbolTableRecord
100
AcDbLayerTableRecord
  2
DEFPOINTS
 70
     0
 62
     7
  6
CONTINUOUS
290
     0
370
    -3
390
2F78
  0
LAYER
  5
17371
102
{ACAD_XDICTIONARY
360
18D07
102
}
330
A
100
AcDbSymbolTableRecord
100
AcDbLayerTableRecord
  2
5
 70
     0
 62
     6
  6
CONTINUOUS
370
    -3
390
2F78
  0
LAYER
  5
17372
102
{ACAD_XDICTIONARY
360
18D09
102
}
330
A
100
AcDbSymbolTableRecord
100
AcDbLayerTableRecord
  2
3
 70
     0
 62
     2
  6
CONTINUOUS
370
    -3
390
2F78
  0
LAYER
  5
17373
102
{ACAD_XDICTIONARY
360
18D0B
102
}
330
A
100
AcDbSymbolTableRecord
100
AcDbLayerTableRecord
  2
CENTER
 70
     0
 62
     1
  6
CENTER
370
    -3
390
2F78
  0
ENDTAB
  0
TABLE
  2
STYLE
  5
B
330
0
100
AcDbSymbolTable
 70
     3
  0
STYLE
  5
C
330
B
100
AcDbSymbolTableRecord
100
AcDbTextStyleTableRecord
  2
STANDARD
 70
     0
 40
0.0
 41
1.0
 50
0.0
 71
     0
 42
7.2
  3
TXT
  4

  0
STYLE
  5
1C
330
B
100
AcDbSymbolTableRecord
100
AcDbTextStyleTableRecord
  2
KANJI
 70
     0
 40
0.0
 41
1.0
 50
0.0
 71
     0
 42
12.0
  3
TXT
  4
BIGFONT
  0
STYLE
  5
C25
330
B
100
AcDbSymbolTableRecord
100
AcDbTextStyleTableRecord
  2
KANJIT
 70
     4
 40
0.0
 41
1.0
 50
0.0
 71
     0
 42
2.8
  3
TXT
  4
BIGFONT
  0
ENDTAB
  0
TABLE
  2
VIEW
  5
10
330
0
100
AcDbSymbolTable
 70
     0
  0
ENDTAB
  0
TABLE
  2
UCS
  5
11
330
0
100
AcDbSymbolTable
 70
     0
  0
ENDTAB
  0
TABLE
  2
APPID
  5
14
330
0
100
AcDbSymbolTable
 70
     5
  0
APPID
  5
15
330
14
100
AcDbSymbolTableRecord
100
AcDbRegAppTableRecord
  2
ACAD
 70
     0
  0
APPID
  5
18D16
330
14
100
AcDbSymbolTableRecord
100
AcDbRegAppTableRecord
  2
ACAD_NAV_VCDISPLAY
 70
     0
  0
APPID
  5
18D34
330
14
100
AcDbSymbolTableRecord
100
AcDbRegAppTableRecord
  2
ACAD_MLEADERVER
 70
     0
  0
APPID
  5
18D50
330
14
100
AcDbSymbolTableRecord
100
AcDbRegAppTableRecord
  2
ACAD_PSEXT
 70
     0
  0
APPID
  5
18D52
330
14
100
AcDbSymbolTableRecord
100
AcDbRegAppTableRecord
  2
ACAD_EXEMPT_FROM_CAD_STANDARDS
 70
     0
  0
ENDTAB
  0
TABLE
  2
DIMSTYLE
  5
16
330
0
100
AcDbSymbolTable
 70
     1
100
AcDbDimStyleTable
  0
DIMSTYLE
105
1E
330
16
100
AcDbSymbolTableRecord
100
AcDbDimStyleTableRecord
  2
STANDARD
 70
     0
178
     0
340
C
  0
ENDTAB
  0
TABLE
  2
BLOCK_RECORD
  5
1
330
0
100
AcDbSymbolTable
 70
     1
  0
BLOCK_RECORD
  5
2
102
{ACAD_XDICTIONARY
360
1B272
102
}
330
1
100
AcDbSymbolTableRecord
100
AcDbBlockTableRecord
  2
*MODEL_SPACE
340
2F7B
  0
BLOCK_RECORD
  5
7
330
1
100
AcDbSymbolTableRecord
100
AcDbBlockTableRecord
  2
*PAPER_SPACE
340
2F7C
  0
BLOCK_RECORD
  5
14D9
330
1
100
AcDbSymbolTableRecord
100
AcDbBlockTableRecord
  2
A3-NWAKU
340
0
  0
ENDTAB
  0
ENDSEC
  0
SECTION
  2
BLOCKS
  0
BLOCK
  5
3
330
2
100
AcDbEntity
  8
0
100
AcDbBlockBegin
  2
*MODEL_SPACE
 70
     0
 10
0.0
 20
0.0
 30
0.0
  3
*MODEL_SPACE
  1

  0
ENDBLK
  5
6
330
2
100
AcDbEntity
  8
0
100
AcDbBlockEnd
  0
BLOCK
  5
8
330
7
100
AcDbEntity
 67
     1
  8
0
100
AcDbBlockBegin
  2
*PAPER_SPACE
 70
     0
 10
0.0
 20
0.0
 30
0.0
  3
*PAPER_SPACE
  1

  0
ENDBLK
  5
9
330
7
100
AcDbEntity
 67
     1
  8
0
100
AcDbBlockEnd
  0
BLOCK
  5
1513
330
14D9
100
AcDbEntity
  8
0
100
AcDbBlockBegin
  2
A3-NWAKU
 70
     0
 10
0.0
 20
0.0
 30
0.0
  3
A3-NWAKU
  1

  0
LINE
  5
14DA
330
14D9
100
AcDbEntity
  8
1
100
AcDbLine
 10
21.0
 20
0.0
 30
0.0
 11
396.0
 21
0.0
 31
0.0
  0
LINE
  5
14DB
330
14D9
100
AcDbEntity
  8
1
100
AcDbLine
 10
396.0
 20
272.5
 30
0.0
 11
21.00000000000001
 21
272.5
 31
0.0
  0
LINE
  5
14DC
330
14D9
100
AcDbEntity
  8
1
 62
     1
100
AcDbLine
 10
34.0
 20
6.0
 30
0.0
 11
396.0
 21
6.0
 31
0.0
  0
LINE
  5
14DD
330
14D9
100
AcDbEntity
  8
1
 62
     1
100
AcDbLine
 10
33.99999999999999
 20
12.0
 30
0.0
 11
396.0
 21
11.99999999999997
 31
0.0
  0
LINE
  5
14DE
330
14D9
100
AcDbEntity
  8
1
 62
     1
100
AcDbLine
 10
34.0
 20
24.0
 30
0.0
 11
396.0
 21
24.0
 31
0.0
  0
LINE
  5
14DF
330
14D9
100
AcDbEntity
  8
1
100
AcDbLine
 10
21.0
 20
30.0
 30
0.0
 11
396.0
 21
29.99999999999997
 31
0.0
  0
LINE
  5
14E0
330
14D9
100
AcDbEntity
  8
1
100
AcDbLine
 10
21.0
 20
18.0
 30
0.0
 11
396.0
 21
18.0
 31
0.0
  0
LINE
  5
14E1
330
14D9
100
AcDbEntity
  8
1
100
AcDbLine
 10
21.00000000000001
 20
272.5
 30
0.0
 11
21.0
 21
0.0
 31
0.0
  0
TEXT
  5
14E2
330
14D9
100
AcDbEntity
  8
1
100
AcDbText
 10
62.70416207467576
 20
25.27015990099829
 30
0.0
 40
3.0
  1
　素　　材
  7
KANJI
100
AcDbText
  0
LINE
  5
14E3
330
14D9
100
AcDbEntity
  8
1
100
AcDbLine
 10
60.0
 20
30.0
 30
0.0
 11
60.0
 21
0.0
 31
0.0
  0
TEXT
  5
14E4
330
14D9
100
AcDbEntity
  8
1
100
AcDbText
 10
27.1915673163079
 20
12.14236209118539
 30
0.0
 40
2.88
  1
工程
  7
KANJIT
100
AcDbText
  0
LINE
  5
14E5
330
14D9
100
AcDbEntity
  8
1
100
AcDbLine
 10
34.0
 20
30.0
 30
0.0
 11
33.99999999999999
 21
0.0
 31
0.0
  0
LINE
  5
14E6
330
14D9
100
AcDbEntity
  8
1
100
AcDbLine
 10
23.0
 20
32.0
 30
0.0
 11
61.0
 21
32.0
 31
0.0
  0
TEXT
  5
14E7
330
14D9
100
AcDbEntity
  8
1
100
AcDbText
 10
35.99171765916196
 20
25.27015990099829
 30
0.0
 40
3.0
  1
　材　　質
  7
KANJI
100
AcDbText
  0
TEXT
  5
14E8
330
14D9
100
AcDbEntity
  8
1
100
AcDbText
 10
27.06404175060214
 20
27.52491609805207
 30
0.0
 40
2.88
  1
資材
  7
KANJIT
100
AcDbText
  0
TEXT
  5
14E9
330
14D9
100
AcDbEntity
  8
1
100
AcDbText
 10
24.2215732531356
 20
33.27015990099832
 30
0.0
 40
3.0
  1
原価合計
  7
KANJI
100
AcDbText
  0
TEXT
  5
14EA
330
14D9
100
AcDbEntity
  8
1
100
AcDbText
 10
143.8625892355223
 20
25.27015990099829
 30
0.0
 40
3.0
  1
素材単価
  7
KANJI
100
AcDbText
  0
LINE
  5
14EB
330
14D9
100
AcDbEntity
  8
1
100
AcDbLine
 10
138.0
 20
30.0
 30
0.0
 11
138.0
 21
0.0
 31
0.0
  0
LINE
  5
14EC
330
14D9
100
AcDbEntity
  8
1
100
AcDbLine
 10
112.0
 20
30.0
 30
0.0
 11
112.0
 21
0.0
 31
0.0
  0
LINE
  5
14ED
330
14D9
100
AcDbEntity
  8
1
100
AcDbLine
 10
86.0
 20
30.0
 30
0.0
 11
86.00000000000001
 21
0.0
 31
0.0
  0
TEXT
  5
14EE
330
14D9
100
AcDbEntity
  8
1
100
AcDbText
 10
88.70416207467576
 20
25.27015990099829
 30
0.0
 40
3.0
  1
　素材重量
  7
KANJI
100
AcDbText
  0
TEXT
  5
14EF
330
14D9
100
AcDbEntity
  8
1
100
AcDbText
 10
117.8909963435874
 20
25.27015990099829
 30
0.0
 40
3.0
  1
ロット数
  7
KANJI
100
AcDbText
  0
LINE
  5
14F0
330
14D9
100
AcDbEntity
  8
1
100
AcDbLine
 10
190.0
 20
30.0
 30
0.0
 11
190.0
 21
0.0
 31
0.0
  0
LINE
  5
14F1
330
14D9
100
AcDbEntity
  8
1
100
AcDbLine
 10
164.0
 20
30.0
 30
0.0
 11
164.0
 21
0.0
 31
0.0
  0
TEXT
  5
14F2
330
14D9
100
AcDbEntity
  8
1
100
AcDbText
 10
169.9799075492004
 20
25.27015990099832
 30
0.0
 40
3.0
  1
切 断 費
  7
KANJI
100
AcDbText
  0
LINE
  5
14F3
330
14D9
100
AcDbEntity
  8
1
100
AcDbLine
 10
396.0
 20
0.0
 30
0.0
 11
396.0
 21
272.5
 31
0.0
  0
LINE
  5
14F4
330
14D9
100
AcDbEntity
  8
1
100
AcDbLine
 10
268.0
 20
30.0
 30
0.0
 11
268.0
 21
0.0
 31
0.0
  0
LINE
  5
14F5
330
14D9
100
AcDbEntity
  8
1
100
AcDbLine
 10
242.0
 20
30.0
 30
0.0
 11
242.0
 21
0.0
 31
0.0
  0
LINE
  5
14F6
330
14D9
100
AcDbEntity
  8
1
100
AcDbLine
 10
216.0
 20
30.0
 30
0.0
 11
216.0
 21
0.0
 31
0.0
  0
LINE
  5
14F7
330
14D9
100
AcDbEntity
  8
1
100
AcDbLine
 10
320.0
 20
30.0
 30
0.0
 11
320.0
 21
0.0
 31
0.0
  0
LINE
  5
14F8
330
14D9
100
AcDbEntity
  8
1
100
AcDbLine
 10
294.0
 20
30.0
 30
0.0
 11
294.0
 21
0.0
 31
0.0
  0
LINE
  5
14F9
330
14D9
100
AcDbEntity
  8
1
100
AcDbLine
 10
346.0
 20
30.0
 30
0.0
 11
346.0
 21
0.0
 31
0.0
  0
LINE
  5
14FA
330
14D9
100
AcDbEntity
  8
1
100
AcDbLine
 10
371.0
 20
30.0
 30
0.0
 11
371.0
 21
0.0
 31
0.0
  0
TEXT
  5
14FB
330
14D9
100
AcDbEntity
  8
1
100
AcDbText
 10
373.1201464160066
 20
13.27015990099831
 30
0.0
 40
3.0
  1
　加工合計
  7
KANJI
100
AcDbText
  0
LINE
  5
14FC
330
14D9
100
AcDbEntity
  8
1
100
AcDbLine
 10
336.0
 20
205.5
 30
0.0
 11
396.0
 21
205.5
 31
0.0
  0
LINE
  5
14FD
330
14D9
100
AcDbEntity
  8
1
100
AcDbLine
 10
336.0
 20
220.5
 30
0.0
 11
396.0
 21
220.5
 31
0.0
  0
LINE
  5
14FE
330
14D9
100
AcDbEntity
  8
1
100
AcDbLine
 10
336.0
 20
220.5
 30
0.0
 11
396.0
 21
220.5
 31
0.0
  0
LINE
  5
14FF
330
14D9
100
AcDbEntity
  8
1
100
AcDbLine
 10
336.0
 20
170.5
 30
0.0
 11
396.0
 21
170.5
 31
0.0
  0
LINE
  5
1500
330
14D9
100
AcDbEntity
  8
1
100
AcDbLine
 10
336.0
 20
242.5
 30
0.0
 11
396.0
 21
242.5
 31
0.0
  0
LINE
  5
1501
330
14D9
100
AcDbEntity
  8
1
 62
     1
100
AcDbLine
 10
336.0
 20
237.5
 30
0.0
 11
396.0
 21
237.5
 31
0.0
  0
LINE
  5
1502
330
14D9
100
AcDbEntity
  8
1
100
AcDbLine
 10
336.0
 20
252.5
 30
0.0
 11
396.0
 21
252.5
 31
0.0
  0
LINE
  5
1503
330
14D9
100
AcDbEntity
  8
1
100
AcDbLine
 10
336.0
 20
257.5
 30
0.0
 11
396.0
 21
257.5
 31
0.0
  0
LINE
  5
1504
330
14D9
100
AcDbEntity
  8
1
100
AcDbLine
 10
336.0
 20
262.5
 30
0.0
 11
396.0
 21
262.5
 31
0.0
  0
TEXT
  5
1505
330
14D9
100
AcDbEntity
  8
1
100
AcDbText
 10
340.0
 20
238.0
 30
0.0
 40
3.5
  1
製　図
  7
KANJI
100
AcDbText
  0
TEXT
  5
1506
330
14D9
100
AcDbEntity
  8
1
100
AcDbText
 10
338.0
 20
216.0
 30
0.0
 40
3.5
  1
熱処理
  7
KANJI
100
AcDbText
  0
TEXT
  5
1507
330
14D9
100
AcDbEntity
  8
1
100
AcDbText
 10
338.0
 20
201.0
 30
0.0
 40
3.5
  1
記　事
  7
KANJI
100
AcDbText
  0
TEXT
  5
1508
330
14D9
100
AcDbEntity
  8
1
100
AcDbText
 10
337.3301380580201
 20
264.9989991753436
 30
0.0
 40
4.800000000000001
  1
青木精密工業株式会社
  7
KANJI
100
AcDbText
  0
LINE
  5
1509
330
14D9
100
AcDbEntity
  8
1
100
AcDbLine
 10
336.0
 20
272.5
 30
0.0
 11
336.0
 21
170.5
 31
0.0
  0
LINE
  5
150A
330
14D9
100
AcDbEntity
  8
1
 62
     1
100
AcDbLine
 10
376.0
 20
242.5
 30
0.0
 11
376.0
 21
220.5
 31
0.0
  0
LINE
  5
150B
330
14D9
100
AcDbEntity
  8
1
 62
     1
100
AcDbLine
 10
356.0
 20
242.5
 30
0.0
 11
356.0
 21
220.5
 31
0.0
  0
TEXT
  5
150C
330
14D9
100
AcDbEntity
  8
1
100
AcDbText
 10
360.0
 20
238.0
 30
0.0
 40
3.5
  1
検　図
  7
KANJI
100
AcDbText
  0
TEXT
  5
150D
330
14D9
100
AcDbEntity
  8
1
100
AcDbText
 10
380.0
 20
238.0
 30
0.0
 40
3.5
  1
承　認
  7
KANJI
100
AcDbText
  0
LINE
  5
150E
330
14D9
100
AcDbEntity
  8
1
100
AcDbLine
 10
388.0
 20
248.5
 30
0.0
 11
396.0
 21
248.5
 31
0.0
  0
TEXT
  5
150F
330
14D9
100
AcDbEntity
  8
1
100
AcDbText
 10
388.5
 20
249.0
 30
0.0
 40
3.0
  1
REV
 41
0.8
  7
KANJI
100
AcDbText
  0
LINE
  5
1510
330
14D9
100
AcDbEntity
  8
1
100
AcDbLine
 10
376.0
 20
257.5
 30
0.0
 11
376.0
 21
252.5
 31
0.0
  0
LINE
  5
1511
330
14D9
100
AcDbEntity
  8
1
100
AcDbLine
 10
388.0
 20
242.5
 30
0.0
 11
388.0
 21
252.5
 31
0.0
  0
TEXT
  5
1512
330
14D9
100
AcDbEntity
  8
1
100
AcDbText
 10
377.5
 20
253.5
 30
0.0
 40
3.0
  1
尺度
  7
KANJI
100
AcDbText
  0
ENDBLK
  5
1514
330
14D9
100
AcDbEntity
  8
0
100
AcDbBlockEnd
  0
ENDSEC
  0
SECTION
  2
ENTITIES
  0
LINE
  5
32
330
2
100
AcDbEntity
  8
L-CENTER
 48
4.0
100
AcDbLine
 10
1053.342435508324
 20
253.2703682415363
 30
0.0
 11
1156.042673865117
 21
253.2703682415363
 31
0.0
  0
LINE
  5
33
330
2
100
AcDbEntity
  8
L-CENTER
 48
4.0
100
AcDbLine
 10
1025.302624479024
 20
163.2699762415364
 30
0.0
 11
1432.361160534812
 21
163.2702442415366
 31
0.0
  0
LINE
  5
34
330
2
100
AcDbEntity
  8
4
100
AcDbLine
 10
1159.692745100504
 20
69.27036824153674
 30
0.0
 11
1060.692745100504
 21
69.27036824153674
 31
0.0
  0
LINE
  5
36
330
2
100
AcDbEntity
  8
4
100
AcDbLine
 10
1267.692501100506
 20
229.1053682415368
 30
0.0
 11
1148.692501100506
 21
229.1053682415368
 31
0.0
  0
LINE
  5
37
330
2
100
AcDbEntity
  8
4
100
AcDbLine
 10
1267.692501100506
 20
223.2703682415367
 30
0.0
 11
1148.692501100506
 21
223.2703682415367
 31
0.0
  0
ARC
  5
38
330
2
100
AcDbEntity
  8
4
100
AcDbCircle
 10
1151.692501100506
 20
108.2703682415367
 30
0.0
 40
3.0
100
AcDbArc
 50
90.0
 51
180.0
  0
LINE
  5
14B
330
2
100
AcDbEntity
  8
4
100
AcDbLine
 10
651.4104059032366
 20
58.27036824153674
 30
0.0
 11
521.4104059032366
 21
58.27036824153674
 31
0.0
  0
LINE
  5
14E
330
2
100
AcDbEntity
  8
L-CENTER
 48
4.0
100
AcDbLine
 10
455.3635558443812
 20
163.2699567852502
 30
0.0
 11
653.457255962092
 21
163.2700488236084
 31
0.0
  0
CIRCLE
  5
14F
330
2
100
AcDbEntity
  8
L-CENTER
 48
4.0
100
AcDbCircle
 10
554.4104059032366
 20
163.2698482415367
 30
0.0
 40
81.5
  0
CIRCLE
  5
150
330
2
100
AcDbEntity
  8
4
100
AcDbCircle
 10
554.4104059032366
 20
163.2698482415367
 30
0.0
 40
88.0
  0
LINE
  5
151
330
2
100
AcDbEntity
  8
L-CENTER
 48
4.0
100
AcDbLine
 10
739.191221903237
 20
253.2703682415363
 30
0.0
 11
445.1749538898125
 21
253.2703682415363
 31
0.0
  0
ARC
  5
152
330
2
100
AcDbEntity
  8
4
100
AcDbCircle
 10
554.4101619032358
 20
471.2698482415367
 30
0.0
 40
400.000092
100
AcDbArc
 50
258.4607600000001
 51
281.539562
  0
CIRCLE
  5
153
330
2
100
AcDbEntity
  8
4
100
AcDbCircle
 10
554.4104059032366
 20
163.2698482415367
 30
0.0
 40
75.0
  0
ARC
  5
154
330
2
100
AcDbEntity
  8
4
100
AcDbCircle
 10
554.4104059032366
 20
-144.7298757584635
 30
0.0
 40
399.999996
100
AcDbArc
 50
78.460616
 51
101.53946
  0
LINE
  5
156
330
2
100
AcDbEntity
  8
4
100
AcDbLine
 10
660.4104059032366
 20
297.2703682415363
 30
0.0
 11
448.4104059032366
 21
297.2703682415363
 31
0.0
  0
LINE
  5
157
330
2
100
AcDbEntity
  8
4
100
AcDbLine
 10
437.4104059032366
 20
358.2703682415363
 30
0.0
 11
437.4104059032366
 21
279.2703682415363
 31
0.0
  0
LINE
  5
158
330
2
100
AcDbEntity
  8
4
100
AcDbLine
 10
425.4104059032366
 20
358.2703682415363
 30
0.0
 11
425.4104059032366
 21
279.2703682415363
 31
0.0
  0
LINE
  5
159
330
2
100
AcDbEntity
  8
4
100
AcDbLine
 10
455.4104059032366
 20
357.2703682415363
 30
0.0
 11
455.4104059032366
 21
297.2703682415363
 31
0.0
  0
LINE
  5
15A
330
2
100
AcDbEntity
  8
L-CENTER
 48
4.0
100
AcDbLine
 10
554.4104059032366
 20
302.0692852996325
 30
0.0
 11
554.4104059032366
 21
64.2231527455632
 31
0.0
  0
LINE
  5
15C
330
2
100
AcDbEntity
  8
4
100
AcDbLine
 10
407.4104059032366
 20
357.2703682415363
 30
0.0
 11
407.4104059032366
 21
268.2703682415363
 31
0.0
  0
LINE
  5
15D
330
2
100
AcDbEntity
  8
L-CENTER
 48
4.0
100
AcDbLine
 10
431.4104059032366
 20
363.4106655335544
 30
0.0
 11
431.4104059032366
 21
57.91197267356506
 31
0.0
  0
LINE
  5
15F
330
2
100
AcDbEntity
  8
4
100
AcDbLine
 10
447.4104059032366
 20
234.2706122415366
 30
0.0
 11
301.4104059032366
 21
234.2703682415363
 31
0.0
  0
LINE
  5
160
330
2
100
AcDbEntity
  8
4
100
AcDbLine
 10
302.4104059032366
 20
247.6702682415366
 30
0.0
 11
431.4104059032366
 21
247.6705122415365
 31
0.0
  0
LINE
  5
161
330
2
100
AcDbEntity
  8
4
100
AcDbLine
 10
447.4104059032366
 20
234.2703682415363
 30
0.0
 11
301.4104059032366
 21
234.2703682415363
 31
0.0
  0
LINE
  5
163
330
2
100
AcDbEntity
  8
4
100
AcDbLine
 10
391.4104059032366
 20
65.27012424153645
 30
0.0
 11
481.4104059032366
 21
65.27036824153674
 31
0.0
  0
LINE
  5
164
330
2
100
AcDbEntity
  8
4
100
AcDbLine
 10
391.4104059032366
 20
68.27012424153645
 30
0.0
 11
521.4104059032366
 21
68.27036824153674
 31
0.0
  0
LINE
  5
165
330
2
100
AcDbEntity
  8
4
100
AcDbLine
 10
424.9104059032366
 20
251.6705122429048
 30
0.0
 11
381.4104059032366
 21
251.6702682415366
 31
0.0
  0
LINE
  5
166
330
2
100
AcDbEntity
  8
4
100
AcDbLine
 10
395.4104059032366
 20
252.6702682415366
 30
0.0
 11
424.9104059032366
 21
252.6702682415366
 31
0.0
  0
LINE
  5
167
330
2
100
AcDbEntity
  8
4
100
AcDbLine
 10
301.4104059032366
 20
83.27036824153674
 30
0.0
 11
301.4104059032366
 21
234.2703682415363
 31
0.0
  0
LINE
  5
16E
330
2
100
AcDbEntity
  8
4
100
AcDbLine
 10
293.4104059032366
 20
83.27036824153674
 30
0.0
 11
391.4104059032366
 21
83.27036824153674
 31
0.0
  0
LINE
  5
16F
330
2
100
AcDbEntity
  8
4
100
AcDbLine
 10
291.4104059032366
 20
58.27036824153674
 30
0.0
 11
391.4104059032366
 21
58.27036824153674
 31
0.0
  0
LINE
  5
170
330
2
100
AcDbEntity
  8
L-CENTER
 48
4.0
100
AcDbLine
 10
316.4104059032366
 20
93.27036824153674
 30
0.0
 11
316.4104059032366
 21
48.27036824153674
 31
0.0
  0
LINE
  5
171
330
2
100
AcDbEntity
  8
4
100
AcDbLine
 10
291.4104059032366
 20
58.27036824153674
 30
0.0
 11
291.4104059032366
 21
81.27036824153674
 31
0.0
  0
ARC
  5
172
330
2
100
AcDbEntity
  8
4
100
AcDbCircle
 10
293.4104059032366
 20
81.27036824153674
 30
0.0
 40
2.0
100
AcDbArc
 50
90.0
 51
180.0
  0
LINE
  5
173
330
2
100
AcDbEntity
  8
4
100
AcDbLine
 10
391.4104059032366
 20
83.27036824153674
 30
0.0
 11
391.4104059032366
 21
58.27036824153674
 31
0.0
  0
LINE
  5
176
330
2
100
AcDbEntity
  8
4
100
AcDbLine
 10
301.4104059032366
 20
234.2703682415363
 30
0.0
 11
301.4104059032366
 21
246.6702682415366
 31
0.0
  0
ARC
  5
177
330
2
100
AcDbEntity
  8
4
100
AcDbCircle
 10
302.4104059032366
 20
246.6702682415366
 30
0.0
 40
1.0
100
AcDbArc
 50
90.0
 51
180.0
  0
LINE
  5
185
330
2
100
AcDbEntity
  8
4
100
AcDbLine
 10
378.9104059032366
 20
247.6702682415366
 30
0.0
 11
381.4104059032366
 21
251.6702682415366
 31
0.0
  0
LINE
  5
186
330
2
100
AcDbEntity
  8
4
100
AcDbLine
 10
395.4104059032366
 20
252.6702682415366
 30
0.0
 11
395.4104059032366
 21
251.6702682415366
 31
0.0
  0
LINE
  5
187
330
2
100
AcDbEntity
  8
4
100
AcDbLine
 10
572.1943979032371
 20
94.53580824153642
 30
0.0
 11
574.1840819032373
 21
123.9291202415366
 31
0.0
  0
LINE
  5
188
330
2
100
AcDbEntity
  8
4
100
AcDbLine
 10
536.6264099032364
 20
94.53580824153642
 30
0.0
 11
534.6367259032363
 21
123.9290802415367
 31
0.0
  0
ARC
  5
189
330
2
100
AcDbEntity
  8
4
100
AcDbCircle
 10
862.4101619032376
 20
163.2696362415368
 30
0.0
 40
399.999996
100
AcDbArc
 50
168.4607190000001
 51
191.539384
  0
LINE
  5
18B
330
2
100
AcDbEntity
  8
L-CENTER
 48
4.0
100
AcDbLine
 10
508.2825711077981
 20
83.37427279597432
 30
0.0
 11
519.0380859032362
 21
102.0033722415365
 31
0.0
  0
ARC
  5
196
330
2
100
AcDbEntity
  8
4
100
AcDbCircle
 10
475.3940459032369
 20
84.25376424153683
 30
0.0
 40
4.999996
100
AcDbArc
 50
191.5398230000014
 51
258.4601769999987
  0
LINE
  5
197
330
2
100
AcDbEntity
  8
4
100
AcDbLine
 10
481.4104059032366
 20
68.27036824153674
 30
0.0
 11
481.4104059032366
 21
65.27036824153674
 31
0.0
  0
ARC
  5
19E
330
2
100
AcDbEntity
  8
4
100
AcDbCircle
 10
575.1875459032367
 20
94.33319624153637
 30
0.0
 40
3.0
100
AcDbArc
 50
176.127454999996
 51
286.7724480000036
  0
LINE
  5
19F
330
2
100
AcDbEntity
  8
4
100
AcDbLine
 10
521.4104059032366
 20
72.63340424153648
 30
0.0
 11
521.4104059032366
 21
58.27036824153674
 31
0.0
  0
ARC
  5
1A0
330
2
100
AcDbEntity
  8
4
100
AcDbCircle
 10
533.6332619032369
 20
94.33319624153637
 30
0.0
 40
3.0
100
AcDbArc
 50
253.2275509999992
 51
3.872548000003212
  0
LINE
  5
1A3
330
2
100
AcDbEntity
  8
L-CENTER
 48
4.0
100
AcDbLine
 10
626.4104059032366
 20
48.27036824153674
 30
0.0
 11
626.4104059032366
 21
93.27036824153674
 31
0.0
  0
LINE
  5
1A7
330
2
100
AcDbEntity
  8
L-CENTER
 48
4.0
100
AcDbLine
 10
600.538237698677
 20
83.37427106392067
 30
0.0
 11
589.7827219032374
 21
102.0033722415365
 31
0.0
  0
ARC
  5
1AC
330
2
100
AcDbEntity
  8
4
100
AcDbCircle
 10
514.7993539032364
 20
139.5054802415366
 30
0.0
 40
4.0
100
AcDbArc
 50
6.689787999996348
 51
86.12745500000257
  0
LINE
  5
1AD
330
2
100
AcDbEntity
  8
L-CENTER
 48
4.0
100
AcDbLine
 10
519.0382377303698
 20
224.5364118989763
 30
0.0
 11
508.2827245382724
 21
243.1655122702275
 31
0.0
  0
ARC
  5
1AE
330
2
100
AcDbEntity
  8
4
100
AcDbCircle
 10
514.799309903236
 20
187.0345682415368
 30
0.0
 40
4.0
100
AcDbArc
 50
273.8725479999989
 51
353.3103109999989
  0
LINE
  5
1B2
330
2
100
AcDbEntity
  8
4
100
AcDbLine
 10
509.4006379032367
 20
155.7698122415363
 30
0.0
 11
509.4006379032367
 21
170.7700562415366
 31
0.0
  0
LINE
  5
1B6
330
2
100
AcDbEntity
  8
4
100
AcDbLine
 10
483.4199259032362
 20
155.7700562415366
 30
0.0
 11
483.4199259032362
 21
170.7700562415366
 31
0.0
  0
LINE
  5
1B7
330
2
100
AcDbEntity
  8
L-CENTER
 48
4.0
100
AcDbLine
 10
496.4104059032366
 20
185.3139181861773
 30
0.0
 11
496.4104059032366
 21
141.226194296896
 31
0.0
  0
CIRCLE
  5
1B8
330
2
100
AcDbEntity
  8
4
100
AcDbCircle
 10
496.4104059032366
 20
163.2700562415366
 30
0.0
 40
15.0
  0
LINE
  5
1B9
330
2
100
AcDbEntity
  8
4
100
AcDbLine
 10
485.6761859032363
 20
145.4860322415366
 30
0.0
 11
515.069501903236
 21
143.4963482415365
 31
0.0
  0
LINE
  5
1BA
330
2
100
AcDbEntity
  8
4
100
AcDbLine
 10
483.4199259032362
 20
155.7700562415366
 30
0.0
 11
496.4104059032366
 21
148.2700562415366
 31
0.0
  0
ARC
  5
1BC
330
2
100
AcDbEntity
  8
4
100
AcDbCircle
 10
485.4735779032367
 20
142.4928802415366
 30
0.0
 40
3.0
100
AcDbArc
 50
86.12745499999606
 51
196.7724480000012
  0
LINE
  5
1BD
330
2
100
AcDbEntity
  8
4
100
AcDbLine
 10
496.4104059032366
 20
148.2700562415366
 30
0.0
 11
509.4006379032367
 21
155.7698122415363
 31
0.0
  0
LINE
  5
1BE
330
2
100
AcDbEntity
  8
4
100
AcDbLine
 10
485.6761899032376
 20
181.0540162415368
 30
0.0
 11
515.069461903237
 21
183.0437002415365
 31
0.0
  0
LINE
  5
1BF
330
2
100
AcDbEntity
  8
4
100
AcDbLine
 10
496.4104059032366
 20
178.2700562415366
 30
0.0
 11
483.4199259032362
 21
170.7700562415366
 31
0.0
  0
ARC
  5
1C0
330
2
100
AcDbEntity
  8
4
100
AcDbCircle
 10
485.4735779032367
 20
184.0471682415368
 30
0.0
 40
3.0
100
AcDbArc
 50
163.2275510000015
 51
273.8725480000032
  0
LINE
  5
1C4
330
2
100
AcDbEntity
  8
4
100
AcDbLine
 10
509.4006379032367
 20
170.7700562415366
 30
0.0
 11
496.4104059032366
 21
178.2700562415366
 31
0.0
  0
LINE
  5
1C5
330
2
100
AcDbEntity
  8
4
100
AcDbLine
 10
448.4104059032366
 20
209.2703682415367
 30
0.0
 11
465.0639699032367
 21
209.2703682415367
 31
0.0
  0
LINE
  5
1C6
330
2
100
AcDbEntity
  8
4
100
AcDbLine
 10
406.4104059032366
 20
268.2703682415363
 30
0.0
 11
406.4104059032366
 21
252.6702682415366
 31
0.0
  0
LINE
  5
1C7
330
2
100
AcDbEntity
  8
4
100
AcDbLine
 10
448.4104059032366
 20
297.2703682415363
 30
0.0
 11
448.4104059032366
 21
209.2703682415367
 31
0.0
  0
LINE
  5
1C8
330
2
100
AcDbEntity
  8
4
100
AcDbLine
 10
447.4104059032366
 20
284.2703682415363
 30
0.0
 11
447.4104059032366
 21
222.2703682415367
 31
0.0
  0
LINE
  5
1D1
330
2
100
AcDbEntity
  8
4
100
AcDbLine
 10
447.4104059032366
 20
222.2703682415367
 30
0.0
 11
448.4104059032366
 21
222.2703682415367
 31
0.0
  0
LINE
  5
1D7
330
2
100
AcDbEntity
  8
4
100
AcDbLine
 10
447.4104059032366
 20
252.6705122415365
 30
0.0
 11
437.9104059032366
 21
252.6705122415365
 31
0.0
  0
LINE
  5
1D8
330
2
100
AcDbEntity
  8
4
100
AcDbLine
 10
447.4104059032366
 20
251.6705122415365
 30
0.0
 11
437.9104059032366
 21
251.6705122415365
 31
0.0
  0
LINE
  5
1D9
330
2
100
AcDbEntity
  8
4
100
AcDbLine
 10
447.4104059032366
 20
247.6705122415365
 30
0.0
 11
431.4104059032366
 21
247.6705122415365
 31
0.0
  0
ARC
  5
1DA
330
2
100
AcDbEntity
  8
4
100
AcDbCircle
 10
431.4104059032366
 20
279.2703682415363
 30
0.0
 40
6.0
100
AcDbArc
 50
180.0
 51
270.0
  0
LINE
  5
1DB
330
2
100
AcDbEntity
  8
4
100
AcDbLine
 10
406.4104059032366
 20
268.2703682415363
 30
0.0
 11
447.4104059032366
 21
268.2703682415363
 31
0.0
  0
LINE
  5
1DC
330
2
100
AcDbEntity
  8
4
100
AcDbLine
 10
447.4104059032366
 20
284.2703682415363
 30
0.0
 11
448.4104059032366
 21
284.2703682415363
 31
0.0
  0
ARC
  5
1DD
330
2
100
AcDbEntity
  8
4
100
AcDbCircle
 10
431.4104059032366
 20
279.2703682415363
 30
0.0
 40
6.0
100
AcDbArc
 50
270.0
 51
0.0
  0
LINE
  5
1DE
330
2
100
AcDbEntity
  8
4
100
AcDbLine
 10
431.4104059032366
 20
273.2703682415363
 30
0.0
 11
431.4104059032366
 21
273.2703682415363
 31
0.0
  0
ARC
  5
1DF
330
2
100
AcDbEntity
  8
4
100
AcDbCircle
 10
475.3940459032369
 20
242.2862362415367
 30
0.0
 40
4.999972000000001
100
AcDbArc
 50
101.5370820000027
 51
168.460177000002
  0
LINE
  5
1E2
330
2
100
AcDbEntity
  8
4
100
AcDbLine
 10
572.1943979032371
 20
232.0042402415365
 30
0.0
 11
574.1840819032373
 21
202.6109682415367
 31
0.0
  0
LINE
  5
1E3
330
2
100
AcDbEntity
  8
4
100
AcDbLine
 10
536.626413903236
 20
232.0042402415365
 30
0.0
 11
534.6367259032363
 21
202.6109282415368
 31
0.0
  0
ARC
  5
1E4
330
2
100
AcDbEntity
  8
4
100
AcDbCircle
 10
554.4105779032366
 20
0.2700242415367029
 30
0.0
 40
200.0
100
AcDbArc
 50
80.80785900000001
 51
99.19226399999997
  0
ARC
  5
1E5
330
2
100
AcDbEntity
  8
4
100
AcDbCircle
 10
554.4105779032366
 20
-1.729975758463297
 30
0.0
 40
200.0
100
AcDbArc
 50
81.31667100000003
 51
98.68345
  0
ARC
  5
1E6
330
2
100
AcDbEntity
  8
4
100
AcDbCircle
 10
554.410229903237
 20
326.2700242415367
 30
0.0
 40
200.0
100
AcDbArc
 50
260.807859
 51
279.1922640000001
  0
ARC
  5
1E7
330
2
100
AcDbEntity
  8
4
100
AcDbCircle
 10
554.410229903237
 20
328.2700242415367
 30
0.0
 40
200.0
100
AcDbArc
 50
261.316671
 51
278.6834500000001
  0
ARC
  5
1E8
330
2
100
AcDbEntity
  8
4
100
AcDbCircle
 10
717.4104059032366
 20
163.2702002415367
 30
0.0
 40
200.0
100
AcDbArc
 50
170.807859
 51
189.192264
  0
ARC
  5
1E9
330
2
100
AcDbEntity
  8
4
100
AcDbCircle
 10
719.4104059032366
 20
163.2702002415367
 30
0.0
 40
200.0
100
AcDbArc
 50
171.316671
 51
188.68345
  0
ARC
  5
1EA
330
2
100
AcDbEntity
  8
4
100
AcDbCircle
 10
524.668509903237
 20
133.5280642415369
 30
0.0
 40
3.0
100
AcDbArc
 50
188.6834500000094
 51
261.3166709999992
  0
ARC
  5
1EB
330
2
100
AcDbEntity
  8
4
100
AcDbCircle
 10
522.9403099032374
 20
131.7998602415369
 30
0.0
 40
3.0
100
AcDbArc
 50
189.1922640000075
 51
260.8078589999978
  0
ARC
  5
1EC
330
2
100
AcDbEntity
  8
4
100
AcDbCircle
 10
530.6458619032369
 20
123.6589322415366
 30
0.0
 40
4.0
100
AcDbArc
 50
3.872547999998786
 51
83.3103109999989
  0
ARC
  5
1ED
330
2
100
AcDbEntity
  8
4
100
AcDbCircle
 10
530.6458619032369
 20
202.8810762415364
 30
0.0
 40
4.0
100
AcDbArc
 50
276.6897880000029
 51
356.1274550000026
  0
ARC
  5
1EE
330
2
100
AcDbEntity
  8
4
100
AcDbCircle
 10
524.6684459032372
 20
193.0119202415367
 30
0.0
 40
3.0
100
AcDbArc
 50
98.68345000000087
 51
171.3166710000057
  0
ARC
  5
1EF
330
2
100
AcDbEntity
  8
4
100
AcDbCircle
 10
522.9402419032363
 20
194.7401202415367
 30
0.0
 40
3.0
100
AcDbArc
 50
99.19226399999853
 51
170.8078589999978
  0
ARC
  5
1F0
330
2
100
AcDbEntity
  8
4
100
AcDbCircle
 10
391.4104059032366
 20
163.2698482415367
 30
0.0
 40
200.0
100
AcDbArc
 50
350.8078589999998
 51
9.192263999999954
  0
ARC
  5
1F1
330
2
100
AcDbEntity
  8
4
100
AcDbCircle
 10
389.4104059032366
 20
163.2698482415367
 30
0.0
 40
200.0
100
AcDbArc
 50
351.3166709999998
 51
8.683450000000061
  0
LINE
  5
1F2
330
2
100
AcDbEntity
  8
4
100
AcDbLine
 10
623.1446219032373
 20
145.4860322415366
 30
0.0
 11
593.7513459032366
 21
143.4963482415365
 31
0.0
  0
ARC
  5
1F3
330
2
100
AcDbEntity
  8
4
100
AcDbCircle
 10
594.0214979032376
 20
139.5054802415366
 30
0.0
 40
4.0
100
AcDbArc
 50
93.87254799999884
 51
173.310310999999
  0
ARC
  5
1F4
330
2
100
AcDbEntity
  8
4
100
AcDbCircle
 10
585.8805659032373
 20
131.7999282415367
 30
0.0
 40
3.0
100
AcDbArc
 50
279.1922639999985
 51
350.8078589999979
  0
ARC
  5
1F5
330
2
100
AcDbEntity
  8
4
100
AcDbCircle
 10
584.1523619032364
 20
133.5281282415367
 30
0.0
 40
3.0
100
AcDbArc
 50
278.6834500000005
 51
351.3166709999972
  0
ARC
  5
1F6
330
2
100
AcDbEntity
  8
4
100
AcDbCircle
 10
578.1749499032362
 20
123.6589722415365
 30
0.0
 40
4.0
100
AcDbArc
 50
96.68978800000286
 51
176.1274549999961
  0
ARC
  5
1F7
330
2
100
AcDbEntity
  8
4
100
AcDbCircle
 10
623.3472339032364
 20
142.4928802415366
 30
0.0
 40
3.0
100
AcDbArc
 50
343.2275510000019
 51
93.87254800000318
  0
LINE
  5
1F8
330
2
100
AcDbEntity
  8
4
100
AcDbLine
 10
623.1446219032373
 20
181.0540162415368
 30
0.0
 11
593.7513059032376
 21
183.0437002415365
 31
0.0
  0
ARC
  5
1F9
330
2
100
AcDbEntity
  8
4
100
AcDbCircle
 10
594.0214539032372
 20
187.0345682415368
 30
0.0
 40
4.0
100
AcDbArc
 50
186.6897880000028
 51
266.1274550000026
  0
ARC
  5
1FA
330
2
100
AcDbEntity
  8
4
100
AcDbCircle
 10
578.1749459032367
 20
202.8811162415363
 30
0.0
 40
4.0
100
AcDbArc
 50
183.8725479999988
 51
263.3103109999989
  0
ARC
  5
1FB
330
2
100
AcDbEntity
  8
4
100
AcDbCircle
 10
585.8804979032361
 20
194.7401882415365
 30
0.0
 40
3.0
100
AcDbArc
 50
9.19226399999852
 51
80.80785899999783
  0
ARC
  5
1FC
330
2
100
AcDbEntity
  8
4
100
AcDbCircle
 10
584.1522979032366
 20
193.0119802415365
 30
0.0
 40
3.0
100
AcDbArc
 50
8.683450000000905
 51
81.3166709999971
  0
ARC
  5
1FD
330
2
100
AcDbEntity
  8
4
100
AcDbCircle
 10
623.3472339032364
 20
184.0471642415364
 30
0.0
 40
3.0
100
AcDbArc
 50
266.1274549999961
 51
16.77244800000149
  0
ARC
  5
1FE
330
2
100
AcDbEntity
  8
4
100
AcDbCircle
 10
575.1875459032367
 20
232.2068522415366
 30
0.0
 40
3.0
100
AcDbArc
 50
73.22755100000187
 51
183.8725480000032
  0
ARC
  5
1FF
330
2
100
AcDbEntity
  8
4
100
AcDbCircle
 10
533.6332619032369
 20
232.2068522415366
 30
0.0
 40
3.0
100
AcDbArc
 50
356.127454999996
 51
106.7724480000015
  0
LINE
  5
202
330
2
100
AcDbEntity
  8
L-CENTER
 48
4.0
100
AcDbLine
 10
589.7825710761016
 20
224.5364136310238
 30
0.0
 11
600.538084268199
 21
243.1655140022749
 31
0.0
  0
LINE
  5
214
330
2
100
AcDbEntity
  8
4
100
AcDbLine
 10
408.4104059032366
 20
358.2703682415363
 30
0.0
 11
454.4104059032366
 21
358.2703682415363
 31
0.0
  0
LINE
  5
216
330
2
100
AcDbEntity
  8
4
100
AcDbLine
 10
407.4104059032366
 20
357.2703682415363
 30
0.0
 11
425.4104059032366
 21
357.2703682415363
 31
0.0
  0
LINE
  5
217
330
2
100
AcDbEntity
  8
4
100
AcDbLine
 10
408.4104059032366
 20
358.2703682415363
 30
0.0
 11
407.4104059032366
 21
357.2703682415363
 31
0.0
  0
LINE
  5
218
330
2
100
AcDbEntity
  8
4
100
AcDbLine
 10
437.4104059032366
 20
357.2703682415363
 30
0.0
 11
455.4104059032366
 21
357.2703682415363
 31
0.0
  0
LINE
  5
219
330
2
100
AcDbEntity
  8
4
100
AcDbLine
 10
454.4104059032366
 20
358.2703682415363
 30
0.0
 11
455.4104059032366
 21
357.2703682415363
 31
0.0
  0
LINE
  5
22B
330
2
100
AcDbEntity
  8
L-CENTER
 48
4.0
100
AcDbLine
 10
1104.692605400321
 20
201.9202490631651
 30
0.0
 11
1104.69250397312
 21
304.6204874199076
 31
0.0
  0
ARC
  5
22C
330
2
100
AcDbEntity
  8
4
100
AcDbCircle
 10
246.4106499032373
 20
163.2696042415369
 30
0.0
 40
400.00004
100
AcDbArc
 50
348.4610069999999
 51
11.53938400000002
  0
LINE
  5
22F
330
2
100
AcDbEntity
  8
4
100
AcDbLine
 10
651.4104059032366
 20
58.27033624153637
 30
0.0
 11
651.4104059032366
 21
81.27033624153637
 31
0.0
  0
LINE
  5
230
330
2
100
AcDbEntity
  8
4
100
AcDbLine
 10
651.4104059032366
 20
58.27036824153674
 30
0.0
 11
651.4104059032366
 21
81.27036824153674
 31
0.0
  0
LINE
  5
231
330
2
100
AcDbEntity
  8
4
100
AcDbLine
 10
638.3291059032367
 20
83.27033624153637
 30
0.0
 11
649.4104059032366
 21
83.27033624153637
 31
0.0
  0
ARC
  5
232
330
2
100
AcDbEntity
  8
4
100
AcDbCircle
 10
633.4267619032366
 20
84.25398024153674
 30
0.0
 40
4.999996
100
AcDbArc
 50
281.5398230000013
 51
348.4601789999963
  0
ARC
  5
233
330
2
100
AcDbEntity
  8
4
100
AcDbCircle
 10
649.4104059032366
 20
81.27033624153637
 30
0.0
 40
2.0
100
AcDbArc
 50
0.0
 51
90.0
  0
ARC
  5
234
330
2
100
AcDbEntity
  8
4
100
AcDbCircle
 10
649.4104059032366
 20
81.27036824153674
 30
0.0
 40
2.0
100
AcDbArc
 50
0.0
 51
90.0
  0
LINE
  5
23C
330
2
100
AcDbEntity
  8
4
100
AcDbLine
 10
733.4104059032366
 20
240.7703682415363
 30
0.0
 11
674.4104059032366
 21
240.7703682415363
 31
0.0
  0
LINE
  5
23D
330
2
100
AcDbEntity
  8
4
100
AcDbLine
 10
733.4104059032366
 20
265.7703682415363
 30
0.0
 11
674.4104059032366
 21
265.7703682415363
 31
0.0
  0
LINE
  5
23E
330
2
100
AcDbEntity
  8
4
100
AcDbLine
 10
734.4104059032366
 20
268.7703682415363
 30
0.0
 11
679.4104059032366
 21
268.7703682415363
 31
0.0
  0
LINE
  5
23F
330
2
100
AcDbEntity
  8
4
100
AcDbLine
 10
674.4104059032366
 20
268.2703682415363
 30
0.0
 11
674.4104059032366
 21
238.2703682415363
 31
0.0
  0
LINE
  5
240
330
2
100
AcDbEntity
  8
4
100
AcDbLine
 10
660.4104059032366
 20
209.2703682415367
 30
0.0
 11
660.4104059032366
 21
297.2703682415363
 31
0.0
  0
LINE
  5
241
330
2
100
AcDbEntity
  8
4
100
AcDbLine
 10
661.4104059032366
 20
222.2703682415367
 30
0.0
 11
661.4104059032366
 21
284.2703682415363
 31
0.0
  0
LINE
  5
242
330
2
100
AcDbEntity
  8
4
100
AcDbLine
 10
643.7568379032368
 20
209.2703682415367
 30
0.0
 11
660.4104059032366
 21
209.2703682415367
 31
0.0
  0
ARC
  5
243
330
2
100
AcDbEntity
  8
4
100
AcDbCircle
 10
633.4267619032366
 20
242.2862362415367
 30
0.0
 40
4.999972000000001
100
AcDbArc
 50
11.53982100000145
 51
78.46291799999861
  0
LINE
  5
244
330
2
100
AcDbEntity
  8
4
100
AcDbLine
 10
661.4104059032366
 20
222.2703682415367
 30
0.0
 11
660.4104059032366
 21
222.2703682415367
 31
0.0
  0
LINE
  5
245
330
2
100
AcDbEntity
  8
4
100
AcDbLine
 10
674.4104059032366
 20
238.2703682415363
 30
0.0
 11
661.4104059032366
 21
238.2703682415363
 31
0.0
  0
LINE
  5
246
330
2
100
AcDbEntity
  8
4
100
AcDbLine
 10
661.4104059032366
 20
284.2703682415363
 30
0.0
 11
660.4104059032366
 21
284.2703682415363
 31
0.0
  0
LINE
  5
247
330
2
100
AcDbEntity
  8
4
100
AcDbLine
 10
674.4104059032366
 20
268.2703682415363
 30
0.0
 11
661.4104059032366
 21
268.2703682415363
 31
0.0
  0
LINE
  5
248
330
2
100
AcDbEntity
  8
4
100
AcDbLine
 10
679.4104059032366
 20
268.7703682415363
 30
0.0
 11
679.4104059032366
 21
265.7703682415363
 31
0.0
  0
LINE
  5
249
330
2
100
AcDbEntity
  8
4
100
AcDbLine
 10
733.4104059032366
 20
265.7703682415363
 30
0.0
 11
733.4104059032366
 21
240.7703682415363
 31
0.0
  0
LINE
  5
24A
330
2
100
AcDbEntity
  8
4
100
AcDbLine
 10
734.4104059032366
 20
268.7703682415363
 30
0.0
 11
734.4104059032366
 21
241.7703682415363
 31
0.0
  0
LINE
  5
24B
330
2
100
AcDbEntity
  8
4
100
AcDbLine
 10
733.4104059032366
 20
240.7703682415363
 30
0.0
 11
734.4104059032366
 21
241.7703682415363
 31
0.0
  0
LINE
  5
24C
330
2
100
AcDbEntity
  8
4
100
AcDbLine
 10
734.4104059032366
 20
264.7703682415363
 30
0.0
 11
733.4104059032366
 21
265.7703682415363
 31
0.0
  0
LINE
  5
250
330
2
100
AcDbEntity
  8
4
100
AcDbLine
 10
1040.692793100504
 20
126.2701682415368
 30
0.0
 11
1044.692817100505
 21
106.0035042415366
 31
0.0
  0
LINE
  5
252
330
2
100
AcDbEntity
  8
4
100
AcDbLine
 10
1056.692745100504
 20
72.27036824153674
 30
0.0
 11
1056.692501100506
 21
254.2703682415363
 31
0.0
  0
LINE
  5
253
330
2
100
AcDbEntity
  8
4
100
AcDbLine
 10
1058.692745100504
 20
69.27036824153674
 30
0.0
 11
1058.692501100506
 21
257.2703682415363
 31
0.0
  0
LINE
  5
254
330
2
100
AcDbEntity
  8
4
100
AcDbLine
 10
1044.692861100506
 20
75.2701682415368
 30
0.0
 11
1044.692625100504
 21
251.2701682415368
 31
0.0
  0
LINE
  5
255
330
2
100
AcDbEntity
  8
4
100
AcDbLine
 10
1148.692745100504
 20
69.27036824153674
 30
0.0
 11
1148.692501100506
 21
253.2703682415363
 31
0.0
  0
LINE
  5
256
330
2
100
AcDbEntity
  8
4
100
AcDbLine
 10
1060.692745100504
 20
69.27036824153674
 30
0.0
 11
1060.692501100506
 21
269.2703682415363
 31
0.0
  0
LINE
  5
258
330
2
100
AcDbEntity
  8
4
100
AcDbLine
 10
1058.692745100504
 20
72.27036824153674
 30
0.0
 11
1056.692745100504
 21
72.27036824153674
 31
0.0
  0
LINE
  5
259
330
2
100
AcDbEntity
  8
4
100
AcDbLine
 10
1044.692861100506
 20
75.2701682415368
 30
0.0
 11
1056.692861100506
 21
75.27017624153677
 31
0.0
  0
LINE
  5
25A
330
2
100
AcDbEntity
  8
4
100
AcDbLine
 10
1060.692745100504
 20
69.27036824153674
 30
0.0
 11
1058.692745100504
 21
69.27036824153674
 31
0.0
  0
LINE
  5
25B
330
2
100
AcDbEntity
  8
4
100
AcDbLine
 10
1030.692789100505
 20
128.2701602415368
 30
0.0
 11
1040.692793100504
 21
126.2701682415368
 31
0.0
  0
LINE
  5
25E
330
2
100
AcDbEntity
  8
4
100
AcDbLine
 10
1030.692697100505
 20
198.2701602415368
 30
0.0
 11
1040.692693100505
 21
200.2701682415368
 31
0.0
  0
LINE
  5
260
330
2
100
AcDbEntity
  8
4
100
AcDbLine
 10
1030.692865100505
 20
128.2701482415364
 30
0.0
 11
1030.692865100505
 21
198.2701962415367
 31
0.0
  0
LINE
  5
263
330
2
100
AcDbEntity
  8
4
100
AcDbLine
 10
1044.692665100505
 20
220.5368362415365
 30
0.0
 11
1040.692693100505
 21
200.2701682415368
 31
0.0
  0
LINE
  5
264
330
2
100
AcDbEntity
  8
4
100
AcDbLine
 10
1040.692793100504
 20
126.2701682415368
 30
0.0
 11
1040.692749857499
 21
158.2699924872149
 31
0.0
  0
ARC
  5
265
330
2
100
AcDbEntity
  8
4
100
AcDbCircle
 10
1104.692501100506
 20
47.27061224153658
 30
0.0
 40
249.999944
100
AcDbArc
 50
81.13819199999982
 51
98.86220299999984
  0
ARC
  5
266
330
2
100
AcDbEntity
  8
4
100
AcDbCircle
 10
1104.692257100505
 20
459.2701242415365
 30
0.0
 40
250.000032
100
AcDbArc
 50
261.1387070000001
 51
278.8622590000002
  0
ARC
  5
267
330
2
100
AcDbEntity
  8
4
100
AcDbCircle
 10
1104.692745100504
 20
253.2703682415363
 30
0.0
 40
12.5
100
AcDbArc
 50
106.2611539999962
 51
73.74074499999844
  0
ARC
  5
269
330
2
100
AcDbEntity
  8
4
100
AcDbCircle
 10
1310.692501100506
 20
253.2706122415366
 30
0.0
 40
250.000044
100
AcDbArc
 50
171.138367
 51
188.8623139999999
  0
ARC
  5
26A
330
2
100
AcDbEntity
  8
4
100
AcDbCircle
 10
1066.641233100504
 20
215.2186082415365
 30
0.0
 40
2.999924
100
AcDbArc
 50
188.8620839999993
 51
261.137916000018
  0
LINE
  5
26B
330
2
100
AcDbEntity
  8
4
100
AcDbLine
 10
1058.692501100506
 20
254.2703682415363
 30
0.0
 11
1056.692501100506
 21
254.2703682415363
 31
0.0
  0
LINE
  5
26C
330
2
100
AcDbEntity
  8
4
100
AcDbLine
 10
1044.692625100504
 20
251.2701682415368
 30
0.0
 11
1056.692625100504
 21
251.2701762415368
 31
0.0
  0
ARC
  5
26D
330
2
100
AcDbEntity
  8
4
100
AcDbCircle
 10
1066.641233100504
 20
291.3221242415366
 30
0.0
 40
2.999924
100
AcDbArc
 50
98.86208399998198
 51
171.1379160000007
  0
LINE
  5
26E
330
2
100
AcDbEntity
  8
4
100
AcDbLine
 10
1058.692501100506
 20
257.2703682415363
 30
0.0
 11
1060.692501100506
 21
257.2703682415363
 31
0.0
  0
ARC
  5
26F
330
2
100
AcDbEntity
  8
4
100
AcDbCircle
 10
898.692501100506
 20
253.2703682415363
 30
0.0
 40
250.000088
100
AcDbArc
 50
351.138311
 51
8.862029000000108
  0
ARC
  5
270
330
2
100
AcDbEntity
  8
4
100
AcDbCircle
 10
1142.743773100504
 20
215.2188522415368
 30
0.0
 40
2.999924
100
AcDbArc
 50
278.8621030000169
 51
351.1379179999968
  0
LINE
  5
271
330
2
100
AcDbEntity
  8
4
100
AcDbLine
 10
1101.192541100505
 20
268.7703682415363
 30
0.0
 11
1108.192541100505
 21
268.7703682415363
 31
0.0
  0
LINE
  5
272
330
2
100
AcDbEntity
  8
4
100
AcDbLine
 10
1101.192549100505
 20
261.7703682415363
 30
0.0
 11
1108.192549100505
 21
261.7703682415363
 31
0.0
  0
LINE
  5
273
330
2
100
AcDbEntity
  8
4
100
AcDbLine
 10
1101.192549100505
 20
261.7703682415363
 30
0.0
 11
1101.192541100505
 21
268.7703682415363
 31
0.0
  0
LINE
  5
274
330
2
100
AcDbEntity
  8
4
100
AcDbLine
 10
1108.192549100505
 20
261.7703682415363
 30
0.0
 11
1108.192541100505
 21
268.7703682415363
 31
0.0
  0
ARC
  5
275
330
2
100
AcDbEntity
  8
4
100
AcDbCircle
 10
1142.743773100504
 20
291.3218802415363
 30
0.0
 40
2.999924
100
AcDbArc
 50
8.862082000002657
 51
81.13789699998306
  0
LINE
  5
2B5
330
2
100
AcDbEntity
  8
4
100
AcDbLine
 10
1267.192805100505
 20
358.2703682415363
 30
0.0
 11
1267.192805100505
 21
273.2703682415363
 31
0.0
  0
LINE
  5
2B7
330
2
100
AcDbEntity
  8
4
100
AcDbLine
 10
1270.692805100505
 20
357.2703682415363
 30
0.0
 11
1270.692805100505
 21
268.2703682415363
 31
0.0
  0
LINE
  5
2B8
330
2
100
AcDbEntity
  8
4
100
AcDbLine
 10
1318.692805100505
 20
357.2703682415363
 30
0.0
 11
1318.692805100505
 21
268.2703682415363
 31
0.0
  0
LINE
  5
2B9
330
2
100
AcDbEntity
  8
L-CENTER
 48
4.0
100
AcDbLine
 10
1294.692717100504
 20
363.4106655335544
 30
0.0
 11
1294.692745100504
 21
57.91197267356506
 31
0.0
  0
LINE
  5
2BE
330
2
100
AcDbEntity
  8
4
100
AcDbLine
 10
1164.692501100506
 20
234.2703682415363
 30
0.0
 11
1424.692501100506
 21
234.2706122415366
 31
0.0
  0
LINE
  5
2BF
330
2
100
AcDbEntity
  8
4
100
AcDbLine
 10
1423.692501100506
 20
247.6705122415365
 30
0.0
 11
1294.692501100506
 21
247.6705122415365
 31
0.0
  0
LINE
  5
2C0
330
2
100
AcDbEntity
  8
4
100
AcDbLine
 10
1359.692745100504
 20
58.27061224153658
 30
0.0
 11
1429.692745100504
 21
58.27061224153658
 31
0.0
  0
LINE
  5
2C1
330
2
100
AcDbEntity
  8
4
100
AcDbLine
 10
1362.692745100504
 20
83.27061224153658
 30
0.0
 11
1426.692745100504
 21
83.27061224153658
 31
0.0
  0
LINE
  5
2C2
330
2
100
AcDbEntity
  8
4
100
AcDbLine
 10
1416.692501100506
 20
111.2706122415366
 30
0.0
 11
1370.692501100506
 21
111.2706122415366
 31
0.0
  0
LINE
  5
2C3
330
2
100
AcDbEntity
  8
4
100
AcDbLine
 10
1321.692501100506
 20
229.1056122415366
 30
0.0
 11
1419.192735077878
 21
229.1056122415366
 31
0.0
  0
LINE
  5
2C4
330
2
100
AcDbEntity
  8
4
100
AcDbLine
 10
1321.692501100506
 20
223.2706122415366
 30
0.0
 11
1419.192735077878
 21
223.2706122415366
 31
0.0
  0
ARC
  5
2C5
330
2
100
AcDbEntity
  8
4
100
AcDbCircle
 10
1370.692501100506
 20
108.2706122415366
 30
0.0
 40
3.0
100
AcDbArc
 50
90.0
 51
180.0
  0
ARC
  5
2C6
330
2
100
AcDbEntity
  8
4
100
AcDbCircle
 10
1356.692501100506
 20
108.2706122415366
 30
0.0
 40
3.0
100
AcDbArc
 50
0.0
 51
90.0
  0
LINE
  5
2C7
330
2
100
AcDbEntity
  8
4
100
AcDbLine
 10
1367.692501100506
 20
137.2706122415366
 30
0.0
 11
1367.692745100504
 21
86.27061224153658
 31
0.0
  0
ARC
  5
2C8
330
2
100
AcDbEntity
  8
4
100
AcDbCircle
 10
1218.692501100506
 20
108.2703682415367
 30
0.0
 40
3.0
100
AcDbArc
 50
0.0
 51
90.0
  0
ARC
  5
2C9
330
2
100
AcDbEntity
  8
4
100
AcDbCircle
 10
1232.692501100506
 20
108.2703682415367
 30
0.0
 40
3.0
100
AcDbArc
 50
90.0
 51
180.0
  0
LINE
  5
2CA
330
2
100
AcDbEntity
  8
4
100
AcDbLine
 10
1221.692501100506
 20
137.2703682415367
 30
0.0
 11
1221.692745100504
 21
86.27036824153674
 31
0.0
  0
LINE
  5
2CB
330
2
100
AcDbEntity
  8
4
100
AcDbLine
 10
1229.692501100506
 20
137.2703682415367
 30
0.0
 11
1229.692745100504
 21
58.27036824153674
 31
0.0
  0
LINE
  5
2CC
330
2
100
AcDbEntity
  8
4
100
AcDbLine
 10
1359.692501100506
 20
137.2706122415366
 30
0.0
 11
1359.692745100504
 21
58.27061224153658
 31
0.0
  0
LINE
  5
2CD
330
2
100
AcDbEntity
  8
4
100
AcDbLine
 10
1244.692745100504
 20
65.27036824153674
 30
0.0
 11
1344.692745100504
 21
65.27061224153658
 31
0.0
  0
LINE
  5
2CE
330
2
100
AcDbEntity
  8
4
100
AcDbLine
 10
1232.692745100504
 20
68.27036824153674
 30
0.0
 11
1356.692745100504
 21
68.27061224153658
 31
0.0
  0
LINE
  5
2D3
330
2
100
AcDbEntity
  8
4
100
AcDbLine
 10
1162.692745100504
 20
83.27036824153674
 30
0.0
 11
1226.692745100504
 21
83.27036824153674
 31
0.0
  0
LINE
  5
2D4
330
2
100
AcDbEntity
  8
4
100
AcDbLine
 10
1159.692745100504
 20
58.27036824153674
 30
0.0
 11
1229.692745100504
 21
58.27036824153674
 31
0.0
  0
LINE
  5
2D5
330
2
100
AcDbEntity
  8
4
100
AcDbLine
 10
1159.692745100504
 20
80.27036824153674
 30
0.0
 11
1159.692745100504
 21
58.27036824153674
 31
0.0
  0
LINE
  5
2D6
330
2
100
AcDbEntity
  8
L-CENTER
 48
4.0
100
AcDbLine
 10
1189.692745100504
 20
48.27036824153674
 30
0.0
 11
1189.692745100504
 21
93.27036824153674
 31
0.0
  0
ARC
  5
2D7
330
2
100
AcDbEntity
  8
4
100
AcDbCircle
 10
1162.692745100504
 20
80.27036824153674
 30
0.0
 40
3.0
100
AcDbArc
 50
90.0
 51
180.0
  0
ARC
  5
2D8
330
2
100
AcDbEntity
  8
4
100
AcDbCircle
 10
1226.692745100504
 20
80.27036824153674
 30
0.0
 40
3.0
100
AcDbArc
 50
0.0
 51
90.0
  0
ARC
  5
2D9
330
2
100
AcDbEntity
  8
4
100
AcDbCircle
 10
1218.692745100504
 20
86.27036824153674
 30
0.0
 40
3.0
100
AcDbArc
 50
270.0
 51
0.0
  0
ARC
  5
2DA
330
2
100
AcDbEntity
  8
4
100
AcDbCircle
 10
1232.692745100504
 20
65.27036824153674
 30
0.0
 40
3.0
100
AcDbArc
 50
90.0
 51
180.0
  0
LINE
  5
2DB
330
2
100
AcDbEntity
  8
4
100
AcDbLine
 10
1244.692745100504
 20
68.27036824153674
 30
0.0
 11
1244.692745100504
 21
65.27036824153674
 31
0.0
  0
LINE
  5
2DE
330
2
100
AcDbEntity
  8
4
100
AcDbLine
 10
1344.692745100504
 20
68.27061224153658
 30
0.0
 11
1344.692745100504
 21
65.27061224153658
 31
0.0
  0
ARC
  5
2DF
330
2
100
AcDbEntity
  8
4
100
AcDbCircle
 10
1370.692745100504
 20
86.27061224153658
 30
0.0
 40
3.0
100
AcDbArc
 50
180.0
 51
270.0
  0
ARC
  5
2E0
330
2
100
AcDbEntity
  8
4
100
AcDbCircle
 10
1362.692745100504
 20
80.27061224153658
 30
0.0
 40
3.0
100
AcDbArc
 50
90.0
 51
180.0
  0
ARC
  5
2E1
330
2
100
AcDbEntity
  8
4
100
AcDbCircle
 10
1356.692745100504
 20
65.27061224153658
 30
0.0
 40
3.0
100
AcDbArc
 50
0.0
 51
90.0
  0
LINE
  5
2E3
330
2
100
AcDbEntity
  8
4
100
AcDbLine
 10
1330.692501100506
 20
252.6705122415365
 30
0.0
 11
1258.692501100506
 21
252.6702682415366
 31
0.0
  0
LINE
  5
2E4
330
2
100
AcDbEntity
  8
4
100
AcDbLine
 10
1232.692501100506
 20
111.2703682415367
 30
0.0
 11
1356.692501100506
 21
111.2706122415366
 31
0.0
  0
LINE
  5
2E5
330
2
100
AcDbEntity
  8
4
100
AcDbLine
 10
1165.692501100506
 20
247.6702682415366
 30
0.0
 11
1294.692501100506
 21
247.6705122415365
 31
0.0
  0
LINE
  5
2E6
330
2
100
AcDbEntity
  8
4
100
AcDbLine
 10
1294.692501100506
 20
251.6705122415365
 30
0.0
 11
1244.692501100506
 21
251.6702682415366
 31
0.0
  0
LINE
  5
2E7
330
2
100
AcDbEntity
  8
4
100
AcDbLine
 10
1218.692501100506
 20
111.2703682415367
 30
0.0
 11
1151.692501100506
 21
111.2703682415367
 31
0.0
  0
ARC
  5
2EE
330
2
100
AcDbEntity
  8
4
100
AcDbCircle
 10
1165.692501100506
 20
246.6702682415366
 30
0.0
 40
1.0
100
AcDbArc
 50
90.0
 51
180.0
  0
LINE
  5
2F1
330
2
100
AcDbEntity
  8
4
100
AcDbLine
 10
1164.692501100506
 20
246.6702682415366
 30
0.0
 11
1164.692501100506
 21
229.1053682415368
 31
0.0
  0
LINE
  5
300
330
2
100
AcDbEntity
  8
4
100
AcDbLine
 10
1242.192501100506
 20
247.6702682415366
 30
0.0
 11
1244.692501100506
 21
251.6702682415366
 31
0.0
  0
LINE
  5
305
330
2
100
AcDbEntity
  8
4
100
AcDbLine
 10
1258.692501100506
 20
252.6702682415366
 30
0.0
 11
1258.692501100506
 21
251.6702682415366
 31
0.0
  0
LINE
  5
307
330
2
100
AcDbEntity
  8
4
100
AcDbLine
 10
1270.692501100506
 20
191.2703682415367
 30
0.0
 11
1270.692501100506
 21
234.2703682415363
 31
0.0
  0
LINE
  5
308
330
2
100
AcDbEntity
  8
4
100
AcDbLine
 10
1318.692501100506
 20
191.2706122415366
 30
0.0
 11
1318.692501100506
 21
234.2706122415366
 31
0.0
  0
LINE
  5
309
330
2
100
AcDbEntity
  8
4
100
AcDbLine
 10
1294.692501100506
 20
251.6705122415365
 30
0.0
 11
1344.692501100506
 21
251.6705122415365
 31
0.0
  0
ARC
  5
30A
330
2
100
AcDbEntity
  8
4
100
AcDbCircle
 10
1321.692501100506
 20
232.1056122415366
 30
0.0
 40
3.0
100
AcDbArc
 50
180.0
 51
270.0
  0
ARC
  5
30B
330
2
100
AcDbEntity
  8
4
100
AcDbCircle
 10
1321.692501100506
 20
226.2706122415366
 30
0.0
 40
3.0
100
AcDbArc
 50
180.0
 51
270.0
  0
LINE
  5
30C
330
2
100
AcDbEntity
  8
4
100
AcDbLine
 10
1319.692629100505
 20
268.2703682415363
 30
0.0
 11
1319.692629100505
 21
252.6702682415366
 31
0.0
  0
LINE
  5
30D
330
2
100
AcDbEntity
  8
4
100
AcDbLine
 10
1269.692805100505
 20
268.2703682415363
 30
0.0
 11
1269.692805100505
 21
252.6702682415366
 31
0.0
  0
LINE
  5
30E
330
2
100
AcDbEntity
  8
4
100
AcDbLine
 10
1277.692501100506
 20
243.7703682415363
 30
0.0
 11
1311.692501100506
 21
243.7706122415366
 31
0.0
  0
LINE
  5
30F
330
2
100
AcDbEntity
  8
4
100
AcDbLine
 10
1278.692501100506
 20
234.2703682415363
 30
0.0
 11
1310.692501100506
 21
234.2706122415366
 31
0.0
  0
LINE
  5
310
330
2
100
AcDbEntity
  8
4
100
AcDbLine
 10
1277.692501100506
 20
236.7703682415363
 30
0.0
 11
1311.692501100506
 21
236.7706122415366
 31
0.0
  0
LINE
  5
311
330
2
100
AcDbEntity
  8
4
100
AcDbLine
 10
1277.692501100506
 20
239.7703682415363
 30
0.0
 11
1311.692501100506
 21
239.7706122415366
 31
0.0
  0
LINE
  5
312
330
2
100
AcDbEntity
  8
4
100
AcDbLine
 10
1278.692501100506
 20
234.2703682415363
 30
0.0
 11
1278.692501100506
 21
236.7703682415363
 31
0.0
  0
ARC
  5
313
330
2
100
AcDbEntity
  8
4
100
AcDbCircle
 10
1267.692501100506
 20
232.1053682415368
 30
0.0
 40
3.0
100
AcDbArc
 50
270.0
 51
0.0
  0
ARC
  5
314
330
2
100
AcDbEntity
  8
4
100
AcDbCircle
 10
1267.692501100506
 20
226.2703682415367
 30
0.0
 40
3.0
100
AcDbArc
 50
270.0
 51
0.0
  0
LINE
  5
315
330
2
100
AcDbEntity
  8
4
100
AcDbLine
 10
1277.692501100506
 20
236.7703682415363
 30
0.0
 11
1277.692501100506
 21
243.7703682415363
 31
0.0
  0
LINE
  5
316
330
2
100
AcDbEntity
  8
4
100
AcDbLine
 10
1286.192501100506
 20
239.7703682415363
 30
0.0
 11
1286.192501100506
 21
243.7703682415363
 31
0.0
  0
LINE
  5
317
330
2
100
AcDbEntity
  8
4
100
AcDbLine
 10
1310.692501100506
 20
234.2706122415366
 30
0.0
 11
1310.692501100506
 21
236.7706122415366
 31
0.0
  0
LINE
  5
318
330
2
100
AcDbEntity
  8
4
100
AcDbLine
 10
1303.192501100506
 20
239.7706122415366
 30
0.0
 11
1303.192501100506
 21
243.7706122415366
 31
0.0
  0
LINE
  5
319
330
2
100
AcDbEntity
  8
4
100
AcDbLine
 10
1311.692501100506
 20
243.7706122415366
 30
0.0
 11
1311.692501100506
 21
236.7706122415366
 31
0.0
  0
LINE
  5
31A
330
2
100
AcDbEntity
  8
4
100
AcDbLine
 10
1269.692805100505
 20
268.2703682415363
 30
0.0
 11
1319.692629100505
 21
268.2703682415363
 31
0.0
  0
LINE
  5
31B
330
2
100
AcDbEntity
  8
4
100
AcDbLine
 10
1267.192805100505
 20
273.2703682415363
 30
0.0
 11
1270.692805100505
 21
273.2703682415363
 31
0.0
  0
LINE
  5
321
330
2
100
AcDbEntity
  8
4
100
AcDbLine
 10
1330.692501100506
 20
252.6705122415365
 30
0.0
 11
1330.692501100506
 21
251.6705122415365
 31
0.0
  0
LINE
  5
322
330
2
100
AcDbEntity
  8
4
100
AcDbLine
 10
1347.192501100506
 20
247.6705122415365
 30
0.0
 11
1344.692501100506
 21
251.6705122415365
 31
0.0
  0
LINE
  5
32E
330
2
100
AcDbEntity
  8
4
100
AcDbLine
 10
1424.692501100506
 20
246.6705122415365
 30
0.0
 11
1424.692745100504
 21
83.27061224153658
 31
0.0
  0
TEXT
  5
333
330
2
100
AcDbEntity
  8
3
100
AcDbText
 10
793.9579184565849
 20
62.27723526882028
 30
0.0
 40
12.0
  1
LEC4-00
  7
KANJI
 72
     1
 11
831.9579184565849
 21
62.27723526882028
 31
0.0
100
AcDbText
  0
LINE
  5
33C
330
2
100
AcDbEntity
  8
4
100
AcDbLine
 10
1429.692745100504
 20
80.27061224153658
 30
0.0
 11
1429.692745100504
 21
58.27061224153658
 31
0.0
  0
LINE
  5
33D
330
2
100
AcDbEntity
  8
4
100
AcDbLine
 10
1390.692745100504
 20
58.27061224153658
 30
0.0
 11
1390.692745100504
 21
83.27061224153658
 31
0.0
  0
LINE
  5
33E
330
2
100
AcDbEntity
  8
4
100
AcDbLine
 10
1408.692745100504
 20
58.27061224153658
 30
0.0
 11
1408.692745100504
 21
83.27061224153658
 31
0.0
  0
LINE
  5
33F
330
2
100
AcDbEntity
  8
L-CENTER
 48
4.0
100
AcDbLine
 10
1399.692745100504
 20
48.27036824153674
 30
0.0
 11
1399.692745100504
 21
93.27036824153674
 31
0.0
  0
LWPOLYLINE
  5
340
330
2
100
AcDbEntity
  8
4
100
AcDbPolyline
 90
       29
 70
     0
 43
0.0
 10
1378.136605100506
 20
83.27061224153658
 10
1378.656909100505
 20
82.80152824153674
 10
1379.156209100505
 20
82.33017624153672
 10
1379.622669100504
 20
81.85528024153655
 10
1380.706529100505
 20
80.39653224153653
 10
1380.923165100504
 20
79.89467224153668
 10
1381.047737100505
 20
79.38287624153645
 10
1381.068397100505
 20
78.85986024153635
 10
1380.952033100506
 20
78.23103224153647
 10
1380.704545100505
 20
77.58920824153665
 10
1380.354265100504
 20
76.93860024153673
 10
1378.969953100504
 20
74.97617624153645
 10
1377.680337100504
 20
73.08632424153666
 10
1377.403709100504
 20
72.49215624153658
 10
1377.250913100504
 20
71.92290024153635
 10
1377.250285100504
 20
71.38277224153671
 10
1377.499737100504
 20
70.7330002415365
 10
1377.990561100505
 20
70.12561624153659
 10
1378.664549100505
 20
69.54768024153645
 10
1381.203493100505
 20
67.86114824153674
 10
1382.028133100504
 20
67.27159624153637
 10
1382.744933100504
 20
66.64678424153635
 10
1383.295693100504
 20
65.9737762415366
 10
1383.722953100505
 20
64.89710024153646
 10
1383.758069100506
 20
63.71350424153661
 10
1383.479473100505
 20
62.44438024153669
 10
1382.965593100505
 20
61.1111042415364
 10
1382.294857100505
 20
59.73506024153676
 10
1381.545693100504
 20
58.33763624153653
  0
ARC
  5
362
330
2
100
AcDbEntity
  8
4
100
AcDbCircle
 10
1426.692745100504
 20
80.27061224153658
 30
0.0
 40
3.0
100
AcDbArc
 50
0.0
 51
90.0
  0
ARC
  5
374
330
2
100
AcDbEntity
  8
4
100
AcDbCircle
 10
1423.692501100506
 20
246.6705122415365
 30
0.0
 40
1.0
100
AcDbArc
 50
0.0
 51
90.0
  0
LINE
  5
390
330
2
100
AcDbEntity
  8
4
100
AcDbLine
 10
1267.192805100505
 20
358.2703682415363
 30
0.0
 11
1317.692805100505
 21
358.2703682415363
 31
0.0
  0
LINE
  5
391
330
2
100
AcDbEntity
  8
4
100
AcDbLine
 10
1270.692805100505
 20
357.2703682415363
 30
0.0
 11
1318.692805100505
 21
357.2703682415363
 31
0.0
  0
LINE
  5
392
330
2
100
AcDbEntity
  8
4
100
AcDbLine
 10
1271.692805100505
 20
358.2703682415363
 30
0.0
 11
1270.692805100505
 21
357.2703682415363
 31
0.0
  0
LINE
  5
393
330
2
100
AcDbEntity
  8
4
100
AcDbLine
 10
1317.692805100505
 20
358.2703682415363
 30
0.0
 11
1318.692805100505
 21
357.2703682415363
 31
0.0
  0
CIRCLE
  5
39F
330
2
100
AcDbEntity
  8
4
100
AcDbCircle
 10
554.4104059032366
 20
163.2700028044292
 30
0.0
 40
25.0
  0
LINE
  5
3A0
330
2
100
AcDbEntity
  8
4
100
AcDbLine
 10
1029.692865100506
 20
188.2699829739099
 30
0.0
 11
1030.692865100505
 21
188.269983608136
 31
0.0
  0
LINE
  5
3A1
330
2
100
AcDbEntity
  8
4
100
AcDbLine
 10
1029.692865100506
 20
138.2699829738999
 30
0.0
 11
1030.692865100505
 21
138.2699836081256
 31
0.0
  0
LINE
  5
3A2
330
2
100
AcDbEntity
  8
4
100
AcDbLine
 10
1029.692865100505
 20
138.2699829738999
 30
0.0
 11
1029.692865100506
 21
188.2699829739099
 31
0.0
  0
LINE
  5
BF2
330
2
100
AcDbEntity
  8
L-CENTER
 48
4.0
100
AcDbLine
 10
1034.510014754655
 20
233.8509638166493
 30
0.0
 11
1063.506793804244
 21
233.8509638166493
 31
0.0
  0
LINE
  5
C0A
330
2
100
AcDbEntity
  8
4
100
AcDbLine
 10
1040.692736343986
 20
168.2699924872149
 30
0.0
 11
1040.692693100505
 21
200.2701682415368
 31
0.0
  0
LINE
  5
2402
330
2
100
AcDbEntity
  8
4
100
AcDbLine
 10
251.4104059032361
 20
791.2134337114837
 30
0.0
 11
251.4104059032361
 21
855.2134337114833
 31
0.0
  0
LINE
  5
2404
330
2
100
AcDbEntity
  8
4
100
AcDbLine
 10
611.4104059032366
 20
791.2134337114837
 30
0.0
 11
611.4104059032361
 21
855.2134337114837
 31
0.0
  0
LINE
  5
2406
330
2
100
AcDbEntity
  8
L-CENTER
 48
4.0
100
AcDbLine
 10
514.4104059032366
 20
1054.497177887355
 30
0.0
 11
514.4104059032366
 21
654.6648588257196
 31
0.0
  0
LINE
  5
2407
330
2
100
AcDbEntity
  8
4
100
AcDbLine
 10
570.4104059032366
 20
780.2134337114833
 30
0.0
 11
570.4104059032366
 21
1047.713433711484
 31
0.0
  0
LINE
  5
2409
330
2
100
AcDbEntity
  8
4
100
AcDbLine
 10
254.4104059032361
 20
788.2134337114837
 30
0.0
 11
348.4104059032366
 21
788.2134337114837
 31
0.0
  0
LINE
  5
240A
330
2
100
AcDbEntity
  8
4
100
AcDbLine
 10
423.4104059032366
 20
685.2134337114837
 30
0.0
 11
605.4104059032366
 21
685.2134337114837
 31
0.0
  0
LINE
  5
240B
330
2
100
AcDbEntity
  8
4
100
AcDbLine
 10
420.4104059032366
 20
687.2134337114837
 30
0.0
 11
608.4104059032366
 21
687.2134337114837
 31
0.0
  0
LINE
  5
240C
330
2
100
AcDbEntity
  8
4
100
AcDbLine
 10
408.4104059032361
 20
689.2134337114833
 30
0.0
 11
620.4104059032366
 21
689.2134337114837
 31
0.0
  0
LINE
  5
240D
330
2
100
AcDbEntity
  8
L-CENTER
 48
4.0
100
AcDbLine
 10
404.5965066128178
 20
733.2134337114837
 30
0.0
 11
697.6332172903241
 21
733.2134337114837
 31
0.0
  0
LINE
  5
240E
330
2
100
AcDbEntity
  8
4
100
AcDbLine
 10
408.4104059032361
 20
777.2134337114837
 30
0.0
 11
620.4104059032366
 21
777.2134337114837
 31
0.0
  0
LINE
  5
240F
330
2
100
AcDbEntity
  8
4
100
AcDbLine
 10
620.410405903237
 20
777.2134337114837
 30
0.0
 11
620.4104059032366
 21
689.2134337114833
 31
0.0
  0
LINE
  5
2410
330
2
100
AcDbEntity
  8
4
100
AcDbLine
 10
605.4104059032366
 20
687.2134337114837
 30
0.0
 11
605.4104059032366
 21
685.2134337114837
 31
0.0
  0
LINE
  5
2411
330
2
100
AcDbEntity
  8
4
100
AcDbLine
 10
608.4104059032361
 20
689.2134337114837
 30
0.0
 11
608.4104059032361
 21
687.2134337114837
 31
0.0
  0
LINE
  5
2412
330
2
100
AcDbEntity
  8
4
100
AcDbLine
 10
608.4104059032366
 20
786.017281288762
 30
0.0
 11
608.4104059032366
 21
780.2134337114837
 31
0.0
  0
ARC
  5
2413
330
2
100
AcDbEntity
  8
4
100
AcDbCircle
 10
611.4104059032366
 20
780.2134337114837
 30
0.0
 40
3.0
100
AcDbArc
 50
180.0
 51
270.0
  0
ARC
  5
2414
330
2
100
AcDbEntity
  8
4
100
AcDbCircle
 10
608.4104059032366
 20
791.2134337114837
 30
0.0
 40
3.0
100
AcDbArc
 50
299.9999999999335
 51
0.0
  0
ARC
  5
2415
330
2
100
AcDbEntity
  8
4
100
AcDbCircle
 10
611.4104059032366
 20
786.017281288762
 30
0.0
 40
3.0
100
AcDbArc
 50
119.9999999999257
 51
180.0
  0
ARC
  5
2416
330
2
100
AcDbEntity
  8
4
100
AcDbCircle
 10
573.4104059032366
 20
780.2134337114837
 30
0.0
 40
3.0
100
AcDbArc
 50
180.0
 51
270.0
  0
LINE
  5
2417
330
2
100
AcDbEntity
  8
4
100
AcDbLine
 10
408.4104059032361
 20
777.2134337114837
 30
0.0
 11
408.4104059032361
 21
689.2134337114837
 31
0.0
  0
LINE
  5
2418
330
2
100
AcDbEntity
  8
4
100
AcDbLine
 10
423.4104059032366
 20
687.2134337114837
 30
0.0
 11
423.4104059032366
 21
685.2134337114837
 31
0.0
  0
LINE
  5
2419
330
2
100
AcDbEntity
  8
4
100
AcDbLine
 10
420.4104059032366
 20
689.2134337114837
 30
0.0
 11
420.4104059032366
 21
687.2134337114837
 31
0.0
  0
LINE
  5
241A
330
2
100
AcDbEntity
  8
4
100
AcDbLine
 10
420.4104059032366
 20
792.7795424101807
 30
0.0
 11
420.4104059032366
 21
780.2134337114837
 31
0.0
  0
ARC
  5
241B
330
2
100
AcDbEntity
  8
4
100
AcDbCircle
 10
417.4104059032366
 20
780.2134337114837
 30
0.0
 40
3.0
100
AcDbArc
 50
270.0
 51
0.0
  0
ARC
  5
241C
330
2
100
AcDbEntity
  8
4
100
AcDbCircle
 10
417.4104059032366
 20
792.7795424101812
 30
0.0
 40
3.0
100
AcDbArc
 50
0.0
 51
101.2732747674545
  0
LINE
  5
241D
330
2
100
AcDbEntity
  8
4
100
AcDbLine
 10
351.4104059032366
 20
791.2134337114837
 30
0.0
 11
351.4104059032366
 21
795.4636783301128
 31
0.0
  0
ARC
  5
241E
330
2
100
AcDbEntity
  8
4
100
AcDbCircle
 10
348.4104059032366
 20
791.2134337114837
 30
0.0
 40
3.0
100
AcDbArc
 50
270.0
 51
0.0
  0
ARC
  5
241F
330
2
100
AcDbEntity
  8
4
100
AcDbCircle
 10
354.4104059032366
 20
795.4636783301128
 30
0.0
 40
3.0
100
AcDbArc
 50
73.84746468216822
 51
180.0
  0
ARC
  5
2420
330
2
100
AcDbEntity
  8
4
100
AcDbCircle
 10
254.4104059032366
 20
791.2134337114837
 30
0.0
 40
3.0
100
AcDbArc
 50
180.0
 51
270.0
  0
LINE
  5
2421
330
2
100
AcDbEntity
  8
4
100
AcDbLine
 10
254.4104059032361
 20
1058.213433711484
 30
0.0
 11
348.410405903237
 21
1058.213433711484
 31
0.0
  0
LINE
  5
2425
330
2
100
AcDbEntity
  8
L-CENTER
 48
4.0
100
AcDbLine
 10
579.336622933958
 20
923.2134337114837
 30
0.0
 11
250.0642417112919
 21
923.2134337114837
 31
0.0
  0
LINE
  5
242A
330
2
100
AcDbEntity
  8
4
100
AcDbLine
 10
611.4104059032361
 20
991.2134337114837
 30
0.0
 11
611.4104059032366
 21
1055.213433711484
 31
0.0
  0
ARC
  5
242F
330
2
100
AcDbEntity
  8
4
100
AcDbCircle
 10
470.410405903237
 20
923.2134337114837
 30
0.0
 40
100.0
100
AcDbArc
 50
348.6433657431623
 51
11.35663425683802
  0
LINE
  5
2430
330
2
100
AcDbEntity
  8
L-CENTER
 48
4.0
100
AcDbLine
 10
546.4104059032366
 20
894.4662841552356
 30
0.0
 11
546.4104059032366
 21
951.9605832677319
 31
0.0
  0
LINE
  5
2431
330
2
100
AcDbEntity
  8
4
100
AcDbLine
 10
573.4104059032366
 20
858.2134337114837
 30
0.0
 11
608.4104059032361
 21
858.2134337114837
 31
0.0
  0
LINE
  5
2432
330
2
100
AcDbEntity
  8
L-CENTER
 48
4.0
100
AcDbLine
 10
568.2982688491132
 20
818.2134337114837
 30
0.0
 11
604.5225429573594
 21
818.2134337114837
 31
0.0
  0
LINE
  5
2433
330
2
100
AcDbEntity
  8
L-CENTER
 48
4.0
100
AcDbLine
 10
586.4104059032361
 20
836.3255707656069
 30
0.0
 11
586.4104059032366
 21
800.1012966573605
 31
0.0
  0
CIRCLE
  5
2434
330
2
100
AcDbEntity
  8
4
100
AcDbCircle
 10
586.4104059032366
 20
818.2134337114837
 30
0.0
 40
9.0
  0
ARC
  5
2435
330
2
100
AcDbEntity
  8
4
100
AcDbCircle
 10
608.4104059032366
 20
855.2134337114837
 30
0.0
 40
3.0
100
AcDbArc
 50
0.0
 51
90.0
  0
ARC
  5
2439
330
2
100
AcDbEntity
  8
4
100
AcDbCircle
 10
573.4104059032366
 20
861.2134337114837
 30
0.0
 40
3.0
100
AcDbArc
 50
180.0
 51
270.0
  0
ARC
  5
243A
330
2
100
AcDbEntity
  8
4
100
AcDbCircle
 10
546.4104059032366
 20
999.2134337114837
 30
0.0
 40
100.0
100
AcDbArc
 50
256.4086066009233
 51
281.356634256838
  0
ARC
  5
243B
330
2
100
AcDbEntity
  8
4
100
AcDbCircle
 10
565.5111939888666
 20
904.1126456258542
 30
0.0
 40
3.0
100
AcDbArc
 50
281.3566342568398
 51
348.6433657431602
  0
ARC
  5
243C
330
2
100
AcDbEntity
  8
4
100
AcDbCircle
 10
522.2058067005819
 20
899.0978136642659
 30
0.0
 40
3.0
100
AcDbArc
 50
76.40860660091835
 51
169.5533181831823
  0
LINE
  5
243E
330
2
100
AcDbEntity
  8
L-CENTER
 48
4.0
100
AcDbLine
 10
568.2982688491132
 20
1028.213433711484
 30
0.0
 11
604.5225429573594
 21
1028.213433711484
 31
0.0
  0
LINE
  5
243F
330
2
100
AcDbEntity
  8
4
100
AcDbLine
 10
573.4104059032361
 20
988.2134337114833
 30
0.0
 11
608.4104059032361
 21
988.2134337114837
 31
0.0
  0
LINE
  5
2440
330
2
100
AcDbEntity
  8
L-CENTER
 48
4.0
100
AcDbLine
 10
586.4104059032361
 20
1010.101296657361
 30
0.0
 11
586.4104059032366
 21
1046.325570765607
 31
0.0
  0
ARC
  5
2441
330
2
100
AcDbEntity
  8
4
100
AcDbCircle
 10
608.4104059032366
 20
991.2134337114837
 30
0.0
 40
3.0
100
AcDbArc
 50
270.0
 51
0.0
  0
CIRCLE
  5
2442
330
2
100
AcDbEntity
  8
4
100
AcDbCircle
 10
586.4104059032366
 20
1028.213433711484
 30
0.0
 40
9.0
  0
ARC
  5
2446
330
2
100
AcDbEntity
  8
4
100
AcDbCircle
 10
546.4104059032366
 20
847.2134337114837
 30
0.0
 40
100.0
100
AcDbArc
 50
78.64336574316206
 51
103.5913933990766
  0
ARC
  5
2447
330
2
100
AcDbEntity
  8
4
100
AcDbCircle
 10
565.5111939888666
 20
942.3142217971133
 30
0.0
 40
3.0
100
AcDbArc
 50
11.35663425683976
 51
78.64336574316026
  0
ARC
  5
2448
330
2
100
AcDbEntity
  8
4
100
AcDbCircle
 10
522.2058067005819
 20
947.3290537587015
 30
0.0
 40
3.0
100
AcDbArc
 50
190.4466818168177
 51
283.5913933990817
  0
ARC
  5
244A
330
2
100
AcDbEntity
  8
4
100
AcDbCircle
 10
573.4104059032366
 20
985.2134337114837
 30
0.0
 40
3.0
100
AcDbArc
 50
90.0
 51
180.0
  0
LINE
  5
2461
330
2
100
AcDbEntity
  8
4
100
AcDbLine
 10
459.4104059032366
 20
1049.713433711484
 30
0.0
 11
569.4104059032366
 21
1049.713433711484
 31
0.0
  0
ARC
  5
2462
330
2
100
AcDbEntity
  8
4
100
AcDbCircle
 10
484.4104059032366
 20
1055.213433711484
 30
0.0
 40
3.0
100
AcDbArc
 50
90.0
 51
180.0
  0
LINE
  5
2463
330
2
100
AcDbEntity
  8
4
100
AcDbLine
 10
425.1853966508297
 20
1047.713433711484
 30
0.0
 11
570.4104059032366
 21
1047.713433711484
 31
0.0
  0
LINE
  5
2464
330
2
100
AcDbEntity
  8
4
100
AcDbLine
 10
484.4104059032361
 20
1058.213433711484
 30
0.0
 11
608.4104059032366
 21
1058.213433711484
 31
0.0
  0
ARC
  5
2465
330
2
100
AcDbEntity
  8
4
100
AcDbCircle
 10
608.4104059032366
 20
1055.213433711484
 30
0.0
 40
3.0
100
AcDbArc
 50
0.0
 51
90.0
  0
LINE
  5
2466
330
2
100
AcDbEntity
  8
4
100
AcDbLine
 10
569.4104059032366
 20
1049.713433711484
 30
0.0
 11
569.4104059032366
 21
1047.713433711484
 31
0.0
  0
LINE
  5
2467
330
2
100
AcDbEntity
  8
4
100
AcDbLine
 10
481.4104059032361
 20
1049.713433711484
 30
0.0
 11
481.4104059032361
 21
1055.213433711484
 31
0.0
  0
LINE
  5
2468
330
2
100
AcDbEntity
  8
4
100
AcDbLine
 10
459.4104059032366
 20
1049.713433711484
 30
0.0
 11
459.4104059032366
 21
1047.713433711484
 31
0.0
  0
LINE
  5
2469
330
2
100
AcDbEntity
  8
4
100
AcDbLine
 10
351.410405903237
 20
1050.963189092855
 30
0.0
 11
351.410405903237
 21
1055.213433711484
 31
0.0
  0
ARC
  5
246A
330
2
100
AcDbEntity
  8
4
100
AcDbCircle
 10
354.410405903237
 20
1050.963189092855
 30
0.0
 40
3.0
100
AcDbArc
 50
180.0
 51
286.1525353178234
  0
ARC
  5
246B
330
2
100
AcDbEntity
  8
4
100
AcDbCircle
 10
348.410405903237
 20
1055.213433711484
 30
0.0
 40
3.0
100
AcDbArc
 50
0.0
 51
90.0
  0
LINE
  5
246C
330
2
100
AcDbEntity
  8
4
100
AcDbLine
 10
251.4104059032361
 20
991.2134337114837
 30
0.0
 11
251.4104059032361
 21
1055.213433711484
 31
0.0
  0
LINE
  5
246D
330
2
100
AcDbEntity
  8
4
100
AcDbLine
 10
256.4104059032366
 20
898.2134337114837
 30
0.0
 11
256.4104059032366
 21
948.2134337114837
 31
0.0
  0
ARC
  5
246E
330
2
100
AcDbEntity
  8
4
100
AcDbCircle
 10
273.7456278258524
 20
861.2134337114837
 30
0.0
 40
3.0
100
AcDbArc
 50
270.0
 51
27.78567171663418
  0
LINE
  5
2472
330
2
100
AcDbEntity
  8
L-CENTER
 48
4.0
100
AcDbLine
 10
276.4104059032361
 20
836.3255707656069
 30
0.0
 11
276.4104059032361
 21
800.1012966573605
 31
0.0
  0
LINE
  5
2473
330
2
100
AcDbEntity
  8
L-CENTER
 48
4.0
100
AcDbLine
 10
258.298268849113
 20
818.2134337114837
 30
0.0
 11
294.5225429573592
 21
818.2134337114837
 31
0.0
  0
CIRCLE
  5
2474
330
2
100
AcDbEntity
  8
4
100
AcDbCircle
 10
276.4104059032366
 20
818.2134337114837
 30
0.0
 40
9.0
  0
LINE
  5
2475
330
2
100
AcDbEntity
  8
4
100
AcDbLine
 10
254.4104059032361
 20
858.2134337114833
 30
0.0
 11
273.7456278258524
 21
858.2134337114833
 31
0.0
  0
ARC
  5
2476
330
2
100
AcDbEntity
  8
4
100
AcDbCircle
 10
254.4104059032361
 20
855.2134337114837
 30
0.0
 40
3.0
100
AcDbArc
 50
90.0
 51
180.0
  0
ARC
  5
2477
330
2
100
AcDbEntity
  8
4
100
AcDbCircle
 10
261.3911765561893
 20
895.2134337114837
 30
0.0
 40
3.0
100
AcDbArc
 50
12.15319746900589
 51
90.0
  0
LINE
  5
2478
330
2
100
AcDbEntity
  8
4
100
AcDbLine
 10
256.4104059032366
 20
898.2134337114837
 30
0.0
 11
261.3911765561893
 21
898.2134337114837
 31
0.0
  0
ARC
  5
2479
330
2
100
AcDbEntity
  8
4
100
AcDbCircle
 10
273.7456278258524
 20
985.2134337114837
 30
0.0
 40
3.0
100
AcDbArc
 50
332.2143282833658
 51
90.0
  0
ARC
  5
247D
330
2
100
AcDbEntity
  8
4
100
AcDbCircle
 10
261.3911765561893
 20
951.2134337114837
 30
0.0
 40
3.0
100
AcDbArc
 50
270.0
 51
347.8468025309941
  0
LINE
  5
247E
330
2
100
AcDbEntity
  8
4
100
AcDbLine
 10
256.4104059032366
 20
948.2134337114837
 30
0.0
 11
261.3911765561893
 21
948.2134337114837
 31
0.0
  0
LINE
  5
247F
330
2
100
AcDbEntity
  8
L-CENTER
 48
4.0
100
AcDbLine
 10
276.4104059032361
 20
1010.101296657361
 30
0.0
 11
276.4104059032361
 21
1046.325570765607
 31
0.0
  0
LINE
  5
2480
330
2
100
AcDbEntity
  8
4
100
AcDbLine
 10
254.4104059032361
 20
988.2134337114837
 30
0.0
 11
273.7456278258524
 21
988.2134337114837
 31
0.0
  0
ARC
  5
2481
330
2
100
AcDbEntity
  8
4
100
AcDbCircle
 10
254.4104059032361
 20
991.2134337114837
 30
0.0
 40
3.0
100
AcDbArc
 50
180.0
 51
270.0
  0
CIRCLE
  5
2482
330
2
100
AcDbEntity
  8
4
100
AcDbCircle
 10
276.4104059032366
 20
1028.213433711484
 30
0.0
 40
9.0
  0
LINE
  5
2483
330
2
100
AcDbEntity
  8
L-CENTER
 48
4.0
100
AcDbLine
 10
258.298268849113
 20
1028.213433711484
 30
0.0
 11
294.5225429573592
 21
1028.213433711484
 31
0.0
  0
ARC
  5
2484
330
2
100
AcDbEntity
  8
4
100
AcDbCircle
 10
254.4104059032366
 20
1055.213433711484
 30
0.0
 40
3.0
100
AcDbArc
 50
90.0
 51
180.0
  0
LINE
  5
24A6
330
2
100
AcDbEntity
  8
L-CENTER
 48
4.0
100
AcDbLine
 10
391.4104059032366
 20
784.2134337114837
 30
0.0
 11
391.4104059032366
 21
1062.213433711484
 31
0.0
  0
CIRCLE
  5
24A7
330
2
100
AcDbEntity
  8
L-CENTER
 48
4.0
100
AcDbCircle
 10
391.410405903237
 20
923.2134337114837
 30
0.0
 40
120.0
  0
CIRCLE
  5
24A8
330
2
100
AcDbEntity
  8
4
100
AcDbCircle
 10
391.410405903237
 20
923.2134337114837
 30
0.0
 40
129.0
  0
CIRCLE
  5
24A9
330
2
100
AcDbEntity
  8
4
100
AcDbCircle
 10
391.410405903237
 20
923.2134337114837
 30
0.0
 40
110.0
  0
LINE
  5
24AA
330
2
100
AcDbEntity
  8
L-CENTER
 48
4.0
100
AcDbLine
 10
297.8796622945174
 20
869.2134337114837
 30
0.0
 11
277.0950526036904
 21
857.2134337114837
 31
0.0
  0
LINE
  5
24AB
330
2
100
AcDbEntity
  8
L-CENTER
 48
4.0
100
AcDbLine
 10
297.8796622945174
 20
977.2134337114837
 30
0.0
 11
277.0950526036904
 21
989.2134337114837
 31
0.0
  0
ARC
  5
24AC
330
2
100
AcDbEntity
  8
4
100
AcDbCircle
 10
641.410405903237
 20
923.2134337114837
 30
0.0
 40
300.0
100
AcDbArc
 50
171.8157032290497
 51
188.1842967709505
  0
ARC
  5
24AD
330
2
100
AcDbEntity
  8
4
100
AcDbCircle
 10
636.410405903237
 20
923.2134337114837
 30
0.0
 40
300.0
100
AcDbArc
 50
170.9626803785312
 51
189.0373196214689
  0
ARC
  5
24AE
330
2
100
AcDbEntity
  8
4
100
AcDbCircle
 10
141.410405903237
 20
923.2134337114837
 30
0.0
 40
300.0
100
AcDbArc
 50
351.8157032290495
 51
8.184296770950544
  0
ARC
  5
24AF
330
2
100
AcDbEntity
  8
4
100
AcDbCircle
 10
146.410405903237
 20
923.2134337114837
 30
0.0
 40
300.0
100
AcDbArc
 50
350.9626803785312
 51
9.037319621468892
  0
CIRCLE
  5
24B0
330
2
100
AcDbEntity
  8
4
100
AcDbCircle
 10
391.410405903237
 20
923.2134337114837
 30
0.0
 40
36.0
  0
ARC
  5
24B1
330
2
100
AcDbEntity
  8
4
100
AcDbCircle
 10
391.410405903237
 20
1173.213433711484
 30
0.0
 40
300.0
100
AcDbArc
 50
261.8157032290495
 51
278.1842967709504
  0
ARC
  5
24B2
330
2
100
AcDbEntity
  8
4
100
AcDbCircle
 10
391.410405903237
 20
1168.213433711484
 30
0.0
 40
300.0
100
AcDbArc
 50
260.962680378531
 51
279.0373196214687
  0
ARC
  5
24B3
330
2
100
AcDbEntity
  8
4
100
AcDbCircle
 10
345.0724658542063
 20
876.8754936624534
 30
0.0
 40
5.0
100
AcDbArc
 50
189.0373196214699
 51
260.9626803785301
  0
ARC
  5
24B4
330
2
100
AcDbEntity
  8
4
100
AcDbCircle
 10
349.4148969815897
 20
881.2179247898364
 30
0.0
 40
5.0
100
AcDbArc
 50
188.1842967709484
 51
261.8157032290465
  0
ARC
  5
24B5
330
2
100
AcDbEntity
  8
4
100
AcDbCircle
 10
437.7483459522673
 20
876.8754936624534
 30
0.0
 40
5.0
100
AcDbArc
 50
279.0373196214699
 51
350.9626803785353
  0
ARC
  5
24B6
330
2
100
AcDbEntity
  8
4
100
AcDbCircle
 10
433.4059148248843
 20
881.2179247898364
 30
0.0
 40
5.0
100
AcDbArc
 50
278.1842967709471
 51
351.8157032290464
  0
ARC
  5
24B7
330
2
100
AcDbEntity
  8
4
100
AcDbCircle
 10
391.4104059032366
 20
673.2134337114837
 30
0.0
 40
300.0
100
AcDbArc
 50
81.81570322904963
 51
98.1842967709504
  0
ARC
  5
24B8
330
2
100
AcDbEntity
  8
4
100
AcDbCircle
 10
391.4104059032366
 20
678.2134337114837
 30
0.0
 40
300.0
100
AcDbArc
 50
80.96268037853116
 51
99.03731962146884
  0
ARC
  5
24B9
330
2
100
AcDbEntity
  8
4
100
AcDbCircle
 10
349.4148969815897
 20
965.2089426331311
 30
0.0
 40
5.0
100
AcDbArc
 50
98.1842967709471
 51
171.8157032290516
  0
ARC
  5
24BA
330
2
100
AcDbEntity
  8
4
100
AcDbCircle
 10
345.0724658542067
 20
969.551373760514
 30
0.0
 40
5.0
100
AcDbArc
 50
99.03731962146995
 51
170.9626803785301
  0
ARC
  5
24BB
330
2
100
AcDbEntity
  8
4
100
AcDbCircle
 10
433.4059148248843
 20
965.2089426331311
 30
0.0
 40
5.0
100
AcDbArc
 50
8.184296770948398
 51
81.81570322904648
  0
ARC
  5
24BC
330
2
100
AcDbEntity
  8
4
100
AcDbCircle
 10
437.7483459522673
 20
969.551373760514
 30
0.0
 40
5.0
100
AcDbArc
 50
9.037319621469946
 51
80.96268037852492
  0
LINE
  5
24BD
330
2
100
AcDbEntity
  8
L-CENTER
 48
4.0
100
AcDbLine
 10
484.9411495119557
 20
869.2134337114837
 30
0.0
 11
505.7257592027827
 21
857.2134337114833
 31
0.0
  0
LINE
  5
24BE
330
2
100
AcDbEntity
  8
L-CENTER
 48
4.0
100
AcDbLine
 10
484.9411495119557
 20
977.2134337114837
 30
0.0
 11
505.7257592027827
 21
989.2134337114837
 31
0.0
  0
LINE
  5
256C
330
2
100
AcDbEntity
  8
L-CENTER
 48
4.0
100
AcDbLine
 10
327.4873574491044
 20
260.3529553204603
 30
0.0
 11
327.4873574491044
 21
224.4025251074204
 31
0.0
  0
LINE
  5
2581
330
2
100
AcDbEntity
  8
L-CENTER
 48
4.0
100
AcDbLine
 10
1174.692735077879
 20
260.7550695151326
 30
0.0
 11
1174.692735077879
 21
224.4024946987452
 31
0.0
  0
LINE
  5
2596
330
2
100
AcDbEntity
  8
L-CENTER
 48
4.0
100
AcDbLine
 10
1234.692735101718
 20
260.7550695151326
 30
0.0
 11
1234.692735101718
 21
224.402608187117
 31
0.0
  0
LINE
  5
25A1
330
2
100
AcDbEntity
  8
L-CENTER
 48
4.0
100
AcDbLine
 10
1354.692718144279
 20
260.7550695151326
 30
0.0
 11
1354.692724449987
 21
224.4026185947346
 31
0.0
  0
LINE
  5
25AC
330
2
100
AcDbEntity
  8
L-CENTER
 48
4.0
100
AcDbLine
 10
1414.692718168119
 20
260.7550695151326
 30
0.0
 11
1414.692724473845
 21
224.4025155139811
 31
0.0
  0
CIRCLE
  5
25AD
330
2
100
AcDbEntity
  8
4
100
AcDbCircle
 10
1104.692554686721
 20
253.2703682415363
 30
0.0
 40
31.0
  0
LINE
  5
2608
330
2
100
AcDbEntity
  8
4
100
AcDbLine
 10
427.4104059032366
 20
673.3134337114836
 30
0.0
 11
601.4104059032366
 21
673.3134337114836
 31
0.0
  0
LINE
  5
2609
330
2
100
AcDbEntity
  8
4
100
AcDbLine
 10
426.4104059032366
 20
684.8134337114836
 30
0.0
 11
602.4104059032366
 21
684.8134337114836
 31
0.0
  0
LINE
  5
260A
330
2
100
AcDbEntity
  8
4
100
AcDbLine
 10
426.4104059032366
 20
674.3134337114836
 30
0.0
 11
426.4104059032366
 21
684.8134337114836
 31
0.0
  0
ARC
  5
260B
330
2
100
AcDbEntity
  8
4
100
AcDbCircle
 10
427.4104059032366
 20
674.3134337114841
 30
0.0
 40
1.0
100
AcDbArc
 50
180.0
 51
270.0
  0
LINE
  5
260C
330
2
100
AcDbEntity
  8
4
100
AcDbLine
 10
579.5589351736271
 20
673.3134337114841
 30
0.0
 11
560.1603276721503
 21
669.433712211189
 31
0.0
  0
LINE
  5
260D
330
2
100
AcDbEntity
  8
4
100
AcDbLine
 10
571.9104059032388
 20
673.3134337114841
 30
0.0
 11
560.1603276721503
 21
670.9634180652672
 31
0.0
  0
LINE
  5
260E
330
2
100
AcDbEntity
  8
4
100
AcDbLine
 10
489.410405903237
 20
658.2134337114837
 30
0.0
 11
539.4104059032366
 21
658.2134337114837
 31
0.0
  0
LINE
  5
260F
330
2
100
AcDbEntity
  8
4
100
AcDbLine
 10
478.6604841343242
 20
669.2134337114837
 30
0.0
 11
550.1603276721503
 21
669.2134337114837
 31
0.0
  0
LINE
  5
2610
330
2
100
AcDbEntity
  8
4
100
AcDbLine
 10
480.2302098059549
 20
659.2134337114837
 30
0.0
 11
548.5906020005182
 21
659.2134337114837
 31
0.0
  0
LINE
  5
2611
330
2
100
AcDbEntity
  8
L-CENTER
 48
4.0
100
AcDbLine
 10
456.4104059032366
 20
657.7962296271719
 30
0.0
 11
456.4104059032366
 21
681.173330675854
 31
0.0
  0
LINE
  5
2612
330
2
100
AcDbEntity
  8
4
100
AcDbLine
 10
456.9104059032343
 20
673.3134337114841
 30
0.0
 11
468.6604841343242
 21
670.9634180652663
 31
0.0
  0
LINE
  5
2613
330
2
100
AcDbEntity
  8
4
100
AcDbLine
 10
449.2618766328483
 20
673.3134337114836
 30
0.0
 11
468.6604841343246
 21
669.4337122111881
 31
0.0
  0
LINE
  5
2614
330
2
100
AcDbEntity
  8
4
100
AcDbLine
 10
443.4104059032366
 20
668.2134337114837
 30
0.0
 11
468.0287709272111
 21
668.2134337114837
 31
0.0
  0
LINE
  5
2615
330
2
100
AcDbEntity
  8
4
100
AcDbLine
 10
442.4104059032366
 20
669.2134337114837
 30
0.0
 11
442.4104059032366
 21
672.3134337114836
 31
0.0
  0
ARC
  5
2616
330
2
100
AcDbEntity
  8
4
100
AcDbCircle
 10
443.4104059032366
 20
669.2134337114837
 30
0.0
 40
1.0
100
AcDbArc
 50
180.0
 51
270.0
  0
ARC
  5
2617
330
2
100
AcDbEntity
  8
4
100
AcDbCircle
 10
441.4104059032366
 20
672.3134337114841
 30
0.0
 40
1.0
100
AcDbArc
 50
0.0
 51
90.0
  0
LINE
  5
261A
330
2
100
AcDbEntity
  8
4
100
AcDbLine
 10
479.2496291302641
 20
660.0173175763455
 30
0.0
 11
478.0777000166772
 21
665.8769631442804
 31
0.0
  0
ARC
  5
261B
330
2
100
AcDbEntity
  8
4
100
AcDbCircle
 10
480.2302098059549
 20
660.2134337114837
 30
0.0
 40
1.0
100
AcDbArc
 50
191.309932474024
 51
270.0
  0
LINE
  5
261C
330
2
100
AcDbEntity
  8
4
100
AcDbLine
 10
489.410405903237
 20
658.2134337114837
 30
0.0
 11
489.410405903237
 21
659.2134337114837
 31
0.0
  0
LINE
  5
261D
330
2
100
AcDbEntity
  8
4
100
AcDbLine
 10
539.4104059032366
 20
658.2134337114837
 30
0.0
 11
539.4104059032366
 21
659.2134337114837
 31
0.0
  0
LINE
  5
261E
330
2
100
AcDbEntity
  8
4
100
AcDbLine
 10
549.571182676209
 20
660.0173175763455
 30
0.0
 11
550.7431117897959
 21
665.8769631442817
 31
0.0
  0
ARC
  5
261F
330
2
100
AcDbEntity
  8
4
100
AcDbCircle
 10
548.5906020005182
 20
660.2134337114837
 30
0.0
 40
1.0
100
AcDbArc
 50
270.0
 51
348.690067525976
  0
LINE
  5
2621
330
2
100
AcDbEntity
  8
4
100
AcDbLine
 10
602.4104059032366
 20
674.3134337114836
 30
0.0
 11
602.4104059032366
 21
684.8134337114836
 31
0.0
  0
ARC
  5
2622
330
2
100
AcDbEntity
  8
4
100
AcDbCircle
 10
601.4104059032366
 20
674.3134337114841
 30
0.0
 40
1.0
100
AcDbArc
 50
270.0
 51
0.0
  0
LINE
  5
2639
330
2
100
AcDbEntity
  8
L-CENTER
 48
4.0
100
AcDbLine
 10
595.9104059030096
 20
661.5838965975015
 30
0.0
 11
595.9104059030096
 21
691.8425622910183
 31
0.0
  0
LINE
  5
2644
330
2
100
AcDbEntity
  8
L-CENTER
 48
4.0
100
AcDbLine
 10
555.1603276721503
 20
661.5838965975015
 30
0.0
 11
555.1603276721503
 21
691.8425622910183
 31
0.0
  0
LINE
  5
265A
330
2
100
AcDbEntity
  8
L-CENTER
 48
4.0
100
AcDbLine
 10
432.9104059034685
 20
661.5838965975015
 30
0.0
 11
432.9104059034607
 21
691.8425622909979
 31
0.0
  0
LINE
  5
2665
330
2
100
AcDbEntity
  8
L-CENTER
 48
4.0
100
AcDbLine
 10
473.6604841343274
 20
661.5838965975015
 30
0.0
 11
473.6604841343196
 21
691.8425622910079
 31
0.0
  0
CIRCLE
  5
2667
330
2
100
AcDbEntity
  8
4
100
AcDbCircle
 10
546.4104059032366
 20
923.2134337114837
 30
0.0
 40
17.0
  0
LWPOLYLINE
  5
2668
330
2
100
AcDbEntity
  8
4
100
AcDbPolyline
 90
        6
 70
     1
 43
0.0
 10
546.4104059032366
 20
940.2134337114837
 10
531.6879740389013
 20
931.7134337114837
 10
531.6879740389013
 20
914.7134337114837
 10
546.4104059032366
 20
906.2134337114837
 10
561.1328377675718
 20
914.7134337114837
 10
561.1328377675718
 20
931.7134337114837
  0
LINE
  5
2675
330
2
100
AcDbEntity
  8
4
100
AcDbLine
 10
1419.192735077878
 20
229.1056122415366
 30
0.0
 11
1419.192735077879
 21
175.2701510436709
 31
0.0
  0
ARC
  5
2676
330
2
100
AcDbEntity
  8
4
100
AcDbCircle
 10
1421.192735077879
 20
175.2701510436709
 30
0.0
 40
2.0
100
AcDbArc
 50
180.0
 51
270.0
  0
LINE
  5
2677
330
2
100
AcDbEntity
  8
4
100
AcDbLine
 10
1419.192735077879
 20
151.2701510436709
 30
0.0
 11
1419.192735077879
 21
86.27015104367092
 31
0.0
  0
ARC
  5
2678
330
2
100
AcDbEntity
  8
4
100
AcDbCircle
 10
1421.192735077879
 20
151.2701510436709
 30
0.0
 40
2.0
100
AcDbArc
 50
90.0
 51
180.0
  0
ARC
  5
2679
330
2
100
AcDbEntity
  8
4
100
AcDbCircle
 10
1422.192735077879
 20
86.27015104367092
 30
0.0
 40
3.0
100
AcDbArc
 50
180.0
 51
270.0
  0
LINE
  5
267A
330
2
100
AcDbEntity
  8
4
 48
4.0
100
AcDbLine
 10
1421.192730307715
 20
218.2702312732486
 30
0.0
 11
1421.192739848029
 21
108.2702312732322
 31
0.0
  0
LINE
  5
267B
330
2
100
AcDbEntity
  8
4
 48
4.0
100
AcDbLine
 10
1419.192735077878
 20
218.2702300047999
 30
0.0
 11
1421.192730307715
 21
218.2702312732486
 31
0.0
  0
LINE
  5
267C
330
2
100
AcDbEntity
  8
4
 48
4.0
100
AcDbLine
 10
1419.192735077879
 20
108.2702300047777
 30
0.0
 11
1421.19273984803
 21
108.2702312732326
 31
0.0
  0
LINE
  5
267D
330
2
100
AcDbEntity
  8
4
 48
4.0
100
AcDbLine
 10
1421.192732389238
 20
194.2702312732449
 30
0.0
 11
1422.192732389238
 21
194.270231907471
 31
0.0
  0
LINE
  5
267E
330
2
100
AcDbEntity
  8
4
 48
4.0
100
AcDbLine
 10
1421.192737766507
 20
132.2702312732358
 30
0.0
 11
1422.192737766507
 21
132.2702319074619
 31
0.0
  0
LINE
  5
267F
330
2
100
AcDbEntity
  8
4
 48
4.0
100
AcDbLine
 10
1422.192732389238
 20
194.270231907471
 30
0.0
 11
1422.192737766507
 21
132.2702319074619
 31
0.0
  0
LINE
  5
2680
330
2
100
AcDbEntity
  8
4
100
AcDbLine
 10
545.4104059032366
 20
1050.713433711484
 30
0.0
 11
545.4104059032366
 21
1049.713433711484
 31
0.0
  0
LINE
  5
2681
330
2
100
AcDbEntity
  8
4
100
AcDbLine
 10
483.4104059032366
 20
1050.713433711484
 30
0.0
 11
483.4104059032366
 21
1049.713433711484
 31
0.0
  0
LINE
  5
2682
330
2
100
AcDbEntity
  8
4
100
AcDbLine
 10
483.4104059032366
 20
1050.713433711484
 30
0.0
 11
545.4104059032366
 21
1050.713433711484
 31
0.0
  0
ARC
  5
2683
330
2
100
AcDbEntity
  8
4
100
AcDbCircle
 10
391.4104059032366
 20
923.2134337114837
 30
0.0
 40
24.0
100
AcDbArc
 50
284.4775121859299
 51
255.5224879999994
  0
LINE
  5
2684
330
2
100
AcDbEntity
  8
4
100
AcDbLine
 10
397.4104059032366
 20
895.7134337114837
 30
0.0
 11
385.4104059032366
 21
895.7134337114837
 31
0.0
  0
LINE
  5
2685
330
2
100
AcDbEntity
  8
4
100
AcDbLine
 10
397.4104059032366
 20
903.7134337114837
 30
0.0
 11
385.4104059032366
 21
903.7134337114837
 31
0.0
  0
LINE
  5
2686
330
2
100
AcDbEntity
  8
4
100
AcDbLine
 10
397.4104059032366
 20
895.7134337114837
 30
0.0
 11
397.4104059032366
 21
903.7134337114837
 31
0.0
  0
LINE
  5
2687
330
2
100
AcDbEntity
  8
4
100
AcDbLine
 10
385.4104059032366
 20
895.7134337114837
 30
0.0
 11
385.4104059032366
 21
903.7134337114837
 31
0.0
  0
LINE
  5
2689
330
2
100
AcDbEntity
  8
4
100
AcDbLine
 10
407.4104059032366
 20
764.2134337114837
 30
0.0
 11
407.4104059032366
 21
702.2134337114837
 31
0.0
  0
LINE
  5
268A
330
2
100
AcDbEntity
  8
4
100
AcDbLine
 10
407.4104059032366
 20
702.2134337114837
 30
0.0
 11
408.4104059032366
 21
702.2134337114837
 31
0.0
  0
LINE
  5
268B
330
2
100
AcDbEntity
  8
4
100
AcDbLine
 10
407.4104059032366
 20
764.2134337114837
 30
0.0
 11
408.4104059032366
 21
764.2134337114837
 31
0.0
  0
LINE
  5
268C
330
2
100
AcDbEntity
  8
4
100
AcDbLine
 10
621.4104059032366
 20
702.2134337114837
 30
0.0
 11
621.4104059032366
 21
764.2134337114837
 31
0.0
  0
LINE
  5
268D
330
2
100
AcDbEntity
  8
4
100
AcDbLine
 10
621.4104059032366
 20
702.2134337114837
 30
0.0
 11
620.4104059032366
 21
702.2134337114837
 31
0.0
  0
LINE
  5
268E
330
2
100
AcDbEntity
  8
4
100
AcDbLine
 10
621.4104059032366
 20
764.2134337114837
 30
0.0
 11
620.4104059032366
 21
764.2134337114837
 31
0.0
  0
LINE
  5
268F
330
2
100
AcDbEntity
  8
4
100
AcDbLine
 10
635.4104059032366
 20
745.7134337114837
 30
0.0
 11
693.4104059032366
 21
745.7134337114837
 31
0.0
  0
LINE
  5
2690
330
2
100
AcDbEntity
  8
4
100
AcDbLine
 10
635.4104059032366
 20
720.7134337114837
 30
0.0
 11
693.4104059032366
 21
720.7134337114837
 31
0.0
  0
LINE
  5
2691
330
2
100
AcDbEntity
  8
4
100
AcDbLine
 10
642.9104059032366
 20
736.7134337114837
 30
0.0
 11
694.4104059032366
 21
736.7134337114837
 31
0.0
  0
LINE
  5
2692
330
2
100
AcDbEntity
  8
4
100
AcDbLine
 10
642.9104059032366
 20
729.7134337114837
 30
0.0
 11
694.4104059032366
 21
729.7134337114837
 31
0.0
  0
LINE
  5
2693
330
2
100
AcDbEntity
  8
4
100
AcDbLine
 10
634.4104059032366
 20
748.2134337114837
 30
0.0
 11
634.4104059032366
 21
718.2134337114837
 31
0.0
  0
ARC
  5
2694
330
2
100
AcDbEntity
  8
4
100
AcDbCircle
 10
635.4104059032366
 20
719.7134337114837
 30
0.0
 40
1.0
100
AcDbArc
 50
90.0
 51
180.0
  0
ARC
  5
2695
330
2
100
AcDbEntity
  8
4
100
AcDbCircle
 10
642.9104059032366
 20
733.2134337114837
 30
0.0
 40
3.5
100
AcDbArc
 50
90.0
 51
270.0
  0
ARC
  5
2696
330
2
100
AcDbEntity
  8
4
100
AcDbCircle
 10
635.4104059032366
 20
746.7134337114837
 30
0.0
 40
1.0
100
AcDbArc
 50
180.0
 51
270.0
  0
LINE
  5
2697
330
2
100
AcDbEntity
  8
4
100
AcDbLine
 10
693.4104059032366
 20
729.7134337114837
 30
0.0
 11
693.4104059032366
 21
720.7134337114837
 31
0.0
  0
LINE
  5
2698
330
2
100
AcDbEntity
  8
4
100
AcDbLine
 10
694.4104059032366
 20
744.7134337114837
 30
0.0
 11
694.4104059032366
 21
721.7134337114837
 31
0.0
  0
LINE
  5
2699
330
2
100
AcDbEntity
  8
4
100
AcDbLine
 10
693.4104059032366
 20
720.7134337114837
 30
0.0
 11
694.4104059032366
 21
721.7134337114837
 31
0.0
  0
LINE
  5
269A
330
2
100
AcDbEntity
  8
4
100
AcDbLine
 10
693.4104059032366
 20
745.7134337114837
 30
0.0
 11
694.4104059032366
 21
744.7134337114837
 31
0.0
  0
LINE
  5
269B
330
2
100
AcDbEntity
  8
4
100
AcDbLine
 10
693.4104059032366
 20
745.7134337114837
 30
0.0
 11
693.4104059032366
 21
736.7134337114837
 31
0.0
  0
LINE
  5
269C
330
2
100
AcDbEntity
  8
4
100
AcDbLine
 10
621.4104059032366
 20
748.2134337114837
 30
0.0
 11
634.4104059032366
 21
748.2134337114837
 31
0.0
  0
LINE
  5
269D
330
2
100
AcDbEntity
  8
4
100
AcDbLine
 10
621.4104059032366
 20
718.2134337114837
 30
0.0
 11
634.4104059032366
 21
718.2134337114837
 31
0.0
  0
LINE
  5
2F57
330
2
100
AcDbEntity
  8
4
100
AcDbLine
 10
469.4007869600032
 20
659.7134337114837
 30
0.0
 11
469.4007869600032
 21
664.7134337114837
 31
0.0
  0
LINE
  5
2F58
330
2
100
AcDbEntity
  8
4
100
AcDbLine
 10
443.4200248464699
 20
659.7134337114837
 30
0.0
 11
469.4007869600032
 21
659.7134337114837
 31
0.0
  0
LINE
  5
2F59
330
2
100
AcDbEntity
  8
4
100
AcDbLine
 10
441.4104059032366
 20
666.7134337114837
 30
0.0
 11
468.6604841343242
 21
666.7134337114837
 31
0.0
  0
LINE
  5
2F5A
330
2
100
AcDbEntity
  8
4
100
AcDbLine
 10
441.4104059032366
 20
664.7134337114837
 30
0.0
 11
471.4104059032366
 21
664.7134337114837
 31
0.0
  0
LINE
  5
2F5B
330
2
100
AcDbEntity
  8
4
100
AcDbLine
 10
442.4104059032366
 20
668.2134337114837
 30
0.0
 11
468.6604841343242
 21
668.2134337114837
 31
0.0
  0
LINE
  5
2F5D
330
2
100
AcDbEntity
  8
4
100
AcDbLine
 10
471.4104059032366
 20
664.7134337114837
 30
0.0
 11
471.4104059032366
 21
665.8134337114836
 31
0.0
  0
LINE
  5
2F5E
330
2
100
AcDbEntity
  8
4
100
AcDbLine
 10
443.4200248464699
 20
659.7134337114837
 30
0.0
 11
443.4200248464699
 21
664.7134337114837
 31
0.0
  0
LINE
  5
2F5F
330
2
100
AcDbEntity
  8
4
100
AcDbLine
 10
442.4104059032366
 20
666.7134337114837
 30
0.0
 11
442.4104059032366
 21
668.2134337114837
 31
0.0
  0
LINE
  5
2F60
330
2
100
AcDbEntity
  8
4
100
AcDbLine
 10
441.4104059032366
 20
666.7134337114837
 30
0.0
 11
441.4104059032366
 21
664.7134337114837
 31
0.0
  0
CIRCLE
  5
18C08
330
2
100
AcDbEntity
  8
4
100
AcDbCircle
 10
513.6604811343209
 20
233.8509620846016
 30
0.0
 40
5.0
  0
LINE
  5
18C0A
330
2
100
AcDbEntity
  8
2
100
AcDbLine
 10
513.6604811343209
 20
230.9642107386535
 30
0.0
 11
516.1604811343213
 21
232.4075864116276
 31
0.0
  0
LINE
  5
18C0B
330
2
100
AcDbEntity
  8
2
100
AcDbLine
 10
516.1604811343213
 20
235.2943377575757
 30
0.0
 11
513.6604811343209
 21
236.7377134305498
 31
0.0
  0
LINE
  5
18C0C
330
2
100
AcDbEntity
  8
2
100
AcDbLine
 10
511.1604811343209
 20
232.4075864116276
 30
0.0
 11
513.6604811343209
 21
230.9642107386535
 31
0.0
  0
LINE
  5
18C0D
330
2
100
AcDbEntity
  8
2
100
AcDbLine
 10
511.1604811343209
 20
235.2943377575757
 30
0.0
 11
511.1604811343209
 21
232.4075864116276
 31
0.0
  0
LINE
  5
18C0E
330
2
100
AcDbEntity
  8
2
100
AcDbLine
 10
513.6604811343209
 20
236.7377134305498
 30
0.0
 11
511.1604811343209
 21
235.2943377575757
 31
0.0
  0
LINE
  5
18C0F
330
2
100
AcDbEntity
  8
2
100
AcDbLine
 10
516.1604811343213
 20
232.4075864116276
 30
0.0
 11
516.1604811343213
 21
235.2943377575757
 31
0.0
  0
CIRCLE
  5
18C10
330
2
100
AcDbEntity
  8
4
100
AcDbCircle
 10
595.1603276721503
 20
233.8509638166493
 30
0.0
 40
5.0
  0
LINE
  5
18C12
330
2
100
AcDbEntity
  8
2
100
AcDbLine
 10
595.1603276721503
 20
230.9642124707011
 30
0.0
 11
597.6603276721503
 21
232.4075881436752
 31
0.0
  0
LINE
  5
18C13
330
2
100
AcDbEntity
  8
2
100
AcDbLine
 10
597.6603276721503
 20
235.2943394896233
 30
0.0
 11
595.1603276721503
 21
236.7377151625974
 31
0.0
  0
LINE
  5
18C14
330
2
100
AcDbEntity
  8
2
100
AcDbLine
 10
592.6603276721503
 20
232.4075881436752
 30
0.0
 11
595.1603276721503
 21
230.9642124707011
 31
0.0
  0
LINE
  5
18C15
330
2
100
AcDbEntity
  8
2
100
AcDbLine
 10
592.6603276721503
 20
235.2943394896233
 30
0.0
 11
592.6603276721503
 21
232.4075881436752
 31
0.0
  0
LINE
  5
18C16
330
2
100
AcDbEntity
  8
2
100
AcDbLine
 10
595.1603276721503
 20
236.7377151625974
 30
0.0
 11
592.6603276721503
 21
235.2943394896233
 31
0.0
  0
LINE
  5
18C17
330
2
100
AcDbEntity
  8
2
100
AcDbLine
 10
597.6603276721503
 20
232.4075881436752
 30
0.0
 11
597.6603276721503
 21
235.2943394896233
 31
0.0
  0
CIRCLE
  5
18C18
330
2
100
AcDbEntity
  8
4
100
AcDbCircle
 10
635.9104059030096
 20
163.2700406709855
 30
0.0
 40
5.0
  0
LINE
  5
18C1A
330
2
100
AcDbEntity
  8
2
100
AcDbLine
 10
635.9104059030096
 20
160.3832893250374
 30
0.0
 11
638.4104059030096
 21
161.8266649980114
 31
0.0
  0
LINE
  5
18C1B
330
2
100
AcDbEntity
  8
2
100
AcDbLine
 10
638.4104059030096
 20
164.7134163439596
 30
0.0
 11
635.9104059030096
 21
166.1567920169337
 31
0.0
  0
LINE
  5
18C1C
330
2
100
AcDbEntity
  8
2
100
AcDbLine
 10
633.4104059030096
 20
161.8266649980114
 30
0.0
 11
635.9104059030096
 21
160.3832893250374
 31
0.0
  0
LINE
  5
18C1D
330
2
100
AcDbEntity
  8
2
100
AcDbLine
 10
633.4104059030096
 20
164.7134163439596
 30
0.0
 11
633.4104059030096
 21
161.8266649980114
 31
0.0
  0
LINE
  5
18C1E
330
2
100
AcDbEntity
  8
2
100
AcDbLine
 10
635.9104059030096
 20
166.1567920169337
 30
0.0
 11
633.4104059030096
 21
164.7134163439596
 31
0.0
  0
LINE
  5
18C1F
330
2
100
AcDbEntity
  8
2
100
AcDbLine
 10
638.4104059030096
 20
161.8266649980114
 30
0.0
 11
638.4104059030096
 21
164.7134163439596
 31
0.0
  0
CIRCLE
  5
18C20
330
2
100
AcDbEntity
  8
4
100
AcDbCircle
 10
595.1604803009582
 20
92.68882078670185
 30
0.0
 40
5.0
  0
LINE
  5
18C22
330
2
100
AcDbEntity
  8
2
100
AcDbLine
 10
595.1604803009582
 20
89.80206944075371
 30
0.0
 11
597.6604803009582
 21
91.24544511372778
 31
0.0
  0
LINE
  5
18C23
330
2
100
AcDbEntity
  8
2
100
AcDbLine
 10
597.6604803009582
 20
94.13219645967592
 30
0.0
 11
595.1604803009582
 21
95.57557213265
 31
0.0
  0
LINE
  5
18C24
330
2
100
AcDbEntity
  8
2
100
AcDbLine
 10
592.6604803009582
 20
91.24544511372778
 30
0.0
 11
595.1604803009582
 21
89.80206944075371
 31
0.0
  0
LINE
  5
18C25
330
2
100
AcDbEntity
  8
2
100
AcDbLine
 10
592.6604803009582
 20
94.13219645967592
 30
0.0
 11
592.6604803009582
 21
91.24544511372778
 31
0.0
  0
LINE
  5
18C26
330
2
100
AcDbEntity
  8
2
100
AcDbLine
 10
595.1604803009582
 20
95.57557213265
 30
0.0
 11
592.6604803009582
 21
94.13219645967592
 31
0.0
  0
LINE
  5
18C27
330
2
100
AcDbEntity
  8
2
100
AcDbLine
 10
597.6604803009582
 20
91.24544511372778
 30
0.0
 11
597.6604803009582
 21
94.13219645967592
 31
0.0
  0
CIRCLE
  5
18C28
330
2
100
AcDbEntity
  8
4
100
AcDbCircle
 10
513.6603285055171
 20
92.68882251875539
 30
0.0
 40
5.0
  0
LINE
  5
18C2A
330
2
100
AcDbEntity
  8
2
100
AcDbLine
 10
513.6603285055171
 20
89.80207117280725
 30
0.0
 11
516.1603285055171
 21
91.24544684578132
 31
0.0
  0
LINE
  5
18C2B
330
2
100
AcDbEntity
  8
2
100
AcDbLine
 10
516.1603285055171
 20
94.13219819172946
 30
0.0
 11
513.6603285055171
 21
95.57557386470353
 31
0.0
  0
LINE
  5
18C2C
330
2
100
AcDbEntity
  8
2
100
AcDbLine
 10
511.1603285055171
 20
91.24544684578132
 30
0.0
 11
513.6603285055171
 21
89.80207117280725
 31
0.0
  0
LINE
  5
18C2D
330
2
100
AcDbEntity
  8
2
100
AcDbLine
 10
511.1603285055171
 20
94.13219819172946
 30
0.0
 11
511.1603285055171
 21
91.24544684578132
 31
0.0
  0
LINE
  5
18C2E
330
2
100
AcDbEntity
  8
2
100
AcDbLine
 10
513.6603285055171
 20
95.57557386470353
 30
0.0
 11
511.1603285055171
 21
94.13219819172946
 31
0.0
  0
LINE
  5
18C2F
330
2
100
AcDbEntity
  8
2
100
AcDbLine
 10
516.1603285055171
 20
91.24544684578132
 30
0.0
 11
516.1603285055171
 21
94.13219819172946
 31
0.0
  0
CIRCLE
  5
18C30
330
2
100
AcDbEntity
  8
4
100
AcDbCircle
 10
472.9104059033202
 20
163.2699649378733
 30
0.0
 40
5.0
  0
LINE
  5
18C32
330
2
100
AcDbEntity
  8
2
100
AcDbLine
 10
472.9104059033202
 20
160.3832135919251
 30
0.0
 11
475.4104059033202
 21
161.8265892648992
 31
0.0
  0
LINE
  5
18C33
330
2
100
AcDbEntity
  8
2
100
AcDbLine
 10
475.4104059033202
 20
164.7133406108474
 30
0.0
 11
472.9104059033202
 21
166.1567162838214
 31
0.0
  0
LINE
  5
18C34
330
2
100
AcDbEntity
  8
2
100
AcDbLine
 10
470.4104059033202
 20
161.8265892648992
 30
0.0
 11
472.9104059033202
 21
160.3832135919251
 31
0.0
  0
LINE
  5
18C35
330
2
100
AcDbEntity
  8
2
100
AcDbLine
 10
470.4104059033202
 20
164.7133406108474
 30
0.0
 11
470.4104059033202
 21
161.8265892648992
 31
0.0
  0
LINE
  5
18C36
330
2
100
AcDbEntity
  8
2
100
AcDbLine
 10
472.9104059033202
 20
166.1567162838214
 30
0.0
 11
470.4104059033202
 21
164.7133406108474
 31
0.0
  0
LINE
  5
18C37
330
2
100
AcDbEntity
  8
2
100
AcDbLine
 10
475.4104059033202
 20
161.8265892648992
 30
0.0
 11
475.4104059033202
 21
164.7133406108474
 31
0.0
  0
CIRCLE
  5
18C46
330
2
100
AcDbEntity
  8
4
100
AcDbCircle
 10
391.4104059032366
 20
1043.213433711484
 30
0.0
 40
6.5
  0
LINE
  5
18C48
330
2
100
AcDbEntity
  8
2
100
AcDbLine
 10
388.4104059032366
 20
1041.481382903915
 30
0.0
 11
391.4104059032366
 21
1039.749332096346
 31
0.0
  0
LINE
  5
18C49
330
2
100
AcDbEntity
  8
2
100
AcDbLine
 10
391.4104059032366
 20
1039.749332096346
 30
0.0
 11
394.4104059032366
 21
1041.481382903915
 31
0.0
  0
LINE
  5
18C4A
330
2
100
AcDbEntity
  8
2
100
AcDbLine
 10
394.4104059032366
 20
1044.945484519052
 30
0.0
 11
391.4104059032366
 21
1046.677535326621
 31
0.0
  0
LINE
  5
18C4B
330
2
100
AcDbEntity
  8
2
100
AcDbLine
 10
388.4104059032366
 20
1044.945484519052
 30
0.0
 11
388.4104059032366
 21
1041.481382903915
 31
0.0
  0
LINE
  5
18C4C
330
2
100
AcDbEntity
  8
2
100
AcDbLine
 10
391.4104059032366
 20
1046.677535326621
 30
0.0
 11
388.4104059032366
 21
1044.945484519052
 31
0.0
  0
LINE
  5
18C4D
330
2
100
AcDbEntity
  8
2
100
AcDbLine
 10
394.4104059032366
 20
1041.481382903915
 30
0.0
 11
394.4104059032366
 21
1044.945484519052
 31
0.0
  0
CIRCLE
  5
18C4F
330
2
100
AcDbEntity
  8
4
100
AcDbCircle
 10
495.3334543573692
 20
983.2134337114837
 30
0.0
 40
6.5
  0
LINE
  5
18C51
330
2
100
AcDbEntity
  8
2
100
AcDbLine
 10
492.3334543573692
 20
981.4813829039147
 30
0.0
 11
495.3334543573692
 21
979.7493320963456
 31
0.0
  0
LINE
  5
18C52
330
2
100
AcDbEntity
  8
2
100
AcDbLine
 10
495.3334543573692
 20
979.7493320963456
 30
0.0
 11
498.3334543573692
 21
981.4813829039147
 31
0.0
  0
LINE
  5
18C53
330
2
100
AcDbEntity
  8
2
100
AcDbLine
 10
498.3334543573692
 20
984.9454845190523
 30
0.0
 11
495.3334543573692
 21
986.6775353266214
 31
0.0
  0
LINE
  5
18C54
330
2
100
AcDbEntity
  8
2
100
AcDbLine
 10
492.3334543573692
 20
984.9454845190523
 30
0.0
 11
492.3334543573692
 21
981.4813829039147
 31
0.0
  0
LINE
  5
18C55
330
2
100
AcDbEntity
  8
2
100
AcDbLine
 10
495.3334543573692
 20
986.6775353266214
 30
0.0
 11
492.3334543573692
 21
984.9454845190523
 31
0.0
  0
LINE
  5
18C56
330
2
100
AcDbEntity
  8
2
100
AcDbLine
 10
498.3334543573692
 20
981.4813829039147
 30
0.0
 11
498.3334543573692
 21
984.9454845190523
 31
0.0
  0
CIRCLE
  5
18C58
330
2
100
AcDbEntity
  8
4
100
AcDbCircle
 10
495.3334543573692
 20
863.2134337114833
 30
0.0
 40
6.5
  0
LINE
  5
18C5A
330
2
100
AcDbEntity
  8
2
100
AcDbLine
 10
492.3334543573692
 20
861.4813829039142
 30
0.0
 11
495.3334543573692
 21
859.7493320963451
 31
0.0
  0
LINE
  5
18C5B
330
2
100
AcDbEntity
  8
2
100
AcDbLine
 10
495.3334543573692
 20
859.7493320963451
 30
0.0
 11
498.3334543573692
 21
861.4813829039142
 31
0.0
  0
LINE
  5
18C5C
330
2
100
AcDbEntity
  8
2
100
AcDbLine
 10
498.3334543573692
 20
864.9454845190519
 30
0.0
 11
495.3334543573692
 21
866.677535326621
 31
0.0
  0
LINE
  5
18C5D
330
2
100
AcDbEntity
  8
2
100
AcDbLine
 10
492.3334543573692
 20
864.9454845190519
 30
0.0
 11
492.3334543573692
 21
861.4813829039142
 31
0.0
  0
LINE
  5
18C5E
330
2
100
AcDbEntity
  8
2
100
AcDbLine
 10
495.3334543573692
 20
866.677535326621
 30
0.0
 11
492.3334543573692
 21
864.9454845190519
 31
0.0
  0
LINE
  5
18C5F
330
2
100
AcDbEntity
  8
2
100
AcDbLine
 10
498.3334543573692
 20
861.4813829039142
 30
0.0
 11
498.3334543573692
 21
864.9454845190519
 31
0.0
  0
CIRCLE
  5
18C61
330
2
100
AcDbEntity
  8
4
100
AcDbCircle
 10
391.4104059032366
 20
803.2134337114837
 30
0.0
 40
6.5
  0
LINE
  5
18C63
330
2
100
AcDbEntity
  8
2
100
AcDbLine
 10
388.4104059032366
 20
801.4813829039147
 30
0.0
 11
391.4104059032366
 21
799.7493320963456
 31
0.0
  0
LINE
  5
18C64
330
2
100
AcDbEntity
  8
2
100
AcDbLine
 10
391.4104059032366
 20
799.7493320963456
 30
0.0
 11
394.4104059032366
 21
801.4813829039147
 31
0.0
  0
LINE
  5
18C65
330
2
100
AcDbEntity
  8
2
100
AcDbLine
 10
394.4104059032366
 20
804.9454845190523
 30
0.0
 11
391.4104059032366
 21
806.6775353266214
 31
0.0
  0
LINE
  5
18C66
330
2
100
AcDbEntity
  8
2
100
AcDbLine
 10
388.4104059032366
 20
804.9454845190523
 30
0.0
 11
388.4104059032366
 21
801.4813829039147
 31
0.0
  0
LINE
  5
18C67
330
2
100
AcDbEntity
  8
2
100
AcDbLine
 10
391.4104059032366
 20
806.6775353266214
 30
0.0
 11
388.4104059032366
 21
804.9454845190523
 31
0.0
  0
LINE
  5
18C68
330
2
100
AcDbEntity
  8
2
100
AcDbLine
 10
394.4104059032366
 20
801.4813829039147
 30
0.0
 11
394.4104059032366
 21
804.9454845190523
 31
0.0
  0
CIRCLE
  5
18C6A
330
2
100
AcDbEntity
  8
4
100
AcDbCircle
 10
287.4873574491039
 20
863.2134337114837
 30
0.0
 40
6.5
  0
LINE
  5
18C6C
330
2
100
AcDbEntity
  8
2
100
AcDbLine
 10
284.4873574491039
 20
861.4813829039147
 30
0.0
 11
287.4873574491039
 21
859.7493320963456
 31
0.0
  0
LINE
  5
18C6D
330
2
100
AcDbEntity
  8
2
100
AcDbLine
 10
287.4873574491039
 20
859.7493320963456
 30
0.0
 11
290.4873574491039
 21
861.4813829039147
 31
0.0
  0
LINE
  5
18C6E
330
2
100
AcDbEntity
  8
2
100
AcDbLine
 10
290.4873574491039
 20
864.9454845190523
 30
0.0
 11
287.4873574491039
 21
866.6775353266214
 31
0.0
  0
LINE
  5
18C6F
330
2
100
AcDbEntity
  8
2
100
AcDbLine
 10
284.4873574491039
 20
864.9454845190523
 30
0.0
 11
284.4873574491039
 21
861.4813829039147
 31
0.0
  0
LINE
  5
18C70
330
2
100
AcDbEntity
  8
2
100
AcDbLine
 10
287.4873574491039
 20
866.6775353266214
 30
0.0
 11
284.4873574491039
 21
864.9454845190523
 31
0.0
  0
LINE
  5
18C71
330
2
100
AcDbEntity
  8
2
100
AcDbLine
 10
290.4873574491039
 20
861.4813829039147
 30
0.0
 11
290.4873574491039
 21
864.9454845190523
 31
0.0
  0
CIRCLE
  5
18C73
330
2
100
AcDbEntity
  8
4
100
AcDbCircle
 10
287.4873574491039
 20
983.2134337114837
 30
0.0
 40
6.5
  0
LINE
  5
18C75
330
2
100
AcDbEntity
  8
2
100
AcDbLine
 10
284.4873574491039
 20
981.4813829039147
 30
0.0
 11
287.4873574491039
 21
979.7493320963456
 31
0.0
  0
LINE
  5
18C76
330
2
100
AcDbEntity
  8
2
100
AcDbLine
 10
287.4873574491039
 20
979.7493320963456
 30
0.0
 11
290.4873574491039
 21
981.4813829039147
 31
0.0
  0
LINE
  5
18C77
330
2
100
AcDbEntity
  8
2
100
AcDbLine
 10
290.4873574491039
 20
984.9454845190523
 30
0.0
 11
287.4873574491039
 21
986.6775353266214
 31
0.0
  0
LINE
  5
18C78
330
2
100
AcDbEntity
  8
2
100
AcDbLine
 10
284.4873574491039
 20
984.9454845190523
 30
0.0
 11
284.4873574491039
 21
981.4813829039147
 31
0.0
  0
LINE
  5
18C79
330
2
100
AcDbEntity
  8
2
100
AcDbLine
 10
287.4873574491039
 20
986.6775353266214
 30
0.0
 11
284.4873574491039
 21
984.9454845190523
 31
0.0
  0
LINE
  5
18C7A
330
2
100
AcDbEntity
  8
2
100
AcDbLine
 10
290.4873574491039
 20
981.4813829039147
 30
0.0
 11
290.4873574491039
 21
984.9454845190523
 31
0.0
  0
LINE
  5
1B269
330
2
100
AcDbEntity
  8
4
100
AcDbLine
 10
298.4104059032366
 20
83.26994565613018
 30
0.0
 11
298.4104059032366
 21
130.2699456561302
 31
0.0
  0
LINE
  5
1B26A
330
2
100
AcDbEntity
  8
L-CENTER
 48
4.0
100
AcDbLine
 10
318.5124448388337
 20
81.26994565613018
 30
0.0
 11
285.7850753680777
 21
81.26994565613018
 31
0.0
  0
LINE
  5
1B26B
330
2
100
AcDbEntity
  8
4
100
AcDbLine
 10
296.4104059032366
 20
176.2699456561302
 30
0.0
 11
296.4104059032366
 21
127.0983727808764
 31
0.0
  0
ARC
  5
1B26C
330
2
100
AcDbEntity
  8
4
100
AcDbCircle
 10
295.4104059032366
 20
124.2699456561302
 30
0.0
 40
3.0
100
AcDbArc
 50
0.0
 51
70.52877936550945
  0
ARC
  5
1B26D
330
2
100
AcDbEntity
  8
4
100
AcDbCircle
 10
296.4104059032366
 20
130.2699456561302
 30
0.0
 40
2.0
100
AcDbArc
 50
0.0
 51
90.0
  0
ARC
  5
1B26E
330
2
100
AcDbEntity
  8
4
100
AcDbCircle
 10
299.4104059032366
 20
178.2699456561302
 30
0.0
 40
2.0
100
AcDbArc
 50
270.0
 51
0.0
  0
LINE
  5
1B26F
330
2
100
AcDbEntity
  8
4
100
AcDbLine
 10
296.4104059032366
 20
176.2699456561302
 30
0.0
 11
299.4104059032366
 21
176.2699456561302
 31
0.0
  0
LINE
  5
1B270
330
2
100
AcDbEntity
  8
2
  6
DASHED2
 48
3.0
100
AcDbLine
 10
298.4104059032366
 20
83.26994565613018
 30
0.0
 11
298.4104059032366
 21
68.27012424153645
 31
0.0
  0
LINE
  5
1B275
330
2
100
AcDbEntity
  8
2
  6
DASHED2
 48
3.0
100
AcDbLine
 10
295.4104059032366
 20
74.76994565613018
 30
0.0
 11
295.4104059032366
 21
83.27036824153674
 31
0.0
  0
LINE
  5
1B277
330
2
100
AcDbEntity
  8
4
100
AcDbLine
 10
295.4104059032366
 20
87.76994565613018
 30
0.0
 11
298.4104059032366
 21
87.26994565613018
 31
0.0
  0
LINE
  5
1B278
330
2
100
AcDbEntity
  8
2
  6
DASHED2
 48
3.0
100
AcDbLine
 10
295.4104059032366
 20
74.76994565613018
 30
0.0
 11
298.4104059032366
 21
75.26994565613018
 31
0.0
  0
LINE
  5
1B279
330
2
100
AcDbEntity
  8
4
100
AcDbLine
 10
295.4104059032366
 20
83.27036824153674
 30
0.0
 11
295.4104059032366
 21
87.76994565613018
 31
0.0
  0
LINE
  5
1B28D
330
2
100
AcDbEntity
  8
L-CENTER
 48
4.0
100
AcDbLine
 10
1034.510107693146
 20
92.68900079044408
 30
0.0
 11
1063.50688674271
 21
92.68903897235703
 31
0.0
  0
LINE
  5
1B28E
330
2
100
AcDbEntity
  8
4
100
AcDbLine
 10
1361.94272006701
 20
249.6705122415365
 30
0.0
 11
1347.44272006701
 21
249.6705122415365
 31
0.0
  0
LINE
  5
1B28F
330
2
100
AcDbEntity
  8
4
100
AcDbLine
 10
1361.192718679328
 20
257.6705122415365
 30
0.0
 11
1348.192718679327
 21
257.6705122415365
 31
0.0
  0
LINE
  5
1B290
330
2
100
AcDbEntity
  8
4
100
AcDbLine
 10
1361.192718679328
 20
257.6705122415365
 30
0.0
 11
1361.19272006701
 21
249.6705122415365
 31
0.0
  0
LINE
  5
1B291
330
2
100
AcDbEntity
  8
4
100
AcDbLine
 10
1348.192718679327
 20
257.6705122415365
 30
0.0
 11
1348.19272006701
 21
249.6705122415365
 31
0.0
  0
LINE
  5
1B292
330
2
100
AcDbEntity
  8
4
100
AcDbLine
 10
1361.94272006701
 20
249.6705122415365
 30
0.0
 11
1361.942720413931
 21
247.6705122415365
 31
0.0
  0
LINE
  5
1B293
330
2
100
AcDbEntity
  8
4
100
AcDbLine
 10
1347.44272006701
 20
249.6705122415365
 30
0.0
 11
1347.442720413931
 21
247.6705122415365
 31
0.0
  0
LINE
  5
1B294
330
2
100
AcDbEntity
  8
2
100
AcDbLine
 10
1356.692720413931
 20
249.6705122415365
 30
0.0
 11
1354.692720413931
 21
247.6705122415365
 31
0.0
  0
LINE
  5
1B295
330
2
100
AcDbEntity
  8
2
100
AcDbLine
 10
1353.864293289185
 20
249.6705122415365
 30
0.0
 11
1351.864293289185
 21
247.6705122415365
 31
0.0
  0
LINE
  5
1B296
330
2
100
AcDbEntity
  8
4
100
AcDbLine
 10
1421.94272009085
 20
249.6705122415365
 30
0.0
 11
1407.44272009085
 21
249.6705122415365
 31
0.0
  0
LINE
  5
1B297
330
2
100
AcDbEntity
  8
4
100
AcDbLine
 10
1421.192718703167
 20
257.6705122415365
 30
0.0
 11
1408.192718703167
 21
257.6705122415365
 31
0.0
  0
LINE
  5
1B298
330
2
100
AcDbEntity
  8
4
100
AcDbLine
 10
1407.44272009085
 20
249.6705122415365
 30
0.0
 11
1407.44272043777
 21
247.6705122415365
 31
0.0
  0
LINE
  5
1B299
330
2
100
AcDbEntity
  8
4
100
AcDbLine
 10
1421.94272009085
 20
249.6705122415365
 30
0.0
 11
1421.942720437771
 21
247.6705122415365
 31
0.0
  0
LINE
  5
1B29A
330
2
100
AcDbEntity
  8
4
100
AcDbLine
 10
1408.192718703167
 20
257.6705122415365
 30
0.0
 11
1408.19272009085
 21
249.6705122415365
 31
0.0
  0
LINE
  5
1B29B
330
2
100
AcDbEntity
  8
4
100
AcDbLine
 10
1421.192718703167
 20
257.6705122415365
 30
0.0
 11
1421.19272009085
 21
249.6705122415365
 31
0.0
  0
LINE
  5
1B29C
330
2
100
AcDbEntity
  8
2
100
AcDbLine
 10
1416.692720437771
 20
249.6705122415365
 30
0.0
 11
1414.692720437771
 21
247.6705122415365
 31
0.0
  0
LINE
  5
1B29D
330
2
100
AcDbEntity
  8
2
100
AcDbLine
 10
1413.864293313024
 20
249.6705122415365
 30
0.0
 11
1411.864293313024
 21
247.6705122415365
 31
0.0
  0
LINE
  5
1B29E
330
2
100
AcDbEntity
  8
4
100
AcDbLine
 10
1241.942734754798
 20
249.6703987536071
 30
0.0
 11
1227.442734754797
 21
249.6703987536071
 31
0.0
  0
LINE
  5
1B29F
330
2
100
AcDbEntity
  8
4
100
AcDbLine
 10
1241.192733367115
 20
257.6703987536071
 30
0.0
 11
1228.192733367114
 21
257.6703987536071
 31
0.0
  0
LINE
  5
1B2A0
330
2
100
AcDbEntity
  8
4
100
AcDbLine
 10
1227.442734754797
 20
249.6703987536071
 30
0.0
 11
1227.442735101718
 21
247.6703987536071
 31
0.0
  0
LINE
  5
1B2A1
330
2
100
AcDbEntity
  8
4
100
AcDbLine
 10
1241.942734754798
 20
249.6703987536071
 30
0.0
 11
1241.942735101718
 21
247.6703987536071
 31
0.0
  0
LINE
  5
1B2A2
330
2
100
AcDbEntity
  8
4
100
AcDbLine
 10
1228.192733367114
 20
257.6703987536071
 30
0.0
 11
1228.192734754797
 21
249.6703987536071
 31
0.0
  0
LINE
  5
1B2A3
330
2
100
AcDbEntity
  8
4
100
AcDbLine
 10
1241.192733367115
 20
257.6703987536071
 30
0.0
 11
1241.192734754797
 21
249.6703987536071
 31
0.0
  0
LINE
  5
1B2A4
330
2
100
AcDbEntity
  8
2
100
AcDbLine
 10
1236.692735101718
 20
249.6703987536071
 30
0.0
 11
1234.692735101718
 21
247.6703987536071
 31
0.0
  0
LINE
  5
1B2A5
330
2
100
AcDbEntity
  8
2
100
AcDbLine
 10
1233.864307976972
 20
249.6703987536071
 30
0.0
 11
1231.864307976972
 21
247.6703987536071
 31
0.0
  0
LINE
  5
1B2A6
330
2
100
AcDbEntity
  8
4
100
AcDbLine
 10
1181.942734730959
 20
249.670285265235
 30
0.0
 11
1167.442734730958
 21
249.670285265235
 31
0.0
  0
LINE
  5
1B2A7
330
2
100
AcDbEntity
  8
4
100
AcDbLine
 10
1181.192733343276
 20
257.670285265235
 30
0.0
 11
1168.192733343276
 21
257.670285265235
 31
0.0
  0
LINE
  5
1B2A8
330
2
100
AcDbEntity
  8
4
100
AcDbLine
 10
1167.442734730958
 20
249.670285265235
 30
0.0
 11
1167.442735077879
 21
247.670285265235
 31
0.0
  0
LINE
  5
1B2A9
330
2
100
AcDbEntity
  8
4
100
AcDbLine
 10
1181.942734730959
 20
249.670285265235
 30
0.0
 11
1181.942735077879
 21
247.670285265235
 31
0.0
  0
LINE
  5
1B2AA
330
2
100
AcDbEntity
  8
4
100
AcDbLine
 10
1168.192733343276
 20
257.670285265235
 30
0.0
 11
1168.192734730958
 21
249.670285265235
 31
0.0
  0
LINE
  5
1B2AB
330
2
100
AcDbEntity
  8
4
100
AcDbLine
 10
1181.192733343276
 20
257.670285265235
 30
0.0
 11
1181.192734730959
 21
249.670285265235
 31
0.0
  0
LINE
  5
1B2AC
330
2
100
AcDbEntity
  8
2
100
AcDbLine
 10
1176.692735077879
 20
249.670285265235
 30
0.0
 11
1174.692735077879
 21
247.670285265235
 31
0.0
  0
LINE
  5
1B2AD
330
2
100
AcDbEntity
  8
2
100
AcDbLine
 10
1173.864307953133
 20
249.670285265235
 30
0.0
 11
1171.864307953133
 21
247.670285265235
 31
0.0
  0
LINE
  5
1B2AE
330
2
100
AcDbEntity
  8
4
100
AcDbLine
 10
334.737357102184
 20
249.6703156739101
 30
0.0
 11
320.2373571021835
 21
249.6703156739101
 31
0.0
  0
LINE
  5
1B2AF
330
2
100
AcDbEntity
  8
4
100
AcDbLine
 10
333.9873557145013
 20
257.6703156739101
 30
0.0
 11
320.9873557145008
 21
257.6703156739101
 31
0.0
  0
LINE
  5
1B2B0
330
2
100
AcDbEntity
  8
4
100
AcDbLine
 10
320.2373571021835
 20
249.6703156739101
 30
0.0
 11
320.2373574491041
 21
247.6703156739101
 31
0.0
  0
LINE
  5
1B2B1
330
2
100
AcDbEntity
  8
4
100
AcDbLine
 10
334.737357102184
 20
249.6703156739101
 30
0.0
 11
334.7373574491046
 21
247.6703156739101
 31
0.0
  0
LINE
  5
1B2B2
330
2
100
AcDbEntity
  8
4
100
AcDbLine
 10
320.9873557145008
 20
257.6703156739101
 30
0.0
 11
320.9873571021835
 21
249.6703156739101
 31
0.0
  0
LINE
  5
1B2B3
330
2
100
AcDbEntity
  8
4
100
AcDbLine
 10
333.9873557145013
 20
257.6703156739101
 30
0.0
 11
333.9873571021838
 21
249.6703156739101
 31
0.0
  0
LINE
  5
1B2B4
330
2
100
AcDbEntity
  8
4
100
AcDbLine
 10
438.6604055563162
 20
249.6705122415365
 30
0.0
 11
424.1604055563157
 21
249.6705122415365
 31
0.0
  0
LINE
  5
1B2B5
330
2
100
AcDbEntity
  8
4
100
AcDbLine
 10
437.9104041686335
 20
257.6705122415365
 30
0.0
 11
424.910404168633
 21
257.6705122415365
 31
0.0
  0
LINE
  5
1B2B6
330
2
100
AcDbEntity
  8
4
100
AcDbLine
 10
424.1604055563157
 20
249.6705122415365
 30
0.0
 11
424.1604059032363
 21
247.6705122415365
 31
0.0
  0
LINE
  5
1B2B7
330
2
100
AcDbEntity
  8
4
100
AcDbLine
 10
438.6604055563162
 20
249.6705122415365
 30
0.0
 11
438.6604059032368
 21
247.6705122415365
 31
0.0
  0
LINE
  5
1B2B8
330
2
100
AcDbEntity
  8
4
100
AcDbLine
 10
424.910404168633
 20
257.6705122415365
 30
0.0
 11
424.9104055563157
 21
249.6705122415365
 31
0.0
  0
LINE
  5
1B2B9
330
2
100
AcDbEntity
  8
4
100
AcDbLine
 10
437.9104041686335
 20
257.6705122415365
 30
0.0
 11
437.9104055563159
 21
249.6705122415365
 31
0.0
  0
LINE
  5
1B2BA
330
2
100
AcDbEntity
  8
4
100
AcDbLine
 10
1043.192656168299
 20
228.1009638166493
 30
0.0
 11
1043.192640747845
 21
239.6009638166493
 31
0.0
  0
LINE
  5
1B2BB
330
2
100
AcDbEntity
  8
4
100
AcDbLine
 10
1037.192655162612
 20
228.8509638166493
 30
0.0
 11
1037.192641753521
 21
238.8509638166493
 31
0.0
  0
LINE
  5
1B2BC
330
2
100
AcDbEntity
  8
4
 48
4.0
100
AcDbLine
 10
1037.192641753521
 20
238.8509638166493
 30
0.0
 11
1043.192641753527
 21
238.8509638166493
 31
0.0
  0
LINE
  5
1B2BD
330
2
100
AcDbEntity
  8
4
 48
4.0
100
AcDbLine
 10
1037.192655162612
 20
228.8509638166493
 30
0.0
 11
1043.192655162618
 21
228.8509638166493
 31
0.0
  0
LINE
  5
1B2BE
330
2
100
AcDbEntity
  8
4
 48
4.0
100
AcDbLine
 10
1043.192640747845
 20
239.6009638166493
 30
0.0
 11
1044.692640747846
 21
239.6009638166493
 31
0.0
  0
LINE
  5
1B2BF
330
2
100
AcDbEntity
  8
4
 48
4.0
100
AcDbLine
 10
1043.192656168299
 20
228.1009638166493
 30
0.0
 11
1044.692656168301
 21
228.1009638166493
 31
0.0
  0
LINE
  5
1B2C1
330
2
100
AcDbEntity
  8
2
100
AcDbLine
 10
1044.69264561358
 20
235.9722813157149
 30
0.0
 11
1043.192647624939
 21
234.4722833270746
 31
0.0
  0
LINE
  5
1B2C2
330
2
100
AcDbEntity
  8
2
100
AcDbLine
 10
1044.692648458074
 20
233.8509638166493
 30
0.0
 11
1043.192650469433
 21
232.350965828009
 31
0.0
  0
LINE
  5
1B2C3
330
2
100
AcDbEntity
  8
4
100
AcDbLine
 10
1043.192750810971
 20
157.5199890076408
 30
0.0
 11
1043.192735390516
 21
169.0199890076408
 31
0.0
  0
LINE
  5
1B2C4
330
2
100
AcDbEntity
  8
4
100
AcDbLine
 10
1037.192749805284
 20
158.2699890076408
 30
0.0
 11
1037.192736396193
 21
168.2699890076408
 31
0.0
  0
LINE
  5
1B2C5
330
2
100
AcDbEntity
  8
4
 48
4.0
100
AcDbLine
 10
1043.192750810971
 20
157.5199890076408
 30
0.0
 11
1044.692750810972
 21
157.5199890076408
 31
0.0
  0
LINE
  5
1B2C6
330
2
100
AcDbEntity
  8
4
 48
4.0
100
AcDbLine
 10
1043.192735390516
 20
169.0199890076408
 30
0.0
 11
1044.692735390518
 21
169.0199890076408
 31
0.0
  0
LINE
  5
1B2C7
330
2
100
AcDbEntity
  8
4
 48
4.0
100
AcDbLine
 10
1037.192749805284
 20
158.2699890076408
 30
0.0
 11
1043.192749805289
 21
158.2699890076408
 31
0.0
  0
LINE
  5
1B2C8
330
2
100
AcDbEntity
  8
4
 48
4.0
100
AcDbLine
 10
1037.192736396193
 20
168.2699890076408
 30
0.0
 11
1043.192736396198
 21
168.2699890076408
 31
0.0
  0
LINE
  5
1B2C9
330
2
100
AcDbEntity
  8
2
100
AcDbLine
 10
1044.692740256251
 20
165.3913065067064
 30
0.0
 11
1043.192742267611
 21
163.8913085180661
 31
0.0
  0
LINE
  5
1B2CA
330
2
100
AcDbEntity
  8
2
100
AcDbLine
 10
1044.692743100745
 20
163.2699890076408
 30
0.0
 11
1043.192745112105
 21
161.7699910190005
 31
0.0
  0
LINE
  5
1B2CB
330
2
100
AcDbEntity
  8
4
100
AcDbLine
 10
1043.192845453642
 20
86.93901419869576
 30
0.0
 11
1043.192830033188
 21
98.43901419869576
 31
0.0
  0
LINE
  5
1B2CC
330
2
100
AcDbEntity
  8
4
100
AcDbLine
 10
1037.192844447955
 20
87.68901419869576
 30
0.0
 11
1037.192831038864
 21
97.68901419869576
 31
0.0
  0
LINE
  5
1B2CD
330
2
100
AcDbEntity
  8
4
 48
4.0
100
AcDbLine
 10
1043.192845453642
 20
86.93901419869576
 30
0.0
 11
1044.692845453644
 21
86.93901419869576
 31
0.0
  0
LINE
  5
1B2CE
330
2
100
AcDbEntity
  8
4
 48
4.0
100
AcDbLine
 10
1043.192830033188
 20
98.43901419869576
 30
0.0
 11
1044.692830033189
 21
98.43901419869576
 31
0.0
  0
LINE
  5
1B2CF
330
2
100
AcDbEntity
  8
4
 48
4.0
100
AcDbLine
 10
1037.192844447955
 20
87.68901419869576
 30
0.0
 11
1043.192844447961
 21
87.68901419869576
 31
0.0
  0
LINE
  5
1B2D0
330
2
100
AcDbEntity
  8
4
 48
4.0
100
AcDbLine
 10
1037.192831038864
 20
97.68901419869576
 30
0.0
 11
1043.19283103887
 21
97.68901419869576
 31
0.0
  0
LINE
  5
1B2D1
330
2
100
AcDbEntity
  8
2
100
AcDbLine
 10
1044.692834898923
 20
94.8103316977614
 30
0.0
 11
1043.192836910282
 21
93.3103337091211
 31
0.0
  0
LINE
  5
1B2D2
330
2
100
AcDbEntity
  8
2
100
AcDbLine
 10
1044.692837743416
 20
92.68901419869576
 30
0.0
 11
1043.192839754776
 21
91.18901621005546
 31
0.0
  0
CIRCLE
  5
1B2D3
330
2
100
AcDbEntity
  8
4
100
AcDbCircle
 10
595.1604803009579
 20
92.68882078670174
 30
0.0
 40
5.75
  0
CIRCLE
  5
1B2D4
330
2
100
AcDbEntity
  8
4
100
AcDbCircle
 10
513.6603285055171
 20
92.68882251875539
 30
0.0
 40
5.75
  0
CIRCLE
  5
1B2D5
330
2
100
AcDbEntity
  8
4
100
AcDbCircle
 10
472.9104059033201
 20
163.2699649378733
 30
0.0
 40
5.75
  0
CIRCLE
  5
1B2D6
330
2
100
AcDbEntity
  8
4
100
AcDbCircle
 10
635.9104059030094
 20
163.2700406709853
 30
0.0
 40
5.75
  0
CIRCLE
  5
1B2D7
330
2
100
AcDbEntity
  8
4
100
AcDbCircle
 10
595.1603276721503
 20
233.8509638166494
 30
0.0
 40
5.75
  0
CIRCLE
  5
1B2D8
330
2
100
AcDbEntity
  8
4
100
AcDbCircle
 10
513.6604811343211
 20
233.850962084602
 30
0.0
 40
5.75
  0
LINE
  5
1B2DB
330
2
100
AcDbEntity
  8
4
100
AcDbLine
 10
601.6604059030096
 20
671.8134414217095
 30
0.0
 11
590.1604059030096
 21
671.813426001255
 31
0.0
  0
LINE
  5
1B2DC
330
2
100
AcDbEntity
  8
4
100
AcDbLine
 10
600.9104059030096
 20
665.8134404160223
 30
0.0
 11
590.9104059030096
 21
665.8134270069313
 31
0.0
  0
LINE
  5
1B2DD
330
2
100
AcDbEntity
  8
4
 48
4.0
100
AcDbLine
 10
601.6604059030096
 20
671.8134414217095
 30
0.0
 11
601.6604059030096
 21
673.3134414217109
 31
0.0
  0
LINE
  5
1B2DE
330
2
100
AcDbEntity
  8
4
 48
4.0
100
AcDbLine
 10
590.1604059030096
 20
671.813426001255
 30
0.0
 11
590.1604059030096
 21
673.3134260012564
 31
0.0
  0
LINE
  5
1B2DF
330
2
100
AcDbEntity
  8
4
 48
4.0
100
AcDbLine
 10
600.9104059030096
 20
665.8134404160223
 30
0.0
 11
600.9104059030096
 21
671.8134404160278
 31
0.0
  0
LINE
  5
1B2E0
330
2
100
AcDbEntity
  8
4
 48
4.0
100
AcDbLine
 10
590.9104059030096
 20
665.8134270069315
 30
0.0
 11
590.9104059030096
 21
671.813427006937
 31
0.0
  0
LINE
  5
1B2E1
330
2
100
AcDbEntity
  8
4
100
AcDbLine
 10
560.9103276721503
 20
671.8134414217095
 30
0.0
 11
549.4103276721503
 21
671.813426001255
 31
0.0
  0
LINE
  5
1B2E2
330
2
100
AcDbEntity
  8
4
100
AcDbLine
 10
560.1603276721503
 20
665.8134404160223
 30
0.0
 11
550.1603276721503
 21
665.8134270069313
 31
0.0
  0
LINE
  5
1B2E3
330
2
100
AcDbEntity
  8
4
 48
4.0
100
AcDbLine
 10
560.9103276721503
 20
671.8134414217095
 30
0.0
 11
560.9103276721503
 21
673.3134414217109
 31
0.0
  0
LINE
  5
1B2E4
330
2
100
AcDbEntity
  8
4
 48
4.0
100
AcDbLine
 10
549.4103276721503
 20
671.813426001255
 30
0.0
 11
549.4103276721503
 21
673.3134260012564
 31
0.0
  0
LINE
  5
1B2E5
330
2
100
AcDbEntity
  8
4
 48
4.0
100
AcDbLine
 10
560.1603276721503
 20
665.8134404160223
 30
0.0
 11
560.1603276721503
 21
671.8134404160278
 31
0.0
  0
LINE
  5
1B2E6
330
2
100
AcDbEntity
  8
4
 48
4.0
100
AcDbLine
 10
550.1603276721503
 20
665.8134270069315
 30
0.0
 11
550.1603276721503
 21
671.813427006937
 31
0.0
  0
LINE
  5
1B2E7
330
2
100
AcDbEntity
  8
4
100
AcDbLine
 10
479.4104841343243
 20
671.8134414217095
 30
0.0
 11
467.9104841343243
 21
671.813426001255
 31
0.0
  0
LINE
  5
1B2E8
330
2
100
AcDbEntity
  8
4
100
AcDbLine
 10
478.6604841343243
 20
665.8134404160223
 30
0.0
 11
468.6604841343243
 21
665.8134270069313
 31
0.0
  0
LINE
  5
1B2E9
330
2
100
AcDbEntity
  8
4
 48
4.0
100
AcDbLine
 10
479.4104841343243
 20
671.8134414217095
 30
0.0
 11
479.4104841343243
 21
673.3134414217109
 31
0.0
  0
LINE
  5
1B2EA
330
2
100
AcDbEntity
  8
4
 48
4.0
100
AcDbLine
 10
467.9104841343243
 20
671.813426001255
 30
0.0
 11
467.9104841343243
 21
673.3134260012564
 31
0.0
  0
LINE
  5
1B2EB
330
2
100
AcDbEntity
  8
4
 48
4.0
100
AcDbLine
 10
478.6604841343243
 20
665.8134404160223
 30
0.0
 11
478.6604841343243
 21
671.8134404160278
 31
0.0
  0
LINE
  5
1B2EC
330
2
100
AcDbEntity
  8
4
 48
4.0
100
AcDbLine
 10
468.6604841343243
 20
665.8134270069315
 30
0.0
 11
468.6604841343243
 21
671.813427006937
 31
0.0
  0
LINE
  5
1B2ED
330
2
100
AcDbEntity
  8
4
100
AcDbLine
 10
438.6604059034655
 20
671.8134414217095
 30
0.0
 11
427.1604059034655
 21
671.813426001255
 31
0.0
  0
LINE
  5
1B2EE
330
2
100
AcDbEntity
  8
4
100
AcDbLine
 10
437.9104059034655
 20
665.8134404160223
 30
0.0
 11
427.9104059034655
 21
665.8134270069313
 31
0.0
  0
LINE
  5
1B2EF
330
2
100
AcDbEntity
  8
4
 48
4.0
100
AcDbLine
 10
438.6604059034655
 20
671.8134414217095
 30
0.0
 11
438.6604059034655
 21
673.3134414217109
 31
0.0
  0
LINE
  5
1B2F0
330
2
100
AcDbEntity
  8
4
 48
4.0
100
AcDbLine
 10
427.1604059034655
 20
671.813426001255
 30
0.0
 11
427.1604059034655
 21
673.3134260012564
 31
0.0
  0
LINE
  5
1B2F1
330
2
100
AcDbEntity
  8
4
 48
4.0
100
AcDbLine
 10
437.9104059034655
 20
665.8134404160223
 30
0.0
 11
437.9104059034655
 21
671.8134404160278
 31
0.0
  0
LINE
  5
1B2F2
330
2
100
AcDbEntity
  8
4
 48
4.0
100
AcDbLine
 10
427.9104059034655
 20
665.8134270069315
 30
0.0
 11
427.9104059034655
 21
671.813427006937
 31
0.0
  0
CIRCLE
  5
1B2F3
330
2
100
AcDbEntity
  8
4
100
AcDbCircle
 10
495.3334543573694
 20
863.2134337114835
 30
0.0
 40
7.25
  0
CIRCLE
  5
1B2F4
330
2
100
AcDbEntity
  8
4
100
AcDbCircle
 10
495.3334543573695
 20
983.213433711484
 30
0.0
 40
7.25
  0
CIRCLE
  5
1B2F5
330
2
100
AcDbEntity
  8
4
100
AcDbCircle
 10
391.410405903237
 20
1043.213433711484
 30
0.0
 40
7.25
  0
CIRCLE
  5
1B2F6
330
2
100
AcDbEntity
  8
4
100
AcDbCircle
 10
287.4873574491043
 20
983.2134337114835
 30
0.0
 40
7.25
  0
CIRCLE
  5
1B2F7
330
2
100
AcDbEntity
  8
4
100
AcDbCircle
 10
287.4873574491043
 20
863.213433711484
 30
0.0
 40
7.25
  0
CIRCLE
  5
1B2F8
330
2
100
AcDbEntity
  8
4
100
AcDbCircle
 10
391.410405903237
 20
803.2134337114837
 30
0.0
 40
7.25
  0
ENDSEC
  0
SECTION
  2
OBJECTS
  0
DICTIONARY
  5
1A
330
0
100
AcDbDictionary
281
     1
  3
ACAD_CIP_PREVIOUS_PRODUCT_INFO
350
18CFC
  3
ACAD_COLOR
350
18CDE
  3
ACAD_DETAILVIEWSTYLE
350
18CF7
  3
ACAD_GROUP
350
18
  3
ACAD_LAYOUT
350
2F79
  3
ACAD_MATERIAL
350
18CAC
  3
ACAD_MLEADERSTYLE
350
18CF3
  3
ACAD_MLINESTYLE
350
19
  3
ACAD_PLOTSETTINGS
350
2F7A
  3
ACAD_PLOTSTYLENAME
350
2F77
  3
ACAD_SCALELIST
350
18CE1
  3
ACAD_SECTIONVIEWSTYLE
350
18CF5
  3
ACAD_TABLESTYLE
350
18CDF
  3
ACAD_VISUALSTYLE
350
18CC5
  3
ACDBHEADERROUNDTRIPXREC
350
1B31E
  3
AcDbVariableDictionary
350
2FAB
  3
DWGPROPS
350
1B321
  0
DICTIONARY
  5
1B322
330
12
100
AcDbDictionary
280
     1
281
     1
  3
ACAD_XREC_ROUNDTRIP
360
1B323
  0
DICTIONARY
  5
18D10
330
A
100
AcDbDictionary
280
     1
281
     1
  3
ACAD_LAYERSTATES
360
18D11
  0
DICTIONARY
  5
18CFD
330
4
100
AcDbDictionary
280
     1
281
     1
  3
ADSK_XREC_LAYER_RECONCILED
360
18CFE
  0
DICTIONARY
  5
18CFF
330
26
100
AcDbDictionary
280
     1
281
     1
  3
ADSK_XREC_LAYER_RECONCILED
360
18D00
  0
DICTIONARY
  5
18D01
330
1B
100
AcDbDictionary
280
     1
281
     1
  3
ADSK_XREC_LAYER_RECONCILED
360
18D02
  0
DICTIONARY
  5
18D03
330
35
100
AcDbDictionary
280
     1
281
     1
  3
ADSK_XREC_LAYER_RECONCILED
360
18D04
  0
DICTIONARY
  5
18D05
330
23
100
AcDbDictionary
280
     1
281
     1
  3
ADSK_XREC_LAYER_RECONCILED
360
18D06
  0
DICTIONARY
  5
18D07
330
17371
100
AcDbDictionary
280
     1
281
     1
  3
ADSK_XREC_LAYER_RECONCILED
360
18D08
  0
DICTIONARY
  5
18D09
330
17372
100
AcDbDictionary
280
     1
281
     1
  3
ADSK_XREC_LAYER_RECONCILED
360
18D0A
  0
DICTIONARY
  5
18D0B
330
17373
100
AcDbDictionary
280
     1
281
     1
  3
ADSK_XREC_LAYER_RECONCILED
360
18D0C
  0
DICTIONARY
  5
1B272
330
2
100
AcDbDictionary
280
     1
281
     1
  3
ACAD_SORTENTS
360
1B273
  0
XRECORD
  5
18CFC
102
{ACAD_REACTORS
330
1A
102
}
330
1A
100
AcDbXrecord
280
     1
300
ACD
300
2014
300
ACD_F_S
  0
DICTIONARY
  5
18CDE
102
{ACAD_REACTORS
330
1A
102
}
330
1A
100
AcDbDictionary
281
     1
  0
DICTIONARY
  5
18CF7
102
{ACAD_REACTORS
330
1A
102
}
330
1A
100
AcDbDictionary
281
     1
  3
Imperial24
350
18CF8
  0
DICTIONARY
  5
18
102
{ACAD_REACTORS
330
1A
102
}
330
1A
100
AcDbDictionary
281
     1
  0
DICTIONARY
  5
2F79
102
{ACAD_REACTORS
330
1A
102
}
330
1A
100
AcDbDictionary
281
     1
  3
Model
350
2F7B
  3
ﾚｲｱｳﾄ1
350
2F7C
  0
DICTIONARY
  5
18CAC
102
{ACAD_REACTORS
330
1A
102
}
330
1A
100
AcDbDictionary
281
     1
  3
ByBlock
350
18CB5
  3
ByLayer
350
18CAD
  3
Global
350
18CBD
  0
DICTIONARY
  5
18CF3
102
{ACAD_REACTORS
330
1A
102
}
330
1A
100
AcDbDictionary
281
     1
  3
Standard
350
18CF4
  0
DICTIONARY
  5
19
102
{ACAD_REACTORS
330
1A
102
}
330
1A
100
AcDbDictionary
281
     1
  3
STANDARD
350
1D
  0
DICTIONARY
  5
2F7A
102
{ACAD_REACTORS
330
1A
102
}
330
1A
100
AcDbDictionary
281
     1
  0
ACDBDICTIONARYWDFLT
  5
2F77
102
{ACAD_REACTORS
330
1A
102
}
330
1A
100
AcDbDictionary
281
     1
  3
Normal
350
2F78
100
AcDbDictionaryWithDefault
340
2F78
  0
DICTIONARY
  5
18CE1
102
{ACAD_REACTORS
330
1A
102
}
330
1A
100
AcDbDictionary
281
     1
  3
A0
350
18CE2
  3
A1
350
18CE3
  3
A2
350
18CE4
  3
A3
350
18CE5
  3
A4
350
18CE6
  3
A5
350
18CE7
  3
A6
350
18CE8
  3
A7
350
18CE9
  3
A8
350
18CEA
  3
A9
350
18CEB
  3
B0
350
18CEC
  3
B1
350
18CED
  3
B2
350
18CEE
  3
B3
350
18CEF
  3
B4
350
18CF0
  3
B5
350
18CF1
  3
B6
350
18CF2
  0
DICTIONARY
  5
18CF5
102
{ACAD_REACTORS
330
1A
102
}
330
1A
100
AcDbDictionary
281
     1
  3
Imperial24
350
18CF6
  0
DICTIONARY
  5
18CDF
102
{ACAD_REACTORS
330
1A
102
}
330
1A
100
AcDbDictionary
281
     1
  3
Standard
350
18CE0
  0
DICTIONARY
  5
18CC5
102
{ACAD_REACTORS
330
1A
102
}
330
1A
100
AcDbDictionary
281
     1
  3
2dWireframe
350
18CCB
  3
Basic
350
18CCA
  3
Brighten
350
18CD1
  3
ColorChange
350
18CD5
  3
Conceptual
350
18CCE
  3
Dim
350
18CD0
  3
EdgeColorOff
350
18CDD
  3
Facepattern
350
18CD4
  3
Flat
350
18CC6
  3
FlatWithEdges
350
18CC7
  3
Gouraud
350
18CC8
  3
GouraudWithEdges
350
18CC9
  3
Hidden
350
18CCD
  3
JitterOff
350
18CDB
  3
Linepattern
350
18CD3
  3
OverhangOff
350
18CDC
  3
Realistic
350
18CCF
  3
Shaded
350
18CDA
  3
Shaded with edges
350
18CD9
  3
Shades of Gray
350
18CD6
  3
Sketchy
350
18CD7
  3
Thicken
350
18CD2
  3
Wireframe
350
18CCC
  3
X-Ray
350
18CD8
  0
DICTIONARY
  5
1B31E
102
{ACAD_REACTORS
330
1A
102
}
330
1A
100
AcDbDictionary
281
     1
  3
COLORDICT
350
1B31F
  3
MATERIALDICT
350
1B320
  0
DICTIONARY
  5
2FAB
102
{ACAD_REACTORS
330
1A
102
}
330
1A
100
AcDbDictionary
281
     1
  3
CANNOSCALE
350
18D21
  3
CMLEADERSTYLE
350
18D1D
  3
CTABLESTYLE
350
18D1C
  3
CVIEWDETAILSTYLE
350
18D1E
  3
CVIEWSECTIONSTYLE
350
18D1F
  3
DIMASSOC
350
2FAC
  3
HIDETEXT
350
1B31D
  3
LAYEREVAL
350
18D23
  3
LAYERNOTIFY
350
18D24
  3
LIGHTINGUNITS
350
18D22
  3
MSLTSCALE
350
18D20
  3
XCLIPFRAME
350
18D36
  0
XRECORD
  5
1B321
102
{ACAD_REACTORS
330
1A
102
}
330
1A
100
AcDbXrecord
280
     1
  1
DWGPROPS COOKIE
  2

  3

  4

  6

  7

  8
sg-d03
  9

300
=
301
=
302
=
303
=
304
=
305
=
306
=
307
=
308
=
309
=
 40
0.0
 41
2457620.30066485
 42
2458124.375349132
  1

 90
        0
  0
XRECORD
  5
1B323
102
{ACAD_REACTORS
330
1B322
102
}
330
1B322
100
AcDbXrecord
280
     1
102
VTR_0.000_0.000_1.000_1.000_GRIDDISPLAY
 70
     3
102
VTR_0.000_0.000_1.000_1.000_GRIDMAJOR
 70
     5
102
VTR_0.000_0.000_1.000_1.000_DEFAULTLIGHTING
280
     1
102
VTR_0.000_0.000_1.000_1.000_DEFAULTLIGHTINGTYPE
 70
     1
102
VTR_0.000_0.000_1.000_1.000_BRIGHTNESS
141
0.0
102
VTR_0.000_0.000_1.000_1.000_CONTRAST
142
0.0
  0
DICTIONARY
  5
18D11
102
{ACAD_REACTORS
330
18D10
102
}
330
18D10
100
AcDbDictionary
281
     1
  0
XRECORD
  5
18CFE
102
{ACAD_REACTORS
330
18CFD
102
}
330
18CFD
100
AcDbXrecord
280
     1
290
     1
  0
XRECORD
  5
18D00
102
{ACAD_REACTORS
330
18CFF
102
}
330
18CFF
100
AcDbXrecord
280
     1
290
     1
  0
XRECORD
  5
18D02
102
{ACAD_REACTORS
330
18D01
102
}
330
18D01
100
AcDbXrecord
280
     1
290
     1
  0
XRECORD
  5
18D04
102
{ACAD_REACTORS
330
18D03
102
}
330
18D03
100
AcDbXrecord
280
     1
290
     1
  0
XRECORD
  5
18D06
102
{ACAD_REACTORS
330
18D05
102
}
330
18D05
100
AcDbXrecord
280
     1
290
     1
  0
XRECORD
  5
18D08
102
{ACAD_REACTORS
330
18D07
102
}
330
18D07
100
AcDbXrecord
280
     1
290
     1
  0
XRECORD
  5
18D0A
102
{ACAD_REACTORS
330
18D09
102
}
330
18D09
100
AcDbXrecord
280
     1
290
     1
  0
XRECORD
  5
18D0C
102
{ACAD_REACTORS
330
18D0B
102
}
330
18D0B
100
AcDbXrecord
280
     1
290
     1
  0
SORTENTSTABLE
  5
1B273
102
{ACAD_REACTORS
330
1B272
102
}
330
1B272
100
AcDbSortentsTable
330
2
331
0
  5
337
331
16F
  5
170
331
170
  5
172
331
171
  5
173
331
172
  5
174
331
173
  5
176
331
0
  5
177
331
176
  5
185
331
177
  5
186
331
185
  5
187
331
186
  5
188
331
187
  5
189
331
188
  5
18B
331
189
  5
18E
331
18B
  5
18F
331
0
  5
190
331
0
  5
191
331
0
  5
192
331
0
  5
193
331
0
  5
194
331
0
  5
195
331
0
  5
196
331
0
  5
197
331
196
  5
19A
331
197
  5
19B
331
0
  5
19C
331
0
  5
19D
331
0
  5
19E
331
0
  5
19F
331
19E
  5
1A0
331
19F
  5
1A3
331
1A0
  5
1A7
331
1A3
  5
1AC
331
1A7
  5
1AD
331
1AC
  5
1AE
331
1AD
  5
1B2
331
1AE
  5
1B6
331
1B2
  5
1B7
331
1B6
  5
1B8
331
1B7
  5
1B9
331
1B8
  5
1BA
331
1B9
  5
1BC
331
1BA
  5
1BD
331
1BC
  5
1BE
331
1BD
  5
1BF
331
1BE
  5
1C0
331
1BF
  5
1C4
331
1C0
  5
1C5
331
1C4
  5
1C6
331
1C5
  5
1C7
331
1C6
  5
1C8
331
1C7
  5
1D1
331
1C8
  5
1D7
331
1D1
  5
1D8
331
1D7
  5
1D9
331
1D8
  5
1DA
331
1D9
  5
1DB
331
1DA
  5
1DC
331
1DB
  5
1DD
331
1DC
  5
1DE
331
1DD
  5
1DF
331
1DE
  5
1E2
331
1DF
  5
1E3
331
1E2
  5
1E4
331
1E3
  5
1E5
331
1E4
  5
1E6
331
1E5
  5
1E7
331
1E6
  5
1E8
331
1E7
  5
1E9
331
1E8
  5
1EA
331
1E9
  5
1EB
331
1EA
  5
1EC
331
1EB
  5
1ED
331
1EC
  5
1EE
331
1ED
  5
1EF
331
1EE
  5
1F0
331
1EF
  5
1F1
331
1F0
  5
1F2
331
1F1
  5
1F3
331
1F2
  5
1F4
331
1F3
  5
1F5
331
1F4
  5
1F6
331
1F5
  5
1F7
331
1F6
  5
1F8
331
1F7
  5
1F9
331
1F8
  5
1FA
331
1F9
  5
1FB
331
1FA
  5
1FC
331
1FB
  5
1FD
331
1FC
  5
1FE
331
1FD
  5
1FF
331
1FE
  5
202
331
1FF
  5
20A
331
202
  5
20B
331
0
  5
20C
331
0
  5
20D
331
0
  5
20E
331
0
  5
20F
331
0
  5
210
331
0
  5
211
331
0
  5
212
331
0
  5
213
331
0
  5
214
331
0
  5
215
331
214
  5
216
331
0
  5
217
331
216
  5
218
331
217
  5
219
331
218
  5
21A
331
219
  5
21B
331
0
  5
21C
331
0
  5
21D
331
0
  5
21E
331
0
  5
21F
331
0
  5
220
331
0
  5
221
331
0
  5
222
331
0
  5
223
331
0
  5
224
331
0
  5
226
331
0
  5
227
331
0
  5
228
331
0
  5
229
331
0
  5
22B
331
0
  5
22C
331
22B
  5
22D
331
22C
  5
22E
331
0
  5
22F
331
0
  5
230
331
22F
  5
231
331
230
  5
232
331
231
  5
233
331
232
  5
234
331
233
  5
23C
331
234
  5
23D
331
23C
  5
23E
331
23D
  5
23F
331
23E
  5
240
331
23F
  5
241
331
240
  5
242
331
241
  5
243
331
242
  5
244
331
243
  5
245
331
244
  5
246
331
245
  5
247
331
246
  5
248
331
247
  5
249
331
248
  5
24A
331
249
  5
24B
331
24A
  5
24C
331
24B
  5
24D
331
24C
  5
24E
331
0
  5
24F
331
0
  5
250
331
0
  5
251
331
250
  5
252
331
0
  5
253
331
252
  5
254
331
253
  5
255
331
254
  5
256
331
255
  5
259
331
256
  5
25A
331
0
  5
25B
331
258
  5
25C
331
259
  5
25D
331
25A
  5
25E
331
25B
  5
25F
331
0
  5
260
331
0
  5
261
331
25E
  5
262
331
0
  5
263
331
260
  5
264
331
0
  5
265
331
0
  5
266
331
263
  5
267
331
264
  5
269
331
265
  5
26A
331
266
  5
26B
331
267
  5
26C
331
269
  5
26D
331
26A
  5
26E
331
26B
  5
26F
331
26C
  5
270
331
26D
  5
271
331
26E
  5
272
331
26F
  5
273
331
270
  5
274
331
271
  5
275
331
272
  5
276
331
273
  5
277
331
274
  5
278
331
275
  5
279
331
0
  5
27A
331
0
  5
27B
331
0
  5
27C
331
0
  5
27D
331
0
  5
27E
331
0
  5
27F
331
0
  5
280
331
0
  5
284
331
0
  5
286
331
0
  5
287
331
0
  5
28A
331
0
  5
2B4
331
0
  5
2B5
331
0
  5
2B6
331
0
  5
2B7
331
0
  5
2B8
331
2B5
  5
2B9
331
0
  5
2BA
331
2B7
  5
2BB
331
2B8
  5
2BC
331
2B9
  5
2BD
331
0
  5
2C1
331
0
  5
2C2
331
0
  5
2C3
331
0
  5
2C4
331
2BE
  5
2C5
331
2BF
  5
2C6
331
2C0
  5
2C9
331
2C1
  5
2CA
331
2C2
  5
2CB
331
2C3
  5
2CC
331
2C4
  5
2CD
331
2C5
  5
2CE
331
2C6
  5
2CF
331
2C7
  5
2D0
331
2C8
  5
2D1
331
2C9
  5
2D2
331
2CA
  5
2D3
331
2CB
  5
2D4
331
2CC
  5
2D5
331
2CD
  5
2D6
331
2CE
  5
2D7
331
0
  5
2D8
331
0
  5
2D9
331
0
  5
2DA
331
0
  5
2DB
331
2D3
  5
2DC
331
2D4
  5
2DD
331
2D5
  5
2DE
331
2D6
  5
2DF
331
2D7
  5
2E0
331
2D8
  5
2E1
331
2D9
  5
2E2
331
2DA
  5
2E3
331
2DB
  5
2E4
331
0
  5
2E5
331
0
  5
2E6
331
2DE
  5
2E7
331
2DF
  5
2EE
331
2E0
  5
2F1
331
2E1
  5
300
331
0
  5
305
331
2E3
  5
306
331
2E4
  5
307
331
2E5
  5
308
331
2E6
  5
309
331
2E7
  5
30A
331
2EE
  5
30B
331
2F1
  5
30C
331
300
  5
30D
331
305
  5
30E
331
0
  5
30F
331
307
  5
310
331
308
  5
311
331
309
  5
312
331
30A
  5
313
331
30B
  5
314
331
30C
  5
315
331
30D
  5
316
331
30E
  5
317
331
30F
  5
318
331
310
  5
319
331
311
  5
31A
331
312
  5
31B
331
313
  5
321
331
314
  5
322
331
315
  5
32E
331
316
  5
32F
331
317
  5
330
331
318
  5
331
331
319
  5
332
331
31A
  5
336
331
31B
  5
338
331
321
  5
339
331
322
  5
33A
331
32E
  5
33B
331
0
  5
33C
331
0
  5
33D
331
0
  5
33E
331
0
  5
33F
331
333
  5
340
331
0
  5
35F
331
0
  5
362
331
0
  5
363
331
0
  5
364
331
0
  5
365
331
0
  5
366
331
0
  5
367
331
0
  5
368
331
33C
  5
369
331
33D
  5
36A
331
33E
  5
36B
331
33F
  5
36C
331
340
  5
374
331
0
  5
383
331
362
  5
384
331
0
  5
385
331
0
  5
386
331
0
  5
387
331
0
  5
388
331
0
  5
389
331
0
  5
38A
331
0
  5
38B
331
0
  5
38C
331
0
  5
38E
331
0
  5
38F
331
374
  5
390
331
0
  5
391
331
0
  5
392
331
0
  5
393
331
0
  5
394
331
0
  5
395
331
0
  5
396
331
0
  5
398
331
0
  5
39A
331
0
  5
39F
331
0
  5
3A0
331
0
  5
3A1
331
0
  5
3A2
331
390
  5
BF2
331
391
  5
BF5
331
392
  5
C0A
331
393
  5
C11
331
0
  5
C12
331
0
  5
C13
331
0
  5
C14
331
0
  5
C15
331
0
  5
C16
331
39F
  5
C17
331
3A0
  5
C18
331
3A1
  5
C19
331
3A2
  5
C1A
331
BF2
  5
C1B
331
C0A
  5
2409
331
0
  5
240A
331
0
  5
240B
331
0
  5
240C
331
0
  5
240D
331
0
  5
240E
331
0
  5
240F
331
0
  5
2410
331
0
  5
2411
331
0
  5
2412
331
0
  5
2413
331
0
  5
2414
331
0
  5
2415
331
2402
  5
2416
331
2404
  5
2417
331
2406
  5
2418
331
2407
  5
2419
331
2409
  5
241A
331
240A
  5
241B
331
240B
  5
241C
331
240C
  5
241D
331
240D
  5
241E
331
240E
  5
241F
331
240F
  5
2420
331
2410
  5
2421
331
2411
  5
2425
331
2412
  5
242A
331
2413
  5
242F
331
2414
  5
2430
331
2415
  5
2431
331
2416
  5
2432
331
2417
  5
2433
331
2418
  5
2434
331
2419
  5
2435
331
241A
  5
2439
331
241B
  5
243A
331
241C
  5
243B
331
241D
  5
243C
331
241E
  5
243E
331
241F
  5
243F
331
2420
  5
2440
331
2421
  5
2441
331
2425
  5
2442
331
242A
  5
2446
331
242F
  5
2447
331
2430
  5
2448
331
2431
  5
244A
331
2432
  5
2461
331
2433
  5
2462
331
2434
  5
2463
331
2435
  5
2464
331
2439
  5
2465
331
243A
  5
2466
331
243B
  5
2467
331
243C
  5
2468
331
243E
  5
2469
331
243F
  5
246A
331
2440
  5
246B
331
2441
  5
246C
331
2442
  5
246D
331
2446
  5
246E
331
2447
  5
2472
331
2448
  5
2473
331
244A
  5
2474
331
2461
  5
2475
331
2462
  5
2476
331
2463
  5
2477
331
2464
  5
2478
331
2465
  5
2479
331
2466
  5
247D
331
2467
  5
247E
331
2468
  5
247F
331
2469
  5
2480
331
246A
  5
2481
331
246B
  5
2482
331
246C
  5
2483
331
246D
  5
2484
331
246E
  5
24A6
331
2472
  5
24A7
331
2473
  5
24A8
331
2474
  5
24A9
331
2475
  5
24AA
331
2476
  5
24AB
331
2477
  5
24AC
331
2478
  5
24AD
331
2479
  5
24AE
331
247D
  5
24AF
331
247E
  5
24B0
331
247F
  5
24B1
331
2480
  5
24B2
331
2481
  5
24B3
331
2482
  5
24B4
331
2483
  5
24B5
331
2484
  5
24B6
331
24A6
  5
24B7
331
24A7
  5
24B8
331
24A8
  5
24B9
331
24A9
  5
24BA
331
24AA
  5
24BB
331
24AB
  5
24BC
331
24AC
  5
24BD
331
24AD
  5
24BE
331
24AE
  5
256C
331
24AF
  5
2581
331
24B0
  5
2596
331
24B1
  5
25A1
331
24B2
  5
25AC
331
24B3
  5
25AD
331
24B4
  5
2608
331
24B5
  5
2609
331
24B6
  5
260A
331
24B7
  5
260B
331
24B8
  5
260C
331
24B9
  5
260D
331
24BA
  5
260E
331
24BB
  5
260F
331
24BC
  5
2610
331
24BD
  5
2611
331
24BE
  5
2612
331
256C
  5
2613
331
2581
  5
2614
331
2596
  5
2615
331
25A1
  5
2616
331
25AC
  5
261D
331
25AD
  5
261E
331
2608
  5
261F
331
2609
  5
2621
331
260A
  5
2622
331
260B
  5
2639
331
260C
  5
2644
331
260D
  5
265A
331
260E
  5
2665
331
260F
  5
2667
331
2610
  5
2668
331
2611
  5
2675
331
2612
  5
2676
331
2613
  5
2677
331
2614
  5
2678
331
2615
  5
2679
331
2616
  5
267A
331
2617
  5
267B
331
261A
  5
267C
331
261B
  5
267D
331
261C
  5
267E
331
261D
  5
267F
331
261E
  5
2680
331
261F
  5
2681
331
2621
  5
2682
331
2622
  5
2683
331
2639
  5
2684
331
2644
  5
2685
331
265A
  5
2686
331
2665
  5
2687
331
2667
  5
2689
331
2668
  5
268A
331
2675
  5
268B
331
2676
  5
268C
331
2677
  5
268D
331
2678
  5
268E
331
2679
  5
268F
331
267A
  5
2690
331
267B
  5
2691
331
267C
  5
2692
331
267D
  5
2693
331
267E
  5
2694
331
267F
  5
2695
331
2680
  5
2696
331
2681
  5
2697
331
2682
  5
2698
331
2683
  5
2699
331
2684
  5
269A
331
2685
  5
269B
331
2686
  5
269C
331
2687
  5
269D
331
2689
  5
2F57
331
268A
  5
2F58
331
268B
  5
2F59
331
268C
  5
2F5A
331
268D
  5
2F5B
331
268E
  5
2F5D
331
268F
  5
2F5E
331
2690
  5
2F5F
331
2691
  5
2F60
331
2692
  5
18BA5
331
2693
  5
18BA6
331
2694
  5
18BA7
331
2695
  5
18BA8
331
2696
  5
18BA9
331
2697
  5
18BAA
331
2698
  5
18BAB
331
2699
  5
18BAC
331
269A
  5
18BAD
331
269B
  5
18BAE
331
269C
  5
18BAF
331
269D
  5
18BB0
331
2F57
  5
18BB1
331
2F58
  5
18BB2
331
2F59
  5
18BB3
331
2F5A
  5
18BB4
331
2F5B
  5
18BB5
331
2F5D
  5
18BB6
331
2F5E
  5
18BB7
331
2F5F
  5
18C1B
331
2F60
  5
18C1D
331
18C08
  5
18C1E
331
18C0A
  5
18C1F
331
18C0B
  5
18C20
331
18C0C
  5
18C21
331
18C0D
  5
18C22
331
18C0E
  5
18C23
331
18C0F
  5
18C25
331
18C10
  5
18C26
331
18C12
  5
18C27
331
18C13
  5
18C28
331
18C14
  5
18C29
331
18C15
  5
18C2A
331
18C16
  5
18C2B
331
18C17
  5
18C2D
331
18C18
  5
18C2E
331
18C1A
  5
18C2F
331
18C1B
  5
18C30
331
18C1C
  5
18C31
331
18C1D
  5
18C32
331
18C1E
  5
18C33
331
18C1F
  5
18C35
331
18C20
  5
18C36
331
18C22
  5
18C37
331
18C23
  5
18C38
331
18C24
  5
18C39
331
18C25
  5
18C45
331
18C26
  5
18C46
331
18C27
  5
18C48
331
18C28
  5
18C49
331
18C2A
  5
18C4A
331
18C2B
  5
18C4B
331
18C2C
  5
18C4C
331
18C2D
  5
18C4D
331
18C2E
  5
18C4E
331
18C2F
  5
18C50
331
18C30
  5
18C51
331
18C32
  5
18C52
331
18C33
  5
18C53
331
18C34
  5
18C54
331
18C35
  5
18C55
331
18C36
  5
18C56
331
18C37
  5
18C57
331
0
  5
18C59
331
0
  5
18C5B
331
18C46
  5
18C5C
331
18C48
  5
18C5D
331
18C49
  5
18C5E
331
18C4A
  5
18C5F
331
18C4B
  5
18C60
331
18C4C
  5
18C62
331
18C4D
  5
18C64
331
18C4F
  5
18C65
331
18C51
  5
18C66
331
18C52
  5
18C67
331
18C53
  5
18C68
331
18C54
  5
18C69
331
18C55
  5
18C6B
331
18C56
  5
18C6D
331
18C58
  5
18C6E
331
18C5A
  5
18C6F
331
18C5B
  5
18C70
331
18C5C
  5
18C71
331
18C5D
  5
18C72
331
18C5E
  5
18C74
331
18C5F
  5
18C76
331
18C61
  5
18C77
331
18C63
  5
18C78
331
18C64
  5
18C79
331
18C65
  5
18C7A
331
18C66
  5
18C7B
331
18C67
  5
18C7D
331
18C68
  5
18C7F
331
18C6A
  5
18C80
331
18C6C
  5
18C81
331
18C6D
  5
18C82
331
18C6E
  5
18C83
331
18C6F
  5
18C84
331
18C70
  5
18C86
331
18C71
  5
18C88
331
18C73
  5
18C89
331
18C75
  5
18C8A
331
18C76
  5
18C8B
331
18C77
  5
18C8C
331
18C78
  5
18C8D
331
18C79
  5
199A3
331
18C7A
  5
199A4
331
0
  5
199A5
331
0
  5
199A6
331
0
  5
199A7
331
0
  5
199A8
331
0
  5
199A9
331
0
  5
199AA
331
0
  5
199AB
331
0
  5
199AC
331
0
  5
199AD
331
0
  5
199AE
331
0
  5
199AF
331
0
  5
199B0
331
0
  5
199B1
331
0
  5
199B2
331
0
  5
199B3
331
0
  5
199B4
331
0
  5
199B5
331
0
  5
199B6
331
0
  5
199B7
331
0
  5
199B8
331
0
  5
199B9
331
0
  5
199BA
331
0
  5
199BB
331
0
  5
199BC
331
0
  5
199BD
331
0
  5
199BE
331
0
  5
199BF
331
0
  5
199C0
331
0
  5
199C1
331
0
  5
199C2
331
0
  5
199C3
331
0
  5
199C4
331
0
  5
199C5
331
0
  5
199C6
331
0
  5
199C7
331
0
  5
199C8
331
0
  5
199C9
331
0
  5
199CA
331
0
  5
199CB
331
0
  5
199CC
331
0
  5
199CD
331
0
  5
199CE
331
0
  5
199CF
331
0
  5
199D0
331
0
  5
199D1
331
0
  5
199D2
331
0
  5
199D3
331
0
  5
199D4
331
0
  5
199D5
331
0
  5
199D6
331
0
  5
199D7
331
0
  5
199D8
331
0
  5
199D9
331
0
  5
199DA
331
0
  5
199DB
331
0
  5
199DC
331
0
  5
199DD
331
0
  5
199DE
331
0
  5
199DF
331
0
  5
199E0
331
0
  5
199E1
331
0
  5
199E2
331
0
  5
199E3
331
0
  5
199E4
331
0
  5
199E5
331
0
  5
199E6
331
0
  5
199E7
331
0
  5
199E8
331
0
  5
199E9
331
0
  5
199EA
331
0
  5
199EB
331
0
  5
199EC
331
0
  5
199ED
331
0
  5
199EE
331
0
  5
199EF
331
0
  5
199F0
331
0
  5
199F1
331
0
  5
199F2
331
0
  5
199F3
331
0
  5
199F4
331
0
  5
199F5
331
0
  5
199F6
331
0
  5
199F7
331
0
  5
199F8
331
0
  5
199F9
331
0
  5
199FA
331
0
  5
199FB
331
0
  5
199FC
331
0
  5
199FD
331
0
  5
199FE
331
0
  5
199FF
331
0
  5
19A00
331
0
  5
19A01
331
0
  5
19A02
331
0
  5
19A03
331
0
  5
19A04
331
0
  5
19A05
331
0
  5
19A06
331
0
  5
19A07
331
0
  5
19A08
331
0
  5
19A09
331
0
  5
19A0A
331
0
  5
19A0B
331
0
  5
19A0C
331
0
  5
19A0D
331
0
  5
19A0E
331
0
  5
19A0F
331
0
  5
19A10
331
0
  5
19A11
331
0
  5
19A12
331
0
  5
19A13
331
0
  5
19A14
331
0
  5
19A15
331
0
  5
19A16
331
0
  5
19A17
331
0
  5
19A18
331
0
  5
19A19
331
0
  5
19A1A
331
0
  5
19A1B
331
0
  5
19A1C
331
0
  5
19A1D
331
0
  5
19A1E
331
0
  5
19A1F
331
0
  5
19A20
331
0
  5
19A21
331
0
  5
19A22
331
0
  5
19A23
331
0
  5
19A24
331
0
  5
19A25
331
0
  5
19A26
331
0
  5
19A27
331
0
  5
19A28
331
0
  5
19A29
331
0
  5
19A2A
331
0
  5
19A2B
331
0
  5
19A2C
331
0
  5
19A2D
331
0
  5
19A2E
331
0
  5
19A2F
331
0
  5
19A30
331
0
  5
19A31
331
0
  5
19A32
331
0
  5
19A33
331
0
  5
19A34
331
0
  5
19A35
331
0
  5
19A36
331
0
  5
19A37
331
0
  5
19A38
331
0
  5
19A39
331
0
  5
19A3A
331
0
  5
19A3B
331
0
  5
19A3C
331
0
  5
19A3D
331
0
  5
19A3E
331
0
  5
19A3F
331
0
  5
19A40
331
0
  5
19A41
331
0
  5
19A42
331
0
  5
19A43
331
0
  5
19A44
331
0
  5
19A45
331
0
  5
19A46
331
0
  5
19A47
331
0
  5
19A48
331
0
  5
19A49
331
0
  5
19A4A
331
0
  5
19A4B
331
0
  5
19A4C
331
0
  5
19A4D
331
0
  5
19A4E
331
0
  5
19A4F
331
0
  5
19A50
331
0
  5
19A51
331
0
  5
19A52
331
0
  5
19A53
331
0
  5
19A54
331
0
  5
19A55
331
0
  5
19A56
331
0
  5
19A57
331
0
  5
19A58
331
0
  5
19A59
331
0
  5
19A5A
331
0
  5
19A5B
331
0
  5
19A5C
331
0
  5
19A5D
331
0
  5
19A5E
331
0
  5
19A5F
331
0
  5
19A60
331
0
  5
19A6D
331
0
  5
19A6E
331
0
  5
19A6F
331
0
  5
19A70
331
0
  5
19A71
331
0
  5
19A72
331
0
  5
19A73
331
0
  5
19A74
331
0
  5
19A75
331
0
  5
19A76
331
0
  5
19A77
331
0
  5
19A78
331
0
  5
19A79
331
0
  5
19A7A
331
0
  5
19A7B
331
0
  5
19A7C
331
0
  5
19A7D
331
0
  5
19A7E
331
0
  5
19A7F
331
0
  5
19A80
331
0
  5
19A81
331
0
  5
19A82
331
0
  5
19A83
331
0
  5
19A84
331
0
  5
19A85
331
0
  5
19A86
331
0
  5
19A87
331
0
  5
19A88
331
0
  5
19A89
331
0
  5
19A8A
331
0
  5
19A8B
331
0
  5
19A8C
331
0
  5
19A8D
331
0
  5
19A8E
331
0
  5
19A91
331
0
  5
19A92
331
0
  5
19A95
331
0
  5
19A96
331
0
  5
19A97
331
0
  5
19A98
331
0
  5
19A99
331
0
  5
19A9A
331
0
  5
19A9B
331
0
  5
19A9C
331
0
  5
19A9D
331
0
  5
19A9E
331
0
  5
19A9F
331
0
  5
19AA0
331
0
  5
19AA1
331
0
  5
19AA2
331
0
  5
19AAF
331
0
  5
19AB0
331
0
  5
19AB1
331
0
  5
19AB2
331
0
  5
19AB3
331
0
  5
19AB4
331
0
  5
19AB5
331
0
  5
19AB6
331
0
  5
19AB7
331
0
  5
19AB8
331
0
  5
19AB9
331
0
  5
19ABA
331
0
  5
19ABB
331
0
  5
19ABC
331
0
  5
19ABD
331
0
  5
19ABE
331
0
  5
19ABF
331
0
  5
19AC0
331
0
  5
19AC1
331
0
  5
19AC2
331
0
  5
19AC3
331
0
  5
19AC4
331
0
  5
19AC5
331
0
  5
19AC6
331
0
  5
19AC7
331
0
  5
19AC8
331
0
  5
19AC9
331
0
  5
19ACA
331
0
  5
19ACB
331
0
  5
19ACC
331
0
  5
19ACD
331
0
  5
19ACE
331
0
  5
19ACF
331
0
  5
19AD0
331
0
  5
19AD1
331
0
  5
19AD2
331
0
  5
19AD3
331
0
  5
19AD4
331
0
  5
19AD5
331
0
  5
19AD6
331
0
  5
19AD7
331
0
  5
19AD8
331
0
  5
19AD9
331
0
  5
19ADA
331
0
  5
19ADB
331
0
  5
19ADC
331
0
  5
19ADD
331
0
  5
19ADE
331
0
  5
19ADF
331
0
  5
19AE0
331
0
  5
19AE1
331
0
  5
19AE2
331
0
  5
19AE3
331
0
  5
19AE4
331
0
  5
19AE5
331
0
  5
19AE6
331
0
  5
19AE7
331
0
  5
19AE8
331
0
  5
19AE9
331
0
  5
19AEA
331
0
  5
19AEB
331
0
  5
19AEC
331
0
  5
19AED
331
0
  5
19AEE
331
0
  5
19AEF
331
0
  5
19AF0
331
0
  5
19AF1
331
0
  5
19AF2
331
0
  5
19AF3
331
0
  5
19AF4
331
0
  5
19AF5
331
0
  5
19AF6
331
0
  5
19AF7
331
0
  5
19AF8
331
0
  5
19AF9
331
0
  5
19AFA
331
0
  5
19AFB
331
0
  5
19AFC
331
0
  5
19AFD
331
0
  5
19AFE
331
0
  5
19AFF
331
0
  5
19B00
331
0
  5
19B01
331
0
  5
19B02
331
0
  5
19B03
331
0
  5
19B04
331
0
  5
19B05
331
0
  5
19B06
331
0
  5
19B07
331
0
  5
19B08
331
0
  5
19B09
331
0
  5
19B0A
331
0
  5
19B0B
331
0
  5
19B0C
331
0
  5
19B0D
331
0
  5
19B0E
331
0
  5
1B269
331
0
  5
1B26A
331
0
  5
1B26B
331
0
  5
1B26F
331
0
  5
1B270
331
0
  5
1B271
331
0
  5
1B274
331
0
  5
1B275
331
0
  5
1B276
331
0
  5
1B277
331
0
  5
1B278
331
0
  5
1B279
331
0
  5
1B27B
331
0
  5
1B27C
331
0
  5
1B27D
331
0
  5
1B27E
331
0
  5
1B280
331
0
  5
1B282
331
0
  5
1B283
331
0
  5
1B284
331
0
  5
1B285
331
1B269
  5
1B286
331
1B26A
  5
1B288
331
1B26B
  5
1B289
331
1B26C
  5
1B28A
331
1B26D
  5
1B28B
331
1B26E
  5
1B28C
331
1B26F
  5
1B28D
331
1B270
  5
1B28E
331
1B275
  5
1B287
331
1B277
  5
1B28F
331
1B278
  5
1B290
331
1B279
  5
1B291
331
0
  5
1B292
331
0
  5
1B293
331
0
  5
1B294
331
0
  5
1B296
331
0
  5
1B29C
331
0
  5
1B2A0
331
0
  5
1B2A1
331
1B28D
  5
1B2A2
331
1B28E
  5
2C7
331
1B28F
  5
2C8
331
1B290
  5
261C
331
1B291
  5
261B
331
1B292
  5
261A
331
1B293
  5
2617
331
1B294
  5
1B2A3
331
1B295
  5
1B2A4
331
1B296
  5
1B2A5
331
1B297
  5
1B2A6
331
1B298
  5
1B2A7
331
1B299
  5
1B2A8
331
1B29A
  5
1B2A9
331
1B29B
  5
1B2AA
331
1B29C
  5
1B2AB
331
1B29D
  5
1B2AC
331
1B29E
  5
1B2AD
331
1B29F
  5
1B2AE
331
1B2A0
  5
1B2AF
331
1B2A1
  5
1B2B0
331
1B2A2
  5
1B2B1
331
1B2A3
  5
1B2B2
331
1B2A4
  5
1B2B3
331
1B2A5
  5
1B2B4
331
1B2A6
  5
1B2B5
331
1B2A7
  5
1B2B6
331
1B2A8
  5
1B2B7
331
1B2A9
  5
1B2B8
331
1B2AA
  5
1B2B9
331
1B2AB
  5
1B2BA
331
1B2AC
  5
1B2BB
331
1B2AD
  5
1B2BC
331
1B2AE
  5
1B2BD
331
1B2AF
  5
1B2BE
331
1B2B0
  5
1B2BF
331
1B2B1
  5
1B2C0
331
1B2B2
  5
1B2C1
331
1B2B3
  5
1B2C2
331
1B2B4
  5
1B2C3
331
1B2B5
  5
1B2C4
331
1B2B6
  5
1B2C5
331
1B2B7
  5
1B2C6
331
1B2B8
  5
1B2C8
331
1B2B9
  5
1B2C9
331
1B2BA
  5
257
331
1B2BB
  5
258
331
1B2BC
  5
2407
331
1B2BD
  5
2406
331
1B2BE
  5
2402
331
1B2BF
  5
C1C
331
1B2C1
  5
1B2CA
331
1B2C2
  5
1B2CB
331
1B2C3
  5
1B2CC
331
1B2C4
  5
1B2CD
331
1B2C5
  5
1B2CE
331
1B2C6
  5
1B2CF
331
1B2C7
  5
1B2D0
331
1B2C8
  5
1B2D1
331
1B2C9
  5
1B2D2
331
1B2CA
  5
1B2D3
331
1B2CB
  5
1B2D4
331
1B2CC
  5
1B2D5
331
1B2CD
  5
1B2D6
331
1B2CE
  5
1B2D7
331
1B2CF
  5
1B2D8
331
1B2D0
  5
1B2D9
331
1B2D1
  5
1B2DA
331
1B2D2
  5
1B2DB
331
1B2D3
  5
1B2DC
331
1B2D4
  5
1B2DD
331
1B2D5
  5
1B2DE
331
1B2D6
  5
1B2DF
331
1B2D7
  5
1B2E2
331
1B2D8
  5
1B2E3
331
1B2DB
  5
1B2E4
331
1B2DC
  5
1B2E5
331
1B2DD
  5
1B2E6
331
1B2DE
  5
1B2E7
331
1B2DF
  5
1B2E8
331
1B2E0
  5
1B2E9
331
1B2E1
  5
1B2EA
331
1B2E2
  5
1B2EB
331
1B2E3
  5
1B2EC
331
1B2E4
  5
1B2ED
331
1B2E5
  5
1B2EE
331
1B2E6
  5
1B2EF
331
1B2E7
  5
1B2F0
331
1B2E8
  5
1B2F1
331
1B2E9
  5
1B2F2
331
1B2EA
  5
1B2F3
331
1B2EB
  5
1B2F4
331
1B2EC
  5
1B2F5
331
1B2ED
  5
1B2F6
331
1B2EE
  5
1B2F7
331
1B2EF
  5
1B2F8
331
1B2F0
  5
1B2F9
331
1B2F1
  5
1B2FA
331
1B2F2
  5
1B2FB
331
1B2F3
  5
1B2FC
331
1B2F4
  5
1B2FD
331
1B2F5
  5
1B2FE
331
1B2F6
  5
1B2FF
331
1B2F7
  5
1B30E
331
1B2F8
  5
1B30F
331
0
  5
1B310
331
0
  5
1B311
331
0
  5
1B312
331
0
  5
1B313
331
0
  5
1B314
331
0
  5
1B315
331
0
  5
1B316
  0
ACAD_PROXY_OBJECT
  5
18CF8
102
{ACAD_REACTORS
330
18CF7
102
}
102
{ACAD_XDICTIONARY
360
18D19
102
}
330
18CF7
100
AcDbProxyObject
 90
      499
 91
      516
 95
   524319
 70
     0
 93
     2316
310
9207000000180005C0F42F5A8DC671F815AF46E07A15AE7E07000000180005C0F42F5A8DC671FA3300000018001000000180005C0F42F5A8DC671FA02000000000000741FA028CC00000060002330000001800000852480368038003280390034803080360019001A004AD12801E002E00208031802B003080390010002B00
310
348032803B802A003C803800328010002E0033001000110012803A003180188011001F001280100012801E002E00208031802B003080390010002B00348032803B80220032803A00308034803600248032001F0012802E00280029802180208026002280100012801E002E00208031802B003080390010002B00348032803B
310
802980318030803600328010002E0033001000110012803980370011001F0012802B0340
340
C
340
0
340
5
340
C
340
5
340
5
 94
        0
  0
LAYOUT
  5
2F7B
102
{ACAD_REACTORS
330
2F79
102
}
330
2F79
100
AcDbPlotSettings
  1

  2
Bullzip PDF Printer.pc3
  4
A3
  6

 40
0.2
 41
0.0
 42
0.0
 43
0.0
 44
420.2
 45
297.1
 46
25.0
 47
12.0
 48
91.99999981333349
 49
10.0
140
1619.999996313334
141
1099.999997456666
142
1.0
143
4.0
 70
 11936
 72
     1
 73
     0
 74
     4
  7
monochrome.ctb
 75
    18
147
0.25
148
-91.99999981333349
149
-10.0
100
AcDbLayout
  1
Model
 70
     0
 71
     0
 10
0.0
 20
0.0
 11
12.0
 21
9.0
 12
0.0
 22
0.0
 32
0.0
 14
250.0642417112919
 24
48.27036824153674
 34
0.0
 15
1432.361160534812
 25
1062.213433711484
 35
0.0
146
0.0
 13
0.0
 23
0.0
 33
0.0
 16
1.0
 26
0.0
 36
0.0
 17
0.0
 27
1.0
 37
0.0
 76
     0
330
2
331
18CAA
1001
ACAD_PSEXT
1000
Bullzip PDF Printer.pc3
1000
Bullzip PDF Printer
1000
BULLZIP
1000
Bullzip PDF Printer 10.1.0.1871
1070
     0
  0
LAYOUT
  5
2F7C
102
{ACAD_REACTORS
330
2F79
102
}
330
2F79
100
AcDbPlotSettings
  1

  2
SR-LP8300F
  4

  6

 40
0.0
 41
0.0
 42
0.0
 43
0.0
 44
0.0
 45
0.0
 46
0.0
 47
0.0
 48
0.0
 49
0.0
140
0.0
141
0.0
142
1.0
143
1.0
 70
   688
 72
     0
 73
     0
 74
     5
  7
monochrome.ctb
 75
    16
147
1.0
148
0.0
149
0.0
100
AcDbLayout
  1
ﾚｲｱｳﾄ1
 70
     0
 71
     1
 10
0.0
 20
0.0
 11
12.0
 21
9.0
 12
0.0
 22
0.0
 32
0.0
 14
1000000000000000E+20
 24
1000000000000000E+20
 34
1000000000000000E+20
 15
-1000000000000000E+20
 25
-1000000000000000E+20
 35
-1000000000000000E+20
146
0.0
 13
0.0
 23
0.0
 33
0.0
 16
1.0
 26
0.0
 36
0.0
 17
0.0
 27
1.0
 37
0.0
 76
     0
330
7
  0
MATERIAL
  5
18CB5
102
{ACAD_REACTORS
330
18CAC
102
}
102
{ACAD_XDICTIONARY
360
1B324
102
}
330
18CAC
100
AcDbMaterial
  1
ByBlock
 72
     0
 73
     2
 43
0.0208333333333333
 43
0.0
 43
0.0
 43
0.0
 43
0.0
 43
0.0208333333333333
 43
0.0
 43
0.0
 43
0.0
 43
0.0
 43
1.0
 43
0.0
 43
0.0
 43
0.0
 43
0.0
 43
1.0
 77
     0
 78
     2
 47
0.0208333333333333
 47
0.0
 47
0.0
 47
0.0
 47
0.0
 47
0.0208333333333333
 47
0.0
 47
0.0
 47
0.0
 47
0.0
 47
1.0
 47
0.0
 47
0.0
 47
0.0
 47
0.0
 47
1.0
171
     0
172
     2
 49
0.0208333333333333
 49
0.0
 49
0.0
 49
0.0
 49
0.0
 49
0.0208333333333333
 49
0.0
 49
0.0
 49
0.0
 49
0.0
 49
1.0
 49
0.0
 49
0.0
 49
0.0
 49
0.0
 49
1.0
175
     0
176
     2
142
0.0208333333333333
142
0.0
142
0.0
142
0.0
142
0.0
142
0.0208333333333333
142
0.0
142
0.0
142
0.0
142
0.0
142
1.0
142
0.0
142
0.0
142
0.0
142
0.0
142
1.0
179
     0
270
     2
144
0.0208333333333333
144
0.0
144
0.0
144
0.0
144
0.0
144
0.0208333333333333
144
0.0
144
0.0
144
0.0
144
0.0
144
1.0
144
0.0
144
0.0
144
0.0
144
0.0
144
1.0
274
     2
147
0.0208333333333333
147
0.0
147
0.0
147
0.0
147
0.0
147
0.0208333333333333
147
0.0
147
0.0
147
0.0
147
0.0
147
1.0
147
0.0
147
0.0
147
0.0
147
0.0
147
1.0
  0
MATERIAL
  5
18CAD
102
{ACAD_REACTORS
330
18CAC
102
}
102
{ACAD_XDICTIONARY
360
1B326
102
}
330
18CAC
100
AcDbMaterial
  1
ByLayer
 72
     0
 73
     2
 43
0.0208333333333333
 43
0.0
 43
0.0
 43
0.0
 43
0.0
 43
0.0208333333333333
 43
0.0
 43
0.0
 43
0.0
 43
0.0
 43
1.0
 43
0.0
 43
0.0
 43
0.0
 43
0.0
 43
1.0
 77
     0
 78
     2
 47
0.0208333333333333
 47
0.0
 47
0.0
 47
0.0
 47
0.0
 47
0.0208333333333333
 47
0.0
 47
0.0
 47
0.0
 47
0.0
 47
1.0
 47
0.0
 47
0.0
 47
0.0
 47
0.0
 47
1.0
171
     0
172
     2
 49
0.0208333333333333
 49
0.0
 49
0.0
 49
0.0
 49
0.0
 49
0.0208333333333333
 49
0.0
 49
0.0
 49
0.0
 49
0.0
 49
1.0
 49
0.0
 49
0.0
 49
0.0
 49
0.0
 49
1.0
175
     0
176
     2
142
0.0208333333333333
142
0.0
142
0.0
142
0.0
142
0.0
142
0.0208333333333333
142
0.0
142
0.0
142
0.0
142
0.0
142
1.0
142
0.0
142
0.0
142
0.0
142
0.0
142
1.0
179
     0
270
     2
144
0.0208333333333333
144
0.0
144
0.0
144
0.0
144
0.0
144
0.0208333333333333
144
0.0
144
0.0
144
0.0
144
0.0
144
1.0
144
0.0
144
0.0
144
0.0
144
0.0
144
1.0
274
     2
147
0.0208333333333333
147
0.0
147
0.0
147
0.0
147
0.0
147
0.0208333333333333
147
0.0
147
0.0
147
0.0
147
0.0
147
1.0
147
0.0
147
0.0
147
0.0
147
0.0
147
1.0
  0
MATERIAL
  5
18CBD
102
{ACAD_REACTORS
330
18CAC
102
}
102
{ACAD_XDICTIONARY
360
1B328
102
}
330
18CAC
100
AcDbMaterial
  1
Global
 72
     0
 73
     2
 43
0.0208333333333333
 43
0.0
 43
0.0
 43
0.0
 43
0.0
 43
0.0208333333333333
 43
0.0
 43
0.0
 43
0.0
 43
0.0
 43
1.0
 43
0.0
 43
0.0
 43
0.0
 43
0.0
 43
1.0
 77
     0
 78
     2
 47
0.0208333333333333
 47
0.0
 47
0.0
 47
0.0
 47
0.0
 47
0.0208333333333333
 47
0.0
 47
0.0
 47
0.0
 47
0.0
 47
1.0
 47
0.0
 47
0.0
 47
0.0
 47
0.0
 47
1.0
171
     0
172
     2
 49
0.0208333333333333
 49
0.0
 49
0.0
 49
0.0
 49
0.0
 49
0.0208333333333333
 49
0.0
 49
0.0
 49
0.0
 49
0.0
 49
1.0
 49
0.0
 49
0.0
 49
0.0
 49
0.0
 49
1.0
175
     0
176
     2
142
0.0208333333333333
142
0.0
142
0.0
142
0.0
142
0.0
142
0.0208333333333333
142
0.0
142
0.0
142
0.0
142
0.0
142
1.0
142
0.0
142
0.0
142
0.0
142
0.0
142
1.0
179
     0
270
     2
144
0.0208333333333333
144
0.0
144
0.0
144
0.0
144
0.0
144
0.0208333333333333
144
0.0
144
0.0
144
0.0
144
0.0
144
1.0
144
0.0
144
0.0
144
0.0
144
0.0
144
1.0
274
     2
147
0.0208333333333333
147
0.0
147
0.0
147
0.0
147
0.0
147
0.0208333333333333
147
0.0
147
0.0
147
0.0
147
0.0
147
1.0
147
0.0
147
0.0
147
0.0
147
0.0
147
1.0
1001
ACAD
1070
    -1
1070
     3
1070
     0
1000

1071
        0
  0
MLEADERSTYLE
  5
18CF4
102
{ACAD_REACTORS
330
18CF3
102
}
102
{ACAD_XDICTIONARY
360
1B32A
102
}
330
18CF3
100
AcDbMLeaderStyle
170
     2
171
     1
172
     0
 90
        2
 40
0.0
 41
0.0
173
     1
 91
-1056964608
340
E
 92
       -2
290
     1
 42
0.09
291
     1
 43
0.36
  3
Standard
341
0
 44
0.18
300

342
C
174
     1
178
     6
175
     1
176
     0
 93
-1056964608
 45
0.18
292
     0
297
     0
 46
0.18
343
0
 94
-1056964608
 47
1.0
 49
1.0
140
1.0
293
     1
141
0.0
294
     1
177
     0
142
1.0
295
     1
296
     0
143
0.125
1001
ACAD_MLEADERVER
1070
     2
  0
MLINESTYLE
  5
1D
102
{ACAD_REACTORS
330
19
102
}
330
19
100
AcDbMlineStyle
  2
STANDARD
 70
     0
  3

 62
     0
 51
90.0
 52
90.0
 71
     2
 49
0.5
 62
   256
  6
BYLAYER
 49
-0.5
 62
   256
  6
BYLAYER
  0
ACDBPLACEHOLDER
  5
2F78
102
{ACAD_REACTORS
330
2F77
102
}
330
2F77
  0
SCALE
  5
18CE2
102
{ACAD_REACTORS
330
18CE1
102
}
330
18CE1
100
AcDbScale
 70
     0
300
1:1
140
1.0
141
1.0
290
     1
  0
SCALE
  5
18CE3
102
{ACAD_REACTORS
330
18CE1
102
}
330
18CE1
100
AcDbScale
 70
     0
300
1/128" = 1'-0"
140
0.0078125
141
12.0
290
     0
  0
SCALE
  5
18CE4
102
{ACAD_REACTORS
330
18CE1
102
}
330
18CE1
100
AcDbScale
 70
     0
300
1/64" = 1'-0"
140
0.015625
141
12.0
290
     0
  0
SCALE
  5
18CE5
102
{ACAD_REACTORS
330
18CE1
102
}
330
18CE1
100
AcDbScale
 70
     0
300
1/32" = 1'-0"
140
0.03125
141
12.0
290
     0
  0
SCALE
  5
18CE6
102
{ACAD_REACTORS
330
18CE1
102
}
330
18CE1
100
AcDbScale
 70
     0
300
1/16" = 1'-0"
140
0.0625
141
12.0
290
     0
  0
SCALE
  5
18CE7
102
{ACAD_REACTORS
330
18CE1
102
}
330
18CE1
100
AcDbScale
 70
     0
300
3/32" = 1'-0"
140
0.09375
141
12.0
290
     0
  0
SCALE
  5
18CE8
102
{ACAD_REACTORS
330
18CE1
102
}
330
18CE1
100
AcDbScale
 70
     0
300
1/8" = 1'-0"
140
0.125
141
12.0
290
     0
  0
SCALE
  5
18CE9
102
{ACAD_REACTORS
330
18CE1
102
}
330
18CE1
100
AcDbScale
 70
     0
300
3/16" = 1'-0"
140
0.1875
141
12.0
290
     0
  0
SCALE
  5
18CEA
102
{ACAD_REACTORS
330
18CE1
102
}
330
18CE1
100
AcDbScale
 70
     0
300
1/4" = 1'-0"
140
0.25
141
12.0
290
     0
  0
SCALE
  5
18CEB
102
{ACAD_REACTORS
330
18CE1
102
}
330
18CE1
100
AcDbScale
 70
     0
300
3/8" = 1'-0"
140
0.375
141
12.0
290
     0
  0
SCALE
  5
18CEC
102
{ACAD_REACTORS
330
18CE1
102
}
330
18CE1
100
AcDbScale
 70
     0
300
1/2" = 1'-0"
140
0.5
141
12.0
290
     0
  0
SCALE
  5
18CED
102
{ACAD_REACTORS
330
18CE1
102
}
330
18CE1
100
AcDbScale
 70
     0
300
3/4" = 1'-0"
140
0.75
141
12.0
290
     0
  0
SCALE
  5
18CEE
102
{ACAD_REACTORS
330
18CE1
102
}
330
18CE1
100
AcDbScale
 70
     0
300
1" = 1'-0"
140
1.0
141
12.0
290
     0
  0
SCALE
  5
18CEF
102
{ACAD_REACTORS
330
18CE1
102
}
330
18CE1
100
AcDbScale
 70
     0
300
1-1/2" = 1'-0"
140
1.5
141
12.0
290
     0
  0
SCALE
  5
18CF0
102
{ACAD_REACTORS
330
18CE1
102
}
330
18CE1
100
AcDbScale
 70
     0
300
3" = 1'-0"
140
3.0
141
12.0
290
     0
  0
SCALE
  5
18CF1
102
{ACAD_REACTORS
330
18CE1
102
}
330
18CE1
100
AcDbScale
 70
     0
300
6" = 1'-0"
140
6.0
141
12.0
290
     0
  0
SCALE
  5
18CF2
102
{ACAD_REACTORS
330
18CE1
102
}
330
18CE1
100
AcDbScale
 70
     0
300
1'-0" = 1'-0"
140
12.0
141
12.0
290
     0
  0
ACAD_PROXY_OBJECT
  5
18CF6
102
{ACAD_REACTORS
330
18CF5
102
}
102
{ACAD_XDICTIONARY
360
18D17
102
}
330
18CF5
100
AcDbProxyObject
 90
      499
 91
      515
 95
   524319
 70
     0
 93
     3814
310
929D000000180005C0F42F5A8DC671FC00000060001703D0BD6A3719C7E5C0F42F5A8DC6F1FA330000001800099400000060001703D0BD6A3719C7E5C0F42F5A8DC671FC00000060001703D0BD6A3719C7E808000000000001D07E80C0000006000400000064003081815AF46E07A158E7E80C8340C16A22A7D90FC9F8CAE6
310
5A70A583A07E1FE81C635378FA1F8CAE65A70A583A17E7944A7F127A97E9FA149200DA00E000CA00E400D200C200D80064006800882480160010002780160010002880160010002980160010002C00160010002D002F84A007800B8008200C600AC00C200E4004000AC00D200CA00EE00A800F200E000CA004000B800CC004
310
00044004A00E800C600620044007C004A0040004A007800B8008200C600AC00C200E4004000AC00D200CA00EE00A600CA00C600E800D200DE00DC00A600E800C200E400E8009200C8007C004A005A004A007800B8008200C600AC00C200E4004000AC00D200CA00EE00A600CA00C600E800D200DE00DC008A00DC00C800920
310
0C8007C004A00B800A000A6008600820098008A0040004A007800B8008200C600AC00C200E4004000AC00D200CA00EE00A600C600C200D800CA004000B800CC00400044004A00E600DC0044007C004A00832080270029802480198018807404C
340
C
340
0
340
0
340
5
340
5
340
C
 94
        0
  0
TABLESTYLE
  5
18CE0
102
{ACAD_REACTORS
330
18CDF
102
}
330
18CDF
100
AcDbTableStyle
  3
Standard
 70
     0
 71
     0
 40
0.06
 41
0.06
280
     0
281
     0
  7
STANDARD
140
0.18
170
     2
 62
     0
 63
   257
283
     0
274
    -2
284
     1
 64
     0
275
    -2
285
     1
 65
     0
276
    -2
286
     1
 66
     0
277
    -2
287
     1
 67
     0
278
    -2
288
     1
 68
     0
279
    -2
289
     1
 69
     0
  7
STANDARD
140
0.25
170
     5
 62
     0
 63
   257
283
     0
274
    -2
284
     1
 64
     0
275
    -2
285
     1
 65
     0
276
    -2
286
     1
 66
     0
277
    -2
287
     1
 67
     0
278
    -2
288
     1
 68
     0
279
    -2
289
     1
 69
     0
  7
STANDARD
140
0.18
170
     5
 62
     0
 63
   257
283
     0
274
    -2
284
     1
 64
     0
275
    -2
285
     1
 65
     0
276
    -2
286
     1
 66
     0
277
    -2
287
     1
 67
     0
278
    -2
288
     1
 68
     0
279
    -2
289
     1
 69
     0
  0
VISUALSTYLE
  5
18CCB
102
{ACAD_REACTORS
330
18CC5
102
}
102
{ACAD_XDICTIONARY
360
1B32C
102
}
330
18CC5
100
AcDbVisualStyle
  2
2dWireframe
 70
     4
 71
     0
 72
     2
 73
     0
 90
        0
 40
0.6
 41
30.0
 62
     5
 63
     7
 74
     1
 91
        4
 64
     7
 65
   257
 75
     1
175
     1
 42
1.0
 92
        0
 66
   257
 43
1.0
 76
     1
 77
     6
 78
     2
 67
     7
 79
     5
170
     0
171
     0
290
     0
174
     0
 93
        1
 44
0.0
173
     0
291
     0
 45
0.0
1001
ACAD
1000
AcDbSavedByObjectVersion
1070
     0
  0
VISUALSTYLE
  5
18CCA
102
{ACAD_REACTORS
330
18CC5
102
}
102
{ACAD_XDICTIONARY
360
1B32E
102
}
330
18CC5
100
AcDbVisualStyle
  2
Basic
 70
     7
 71
     1
 72
     0
 73
     1
 90
        0
 40
0.6
 41
30.0
 62
     5
 63
     7
 74
     0
 91
        4
 64
     7
 65
   257
 75
     1
175
     1
 42
1.0
 92
        8
 66
     7
 43
1.0
 76
     1
 77
     6
 78
     2
 67
     7
 79
     5
170
     0
171
     0
290
     0
174
     0
 93
        1
 44
0.0
173
     0
291
     1
 45
0.0
1001
ACAD
1000
AcDbSavedByObjectVersion
1070
     0
  0
VISUALSTYLE
  5
18CD1
102
{ACAD_REACTORS
330
18CC5
102
}
102
{ACAD_XDICTIONARY
360
1B330
102
}
330
18CC5
100
AcDbVisualStyle
  2
Brighten
 70
    12
 71
     2
 72
     2
 73
     0
 90
        0
 40
0.6
 41
30.0
 62
     5
 63
     7
 74
     1
 91
        4
 64
     7
 65
   257
 75
     1
175
     1
 42
1.0
 92
        8
 66
     7
 43
1.0
 76
     1
 77
     6
 78
     2
 67
     7
 79
     5
170
     0
171
     0
290
     0
174
     0
 93
        1
 44
50.0
173
     0
291
     1
 45
0.0
1001
ACAD
1000
AcDbSavedByObjectVersion
1070
     0
  0
VISUALSTYLE
  5
18CD5
102
{ACAD_REACTORS
330
18CC5
102
}
102
{ACAD_XDICTIONARY
360
1B332
102
}
330
18CC5
100
AcDbVisualStyle
  2
ColorChange
 70
    16
 71
     2
 72
     2
 73
     3
 90
        0
 40
0.6
 41
30.0
 62
     5
 63
     8
 74
     1
 91
        4
 64
     7
 65
   257
 75
     1
175
     1
 42
1.0
 92
        8
 66
     8
 43
1.0
 76
     1
 77
     6
 78
     2
 67
     7
 79
     5
170
     0
171
     0
290
     0
174
     0
 93
        1
 44
0.0
173
     0
291
     1
 45
0.0
1001
ACAD
1000
AcDbSavedByObjectVersion
1070
     0
  0
VISUALSTYLE
  5
18CCE
102
{ACAD_REACTORS
330
18CC5
102
}
102
{ACAD_XDICTIONARY
360
1B334
102
}
330
18CC5
100
AcDbVisualStyle
  2
Conceptual
 70
     9
 71
     3
 72
     2
 73
     0
 90
        0
 40
0.6
 41
30.0
 62
     5
 63
     7
 74
     2
 91
        2
 64
     7
 65
   257
 75
     1
175
     1
 42
179.0
 92
        8
 66
     7
 43
1.0
 76
     1
 77
     6
 78
     2
 67
     7
 79
     3
170
     0
171
     0
290
     0
174
     0
 93
        1
 44
0.0
173
     0
291
     0
 45
0.0
1001
ACAD
1000
AcDbSavedByObjectVersion
1070
     0
  0
VISUALSTYLE
  5
18CD0
102
{ACAD_REACTORS
330
18CC5
102
}
102
{ACAD_XDICTIONARY
360
1B336
102
}
330
18CC5
100
AcDbVisualStyle
  2
Dim
 70
    11
 71
     2
 72
     2
 73
     0
 90
        0
 40
0.6
 41
30.0
 62
     5
 63
     7
 74
     1
 91
        4
 64
     7
 65
   257
 75
     1
175
     1
 42
1.0
 92
        8
 66
     7
 43
1.0
 76
     1
 77
     6
 78
     2
 67
     7
 79
     5
170
     0
171
     0
290
     0
174
     0
 93
        1
 44
-50.0
173
     0
291
     1
 45
0.0
1001
ACAD
1000
AcDbSavedByObjectVersion
1070
     0
  0
VISUALSTYLE
  5
18CDD
102
{ACAD_REACTORS
330
18CC5
102
}
102
{ACAD_XDICTIONARY
360
1B338
102
}
330
18CC5
100
AcDbVisualStyle
  2
EdgeColorOff
 70
    22
 71
     2
 72
     2
 73
     0
 90
        0
 40
0.6
 41
30.0
 62
     5
 63
     7
 74
     1
 91
        4
 64
     7
 65
   257
 75
     1
175
     1
 42
1.0
 92
        8
 66
     7
 43
1.0
 76
     1
 77
     6
 78
     2
 67
     7
 79
     5
170
     0
171
     0
290
     0
174
     0
 93
        1
 44
0.0
173
     0
291
     1
 45
0.0
1001
ACAD
1000
AcDbSavedByObjectVersion
1070
     0
  0
VISUALSTYLE
  5
18CD4
102
{ACAD_REACTORS
330
18CC5
102
}
102
{ACAD_XDICTIONARY
360
1B33A
102
}
330
18CC5
100
AcDbVisualStyle
  2
Facepattern
 70
    15
 71
     2
 72
     2
 73
     0
 90
        0
 40
0.6
 41
30.0
 62
     5
 63
     7
 74
     1
 91
        4
 64
     7
 65
   257
 75
     1
175
     1
 42
1.0
 92
        8
 66
     7
 43
1.0
 76
     1
 77
     6
 78
     2
 67
     7
 79
     5
170
     0
171
     0
290
     0
174
     0
 93
        1
 44
0.0
173
     0
291
     1
 45
0.0
1001
ACAD
1000
AcDbSavedByObjectVersion
1070
     0
  0
VISUALSTYLE
  5
18CC6
102
{ACAD_REACTORS
330
18CC5
102
}
102
{ACAD_XDICTIONARY
360
1B33C
102
}
330
18CC5
100
AcDbVisualStyle
  2
Flat
 70
     0
 71
     2
 72
     1
 73
     1
 90
        2
 40
0.6
 41
30.0
 62
     5
 63
     7
 74
     0
 91
        0
 64
     7
 65
   257
 75
     1
175
     1
 42
1.0
 92
        8
 66
     7
 43
1.0
 76
     1
 77
     6
 78
     2
 67
     7
 79
     5
170
     0
171
     0
290
     0
174
     0
 93
       13
 44
0.0
173
     0
291
     1
 45
0.0
1001
ACAD
1000
AcDbSavedByObjectVersion
1070
     0
  0
VISUALSTYLE
  5
18CC7
102
{ACAD_REACTORS
330
18CC5
102
}
102
{ACAD_XDICTIONARY
360
1B33E
102
}
330
18CC5
100
AcDbVisualStyle
  2
FlatWithEdges
 70
     1
 71
     2
 72
     1
 73
     1
 90
        2
 40
0.6
 41
30.0
 62
     5
 63
     7
 74
     1
 91
        0
 64
     7
 65
   257
 75
     1
175
     1
 42
1.0
 92
        0
 66
   257
 43
1.0
 76
     1
 77
     6
 78
     2
 67
     7
 79
     5
170
     0
171
     0
290
     0
174
     0
 93
       13
 44
0.0
173
     0
291
     1
 45
0.0
1001
ACAD
1000
AcDbSavedByObjectVersion
1070
     0
  0
VISUALSTYLE
  5
18CC8
102
{ACAD_REACTORS
330
18CC5
102
}
102
{ACAD_XDICTIONARY
360
1B340
102
}
330
18CC5
100
AcDbVisualStyle
  2
Gouraud
 70
     2
 71
     2
 72
     2
 73
     1
 90
        2
 40
0.6
 41
30.0
 62
     5
 63
     7
 74
     0
 91
        0
 64
     7
 65
   257
 75
     1
175
     1
 42
1.0
 92
        0
 66
     7
 43
1.0
 76
     1
 77
     6
 78
     2
 67
     7
 79
     5
170
     0
171
     0
290
     0
174
     0
 93
       13
 44
0.0
173
     0
291
     1
 45
0.0
1001
ACAD
1000
AcDbSavedByObjectVersion
1070
     0
  0
VISUALSTYLE
  5
18CC9
102
{ACAD_REACTORS
330
18CC5
102
}
102
{ACAD_XDICTIONARY
360
1B342
102
}
330
18CC5
100
AcDbVisualStyle
  2
GouraudWithEdges
 70
     3
 71
     2
 72
     2
 73
     1
 90
        2
 40
0.6
 41
30.0
 62
     5
 63
     7
 74
     1
 91
        0
 64
     7
 65
   257
 75
     1
175
     1
 42
1.0
 92
        0
 66
   257
 43
1.0
 76
     1
 77
     6
 78
     2
 67
     7
 79
     5
170
     0
171
     0
290
     0
174
     0
 93
       13
 44
0.0
173
     0
291
     1
 45
0.0
1001
ACAD
1000
AcDbSavedByObjectVersion
1070
     0
  0
VISUALSTYLE
  5
18CCD
102
{ACAD_REACTORS
330
18CC5
102
}
102
{ACAD_XDICTIONARY
360
1B344
102
}
330
18CC5
100
AcDbVisualStyle
  2
Hidden
 70
     6
 71
     1
 72
     2
 73
     2
 90
        0
 40
0.6
 41
30.0
 62
     5
 63
     7
 74
     2
 91
        2
 64
     7
 65
   257
 75
     2
175
     1
 42
40.0
 92
        0
 66
   257
 43
1.0
 76
     1
 77
     6
 78
     2
 67
     7
 79
     3
170
     0
171
     0
290
     0
174
     0
 93
        1
 44
0.0
173
     0
291
     0
 45
0.0
1001
ACAD
1000
AcDbSavedByObjectVersion
1070
     0
  0
VISUALSTYLE
  5
18CDB
102
{ACAD_REACTORS
330
18CC5
102
}
102
{ACAD_XDICTIONARY
360
1B346
102
}
330
18CC5
100
AcDbVisualStyle
  2
JitterOff
 70
    20
 71
     2
 72
     2
 73
     0
 90
        0
 40
0.6
 41
30.0
 62
     5
 63
     7
 74
     1
 91
        4
 64
     7
 65
   257
 75
     1
175
     1
 42
1.0
 92
       10
 66
     7
 43
1.0
 76
     1
 77
     6
 78
     2
 67
     7
 79
     5
170
     0
171
     0
290
     0
174
     0
 93
        1
 44
0.0
173
     0
291
     1
 45
0.0
1001
ACAD
1000
AcDbSavedByObjectVersion
1070
     0
  0
VISUALSTYLE
  5
18CD3
102
{ACAD_REACTORS
330
18CC5
102
}
102
{ACAD_XDICTIONARY
360
1B348
102
}
330
18CC5
100
AcDbVisualStyle
  2
Linepattern
 70
    14
 71
     2
 72
     2
 73
     0
 90
        0
 40
0.6
 41
30.0
 62
     5
 63
     7
 74
     1
 91
        4
 64
     7
 65
   257
 75
     7
175
     7
 42
1.0
 92
        8
 66
     7
 43
1.0
 76
     1
 77
     6
 78
     2
 67
     7
 79
     5
170
     0
171
     0
290
     0
174
     0
 93
        1
 44
0.0
173
     0
291
     1
 45
0.0
1001
ACAD
1000
AcDbSavedByObjectVersion
1070
     0
  0
VISUALSTYLE
  5
18CDC
102
{ACAD_REACTORS
330
18CC5
102
}
102
{ACAD_XDICTIONARY
360
1B34A
102
}
330
18CC5
100
AcDbVisualStyle
  2
OverhangOff
 70
    21
 71
     2
 72
     2
 73
     0
 90
        0
 40
0.6
 41
30.0
 62
     5
 63
     7
 74
     1
 91
        4
 64
     7
 65
   257
 75
     1
175
     1
 42
1.0
 92
        9
 66
     7
 43
1.0
 76
     1
 77
     6
 78
     2
 67
     7
 79
     5
170
     0
171
     0
290
     0
174
     0
 93
        1
 44
0.0
173
     0
291
     1
 45
0.0
1001
ACAD
1000
AcDbSavedByObjectVersion
1070
     0
  0
VISUALSTYLE
  5
18CCF
102
{ACAD_REACTORS
330
18CC5
102
}
102
{ACAD_XDICTIONARY
360
1B34C
102
}
330
18CC5
100
AcDbVisualStyle
  2
Realistic
 70
     8
 71
     2
 72
     3
 73
     0
 90
        2
 40
0.6
 41
30.0
 62
     5
 63
     7
 74
     0
 91
        0
 64
     7
 65
   257
 75
     1
175
     1
 42
1.0
 92
        8
 66
   257
 43
1.0
 76
     1
 77
     6
 78
     2
 67
     7
 79
     3
170
     0
171
     0
290
     0
174
     0
 93
       13
 44
0.0
173
     0
291
     0
 45
0.0
1001
ACAD
1000
AcDbSavedByObjectVersion
1070
     0
  0
VISUALSTYLE
  5
18CDA
102
{ACAD_REACTORS
330
18CC5
102
}
102
{ACAD_XDICTIONARY
360
1B34E
102
}
330
18CC5
100
AcDbVisualStyle
  2
Shaded
 70
    27
 71
     2
 72
     2
 73
     1
 90
        2
 40
0.6
 41
30.0
 62
     5
 63
     7
 74
     0
 91
        4
 64
     7
 65
   257
 75
     1
175
     1
 42
1.0
 92
        8
 66
   257
 43
1.0
 76
     1
 77
     6
 78
     2
 67
     8
 79
     3
170
     0
171
     0
290
     0
174
     0
 93
        5
 44
0.0
173
     0
291
     0
 45
0.0
1001
ACAD
1000
AcDbSavedByObjectVersion
1070
     0
  0
VISUALSTYLE
  5
18CD9
102
{ACAD_REACTORS
330
18CC5
102
}
102
{ACAD_XDICTIONARY
360
1B350
102
}
330
18CC5
100
AcDbVisualStyle
  2
Shaded with edges
 70
    26
 71
     2
 72
     2
 73
     1
 90
        2
 40
0.6
 41
30.0
 62
     5
 63
     7
 74
     1
 91
       10
 64
     7
 65
   257
 75
     2
175
     1
 42
1.0
 92
        8
 66
   257
 43
1.0
 76
     1
 77
     6
 78
     2
 67
     7
 79
     3
170
     0
171
     0
290
     0
174
     0
 93
        5
 44
0.0
173
     0
291
     0
 45
0.0
1001
ACAD
1000
AcDbSavedByObjectVersion
1070
     0
  0
VISUALSTYLE
  5
18CD6
102
{ACAD_REACTORS
330
18CC5
102
}
102
{ACAD_XDICTIONARY
360
1B352
102
}
330
18CC5
100
AcDbVisualStyle
  2
Shades of Gray
 70
    23
 71
     2
 72
     2
 73
     3
 90
        0
 40
0.6
 41
30.0
 62
     5
 63
     7
 74
     2
 91
        2
 64
     7
 65
     7
 75
     1
175
     1
 42
40.0
 92
        8
 66
     7
 43
1.0
 76
     1
 77
     6
 78
     2
 67
     7
 79
     3
170
     0
171
     0
290
     0
174
     0
 93
        1
 44
0.0
173
     0
291
     0
 45
0.0
1001
ACAD
1000
AcDbSavedByObjectVersion
1070
     0
  0
VISUALSTYLE
  5
18CD7
102
{ACAD_REACTORS
330
18CC5
102
}
102
{ACAD_XDICTIONARY
360
1B354
102
}
330
18CC5
100
AcDbVisualStyle
  2
Sketchy
 70
    24
 71
     1
 72
     2
 73
     2
 90
        0
 40
0.6
 41
30.0
 62
     5
 63
     7
 74
     2
 91
        2
 64
     7
 65
     7
 75
     1
175
     1
 42
40.0
 92
       11
 66
     7
 43
1.0
 76
     1
 77
     6
 78
     2
 67
     7
 79
     6
170
     0
171
     0
290
     0
174
     0
 93
        1
 44
0.0
173
     0
291
     0
 45
0.0
1001
ACAD
1000
AcDbSavedByObjectVersion
1070
     0
  0
VISUALSTYLE
  5
18CD2
102
{ACAD_REACTORS
330
18CC5
102
}
102
{ACAD_XDICTIONARY
360
1B356
102
}
330
18CC5
100
AcDbVisualStyle
  2
Thicken
 70
    13
 71
     2
 72
     2
 73
     0
 90
        0
 40
0.6
 41
30.0
 62
     5
 63
     7
 74
     1
 91
        4
 64
     7
 65
   257
 75
     1
175
     1
 42
1.0
 92
       12
 66
     7
 43
1.0
 76
     1
 77
     6
 78
     2
 67
     7
 79
     5
170
     0
171
     0
290
     0
174
     0
 93
        1
 44
0.0
173
     0
291
     1
 45
0.0
1001
ACAD
1000
AcDbSavedByObjectVersion
1070
     0
  0
VISUALSTYLE
  5
18CCC
102
{ACAD_REACTORS
330
18CC5
102
}
102
{ACAD_XDICTIONARY
360
1B358
102
}
330
18CC5
100
AcDbVisualStyle
  2
Wireframe
 70
     5
 71
     0
 72
     2
 73
     0
 90
        0
 40
0.6
 41
30.0
 62
     5
 63
     7
 74
     1
 91
        4
 64
     7
 65
   257
 75
     1
175
     1
 42
1.0
 92
        0
 66
   257
 43
1.0
 76
     1
 77
     6
 78
     2
 67
     7
 79
     3
170
     0
171
     0
290
     0
174
     0
 93
        1
 44
0.0
173
     0
291
     0
 45
0.0
1001
ACAD
1000
AcDbSavedByObjectVersion
1070
     0
  0
VISUALSTYLE
  5
18CD8
102
{ACAD_REACTORS
330
18CC5
102
}
102
{ACAD_XDICTIONARY
360
1B35A
102
}
330
18CC5
100
AcDbVisualStyle
  2
X-Ray
 70
    25
 71
     2
 72
     2
 73
     1
 90
        1
 40
0.5
 41
30.0
 62
     5
 63
     7
 74
     1
 91
        0
 64
     7
 65
   257
 75
     1
175
     1
 42
1.0
 92
        8
 66
     7
 43
1.0
 76
     1
 77
     6
 78
     2
 67
     7
 79
     3
170
     0
171
     0
290
     0
174
     0
 93
       13
 44
0.0
173
     0
291
     0
 45
0.0
1001
ACAD
1000
AcDbSavedByObjectVersion
1070
     0
  0
XRECORD
  5
1B31F
102
{ACAD_REACTORS
330
1B31E
102
}
330
1B31E
100
AcDbXrecord
280
     1
340
18CDE
  0
XRECORD
  5
1B320
102
{ACAD_REACTORS
330
1B31E
102
}
330
1B31E
100
AcDbXrecord
280
     1
340
18CAC
  0
DICTIONARYVAR
  5
18D21
102
{ACAD_REACTORS
330
2FAB
102
}
330
2FAB
100
DictionaryVariables
280
     0
  1
1:1
  0
DICTIONARYVAR
  5
18D1D
102
{ACAD_REACTORS
330
2FAB
102
}
330
2FAB
100
DictionaryVariables
280
     0
  1
Standard
  0
DICTIONARYVAR
  5
18D1C
102
{ACAD_REACTORS
330
2FAB
102
}
330
2FAB
100
DictionaryVariables
280
     0
  1
Standard
  0
DICTIONARYVAR
  5
18D1E
102
{ACAD_REACTORS
330
2FAB
102
}
330
2FAB
100
DictionaryVariables
280
     0
  1
Imperial24
  0
DICTIONARYVAR
  5
18D1F
102
{ACAD_REACTORS
330
2FAB
102
}
330
2FAB
100
DictionaryVariables
280
     0
  1
Imperial24
  0
DICTIONARYVAR
  5
2FAC
102
{ACAD_REACTORS
330
2FAB
102
}
330
2FAB
100
DictionaryVariables
280
     0
  1
0
  0
DICTIONARYVAR
  5
1B31D
102
{ACAD_REACTORS
330
2FAB
102
}
330
2FAB
100
DictionaryVariables
280
     0
  1
0
  0
DICTIONARYVAR
  5
18D23
102
{ACAD_REACTORS
330
2FAB
102
}
330
2FAB
100
DictionaryVariables
280
     0
  1
1
  0
DICTIONARYVAR
  5
18D24
102
{ACAD_REACTORS
330
2FAB
102
}
330
2FAB
100
DictionaryVariables
280
     0
  1
15
  0
DICTIONARYVAR
  5
18D22
102
{ACAD_REACTORS
330
2FAB
102
}
330
2FAB
100
DictionaryVariables
280
     0
  1
0
  0
DICTIONARYVAR
  5
18D20
102
{ACAD_REACTORS
330
2FAB
102
}
330
2FAB
100
DictionaryVariables
280
     0
  1
0
  0
DICTIONARYVAR
  5
18D36
102
{ACAD_REACTORS
330
2FAB
102
}
330
2FAB
100
DictionaryVariables
280
     0
  1
0
  0
DICTIONARY
  5
18D19
330
18CF8
100
AcDbDictionary
280
     1
281
     1
  3
ACAD_XREC_ROUNDTRIP
360
1B31B
  0
DICTIONARY
  5
1B324
330
18CB5
100
AcDbDictionary
280
     1
281
     1
  3
ACAD_XREC_ROUNDTRIP
360
1B325
  0
DICTIONARY
  5
1B326
330
18CAD
100
AcDbDictionary
280
     1
281
     1
  3
ACAD_XREC_ROUNDTRIP
360
1B327
  0
DICTIONARY
  5
1B328
330
18CBD
100
AcDbDictionary
280
     1
281
     1
  3
ACAD_XREC_ROUNDTRIP
360
1B329
  0
DICTIONARY
  5
1B32A
330
18CF4
100
AcDbDictionary
280
     1
281
     1
  3
ACAD_XREC_ROUNDTRIP
360
1B32B
  0
DICTIONARY
  5
18D17
330
18CF6
100
AcDbDictionary
280
     1
281
     1
  3
ACAD_XREC_ROUNDTRIP
360
1B31C
  0
DICTIONARY
  5
1B32C
330
18CCB
100
AcDbDictionary
280
     1
281
     1
  3
ACAD_XREC_ROUNDTRIP
360
1B32D
  0
DICTIONARY
  5
1B32E
330
18CCA
100
AcDbDictionary
280
     1
281
     1
  3
ACAD_XREC_ROUNDTRIP
360
1B32F
  0
DICTIONARY
  5
1B330
330
18CD1
100
AcDbDictionary
280
     1
281
     1
  3
ACAD_XREC_ROUNDTRIP
360
1B331
  0
DICTIONARY
  5
1B332
330
18CD5
100
AcDbDictionary
280
     1
281
     1
  3
ACAD_XREC_ROUNDTRIP
360
1B333
  0
DICTIONARY
  5
1B334
330
18CCE
100
AcDbDictionary
280
     1
281
     1
  3
ACAD_XREC_ROUNDTRIP
360
1B335
  0
DICTIONARY
  5
1B336
330
18CD0
100
AcDbDictionary
280
     1
281
     1
  3
ACAD_XREC_ROUNDTRIP
360
1B337
  0
DICTIONARY
  5
1B338
330
18CDD
100
AcDbDictionary
280
     1
281
     1
  3
ACAD_XREC_ROUNDTRIP
360
1B339
  0
DICTIONARY
  5
1B33A
330
18CD4
100
AcDbDictionary
280
     1
281
     1
  3
ACAD_XREC_ROUNDTRIP
360
1B33B
  0
DICTIONARY
  5
1B33C
330
18CC6
100
AcDbDictionary
280
     1
281
     1
  3
ACAD_XREC_ROUNDTRIP
360
1B33D
  0
DICTIONARY
  5
1B33E
330
18CC7
100
AcDbDictionary
280
     1
281
     1
  3
ACAD_XREC_ROUNDTRIP
360
1B33F
  0
DICTIONARY
  5
1B340
330
18CC8
100
AcDbDictionary
280
     1
281
     1
  3
ACAD_XREC_ROUNDTRIP
360
1B341
  0
DICTIONARY
  5
1B342
330
18CC9
100
AcDbDictionary
280
     1
281
     1
  3
ACAD_XREC_ROUNDTRIP
360
1B343
  0
DICTIONARY
  5
1B344
330
18CCD
100
AcDbDictionary
280
     1
281
     1
  3
ACAD_XREC_ROUNDTRIP
360
1B345
  0
DICTIONARY
  5
1B346
330
18CDB
100
AcDbDictionary
280
     1
281
     1
  3
ACAD_XREC_ROUNDTRIP
360
1B347
  0
DICTIONARY
  5
1B348
330
18CD3
100
AcDbDictionary
280
     1
281
     1
  3
ACAD_XREC_ROUNDTRIP
360
1B349
  0
DICTIONARY
  5
1B34A
330
18CDC
100
AcDbDictionary
280
     1
281
     1
  3
ACAD_XREC_ROUNDTRIP
360
1B34B
  0
DICTIONARY
  5
1B34C
330
18CCF
100
AcDbDictionary
280
     1
281
     1
  3
ACAD_XREC_ROUNDTRIP
360
1B34D
  0
DICTIONARY
  5
1B34E
330
18CDA
100
AcDbDictionary
280
     1
281
     1
  3
ACAD_XREC_ROUNDTRIP
360
1B34F
  0
DICTIONARY
  5
1B350
330
18CD9
100
AcDbDictionary
280
     1
281
     1
  3
ACAD_XREC_ROUNDTRIP
360
1B351
  0
DICTIONARY
  5
1B352
330
18CD6
100
AcDbDictionary
280
     1
281
     1
  3
ACAD_XREC_ROUNDTRIP
360
1B353
  0
DICTIONARY
  5
1B354
330
18CD7
100
AcDbDictionary
280
     1
281
     1
  3
ACAD_XREC_ROUNDTRIP
360
1B355
  0
DICTIONARY
  5
1B356
330
18CD2
100
AcDbDictionary
280
     1
281
     1
  3
ACAD_XREC_ROUNDTRIP
360
1B357
  0
DICTIONARY
  5
1B358
330
18CCC
100
AcDbDictionary
280
     1
281
     1
  3
ACAD_XREC_ROUNDTRIP
360
1B359
  0
DICTIONARY
  5
1B35A
330
18CD8
100
AcDbDictionary
280
     1
281
     1
  3
ACAD_XREC_ROUNDTRIP
360
1B35B
  0
XRECORD
  5
1B31B
102
{ACAD_REACTORS
330
18D19
102
}
330
18D19
100
AcDbXrecord
280
     1
102
DISPLAYNAME
  1
Imperial24
102
FLAGS
 90
        0
  0
XRECORD
  5
1B325
102
{ACAD_REACTORS
330
1B324
102
}
330
1B324
100
AcDbXrecord
280
     1
102
MATERIAL
148
0.0
149
0.0
149
0.0
 93
        0
 94
      127
282
     0
 72
     0
 77
     0
171
     0
175
     0
179
     0
273
     0
  0
XRECORD
  5
1B327
102
{ACAD_REACTORS
330
1B326
102
}
330
1B326
100
AcDbXrecord
280
     1
102
MATERIAL
148
0.0
149
0.0
149
0.0
 93
        0
 94
      127
282
     0
 72
     0
 77
     0
171
     0
175
     0
179
     0
273
     0
  0
XRECORD
  5
1B329
102
{ACAD_REACTORS
330
1B328
102
}
330
1B328
100
AcDbXrecord
280
     1
102
MATERIAL
148
0.0
149
0.0
149
0.0
 93
        0
 94
      127
282
     0
 72
     0
 77
     0
171
     0
175
     0
179
     0
273
     0
  0
XRECORD
  5
1B32B
102
{ACAD_REACTORS
330
1B32A
102
}
330
1B32A
100
AcDbXrecord
280
     1
102
ACAD_ROUNDTRIP_2012_MLEADER_STYLE
298
     1
  0
XRECORD
  5
1B31C
102
{ACAD_REACTORS
330
18D17
102
}
330
18D17
100
AcDbXrecord
280
     1
102
DISPLAYNAME
  1
Imperial24
102
FLAGS
 90
        0
  0
XRECORD
  5
1B32D
102
{ACAD_REACTORS
330
1B32C
102
}
330
1B32C
100
AcDbXrecord
280
     1
102
RTVSPropertyOp0
 70
     1
102
RTVSPropertyOp1
 70
     1
102
RTVSPropertyOp2
 70
     1
102
RTVSPropertyOp3
 70
     1
102
RTVSPropertyOp4
 70
     1
102
RTVSPropertyOp5
 70
     1
102
RTVSPropertyOp6
 70
     1
102
RTVSPropertyOp7
 70
     1
102
RTVSPropertyOp8
 70
     1
102
RTVSPropertyOp9
 70
     1
102
RTVSPropertyOp10
 70
     1
102
RTVSPropertyOp11
 70
     1
102
RTVSPropertyOp12
 70
     1
102
RTVSPropertyOp13
 70
     1
102
RTVSPropertyOp14
 70
     1
102
RTVSPropertyOp15
 70
     1
102
RTVSPropertyOp16
 70
     1
102
RTVSPropertyOp17
 70
     1
102
RTVSPropertyOp18
 70
     1
102
RTVSPropertyOp19
 70
     1
102
RTVSPropertyOp20
 70
     1
102
RTVSPropertyOp21
 70
     1
102
RTVSPropertyOp22
 70
     1
102
RTVSPropertyOp23
 70
     1
102
RTVSPropertyOp24
 70
     1
102
RTVSPropertyOp25
 70
     1
102
RTVSPropertyOp26
 70
     1
102
RTVSPropertyOp27
 70
     1
102
RTVSPropertyOp28
 70
     1
102
RTVSPropertyOp29
 70
     1
102
RTVSPropertyOp30
 70
     1
102
RTVSPropertyOp31
 70
     1
102
RTVSPropertyOp32
 70
     1
102
RTVSPropertyOp33
 70
     1
102
RTVSPropertyOp34
 70
     1
102
RTVSPropertyOp35
 70
     1
102
RTVSPropertyOp36
 70
     1
102
RTVSPropertyOp37
 70
     1
102
RTVSPropertyOp38
 70
     1
102
RTVSPropertyOp39
 70
     1
102
RTVSPropertyOp40
 70
     1
102
RTVSPropertyOp41
 70
     1
102
RTVSPropertyOp42
 70
     1
102
RTVSPropertyOp43
 70
     1
102
RTVSPropertyOp44
 70
     1
102
RTVSPropertyOp45
 70
     1
102
RTVSPropertyOp46
 70
     1
102
RTVSPropertyOp47
 70
     1
102
RTVSPropertyOp48
 70
     1
102
RTVSPropertyOp49
 70
     1
102
RTVSPropertyOp50
 70
     1
102
RTVSPropertyOp51
 70
     0
102
RTVSPropertyOp52
 70
     0
102
RTVSPropertyOp53
 70
     1
102
RTVSPropertyOp54
 70
     1
102
RTVSPropertyOp55
 70
     1
102
RTVSPropertyOp56
 70
     1
102
RTVSPropertyOp57
 70
     1
102
RTVSPost2010Prop28
280
     1
102
RTVSPost2010PropOp28
 70
     1
102
RTVSPost2010Prop29
280
     1
102
RTVSPost2010PropOp29
 70
     1
102
RTVSPost2010Prop30
280
     0
102
RTVSPost2010PropOp30
 70
     1
102
RTVSPost2010Prop31
280
     0
102
RTVSPost2010PropOp31
 70
     1
102
RTVSPost2010Prop32
280
     0
102
RTVSPost2010PropOp32
 70
     1
102
RTVSPost2010Prop33
280
     0
102
RTVSPost2010PropOp33
 70
     1
102
RTVSPost2010Prop34
280
     0
102
RTVSPost2010PropOp34
 70
     1
102
RTVSPost2010Prop35
280
     0
102
RTVSPost2010PropOp35
 70
     1
102
RTVSPost2010Prop36
280
     0
102
RTVSPost2010PropOp36
 70
     1
102
RTVSPost2010Prop37
 90
       50
102
RTVSPost2010PropOp37
 70
     1
102
RTVSPost2010Prop38
140
0.0
102
RTVSPost2010PropOp38
 70
     1
102
RTVSPost2010Prop39
140
1.0
102
RTVSPost2010PropOp39
 70
     1
102
RTVSPost2010Prop40
 90
        0
102
RTVSPost2010PropOp40
 70
     1
102
RTVSPost2010Prop41ColorIndex
 90
       18
102
RTVSPost2010Prop41ColorRGB
 90
        0
102
RTVSPost2010PropOp41
 70
     1
102
RTVSPost2010Prop42
 90
       50
102
RTVSPost2010PropOp42
 70
     1
102
RTVSPost2010Prop43
 90
        3
102
RTVSPost2010PropOp43
 70
     1
102
RTVSPost2010Prop44ColorIndex
 90
        5
102
RTVSPost2010Prop44ColorRGB
 90
      255
102
RTVSPost2010PropOp44
 70
     1
102
RTVSPost2010Prop45
280
     0
102
RTVSPost2010PropOp45
 70
     1
102
RTVSPost2010Prop46
 90
       50
102
RTVSPost2010PropOp46
 70
     1
102
RTVSPost2010Prop47
 90
       50
102
RTVSPost2010PropOp47
 70
     1
102
RTVSPost2010Prop48
 90
       50
102
RTVSPost2010PropOp48
 70
     1
102
RTVSPost2010Prop49
280
     0
102
RTVSPost2010PropOp49
 70
     1
102
RTVSPost2010Prop50
 90
       50
102
RTVSPost2010PropOp50
 70
     1
102
RTVSPost2010Prop51ColorIndex
 90
      256
102
RTVSPost2010Prop51ColorRGB
 90
-16777216
102
RTVSPost2010PropOp51
 70
     0
102
RTVSPost2010Prop52
140
1.0
102
RTVSPost2010PropOp52
 70
     0
102
RTVSPost2010Prop53
 90
        2
102
RTVSPost2010PropOp53
 70
     1
102
RTVSPost2010Prop54
  1
strokes_ogs.tif
102
RTVSPost2010PropOp54
 70
     1
102
RTVSPost2010Prop55
280
     0
102
RTVSPost2010PropOp55
 70
     1
102
RTVSPost2010Prop56
140
1.0
102
RTVSPost2010PropOp56
 70
     1
102
RTVSPost2010Prop57
140
1.0
102
RTVSPost2010PropOp57
 70
     1
  0
XRECORD
  5
1B32F
102
{ACAD_REACTORS
330
1B32E
102
}
330
1B32E
100
AcDbXrecord
280
     1
102
RTVSPropertyOp0
 70
     1
102
RTVSPropertyOp1
 70
     1
102
RTVSPropertyOp2
 70
     1
102
RTVSPropertyOp3
 70
     1
102
RTVSPropertyOp4
 70
     1
102
RTVSPropertyOp5
 70
     1
102
RTVSPropertyOp6
 70
     1
102
RTVSPropertyOp7
 70
     1
102
RTVSPropertyOp8
 70
     1
102
RTVSPropertyOp9
 70
     1
102
RTVSPropertyOp10
 70
     1
102
RTVSPropertyOp11
 70
     1
102
RTVSPropertyOp12
 70
     1
102
RTVSPropertyOp13
 70
     1
102
RTVSPropertyOp14
 70
     1
102
RTVSPropertyOp15
 70
     1
102
RTVSPropertyOp16
 70
     1
102
RTVSPropertyOp17
 70
     1
102
RTVSPropertyOp18
 70
     1
102
RTVSPropertyOp19
 70
     1
102
RTVSPropertyOp20
 70
     1
102
RTVSPropertyOp21
 70
     1
102
RTVSPropertyOp22
 70
     1
102
RTVSPropertyOp23
 70
     1
102
RTVSPropertyOp24
 70
     1
102
RTVSPropertyOp25
 70
     1
102
RTVSPropertyOp26
 70
     1
102
RTVSPropertyOp27
 70
     1
102
RTVSPropertyOp28
 70
     1
102
RTVSPropertyOp29
 70
     1
102
RTVSPropertyOp30
 70
     1
102
RTVSPropertyOp31
 70
     1
102
RTVSPropertyOp32
 70
     1
102
RTVSPropertyOp33
 70
     1
102
RTVSPropertyOp34
 70
     1
102
RTVSPropertyOp35
 70
     1
102
RTVSPropertyOp36
 70
     1
102
RTVSPropertyOp37
 70
     1
102
RTVSPropertyOp38
 70
     1
102
RTVSPropertyOp39
 70
     1
102
RTVSPropertyOp40
 70
     1
102
RTVSPropertyOp41
 70
     1
102
RTVSPropertyOp42
 70
     1
102
RTVSPropertyOp43
 70
     1
102
RTVSPropertyOp44
 70
     1
102
RTVSPropertyOp45
 70
     1
102
RTVSPropertyOp46
 70
     1
102
RTVSPropertyOp47
 70
     1
102
RTVSPropertyOp48
 70
     1
102
RTVSPropertyOp49
 70
     1
102
RTVSPropertyOp50
 70
     1
102
RTVSPropertyOp51
 70
     0
102
RTVSPropertyOp52
 70
     0
102
RTVSPropertyOp53
 70
     1
102
RTVSPropertyOp54
 70
     1
102
RTVSPropertyOp55
 70
     1
102
RTVSPropertyOp56
 70
     1
102
RTVSPropertyOp57
 70
     1
102
RTVSPost2010Prop28
280
     0
102
RTVSPost2010PropOp28
 70
     1
102
RTVSPost2010Prop29
280
     1
102
RTVSPost2010PropOp29
 70
     1
102
RTVSPost2010Prop30
280
     1
102
RTVSPost2010PropOp30
 70
     1
102
RTVSPost2010Prop31
280
     0
102
RTVSPost2010PropOp31
 70
     1
102
RTVSPost2010Prop32
280
     0
102
RTVSPost2010PropOp32
 70
     1
102
RTVSPost2010Prop33
280
     0
102
RTVSPost2010PropOp33
 70
     1
102
RTVSPost2010Prop34
280
     0
102
RTVSPost2010PropOp34
 70
     1
102
RTVSPost2010Prop35
280
     0
102
RTVSPost2010PropOp35
 70
     1
102
RTVSPost2010Prop36
280
     0
102
RTVSPost2010PropOp36
 70
     1
102
RTVSPost2010Prop37
 90
       50
102
RTVSPost2010PropOp37
 70
     1
102
RTVSPost2010Prop38
140
0.0
102
RTVSPost2010PropOp38
 70
     1
102
RTVSPost2010Prop39
140
1.0
102
RTVSPost2010PropOp39
 70
     1
102
RTVSPost2010Prop40
 90
        0
102
RTVSPost2010PropOp40
 70
     1
102
RTVSPost2010Prop41ColorIndex
 90
       18
102
RTVSPost2010Prop41ColorRGB
 90
        0
102
RTVSPost2010PropOp41
 70
     1
102
RTVSPost2010Prop42
 90
       50
102
RTVSPost2010PropOp42
 70
     1
102
RTVSPost2010Prop43
 90
        3
102
RTVSPost2010PropOp43
 70
     1
102
RTVSPost2010Prop44ColorIndex
 90
        5
102
RTVSPost2010Prop44ColorRGB
 90
      255
102
RTVSPost2010PropOp44
 70
     1
102
RTVSPost2010Prop45
280
     0
102
RTVSPost2010PropOp45
 70
     1
102
RTVSPost2010Prop46
 90
       50
102
RTVSPost2010PropOp46
 70
     1
102
RTVSPost2010Prop47
 90
       50
102
RTVSPost2010PropOp47
 70
     1
102
RTVSPost2010Prop48
 90
       50
102
RTVSPost2010PropOp48
 70
     1
102
RTVSPost2010Prop49
280
     0
102
RTVSPost2010PropOp49
 70
     1
102
RTVSPost2010Prop50
 90
       50
102
RTVSPost2010PropOp50
 70
     1
102
RTVSPost2010Prop51ColorIndex
 90
      256
102
RTVSPost2010Prop51ColorRGB
 90
-16777216
102
RTVSPost2010PropOp51
 70
     0
102
RTVSPost2010Prop52
140
1.0
102
RTVSPost2010PropOp52
 70
     0
102
RTVSPost2010Prop53
 90
        2
102
RTVSPost2010PropOp53
 70
     1
102
RTVSPost2010Prop54
  1
strokes_ogs.tif
102
RTVSPost2010PropOp54
 70
     1
102
RTVSPost2010Prop55
280
     0
102
RTVSPost2010PropOp55
 70
     1
102
RTVSPost2010Prop56
140
1.0
102
RTVSPost2010PropOp56
 70
     1
102
RTVSPost2010Prop57
140
1.0
102
RTVSPost2010PropOp57
 70
     1
  0
XRECORD
  5
1B331
102
{ACAD_REACTORS
330
1B330
102
}
330
1B330
100
AcDbXrecord
280
     1
102
RTVSPropertyOp0
 70
     1
102
RTVSPropertyOp1
 70
     1
102
RTVSPropertyOp2
 70
     1
102
RTVSPropertyOp3
 70
     1
102
RTVSPropertyOp4
 70
     1
102
RTVSPropertyOp5
 70
     1
102
RTVSPropertyOp6
 70
     1
102
RTVSPropertyOp7
 70
     1
102
RTVSPropertyOp8
 70
     1
102
RTVSPropertyOp9
 70
     1
102
RTVSPropertyOp10
 70
     1
102
RTVSPropertyOp11
 70
     1
102
RTVSPropertyOp12
 70
     1
102
RTVSPropertyOp13
 70
     1
102
RTVSPropertyOp14
 70
     1
102
RTVSPropertyOp15
 70
     1
102
RTVSPropertyOp16
 70
     1
102
RTVSPropertyOp17
 70
     1
102
RTVSPropertyOp18
 70
     1
102
RTVSPropertyOp19
 70
     1
102
RTVSPropertyOp20
 70
     1
102
RTVSPropertyOp21
 70
     1
102
RTVSPropertyOp22
 70
     1
102
RTVSPropertyOp23
 70
     1
102
RTVSPropertyOp24
 70
     1
102
RTVSPropertyOp25
 70
     1
102
RTVSPropertyOp26
 70
     1
102
RTVSPropertyOp27
 70
     1
102
RTVSPropertyOp28
 70
     1
102
RTVSPropertyOp29
 70
     1
102
RTVSPropertyOp30
 70
     1
102
RTVSPropertyOp31
 70
     1
102
RTVSPropertyOp32
 70
     1
102
RTVSPropertyOp33
 70
     1
102
RTVSPropertyOp34
 70
     1
102
RTVSPropertyOp35
 70
     1
102
RTVSPropertyOp36
 70
     1
102
RTVSPropertyOp37
 70
     1
102
RTVSPropertyOp38
 70
     1
102
RTVSPropertyOp39
 70
     1
102
RTVSPropertyOp40
 70
     1
102
RTVSPropertyOp41
 70
     1
102
RTVSPropertyOp42
 70
     1
102
RTVSPropertyOp43
 70
     1
102
RTVSPropertyOp44
 70
     1
102
RTVSPropertyOp45
 70
     1
102
RTVSPropertyOp46
 70
     1
102
RTVSPropertyOp47
 70
     1
102
RTVSPropertyOp48
 70
     1
102
RTVSPropertyOp49
 70
     1
102
RTVSPropertyOp50
 70
     1
102
RTVSPropertyOp51
 70
     0
102
RTVSPropertyOp52
 70
     0
102
RTVSPropertyOp53
 70
     1
102
RTVSPropertyOp54
 70
     1
102
RTVSPropertyOp55
 70
     1
102
RTVSPropertyOp56
 70
     1
102
RTVSPropertyOp57
 70
     1
102
RTVSPost2010Prop28
280
     0
102
RTVSPost2010PropOp28
 70
     1
102
RTVSPost2010Prop29
280
     1
102
RTVSPost2010PropOp29
 70
     1
102
RTVSPost2010Prop30
280
     1
102
RTVSPost2010PropOp30
 70
     1
102
RTVSPost2010Prop31
280
     0
102
RTVSPost2010PropOp31
 70
     1
102
RTVSPost2010Prop32
280
     0
102
RTVSPost2010PropOp32
 70
     1
102
RTVSPost2010Prop33
280
     0
102
RTVSPost2010PropOp33
 70
     1
102
RTVSPost2010Prop34
280
     0
102
RTVSPost2010PropOp34
 70
     1
102
RTVSPost2010Prop35
280
     0
102
RTVSPost2010PropOp35
 70
     1
102
RTVSPost2010Prop36
280
     0
102
RTVSPost2010PropOp36
 70
     1
102
RTVSPost2010Prop37
 90
       50
102
RTVSPost2010PropOp37
 70
     1
102
RTVSPost2010Prop38
140
0.0
102
RTVSPost2010PropOp38
 70
     1
102
RTVSPost2010Prop39
140
1.0
102
RTVSPost2010PropOp39
 70
     1
102
RTVSPost2010Prop40
 90
        0
102
RTVSPost2010PropOp40
 70
     1
102
RTVSPost2010Prop41ColorIndex
 90
       18
102
RTVSPost2010Prop41ColorRGB
 90
        0
102
RTVSPost2010PropOp41
 70
     1
102
RTVSPost2010Prop42
 90
       50
102
RTVSPost2010PropOp42
 70
     1
102
RTVSPost2010Prop43
 90
        3
102
RTVSPost2010PropOp43
 70
     1
102
RTVSPost2010Prop44ColorIndex
 90
        5
102
RTVSPost2010Prop44ColorRGB
 90
      255
102
RTVSPost2010PropOp44
 70
     1
102
RTVSPost2010Prop45
280
     0
102
RTVSPost2010PropOp45
 70
     1
102
RTVSPost2010Prop46
 90
       50
102
RTVSPost2010PropOp46
 70
     1
102
RTVSPost2010Prop47
 90
       50
102
RTVSPost2010PropOp47
 70
     1
102
RTVSPost2010Prop48
 90
       50
102
RTVSPost2010PropOp48
 70
     1
102
RTVSPost2010Prop49
280
     0
102
RTVSPost2010PropOp49
 70
     1
102
RTVSPost2010Prop50
 90
       50
102
RTVSPost2010PropOp50
 70
     1
102
RTVSPost2010Prop51ColorIndex
 90
      256
102
RTVSPost2010Prop51ColorRGB
 90
-16777216
102
RTVSPost2010PropOp51
 70
     0
102
RTVSPost2010Prop52
140
1.0
102
RTVSPost2010PropOp52
 70
     0
102
RTVSPost2010Prop53
 90
        2
102
RTVSPost2010PropOp53
 70
     1
102
RTVSPost2010Prop54
  1
strokes_ogs.tif
102
RTVSPost2010PropOp54
 70
     1
102
RTVSPost2010Prop55
280
     0
102
RTVSPost2010PropOp55
 70
     1
102
RTVSPost2010Prop56
140
1.0
102
RTVSPost2010PropOp56
 70
     1
102
RTVSPost2010Prop57
140
1.0
102
RTVSPost2010PropOp57
 70
     1
  0
XRECORD
  5
1B333
102
{ACAD_REACTORS
330
1B332
102
}
330
1B332
100
AcDbXrecord
280
     1
102
RTVSPropertyOp0
 70
     1
102
RTVSPropertyOp1
 70
     1
102
RTVSPropertyOp2
 70
     1
102
RTVSPropertyOp3
 70
     1
102
RTVSPropertyOp4
 70
     1
102
RTVSPropertyOp5
 70
     1
102
RTVSPropertyOp6
 70
     1
102
RTVSPropertyOp7
 70
     1
102
RTVSPropertyOp8
 70
     1
102
RTVSPropertyOp9
 70
     1
102
RTVSPropertyOp10
 70
     1
102
RTVSPropertyOp11
 70
     1
102
RTVSPropertyOp12
 70
     1
102
RTVSPropertyOp13
 70
     1
102
RTVSPropertyOp14
 70
     1
102
RTVSPropertyOp15
 70
     1
102
RTVSPropertyOp16
 70
     1
102
RTVSPropertyOp17
 70
     1
102
RTVSPropertyOp18
 70
     1
102
RTVSPropertyOp19
 70
     1
102
RTVSPropertyOp20
 70
     1
102
RTVSPropertyOp21
 70
     1
102
RTVSPropertyOp22
 70
     1
102
RTVSPropertyOp23
 70
     1
102
RTVSPropertyOp24
 70
     1
102
RTVSPropertyOp25
 70
     1
102
RTVSPropertyOp26
 70
     1
102
RTVSPropertyOp27
 70
     1
102
RTVSPropertyOp28
 70
     1
102
RTVSPropertyOp29
 70
     1
102
RTVSPropertyOp30
 70
     1
102
RTVSPropertyOp31
 70
     1
102
RTVSPropertyOp32
 70
     1
102
RTVSPropertyOp33
 70
     1
102
RTVSPropertyOp34
 70
     1
102
RTVSPropertyOp35
 70
     1
102
RTVSPropertyOp36
 70
     1
102
RTVSPropertyOp37
 70
     1
102
RTVSPropertyOp38
 70
     1
102
RTVSPropertyOp39
 70
     1
102
RTVSPropertyOp40
 70
     1
102
RTVSPropertyOp41
 70
     1
102
RTVSPropertyOp42
 70
     1
102
RTVSPropertyOp43
 70
     1
102
RTVSPropertyOp44
 70
     1
102
RTVSPropertyOp45
 70
     1
102
RTVSPropertyOp46
 70
     1
102
RTVSPropertyOp47
 70
     1
102
RTVSPropertyOp48
 70
     1
102
RTVSPropertyOp49
 70
     1
102
RTVSPropertyOp50
 70
     1
102
RTVSPropertyOp51
 70
     0
102
RTVSPropertyOp52
 70
     0
102
RTVSPropertyOp53
 70
     1
102
RTVSPropertyOp54
 70
     1
102
RTVSPropertyOp55
 70
     1
102
RTVSPropertyOp56
 70
     1
102
RTVSPropertyOp57
 70
     1
102
RTVSPost2010Prop28
280
     0
102
RTVSPost2010PropOp28
 70
     1
102
RTVSPost2010Prop29
280
     1
102
RTVSPost2010PropOp29
 70
     1
102
RTVSPost2010Prop30
280
     1
102
RTVSPost2010PropOp30
 70
     1
102
RTVSPost2010Prop31
280
     0
102
RTVSPost2010PropOp31
 70
     1
102
RTVSPost2010Prop32
280
     0
102
RTVSPost2010PropOp32
 70
     1
102
RTVSPost2010Prop33
280
     0
102
RTVSPost2010PropOp33
 70
     1
102
RTVSPost2010Prop34
280
     0
102
RTVSPost2010PropOp34
 70
     1
102
RTVSPost2010Prop35
280
     0
102
RTVSPost2010PropOp35
 70
     1
102
RTVSPost2010Prop36
280
     0
102
RTVSPost2010PropOp36
 70
     1
102
RTVSPost2010Prop37
 90
       50
102
RTVSPost2010PropOp37
 70
     1
102
RTVSPost2010Prop38
140
0.0
102
RTVSPost2010PropOp38
 70
     1
102
RTVSPost2010Prop39
140
1.0
102
RTVSPost2010PropOp39
 70
     1
102
RTVSPost2010Prop40
 90
        0
102
RTVSPost2010PropOp40
 70
     1
102
RTVSPost2010Prop41ColorIndex
 90
       18
102
RTVSPost2010Prop41ColorRGB
 90
        0
102
RTVSPost2010PropOp41
 70
     1
102
RTVSPost2010Prop42
 90
       50
102
RTVSPost2010PropOp42
 70
     1
102
RTVSPost2010Prop43
 90
        3
102
RTVSPost2010PropOp43
 70
     1
102
RTVSPost2010Prop44ColorIndex
 90
        5
102
RTVSPost2010Prop44ColorRGB
 90
      255
102
RTVSPost2010PropOp44
 70
     1
102
RTVSPost2010Prop45
280
     0
102
RTVSPost2010PropOp45
 70
     1
102
RTVSPost2010Prop46
 90
       50
102
RTVSPost2010PropOp46
 70
     1
102
RTVSPost2010Prop47
 90
       50
102
RTVSPost2010PropOp47
 70
     1
102
RTVSPost2010Prop48
 90
       50
102
RTVSPost2010PropOp48
 70
     1
102
RTVSPost2010Prop49
280
     0
102
RTVSPost2010PropOp49
 70
     1
102
RTVSPost2010Prop50
 90
       50
102
RTVSPost2010PropOp50
 70
     1
102
RTVSPost2010Prop51ColorIndex
 90
      256
102
RTVSPost2010Prop51ColorRGB
 90
-16777216
102
RTVSPost2010PropOp51
 70
     0
102
RTVSPost2010Prop52
140
1.0
102
RTVSPost2010PropOp52
 70
     0
102
RTVSPost2010Prop53
 90
        2
102
RTVSPost2010PropOp53
 70
     1
102
RTVSPost2010Prop54
  1
strokes_ogs.tif
102
RTVSPost2010PropOp54
 70
     1
102
RTVSPost2010Prop55
280
     0
102
RTVSPost2010PropOp55
 70
     1
102
RTVSPost2010Prop56
140
1.0
102
RTVSPost2010PropOp56
 70
     1
102
RTVSPost2010Prop57
140
1.0
102
RTVSPost2010PropOp57
 70
     1
  0
XRECORD
  5
1B335
102
{ACAD_REACTORS
330
1B334
102
}
330
1B334
100
AcDbXrecord
280
     1
102
RTVSPropertyOp0
 70
     1
102
RTVSPropertyOp1
 70
     1
102
RTVSPropertyOp2
 70
     1
102
RTVSPropertyOp3
 70
     1
102
RTVSPropertyOp4
 70
     1
102
RTVSPropertyOp5
 70
     1
102
RTVSPropertyOp6
 70
     1
102
RTVSPropertyOp7
 70
     1
102
RTVSPropertyOp8
 70
     1
102
RTVSPropertyOp9
 70
     1
102
RTVSPropertyOp10
 70
     1
102
RTVSPropertyOp11
 70
     1
102
RTVSPropertyOp12
 70
     1
102
RTVSPropertyOp13
 70
     1
102
RTVSPropertyOp14
 70
     1
102
RTVSPropertyOp15
 70
     1
102
RTVSPropertyOp16
 70
     1
102
RTVSPropertyOp17
 70
     1
102
RTVSPropertyOp18
 70
     1
102
RTVSPropertyOp19
 70
     1
102
RTVSPropertyOp20
 70
     1
102
RTVSPropertyOp21
 70
     1
102
RTVSPropertyOp22
 70
     1
102
RTVSPropertyOp23
 70
     1
102
RTVSPropertyOp24
 70
     1
102
RTVSPropertyOp25
 70
     1
102
RTVSPropertyOp26
 70
     1
102
RTVSPropertyOp27
 70
     1
102
RTVSPropertyOp28
 70
     1
102
RTVSPropertyOp29
 70
     1
102
RTVSPropertyOp30
 70
     1
102
RTVSPropertyOp31
 70
     1
102
RTVSPropertyOp32
 70
     1
102
RTVSPropertyOp33
 70
     1
102
RTVSPropertyOp34
 70
     1
102
RTVSPropertyOp35
 70
     1
102
RTVSPropertyOp36
 70
     1
102
RTVSPropertyOp37
 70
     1
102
RTVSPropertyOp38
 70
     1
102
RTVSPropertyOp39
 70
     1
102
RTVSPropertyOp40
 70
     1
102
RTVSPropertyOp41
 70
     1
102
RTVSPropertyOp42
 70
     1
102
RTVSPropertyOp43
 70
     1
102
RTVSPropertyOp44
 70
     1
102
RTVSPropertyOp45
 70
     1
102
RTVSPropertyOp46
 70
     1
102
RTVSPropertyOp47
 70
     1
102
RTVSPropertyOp48
 70
     1
102
RTVSPropertyOp49
 70
     1
102
RTVSPropertyOp50
 70
     1
102
RTVSPropertyOp51
 70
     0
102
RTVSPropertyOp52
 70
     0
102
RTVSPropertyOp53
 70
     1
102
RTVSPropertyOp54
 70
     1
102
RTVSPropertyOp55
 70
     1
102
RTVSPropertyOp56
 70
     1
102
RTVSPropertyOp57
 70
     1
102
RTVSPost2010Prop28
280
     0
102
RTVSPost2010PropOp28
 70
     1
102
RTVSPost2010Prop29
280
     1
102
RTVSPost2010PropOp29
 70
     1
102
RTVSPost2010Prop30
280
     1
102
RTVSPost2010PropOp30
 70
     1
102
RTVSPost2010Prop31
280
     0
102
RTVSPost2010PropOp31
 70
     1
102
RTVSPost2010Prop32
280
     0
102
RTVSPost2010PropOp32
 70
     1
102
RTVSPost2010Prop33
280
     0
102
RTVSPost2010PropOp33
 70
     1
102
RTVSPost2010Prop34
280
     0
102
RTVSPost2010PropOp34
 70
     1
102
RTVSPost2010Prop35
280
     0
102
RTVSPost2010PropOp35
 70
     1
102
RTVSPost2010Prop36
280
     0
102
RTVSPost2010PropOp36
 70
     1
102
RTVSPost2010Prop37
 90
       50
102
RTVSPost2010PropOp37
 70
     1
102
RTVSPost2010Prop38
140
0.0
102
RTVSPost2010PropOp38
 70
     1
102
RTVSPost2010Prop39
140
1.0
102
RTVSPost2010PropOp39
 70
     1
102
RTVSPost2010Prop40
 90
        0
102
RTVSPost2010PropOp40
 70
     1
102
RTVSPost2010Prop41ColorIndex
 90
       18
102
RTVSPost2010Prop41ColorRGB
 90
        0
102
RTVSPost2010PropOp41
 70
     1
102
RTVSPost2010Prop42
 90
       50
102
RTVSPost2010PropOp42
 70
     1
102
RTVSPost2010Prop43
 90
        3
102
RTVSPost2010PropOp43
 70
     1
102
RTVSPost2010Prop44ColorIndex
 90
        5
102
RTVSPost2010Prop44ColorRGB
 90
      255
102
RTVSPost2010PropOp44
 70
     1
102
RTVSPost2010Prop45
280
     0
102
RTVSPost2010PropOp45
 70
     1
102
RTVSPost2010Prop46
 90
       50
102
RTVSPost2010PropOp46
 70
     1
102
RTVSPost2010Prop47
 90
       50
102
RTVSPost2010PropOp47
 70
     1
102
RTVSPost2010Prop48
 90
       50
102
RTVSPost2010PropOp48
 70
     1
102
RTVSPost2010Prop49
280
     0
102
RTVSPost2010PropOp49
 70
     1
102
RTVSPost2010Prop50
 90
       50
102
RTVSPost2010PropOp50
 70
     1
102
RTVSPost2010Prop51ColorIndex
 90
      256
102
RTVSPost2010Prop51ColorRGB
 90
-16777216
102
RTVSPost2010PropOp51
 70
     0
102
RTVSPost2010Prop52
140
1.0
102
RTVSPost2010PropOp52
 70
     0
102
RTVSPost2010Prop53
 90
        2
102
RTVSPost2010PropOp53
 70
     1
102
RTVSPost2010Prop54
  1
strokes_ogs.tif
102
RTVSPost2010PropOp54
 70
     1
102
RTVSPost2010Prop55
280
     0
102
RTVSPost2010PropOp55
 70
     1
102
RTVSPost2010Prop56
140
1.0
102
RTVSPost2010PropOp56
 70
     1
102
RTVSPost2010Prop57
140
1.0
102
RTVSPost2010PropOp57
 70
     1
  0
XRECORD
  5
1B337
102
{ACAD_REACTORS
330
1B336
102
}
330
1B336
100
AcDbXrecord
280
     1
102
RTVSPropertyOp0
 70
     1
102
RTVSPropertyOp1
 70
     1
102
RTVSPropertyOp2
 70
     1
102
RTVSPropertyOp3
 70
     1
102
RTVSPropertyOp4
 70
     1
102
RTVSPropertyOp5
 70
     1
102
RTVSPropertyOp6
 70
     1
102
RTVSPropertyOp7
 70
     1
102
RTVSPropertyOp8
 70
     1
102
RTVSPropertyOp9
 70
     1
102
RTVSPropertyOp10
 70
     1
102
RTVSPropertyOp11
 70
     1
102
RTVSPropertyOp12
 70
     1
102
RTVSPropertyOp13
 70
     1
102
RTVSPropertyOp14
 70
     1
102
RTVSPropertyOp15
 70
     1
102
RTVSPropertyOp16
 70
     1
102
RTVSPropertyOp17
 70
     1
102
RTVSPropertyOp18
 70
     1
102
RTVSPropertyOp19
 70
     1
102
RTVSPropertyOp20
 70
     1
102
RTVSPropertyOp21
 70
     1
102
RTVSPropertyOp22
 70
     1
102
RTVSPropertyOp23
 70
     1
102
RTVSPropertyOp24
 70
     1
102
RTVSPropertyOp25
 70
     1
102
RTVSPropertyOp26
 70
     1
102
RTVSPropertyOp27
 70
     1
102
RTVSPropertyOp28
 70
     1
102
RTVSPropertyOp29
 70
     1
102
RTVSPropertyOp30
 70
     1
102
RTVSPropertyOp31
 70
     1
102
RTVSPropertyOp32
 70
     1
102
RTVSPropertyOp33
 70
     1
102
RTVSPropertyOp34
 70
     1
102
RTVSPropertyOp35
 70
     1
102
RTVSPropertyOp36
 70
     1
102
RTVSPropertyOp37
 70
     1
102
RTVSPropertyOp38
 70
     1
102
RTVSPropertyOp39
 70
     1
102
RTVSPropertyOp40
 70
     1
102
RTVSPropertyOp41
 70
     1
102
RTVSPropertyOp42
 70
     1
102
RTVSPropertyOp43
 70
     1
102
RTVSPropertyOp44
 70
     1
102
RTVSPropertyOp45
 70
     1
102
RTVSPropertyOp46
 70
     1
102
RTVSPropertyOp47
 70
     1
102
RTVSPropertyOp48
 70
     1
102
RTVSPropertyOp49
 70
     1
102
RTVSPropertyOp50
 70
     1
102
RTVSPropertyOp51
 70
     0
102
RTVSPropertyOp52
 70
     0
102
RTVSPropertyOp53
 70
     1
102
RTVSPropertyOp54
 70
     1
102
RTVSPropertyOp55
 70
     1
102
RTVSPropertyOp56
 70
     1
102
RTVSPropertyOp57
 70
     1
102
RTVSPost2010Prop28
280
     0
102
RTVSPost2010PropOp28
 70
     1
102
RTVSPost2010Prop29
280
     1
102
RTVSPost2010PropOp29
 70
     1
102
RTVSPost2010Prop30
280
     1
102
RTVSPost2010PropOp30
 70
     1
102
RTVSPost2010Prop31
280
     0
102
RTVSPost2010PropOp31
 70
     1
102
RTVSPost2010Prop32
280
     0
102
RTVSPost2010PropOp32
 70
     1
102
RTVSPost2010Prop33
280
     0
102
RTVSPost2010PropOp33
 70
     1
102
RTVSPost2010Prop34
280
     0
102
RTVSPost2010PropOp34
 70
     1
102
RTVSPost2010Prop35
280
     0
102
RTVSPost2010PropOp35
 70
     1
102
RTVSPost2010Prop36
280
     0
102
RTVSPost2010PropOp36
 70
     1
102
RTVSPost2010Prop37
 90
       50
102
RTVSPost2010PropOp37
 70
     1
102
RTVSPost2010Prop38
140
0.0
102
RTVSPost2010PropOp38
 70
     1
102
RTVSPost2010Prop39
140
1.0
102
RTVSPost2010PropOp39
 70
     1
102
RTVSPost2010Prop40
 90
        0
102
RTVSPost2010PropOp40
 70
     1
102
RTVSPost2010Prop41ColorIndex
 90
       18
102
RTVSPost2010Prop41ColorRGB
 90
        0
102
RTVSPost2010PropOp41
 70
     1
102
RTVSPost2010Prop42
 90
       50
102
RTVSPost2010PropOp42
 70
     1
102
RTVSPost2010Prop43
 90
        3
102
RTVSPost2010PropOp43
 70
     1
102
RTVSPost2010Prop44ColorIndex
 90
        5
102
RTVSPost2010Prop44ColorRGB
 90
      255
102
RTVSPost2010PropOp44
 70
     1
102
RTVSPost2010Prop45
280
     0
102
RTVSPost2010PropOp45
 70
     1
102
RTVSPost2010Prop46
 90
       50
102
RTVSPost2010PropOp46
 70
     1
102
RTVSPost2010Prop47
 90
       50
102
RTVSPost2010PropOp47
 70
     1
102
RTVSPost2010Prop48
 90
       50
102
RTVSPost2010PropOp48
 70
     1
102
RTVSPost2010Prop49
280
     0
102
RTVSPost2010PropOp49
 70
     1
102
RTVSPost2010Prop50
 90
       50
102
RTVSPost2010PropOp50
 70
     1
102
RTVSPost2010Prop51ColorIndex
 90
      256
102
RTVSPost2010Prop51ColorRGB
 90
-16777216
102
RTVSPost2010PropOp51
 70
     0
102
RTVSPost2010Prop52
140
1.0
102
RTVSPost2010PropOp52
 70
     0
102
RTVSPost2010Prop53
 90
        2
102
RTVSPost2010PropOp53
 70
     1
102
RTVSPost2010Prop54
  1
strokes_ogs.tif
102
RTVSPost2010PropOp54
 70
     1
102
RTVSPost2010Prop55
280
     0
102
RTVSPost2010PropOp55
 70
     1
102
RTVSPost2010Prop56
140
1.0
102
RTVSPost2010PropOp56
 70
     1
102
RTVSPost2010Prop57
140
1.0
102
RTVSPost2010PropOp57
 70
     1
  0
XRECORD
  5
1B339
102
{ACAD_REACTORS
330
1B338
102
}
330
1B338
100
AcDbXrecord
280
     1
102
RTVSPropertyOp0
 70
     0
102
RTVSPropertyOp1
 70
     0
102
RTVSPropertyOp2
 70
     0
102
RTVSPropertyOp3
 70
     0
102
RTVSPropertyOp4
 70
     0
102
RTVSPropertyOp5
 70
     0
102
RTVSPropertyOp6
 70
     0
102
RTVSPropertyOp7
 70
     0
102
RTVSPropertyOp8
 70
     0
102
RTVSPropertyOp9
 70
     0
102
RTVSPropertyOp10
 70
     0
102
RTVSPropertyOp11
 70
     0
102
RTVSPropertyOp12
 70
     0
102
RTVSPropertyOp13
 70
     0
102
RTVSPropertyOp14
 70
     2
102
RTVSPropertyOp15
 70
     0
102
RTVSPropertyOp16
 70
     0
102
RTVSPropertyOp17
 70
     0
102
RTVSPropertyOp18
 70
     0
102
RTVSPropertyOp19
 70
     0
102
RTVSPropertyOp20
 70
     0
102
RTVSPropertyOp21
 70
     0
102
RTVSPropertyOp22
 70
     0
102
RTVSPropertyOp23
 70
     0
102
RTVSPropertyOp24
 70
     0
102
RTVSPropertyOp25
 70
     0
102
RTVSPropertyOp26
 70
     0
102
RTVSPropertyOp27
 70
     0
102
RTVSPropertyOp28
 70
     0
102
RTVSPropertyOp29
 70
     0
102
RTVSPropertyOp30
 70
     0
102
RTVSPropertyOp31
 70
     0
102
RTVSPropertyOp32
 70
     0
102
RTVSPropertyOp33
 70
     0
102
RTVSPropertyOp34
 70
     0
102
RTVSPropertyOp35
 70
     0
102
RTVSPropertyOp36
 70
     0
102
RTVSPropertyOp37
 70
     0
102
RTVSPropertyOp38
 70
     0
102
RTVSPropertyOp39
 70
     0
102
RTVSPropertyOp40
 70
     0
102
RTVSPropertyOp41
 70
     0
102
RTVSPropertyOp42
 70
     0
102
RTVSPropertyOp43
 70
     0
102
RTVSPropertyOp44
 70
     0
102
RTVSPropertyOp45
 70
     0
102
RTVSPropertyOp46
 70
     0
102
RTVSPropertyOp47
 70
     0
102
RTVSPropertyOp48
 70
     0
102
RTVSPropertyOp49
 70
     0
102
RTVSPropertyOp50
 70
     0
102
RTVSPropertyOp51
 70
     0
102
RTVSPropertyOp52
 70
     0
102
RTVSPropertyOp53
 70
     0
102
RTVSPropertyOp54
 70
     0
102
RTVSPropertyOp55
 70
     0
102
RTVSPropertyOp56
 70
     0
102
RTVSPropertyOp57
 70
     0
102
RTVSPost2010Prop28
280
     0
102
RTVSPost2010PropOp28
 70
     0
102
RTVSPost2010Prop29
280
     1
102
RTVSPost2010PropOp29
 70
     0
102
RTVSPost2010Prop30
280
     1
102
RTVSPost2010PropOp30
 70
     0
102
RTVSPost2010Prop31
280
     0
102
RTVSPost2010PropOp31
 70
     0
102
RTVSPost2010Prop32
280
     0
102
RTVSPost2010PropOp32
 70
     0
102
RTVSPost2010Prop33
280
     0
102
RTVSPost2010PropOp33
 70
     0
102
RTVSPost2010Prop34
280
     0
102
RTVSPost2010PropOp34
 70
     0
102
RTVSPost2010Prop35
280
     0
102
RTVSPost2010PropOp35
 70
     0
102
RTVSPost2010Prop36
280
     0
102
RTVSPost2010PropOp36
 70
     0
102
RTVSPost2010Prop37
 90
       50
102
RTVSPost2010PropOp37
 70
     0
102
RTVSPost2010Prop38
140
0.0
102
RTVSPost2010PropOp38
 70
     0
102
RTVSPost2010Prop39
140
1.0
102
RTVSPost2010PropOp39
 70
     0
102
RTVSPost2010Prop40
 90
        0
102
RTVSPost2010PropOp40
 70
     0
102
RTVSPost2010Prop41ColorIndex
 90
       18
102
RTVSPost2010Prop41ColorRGB
 90
        0
102
RTVSPost2010PropOp41
 70
     0
102
RTVSPost2010Prop42
 90
       50
102
RTVSPost2010PropOp42
 70
     0
102
RTVSPost2010Prop43
 90
        3
102
RTVSPost2010PropOp43
 70
     0
102
RTVSPost2010Prop44ColorIndex
 90
        5
102
RTVSPost2010Prop44ColorRGB
 90
      255
102
RTVSPost2010PropOp44
 70
     0
102
RTVSPost2010Prop45
280
     0
102
RTVSPost2010PropOp45
 70
     0
102
RTVSPost2010Prop46
 90
       50
102
RTVSPost2010PropOp46
 70
     0
102
RTVSPost2010Prop47
 90
       50
102
RTVSPost2010PropOp47
 70
     0
102
RTVSPost2010Prop48
 90
       50
102
RTVSPost2010PropOp48
 70
     0
102
RTVSPost2010Prop49
280
     0
102
RTVSPost2010PropOp49
 70
     0
102
RTVSPost2010Prop50
 90
       50
102
RTVSPost2010PropOp50
 70
     0
102
RTVSPost2010Prop51ColorIndex
 90
      256
102
RTVSPost2010Prop51ColorRGB
 90
-16777216
102
RTVSPost2010PropOp51
 70
     0
102
RTVSPost2010Prop52
140
1.0
102
RTVSPost2010PropOp52
 70
     0
102
RTVSPost2010Prop53
 90
        2
102
RTVSPost2010PropOp53
 70
     0
102
RTVSPost2010Prop54
  1
strokes_ogs.tif
102
RTVSPost2010PropOp54
 70
     0
102
RTVSPost2010Prop55
280
     0
102
RTVSPost2010PropOp55
 70
     0
102
RTVSPost2010Prop56
140
1.0
102
RTVSPost2010PropOp56
 70
     0
102
RTVSPost2010Prop57
140
1.0
102
RTVSPost2010PropOp57
 70
     0
  0
XRECORD
  5
1B33B
102
{ACAD_REACTORS
330
1B33A
102
}
330
1B33A
100
AcDbXrecord
280
     1
102
RTVSPropertyOp0
 70
     1
102
RTVSPropertyOp1
 70
     1
102
RTVSPropertyOp2
 70
     1
102
RTVSPropertyOp3
 70
     1
102
RTVSPropertyOp4
 70
     1
102
RTVSPropertyOp5
 70
     1
102
RTVSPropertyOp6
 70
     1
102
RTVSPropertyOp7
 70
     1
102
RTVSPropertyOp8
 70
     1
102
RTVSPropertyOp9
 70
     1
102
RTVSPropertyOp10
 70
     1
102
RTVSPropertyOp11
 70
     1
102
RTVSPropertyOp12
 70
     1
102
RTVSPropertyOp13
 70
     1
102
RTVSPropertyOp14
 70
     1
102
RTVSPropertyOp15
 70
     1
102
RTVSPropertyOp16
 70
     1
102
RTVSPropertyOp17
 70
     1
102
RTVSPropertyOp18
 70
     1
102
RTVSPropertyOp19
 70
     1
102
RTVSPropertyOp20
 70
     1
102
RTVSPropertyOp21
 70
     1
102
RTVSPropertyOp22
 70
     1
102
RTVSPropertyOp23
 70
     1
102
RTVSPropertyOp24
 70
     1
102
RTVSPropertyOp25
 70
     1
102
RTVSPropertyOp26
 70
     1
102
RTVSPropertyOp27
 70
     1
102
RTVSPropertyOp28
 70
     1
102
RTVSPropertyOp29
 70
     1
102
RTVSPropertyOp30
 70
     1
102
RTVSPropertyOp31
 70
     1
102
RTVSPropertyOp32
 70
     1
102
RTVSPropertyOp33
 70
     1
102
RTVSPropertyOp34
 70
     1
102
RTVSPropertyOp35
 70
     1
102
RTVSPropertyOp36
 70
     1
102
RTVSPropertyOp37
 70
     1
102
RTVSPropertyOp38
 70
     1
102
RTVSPropertyOp39
 70
     1
102
RTVSPropertyOp40
 70
     1
102
RTVSPropertyOp41
 70
     1
102
RTVSPropertyOp42
 70
     1
102
RTVSPropertyOp43
 70
     1
102
RTVSPropertyOp44
 70
     1
102
RTVSPropertyOp45
 70
     1
102
RTVSPropertyOp46
 70
     1
102
RTVSPropertyOp47
 70
     1
102
RTVSPropertyOp48
 70
     1
102
RTVSPropertyOp49
 70
     1
102
RTVSPropertyOp50
 70
     1
102
RTVSPropertyOp51
 70
     0
102
RTVSPropertyOp52
 70
     0
102
RTVSPropertyOp53
 70
     1
102
RTVSPropertyOp54
 70
     1
102
RTVSPropertyOp55
 70
     1
102
RTVSPropertyOp56
 70
     1
102
RTVSPropertyOp57
 70
     1
102
RTVSPost2010Prop28
280
     0
102
RTVSPost2010PropOp28
 70
     1
102
RTVSPost2010Prop29
280
     1
102
RTVSPost2010PropOp29
 70
     1
102
RTVSPost2010Prop30
280
     1
102
RTVSPost2010PropOp30
 70
     1
102
RTVSPost2010Prop31
280
     0
102
RTVSPost2010PropOp31
 70
     1
102
RTVSPost2010Prop32
280
     0
102
RTVSPost2010PropOp32
 70
     1
102
RTVSPost2010Prop33
280
     0
102
RTVSPost2010PropOp33
 70
     1
102
RTVSPost2010Prop34
280
     0
102
RTVSPost2010PropOp34
 70
     1
102
RTVSPost2010Prop35
280
     0
102
RTVSPost2010PropOp35
 70
     1
102
RTVSPost2010Prop36
280
     0
102
RTVSPost2010PropOp36
 70
     1
102
RTVSPost2010Prop37
 90
       50
102
RTVSPost2010PropOp37
 70
     1
102
RTVSPost2010Prop38
140
0.0
102
RTVSPost2010PropOp38
 70
     1
102
RTVSPost2010Prop39
140
1.0
102
RTVSPost2010PropOp39
 70
     1
102
RTVSPost2010Prop40
 90
        0
102
RTVSPost2010PropOp40
 70
     1
102
RTVSPost2010Prop41ColorIndex
 90
       18
102
RTVSPost2010Prop41ColorRGB
 90
        0
102
RTVSPost2010PropOp41
 70
     1
102
RTVSPost2010Prop42
 90
       50
102
RTVSPost2010PropOp42
 70
     1
102
RTVSPost2010Prop43
 90
        3
102
RTVSPost2010PropOp43
 70
     1
102
RTVSPost2010Prop44ColorIndex
 90
        5
102
RTVSPost2010Prop44ColorRGB
 90
      255
102
RTVSPost2010PropOp44
 70
     1
102
RTVSPost2010Prop45
280
     0
102
RTVSPost2010PropOp45
 70
     1
102
RTVSPost2010Prop46
 90
       50
102
RTVSPost2010PropOp46
 70
     1
102
RTVSPost2010Prop47
 90
       50
102
RTVSPost2010PropOp47
 70
     1
102
RTVSPost2010Prop48
 90
       50
102
RTVSPost2010PropOp48
 70
     1
102
RTVSPost2010Prop49
280
     0
102
RTVSPost2010PropOp49
 70
     1
102
RTVSPost2010Prop50
 90
       50
102
RTVSPost2010PropOp50
 70
     1
102
RTVSPost2010Prop51ColorIndex
 90
      256
102
RTVSPost2010Prop51ColorRGB
 90
-16777216
102
RTVSPost2010PropOp51
 70
     0
102
RTVSPost2010Prop52
140
1.0
102
RTVSPost2010PropOp52
 70
     0
102
RTVSPost2010Prop53
 90
        2
102
RTVSPost2010PropOp53
 70
     1
102
RTVSPost2010Prop54
  1
strokes_ogs.tif
102
RTVSPost2010PropOp54
 70
     1
102
RTVSPost2010Prop55
280
     0
102
RTVSPost2010PropOp55
 70
     1
102
RTVSPost2010Prop56
140
1.0
102
RTVSPost2010PropOp56
 70
     1
102
RTVSPost2010Prop57
140
1.0
102
RTVSPost2010PropOp57
 70
     1
  0
XRECORD
  5
1B33D
102
{ACAD_REACTORS
330
1B33C
102
}
330
1B33C
100
AcDbXrecord
280
     1
102
RTVSPropertyOp0
 70
     1
102
RTVSPropertyOp1
 70
     1
102
RTVSPropertyOp2
 70
     1
102
RTVSPropertyOp3
 70
     1
102
RTVSPropertyOp4
 70
     1
102
RTVSPropertyOp5
 70
     1
102
RTVSPropertyOp6
 70
     1
102
RTVSPropertyOp7
 70
     1
102
RTVSPropertyOp8
 70
     1
102
RTVSPropertyOp9
 70
     1
102
RTVSPropertyOp10
 70
     1
102
RTVSPropertyOp11
 70
     1
102
RTVSPropertyOp12
 70
     1
102
RTVSPropertyOp13
 70
     1
102
RTVSPropertyOp14
 70
     1
102
RTVSPropertyOp15
 70
     1
102
RTVSPropertyOp16
 70
     1
102
RTVSPropertyOp17
 70
     1
102
RTVSPropertyOp18
 70
     1
102
RTVSPropertyOp19
 70
     1
102
RTVSPropertyOp20
 70
     1
102
RTVSPropertyOp21
 70
     1
102
RTVSPropertyOp22
 70
     1
102
RTVSPropertyOp23
 70
     1
102
RTVSPropertyOp24
 70
     1
102
RTVSPropertyOp25
 70
     1
102
RTVSPropertyOp26
 70
     1
102
RTVSPropertyOp27
 70
     1
102
RTVSPropertyOp28
 70
     1
102
RTVSPropertyOp29
 70
     1
102
RTVSPropertyOp30
 70
     1
102
RTVSPropertyOp31
 70
     1
102
RTVSPropertyOp32
 70
     1
102
RTVSPropertyOp33
 70
     1
102
RTVSPropertyOp34
 70
     1
102
RTVSPropertyOp35
 70
     1
102
RTVSPropertyOp36
 70
     1
102
RTVSPropertyOp37
 70
     1
102
RTVSPropertyOp38
 70
     1
102
RTVSPropertyOp39
 70
     1
102
RTVSPropertyOp40
 70
     1
102
RTVSPropertyOp41
 70
     1
102
RTVSPropertyOp42
 70
     1
102
RTVSPropertyOp43
 70
     1
102
RTVSPropertyOp44
 70
     1
102
RTVSPropertyOp45
 70
     1
102
RTVSPropertyOp46
 70
     1
102
RTVSPropertyOp47
 70
     1
102
RTVSPropertyOp48
 70
     1
102
RTVSPropertyOp49
 70
     1
102
RTVSPropertyOp50
 70
     1
102
RTVSPropertyOp51
 70
     0
102
RTVSPropertyOp52
 70
     0
102
RTVSPropertyOp53
 70
     1
102
RTVSPropertyOp54
 70
     1
102
RTVSPropertyOp55
 70
     1
102
RTVSPropertyOp56
 70
     1
102
RTVSPropertyOp57
 70
     1
102
RTVSPost2010Prop28
280
     0
102
RTVSPost2010PropOp28
 70
     1
102
RTVSPost2010Prop29
280
     1
102
RTVSPost2010PropOp29
 70
     1
102
RTVSPost2010Prop30
280
     1
102
RTVSPost2010PropOp30
 70
     1
102
RTVSPost2010Prop31
280
     0
102
RTVSPost2010PropOp31
 70
     1
102
RTVSPost2010Prop32
280
     0
102
RTVSPost2010PropOp32
 70
     1
102
RTVSPost2010Prop33
280
     0
102
RTVSPost2010PropOp33
 70
     1
102
RTVSPost2010Prop34
280
     0
102
RTVSPost2010PropOp34
 70
     1
102
RTVSPost2010Prop35
280
     0
102
RTVSPost2010PropOp35
 70
     1
102
RTVSPost2010Prop36
280
     0
102
RTVSPost2010PropOp36
 70
     1
102
RTVSPost2010Prop37
 90
       50
102
RTVSPost2010PropOp37
 70
     1
102
RTVSPost2010Prop38
140
0.0
102
RTVSPost2010PropOp38
 70
     1
102
RTVSPost2010Prop39
140
1.0
102
RTVSPost2010PropOp39
 70
     1
102
RTVSPost2010Prop40
 90
        0
102
RTVSPost2010PropOp40
 70
     1
102
RTVSPost2010Prop41ColorIndex
 90
       18
102
RTVSPost2010Prop41ColorRGB
 90
        0
102
RTVSPost2010PropOp41
 70
     1
102
RTVSPost2010Prop42
 90
       50
102
RTVSPost2010PropOp42
 70
     1
102
RTVSPost2010Prop43
 90
        3
102
RTVSPost2010PropOp43
 70
     1
102
RTVSPost2010Prop44ColorIndex
 90
        5
102
RTVSPost2010Prop44ColorRGB
 90
      255
102
RTVSPost2010PropOp44
 70
     1
102
RTVSPost2010Prop45
280
     0
102
RTVSPost2010PropOp45
 70
     1
102
RTVSPost2010Prop46
 90
       50
102
RTVSPost2010PropOp46
 70
     1
102
RTVSPost2010Prop47
 90
       50
102
RTVSPost2010PropOp47
 70
     1
102
RTVSPost2010Prop48
 90
       50
102
RTVSPost2010PropOp48
 70
     1
102
RTVSPost2010Prop49
280
     0
102
RTVSPost2010PropOp49
 70
     1
102
RTVSPost2010Prop50
 90
       50
102
RTVSPost2010PropOp50
 70
     1
102
RTVSPost2010Prop51ColorIndex
 90
      256
102
RTVSPost2010Prop51ColorRGB
 90
-16777216
102
RTVSPost2010PropOp51
 70
     0
102
RTVSPost2010Prop52
140
1.0
102
RTVSPost2010PropOp52
 70
     0
102
RTVSPost2010Prop53
 90
        2
102
RTVSPost2010PropOp53
 70
     1
102
RTVSPost2010Prop54
  1
strokes_ogs.tif
102
RTVSPost2010PropOp54
 70
     1
102
RTVSPost2010Prop55
280
     0
102
RTVSPost2010PropOp55
 70
     1
102
RTVSPost2010Prop56
140
1.0
102
RTVSPost2010PropOp56
 70
     1
102
RTVSPost2010Prop57
140
1.0
102
RTVSPost2010PropOp57
 70
     1
  0
XRECORD
  5
1B33F
102
{ACAD_REACTORS
330
1B33E
102
}
330
1B33E
100
AcDbXrecord
280
     1
102
RTVSPropertyOp0
 70
     1
102
RTVSPropertyOp1
 70
     1
102
RTVSPropertyOp2
 70
     1
102
RTVSPropertyOp3
 70
     1
102
RTVSPropertyOp4
 70
     1
102
RTVSPropertyOp5
 70
     1
102
RTVSPropertyOp6
 70
     1
102
RTVSPropertyOp7
 70
     1
102
RTVSPropertyOp8
 70
     1
102
RTVSPropertyOp9
 70
     1
102
RTVSPropertyOp10
 70
     1
102
RTVSPropertyOp11
 70
     1
102
RTVSPropertyOp12
 70
     1
102
RTVSPropertyOp13
 70
     1
102
RTVSPropertyOp14
 70
     1
102
RTVSPropertyOp15
 70
     1
102
RTVSPropertyOp16
 70
     1
102
RTVSPropertyOp17
 70
     1
102
RTVSPropertyOp18
 70
     1
102
RTVSPropertyOp19
 70
     1
102
RTVSPropertyOp20
 70
     1
102
RTVSPropertyOp21
 70
     1
102
RTVSPropertyOp22
 70
     1
102
RTVSPropertyOp23
 70
     1
102
RTVSPropertyOp24
 70
     1
102
RTVSPropertyOp25
 70
     1
102
RTVSPropertyOp26
 70
     1
102
RTVSPropertyOp27
 70
     1
102
RTVSPropertyOp28
 70
     1
102
RTVSPropertyOp29
 70
     1
102
RTVSPropertyOp30
 70
     1
102
RTVSPropertyOp31
 70
     1
102
RTVSPropertyOp32
 70
     1
102
RTVSPropertyOp33
 70
     1
102
RTVSPropertyOp34
 70
     1
102
RTVSPropertyOp35
 70
     1
102
RTVSPropertyOp36
 70
     1
102
RTVSPropertyOp37
 70
     1
102
RTVSPropertyOp38
 70
     1
102
RTVSPropertyOp39
 70
     1
102
RTVSPropertyOp40
 70
     1
102
RTVSPropertyOp41
 70
     1
102
RTVSPropertyOp42
 70
     1
102
RTVSPropertyOp43
 70
     1
102
RTVSPropertyOp44
 70
     1
102
RTVSPropertyOp45
 70
     1
102
RTVSPropertyOp46
 70
     1
102
RTVSPropertyOp47
 70
     1
102
RTVSPropertyOp48
 70
     1
102
RTVSPropertyOp49
 70
     1
102
RTVSPropertyOp50
 70
     1
102
RTVSPropertyOp51
 70
     0
102
RTVSPropertyOp52
 70
     0
102
RTVSPropertyOp53
 70
     1
102
RTVSPropertyOp54
 70
     1
102
RTVSPropertyOp55
 70
     1
102
RTVSPropertyOp56
 70
     1
102
RTVSPropertyOp57
 70
     1
102
RTVSPost2010Prop28
280
     0
102
RTVSPost2010PropOp28
 70
     1
102
RTVSPost2010Prop29
280
     1
102
RTVSPost2010PropOp29
 70
     1
102
RTVSPost2010Prop30
280
     1
102
RTVSPost2010PropOp30
 70
     1
102
RTVSPost2010Prop31
280
     0
102
RTVSPost2010PropOp31
 70
     1
102
RTVSPost2010Prop32
280
     0
102
RTVSPost2010PropOp32
 70
     1
102
RTVSPost2010Prop33
280
     0
102
RTVSPost2010PropOp33
 70
     1
102
RTVSPost2010Prop34
280
     0
102
RTVSPost2010PropOp34
 70
     1
102
RTVSPost2010Prop35
280
     0
102
RTVSPost2010PropOp35
 70
     1
102
RTVSPost2010Prop36
280
     0
102
RTVSPost2010PropOp36
 70
     1
102
RTVSPost2010Prop37
 90
       50
102
RTVSPost2010PropOp37
 70
     1
102
RTVSPost2010Prop38
140
0.0
102
RTVSPost2010PropOp38
 70
     1
102
RTVSPost2010Prop39
140
1.0
102
RTVSPost2010PropOp39
 70
     1
102
RTVSPost2010Prop40
 90
        0
102
RTVSPost2010PropOp40
 70
     1
102
RTVSPost2010Prop41ColorIndex
 90
       18
102
RTVSPost2010Prop41ColorRGB
 90
        0
102
RTVSPost2010PropOp41
 70
     1
102
RTVSPost2010Prop42
 90
       50
102
RTVSPost2010PropOp42
 70
     1
102
RTVSPost2010Prop43
 90
        3
102
RTVSPost2010PropOp43
 70
     1
102
RTVSPost2010Prop44ColorIndex
 90
        5
102
RTVSPost2010Prop44ColorRGB
 90
      255
102
RTVSPost2010PropOp44
 70
     1
102
RTVSPost2010Prop45
280
     0
102
RTVSPost2010PropOp45
 70
     1
102
RTVSPost2010Prop46
 90
       50
102
RTVSPost2010PropOp46
 70
     1
102
RTVSPost2010Prop47
 90
       50
102
RTVSPost2010PropOp47
 70
     1
102
RTVSPost2010Prop48
 90
       50
102
RTVSPost2010PropOp48
 70
     1
102
RTVSPost2010Prop49
280
     0
102
RTVSPost2010PropOp49
 70
     1
102
RTVSPost2010Prop50
 90
       50
102
RTVSPost2010PropOp50
 70
     1
102
RTVSPost2010Prop51ColorIndex
 90
      256
102
RTVSPost2010Prop51ColorRGB
 90
-16777216
102
RTVSPost2010PropOp51
 70
     0
102
RTVSPost2010Prop52
140
1.0
102
RTVSPost2010PropOp52
 70
     0
102
RTVSPost2010Prop53
 90
        2
102
RTVSPost2010PropOp53
 70
     1
102
RTVSPost2010Prop54
  1
strokes_ogs.tif
102
RTVSPost2010PropOp54
 70
     1
102
RTVSPost2010Prop55
280
     0
102
RTVSPost2010PropOp55
 70
     1
102
RTVSPost2010Prop56
140
1.0
102
RTVSPost2010PropOp56
 70
     1
102
RTVSPost2010Prop57
140
1.0
102
RTVSPost2010PropOp57
 70
     1
  0
XRECORD
  5
1B341
102
{ACAD_REACTORS
330
1B340
102
}
330
1B340
100
AcDbXrecord
280
     1
102
RTVSPropertyOp0
 70
     1
102
RTVSPropertyOp1
 70
     1
102
RTVSPropertyOp2
 70
     1
102
RTVSPropertyOp3
 70
     1
102
RTVSPropertyOp4
 70
     1
102
RTVSPropertyOp5
 70
     1
102
RTVSPropertyOp6
 70
     1
102
RTVSPropertyOp7
 70
     1
102
RTVSPropertyOp8
 70
     1
102
RTVSPropertyOp9
 70
     1
102
RTVSPropertyOp10
 70
     1
102
RTVSPropertyOp11
 70
     1
102
RTVSPropertyOp12
 70
     1
102
RTVSPropertyOp13
 70
     1
102
RTVSPropertyOp14
 70
     1
102
RTVSPropertyOp15
 70
     1
102
RTVSPropertyOp16
 70
     1
102
RTVSPropertyOp17
 70
     1
102
RTVSPropertyOp18
 70
     1
102
RTVSPropertyOp19
 70
     1
102
RTVSPropertyOp20
 70
     1
102
RTVSPropertyOp21
 70
     1
102
RTVSPropertyOp22
 70
     1
102
RTVSPropertyOp23
 70
     1
102
RTVSPropertyOp24
 70
     1
102
RTVSPropertyOp25
 70
     1
102
RTVSPropertyOp26
 70
     1
102
RTVSPropertyOp27
 70
     1
102
RTVSPropertyOp28
 70
     1
102
RTVSPropertyOp29
 70
     1
102
RTVSPropertyOp30
 70
     1
102
RTVSPropertyOp31
 70
     1
102
RTVSPropertyOp32
 70
     1
102
RTVSPropertyOp33
 70
     1
102
RTVSPropertyOp34
 70
     1
102
RTVSPropertyOp35
 70
     1
102
RTVSPropertyOp36
 70
     1
102
RTVSPropertyOp37
 70
     1
102
RTVSPropertyOp38
 70
     1
102
RTVSPropertyOp39
 70
     1
102
RTVSPropertyOp40
 70
     1
102
RTVSPropertyOp41
 70
     1
102
RTVSPropertyOp42
 70
     1
102
RTVSPropertyOp43
 70
     1
102
RTVSPropertyOp44
 70
     1
102
RTVSPropertyOp45
 70
     1
102
RTVSPropertyOp46
 70
     1
102
RTVSPropertyOp47
 70
     1
102
RTVSPropertyOp48
 70
     1
102
RTVSPropertyOp49
 70
     1
102
RTVSPropertyOp50
 70
     1
102
RTVSPropertyOp51
 70
     0
102
RTVSPropertyOp52
 70
     0
102
RTVSPropertyOp53
 70
     1
102
RTVSPropertyOp54
 70
     1
102
RTVSPropertyOp55
 70
     1
102
RTVSPropertyOp56
 70
     1
102
RTVSPropertyOp57
 70
     1
102
RTVSPost2010Prop28
280
     0
102
RTVSPost2010PropOp28
 70
     1
102
RTVSPost2010Prop29
280
     1
102
RTVSPost2010PropOp29
 70
     1
102
RTVSPost2010Prop30
280
     1
102
RTVSPost2010PropOp30
 70
     1
102
RTVSPost2010Prop31
280
     0
102
RTVSPost2010PropOp31
 70
     1
102
RTVSPost2010Prop32
280
     0
102
RTVSPost2010PropOp32
 70
     1
102
RTVSPost2010Prop33
280
     0
102
RTVSPost2010PropOp33
 70
     1
102
RTVSPost2010Prop34
280
     0
102
RTVSPost2010PropOp34
 70
     1
102
RTVSPost2010Prop35
280
     0
102
RTVSPost2010PropOp35
 70
     1
102
RTVSPost2010Prop36
280
     0
102
RTVSPost2010PropOp36
 70
     1
102
RTVSPost2010Prop37
 90
       50
102
RTVSPost2010PropOp37
 70
     1
102
RTVSPost2010Prop38
140
0.0
102
RTVSPost2010PropOp38
 70
     1
102
RTVSPost2010Prop39
140
1.0
102
RTVSPost2010PropOp39
 70
     1
102
RTVSPost2010Prop40
 90
        0
102
RTVSPost2010PropOp40
 70
     1
102
RTVSPost2010Prop41ColorIndex
 90
       18
102
RTVSPost2010Prop41ColorRGB
 90
        0
102
RTVSPost2010PropOp41
 70
     1
102
RTVSPost2010Prop42
 90
       50
102
RTVSPost2010PropOp42
 70
     1
102
RTVSPost2010Prop43
 90
        3
102
RTVSPost2010PropOp43
 70
     1
102
RTVSPost2010Prop44ColorIndex
 90
        5
102
RTVSPost2010Prop44ColorRGB
 90
      255
102
RTVSPost2010PropOp44
 70
     1
102
RTVSPost2010Prop45
280
     0
102
RTVSPost2010PropOp45
 70
     1
102
RTVSPost2010Prop46
 90
       50
102
RTVSPost2010PropOp46
 70
     1
102
RTVSPost2010Prop47
 90
       50
102
RTVSPost2010PropOp47
 70
     1
102
RTVSPost2010Prop48
 90
       50
102
RTVSPost2010PropOp48
 70
     1
102
RTVSPost2010Prop49
280
     0
102
RTVSPost2010PropOp49
 70
     1
102
RTVSPost2010Prop50
 90
       50
102
RTVSPost2010PropOp50
 70
     1
102
RTVSPost2010Prop51ColorIndex
 90
      256
102
RTVSPost2010Prop51ColorRGB
 90
-16777216
102
RTVSPost2010PropOp51
 70
     0
102
RTVSPost2010Prop52
140
1.0
102
RTVSPost2010PropOp52
 70
     0
102
RTVSPost2010Prop53
 90
        2
102
RTVSPost2010PropOp53
 70
     1
102
RTVSPost2010Prop54
  1
strokes_ogs.tif
102
RTVSPost2010PropOp54
 70
     1
102
RTVSPost2010Prop55
280
     0
102
RTVSPost2010PropOp55
 70
     1
102
RTVSPost2010Prop56
140
1.0
102
RTVSPost2010PropOp56
 70
     1
102
RTVSPost2010Prop57
140
1.0
102
RTVSPost2010PropOp57
 70
     1
  0
XRECORD
  5
1B343
102
{ACAD_REACTORS
330
1B342
102
}
330
1B342
100
AcDbXrecord
280
     1
102
RTVSPropertyOp0
 70
     1
102
RTVSPropertyOp1
 70
     1
102
RTVSPropertyOp2
 70
     1
102
RTVSPropertyOp3
 70
     1
102
RTVSPropertyOp4
 70
     1
102
RTVSPropertyOp5
 70
     1
102
RTVSPropertyOp6
 70
     1
102
RTVSPropertyOp7
 70
     1
102
RTVSPropertyOp8
 70
     1
102
RTVSPropertyOp9
 70
     1
102
RTVSPropertyOp10
 70
     1
102
RTVSPropertyOp11
 70
     1
102
RTVSPropertyOp12
 70
     1
102
RTVSPropertyOp13
 70
     1
102
RTVSPropertyOp14
 70
     1
102
RTVSPropertyOp15
 70
     1
102
RTVSPropertyOp16
 70
     1
102
RTVSPropertyOp17
 70
     1
102
RTVSPropertyOp18
 70
     1
102
RTVSPropertyOp19
 70
     1
102
RTVSPropertyOp20
 70
     1
102
RTVSPropertyOp21
 70
     1
102
RTVSPropertyOp22
 70
     1
102
RTVSPropertyOp23
 70
     1
102
RTVSPropertyOp24
 70
     1
102
RTVSPropertyOp25
 70
     1
102
RTVSPropertyOp26
 70
     1
102
RTVSPropertyOp27
 70
     1
102
RTVSPropertyOp28
 70
     1
102
RTVSPropertyOp29
 70
     1
102
RTVSPropertyOp30
 70
     1
102
RTVSPropertyOp31
 70
     1
102
RTVSPropertyOp32
 70
     1
102
RTVSPropertyOp33
 70
     1
102
RTVSPropertyOp34
 70
     1
102
RTVSPropertyOp35
 70
     1
102
RTVSPropertyOp36
 70
     1
102
RTVSPropertyOp37
 70
     1
102
RTVSPropertyOp38
 70
     1
102
RTVSPropertyOp39
 70
     1
102
RTVSPropertyOp40
 70
     1
102
RTVSPropertyOp41
 70
     1
102
RTVSPropertyOp42
 70
     1
102
RTVSPropertyOp43
 70
     1
102
RTVSPropertyOp44
 70
     1
102
RTVSPropertyOp45
 70
     1
102
RTVSPropertyOp46
 70
     1
102
RTVSPropertyOp47
 70
     1
102
RTVSPropertyOp48
 70
     1
102
RTVSPropertyOp49
 70
     1
102
RTVSPropertyOp50
 70
     1
102
RTVSPropertyOp51
 70
     0
102
RTVSPropertyOp52
 70
     0
102
RTVSPropertyOp53
 70
     1
102
RTVSPropertyOp54
 70
     1
102
RTVSPropertyOp55
 70
     1
102
RTVSPropertyOp56
 70
     1
102
RTVSPropertyOp57
 70
     1
102
RTVSPost2010Prop28
280
     0
102
RTVSPost2010PropOp28
 70
     1
102
RTVSPost2010Prop29
280
     1
102
RTVSPost2010PropOp29
 70
     1
102
RTVSPost2010Prop30
280
     1
102
RTVSPost2010PropOp30
 70
     1
102
RTVSPost2010Prop31
280
     0
102
RTVSPost2010PropOp31
 70
     1
102
RTVSPost2010Prop32
280
     0
102
RTVSPost2010PropOp32
 70
     1
102
RTVSPost2010Prop33
280
     0
102
RTVSPost2010PropOp33
 70
     1
102
RTVSPost2010Prop34
280
     0
102
RTVSPost2010PropOp34
 70
     1
102
RTVSPost2010Prop35
280
     0
102
RTVSPost2010PropOp35
 70
     1
102
RTVSPost2010Prop36
280
     0
102
RTVSPost2010PropOp36
 70
     1
102
RTVSPost2010Prop37
 90
       50
102
RTVSPost2010PropOp37
 70
     1
102
RTVSPost2010Prop38
140
0.0
102
RTVSPost2010PropOp38
 70
     1
102
RTVSPost2010Prop39
140
1.0
102
RTVSPost2010PropOp39
 70
     1
102
RTVSPost2010Prop40
 90
        0
102
RTVSPost2010PropOp40
 70
     1
102
RTVSPost2010Prop41ColorIndex
 90
       18
102
RTVSPost2010Prop41ColorRGB
 90
        0
102
RTVSPost2010PropOp41
 70
     1
102
RTVSPost2010Prop42
 90
       50
102
RTVSPost2010PropOp42
 70
     1
102
RTVSPost2010Prop43
 90
        3
102
RTVSPost2010PropOp43
 70
     1
102
RTVSPost2010Prop44ColorIndex
 90
        5
102
RTVSPost2010Prop44ColorRGB
 90
      255
102
RTVSPost2010PropOp44
 70
     1
102
RTVSPost2010Prop45
280
     0
102
RTVSPost2010PropOp45
 70
     1
102
RTVSPost2010Prop46
 90
       50
102
RTVSPost2010PropOp46
 70
     1
102
RTVSPost2010Prop47
 90
       50
102
RTVSPost2010PropOp47
 70
     1
102
RTVSPost2010Prop48
 90
       50
102
RTVSPost2010PropOp48
 70
     1
102
RTVSPost2010Prop49
280
     0
102
RTVSPost2010PropOp49
 70
     1
102
RTVSPost2010Prop50
 90
       50
102
RTVSPost2010PropOp50
 70
     1
102
RTVSPost2010Prop51ColorIndex
 90
      256
102
RTVSPost2010Prop51ColorRGB
 90
-16777216
102
RTVSPost2010PropOp51
 70
     0
102
RTVSPost2010Prop52
140
1.0
102
RTVSPost2010PropOp52
 70
     0
102
RTVSPost2010Prop53
 90
        2
102
RTVSPost2010PropOp53
 70
     1
102
RTVSPost2010Prop54
  1
strokes_ogs.tif
102
RTVSPost2010PropOp54
 70
     1
102
RTVSPost2010Prop55
280
     0
102
RTVSPost2010PropOp55
 70
     1
102
RTVSPost2010Prop56
140
1.0
102
RTVSPost2010PropOp56
 70
     1
102
RTVSPost2010Prop57
140
1.0
102
RTVSPost2010PropOp57
 70
     1
  0
XRECORD
  5
1B345
102
{ACAD_REACTORS
330
1B344
102
}
330
1B344
100
AcDbXrecord
280
     1
102
RTVSPropertyOp0
 70
     1
102
RTVSPropertyOp1
 70
     1
102
RTVSPropertyOp2
 70
     1
102
RTVSPropertyOp3
 70
     1
102
RTVSPropertyOp4
 70
     1
102
RTVSPropertyOp5
 70
     1
102
RTVSPropertyOp6
 70
     1
102
RTVSPropertyOp7
 70
     1
102
RTVSPropertyOp8
 70
     1
102
RTVSPropertyOp9
 70
     1
102
RTVSPropertyOp10
 70
     1
102
RTVSPropertyOp11
 70
     1
102
RTVSPropertyOp12
 70
     1
102
RTVSPropertyOp13
 70
     1
102
RTVSPropertyOp14
 70
     1
102
RTVSPropertyOp15
 70
     1
102
RTVSPropertyOp16
 70
     1
102
RTVSPropertyOp17
 70
     1
102
RTVSPropertyOp18
 70
     1
102
RTVSPropertyOp19
 70
     1
102
RTVSPropertyOp20
 70
     1
102
RTVSPropertyOp21
 70
     1
102
RTVSPropertyOp22
 70
     1
102
RTVSPropertyOp23
 70
     1
102
RTVSPropertyOp24
 70
     1
102
RTVSPropertyOp25
 70
     1
102
RTVSPropertyOp26
 70
     1
102
RTVSPropertyOp27
 70
     1
102
RTVSPropertyOp28
 70
     1
102
RTVSPropertyOp29
 70
     1
102
RTVSPropertyOp30
 70
     1
102
RTVSPropertyOp31
 70
     1
102
RTVSPropertyOp32
 70
     1
102
RTVSPropertyOp33
 70
     1
102
RTVSPropertyOp34
 70
     1
102
RTVSPropertyOp35
 70
     1
102
RTVSPropertyOp36
 70
     1
102
RTVSPropertyOp37
 70
     1
102
RTVSPropertyOp38
 70
     1
102
RTVSPropertyOp39
 70
     1
102
RTVSPropertyOp40
 70
     1
102
RTVSPropertyOp41
 70
     1
102
RTVSPropertyOp42
 70
     1
102
RTVSPropertyOp43
 70
     1
102
RTVSPropertyOp44
 70
     1
102
RTVSPropertyOp45
 70
     1
102
RTVSPropertyOp46
 70
     1
102
RTVSPropertyOp47
 70
     1
102
RTVSPropertyOp48
 70
     1
102
RTVSPropertyOp49
 70
     1
102
RTVSPropertyOp50
 70
     1
102
RTVSPropertyOp51
 70
     0
102
RTVSPropertyOp52
 70
     0
102
RTVSPropertyOp53
 70
     1
102
RTVSPropertyOp54
 70
     1
102
RTVSPropertyOp55
 70
     1
102
RTVSPropertyOp56
 70
     1
102
RTVSPropertyOp57
 70
     1
102
RTVSPost2010Prop28
280
     0
102
RTVSPost2010PropOp28
 70
     1
102
RTVSPost2010Prop29
280
     1
102
RTVSPost2010PropOp29
 70
     1
102
RTVSPost2010Prop30
280
     1
102
RTVSPost2010PropOp30
 70
     1
102
RTVSPost2010Prop31
280
     0
102
RTVSPost2010PropOp31
 70
     1
102
RTVSPost2010Prop32
280
     0
102
RTVSPost2010PropOp32
 70
     1
102
RTVSPost2010Prop33
280
     0
102
RTVSPost2010PropOp33
 70
     1
102
RTVSPost2010Prop34
280
     0
102
RTVSPost2010PropOp34
 70
     1
102
RTVSPost2010Prop35
280
     0
102
RTVSPost2010PropOp35
 70
     1
102
RTVSPost2010Prop36
280
     0
102
RTVSPost2010PropOp36
 70
     1
102
RTVSPost2010Prop37
 90
       50
102
RTVSPost2010PropOp37
 70
     1
102
RTVSPost2010Prop38
140
0.0
102
RTVSPost2010PropOp38
 70
     1
102
RTVSPost2010Prop39
140
1.0
102
RTVSPost2010PropOp39
 70
     1
102
RTVSPost2010Prop40
 90
        0
102
RTVSPost2010PropOp40
 70
     1
102
RTVSPost2010Prop41ColorIndex
 90
       18
102
RTVSPost2010Prop41ColorRGB
 90
        0
102
RTVSPost2010PropOp41
 70
     1
102
RTVSPost2010Prop42
 90
       50
102
RTVSPost2010PropOp42
 70
     1
102
RTVSPost2010Prop43
 90
        3
102
RTVSPost2010PropOp43
 70
     1
102
RTVSPost2010Prop44ColorIndex
 90
        5
102
RTVSPost2010Prop44ColorRGB
 90
      255
102
RTVSPost2010PropOp44
 70
     1
102
RTVSPost2010Prop45
280
     0
102
RTVSPost2010PropOp45
 70
     1
102
RTVSPost2010Prop46
 90
       50
102
RTVSPost2010PropOp46
 70
     1
102
RTVSPost2010Prop47
 90
       50
102
RTVSPost2010PropOp47
 70
     1
102
RTVSPost2010Prop48
 90
       50
102
RTVSPost2010PropOp48
 70
     1
102
RTVSPost2010Prop49
280
     0
102
RTVSPost2010PropOp49
 70
     1
102
RTVSPost2010Prop50
 90
       50
102
RTVSPost2010PropOp50
 70
     1
102
RTVSPost2010Prop51ColorIndex
 90
      256
102
RTVSPost2010Prop51ColorRGB
 90
-16777216
102
RTVSPost2010PropOp51
 70
     0
102
RTVSPost2010Prop52
140
1.0
102
RTVSPost2010PropOp52
 70
     0
102
RTVSPost2010Prop53
 90
        2
102
RTVSPost2010PropOp53
 70
     1
102
RTVSPost2010Prop54
  1
strokes_ogs.tif
102
RTVSPost2010PropOp54
 70
     1
102
RTVSPost2010Prop55
280
     0
102
RTVSPost2010PropOp55
 70
     1
102
RTVSPost2010Prop56
140
1.0
102
RTVSPost2010PropOp56
 70
     1
102
RTVSPost2010Prop57
140
1.0
102
RTVSPost2010PropOp57
 70
     1
  0
XRECORD
  5
1B347
102
{ACAD_REACTORS
330
1B346
102
}
330
1B346
100
AcDbXrecord
280
     1
102
RTVSPropertyOp0
 70
     0
102
RTVSPropertyOp1
 70
     0
102
RTVSPropertyOp2
 70
     0
102
RTVSPropertyOp3
 70
     0
102
RTVSPropertyOp4
 70
     0
102
RTVSPropertyOp5
 70
     0
102
RTVSPropertyOp6
 70
     0
102
RTVSPropertyOp7
 70
     0
102
RTVSPropertyOp8
 70
     0
102
RTVSPropertyOp9
 70
     0
102
RTVSPropertyOp10
 70
     0
102
RTVSPropertyOp11
 70
     0
102
RTVSPropertyOp12
 70
     0
102
RTVSPropertyOp13
 70
     0
102
RTVSPropertyOp14
 70
     2
102
RTVSPropertyOp15
 70
     0
102
RTVSPropertyOp16
 70
     0
102
RTVSPropertyOp17
 70
     0
102
RTVSPropertyOp18
 70
     0
102
RTVSPropertyOp19
 70
     0
102
RTVSPropertyOp20
 70
     0
102
RTVSPropertyOp21
 70
     0
102
RTVSPropertyOp22
 70
     0
102
RTVSPropertyOp23
 70
     0
102
RTVSPropertyOp24
 70
     0
102
RTVSPropertyOp25
 70
     0
102
RTVSPropertyOp26
 70
     0
102
RTVSPropertyOp27
 70
     0
102
RTVSPropertyOp28
 70
     0
102
RTVSPropertyOp29
 70
     0
102
RTVSPropertyOp30
 70
     0
102
RTVSPropertyOp31
 70
     0
102
RTVSPropertyOp32
 70
     0
102
RTVSPropertyOp33
 70
     0
102
RTVSPropertyOp34
 70
     0
102
RTVSPropertyOp35
 70
     0
102
RTVSPropertyOp36
 70
     0
102
RTVSPropertyOp37
 70
     0
102
RTVSPropertyOp38
 70
     0
102
RTVSPropertyOp39
 70
     0
102
RTVSPropertyOp40
 70
     0
102
RTVSPropertyOp41
 70
     0
102
RTVSPropertyOp42
 70
     0
102
RTVSPropertyOp43
 70
     0
102
RTVSPropertyOp44
 70
     0
102
RTVSPropertyOp45
 70
     0
102
RTVSPropertyOp46
 70
     0
102
RTVSPropertyOp47
 70
     0
102
RTVSPropertyOp48
 70
     0
102
RTVSPropertyOp49
 70
     0
102
RTVSPropertyOp50
 70
     0
102
RTVSPropertyOp51
 70
     0
102
RTVSPropertyOp52
 70
     0
102
RTVSPropertyOp53
 70
     0
102
RTVSPropertyOp54
 70
     0
102
RTVSPropertyOp55
 70
     0
102
RTVSPropertyOp56
 70
     0
102
RTVSPropertyOp57
 70
     0
102
RTVSPost2010Prop28
280
     0
102
RTVSPost2010PropOp28
 70
     0
102
RTVSPost2010Prop29
280
     1
102
RTVSPost2010PropOp29
 70
     0
102
RTVSPost2010Prop30
280
     1
102
RTVSPost2010PropOp30
 70
     0
102
RTVSPost2010Prop31
280
     0
102
RTVSPost2010PropOp31
 70
     0
102
RTVSPost2010Prop32
280
     0
102
RTVSPost2010PropOp32
 70
     0
102
RTVSPost2010Prop33
280
     0
102
RTVSPost2010PropOp33
 70
     0
102
RTVSPost2010Prop34
280
     0
102
RTVSPost2010PropOp34
 70
     0
102
RTVSPost2010Prop35
280
     0
102
RTVSPost2010PropOp35
 70
     0
102
RTVSPost2010Prop36
280
     0
102
RTVSPost2010PropOp36
 70
     0
102
RTVSPost2010Prop37
 90
       50
102
RTVSPost2010PropOp37
 70
     0
102
RTVSPost2010Prop38
140
0.0
102
RTVSPost2010PropOp38
 70
     0
102
RTVSPost2010Prop39
140
1.0
102
RTVSPost2010PropOp39
 70
     0
102
RTVSPost2010Prop40
 90
        0
102
RTVSPost2010PropOp40
 70
     0
102
RTVSPost2010Prop41ColorIndex
 90
       18
102
RTVSPost2010Prop41ColorRGB
 90
        0
102
RTVSPost2010PropOp41
 70
     0
102
RTVSPost2010Prop42
 90
       50
102
RTVSPost2010PropOp42
 70
     0
102
RTVSPost2010Prop43
 90
        3
102
RTVSPost2010PropOp43
 70
     0
102
RTVSPost2010Prop44ColorIndex
 90
        5
102
RTVSPost2010Prop44ColorRGB
 90
      255
102
RTVSPost2010PropOp44
 70
     0
102
RTVSPost2010Prop45
280
     0
102
RTVSPost2010PropOp45
 70
     0
102
RTVSPost2010Prop46
 90
       50
102
RTVSPost2010PropOp46
 70
     0
102
RTVSPost2010Prop47
 90
       50
102
RTVSPost2010PropOp47
 70
     0
102
RTVSPost2010Prop48
 90
       50
102
RTVSPost2010PropOp48
 70
     0
102
RTVSPost2010Prop49
280
     0
102
RTVSPost2010PropOp49
 70
     0
102
RTVSPost2010Prop50
 90
       50
102
RTVSPost2010PropOp50
 70
     0
102
RTVSPost2010Prop51ColorIndex
 90
      256
102
RTVSPost2010Prop51ColorRGB
 90
-16777216
102
RTVSPost2010PropOp51
 70
     0
102
RTVSPost2010Prop52
140
1.0
102
RTVSPost2010PropOp52
 70
     0
102
RTVSPost2010Prop53
 90
        2
102
RTVSPost2010PropOp53
 70
     0
102
RTVSPost2010Prop54
  1
strokes_ogs.tif
102
RTVSPost2010PropOp54
 70
     0
102
RTVSPost2010Prop55
280
     0
102
RTVSPost2010PropOp55
 70
     0
102
RTVSPost2010Prop56
140
1.0
102
RTVSPost2010PropOp56
 70
     0
102
RTVSPost2010Prop57
140
1.0
102
RTVSPost2010PropOp57
 70
     0
  0
XRECORD
  5
1B349
102
{ACAD_REACTORS
330
1B348
102
}
330
1B348
100
AcDbXrecord
280
     1
102
RTVSPropertyOp0
 70
     1
102
RTVSPropertyOp1
 70
     1
102
RTVSPropertyOp2
 70
     1
102
RTVSPropertyOp3
 70
     1
102
RTVSPropertyOp4
 70
     1
102
RTVSPropertyOp5
 70
     1
102
RTVSPropertyOp6
 70
     1
102
RTVSPropertyOp7
 70
     1
102
RTVSPropertyOp8
 70
     1
102
RTVSPropertyOp9
 70
     1
102
RTVSPropertyOp10
 70
     1
102
RTVSPropertyOp11
 70
     1
102
RTVSPropertyOp12
 70
     1
102
RTVSPropertyOp13
 70
     1
102
RTVSPropertyOp14
 70
     1
102
RTVSPropertyOp15
 70
     1
102
RTVSPropertyOp16
 70
     1
102
RTVSPropertyOp17
 70
     1
102
RTVSPropertyOp18
 70
     1
102
RTVSPropertyOp19
 70
     1
102
RTVSPropertyOp20
 70
     1
102
RTVSPropertyOp21
 70
     1
102
RTVSPropertyOp22
 70
     1
102
RTVSPropertyOp23
 70
     1
102
RTVSPropertyOp24
 70
     1
102
RTVSPropertyOp25
 70
     1
102
RTVSPropertyOp26
 70
     1
102
RTVSPropertyOp27
 70
     1
102
RTVSPropertyOp28
 70
     1
102
RTVSPropertyOp29
 70
     1
102
RTVSPropertyOp30
 70
     1
102
RTVSPropertyOp31
 70
     1
102
RTVSPropertyOp32
 70
     1
102
RTVSPropertyOp33
 70
     1
102
RTVSPropertyOp34
 70
     1
102
RTVSPropertyOp35
 70
     1
102
RTVSPropertyOp36
 70
     1
102
RTVSPropertyOp37
 70
     1
102
RTVSPropertyOp38
 70
     1
102
RTVSPropertyOp39
 70
     1
102
RTVSPropertyOp40
 70
     1
102
RTVSPropertyOp41
 70
     1
102
RTVSPropertyOp42
 70
     1
102
RTVSPropertyOp43
 70
     1
102
RTVSPropertyOp44
 70
     1
102
RTVSPropertyOp45
 70
     1
102
RTVSPropertyOp46
 70
     1
102
RTVSPropertyOp47
 70
     1
102
RTVSPropertyOp48
 70
     1
102
RTVSPropertyOp49
 70
     1
102
RTVSPropertyOp50
 70
     1
102
RTVSPropertyOp51
 70
     0
102
RTVSPropertyOp52
 70
     0
102
RTVSPropertyOp53
 70
     1
102
RTVSPropertyOp54
 70
     1
102
RTVSPropertyOp55
 70
     1
102
RTVSPropertyOp56
 70
     1
102
RTVSPropertyOp57
 70
     1
102
RTVSPost2010Prop28
280
     0
102
RTVSPost2010PropOp28
 70
     1
102
RTVSPost2010Prop29
280
     1
102
RTVSPost2010PropOp29
 70
     1
102
RTVSPost2010Prop30
280
     1
102
RTVSPost2010PropOp30
 70
     1
102
RTVSPost2010Prop31
280
     0
102
RTVSPost2010PropOp31
 70
     1
102
RTVSPost2010Prop32
280
     0
102
RTVSPost2010PropOp32
 70
     1
102
RTVSPost2010Prop33
280
     0
102
RTVSPost2010PropOp33
 70
     1
102
RTVSPost2010Prop34
280
     0
102
RTVSPost2010PropOp34
 70
     1
102
RTVSPost2010Prop35
280
     0
102
RTVSPost2010PropOp35
 70
     1
102
RTVSPost2010Prop36
280
     0
102
RTVSPost2010PropOp36
 70
     1
102
RTVSPost2010Prop37
 90
       50
102
RTVSPost2010PropOp37
 70
     1
102
RTVSPost2010Prop38
140
0.0
102
RTVSPost2010PropOp38
 70
     1
102
RTVSPost2010Prop39
140
1.0
102
RTVSPost2010PropOp39
 70
     1
102
RTVSPost2010Prop40
 90
        0
102
RTVSPost2010PropOp40
 70
     1
102
RTVSPost2010Prop41ColorIndex
 90
       18
102
RTVSPost2010Prop41ColorRGB
 90
        0
102
RTVSPost2010PropOp41
 70
     1
102
RTVSPost2010Prop42
 90
       50
102
RTVSPost2010PropOp42
 70
     1
102
RTVSPost2010Prop43
 90
        3
102
RTVSPost2010PropOp43
 70
     1
102
RTVSPost2010Prop44ColorIndex
 90
        5
102
RTVSPost2010Prop44ColorRGB
 90
      255
102
RTVSPost2010PropOp44
 70
     1
102
RTVSPost2010Prop45
280
     0
102
RTVSPost2010PropOp45
 70
     1
102
RTVSPost2010Prop46
 90
       50
102
RTVSPost2010PropOp46
 70
     1
102
RTVSPost2010Prop47
 90
       50
102
RTVSPost2010PropOp47
 70
     1
102
RTVSPost2010Prop48
 90
       50
102
RTVSPost2010PropOp48
 70
     1
102
RTVSPost2010Prop49
280
     0
102
RTVSPost2010PropOp49
 70
     1
102
RTVSPost2010Prop50
 90
       50
102
RTVSPost2010PropOp50
 70
     1
102
RTVSPost2010Prop51ColorIndex
 90
      256
102
RTVSPost2010Prop51ColorRGB
 90
-16777216
102
RTVSPost2010PropOp51
 70
     0
102
RTVSPost2010Prop52
140
1.0
102
RTVSPost2010PropOp52
 70
     0
102
RTVSPost2010Prop53
 90
        2
102
RTVSPost2010PropOp53
 70
     1
102
RTVSPost2010Prop54
  1
strokes_ogs.tif
102
RTVSPost2010PropOp54
 70
     1
102
RTVSPost2010Prop55
280
     0
102
RTVSPost2010PropOp55
 70
     1
102
RTVSPost2010Prop56
140
1.0
102
RTVSPost2010PropOp56
 70
     1
102
RTVSPost2010Prop57
140
1.0
102
RTVSPost2010PropOp57
 70
     1
  0
XRECORD
  5
1B34B
102
{ACAD_REACTORS
330
1B34A
102
}
330
1B34A
100
AcDbXrecord
280
     1
102
RTVSPropertyOp0
 70
     0
102
RTVSPropertyOp1
 70
     0
102
RTVSPropertyOp2
 70
     0
102
RTVSPropertyOp3
 70
     0
102
RTVSPropertyOp4
 70
     0
102
RTVSPropertyOp5
 70
     0
102
RTVSPropertyOp6
 70
     0
102
RTVSPropertyOp7
 70
     0
102
RTVSPropertyOp8
 70
     0
102
RTVSPropertyOp9
 70
     0
102
RTVSPropertyOp10
 70
     0
102
RTVSPropertyOp11
 70
     0
102
RTVSPropertyOp12
 70
     0
102
RTVSPropertyOp13
 70
     0
102
RTVSPropertyOp14
 70
     2
102
RTVSPropertyOp15
 70
     0
102
RTVSPropertyOp16
 70
     0
102
RTVSPropertyOp17
 70
     0
102
RTVSPropertyOp18
 70
     0
102
RTVSPropertyOp19
 70
     0
102
RTVSPropertyOp20
 70
     0
102
RTVSPropertyOp21
 70
     0
102
RTVSPropertyOp22
 70
     0
102
RTVSPropertyOp23
 70
     0
102
RTVSPropertyOp24
 70
     0
102
RTVSPropertyOp25
 70
     0
102
RTVSPropertyOp26
 70
     0
102
RTVSPropertyOp27
 70
     0
102
RTVSPropertyOp28
 70
     0
102
RTVSPropertyOp29
 70
     0
102
RTVSPropertyOp30
 70
     0
102
RTVSPropertyOp31
 70
     0
102
RTVSPropertyOp32
 70
     0
102
RTVSPropertyOp33
 70
     0
102
RTVSPropertyOp34
 70
     0
102
RTVSPropertyOp35
 70
     0
102
RTVSPropertyOp36
 70
     0
102
RTVSPropertyOp37
 70
     0
102
RTVSPropertyOp38
 70
     0
102
RTVSPropertyOp39
 70
     0
102
RTVSPropertyOp40
 70
     0
102
RTVSPropertyOp41
 70
     0
102
RTVSPropertyOp42
 70
     0
102
RTVSPropertyOp43
 70
     0
102
RTVSPropertyOp44
 70
     0
102
RTVSPropertyOp45
 70
     0
102
RTVSPropertyOp46
 70
     0
102
RTVSPropertyOp47
 70
     0
102
RTVSPropertyOp48
 70
     0
102
RTVSPropertyOp49
 70
     0
102
RTVSPropertyOp50
 70
     0
102
RTVSPropertyOp51
 70
     0
102
RTVSPropertyOp52
 70
     0
102
RTVSPropertyOp53
 70
     0
102
RTVSPropertyOp54
 70
     0
102
RTVSPropertyOp55
 70
     0
102
RTVSPropertyOp56
 70
     0
102
RTVSPropertyOp57
 70
     0
102
RTVSPost2010Prop28
280
     0
102
RTVSPost2010PropOp28
 70
     0
102
RTVSPost2010Prop29
280
     1
102
RTVSPost2010PropOp29
 70
     0
102
RTVSPost2010Prop30
280
     1
102
RTVSPost2010PropOp30
 70
     0
102
RTVSPost2010Prop31
280
     0
102
RTVSPost2010PropOp31
 70
     0
102
RTVSPost2010Prop32
280
     0
102
RTVSPost2010PropOp32
 70
     0
102
RTVSPost2010Prop33
280
     0
102
RTVSPost2010PropOp33
 70
     0
102
RTVSPost2010Prop34
280
     0
102
RTVSPost2010PropOp34
 70
     0
102
RTVSPost2010Prop35
280
     0
102
RTVSPost2010PropOp35
 70
     0
102
RTVSPost2010Prop36
280
     0
102
RTVSPost2010PropOp36
 70
     0
102
RTVSPost2010Prop37
 90
       50
102
RTVSPost2010PropOp37
 70
     0
102
RTVSPost2010Prop38
140
0.0
102
RTVSPost2010PropOp38
 70
     0
102
RTVSPost2010Prop39
140
1.0
102
RTVSPost2010PropOp39
 70
     0
102
RTVSPost2010Prop40
 90
        0
102
RTVSPost2010PropOp40
 70
     0
102
RTVSPost2010Prop41ColorIndex
 90
       18
102
RTVSPost2010Prop41ColorRGB
 90
        0
102
RTVSPost2010PropOp41
 70
     0
102
RTVSPost2010Prop42
 90
       50
102
RTVSPost2010PropOp42
 70
     0
102
RTVSPost2010Prop43
 90
        3
102
RTVSPost2010PropOp43
 70
     0
102
RTVSPost2010Prop44ColorIndex
 90
        5
102
RTVSPost2010Prop44ColorRGB
 90
      255
102
RTVSPost2010PropOp44
 70
     0
102
RTVSPost2010Prop45
280
     0
102
RTVSPost2010PropOp45
 70
     0
102
RTVSPost2010Prop46
 90
       50
102
RTVSPost2010PropOp46
 70
     0
102
RTVSPost2010Prop47
 90
       50
102
RTVSPost2010PropOp47
 70
     0
102
RTVSPost2010Prop48
 90
       50
102
RTVSPost2010PropOp48
 70
     0
102
RTVSPost2010Prop49
280
     0
102
RTVSPost2010PropOp49
 70
     0
102
RTVSPost2010Prop50
 90
       50
102
RTVSPost2010PropOp50
 70
     0
102
RTVSPost2010Prop51ColorIndex
 90
      256
102
RTVSPost2010Prop51ColorRGB
 90
-16777216
102
RTVSPost2010PropOp51
 70
     0
102
RTVSPost2010Prop52
140
1.0
102
RTVSPost2010PropOp52
 70
     0
102
RTVSPost2010Prop53
 90
        2
102
RTVSPost2010PropOp53
 70
     0
102
RTVSPost2010Prop54
  1
strokes_ogs.tif
102
RTVSPost2010PropOp54
 70
     0
102
RTVSPost2010Prop55
280
     0
102
RTVSPost2010PropOp55
 70
     0
102
RTVSPost2010Prop56
140
1.0
102
RTVSPost2010PropOp56
 70
     0
102
RTVSPost2010Prop57
140
1.0
102
RTVSPost2010PropOp57
 70
     0
  0
XRECORD
  5
1B34D
102
{ACAD_REACTORS
330
1B34C
102
}
330
1B34C
100
AcDbXrecord
280
     1
102
RTVSPropertyOp0
 70
     1
102
RTVSPropertyOp1
 70
     1
102
RTVSPropertyOp2
 70
     1
102
RTVSPropertyOp3
 70
     1
102
RTVSPropertyOp4
 70
     1
102
RTVSPropertyOp5
 70
     1
102
RTVSPropertyOp6
 70
     1
102
RTVSPropertyOp7
 70
     1
102
RTVSPropertyOp8
 70
     1
102
RTVSPropertyOp9
 70
     1
102
RTVSPropertyOp10
 70
     1
102
RTVSPropertyOp11
 70
     1
102
RTVSPropertyOp12
 70
     1
102
RTVSPropertyOp13
 70
     1
102
RTVSPropertyOp14
 70
     1
102
RTVSPropertyOp15
 70
     1
102
RTVSPropertyOp16
 70
     1
102
RTVSPropertyOp17
 70
     1
102
RTVSPropertyOp18
 70
     1
102
RTVSPropertyOp19
 70
     1
102
RTVSPropertyOp20
 70
     1
102
RTVSPropertyOp21
 70
     1
102
RTVSPropertyOp22
 70
     1
102
RTVSPropertyOp23
 70
     1
102
RTVSPropertyOp24
 70
     1
102
RTVSPropertyOp25
 70
     1
102
RTVSPropertyOp26
 70
     1
102
RTVSPropertyOp27
 70
     1
102
RTVSPropertyOp28
 70
     1
102
RTVSPropertyOp29
 70
     1
102
RTVSPropertyOp30
 70
     1
102
RTVSPropertyOp31
 70
     1
102
RTVSPropertyOp32
 70
     1
102
RTVSPropertyOp33
 70
     1
102
RTVSPropertyOp34
 70
     1
102
RTVSPropertyOp35
 70
     1
102
RTVSPropertyOp36
 70
     1
102
RTVSPropertyOp37
 70
     1
102
RTVSPropertyOp38
 70
     1
102
RTVSPropertyOp39
 70
     1
102
RTVSPropertyOp40
 70
     1
102
RTVSPropertyOp41
 70
     1
102
RTVSPropertyOp42
 70
     1
102
RTVSPropertyOp43
 70
     1
102
RTVSPropertyOp44
 70
     1
102
RTVSPropertyOp45
 70
     1
102
RTVSPropertyOp46
 70
     1
102
RTVSPropertyOp47
 70
     1
102
RTVSPropertyOp48
 70
     1
102
RTVSPropertyOp49
 70
     1
102
RTVSPropertyOp50
 70
     1
102
RTVSPropertyOp51
 70
     0
102
RTVSPropertyOp52
 70
     0
102
RTVSPropertyOp53
 70
     1
102
RTVSPropertyOp54
 70
     1
102
RTVSPropertyOp55
 70
     1
102
RTVSPropertyOp56
 70
     1
102
RTVSPropertyOp57
 70
     1
102
RTVSPost2010Prop28
280
     0
102
RTVSPost2010PropOp28
 70
     1
102
RTVSPost2010Prop29
280
     1
102
RTVSPost2010PropOp29
 70
     1
102
RTVSPost2010Prop30
280
     1
102
RTVSPost2010PropOp30
 70
     1
102
RTVSPost2010Prop31
280
     0
102
RTVSPost2010PropOp31
 70
     1
102
RTVSPost2010Prop32
280
     0
102
RTVSPost2010PropOp32
 70
     1
102
RTVSPost2010Prop33
280
     0
102
RTVSPost2010PropOp33
 70
     1
102
RTVSPost2010Prop34
280
     0
102
RTVSPost2010PropOp34
 70
     1
102
RTVSPost2010Prop35
280
     0
102
RTVSPost2010PropOp35
 70
     1
102
RTVSPost2010Prop36
280
     0
102
RTVSPost2010PropOp36
 70
     1
102
RTVSPost2010Prop37
 90
       50
102
RTVSPost2010PropOp37
 70
     1
102
RTVSPost2010Prop38
140
0.0
102
RTVSPost2010PropOp38
 70
     1
102
RTVSPost2010Prop39
140
1.0
102
RTVSPost2010PropOp39
 70
     1
102
RTVSPost2010Prop40
 90
        0
102
RTVSPost2010PropOp40
 70
     1
102
RTVSPost2010Prop41ColorIndex
 90
       18
102
RTVSPost2010Prop41ColorRGB
 90
        0
102
RTVSPost2010PropOp41
 70
     1
102
RTVSPost2010Prop42
 90
       50
102
RTVSPost2010PropOp42
 70
     1
102
RTVSPost2010Prop43
 90
        3
102
RTVSPost2010PropOp43
 70
     1
102
RTVSPost2010Prop44ColorIndex
 90
        5
102
RTVSPost2010Prop44ColorRGB
 90
      255
102
RTVSPost2010PropOp44
 70
     1
102
RTVSPost2010Prop45
280
     0
102
RTVSPost2010PropOp45
 70
     1
102
RTVSPost2010Prop46
 90
       50
102
RTVSPost2010PropOp46
 70
     1
102
RTVSPost2010Prop47
 90
       50
102
RTVSPost2010PropOp47
 70
     1
102
RTVSPost2010Prop48
 90
       50
102
RTVSPost2010PropOp48
 70
     1
102
RTVSPost2010Prop49
280
     0
102
RTVSPost2010PropOp49
 70
     1
102
RTVSPost2010Prop50
 90
       50
102
RTVSPost2010PropOp50
 70
     1
102
RTVSPost2010Prop51ColorIndex
 90
      256
102
RTVSPost2010Prop51ColorRGB
 90
-16777216
102
RTVSPost2010PropOp51
 70
     0
102
RTVSPost2010Prop52
140
1.0
102
RTVSPost2010PropOp52
 70
     0
102
RTVSPost2010Prop53
 90
        2
102
RTVSPost2010PropOp53
 70
     1
102
RTVSPost2010Prop54
  1
strokes_ogs.tif
102
RTVSPost2010PropOp54
 70
     1
102
RTVSPost2010Prop55
280
     0
102
RTVSPost2010PropOp55
 70
     1
102
RTVSPost2010Prop56
140
1.0
102
RTVSPost2010PropOp56
 70
     1
102
RTVSPost2010Prop57
140
1.0
102
RTVSPost2010PropOp57
 70
     1
  0
XRECORD
  5
1B34F
102
{ACAD_REACTORS
330
1B34E
102
}
330
1B34E
100
AcDbXrecord
280
     1
102
RTVSPropertyOp0
 70
     1
102
RTVSPropertyOp1
 70
     1
102
RTVSPropertyOp2
 70
     1
102
RTVSPropertyOp3
 70
     1
102
RTVSPropertyOp4
 70
     1
102
RTVSPropertyOp5
 70
     1
102
RTVSPropertyOp6
 70
     1
102
RTVSPropertyOp7
 70
     1
102
RTVSPropertyOp8
 70
     1
102
RTVSPropertyOp9
 70
     1
102
RTVSPropertyOp10
 70
     1
102
RTVSPropertyOp11
 70
     1
102
RTVSPropertyOp12
 70
     1
102
RTVSPropertyOp13
 70
     1
102
RTVSPropertyOp14
 70
     1
102
RTVSPropertyOp15
 70
     1
102
RTVSPropertyOp16
 70
     1
102
RTVSPropertyOp17
 70
     1
102
RTVSPropertyOp18
 70
     1
102
RTVSPropertyOp19
 70
     1
102
RTVSPropertyOp20
 70
     1
102
RTVSPropertyOp21
 70
     1
102
RTVSPropertyOp22
 70
     1
102
RTVSPropertyOp23
 70
     1
102
RTVSPropertyOp24
 70
     1
102
RTVSPropertyOp25
 70
     1
102
RTVSPropertyOp26
 70
     1
102
RTVSPropertyOp27
 70
     1
102
RTVSPropertyOp28
 70
     1
102
RTVSPropertyOp29
 70
     1
102
RTVSPropertyOp30
 70
     1
102
RTVSPropertyOp31
 70
     1
102
RTVSPropertyOp32
 70
     1
102
RTVSPropertyOp33
 70
     1
102
RTVSPropertyOp34
 70
     1
102
RTVSPropertyOp35
 70
     1
102
RTVSPropertyOp36
 70
     1
102
RTVSPropertyOp37
 70
     1
102
RTVSPropertyOp38
 70
     1
102
RTVSPropertyOp39
 70
     1
102
RTVSPropertyOp40
 70
     1
102
RTVSPropertyOp41
 70
     1
102
RTVSPropertyOp42
 70
     1
102
RTVSPropertyOp43
 70
     1
102
RTVSPropertyOp44
 70
     1
102
RTVSPropertyOp45
 70
     1
102
RTVSPropertyOp46
 70
     1
102
RTVSPropertyOp47
 70
     1
102
RTVSPropertyOp48
 70
     1
102
RTVSPropertyOp49
 70
     1
102
RTVSPropertyOp50
 70
     1
102
RTVSPropertyOp51
 70
     0
102
RTVSPropertyOp52
 70
     0
102
RTVSPropertyOp53
 70
     1
102
RTVSPropertyOp54
 70
     1
102
RTVSPropertyOp55
 70
     1
102
RTVSPropertyOp56
 70
     1
102
RTVSPropertyOp57
 70
     1
102
RTVSPost2010Prop28
280
     0
102
RTVSPost2010PropOp28
 70
     1
102
RTVSPost2010Prop29
280
     1
102
RTVSPost2010PropOp29
 70
     1
102
RTVSPost2010Prop30
280
     1
102
RTVSPost2010PropOp30
 70
     1
102
RTVSPost2010Prop31
280
     0
102
RTVSPost2010PropOp31
 70
     1
102
RTVSPost2010Prop32
280
     0
102
RTVSPost2010PropOp32
 70
     1
102
RTVSPost2010Prop33
280
     0
102
RTVSPost2010PropOp33
 70
     1
102
RTVSPost2010Prop34
280
     0
102
RTVSPost2010PropOp34
 70
     1
102
RTVSPost2010Prop35
280
     0
102
RTVSPost2010PropOp35
 70
     1
102
RTVSPost2010Prop36
280
     0
102
RTVSPost2010PropOp36
 70
     1
102
RTVSPost2010Prop37
 90
       50
102
RTVSPost2010PropOp37
 70
     1
102
RTVSPost2010Prop38
140
0.0
102
RTVSPost2010PropOp38
 70
     1
102
RTVSPost2010Prop39
140
1.0
102
RTVSPost2010PropOp39
 70
     1
102
RTVSPost2010Prop40
 90
        0
102
RTVSPost2010PropOp40
 70
     1
102
RTVSPost2010Prop41ColorIndex
 90
       18
102
RTVSPost2010Prop41ColorRGB
 90
        0
102
RTVSPost2010PropOp41
 70
     1
102
RTVSPost2010Prop42
 90
       50
102
RTVSPost2010PropOp42
 70
     1
102
RTVSPost2010Prop43
 90
        3
102
RTVSPost2010PropOp43
 70
     1
102
RTVSPost2010Prop44ColorIndex
 90
        5
102
RTVSPost2010Prop44ColorRGB
 90
      255
102
RTVSPost2010PropOp44
 70
     1
102
RTVSPost2010Prop45
280
     0
102
RTVSPost2010PropOp45
 70
     1
102
RTVSPost2010Prop46
 90
       50
102
RTVSPost2010PropOp46
 70
     1
102
RTVSPost2010Prop47
 90
       50
102
RTVSPost2010PropOp47
 70
     1
102
RTVSPost2010Prop48
 90
       50
102
RTVSPost2010PropOp48
 70
     1
102
RTVSPost2010Prop49
280
     0
102
RTVSPost2010PropOp49
 70
     1
102
RTVSPost2010Prop50
 90
       50
102
RTVSPost2010PropOp50
 70
     1
102
RTVSPost2010Prop51ColorIndex
 90
      256
102
RTVSPost2010Prop51ColorRGB
 90
-16777216
102
RTVSPost2010PropOp51
 70
     0
102
RTVSPost2010Prop52
140
1.0
102
RTVSPost2010PropOp52
 70
     0
102
RTVSPost2010Prop53
 90
        2
102
RTVSPost2010PropOp53
 70
     1
102
RTVSPost2010Prop54
  1
strokes_ogs.tif
102
RTVSPost2010PropOp54
 70
     1
102
RTVSPost2010Prop55
280
     0
102
RTVSPost2010PropOp55
 70
     1
102
RTVSPost2010Prop56
140
1.0
102
RTVSPost2010PropOp56
 70
     1
102
RTVSPost2010Prop57
140
1.0
102
RTVSPost2010PropOp57
 70
     1
  0
XRECORD
  5
1B351
102
{ACAD_REACTORS
330
1B350
102
}
330
1B350
100
AcDbXrecord
280
     1
102
RTVSPropertyOp0
 70
     1
102
RTVSPropertyOp1
 70
     1
102
RTVSPropertyOp2
 70
     1
102
RTVSPropertyOp3
 70
     1
102
RTVSPropertyOp4
 70
     1
102
RTVSPropertyOp5
 70
     1
102
RTVSPropertyOp6
 70
     1
102
RTVSPropertyOp7
 70
     1
102
RTVSPropertyOp8
 70
     1
102
RTVSPropertyOp9
 70
     1
102
RTVSPropertyOp10
 70
     1
102
RTVSPropertyOp11
 70
     1
102
RTVSPropertyOp12
 70
     1
102
RTVSPropertyOp13
 70
     1
102
RTVSPropertyOp14
 70
     1
102
RTVSPropertyOp15
 70
     1
102
RTVSPropertyOp16
 70
     1
102
RTVSPropertyOp17
 70
     1
102
RTVSPropertyOp18
 70
     1
102
RTVSPropertyOp19
 70
     1
102
RTVSPropertyOp20
 70
     1
102
RTVSPropertyOp21
 70
     1
102
RTVSPropertyOp22
 70
     1
102
RTVSPropertyOp23
 70
     1
102
RTVSPropertyOp24
 70
     1
102
RTVSPropertyOp25
 70
     1
102
RTVSPropertyOp26
 70
     1
102
RTVSPropertyOp27
 70
     1
102
RTVSPropertyOp28
 70
     1
102
RTVSPropertyOp29
 70
     1
102
RTVSPropertyOp30
 70
     1
102
RTVSPropertyOp31
 70
     1
102
RTVSPropertyOp32
 70
     1
102
RTVSPropertyOp33
 70
     1
102
RTVSPropertyOp34
 70
     1
102
RTVSPropertyOp35
 70
     1
102
RTVSPropertyOp36
 70
     1
102
RTVSPropertyOp37
 70
     1
102
RTVSPropertyOp38
 70
     1
102
RTVSPropertyOp39
 70
     1
102
RTVSPropertyOp40
 70
     1
102
RTVSPropertyOp41
 70
     1
102
RTVSPropertyOp42
 70
     1
102
RTVSPropertyOp43
 70
     1
102
RTVSPropertyOp44
 70
     1
102
RTVSPropertyOp45
 70
     1
102
RTVSPropertyOp46
 70
     1
102
RTVSPropertyOp47
 70
     1
102
RTVSPropertyOp48
 70
     1
102
RTVSPropertyOp49
 70
     1
102
RTVSPropertyOp50
 70
     1
102
RTVSPropertyOp51
 70
     0
102
RTVSPropertyOp52
 70
     0
102
RTVSPropertyOp53
 70
     1
102
RTVSPropertyOp54
 70
     1
102
RTVSPropertyOp55
 70
     1
102
RTVSPropertyOp56
 70
     1
102
RTVSPropertyOp57
 70
     1
102
RTVSPost2010Prop28
280
     0
102
RTVSPost2010PropOp28
 70
     1
102
RTVSPost2010Prop29
280
     1
102
RTVSPost2010PropOp29
 70
     1
102
RTVSPost2010Prop30
280
     1
102
RTVSPost2010PropOp30
 70
     1
102
RTVSPost2010Prop31
280
     0
102
RTVSPost2010PropOp31
 70
     1
102
RTVSPost2010Prop32
280
     0
102
RTVSPost2010PropOp32
 70
     1
102
RTVSPost2010Prop33
280
     0
102
RTVSPost2010PropOp33
 70
     1
102
RTVSPost2010Prop34
280
     0
102
RTVSPost2010PropOp34
 70
     1
102
RTVSPost2010Prop35
280
     0
102
RTVSPost2010PropOp35
 70
     1
102
RTVSPost2010Prop36
280
     0
102
RTVSPost2010PropOp36
 70
     1
102
RTVSPost2010Prop37
 90
       50
102
RTVSPost2010PropOp37
 70
     1
102
RTVSPost2010Prop38
140
0.0
102
RTVSPost2010PropOp38
 70
     1
102
RTVSPost2010Prop39
140
1.0
102
RTVSPost2010PropOp39
 70
     1
102
RTVSPost2010Prop40
 90
        0
102
RTVSPost2010PropOp40
 70
     1
102
RTVSPost2010Prop41ColorIndex
 90
       18
102
RTVSPost2010Prop41ColorRGB
 90
        0
102
RTVSPost2010PropOp41
 70
     1
102
RTVSPost2010Prop42
 90
       50
102
RTVSPost2010PropOp42
 70
     1
102
RTVSPost2010Prop43
 90
        3
102
RTVSPost2010PropOp43
 70
     1
102
RTVSPost2010Prop44ColorIndex
 90
        5
102
RTVSPost2010Prop44ColorRGB
 90
      255
102
RTVSPost2010PropOp44
 70
     1
102
RTVSPost2010Prop45
280
     0
102
RTVSPost2010PropOp45
 70
     1
102
RTVSPost2010Prop46
 90
       50
102
RTVSPost2010PropOp46
 70
     1
102
RTVSPost2010Prop47
 90
       50
102
RTVSPost2010PropOp47
 70
     1
102
RTVSPost2010Prop48
 90
       50
102
RTVSPost2010PropOp48
 70
     1
102
RTVSPost2010Prop49
280
     0
102
RTVSPost2010PropOp49
 70
     1
102
RTVSPost2010Prop50
 90
       50
102
RTVSPost2010PropOp50
 70
     1
102
RTVSPost2010Prop51ColorIndex
 90
      256
102
RTVSPost2010Prop51ColorRGB
 90
-16777216
102
RTVSPost2010PropOp51
 70
     0
102
RTVSPost2010Prop52
140
1.0
102
RTVSPost2010PropOp52
 70
     0
102
RTVSPost2010Prop53
 90
        2
102
RTVSPost2010PropOp53
 70
     1
102
RTVSPost2010Prop54
  1
strokes_ogs.tif
102
RTVSPost2010PropOp54
 70
     1
102
RTVSPost2010Prop55
280
     0
102
RTVSPost2010PropOp55
 70
     1
102
RTVSPost2010Prop56
140
1.0
102
RTVSPost2010PropOp56
 70
     1
102
RTVSPost2010Prop57
140
1.0
102
RTVSPost2010PropOp57
 70
     1
  0
XRECORD
  5
1B353
102
{ACAD_REACTORS
330
1B352
102
}
330
1B352
100
AcDbXrecord
280
     1
102
RTVSPropertyOp0
 70
     1
102
RTVSPropertyOp1
 70
     1
102
RTVSPropertyOp2
 70
     1
102
RTVSPropertyOp3
 70
     1
102
RTVSPropertyOp4
 70
     1
102
RTVSPropertyOp5
 70
     1
102
RTVSPropertyOp6
 70
     1
102
RTVSPropertyOp7
 70
     1
102
RTVSPropertyOp8
 70
     1
102
RTVSPropertyOp9
 70
     1
102
RTVSPropertyOp10
 70
     1
102
RTVSPropertyOp11
 70
     1
102
RTVSPropertyOp12
 70
     1
102
RTVSPropertyOp13
 70
     1
102
RTVSPropertyOp14
 70
     1
102
RTVSPropertyOp15
 70
     1
102
RTVSPropertyOp16
 70
     1
102
RTVSPropertyOp17
 70
     1
102
RTVSPropertyOp18
 70
     1
102
RTVSPropertyOp19
 70
     1
102
RTVSPropertyOp20
 70
     1
102
RTVSPropertyOp21
 70
     1
102
RTVSPropertyOp22
 70
     1
102
RTVSPropertyOp23
 70
     1
102
RTVSPropertyOp24
 70
     1
102
RTVSPropertyOp25
 70
     1
102
RTVSPropertyOp26
 70
     1
102
RTVSPropertyOp27
 70
     1
102
RTVSPropertyOp28
 70
     1
102
RTVSPropertyOp29
 70
     1
102
RTVSPropertyOp30
 70
     1
102
RTVSPropertyOp31
 70
     1
102
RTVSPropertyOp32
 70
     1
102
RTVSPropertyOp33
 70
     1
102
RTVSPropertyOp34
 70
     1
102
RTVSPropertyOp35
 70
     1
102
RTVSPropertyOp36
 70
     1
102
RTVSPropertyOp37
 70
     1
102
RTVSPropertyOp38
 70
     1
102
RTVSPropertyOp39
 70
     1
102
RTVSPropertyOp40
 70
     1
102
RTVSPropertyOp41
 70
     1
102
RTVSPropertyOp42
 70
     1
102
RTVSPropertyOp43
 70
     1
102
RTVSPropertyOp44
 70
     1
102
RTVSPropertyOp45
 70
     1
102
RTVSPropertyOp46
 70
     1
102
RTVSPropertyOp47
 70
     1
102
RTVSPropertyOp48
 70
     1
102
RTVSPropertyOp49
 70
     1
102
RTVSPropertyOp50
 70
     1
102
RTVSPropertyOp51
 70
     0
102
RTVSPropertyOp52
 70
     0
102
RTVSPropertyOp53
 70
     1
102
RTVSPropertyOp54
 70
     1
102
RTVSPropertyOp55
 70
     1
102
RTVSPropertyOp56
 70
     1
102
RTVSPropertyOp57
 70
     1
102
RTVSPost2010Prop28
280
     0
102
RTVSPost2010PropOp28
 70
     1
102
RTVSPost2010Prop29
280
     1
102
RTVSPost2010PropOp29
 70
     1
102
RTVSPost2010Prop30
280
     1
102
RTVSPost2010PropOp30
 70
     1
102
RTVSPost2010Prop31
280
     0
102
RTVSPost2010PropOp31
 70
     1
102
RTVSPost2010Prop32
280
     0
102
RTVSPost2010PropOp32
 70
     1
102
RTVSPost2010Prop33
280
     0
102
RTVSPost2010PropOp33
 70
     1
102
RTVSPost2010Prop34
280
     0
102
RTVSPost2010PropOp34
 70
     1
102
RTVSPost2010Prop35
280
     0
102
RTVSPost2010PropOp35
 70
     1
102
RTVSPost2010Prop36
280
     0
102
RTVSPost2010PropOp36
 70
     1
102
RTVSPost2010Prop37
 90
       50
102
RTVSPost2010PropOp37
 70
     1
102
RTVSPost2010Prop38
140
0.0
102
RTVSPost2010PropOp38
 70
     1
102
RTVSPost2010Prop39
140
1.0
102
RTVSPost2010PropOp39
 70
     1
102
RTVSPost2010Prop40
 90
        0
102
RTVSPost2010PropOp40
 70
     1
102
RTVSPost2010Prop41ColorIndex
 90
       18
102
RTVSPost2010Prop41ColorRGB
 90
        0
102
RTVSPost2010PropOp41
 70
     1
102
RTVSPost2010Prop42
 90
       50
102
RTVSPost2010PropOp42
 70
     1
102
RTVSPost2010Prop43
 90
        3
102
RTVSPost2010PropOp43
 70
     1
102
RTVSPost2010Prop44ColorIndex
 90
        5
102
RTVSPost2010Prop44ColorRGB
 90
      255
102
RTVSPost2010PropOp44
 70
     1
102
RTVSPost2010Prop45
280
     0
102
RTVSPost2010PropOp45
 70
     1
102
RTVSPost2010Prop46
 90
       50
102
RTVSPost2010PropOp46
 70
     1
102
RTVSPost2010Prop47
 90
       50
102
RTVSPost2010PropOp47
 70
     1
102
RTVSPost2010Prop48
 90
       50
102
RTVSPost2010PropOp48
 70
     1
102
RTVSPost2010Prop49
280
     0
102
RTVSPost2010PropOp49
 70
     1
102
RTVSPost2010Prop50
 90
       50
102
RTVSPost2010PropOp50
 70
     1
102
RTVSPost2010Prop51ColorIndex
 90
      256
102
RTVSPost2010Prop51ColorRGB
 90
-16777216
102
RTVSPost2010PropOp51
 70
     0
102
RTVSPost2010Prop52
140
1.0
102
RTVSPost2010PropOp52
 70
     0
102
RTVSPost2010Prop53
 90
        2
102
RTVSPost2010PropOp53
 70
     1
102
RTVSPost2010Prop54
  1
strokes_ogs.tif
102
RTVSPost2010PropOp54
 70
     1
102
RTVSPost2010Prop55
280
     0
102
RTVSPost2010PropOp55
 70
     1
102
RTVSPost2010Prop56
140
1.0
102
RTVSPost2010PropOp56
 70
     1
102
RTVSPost2010Prop57
140
1.0
102
RTVSPost2010PropOp57
 70
     1
  0
XRECORD
  5
1B355
102
{ACAD_REACTORS
330
1B354
102
}
330
1B354
100
AcDbXrecord
280
     1
102
RTVSPropertyOp0
 70
     1
102
RTVSPropertyOp1
 70
     1
102
RTVSPropertyOp2
 70
     1
102
RTVSPropertyOp3
 70
     1
102
RTVSPropertyOp4
 70
     1
102
RTVSPropertyOp5
 70
     1
102
RTVSPropertyOp6
 70
     1
102
RTVSPropertyOp7
 70
     1
102
RTVSPropertyOp8
 70
     1
102
RTVSPropertyOp9
 70
     1
102
RTVSPropertyOp10
 70
     1
102
RTVSPropertyOp11
 70
     1
102
RTVSPropertyOp12
 70
     1
102
RTVSPropertyOp13
 70
     1
102
RTVSPropertyOp14
 70
     1
102
RTVSPropertyOp15
 70
     1
102
RTVSPropertyOp16
 70
     1
102
RTVSPropertyOp17
 70
     1
102
RTVSPropertyOp18
 70
     1
102
RTVSPropertyOp19
 70
     1
102
RTVSPropertyOp20
 70
     1
102
RTVSPropertyOp21
 70
     1
102
RTVSPropertyOp22
 70
     1
102
RTVSPropertyOp23
 70
     1
102
RTVSPropertyOp24
 70
     1
102
RTVSPropertyOp25
 70
     1
102
RTVSPropertyOp26
 70
     1
102
RTVSPropertyOp27
 70
     1
102
RTVSPropertyOp28
 70
     1
102
RTVSPropertyOp29
 70
     1
102
RTVSPropertyOp30
 70
     1
102
RTVSPropertyOp31
 70
     1
102
RTVSPropertyOp32
 70
     1
102
RTVSPropertyOp33
 70
     1
102
RTVSPropertyOp34
 70
     1
102
RTVSPropertyOp35
 70
     1
102
RTVSPropertyOp36
 70
     1
102
RTVSPropertyOp37
 70
     1
102
RTVSPropertyOp38
 70
     1
102
RTVSPropertyOp39
 70
     1
102
RTVSPropertyOp40
 70
     1
102
RTVSPropertyOp41
 70
     1
102
RTVSPropertyOp42
 70
     1
102
RTVSPropertyOp43
 70
     1
102
RTVSPropertyOp44
 70
     1
102
RTVSPropertyOp45
 70
     1
102
RTVSPropertyOp46
 70
     1
102
RTVSPropertyOp47
 70
     1
102
RTVSPropertyOp48
 70
     1
102
RTVSPropertyOp49
 70
     1
102
RTVSPropertyOp50
 70
     1
102
RTVSPropertyOp51
 70
     0
102
RTVSPropertyOp52
 70
     0
102
RTVSPropertyOp53
 70
     1
102
RTVSPropertyOp54
 70
     1
102
RTVSPropertyOp55
 70
     1
102
RTVSPropertyOp56
 70
     1
102
RTVSPropertyOp57
 70
     1
102
RTVSPost2010Prop28
280
     0
102
RTVSPost2010PropOp28
 70
     1
102
RTVSPost2010Prop29
280
     1
102
RTVSPost2010PropOp29
 70
     1
102
RTVSPost2010Prop30
280
     1
102
RTVSPost2010PropOp30
 70
     1
102
RTVSPost2010Prop31
280
     0
102
RTVSPost2010PropOp31
 70
     1
102
RTVSPost2010Prop32
280
     0
102
RTVSPost2010PropOp32
 70
     1
102
RTVSPost2010Prop33
280
     0
102
RTVSPost2010PropOp33
 70
     1
102
RTVSPost2010Prop34
280
     0
102
RTVSPost2010PropOp34
 70
     1
102
RTVSPost2010Prop35
280
     0
102
RTVSPost2010PropOp35
 70
     1
102
RTVSPost2010Prop36
280
     0
102
RTVSPost2010PropOp36
 70
     1
102
RTVSPost2010Prop37
 90
       50
102
RTVSPost2010PropOp37
 70
     1
102
RTVSPost2010Prop38
140
0.0
102
RTVSPost2010PropOp38
 70
     1
102
RTVSPost2010Prop39
140
1.0
102
RTVSPost2010PropOp39
 70
     1
102
RTVSPost2010Prop40
 90
        0
102
RTVSPost2010PropOp40
 70
     1
102
RTVSPost2010Prop41ColorIndex
 90
       18
102
RTVSPost2010Prop41ColorRGB
 90
        0
102
RTVSPost2010PropOp41
 70
     1
102
RTVSPost2010Prop42
 90
       50
102
RTVSPost2010PropOp42
 70
     1
102
RTVSPost2010Prop43
 90
        3
102
RTVSPost2010PropOp43
 70
     1
102
RTVSPost2010Prop44ColorIndex
 90
        5
102
RTVSPost2010Prop44ColorRGB
 90
      255
102
RTVSPost2010PropOp44
 70
     1
102
RTVSPost2010Prop45
280
     0
102
RTVSPost2010PropOp45
 70
     1
102
RTVSPost2010Prop46
 90
       50
102
RTVSPost2010PropOp46
 70
     1
102
RTVSPost2010Prop47
 90
       50
102
RTVSPost2010PropOp47
 70
     1
102
RTVSPost2010Prop48
 90
       50
102
RTVSPost2010PropOp48
 70
     1
102
RTVSPost2010Prop49
280
     0
102
RTVSPost2010PropOp49
 70
     1
102
RTVSPost2010Prop50
 90
       50
102
RTVSPost2010PropOp50
 70
     1
102
RTVSPost2010Prop51ColorIndex
 90
      256
102
RTVSPost2010Prop51ColorRGB
 90
-16777216
102
RTVSPost2010PropOp51
 70
     0
102
RTVSPost2010Prop52
140
1.0
102
RTVSPost2010PropOp52
 70
     0
102
RTVSPost2010Prop53
 90
        2
102
RTVSPost2010PropOp53
 70
     1
102
RTVSPost2010Prop54
  1
strokes_ogs.tif
102
RTVSPost2010PropOp54
 70
     1
102
RTVSPost2010Prop55
280
     0
102
RTVSPost2010PropOp55
 70
     1
102
RTVSPost2010Prop56
140
1.0
102
RTVSPost2010PropOp56
 70
     1
102
RTVSPost2010Prop57
140
1.0
102
RTVSPost2010PropOp57
 70
     1
  0
XRECORD
  5
1B357
102
{ACAD_REACTORS
330
1B356
102
}
330
1B356
100
AcDbXrecord
280
     1
102
RTVSPropertyOp0
 70
     1
102
RTVSPropertyOp1
 70
     1
102
RTVSPropertyOp2
 70
     1
102
RTVSPropertyOp3
 70
     1
102
RTVSPropertyOp4
 70
     1
102
RTVSPropertyOp5
 70
     1
102
RTVSPropertyOp6
 70
     1
102
RTVSPropertyOp7
 70
     1
102
RTVSPropertyOp8
 70
     1
102
RTVSPropertyOp9
 70
     1
102
RTVSPropertyOp10
 70
     1
102
RTVSPropertyOp11
 70
     1
102
RTVSPropertyOp12
 70
     1
102
RTVSPropertyOp13
 70
     1
102
RTVSPropertyOp14
 70
     1
102
RTVSPropertyOp15
 70
     1
102
RTVSPropertyOp16
 70
     1
102
RTVSPropertyOp17
 70
     1
102
RTVSPropertyOp18
 70
     1
102
RTVSPropertyOp19
 70
     1
102
RTVSPropertyOp20
 70
     1
102
RTVSPropertyOp21
 70
     1
102
RTVSPropertyOp22
 70
     1
102
RTVSPropertyOp23
 70
     1
102
RTVSPropertyOp24
 70
     1
102
RTVSPropertyOp25
 70
     1
102
RTVSPropertyOp26
 70
     1
102
RTVSPropertyOp27
 70
     1
102
RTVSPropertyOp28
 70
     1
102
RTVSPropertyOp29
 70
     1
102
RTVSPropertyOp30
 70
     1
102
RTVSPropertyOp31
 70
     1
102
RTVSPropertyOp32
 70
     1
102
RTVSPropertyOp33
 70
     1
102
RTVSPropertyOp34
 70
     1
102
RTVSPropertyOp35
 70
     1
102
RTVSPropertyOp36
 70
     1
102
RTVSPropertyOp37
 70
     1
102
RTVSPropertyOp38
 70
     1
102
RTVSPropertyOp39
 70
     1
102
RTVSPropertyOp40
 70
     1
102
RTVSPropertyOp41
 70
     1
102
RTVSPropertyOp42
 70
     1
102
RTVSPropertyOp43
 70
     1
102
RTVSPropertyOp44
 70
     1
102
RTVSPropertyOp45
 70
     1
102
RTVSPropertyOp46
 70
     1
102
RTVSPropertyOp47
 70
     1
102
RTVSPropertyOp48
 70
     1
102
RTVSPropertyOp49
 70
     1
102
RTVSPropertyOp50
 70
     1
102
RTVSPropertyOp51
 70
     0
102
RTVSPropertyOp52
 70
     0
102
RTVSPropertyOp53
 70
     1
102
RTVSPropertyOp54
 70
     1
102
RTVSPropertyOp55
 70
     1
102
RTVSPropertyOp56
 70
     1
102
RTVSPropertyOp57
 70
     1
102
RTVSPost2010Prop28
280
     0
102
RTVSPost2010PropOp28
 70
     1
102
RTVSPost2010Prop29
280
     1
102
RTVSPost2010PropOp29
 70
     1
102
RTVSPost2010Prop30
280
     1
102
RTVSPost2010PropOp30
 70
     1
102
RTVSPost2010Prop31
280
     0
102
RTVSPost2010PropOp31
 70
     1
102
RTVSPost2010Prop32
280
     0
102
RTVSPost2010PropOp32
 70
     1
102
RTVSPost2010Prop33
280
     0
102
RTVSPost2010PropOp33
 70
     1
102
RTVSPost2010Prop34
280
     0
102
RTVSPost2010PropOp34
 70
     1
102
RTVSPost2010Prop35
280
     0
102
RTVSPost2010PropOp35
 70
     1
102
RTVSPost2010Prop36
280
     0
102
RTVSPost2010PropOp36
 70
     1
102
RTVSPost2010Prop37
 90
       50
102
RTVSPost2010PropOp37
 70
     1
102
RTVSPost2010Prop38
140
0.0
102
RTVSPost2010PropOp38
 70
     1
102
RTVSPost2010Prop39
140
1.0
102
RTVSPost2010PropOp39
 70
     1
102
RTVSPost2010Prop40
 90
        0
102
RTVSPost2010PropOp40
 70
     1
102
RTVSPost2010Prop41ColorIndex
 90
       18
102
RTVSPost2010Prop41ColorRGB
 90
        0
102
RTVSPost2010PropOp41
 70
     1
102
RTVSPost2010Prop42
 90
       50
102
RTVSPost2010PropOp42
 70
     1
102
RTVSPost2010Prop43
 90
        3
102
RTVSPost2010PropOp43
 70
     1
102
RTVSPost2010Prop44ColorIndex
 90
        5
102
RTVSPost2010Prop44ColorRGB
 90
      255
102
RTVSPost2010PropOp44
 70
     1
102
RTVSPost2010Prop45
280
     0
102
RTVSPost2010PropOp45
 70
     1
102
RTVSPost2010Prop46
 90
       50
102
RTVSPost2010PropOp46
 70
     1
102
RTVSPost2010Prop47
 90
       50
102
RTVSPost2010PropOp47
 70
     1
102
RTVSPost2010Prop48
 90
       50
102
RTVSPost2010PropOp48
 70
     1
102
RTVSPost2010Prop49
280
     0
102
RTVSPost2010PropOp49
 70
     1
102
RTVSPost2010Prop50
 90
       50
102
RTVSPost2010PropOp50
 70
     1
102
RTVSPost2010Prop51ColorIndex
 90
      256
102
RTVSPost2010Prop51ColorRGB
 90
-16777216
102
RTVSPost2010PropOp51
 70
     0
102
RTVSPost2010Prop52
140
1.0
102
RTVSPost2010PropOp52
 70
     0
102
RTVSPost2010Prop53
 90
        2
102
RTVSPost2010PropOp53
 70
     1
102
RTVSPost2010Prop54
  1
strokes_ogs.tif
102
RTVSPost2010PropOp54
 70
     1
102
RTVSPost2010Prop55
280
     0
102
RTVSPost2010PropOp55
 70
     1
102
RTVSPost2010Prop56
140
1.0
102
RTVSPost2010PropOp56
 70
     1
102
RTVSPost2010Prop57
140
1.0
102
RTVSPost2010PropOp57
 70
     1
  0
XRECORD
  5
1B359
102
{ACAD_REACTORS
330
1B358
102
}
330
1B358
100
AcDbXrecord
280
     1
102
RTVSPropertyOp0
 70
     1
102
RTVSPropertyOp1
 70
     1
102
RTVSPropertyOp2
 70
     1
102
RTVSPropertyOp3
 70
     1
102
RTVSPropertyOp4
 70
     1
102
RTVSPropertyOp5
 70
     1
102
RTVSPropertyOp6
 70
     1
102
RTVSPropertyOp7
 70
     1
102
RTVSPropertyOp8
 70
     1
102
RTVSPropertyOp9
 70
     1
102
RTVSPropertyOp10
 70
     1
102
RTVSPropertyOp11
 70
     1
102
RTVSPropertyOp12
 70
     1
102
RTVSPropertyOp13
 70
     1
102
RTVSPropertyOp14
 70
     1
102
RTVSPropertyOp15
 70
     1
102
RTVSPropertyOp16
 70
     1
102
RTVSPropertyOp17
 70
     1
102
RTVSPropertyOp18
 70
     1
102
RTVSPropertyOp19
 70
     1
102
RTVSPropertyOp20
 70
     1
102
RTVSPropertyOp21
 70
     1
102
RTVSPropertyOp22
 70
     1
102
RTVSPropertyOp23
 70
     1
102
RTVSPropertyOp24
 70
     1
102
RTVSPropertyOp25
 70
     1
102
RTVSPropertyOp26
 70
     1
102
RTVSPropertyOp27
 70
     1
102
RTVSPropertyOp28
 70
     1
102
RTVSPropertyOp29
 70
     1
102
RTVSPropertyOp30
 70
     1
102
RTVSPropertyOp31
 70
     1
102
RTVSPropertyOp32
 70
     1
102
RTVSPropertyOp33
 70
     1
102
RTVSPropertyOp34
 70
     1
102
RTVSPropertyOp35
 70
     1
102
RTVSPropertyOp36
 70
     1
102
RTVSPropertyOp37
 70
     1
102
RTVSPropertyOp38
 70
     1
102
RTVSPropertyOp39
 70
     1
102
RTVSPropertyOp40
 70
     1
102
RTVSPropertyOp41
 70
     1
102
RTVSPropertyOp42
 70
     1
102
RTVSPropertyOp43
 70
     1
102
RTVSPropertyOp44
 70
     1
102
RTVSPropertyOp45
 70
     1
102
RTVSPropertyOp46
 70
     1
102
RTVSPropertyOp47
 70
     1
102
RTVSPropertyOp48
 70
     1
102
RTVSPropertyOp49
 70
     1
102
RTVSPropertyOp50
 70
     1
102
RTVSPropertyOp51
 70
     0
102
RTVSPropertyOp52
 70
     0
102
RTVSPropertyOp53
 70
     1
102
RTVSPropertyOp54
 70
     1
102
RTVSPropertyOp55
 70
     1
102
RTVSPropertyOp56
 70
     1
102
RTVSPropertyOp57
 70
     1
102
RTVSPost2010Prop28
280
     0
102
RTVSPost2010PropOp28
 70
     1
102
RTVSPost2010Prop29
280
     1
102
RTVSPost2010PropOp29
 70
     1
102
RTVSPost2010Prop30
280
     1
102
RTVSPost2010PropOp30
 70
     1
102
RTVSPost2010Prop31
280
     0
102
RTVSPost2010PropOp31
 70
     1
102
RTVSPost2010Prop32
280
     0
102
RTVSPost2010PropOp32
 70
     1
102
RTVSPost2010Prop33
280
     0
102
RTVSPost2010PropOp33
 70
     1
102
RTVSPost2010Prop34
280
     0
102
RTVSPost2010PropOp34
 70
     1
102
RTVSPost2010Prop35
280
     0
102
RTVSPost2010PropOp35
 70
     1
102
RTVSPost2010Prop36
280
     0
102
RTVSPost2010PropOp36
 70
     1
102
RTVSPost2010Prop37
 90
       50
102
RTVSPost2010PropOp37
 70
     1
102
RTVSPost2010Prop38
140
0.0
102
RTVSPost2010PropOp38
 70
     1
102
RTVSPost2010Prop39
140
1.0
102
RTVSPost2010PropOp39
 70
     1
102
RTVSPost2010Prop40
 90
        0
102
RTVSPost2010PropOp40
 70
     1
102
RTVSPost2010Prop41ColorIndex
 90
       18
102
RTVSPost2010Prop41ColorRGB
 90
        0
102
RTVSPost2010PropOp41
 70
     1
102
RTVSPost2010Prop42
 90
       50
102
RTVSPost2010PropOp42
 70
     1
102
RTVSPost2010Prop43
 90
        3
102
RTVSPost2010PropOp43
 70
     1
102
RTVSPost2010Prop44ColorIndex
 90
        5
102
RTVSPost2010Prop44ColorRGB
 90
      255
102
RTVSPost2010PropOp44
 70
     1
102
RTVSPost2010Prop45
280
     0
102
RTVSPost2010PropOp45
 70
     1
102
RTVSPost2010Prop46
 90
       50
102
RTVSPost2010PropOp46
 70
     1
102
RTVSPost2010Prop47
 90
       50
102
RTVSPost2010PropOp47
 70
     1
102
RTVSPost2010Prop48
 90
       50
102
RTVSPost2010PropOp48
 70
     1
102
RTVSPost2010Prop49
280
     0
102
RTVSPost2010PropOp49
 70
     1
102
RTVSPost2010Prop50
 90
       50
102
RTVSPost2010PropOp50
 70
     1
102
RTVSPost2010Prop51ColorIndex
 90
      256
102
RTVSPost2010Prop51ColorRGB
 90
-16777216
102
RTVSPost2010PropOp51
 70
     0
102
RTVSPost2010Prop52
140
1.0
102
RTVSPost2010PropOp52
 70
     0
102
RTVSPost2010Prop53
 90
        2
102
RTVSPost2010PropOp53
 70
     1
102
RTVSPost2010Prop54
  1
strokes_ogs.tif
102
RTVSPost2010PropOp54
 70
     1
102
RTVSPost2010Prop55
280
     0
102
RTVSPost2010PropOp55
 70
     1
102
RTVSPost2010Prop56
140
1.0
102
RTVSPost2010PropOp56
 70
     1
102
RTVSPost2010Prop57
140
1.0
102
RTVSPost2010PropOp57
 70
     1
  0
XRECORD
  5
1B35B
102
{ACAD_REACTORS
330
1B35A
102
}
330
1B35A
100
AcDbXrecord
280
     1
102
RTVSPropertyOp0
 70
     1
102
RTVSPropertyOp1
 70
     1
102
RTVSPropertyOp2
 70
     1
102
RTVSPropertyOp3
 70
     1
102
RTVSPropertyOp4
 70
     1
102
RTVSPropertyOp5
 70
     1
102
RTVSPropertyOp6
 70
     1
102
RTVSPropertyOp7
 70
     1
102
RTVSPropertyOp8
 70
     1
102
RTVSPropertyOp9
 70
     1
102
RTVSPropertyOp10
 70
     1
102
RTVSPropertyOp11
 70
     1
102
RTVSPropertyOp12
 70
     1
102
RTVSPropertyOp13
 70
     1
102
RTVSPropertyOp14
 70
     1
102
RTVSPropertyOp15
 70
     1
102
RTVSPropertyOp16
 70
     1
102
RTVSPropertyOp17
 70
     1
102
RTVSPropertyOp18
 70
     1
102
RTVSPropertyOp19
 70
     1
102
RTVSPropertyOp20
 70
     1
102
RTVSPropertyOp21
 70
     1
102
RTVSPropertyOp22
 70
     1
102
RTVSPropertyOp23
 70
     1
102
RTVSPropertyOp24
 70
     1
102
RTVSPropertyOp25
 70
     1
102
RTVSPropertyOp26
 70
     1
102
RTVSPropertyOp27
 70
     1
102
RTVSPropertyOp28
 70
     1
102
RTVSPropertyOp29
 70
     1
102
RTVSPropertyOp30
 70
     1
102
RTVSPropertyOp31
 70
     1
102
RTVSPropertyOp32
 70
     1
102
RTVSPropertyOp33
 70
     1
102
RTVSPropertyOp34
 70
     1
102
RTVSPropertyOp35
 70
     1
102
RTVSPropertyOp36
 70
     1
102
RTVSPropertyOp37
 70
     1
102
RTVSPropertyOp38
 70
     1
102
RTVSPropertyOp39
 70
     1
102
RTVSPropertyOp40
 70
     1
102
RTVSPropertyOp41
 70
     1
102
RTVSPropertyOp42
 70
     1
102
RTVSPropertyOp43
 70
     1
102
RTVSPropertyOp44
 70
     1
102
RTVSPropertyOp45
 70
     1
102
RTVSPropertyOp46
 70
     1
102
RTVSPropertyOp47
 70
     1
102
RTVSPropertyOp48
 70
     1
102
RTVSPropertyOp49
 70
     1
102
RTVSPropertyOp50
 70
     1
102
RTVSPropertyOp51
 70
     0
102
RTVSPropertyOp52
 70
     0
102
RTVSPropertyOp53
 70
     1
102
RTVSPropertyOp54
 70
     1
102
RTVSPropertyOp55
 70
     1
102
RTVSPropertyOp56
 70
     1
102
RTVSPropertyOp57
 70
     1
102
RTVSPost2010Prop28
280
     0
102
RTVSPost2010PropOp28
 70
     1
102
RTVSPost2010Prop29
280
     1
102
RTVSPost2010PropOp29
 70
     1
102
RTVSPost2010Prop30
280
     1
102
RTVSPost2010PropOp30
 70
     1
102
RTVSPost2010Prop31
280
     0
102
RTVSPost2010PropOp31
 70
     1
102
RTVSPost2010Prop32
280
     0
102
RTVSPost2010PropOp32
 70
     1
102
RTVSPost2010Prop33
280
     0
102
RTVSPost2010PropOp33
 70
     1
102
RTVSPost2010Prop34
280
     0
102
RTVSPost2010PropOp34
 70
     1
102
RTVSPost2010Prop35
280
     0
102
RTVSPost2010PropOp35
 70
     1
102
RTVSPost2010Prop36
280
     0
102
RTVSPost2010PropOp36
 70
     1
102
RTVSPost2010Prop37
 90
       50
102
RTVSPost2010PropOp37
 70
     1
102
RTVSPost2010Prop38
140
0.0
102
RTVSPost2010PropOp38
 70
     1
102
RTVSPost2010Prop39
140
1.0
102
RTVSPost2010PropOp39
 70
     1
102
RTVSPost2010Prop40
 90
        0
102
RTVSPost2010PropOp40
 70
     1
102
RTVSPost2010Prop41ColorIndex
 90
       18
102
RTVSPost2010Prop41ColorRGB
 90
        0
102
RTVSPost2010PropOp41
 70
     1
102
RTVSPost2010Prop42
 90
       50
102
RTVSPost2010PropOp42
 70
     1
102
RTVSPost2010Prop43
 90
        3
102
RTVSPost2010PropOp43
 70
     1
102
RTVSPost2010Prop44ColorIndex
 90
        5
102
RTVSPost2010Prop44ColorRGB
 90
      255
102
RTVSPost2010PropOp44
 70
     1
102
RTVSPost2010Prop45
280
     0
102
RTVSPost2010PropOp45
 70
     1
102
RTVSPost2010Prop46
 90
       50
102
RTVSPost2010PropOp46
 70
     1
102
RTVSPost2010Prop47
 90
       50
102
RTVSPost2010PropOp47
 70
     1
102
RTVSPost2010Prop48
 90
       50
102
RTVSPost2010PropOp48
 70
     1
102
RTVSPost2010Prop49
280
     0
102
RTVSPost2010PropOp49
 70
     1
102
RTVSPost2010Prop50
 90
       50
102
RTVSPost2010PropOp50
 70
     1
102
RTVSPost2010Prop51ColorIndex
 90
      256
102
RTVSPost2010Prop51ColorRGB
 90
-16777216
102
RTVSPost2010PropOp51
 70
     0
102
RTVSPost2010Prop52
140
1.0
102
RTVSPost2010PropOp52
 70
     0
102
RTVSPost2010Prop53
 90
        2
102
RTVSPost2010PropOp53
 70
     1
102
RTVSPost2010Prop54
  1
strokes_ogs.tif
102
RTVSPost2010PropOp54
 70
     1
102
RTVSPost2010Prop55
280
     0
102
RTVSPost2010PropOp55
 70
     1
102
RTVSPost2010Prop56
140
1.0
102
RTVSPost2010PropOp56
 70
     1
102
RTVSPost2010Prop57
140
1.0
102
RTVSPost2010PropOp57
 70
     1
  0
ENDSEC
  0
SECTION
  2
THUMBNAILIMAGE
 90
    16364
310
28000000B4000000550000000100080000000000C43B000000000000000000000001000000010000FFFFFF000000FF0000FFFF0000FF0000FFFF0000FF000000FF00FF000000000080808000C0C0C0000000FF007F7FFF000000A5005252A50000007F003F3F7F0000004C0026264C000000260013132600003FFF007F9FFF
310
000029A5005267A500001F7F003F4F7F0000134C00262F4C000009260013172600007FFF007FBFFF000052A500527CA500003F7F003F5F7F0000264C0026394C0000132600131C260000BFFF007FDFFF00007CA5005291A500005F7F003F6F7F0000394C0026424C00001C26001321260000FFFF007FFFFF0000A5A50052A5
310
A500007F7F003F7F7F00004C4C00264C4C00002626001326260000FFBF007FFFDF0000A57C0052A59100007F5F003F7F6F00004C3900264C420000261C001326210000FF7F007FFFBF0000A5520052A57C00007F3F003F7F5F00004C2600264C39000026130013261C0000FF3F007FFF9F0000A5290052A56700007F1F003F
310
7F4F00004C1300264C2F00002609001326170000FF00007FFF7F0000A5000052A55200007F00003F7F3F00004C0000264C260000260000132613003FFF00009FFF7F0029A5000067A552001F7F00004F7F3F00134C00002F4C260009260000172613007FFF0000BFFF7F0052A500007CA552003F7F00005F7F3F00264C0000
310
394C2600132600001C261300BFFF0000DFFF7F007CA5000091A552005F7F00006F7F3F00394C0000424C26001C26000021261300FFFF0000FFFF7F00A5A50000A5A552007F7F00007F7F3F004C4C00004C4C26002626000026261300FFBF0000FFDF7F00A57C0000A59152007F5F00007F6F3F004C3900004C422600261C00
310
0026211300FF7F0000FFBF7F00A5520000A57C52007F3F00007F5F3F004C2600004C39260026130000261C1300FF3F0000FF9F7F00A5290000A56752007F1F00007F4F3F004C1300004C2F26002609000026171300FF000000FF7F7F00A5000000A55252007F0000007F3F3F004C0000004C2626002600000026131300FF00
310
3F00FF7F9F00A5002900A55267007F001F007F3F4F004C0013004C262F002600090026131700FF007F00FF7FBF00A5005200A5527C007F003F007F3F5F004C0026004C2639002600130026131C00FF00BF00FF7FDF00A5007C00A55291007F005F007F3F6F004C0039004C26420026001C0026132100FF00FF00FF7FFF00A5
310
00A500A552A5007F007F007F3F7F004C004C004C264C002600260026132600BF00FF00DF7FFF007C00A5009152A5005F007F006F3F7F0039004C0042264C001C002600211326007F00FF00BF7FFF005200A5007C52A5003F007F005F3F7F0026004C0039264C00130026001C1326003F00FF009F7FFF002900A5006752A500
310
1F007F004F3F7F0013004C002F264C000900260017132600000000002D2D2D005B5B5B0089898900B7B7B700B3B3B30000000000000000000000000000000000000000000000000000000000000000000000000000000000000000000000000000000000000000000000000000000000000000000000000000000000000000
310
00000000000000000000000000000000000000000000000000000000000000000000000000000000000000000000000000000000000000000000000000000000000000000000000000000000000000000000000000000000000000000000000000000000000000000000000000000000000000000000000000000000000000
310
00000000000000000000000000000000000000000000000000000000000000000000000000000000000000000000000000000000000000000000000000000000000000000000000000000000000000000000000000000000000000000000000000000000000000000000000000000000000000000000000000000000000000
310
00000000000000000000000000000000000000000000000000000000000000000000000000000000000000000000000000000000000000000000000000000000000000000000000000000000000000000000000000000000000000000000000000000000000000000000000000000000000000000000000000000000000000
310
00000000000000000000000000000000000000000000000000000000000000000000000000000000000000000000000000000000000000000000000000000000000000000000000000000000000000000000000000000000000000000000000000000000000000000000000000000000000000000000000000000000000000
310
00000000000000000000000000000000000000000000000000000000000000000000000000000000000000000000000000000000000000000000000000000000000000000000000000000000000000000000000000000000000000000000000000000000000000000000000000000000000000000000000000000000000000
310
00000000000000000000000000000000000000000000000000000000000000000000000000000000000000000000000000000000000000000000000000000000000000000000000000000000000000000000000000000000000000000000000000000000000000000000000000000000000000000000000000000000000000
310
00000000000000000000000000000000000000000000000000000000000000000000000000000000000000000000000000000000000000000000000000000000000000000000000000000000000000000000000000000000000000000000000000000000000000000000000000000000000000000000000000000000000000
310
00000000000000000000000000000000000000000000000000000000000000000000000000000000000000000000000000000000000000000000000000000000000000000000000000000000000000000000000000000000000000000000000000000000000000000000000000000000000000000000000000000000000000
310
00000000000000000000000000000000000000000000000000000000000000000000000000000000000000000000000000000000000000000000000000000000000000000000000000000000000000000000000000000000000000000000000000000000000000000000000000000000000000000000000000000000000000
310
00000000000000000000000000000000000000000000000000000000000000000000000000000000000000000000000000000000000000000000000000000000000000000000000000000000000000000000000000000000000000000000000000000000000000000000000000000000000000000000000000000000000000
310
00000000000000000000000000000000000000000000000000000000000000000000000000000000000000000000000000000000000000000000000000000000000000000000000000000000000000000000000000000000000000000000000000000000000000000000000000000000000000000000000000000000000000
310
00000000000000000000000000000000000000000000000000000000000000000000000000000000000000000000000000000000000000000000000000000000000000000000000000000000000000000000000000000000000000000000000000000000000000000000000000000000000000000000000000000000000000
310
00000000000000000000000000000000000000000000000000000000000000000000000000000000000000000000000000000000000000000000000000000000000000000000000000000000000000000000000000000000000000000000000000000000000000000000000000000000000000000000000000000000000000
310
00000000000000000000000000000000000000000000000000000000000000000000000000000000000000000000000000000000000000000000000000000000000000000000000000000000000000000000000000000000000000000000000000000000000000000000000000000000000000000000000000000000000000
310
00000000000000000000000000000000000000000000000000000000000000000000000000000000000000000000000000000000000000000000000000000000000000000000000000000000000000000000000000000000000000000000000000000000000000000000000000000000000000000000000000000000000000
310
00000000000000000000000000000000000000000000000000000000000000000000000000000000000000000000000000000000000000000000000000000000000000000000000000000000000000000000000000000000000000000000000000000000000000000000000000000000000000000000000000000000000000
310
00000000000000000000000000000000000000000000000000000000000000000000000000000000000000000000000000000000000000000000000000000000000000000000000000000000000000000000000000000000000000000000000000000000000000000000000000000000000000000000000000000000000000
310
00000000000000000000000000000000000000000000000000000000000000000000000000000000000000000000000000000000000000000000000000000000000000000000000000000000000000000000000000000000000000000000000000000000000000000000000000000000000000000000000000000000000000
310
00000000000000000000000000000000000000000000000000000000000000000000000000000000000000000000000000000000000000000000000000000000000000000000000000000000000000000000000000000000000000000000000000000000000000000000000000000000000000000000000000000000000000
310
00000000000000000000000000000000000000000000000000000000000000000000000000000000000000000000000000000000000000000000000000000000000100000000000000000000000000000000010000000000000000000000000000000000000000000000000000000000010000000000000000000001000000
310
00000000000000000000000000000000000000000000000000000000000000000000000000000000000000000000000000000000000000000000000000000000000000000000000000000000000000000000000000000000000000000000000000000000000000000000000000000000000000000004010303030303030303
310
03030303010303030103000000000000000202020202000000000000000003030303030303030103030303030303030303010300000000000000000000000000000000000000000000000000000000000000000000000000000000000000000000000000000000000000000000000000000000000000000000000000000000
310
00000000000000000000000000000000000000000000000000000000000000000000000000000000000000030101030303000001000303030301030303030300000000000000000000000000000000000000030401000000030303010303000001000003030301030000000000000000000000000000000000000000000000
310
00000000000000000000000000000000000000000000000000000000000000000000000000000000000000000000000000000000000000000000000000000000000000000000000000000000000000000000000000000000000000000000000003030000000000000103030304030103040303030000000000000000000000
310
00000000000000000304030000000303030303030303030303030303030300000000000000000000000000000000000000000000000000000000000000000000000000000000000000000000000000000000000000000000000000000000000000000000000000000000000000000000000000000000000000000000000000
310
00000000000000000000000000000000000000000000030300000000000001030303030303030303030300000000000000000000000000000000000000030303000000030000000303000001000003030000030000000000000000000000000000000000000000000000000000000000000000000000000000000000000000
310
00000000000000000000000000000000000000000000000000000000000000000000000000000000000000000000000000000000000000000000000000000000000000000000000000000003030000000000000103030303030303030303030000000000000000000000000000000000000003030300000003000000030300
310
00010000030300000300000000000000000000000000000000000000000000000000000000000000000000000000000000000000000000000000000000000000000000000000000000000000000000000000000000000000000000000000000000000000000000000000000000000000000000000000000000000000000000
310
00030300000000000001030301030301030301030300000000000000000000000000000000000000030403010101030101010101010101010101010101030000000000000000000000000000000000000000000000000000000000000000000000000000000000000000000000000000000000000000000000000000000000
310
00000000000000000000000000000000000000000000000000000000000000000000000000000000000000000000000000000000000003030000000000000103030303030303030303030000000000000000000000000000000000000003030300000003000000000000000100000000000003000000000000000000000000
310
00000000000000000000000000000000000000000000000000000000000000000000000000000000000000000000000000000000000000000000000000000000000000000000000000000000000000000000000000000000000000000000000000000000000000000000000003000000000000010303030303030303030303
310
00000000000000000000000000000000000000030303000100030000000000000301030000000000030000000000000000000000000000000000000000000000000000000000000000000000000000000000000000000000000000000000000000000000000000000000000000000000000000000000000000000000000000
310
00000000000000000000000000000000000000000000000000000000000000000000030100000000000303030301030103010303030300000000000000000000000000000000000000030303030303030103030103030103030103030103000000000000000000000000000000000000000000000000000000000000000000
310
00000000000000000000000000000000000000000000000000000000000000000000000000000000000000000000000000000000000000000000000000000000000000000000000000000000000000000000000000000003010303030303030303030303010303030303030303030000000000000000000000000000000304
310
03030303030301030301030303030301030301030000000000000000000000000000000000000000000000000000000000000000000000000000000000000000000000000000000000000000000000000000000000000000000000000000000000000000000000000000000000000000000000000000000000000000000000
310
00000000000000000000000000030303030303030301030303030103030303010301010301000000000000000000000000000000030303030303030403030403030303030403030403000000000000000000000000000000000000000000000000000000000000000000000000000000000000000000000000000000000000
310
00000000000000000000000000000000000000000000000000000000000000000000000000000000000000000000000000000000000000000000000000000000000000000000000303030000000000010000000000030303030000000000000000000000000000000000030303030300000000000003030300000000000000
310
00000000000000000000000000000000000000000000000000000000000000000000000000000000000000000000000000000000000000000000000000000000000000000000000000000000000000000000000000000000000000000000000000000000000000000000000000000000000000000000000000000000030303
310
03030303030103030303030300000000000000000000000000000000000000000303030303000000000000030103000000000000000000000000000000000000000000000000000000000000000000000000000000000000000000000000000000000000000000000000000000000000000000000000000000000000000000
310
00000000000000000000000000000000000000000000000000000000000000000000000000000000000000000000000000000303010300000000000000000000000000000000000000000000000000000000000000000001000000000000000003010300000000000000000000000000000000000000000000000000000000
310
00000000000000000000000000000000000000000000000000000000000000000000000000000000000000000000000000000000000000000000000000000000000000000000000000000000000000000000000000000000000000000000000000000000000000030301030000000000000000000000000000000000000000
310
00000000000000000000000000000000000000000000030103000000000000000000000000000000000000000000000000000000000000000000000000000000000000000000000000000000000000000000000000000000000000000000000000000000000000000000000000000000000000000000000000000000000000
310
00000000000000000000000000000000000000000000000000000000000303030300000000000000000000000000000000000000000000000000000000000000000000000000000000000003030300000000000000000000000000000000000000000000000000000000000000000000000000000000000000000000000000
310
00000000000000000000000000000000000000000000000000000000000000000000000000000000000000000000000000000000000000000000000000000000000000000000000000000000000000000000000001000000000000000000000000000000000000000000000000000000000000000000000000000000000000
310
00000100000000000000000000000000000000000000000000000000000000000000000000000000000000000000000000000000000000000000000000000000000000000000000000000000000000000000000000000000000000000000000000000000000000000000000000000000000000000000000000000000000000
310
00000000000000000000000000000000000000000000000000000000000000000000000000000000000000000000000000000000000000000000000000000000000000000000000000000000000000000000000000000000000000000000000000000000000000000000000000000000000000000000000000000000000000
310
00000000000000000000000000000000000000000000000000000000000000000000000000000000000000000000000000000000000000000000000000000000000000000000000000000000000000000000000000000000000000000000000000000000000000000000000000000000000000000000000000000000000000
310
00000000000000000000000000000000000000000000000000000000000000000000000000000000000000000000000000000000000000000000000000000000000000000000000000000000000000000000000000000000000000000000000000000000000000000000000000000000000000000000000000000000000000
310
00000000000000000000000000000000000000000000000000000000000000000000000000000000000000000000000000000000000000000000000000000000000000000000000000000000000000000000000000000000000000000000000000000000000000000000000000000000000000000000000000000000000000
310
00000000000000000000000000000000000000000000000000000000000000000000000000000000000000000000000000000000000000000000000000000000000000000000000000000000000000000000000000000000000000000000000000000000000000000000000000000000000000000000000000000000000000
310
00000000000000000000000000000000000000000000000000000000000000000000000000000000000000000000000000000000000000000000000000000000000000000000000000000000000000000000000000000000000000000000000000000000000000000000000000000000000000000000000000000000000000
310
00000000000000000000000000000000000000000000000000000000000000000000000000000000000000000000000000000000000000000000000000000000000000000000000000000000000000000000000000000000000000000000000000000000000000000000000000000000000000000000000000000000000000
310
00000000000000000000000000000000000000000000000000000000000000000000000000000000000000000000000000000000000000000000000000000000000000000000000000000000000000000000000000000000000000000000000000000000000000000000000000000000000000000000000000000000000000
310
00000000000000000000000000000000000000000000000000000000000000000000000000000000000000000000000000000000000000000000000000000000000000000000000000000000000000000000000000000000000000000000000000000000000000000000000000000000000000000000000000000000000000
310
00000000000000000000000000000000000000000000000000000000000000000000000000000000000000000000000000000000000000000000000000000000000000000000000000000000000000000000000000000000000000000000000000000000000000000000000000000000000000000000000000000000000000
310
00000000000000000000000000000000000000000000000000000000000000000000000000000000000000000000000000000000000000000000000000000000000000000000000000000000000000000000000000000000000000000000000000000000000000000000000000000000000000000000000000000000000000
310
00000000000000000000000000000000000000000000000000000000000000000000000000000000000000000000000000000000000000000000000000000000000000000000000000000000000000000000000000000000000000000000000000000000000000000000000000000000000000000000000000000000000000
310
00000000000000000000000000000000000000000000000000000000000000000000000000000000000000000000000000000000000000000000000000000000000000000000000000000000000000000000000000000000000000000000000000000000000000000000000000000000000000000000000000000000000000
310
00000000000000000000000000000000000000000000000000000000000000000000000000000000000000000000000000000000000000000000000000000000000000000000000000000000000000000000000000000000000000000000000000000000000000000000000000000000000000000000000000000000000000
310
00000000000000000000000000000000000000000000000000000000000000000000000000000000000000000000000000000000000000000000000000000000000000000000000000000000000000000000000000000000000000000000000000000000000000000000000000000000000000000000000000000000000000
310
00000000000000000000000000000000000000000000000000000000000000000000000000000000000000000000000000000000000000000000000000000000000000000000000000000000000000000000000000000000000000000000000000000000000000000000000000000000000000000000000000000000000000
310
00000000000000000000000000000000000000000000000000000000000000000000000000000000000000000000000000000000000000000000000000000000000000000000000000000000000000000000000000000000000000000000000000000000000000000000000000000000000000000000000000000000000000
310
00000000000000000000000000000000000000000000000000000000000000000000000000000000000000000000000000000000000000000000000000000000000000000000000000000000000000000000000000000000000000000000000000000000000000000000000000000000000000000000000000000000000000
310
00000000000000000000000000000000000000000000000000000000000000000000000000000000000000000000000000000000000000000000000000000000000000000000000000000000000000000000000000000000000000000000000000000000000000000000000000000000000000000000000000000000000000
310
00000000000000000000000000000000000000000000000000000000000000000000000000000000000000000000000000000000000000000000000000000000000000000000000000000000000000000000000000000000000000000000000000000000000000000000000000000000000000000003030303030301000100
310
00000000000000000000000000000000000000000000000000000000000000000000000000000000000000000000000000000000000000000000000000000000000000000000000000000000000000000000000000000000000000000000000000000000000000000000000000000000000000000000000000000000000000
310
00000000000000000000000000000000000000000000000000000000000000000000000000000000000003030303030303030303030000000000000000000000000000000000000000000000000000000000000000000000000000000000000000000000000000000000000000000000000000000000000000000000000000
310
00000000000000000000000000000000000000000000000000000000000000000000000000000000000000000000000000000000000000000000000000000000000000000000000000000000000000000000000000000000000000000000030301030103030301030103000000000000000000000000000000000000000000
310
00000000000000000000000000000000000000000000000000000000000000000000000000000000000000000000000000000000000000000000000000000000000000000000000000000000000000000000000000000000000000000000000000000000000000000000000000000000000000000000000000000000000000
310
00000000000000000000000000000000000000000300000000000100000000030300000000000000000000000000000000000000000000000000000000000000000000000000000000000000000000000000000000000000000000000000000000000000000000000000000000000000000000000000000000000000000000
310
00000000000000000000000000000000000000000000000000000000000000000000000000000000000000000000000000000000000000000000000000000000000000000000000000030101010101010101010103030303030100000000000000000000000000000000000000000000000000000000000000000000000000
310
00000000000000000000000000000000000000000000000000000000000000000000000000000000000000000000000000000000000000000000000000000000000000000000000000000000000000000000000000000000000000000000000000000000000000000000000000000000000000000000000000000000000003
310
00000000000100000000030303030300000000000000000000000000000000000000000000000000000000000000000000000000000000000000000000000000000000000000000000000000000000000000000000000000000000000000000000000000000000000000000000000000000000000000000000000000000000
310
00000000000000000000000000000000000000000000000000000000000000000000000000000000000000000000000000000000030303030303030303030303030000000000000000000000000000000000000000000000000000000000000000000000000000000000000000000000000000000000000000000000000000
310
00000000000000000000000000000000000000000000000000000000000000000000000000000000000000000000000000000000000000000000000000000000000000000000000000000000000000000000000000000000000000000000000000030303030303030303030000000001000003000300000000000000000000
310
00000000000000000000000000000000000000000000000000000000000000000000000000000000000000000000000000000000000000000000000000000000000000000000000000000000000000000000000000000000000000000000000000000000000000000000000000000000000000000000000000000000000000
310
00000000000000000000000000000000000000000000000301000003030303040303030000010000030103000000000000000000000000000000000000000000000000000000000000000000000000000000000000000000000000000000000000000000000000000000000000000000000000000000000000000000000000
310
00000000000000000000000000000000000000000000000000000000000000000000000000000000000000000000000000000000000000000000000000000000000000000000000000000000010301030303030100030303030001000001030100000000000000000000000000000000000000000000000000000000000000
310
00000000000000000000000000000000000000000000000000000000000000000000000000000000000000000000000000000000000000000000000000000000000000000000000000000000000000000000000000000000000000000000000000000000000000000000000000000000000000000000000000000000000000
310
00000301030303000001000000030303010000030103000000000000000000000000000000000000000000000000000000000000000000000000000000000000000000000000000000000000000000000000000000000000000000000000000000000000000000000000000000000000000000000000000000000000000000
310
00000000000000000000000000000000000000000000000000000000000000000000000000000000000000000000000000000000000000030103030003030303030300010303000003030300000000000000000000000000000000000000000000000000000000000000000000000000000000000000000000000000000000
310
00000000000000000000000000000000000000000000000000000000000000000000000000000000000000000000000000000000000000000000000000000000000000000000000000000000000000000000000000000000000000000000000000000000000000000000000000030300000303030303030000030300000300
310
00000000000000000000000000000000000000000000000000000000000000000000000000000000000000000000000000000000000000000000000000000000000000000000000000000000000000000000000000000000000000000000000000000000000000000000000000000000000000000000000000000000000000
310
00000000000000000000000000000000000000000000000000000000000000000000030303000003030303030300000303030303000000000000000000000000000000000000000000000000000000000000000000000000000000000000000000000000000000000000000000000000000000000000000000000000000000
310
00000000000000000000000000000000000000000000000000000000000000000000000000000000000000000000000000000000000000000000000000000000000000000000000000000000000000000000000000000003030301010303010103030101030303030300000000000000000000000000000000000000000000
310
00000000000000000000000000000000000000000000000000000000000000000000000000000000000000000000000000000000000000000000000000000000000000000000000000000000000000000000000000000000000000000000000000000000000000000000000000000000000000000000000000000000000000
310
00000000000000000000000000030303000003030303030300000303030303000000000000000000000000000000000000000000000000000000000000000000000000000000000000000000000000000000000000000000000000000000000000000000000000000000000000000000000000000000000000000000000000
310
00000000000000000000000000000000000000000000000000000000000000000000000000000000000000000000000000000000000000000000000000000000000003030300000303030303030000030300010300000000000000000000000000000000000000000000000000000000000000000000000000000000000000
310
00000000000000000000000000000000000000000000000000000000000000000000000000000000000000000000000000000000000000000000000000000000000000000000000000000000000000000000000000000000000000000000000000000000000000000000000000000000000000000000000003030300030303
310
03030300010303000003000000000000000000000000000000000000000000000000000000000000000000000000000000000000000000000000000000000000000000000000000000000000000000000000000000000000000000000000000000000000000000000000000000000000000000000000000000000000000000
310
00000000000000000000000000000000000000000000000000000000000000000000000000000000000000000003010403000000010000000303040100000303030000000000000000000000000000000000000000000000000000000000000000000000000000000000000000000000000000000000000000000000000000
310
00000000000000000000000000000000000000000000000000000000000000000000000000000000000000000000000000000000000000000000000000000000000000000000000000000000000000000000000000000000000000000000000000000301030303030001000003030300010000030103000000000000000000
310
00000000000000000000000000000000000000000000000000000000000000000000000000000000000000000000000000000000000000000000000000000000000000000000000000000000000000000000000000000000000000000000000000000000000000000000000000000000000000000000000000000000000000
310
00000000000000000000000000000000000000000000000001010103030303040403030303000100000103010000000000000000000000000000000000000000000000000000000000000000000000000000000000000000000000000000000000000000000000000000000000000000000000000000000000000000000000
310
00000000000000000000000000000000000000000000000000000000000000000000000000000000000000000000000000000000000000000000000000000000000000000000000000000000000301030303030303040303030303030303030303000000000000000000000000000000000000000000000000000000000000
310
00000000000000000000000000000000000000000000000000000000000000000000000000000000000000000000000000000000000000000000000000000000000000000000000000000000000000000000000000000000000000000000000000000000000000000000000000000000000000000000000000000000000000
310
00000000000000000000010000000000000000000000000000000000000000000000000000000000000000000000000000000000000000000000000000000000000000000000000000000000000000000000000000000000000000000000000000000000000000000000000000000000000000000000000000000000000000
310
00000000000000000000000000000000000000000000000000000000000000000000000000000000000000000000000000000000000000000000000000000000000000000000000000000000000000000000000000000000000000000000000000000000000000000000000000000000000000000000000000000000000000
310
00000000000000000000000000000000000000000000000000000000000000000000000000000000000000000000000000000000000000000000000000000000000000000000000000000000000000000000000000000000000000000000000000000000000000000000000000000000000000000000000000000000000000
310
00000000000000000000000000000000000000000000000000000000000000000000000000000000000000000000000000000000000000000000000000000000000000000000000000000000000000000000000000000000000000000000000000000000000000000000000000000000000000000000000000000000000000
310
00000000000000000000000000000000000000000000000000000000000000000000000000000000000000000000000000000000000000000000000000000000000000000000000000000000000000000000000000000000000000000000000000000000000000000000000000000000000000000000000000000000000000
310
00000000000000000000000000000000000000000000000000000000000000000000000000000000000000000000000000000000000000000000000000000000000000000000000000000000000000000000000000000000000000000000000000000000000000000000000000000000000000000000000000000000000000
310
00000000000000000000000000000000000000000000000000000000000000000000000000000000000000000000000000000000000000000000000000000000000000000000000000000000000000000000000000000000000000000000000000000000000000000000000000000000000000000000000000000000000000
310
00000000000000000000000000000000000000000000000000000000000000000000000000000000000000000000000000000000000000000000000000000000000000000000000000000000000000000000000000000000000000000000000000000000000000000000000000000000000000000000000000000000000000
310
00000000000000000000000000000000000000000000000000000000000000000000000000000000000000000000000000000000000000000000000000000000000000000000000000000000000000000000000000000000000000000000000000000000000000000000000000000000000000000000000000000000000000
310
00000000000000000000000000000000000000000000000000000000000000000000000000000000000000000000000000000000000000000000000000000000000000000000000000000000000000000000000000000000000000000000000000000000000000000000000000000000000000000000000000000000000000
310
00000000000000000000000000000000000000000000000000000000000000000000000000000000000000000000000000000000000000000000000000000000000000000000000000000000000000000000000000000000000000000000000000000000000000000000000000000000000000000000000000000000000000
310
00000000000000000000000000000000000000000000000000000000000000000000000000000000000000000000000000000000000000000000000000000000000000000000000000000000000000000000000000000000000000000000000000000000000000000000000000000000000000000000000000000000000000
310
00000000000000000000000000000000000000000000000000000000000000000000000000000000000000000000000000000000000000000000000000000000000000000000000000000000000000000000000000000000000000000000000000000000000000000000000000000000000000000000000000000000000000
310
00000000000000000000000000000000000000000000000000000000000000000000000000000000000000000000000000000000000000000000000000000000000000000000000000000000000000000000000000000000000000000000000000000000000000000000000000000000000000000000000000000000000000
310
00000000000000000000000000000000000000000000000000000000000000000000000000000000000000000000000000000000000000000000000000000000000000000000000000000000000000000000000000000000000000000000000000000000000000000000000000000000000000000000000000000000000000
310
00000000000000000000000000000000000000000000000000000000000000000000000000000000000000000000000000000000000000000000000000000000000000000000000000000000000000000000000000000000000000000000000000000000000000000000000000000000000000000000000000000000000000
310
00000000000000000000000000000000000000000000000000000000000000000000000000000000000000000000000000000000000000000000000000000000000000000000000000000000000000000000000000000000000000000000000000000000000000000000000000000000000000000000000000000000000000
310
00000000000000000000000000000000000000000000000000000000000000000000000000000000000000000000000000000000000000000000000000000000000000000000000000000000000000000000000000000000000000000000000000000000000000000000000000000000000000000000000000000000000000
310
00000000000000000000000000000000000000000000000000000000000000000000000000000000000000000000000000000000000000000000000000000000000000000000000000000000000000000000000000000000000000000000000000000000000000000000000000000000000000000000000000000000000000
310
00000000000000000000000000000000000000000000000000000000000000000000000000000000000000000000000000000000000000000000000000000000000000000000000000000000000000000000000000000000000000000000000000000000000000000000000000000000000000000000000000000000000000
310
00000000000000000000000000000000000000000000000000000000000000000000000000000000000000000000000000000000000000000000000000000000000000000000000000000000000000000000000000000000000000000000000000000000000000000000000000000000000000000000000000000000000000
310
00000000000000000000000000000000000000000000000000000000000000000000000000000000000000000000000000000000000000000000000000000000000000000000000000000000000000000000000000000000000000000000000000000000000000000000000000000000000000000000000000000000000000
310
00000000000000000000000000000000000000000000000000000000000000000000000000000000000000000000000000000000000000000000000000000000000000000000000000000000000000000000000000000000000000000000000000000000000000000000000000000000000000000000000000000000000000
310
000000000000000000000000000000000000000000000000000000000000000000000000000000000000000000000000000000000000000000000000000000000000000000000000000000000000000000000000000000000000000000000000000000000000000000000000
  0
ENDSEC
  0
EOF
