  0
SECTION
  2
HEADER
  9
$ACADVER
  1
AC1015
  9
$ACADMAINTVER
 70
     6
  9
$DWGCODEPAGE
  3
ANSI_932
  9
$INSBASE
 10
0.0
 20
0.0
 30
0.0
  9
$EXTMIN
 10
273.9015109516854
 20
14.92125885195583
 30
0.0
  9
$EXTMAX
 10
1305.066478526562
 20
1047.673449055227
 30
0.0
  9
$LIMMIN
 10
0.0
 20
0.0
  9
$LIMMAX
 10
816.5000000000001
 20
565.0
  9
$ORTHOMODE
 70
     1
  9
$REGENMODE
 70
     1
  9
$FILLMODE
 70
     1
  9
$QTEXTMODE
 70
     0
  9
$MIRRTEXT
 70
     1
  9
$LTSCALE
 40
5.0
  9
$ATTMODE
 70
     1
  9
$TEXTSIZE
 40
9.0
  9
$TRACEWID
 40
0.05
  9
$TEXTSTYLE
  7
KANJI
  9
$CLAYER
  8
2
  9
$CELTYPE
  6
BYLAYER
  9
$CECOLOR
 62
   256
  9
$CELTSCALE
 40
1.0
  9
$DISPSILH
 70
     0
  9
$DIMSCALE
 40
4.0
  9
$DIMASZ
 40
2.0
  9
$DIMEXO
 40
0.5
  9
$DIMDLI
 40
0.0
  9
$DIMRND
 40
0.0
  9
$DIMDLE
 40
0.0
  9
$DIMEXE
 40
1.0
  9
$DIMTP
 40
0.0
  9
$DIMTM
 40
0.0
  9
$DIMTXT
 40
3.0
  9
$DIMCEN
 40
0.09
  9
$DIMTSZ
 40
0.0
  9
$DIMTOL
 70
     0
  9
$DIMLIM
 70
     0
  9
$DIMTIH
 70
     0
  9
$DIMTOH
 70
     0
  9
$DIMSE1
 70
     0
  9
$DIMSE2
 70
     0
  9
$DIMTAD
 70
     0
  9
$DIMZIN
 70
     8
  9
$DIMBLK
  1

  9
$DIMASO
 70
     0
  9
$DIMSHO
 70
     0
  9
$DIMPOST
  1

  9
$DIMAPOST
  1

  9
$DIMALT
 70
     0
  9
$DIMALTD
 70
     2
  9
$DIMALTF
 40
25.4
  9
$DIMLFAC
 40
1.0
  9
$DIMTOFL
 70
     1
  9
$DIMTVP
 40
1.0
  9
$DIMTIX
 70
     1
  9
$DIMSOXD
 70
     1
  9
$DIMSAH
 70
     0
  9
$DIMBLK1
  1

  9
$DIMBLK2
  1

  9
$DIMSTYLE
  2
STANDARD
  9
$DIMCLRD
 70
   256
  9
$DIMCLRE
 70
   256
  9
$DIMCLRT
 70
   256
  9
$DIMTFAC
 40
1.0
  9
$DIMGAP
 40
0.09
  9
$DIMJUST
 70
     0
  9
$DIMSD1
 70
     0
  9
$DIMSD2
 70
     0
  9
$DIMTOLJ
 70
     1
  9
$DIMTZIN
 70
     0
  9
$DIMALTZ
 70
     0
  9
$DIMALTTZ
 70
     0
  9
$DIMUPT
 70
     0
  9
$DIMDEC
 70
     1
  9
$DIMTDEC
 70
     4
  9
$DIMALTU
 70
     2
  9
$DIMALTTD
 70
     2
  9
$DIMTXSTY
  7
STANDARD
  9
$DIMAUNIT
 70
     0
  9
$DIMADEC
 70
     0
  9
$DIMALTRND
 40
0.0
  9
$DIMAZIN
 70
     0
  9
$DIMDSEP
 70
    46
  9
$DIMATFIT
 70
     3
  9
$DIMFRAC
 70
     0
  9
$DIMLDRBLK
  1

  9
$DIMLUNIT
 70
     2
  9
$DIMLWD
 70
    -2
  9
$DIMLWE
 70
    -2
  9
$DIMTMOVE
 70
     0
  9
$LUNITS
 70
     2
  9
$LUPREC
 70
     3
  9
$SKETCHINC
 40
0.1
  9
$FILLETRAD
 40
1.0
  9
$AUNITS
 70
     0
  9
$AUPREC
 70
     3
  9
$MENU
  1
C:\R13\WIN\SUPPORT\ACADFULL
  9
$ELEVATION
 40
0.0
  9
$PELEVATION
 40
0.0
  9
$THICKNESS
 40
0.0
  9
$LIMCHECK
 70
     0
  9
$CHAMFERA
 40
0.0
  9
$CHAMFERB
 40
0.0
  9
$CHAMFERC
 40
0.0
  9
$CHAMFERD
 40
0.0
  9
$SKPOLY
 70
     0
  9
$TDCREATE
 40
2457324.585767465
  9
$TDUCREATE
 40
2457324.210767465
  9
$TDUPDATE
 40
2458124.746297639
  9
$TDUUPDATE
 40
2458124.371297639
  9
$TDINDWG
 40
0.0411026042
  9
$TDUSRTIMER
 40
0.041101875
  9
$USRTIMER
 70
     1
  9
$ANGBASE
 50
0.0
  9
$ANGDIR
 70
     0
  9
$PDMODE
 70
     0
  9
$PDSIZE
 40
0.0
  9
$PLINEWID
 40
0.0
  9
$SPLFRAME
 70
     0
  9
$SPLINETYPE
 70
     6
  9
$SPLINESEGS
 70
     8
  9
$HANDSEED
  5
5929
  9
$SURFTAB1
 70
     6
  9
$SURFTAB2
 70
     6
  9
$SURFTYPE
 70
     6
  9
$SURFU
 70
     6
  9
$SURFV
 70
     6
  9
$UCSBASE
  2

  9
$UCSNAME
  2

  9
$UCSORG
 10
0.0
 20
0.0
 30
0.0
  9
$UCSXDIR
 10
1.0
 20
0.0
 30
0.0
  9
$UCSYDIR
 10
0.0
 20
1.0
 30
0.0
  9
$UCSORTHOREF
  2

  9
$UCSORTHOVIEW
 70
     0
  9
$UCSORGTOP
 10
0.0
 20
0.0
 30
0.0
  9
$UCSORGBOTTOM
 10
0.0
 20
0.0
 30
0.0
  9
$UCSORGLEFT
 10
0.0
 20
0.0
 30
0.0
  9
$UCSORGRIGHT
 10
0.0
 20
0.0
 30
0.0
  9
$UCSORGFRONT
 10
0.0
 20
0.0
 30
0.0
  9
$UCSORGBACK
 10
0.0
 20
0.0
 30
0.0
  9
$PUCSBASE
  2

  9
$PUCSNAME
  2

  9
$PUCSORG
 10
0.0
 20
0.0
 30
0.0
  9
$PUCSXDIR
 10
1.0
 20
0.0
 30
0.0
  9
$PUCSYDIR
 10
0.0
 20
1.0
 30
0.0
  9
$PUCSORTHOREF
  2

  9
$PUCSORTHOVIEW
 70
     0
  9
$PUCSORGTOP
 10
0.0
 20
0.0
 30
0.0
  9
$PUCSORGBOTTOM
 10
0.0
 20
0.0
 30
0.0
  9
$PUCSORGLEFT
 10
0.0
 20
0.0
 30
0.0
  9
$PUCSORGRIGHT
 10
0.0
 20
0.0
 30
0.0
  9
$PUCSORGFRONT
 10
0.0
 20
0.0
 30
0.0
  9
$PUCSORGBACK
 10
0.0
 20
0.0
 30
0.0
  9
$USERI1
 70
     0
  9
$USERI2
 70
     0
  9
$USERI3
 70
     0
  9
$USERI4
 70
     0
  9
$USERI5
 70
     0
  9
$USERR1
 40
0.0
  9
$USERR2
 40
0.0
  9
$USERR3
 40
0.0
  9
$USERR4
 40
2448925.372986111
  9
$USERR5
 40
0.04166667
  9
$WORLDVIEW
 70
     1
  9
$SHADEDGE
 70
     3
  9
$SHADEDIF
 70
    70
  9
$TILEMODE
 70
     1
  9
$MAXACTVP
 70
    16
  9
$PINSBASE
 10
0.0
 20
0.0
 30
0.0
  9
$PLIMCHECK
 70
     0
  9
$PEXTMIN
 10
1000000000000000E+20
 20
1000000000000000E+20
 30
1000000000000000E+20
  9
$PEXTMAX
 10
-1000000000000000E+20
 20
-1000000000000000E+20
 30
-1000000000000000E+20
  9
$PLIMMIN
 10
0.0
 20
0.0
  9
$PLIMMAX
 10
12.0
 20
9.0
  9
$UNITMODE
 70
     0
  9
$VISRETAIN
 70
     0
  9
$PLINEGEN
 70
     0
  9
$PSLTSCALE
 70
     0
  9
$TREEDEPTH
 70
  3020
  9
$CMLSTYLE
  2
STANDARD
  9
$CMLJUST
 70
     0
  9
$CMLSCALE
 40
1.0
  9
$PROXYGRAPHICS
 70
     1
  9
$MEASUREMENT
 70
     0
  9
$CELWEIGHT
370
    -1
  9
$ENDCAPS
280
     0
  9
$JOINSTYLE
280
     0
  9
$LWDISPLAY
290
     0
  9
$INSUNITS
 70
     0
  9
$HYPERLINKBASE
  1

  9
$STYLESHEET
  1
monochrome.ctb
  9
$XEDIT
290
     1
  9
$CEPSNTYPE
380
     0
  9
$PSTYLEMODE
290
     1
  9
$FINGERPRINTGUID
  2
{76BCB15B-4D2E-4482-84C0-095C79950F8E}
  9
$VERSIONGUID
  2
{FE082951-A5FA-4907-81F2-D5DDA9244829}
  9
$EXTNAMES
290
     1
  9
$PSVPSCALE
 40
0.0
  9
$OLESTARTUP
290
     0
  0
ENDSEC
  0
SECTION
  2
CLASSES
  0
CLASS
  1
LWPOLYLINE
  2
AcDbPolyline
  3
AutoCAD 2000
 90
        0
280
     0
281
     1
  0
CLASS
  1
ACDBDICTIONARYWDFLT
  2
AcDbDictionaryWithDefault
  3
ObjectDBX Classes
 90
        0
280
     0
281
     0
  0
CLASS
  1
ACDBPLACEHOLDER
  2
AcDbPlaceHolder
  3
ObjectDBX Classes
 90
        0
280
     0
281
     0
  0
CLASS
  1
LAYOUT
  2
AcDbLayout
  3
ObjectDBX Classes
 90
        0
280
     0
281
     0
  0
CLASS
  1
DICTIONARYVAR
  2
AcDbDictionaryVar
  3
ObjectDBX Classes
 90
        0
280
     0
281
     0
  0
CLASS
  1
DUMMY
  2
AcDbLongTransaction
  3
DUMMY
 90
        0
280
     0
281
     0
  0
CLASS
  1
LWPOLYLINE
  2
AcDbPolyline
  3
AutoCAD 2000
 90
        0
280
     0
281
     1
  0
CLASS
  1
HATCH
  2
AcDbHatch
  3
AutoCAD 2000
 90
        0
280
     0
281
     1
  0
CLASS
  1
XRECORD
  2
AcDbXrecord
  3
AutoCAD 2000
 90
        0
280
     0
281
     0
  0
CLASS
  1
DUMMY
  2
AcDbLongTransaction
  3
DUMMY
 90
        0
280
     0
281
     0
  0
CLASS
  1
LWPOLYLINE
  2
AcDbPolyline
  3
AutoCAD 2000
 90
        0
280
     0
281
     1
  0
CLASS
  1
HATCH
  2
AcDbHatch
  3
AutoCAD 2000
 90
        0
280
     0
281
     1
  0
CLASS
  1
XRECORD
  2
AcDbXrecord
  3
AutoCAD 2000
 90
        0
280
     0
281
     0
  0
CLASS
  1
MATERIAL
  2
AcDbMaterial
  3
ObjectDBX Classes
 90
     1153
280
     0
281
     0
  0
CLASS
  1
VISUALSTYLE
  2
AcDbVisualStyle
  3
ObjectDBX Classes
 90
     4095
280
     0
281
     0
  0
CLASS
  1
TABLESTYLE
  2
AcDbTableStyle
  3
ObjectDBX Classes
 90
     4095
280
     0
281
     0
  0
CLASS
  1
SCALE
  2
AcDbScale
  3
ObjectDBX Classes
 90
     1153
280
     0
281
     0
  0
CLASS
  1
MLEADERSTYLE
  2
AcDbMLeaderStyle
  3
ACDB_MLEADERSTYLE_CLASS
 90
     4095
280
     0
281
     0
  0
CLASS
  1
CELLSTYLEMAP
  2
AcDbCellStyleMap
  3
ObjectDBX Classes
 90
     1152
280
     0
281
     0
  0
CLASS
  1
SORTENTSTABLE
  2
AcDbSortentsTable
  3
ObjectDBX Classes
 90
        0
280
     0
281
     0
  0
ENDSEC
  0
SECTION
  2
TABLES
  0
TABLE
  2
VPORT
  5
12
102
{ACAD_XDICTIONARY
360
58EB
102
}
330
0
100
AcDbSymbolTable
 70
     1
  0
VPORT
  5
43E8
330
12
100
AcDbSymbolTableRecord
100
AcDbViewportTableRecord
  2
*ACTIVE
 70
     0
 10
0.0
 20
0.0
 11
1.0
 21
1.0
 12
1183.153372005636
 22
503.6940279049429
 13
0.0
 23
0.0
 14
1.0
 24
1.0
 15
50.0
 25
50.0
 16
0.0
 26
0.0
 36
1.0
 17
0.0
 27
0.0
 37
0.0
 40
1321.602465654483
 41
1.82716049382716
 42
50.0
 43
0.0
 44
0.0
 50
0.0
 51
0.0
 71
     0
 72
 20000
 73
     1
 74
     0
 75
     0
 76
     0
 77
     0
 78
     0
281
     0
 65
     1
110
0.0
120
0.0
130
0.0
111
1.0
121
0.0
131
0.0
112
0.0
122
1.0
132
0.0
 79
     0
146
0.0
  0
ENDTAB
  0
TABLE
  2
LTYPE
  5
D
330
0
100
AcDbSymbolTable
 70
     3
  0
LTYPE
  5
E
330
D
100
AcDbSymbolTableRecord
100
AcDbLinetypeTableRecord
  2
BYBLOCK
 70
     0
  3

 72
    65
 73
     0
 40
0.0
  0
LTYPE
  5
F
330
D
100
AcDbSymbolTableRecord
100
AcDbLinetypeTableRecord
  2
BYLAYER
 70
     0
  3

 72
    65
 73
     0
 40
0.0
  0
LTYPE
  5
5
330
D
100
AcDbSymbolTableRecord
100
AcDbLinetypeTableRecord
  2
CONTINUOUS
 70
     0
  3
Solid line
 72
    65
 73
     0
 40
0.0
  0
LTYPE
  5
24
330
D
100
AcDbSymbolTableRecord
100
AcDbLinetypeTableRecord
  2
CENTER
 70
     0
  3
____ _ ____ _ ____ _ ____ _ ____ _ ____ _ ____
 72
    65
 73
     4
 40
2.0
 49
1.25
 74
     0
 49
-0.25
 74
     0
 49
0.25
 74
     0
 49
-0.25
 74
     0
  0
LTYPE
  5
1E8
330
D
100
AcDbSymbolTableRecord
100
AcDbLinetypeTableRecord
  2
DASHDOT
 70
     0
  3
__ . __ . __ . __ . __ . __ . __ . __ . __ . __
 72
    65
 73
     4
 40
1.0
 49
0.5
 74
     0
 49
-0.25
 74
     0
 49
0.0
 74
     0
 49
-0.25
 74
     0
  0
ENDTAB
  0
TABLE
  2
LAYER
  5
A
330
0
100
AcDbSymbolTable
 70
     9
  0
LAYER
  5
4
102
{ACAD_XDICTIONARY
360
4441
102
}
330
A
100
AcDbSymbolTableRecord
100
AcDbLayerTableRecord
  2
0
 70
     0
 62
     7
  6
CONTINUOUS
370
    -3
390
428C
  0
LAYER
  5
37
102
{ACAD_XDICTIONARY
360
4443
102
}
330
A
100
AcDbSymbolTableRecord
100
AcDbLayerTableRecord
  2
1
 70
     0
 62
     9
  6
CONTINUOUS
370
    -3
390
428C
  0
LAYER
  5
1B
102
{ACAD_XDICTIONARY
360
4445
102
}
330
A
100
AcDbSymbolTableRecord
100
AcDbLayerTableRecord
  2
2
 70
     0
 62
     4
  6
CONTINUOUS
370
    -3
390
428C
  0
LAYER
  5
4C
102
{ACAD_XDICTIONARY
360
4447
102
}
330
A
100
AcDbSymbolTableRecord
100
AcDbLayerTableRecord
  2
4
 70
     0
 62
     3
  6
CONTINUOUS
370
    -3
390
428C
  0
LAYER
  5
23
102
{ACAD_XDICTIONARY
360
4449
102
}
330
A
100
AcDbSymbolTableRecord
100
AcDbLayerTableRecord
  2
L-CENTER
 70
     0
 62
     1
  6
CENTER
370
    -3
390
428C
  0
LAYER
  5
831
330
A
100
AcDbSymbolTableRecord
100
AcDbLayerTableRecord
  2
DEFPOINTS
 70
     0
 62
     7
  6
CONTINUOUS
290
     0
370
    -3
390
428C
  0
LAYER
  5
42D7
102
{ACAD_XDICTIONARY
360
444B
102
}
330
A
100
AcDbSymbolTableRecord
100
AcDbLayerTableRecord
  2
3
 70
     0
 62
     2
  6
CONTINUOUS
370
    -3
390
428C
  0
LAYER
  5
467F
102
{ACAD_XDICTIONARY
360
4680
102
}
330
A
100
AcDbSymbolTableRecord
100
AcDbLayerTableRecord
  2
5
 70
     0
 62
     6
  6
CONTINUOUS
370
    -3
390
428C
  0
LAYER
  5
4685
102
{ACAD_XDICTIONARY
360
4686
102
}
330
A
100
AcDbSymbolTableRecord
100
AcDbLayerTableRecord
  2
CENTER
 70
     0
 62
     1
  6
CENTER
370
    -3
390
428C
  0
ENDTAB
  0
TABLE
  2
STYLE
  5
B
330
0
100
AcDbSymbolTable
 70
     3
  0
STYLE
  5
C
330
B
100
AcDbSymbolTableRecord
100
AcDbTextStyleTableRecord
  2
STANDARD
 70
     0
 40
0.0
 41
1.0
 50
0.0
 71
     0
 42
5.4
  3
TXT
  4

  0
STYLE
  5
1C
330
B
100
AcDbSymbolTableRecord
100
AcDbTextStyleTableRecord
  2
KANJI
 70
     0
 40
0.0
 41
1.0
 50
0.0
 71
     0
 42
9.0
  3
TXT
  4
BIGFONT
  0
STYLE
  5
832
330
B
100
AcDbSymbolTableRecord
100
AcDbTextStyleTableRecord
  2
KANJIT
 70
     4
 40
0.0
 41
1.0
 50
0.0
 71
     0
 42
2.8
  3
TXT
  4
BIGFONT
  0
ENDTAB
  0
TABLE
  2
VIEW
  5
10
330
0
100
AcDbSymbolTable
 70
     0
  0
ENDTAB
  0
TABLE
  2
UCS
  5
11
330
0
100
AcDbSymbolTable
 70
     0
  0
ENDTAB
  0
TABLE
  2
APPID
  5
14
330
0
100
AcDbSymbolTable
 70
     6
  0
APPID
  5
15
330
14
100
AcDbSymbolTableRecord
100
AcDbRegAppTableRecord
  2
ACAD
 70
     0
  0
APPID
  5
44B4
330
14
100
AcDbSymbolTableRecord
100
AcDbRegAppTableRecord
  2
ACAD_MLEADERVER
 70
     0
  0
APPID
  5
4689
330
14
100
AcDbSymbolTableRecord
100
AcDbRegAppTableRecord
  2
ACAD_PSEXT
 70
     0
  0
APPID
  5
468A
330
14
100
AcDbSymbolTableRecord
100
AcDbRegAppTableRecord
  2
ACAD_NAV_VCDISPLAY
 70
     0
  0
APPID
  5
468B
330
14
100
AcDbSymbolTableRecord
100
AcDbRegAppTableRecord
  2
ACAD_EXEMPT_FROM_CAD_STANDARDS
 70
     0
  0
APPID
  5
586F
330
14
100
AcDbSymbolTableRecord
100
AcDbRegAppTableRecord
  2
ACAD_DSTYLE_DIMRADIAL_EXTENSION
 70
     0
  0
ENDTAB
  0
TABLE
  2
DIMSTYLE
  5
16
330
0
100
AcDbSymbolTable
 70
     1
100
AcDbDimStyleTable
  0
DIMSTYLE
105
1E
330
16
100
AcDbSymbolTableRecord
100
AcDbDimStyleTableRecord
  2
STANDARD
 70
     0
178
     0
340
C
  0
ENDTAB
  0
TABLE
  2
BLOCK_RECORD
  5
1
330
0
100
AcDbSymbolTable
 70
     2
  0
BLOCK_RECORD
  5
2
102
{ACAD_XDICTIONARY
360
545C
102
}
330
1
100
AcDbSymbolTableRecord
100
AcDbBlockTableRecord
  2
*MODEL_SPACE
340
428F
  0
BLOCK_RECORD
  5
7
330
1
100
AcDbSymbolTableRecord
100
AcDbBlockTableRecord
  2
*PAPER_SPACE
340
4290
  0
BLOCK_RECORD
  5
7EF
330
1
100
AcDbSymbolTableRecord
100
AcDbBlockTableRecord
  2
WAKUBD
340
0
  0
BLOCK_RECORD
  5
20A9
330
1
100
AcDbSymbolTableRecord
100
AcDbBlockTableRecord
  2
A3-NWAKU
340
0
  0
ENDTAB
  0
ENDSEC
  0
SECTION
  2
BLOCKS
  0
BLOCK
  5
3
330
2
100
AcDbEntity
  8
0
100
AcDbBlockBegin
  2
*MODEL_SPACE
 70
     0
 10
0.0
 20
0.0
 30
0.0
  3
*MODEL_SPACE
  1

  0
ENDBLK
  5
6
330
2
100
AcDbEntity
  8
0
100
AcDbBlockEnd
  0
BLOCK
  5
8
330
7
100
AcDbEntity
 67
     1
  8
0
100
AcDbBlockBegin
  2
*PAPER_SPACE
 70
     0
 10
0.0
 20
0.0
 30
0.0
  3
*PAPER_SPACE
  1

  0
ENDBLK
  5
9
330
7
100
AcDbEntity
 67
     1
  8
0
100
AcDbBlockEnd
  0
BLOCK
  5
82C
330
7EF
100
AcDbEntity
  8
0
100
AcDbBlockBegin
  2
WAKUBD
 70
     0
 10
0.0
 20
0.0
 30
0.0
  3
WAKUBD
  1

  0
LINE
  5
7F0
330
7EF
100
AcDbEntity
  8
1
 62
     9
100
AcDbLine
 10
756.5000000000001
 20
565.0
 30
0.0
 11
756.5000000000001
 21
468.0
 31
0.0
  0
LINE
  5
7F1
330
7EF
100
AcDbEntity
  8
1
 62
     9
100
AcDbLine
 10
280.0
 20
0.0
 30
0.0
 11
280.0
 21
30.00000000000006
 31
0.0
  0
LINE
  5
7F2
330
7EF
100
AcDbEntity
  8
1
 62
     9
100
AcDbLine
 10
17.0
 20
0.0
 30
0.0
 11
17.0
 21
565.0
 31
0.0
  0
LINE
  5
7F3
330
7EF
100
AcDbEntity
  8
1
 62
     9
100
AcDbLine
 10
30.0
 20
24.00000000000006
 30
0.0
 11
405.0
 21
24.00000000000006
 31
0.0
  0
LINE
  5
7F4
330
7EF
100
AcDbEntity
  8
1
 62
     9
100
AcDbLine
 10
17.0
 20
30.00000000000006
 30
0.0
 11
405.0
 21
30.00000000000006
 31
0.0
  0
LINE
  5
7F5
330
7EF
100
AcDbEntity
  8
1
 62
     9
100
AcDbLine
 10
17.0
 20
0.0
 30
0.0
 11
816.5
 21
0.0
 31
0.0
  0
LINE
  5
7F6
330
7EF
100
AcDbEntity
  8
1
 62
     1
100
AcDbLine
 10
30.0
 20
6.000000000000057
 30
0.0
 11
405.0
 21
6.000000000000057
 31
0.0
  0
LINE
  5
7F7
330
7EF
100
AcDbEntity
  8
1
 62
     9
100
AcDbLine
 10
30.0
 20
12.00000000000006
 30
0.0
 11
405.0
 21
12.00000000000006
 31
0.0
  0
LINE
  5
7F8
330
7EF
100
AcDbEntity
  8
1
 62
     9
100
AcDbLine
 10
17.0
 20
18.00000000000006
 30
0.0
 11
405.0
 21
18.00000000000006
 31
0.0
  0
LINE
  5
7F9
330
7EF
100
AcDbEntity
  8
1
 62
     1
100
AcDbLine
 10
30.0
 20
32.00000000000006
 30
0.0
 11
80.00000000000003
 21
32.00000000000006
 31
0.0
  0
LINE
  5
7FA
330
7EF
100
AcDbEntity
  8
1
  6
Continuous
 62
     9
100
AcDbLine
 10
105.0
 20
0.0
 30
0.0
 11
105.0
 21
30.00000000000006
 31
0.0
  0
LINE
  5
7FB
330
7EF
100
AcDbEntity
  8
1
  6
Continuous
 62
     9
100
AcDbLine
 10
55.0
 20
0.0
 30
0.0
 11
55.0
 21
30.00000000000006
 31
0.0
  0
LINE
  5
7FC
330
7EF
100
AcDbEntity
  8
1
  6
Continuous
 62
     9
100
AcDbLine
 10
80.00000000000009
 20
0.0
 30
0.0
 11
80.00000000000003
 21
30.00000000000006
 31
0.0
  0
TEXT
  5
7FD
330
7EF
100
AcDbEntity
  8
1
 62
     1
100
AcDbText
 10
23.1915673163079
 20
12.14236209118536
 30
0.0
 40
2.88
  1
工程
  7
KANJIT
100
AcDbText
  0
LINE
  5
7FE
330
7EF
100
AcDbEntity
  8
1
 62
     9
100
AcDbLine
 10
30.0
 20
0.0
 30
0.0
 11
30.0
 21
30.00000000000006
 31
0.0
  0
TEXT
  5
7FF
330
7EF
100
AcDbEntity
  8
1
 62
     1
100
AcDbText
 10
23.06404175060209
 20
27.52491609805207
 30
0.0
 40
2.88
  1
資材
  7
KANJIT
100
AcDbText
  0
TEXT
  5
800
330
7EF
100
AcDbEntity
  8
1
 62
     1
100
AcDbText
 10
31.99171765916196
 20
25.27015990099841
 30
0.0
 40
3.0
  1
　材　　質
  7
KANJI
100
AcDbText
  0
TEXT
  5
801
330
7EF
100
AcDbEntity
  8
1
 62
     1
100
AcDbText
 10
30.66915165264237
 20
33.27015990099841
 30
0.0
 40
3.0
  1
原価合計
  7
KANJI
100
AcDbText
  0
TEXT
  5
802
330
7EF
100
AcDbEntity
  8
1
 62
     1
100
AcDbText
 10
56.99171765916196
 20
25.27015990099841
 30
0.0
 40
3.0
  1
　ロット数
  7
KANJI
100
AcDbText
  0
LINE
  5
803
330
7EF
100
AcDbEntity
  8
1
  6
Continuous
 62
     9
100
AcDbLine
 10
180.0
 20
0.0
 30
0.0
 11
180.0
 21
30.00000000000006
 31
0.0
  0
LINE
  5
804
330
7EF
100
AcDbEntity
  8
1
  6
Continuous
 62
     9
100
AcDbLine
 10
155.0
 20
0.0
 30
0.0
 11
155.0
 21
30.00000000000006
 31
0.0
  0
LINE
  5
805
330
7EF
100
AcDbEntity
  8
1
  6
Continuous
 62
     9
100
AcDbLine
 10
130.0
 20
0.0
 30
0.0
 11
130.0
 21
30.00000000000006
 31
0.0
  0
TEXT
  5
806
330
7EF
100
AcDbEntity
  8
1
 62
     1
100
AcDbText
 10
81.99171765916199
 20
25.27015990099841
 30
0.0
 40
3.0
  1
　素材単価
  7
KANJI
100
AcDbText
  0
LINE
  5
807
330
7EF
100
AcDbEntity
  8
1
 62
     9
100
AcDbLine
 10
254.9999999999999
 20
0.0
 30
0.0
 11
254.9999999999999
 21
30.00000000000006
 31
0.0
  0
LINE
  5
808
330
7EF
100
AcDbEntity
  8
1
 62
     9
100
AcDbLine
 10
230.0
 20
0.0
 30
0.0
 11
230.0
 21
30.00000000000006
 31
0.0
  0
LINE
  5
809
330
7EF
100
AcDbEntity
  8
1
 62
     9
100
AcDbLine
 10
205.0
 20
0.0
 30
0.0
 11
205.0
 21
30.00000000000006
 31
0.0
  0
LINE
  5
80A
330
7EF
100
AcDbEntity
  8
1
 62
     9
100
AcDbLine
 10
761.5000000000001
 20
473.0
 30
0.0
 11
761.5000000000001
 21
468.0
 31
0.0
  0
TEXT
  5
80B
330
7EF
100
AcDbEntity
  8
1
 62
     1
100
AcDbText
 10
382.1201464160066
 20
13.27015990099841
 30
0.0
 40
3.0
  1
　加工合計
  7
KANJI
100
AcDbText
  0
LINE
  5
80C
330
7EF
100
AcDbEntity
  8
1
 62
     9
100
AcDbLine
 10
780.8682845553695
 20
473.0
 30
0.0
 11
780.8682845553695
 21
468.0
 31
0.0
  0
LINE
  5
80D
330
7EF
100
AcDbEntity
  8
1
 62
     9
100
AcDbLine
 10
808.5
 20
535.0
 30
0.0
 11
808.5
 21
545.0
 31
0.0
  0
LINE
  5
80E
330
7EF
100
AcDbEntity
  8
1
 62
     9
100
AcDbLine
 10
756.5000000000001
 20
468.0
 30
0.0
 11
816.5000000000001
 21
468.0
 31
0.0
  0
LINE
  5
80F
330
7EF
100
AcDbEntity
  8
1
 62
     9
100
AcDbLine
 10
756.5000000000001
 20
513.0
 30
0.0
 11
816.5000000000001
 21
513.0
 31
0.0
  0
LINE
  5
810
330
7EF
100
AcDbEntity
  8
1
 62
     9
100
AcDbLine
 10
756.5000000000001
 20
513.0
 30
0.0
 11
816.5000000000001
 21
513.0
 31
0.0
  0
LINE
  5
811
330
7EF
100
AcDbEntity
  8
1
 62
     9
100
AcDbLine
 10
756.5000000000001
 20
535.0
 30
0.0
 11
816.5000000000001
 21
535.0
 31
0.0
  0
LINE
  5
812
330
7EF
100
AcDbEntity
  8
1
 62
     9
100
AcDbLine
 10
756.5000000000001
 20
530.0
 30
0.0
 11
816.5000000000001
 21
530.0
 31
0.0
  0
LINE
  5
813
330
7EF
100
AcDbEntity
  8
1
 62
     1
100
AcDbLine
 10
756.5000000000001
 20
535.0
 30
0.0
 11
816.5000000000001
 21
535.0
 31
0.0
  0
LINE
  5
814
330
7EF
100
AcDbEntity
  8
1
 62
     9
100
AcDbLine
 10
776.5000000000001
 20
513.0
 30
0.0
 11
776.5000000000001
 21
535.0
 31
0.0
  0
TEXT
  5
815
330
7EF
100
AcDbEntity
  8
1
 62
     1
100
AcDbText
 10
760.5615559719147
 20
530.6791918519345
 30
0.0
 40
3.5
  1
製　図
  7
KANJI
100
AcDbText
  0
LINE
  5
816
330
7EF
100
AcDbEntity
  8
1
 62
     9
100
AcDbLine
 10
796.5
 20
513.0
 30
0.0
 11
796.5
 21
535.0
 31
0.0
  0
TEXT
  5
817
330
7EF
100
AcDbEntity
  8
1
 62
     1
100
AcDbText
 10
800.5615559719145
 20
530.6791918519345
 30
0.0
 40
3.5
  1
承　認
  7
KANJI
100
AcDbText
  0
TEXT
  5
818
330
7EF
100
AcDbEntity
  8
1
 62
     1
100
AcDbText
 10
780.5615559719147
 20
530.6791918519345
 30
0.0
 40
3.5
  1
検　図
  7
KANJI
100
AcDbText
  0
LINE
  5
819
330
7EF
100
AcDbEntity
  8
1
 62
     9
100
AcDbLine
 10
756.5000000000001
 20
545.0
 30
0.0
 11
816.5000000000001
 21
545.0
 31
0.0
  0
LINE
  5
81A
330
7EF
100
AcDbEntity
  8
1
 62
     9
100
AcDbLine
 10
756.5000000000001
 20
550.0
 30
0.0
 11
816.5000000000001
 21
550.0
 31
0.0
  0
LINE
  5
81B
330
7EF
100
AcDbEntity
  8
1
 62
     9
100
AcDbLine
 10
756.5000000000001
 20
555.0
 30
0.0
 11
816.5000000000001
 21
555.0
 31
0.0
  0
TEXT
  5
81C
330
7EF
100
AcDbEntity
  8
1
 62
     1
100
AcDbText
 10
757.8301380580202
 20
557.4989991753434
 30
0.0
 40
4.800000000000001
  1
青木精密工業株式会社
  7
KANJI
100
AcDbText
  0
LINE
  5
81D
330
7EF
100
AcDbEntity
  8
1
 62
     9
100
AcDbLine
 10
796.5
 20
545.0
 30
0.0
 11
796.5
 21
550.0
 31
0.0
  0
TEXT
  5
81E
330
7EF
100
AcDbEntity
  8
1
 62
     1
100
AcDbText
 10
809.0
 20
541.5
 30
0.0
 40
3.0
  1
REV
 41
0.8
  7
KANJI
100
AcDbText
  0
LINE
  5
81F
330
7EF
100
AcDbEntity
  8
1
 62
     9
100
AcDbLine
 10
808.5
 20
541.0
 30
0.0
 11
816.5000000000001
 21
541.0
 31
0.0
  0
TEXT
  5
820
330
7EF
100
AcDbEntity
  8
1
 62
     1
100
AcDbText
 10
816.2216955807263
 20
541.5
 30
0.0
 40
3.0
  1
.
 41
0.8
  7
KANJI
100
AcDbText
  0
LINE
  5
821
330
7EF
100
AcDbEntity
  8
1
 62
     9
100
AcDbLine
 10
756.5000000000001
 20
493.0
 30
0.0
 11
816.5000000000001
 21
493.0
 31
0.0
  0
LINE
  5
822
330
7EF
100
AcDbEntity
  8
1
 62
     9
100
AcDbLine
 10
756.5000000000001
 20
473.0
 30
0.0
 11
816.5000000000001
 21
473.0
 31
0.0
  0
LINE
  5
823
330
7EF
100
AcDbEntity
  8
1
 62
     9
100
AcDbLine
 10
305.0
 20
0.0
 30
0.0
 11
305.0
 21
30.00000000000006
 31
0.0
  0
LINE
  5
824
330
7EF
100
AcDbEntity
  8
1
 62
     9
100
AcDbLine
 10
330.0
 20
0.0
 30
0.0
 11
330.0
 21
30.00000000000006
 31
0.0
  0
LINE
  5
825
330
7EF
100
AcDbEntity
  8
1
 62
     9
100
AcDbLine
 10
355.0
 20
0.0
 30
0.0
 11
355.0
 21
30.00000000000006
 31
0.0
  0
LINE
  5
826
330
7EF
100
AcDbEntity
  8
1
 62
     9
100
AcDbLine
 10
380.0
 20
0.0
 30
0.0
 11
380.0
 21
30.00000000000006
 31
0.0
  0
LINE
  5
827
330
7EF
100
AcDbEntity
  8
1
 62
     9
100
AcDbLine
 10
405.0
 20
0.0
 30
0.0
 11
405.0
 21
30.00000000000006
 31
0.0
  0
TEXT
  5
828
330
7EF
100
AcDbEntity
  8
1
 62
     1
100
AcDbText
 10
758.3123461136902
 20
508.3837155799781
 30
0.0
 40
3.5
  1
熱処理
  7
KANJI
100
AcDbText
  0
TEXT
  5
829
330
7EF
100
AcDbEntity
  8
1
 62
     1
100
AcDbText
 10
758.3123461136902
 20
488.3365223548461
 30
0.0
 40
3.5
  1
記　事
  7
KANJI
100
AcDbText
  0
LINE
  5
82A
330
7EF
100
AcDbEntity
  8
1
 62
     9
100
AcDbLine
 10
17.0
 20
565.0
 30
0.0
 11
816.5000000000001
 21
565.0
 31
0.0
  0
LINE
  5
82B
330
7EF
100
AcDbEntity
  8
1
 62
     9
100
AcDbLine
 10
816.5
 20
0.0
 30
0.0
 11
816.5000000000001
 21
565.0
 31
0.0
  0
ENDBLK
  5
82D
330
7EF
100
AcDbEntity
  8
0
100
AcDbBlockEnd
  0
BLOCK
  5
20E3
330
20A9
100
AcDbEntity
  8
0
100
AcDbBlockBegin
  2
A3-NWAKU
 70
     0
 10
0.0
 20
0.0
 30
0.0
  3
A3-NWAKU
  1

  0
LINE
  5
20AA
330
20A9
100
AcDbEntity
  8
1
100
AcDbLine
 10
21.0
 20
0.0
 30
0.0
 11
396.0
 21
0.0
 31
0.0
  0
LINE
  5
20AB
330
20A9
100
AcDbEntity
  8
1
100
AcDbLine
 10
396.0
 20
272.5
 30
0.0
 11
21.00000000000001
 21
272.5
 31
0.0
  0
LINE
  5
20AC
330
20A9
100
AcDbEntity
  8
1
 62
     1
100
AcDbLine
 10
34.0
 20
6.0
 30
0.0
 11
396.0
 21
6.0
 31
0.0
  0
LINE
  5
20AD
330
20A9
100
AcDbEntity
  8
1
 62
     1
100
AcDbLine
 10
33.99999999999999
 20
12.0
 30
0.0
 11
396.0
 21
11.99999999999997
 31
0.0
  0
LINE
  5
20AE
330
20A9
100
AcDbEntity
  8
1
 62
     1
100
AcDbLine
 10
34.0
 20
24.0
 30
0.0
 11
396.0
 21
24.0
 31
0.0
  0
LINE
  5
20AF
330
20A9
100
AcDbEntity
  8
1
100
AcDbLine
 10
21.0
 20
30.0
 30
0.0
 11
396.0
 21
29.99999999999997
 31
0.0
  0
LINE
  5
20B0
330
20A9
100
AcDbEntity
  8
1
100
AcDbLine
 10
21.0
 20
18.0
 30
0.0
 11
396.0
 21
18.0
 31
0.0
  0
LINE
  5
20B1
330
20A9
100
AcDbEntity
  8
1
100
AcDbLine
 10
21.00000000000001
 20
272.5
 30
0.0
 11
21.0
 21
0.0
 31
0.0
  0
TEXT
  5
20B2
330
20A9
100
AcDbEntity
  8
1
100
AcDbText
 10
62.70416207467576
 20
25.27015990099829
 30
0.0
 40
3.0
  1
　素　　材
  7
KANJI
100
AcDbText
  0
LINE
  5
20B3
330
20A9
100
AcDbEntity
  8
1
100
AcDbLine
 10
60.0
 20
30.0
 30
0.0
 11
60.0
 21
0.0
 31
0.0
  0
TEXT
  5
20B4
330
20A9
100
AcDbEntity
  8
1
100
AcDbText
 10
27.1915673163079
 20
12.14236209118539
 30
0.0
 40
2.88
  1
工程
  7
KANJIT
100
AcDbText
  0
LINE
  5
20B5
330
20A9
100
AcDbEntity
  8
1
100
AcDbLine
 10
34.0
 20
30.0
 30
0.0
 11
33.99999999999999
 21
0.0
 31
0.0
  0
LINE
  5
20B6
330
20A9
100
AcDbEntity
  8
1
100
AcDbLine
 10
23.0
 20
32.0
 30
0.0
 11
61.0
 21
32.0
 31
0.0
  0
TEXT
  5
20B7
330
20A9
100
AcDbEntity
  8
1
100
AcDbText
 10
35.99171765916196
 20
25.27015990099829
 30
0.0
 40
3.0
  1
　材　　質
  7
KANJI
100
AcDbText
  0
TEXT
  5
20B8
330
20A9
100
AcDbEntity
  8
1
100
AcDbText
 10
27.06404175060214
 20
27.52491609805207
 30
0.0
 40
2.88
  1
資材
  7
KANJIT
100
AcDbText
  0
TEXT
  5
20B9
330
20A9
100
AcDbEntity
  8
1
100
AcDbText
 10
24.2215732531356
 20
33.27015990099832
 30
0.0
 40
3.0
  1
原価合計
  7
KANJI
100
AcDbText
  0
TEXT
  5
20BA
330
20A9
100
AcDbEntity
  8
1
100
AcDbText
 10
143.8625892355223
 20
25.27015990099829
 30
0.0
 40
3.0
  1
素材単価
  7
KANJI
100
AcDbText
  0
LINE
  5
20BB
330
20A9
100
AcDbEntity
  8
1
100
AcDbLine
 10
138.0
 20
30.0
 30
0.0
 11
138.0
 21
0.0
 31
0.0
  0
LINE
  5
20BC
330
20A9
100
AcDbEntity
  8
1
100
AcDbLine
 10
112.0
 20
30.0
 30
0.0
 11
112.0
 21
0.0
 31
0.0
  0
LINE
  5
20BD
330
20A9
100
AcDbEntity
  8
1
100
AcDbLine
 10
86.0
 20
30.0
 30
0.0
 11
86.00000000000001
 21
0.0
 31
0.0
  0
TEXT
  5
20BE
330
20A9
100
AcDbEntity
  8
1
100
AcDbText
 10
88.70416207467576
 20
25.27015990099829
 30
0.0
 40
3.0
  1
　素材重量
  7
KANJI
100
AcDbText
  0
TEXT
  5
20BF
330
20A9
100
AcDbEntity
  8
1
100
AcDbText
 10
117.8909963435874
 20
25.27015990099829
 30
0.0
 40
3.0
  1
ロット数
  7
KANJI
100
AcDbText
  0
LINE
  5
20C0
330
20A9
100
AcDbEntity
  8
1
100
AcDbLine
 10
190.0
 20
30.0
 30
0.0
 11
190.0
 21
0.0
 31
0.0
  0
LINE
  5
20C1
330
20A9
100
AcDbEntity
  8
1
100
AcDbLine
 10
164.0
 20
30.0
 30
0.0
 11
164.0
 21
0.0
 31
0.0
  0
TEXT
  5
20C2
330
20A9
100
AcDbEntity
  8
1
100
AcDbText
 10
169.9799075492004
 20
25.27015990099832
 30
0.0
 40
3.0
  1
切 断 費
  7
KANJI
100
AcDbText
  0
LINE
  5
20C3
330
20A9
100
AcDbEntity
  8
1
100
AcDbLine
 10
396.0
 20
0.0
 30
0.0
 11
396.0
 21
272.5
 31
0.0
  0
LINE
  5
20C4
330
20A9
100
AcDbEntity
  8
1
100
AcDbLine
 10
268.0
 20
30.0
 30
0.0
 11
268.0
 21
0.0
 31
0.0
  0
LINE
  5
20C5
330
20A9
100
AcDbEntity
  8
1
100
AcDbLine
 10
242.0
 20
30.0
 30
0.0
 11
242.0
 21
0.0
 31
0.0
  0
LINE
  5
20C6
330
20A9
100
AcDbEntity
  8
1
100
AcDbLine
 10
216.0
 20
30.0
 30
0.0
 11
216.0
 21
0.0
 31
0.0
  0
LINE
  5
20C7
330
20A9
100
AcDbEntity
  8
1
100
AcDbLine
 10
320.0
 20
30.0
 30
0.0
 11
320.0
 21
0.0
 31
0.0
  0
LINE
  5
20C8
330
20A9
100
AcDbEntity
  8
1
100
AcDbLine
 10
294.0
 20
30.0
 30
0.0
 11
294.0
 21
0.0
 31
0.0
  0
LINE
  5
20C9
330
20A9
100
AcDbEntity
  8
1
100
AcDbLine
 10
346.0
 20
30.0
 30
0.0
 11
346.0
 21
0.0
 31
0.0
  0
LINE
  5
20CA
330
20A9
100
AcDbEntity
  8
1
100
AcDbLine
 10
371.0
 20
30.0
 30
0.0
 11
371.0
 21
0.0
 31
0.0
  0
TEXT
  5
20CB
330
20A9
100
AcDbEntity
  8
1
100
AcDbText
 10
373.1201464160066
 20
13.27015990099831
 30
0.0
 40
3.0
  1
　加工合計
  7
KANJI
100
AcDbText
  0
LINE
  5
20CC
330
20A9
100
AcDbEntity
  8
1
100
AcDbLine
 10
336.0
 20
205.5
 30
0.0
 11
396.0
 21
205.5
 31
0.0
  0
LINE
  5
20CD
330
20A9
100
AcDbEntity
  8
1
100
AcDbLine
 10
336.0
 20
220.5
 30
0.0
 11
396.0
 21
220.5
 31
0.0
  0
LINE
  5
20CE
330
20A9
100
AcDbEntity
  8
1
100
AcDbLine
 10
336.0
 20
220.5
 30
0.0
 11
396.0
 21
220.5
 31
0.0
  0
LINE
  5
20CF
330
20A9
100
AcDbEntity
  8
1
100
AcDbLine
 10
336.0
 20
170.5
 30
0.0
 11
396.0
 21
170.5
 31
0.0
  0
LINE
  5
20D0
330
20A9
100
AcDbEntity
  8
1
100
AcDbLine
 10
336.0
 20
242.5
 30
0.0
 11
396.0
 21
242.5
 31
0.0
  0
LINE
  5
20D1
330
20A9
100
AcDbEntity
  8
1
 62
     1
100
AcDbLine
 10
336.0
 20
237.5
 30
0.0
 11
396.0
 21
237.5
 31
0.0
  0
LINE
  5
20D2
330
20A9
100
AcDbEntity
  8
1
100
AcDbLine
 10
336.0
 20
252.5
 30
0.0
 11
396.0
 21
252.5
 31
0.0
  0
LINE
  5
20D3
330
20A9
100
AcDbEntity
  8
1
100
AcDbLine
 10
336.0
 20
257.5
 30
0.0
 11
396.0
 21
257.5
 31
0.0
  0
LINE
  5
20D4
330
20A9
100
AcDbEntity
  8
1
100
AcDbLine
 10
336.0
 20
262.5
 30
0.0
 11
396.0
 21
262.5
 31
0.0
  0
TEXT
  5
20D5
330
20A9
100
AcDbEntity
  8
1
100
AcDbText
 10
340.0
 20
238.0
 30
0.0
 40
3.5
  1
製　図
  7
KANJI
100
AcDbText
  0
TEXT
  5
20D6
330
20A9
100
AcDbEntity
  8
1
100
AcDbText
 10
338.0
 20
216.0
 30
0.0
 40
3.5
  1
熱処理
  7
KANJI
100
AcDbText
  0
TEXT
  5
20D7
330
20A9
100
AcDbEntity
  8
1
100
AcDbText
 10
338.0
 20
201.0
 30
0.0
 40
3.5
  1
記　事
  7
KANJI
100
AcDbText
  0
TEXT
  5
20D8
330
20A9
100
AcDbEntity
  8
1
100
AcDbText
 10
337.3301380580201
 20
264.9989991753436
 30
0.0
 40
4.800000000000001
  1
青木精密工業株式会社
  7
KANJI
100
AcDbText
  0
LINE
  5
20D9
330
20A9
100
AcDbEntity
  8
1
100
AcDbLine
 10
336.0
 20
272.5
 30
0.0
 11
336.0
 21
170.5
 31
0.0
  0
LINE
  5
20DA
330
20A9
100
AcDbEntity
  8
1
 62
     1
100
AcDbLine
 10
376.0
 20
242.5
 30
0.0
 11
376.0
 21
220.5
 31
0.0
  0
LINE
  5
20DB
330
20A9
100
AcDbEntity
  8
1
 62
     1
100
AcDbLine
 10
356.0
 20
242.5
 30
0.0
 11
356.0
 21
220.5
 31
0.0
  0
TEXT
  5
20DC
330
20A9
100
AcDbEntity
  8
1
100
AcDbText
 10
360.0
 20
238.0
 30
0.0
 40
3.5
  1
検　図
  7
KANJI
100
AcDbText
  0
TEXT
  5
20DD
330
20A9
100
AcDbEntity
  8
1
100
AcDbText
 10
380.0
 20
238.0
 30
0.0
 40
3.5
  1
承　認
  7
KANJI
100
AcDbText
  0
LINE
  5
20DE
330
20A9
100
AcDbEntity
  8
1
100
AcDbLine
 10
388.0
 20
248.5
 30
0.0
 11
396.0
 21
248.5
 31
0.0
  0
TEXT
  5
20DF
330
20A9
100
AcDbEntity
  8
1
100
AcDbText
 10
388.5
 20
249.0
 30
0.0
 40
3.0
  1
REV
 41
0.8
  7
KANJI
100
AcDbText
  0
LINE
  5
20E0
330
20A9
100
AcDbEntity
  8
1
100
AcDbLine
 10
376.0
 20
257.5
 30
0.0
 11
376.0
 21
252.5
 31
0.0
  0
LINE
  5
20E1
330
20A9
100
AcDbEntity
  8
1
100
AcDbLine
 10
388.0
 20
242.5
 30
0.0
 11
388.0
 21
252.5
 31
0.0
  0
TEXT
  5
20E2
330
20A9
100
AcDbEntity
  8
1
100
AcDbText
 10
377.5
 20
253.5
 30
0.0
 40
3.0
  1
尺度
  7
KANJI
100
AcDbText
  0
ENDBLK
  5
20E4
330
20A9
100
AcDbEntity
  8
0
100
AcDbBlockEnd
  0
ENDSEC
  0
SECTION
  2
ENTITIES
  0
CIRCLE
  5
5466
330
2
100
AcDbEntity
  8
4
100
AcDbCircle
 10
521.7617454872575
 20
131.9212588519558
 30
0.0
 40
87.999999
  0
LINE
  5
5467
330
2
100
AcDbEntity
  8
4
100
AcDbLine
 10
474.5871534872576
 20
138.1712608519556
 30
0.0
 11
463.7617134872576
 21
144.4212598519557
 31
0.0
  0
LINE
  5
5468
330
2
100
AcDbEntity
  8
4
100
AcDbLine
 10
463.7617134872576
 20
144.4212598519557
 30
0.0
 11
452.9365194872576
 21
138.1712608519556
 31
0.0
  0
CIRCLE
  5
5469
330
2
100
AcDbEntity
  8
4
100
AcDbCircle
 10
463.7617134872576
 20
131.9212588519558
 30
0.0
 40
12.500001
  0
CIRCLE
  5
546A
330
2
100
AcDbEntity
  8
4
100
AcDbCircle
 10
463.7617464872576
 20
131.9212588519558
 30
0.0
 40
14.000001
  0
LINE
  5
546B
330
2
100
AcDbEntity
  8
L-CENTER
 48
4.0
100
AcDbLine
 10
463.7617464872576
 20
157.107896851956
 30
0.0
 11
463.7617464872576
 21
106.5429718519558
 31
0.0
  0
ARC
  5
546C
330
2
100
AcDbEntity
  8
4
100
AcDbCircle
 10
684.7617444872574
 20
131.9212588519558
 30
0.0
 40
198.0
100
AcDbArc
 50
170.599309
 51
189.400691
  0
ARC
  5
546D
330
2
100
AcDbEntity
  8
4
100
AcDbCircle
 10
358.7617464872576
 20
131.9212588519558
 30
0.0
 40
198.0
100
AcDbArc
 50
350.599309
 51
9.400691000000002
  0
ARC
  5
546E
330
2
100
AcDbEntity
  8
4
100
AcDbCircle
 10
358.7617464872576
 20
131.9212588519558
 30
0.0
 40
200.000001
100
AcDbArc
 50
350.190164
 51
9.809835999999995
  0
ARC
  5
546F
330
2
100
AcDbEntity
  8
4
100
AcDbCircle
 10
684.7617444872574
 20
131.9212588519558
 30
0.0
 40
200.000001
100
AcDbArc
 50
170.190164
 51
189.809836
  0
CIRCLE
  5
5470
330
2
100
AcDbEntity
  8
4
100
AcDbCircle
 10
521.7617454872575
 20
131.9212588519558
 30
0.0
 40
75.0
  0
CIRCLE
  5
5471
330
2
100
AcDbEntity
  8
L-CENTER
 48
4.0
100
AcDbCircle
 10
521.7617454872575
 20
131.9212588519558
 30
0.0
 40
81.500001
  0
LINE
  5
5472
330
2
100
AcDbEntity
  8
L-CENTER
 48
4.0
100
AcDbLine
 10
521.7617454872575
 20
273.4317508688105
 30
0.0
 11
521.7617454872575
 21
30.55074331806168
 31
0.0
  0
LINE
  5
5473
330
2
100
AcDbEntity
  8
L-CENTER
 48
4.0
100
AcDbLine
 10
406.7617464872576
 20
332.3283268519563
 30
0.0
 11
406.7617464872576
 21
26.30325360851475
 31
0.0
  0
LINE
  5
5474
330
2
100
AcDbEntity
  8
4
100
AcDbLine
 10
286.7617464872576
 20
196.9212598519557
 30
0.0
 11
286.7617464872576
 21
51.92126085195559
 31
0.0
  0
ARC
  5
5475
330
2
100
AcDbEntity
  8
4
100
AcDbCircle
 10
828.2617464872576
 20
131.9210158519554
 30
0.0
 40
400.0000289999999
100
AcDbArc
 50
168.2764540000001
 51
191.7235799999999
  0
ARC
  5
5476
330
2
100
AcDbEntity
  8
4
100
AcDbCircle
 10
215.2617444872576
 20
131.9210158519554
 30
0.0
 40
400.00005
100
AcDbArc
 50
348.276632
 51
11.72361399999999
  0
LINE
  5
5479
330
2
100
AcDbEntity
  8
L-CENTER
 48
4.0
100
AcDbLine
 10
623.1322610211516
 20
131.9212588519558
 30
0.0
 11
420.3912299533633
 21
131.9212588519558
 31
0.0
  0
LINE
  5
547A
330
2
100
AcDbEntity
  8
4
100
AcDbLine
 10
276.7617444872576
 20
51.92126085195559
 30
0.0
 11
356.7617454872575
 21
51.92126085195559
 31
0.0
  0
LINE
  5
547B
330
2
100
AcDbEntity
  8
4
100
AcDbLine
 10
276.7617444872576
 20
26.92125885195583
 30
0.0
 11
356.7617454872575
 21
26.92125885195583
 31
0.0
  0
LINE
  5
547C
330
2
100
AcDbEntity
  8
4
100
AcDbLine
 10
283.7617464872576
 20
51.92126085195559
 30
0.0
 11
283.7617464872576
 21
101.9212588519558
 31
0.0
  0
LINE
  5
547D
330
2
100
AcDbEntity
  8
L-CENTER
 48
4.0
100
AcDbLine
 10
280.4795574872576
 20
55.62670485195576
 30
0.0
 11
285.3535434872574
 21
55.36583985195557
 31
0.0
  0
LINE
  5
547E
330
2
100
AcDbEntity
  8
4
100
AcDbLine
 10
276.7617444872576
 20
26.92125885195583
 30
0.0
 11
276.7617444872576
 21
51.92126085195559
 31
0.0
  0
LINE
  5
547F
330
2
100
AcDbEntity
  8
4
100
AcDbLine
 10
281.7118434872577
 20
51.92126085195559
 30
0.0
 11
281.7118434872577
 21
56.6592958519559
 31
0.0
  0
LINE
  5
5480
330
2
100
AcDbEntity
  8
4
100
AcDbLine
 10
283.7617464872576
 20
56.49694185195585
 30
0.0
 11
281.7118434872577
 21
56.6592958519559
 31
0.0
  0
LINE
  5
5481
330
2
100
AcDbEntity
  8
L-CENTER
 48
4.0
100
AcDbLine
 10
301.7617464872576
 20
63.92126085195559
 30
0.0
 11
301.7617464872576
 21
14.92125885195583
 31
0.0
  0
LINE
  5
5482
330
2
100
AcDbEntity
  8
4
100
AcDbLine
 10
282.7617444872576
 20
137.9212588519558
 30
0.0
 11
286.7617464872576
 21
137.9212588519558
 31
0.0
  0
LINE
  5
5483
330
2
100
AcDbEntity
  8
4
100
AcDbLine
 10
282.7617444872576
 20
137.9212588519558
 30
0.0
 11
282.7617444872576
 21
101.9212588519558
 31
0.0
  0
LINE
  5
5484
330
2
100
AcDbEntity
  8
4
100
AcDbLine
 10
283.7617464872576
 20
101.9212588519558
 30
0.0
 11
282.7617444872576
 21
101.9212588519558
 31
0.0
  0
ARC
  5
5491
330
2
100
AcDbEntity
  8
4
100
AcDbCircle
 10
521.7617454872575
 20
294.9212608519556
 30
0.0
 40
198.0
100
AcDbArc
 50
260.599309
 51
279.4006910000001
  0
ARC
  5
5492
330
2
100
AcDbEntity
  8
4
100
AcDbCircle
 10
521.7617454872575
 20
294.9212608519556
 30
0.0
 40
200.000001
100
AcDbArc
 50
260.1901639999999
 51
279.8098359999999
  0
LINE
  5
5493
330
2
100
AcDbEntity
  8
4
100
AcDbLine
 10
496.7617464872576
 20
26.92125885195583
 30
0.0
 11
616.7617464872576
 21
26.92125885195583
 31
0.0
  0
ARC
  5
5494
330
2
100
AcDbEntity
  8
4
100
AcDbCircle
 10
521.7617454872575
 20
438.4212598519557
 30
0.0
 40
399.99996
100
AcDbArc
 50
258.276454
 51
281.7236559999999
  0
LINE
  5
5495
330
2
100
AcDbEntity
  8
4
100
AcDbLine
 10
449.2617444872576
 20
33.92126085195559
 30
0.0
 11
364.2617454872575
 21
33.92126085195559
 31
0.0
  0
LINE
  5
5496
330
2
100
AcDbEntity
  8
4
100
AcDbLine
 10
496.7617464872576
 20
36.92126085195559
 30
0.0
 11
356.7617454872575
 21
36.92126085195559
 31
0.0
  0
LINE
  5
5497
330
2
100
AcDbEntity
  8
4
100
AcDbLine
 10
364.2617454872575
 20
36.92126085195559
 30
0.0
 11
364.2617454872575
 21
33.92126085195559
 31
0.0
  0
LINE
  5
5498
330
2
100
AcDbEntity
  8
4
100
AcDbLine
 10
356.7617454872575
 20
51.92126085195559
 30
0.0
 11
356.7617454872575
 21
26.92125885195583
 31
0.0
  0
LINE
  5
5499
330
2
100
AcDbEntity
  8
4
100
AcDbLine
 10
503.9167644872575
 20
63.24432585195564
 30
0.0
 11
501.5283864872576
 21
92.68756785195546
 31
0.0
  0
LINE
  5
549A
330
2
100
AcDbEntity
  8
4
100
AcDbLine
 10
449.2617444872576
 20
36.92126085195559
 30
0.0
 11
449.2617444872576
 21
33.92126085195559
 31
0.0
  0
ARC
  5
549B
330
2
100
AcDbEntity
  8
4
100
AcDbCircle
 10
441.5017344872576
 20
51.66125085195563
 30
0.0
 40
5.000064
100
AcDbArc
 50
191.7225259999995
 51
258.2747360000006
  0
LINE
  5
549C
330
2
100
AcDbEntity
  8
4
100
AcDbLine
 10
496.7617464872576
 20
39.20324085195625
 30
0.0
 11
496.7617464872576
 21
26.92125885195583
 31
0.0
  0
ARC
  5
549D
330
2
100
AcDbEntity
  8
4
100
AcDbCircle
 10
500.9265864872575
 20
63.00176985195549
 30
0.0
 40
3.0
100
AcDbArc
 50
253.1793259999997
 51
4.637565000001184
  0
LINE
  5
549E
330
2
100
AcDbEntity
  8
4
100
AcDbLine
 10
453.0848124872578
 20
114.0762778519556
 30
0.0
 11
482.5280544872576
 21
111.6879028519552
 31
0.0
  0
LINE
  5
549F
330
2
100
AcDbEntity
  8
L-CENTER
 48
4.0
100
AcDbLine
 10
476.1681705645949
 20
52.9508751167059
 30
0.0
 11
486.3894273164622
 21
70.65460910526508
 31
0.0
  0
LINE
  5
54A0
330
2
100
AcDbEntity
  8
4
100
AcDbLine
 10
452.9365194872576
 20
125.6712448519556
 30
0.0
 11
463.7617134872576
 21
119.421245851956
 31
0.0
  0
ARC
  5
54A1
330
2
100
AcDbEntity
  8
4
100
AcDbCircle
 10
452.8422564872576
 20
111.0860998519556
 30
0.0
 40
3.0
100
AcDbArc
 50
85.36243499999888
 51
196.8206740000003
  0
LINE
  5
54A2
330
2
100
AcDbEntity
  8
4
100
AcDbLine
 10
452.9365194872576
 20
125.6712448519556
 30
0.0
 11
452.9365194872576
 21
138.1712608519556
 31
0.0
  0
LINE
  5
54A3
330
2
100
AcDbEntity
  8
4
100
AcDbLine
 10
463.7617134872576
 20
119.421245851956
 30
0.0
 11
474.5871534872576
 21
125.6712598519557
 31
0.0
  0
LINE
  5
54A4
330
2
100
AcDbEntity
  8
4
100
AcDbLine
 10
474.5871534872576
 20
125.6712598519557
 30
0.0
 11
474.5871534872576
 21
138.1712608519556
 31
0.0
  0
ARC
  5
54A5
330
2
100
AcDbEntity
  8
4
100
AcDbCircle
 10
497.5414824872576
 20
92.36415885195584
 30
0.0
 40
3.999999
100
AcDbArc
 50
4.637564999998195
 51
83.18137300000134
  0
ARC
  5
54A6
330
2
100
AcDbEntity
  8
4
100
AcDbCircle
 10
482.2046454872575
 20
107.7009988519558
 30
0.0
 40
3.999999
100
AcDbArc
 50
6.818626999998737
 51
85.36243500000181
  0
LINE
  5
54A7
330
2
100
AcDbEntity
  8
4
100
AcDbLine
 10
539.6067264872574
 20
63.24432585195564
 30
0.0
 11
541.9951044872575
 21
92.68756785195546
 31
0.0
  0
ARC
  5
54A8
330
2
100
AcDbEntity
  8
4
100
AcDbCircle
 10
542.5969044872577
 20
63.00176985195549
 30
0.0
 40
3.0
100
AcDbArc
 50
175.362434999999
 51
286.8206740000003
  0
LINE
  5
54A9
330
2
100
AcDbEntity
  8
L-CENTER
 48
4.0
100
AcDbLine
 10
591.7617444872574
 20
63.92126085195559
 30
0.0
 11
591.7617444872574
 21
14.92125885195583
 31
0.0
  0
LINE
  5
54AA
330
2
100
AcDbEntity
  8
4
100
AcDbLine
 10
616.7617464872576
 20
26.92125885195583
 30
0.0
 11
616.7617464872576
 21
51.92126085195559
 31
0.0
  0
ARC
  5
54AB
330
2
100
AcDbEntity
  8
4
100
AcDbCircle
 10
602.0217564872576
 20
51.66125085195563
 30
0.0
 40
5.000064
100
AcDbArc
 50
281.7252639999994
 51
348.2774740000006
  0
LINE
  5
54AC
330
2
100
AcDbEntity
  8
4
100
AcDbLine
 10
607.1802024872575
 20
51.92126085195559
 30
0.0
 11
616.7617464872576
 21
51.92126085195559
 31
0.0
  0
LINE
  5
54AD
330
2
100
AcDbEntity
  8
4
100
AcDbLine
 10
590.4386784872574
 20
114.0762778519556
 30
0.0
 11
560.9954364872572
 21
111.6879028519552
 31
0.0
  0
ARC
  5
54AE
330
2
100
AcDbEntity
  8
4
100
AcDbCircle
 10
545.9820084872579
 20
92.36415885195584
 30
0.0
 40
3.999999
100
AcDbArc
 50
96.81862700000534
 51
175.3624350000018
  0
ARC
  5
54AF
330
2
100
AcDbEntity
  8
4
100
AcDbCircle
 10
561.3188454872577
 20
107.7009988519558
 30
0.0
 40
3.999999
100
AcDbArc
 50
94.63756500000144
 51
173.1813730000013
  0
LINE
  5
54B0
330
2
100
AcDbEntity
  8
L-CENTER
 48
4.0
100
AcDbLine
 10
557.6321526303043
 20
69.79189251189405
 30
0.0
 11
567.5335474520687
 21
52.64217340898995
 31
0.0
  0
ARC
  5
54B1
330
2
100
AcDbEntity
  8
4
100
AcDbCircle
 10
590.6812374872577
 20
111.0860998519556
 30
0.0
 40
3.0
100
AcDbArc
 50
343.1793259999997
 51
94.63756500000113
  0
LINE
  5
54B2
330
2
100
AcDbEntity
  8
4
100
AcDbLine
 10
286.7617464872576
 20
196.9212598519557
 30
0.0
 11
406.7617464872576
 21
196.9212598519557
 31
0.0
  0
LINE
  5
54B3
330
2
100
AcDbEntity
  8
4
100
AcDbLine
 10
287.7617454872575
 20
209.9212588519558
 30
0.0
 11
401.7617454872573
 21
209.9212588519558
 31
0.0
  0
LINE
  5
54B4
330
2
100
AcDbEntity
  8
4
100
AcDbLine
 10
286.7617464872576
 20
196.9212598519557
 30
0.0
 11
406.7617464872576
 21
196.9212598519557
 31
0.0
  0
LINE
  5
54B5
330
2
100
AcDbEntity
  8
4
100
AcDbLine
 10
420.7617444872576
 20
196.9212598519557
 30
0.0
 11
286.7617464872576
 21
196.9212598519557
 31
0.0
  0
LINE
  5
54B6
330
2
100
AcDbEntity
  8
4
100
AcDbLine
 10
286.7617464872576
 20
208.9212598519557
 30
0.0
 11
286.7617464872576
 21
196.9212598519557
 31
0.0
  0
ARC
  5
54B7
330
2
100
AcDbEntity
  8
4
100
AcDbCircle
 10
287.7617454872575
 20
208.9212598519557
 30
0.0
 40
0.999999
100
AcDbArc
 50
90.0
 51
180.0
  0
ARC
  5
54B8
330
2
100
AcDbEntity
  8
4
100
AcDbCircle
 10
521.7617454872575
 20
-31.07874014804429
 30
0.0
 40
198.0
100
AcDbArc
 50
80.59930899999996
 51
99.40069100000002
  0
ARC
  5
54B9
330
2
100
AcDbEntity
  8
4
100
AcDbCircle
 10
521.7617454872575
 20
-31.07874014804429
 30
0.0
 40
200.000001
100
AcDbArc
 50
80.19016399999997
 51
99.80983599999998
  0
LINE
  5
54BA
330
2
100
AcDbEntity
  8
L-CENTER
 48
4.0
100
AcDbLine
 10
706.0744042102921
 20
221.9212588519558
 30
0.0
 11
337.4490867642229
 21
221.9212588519558
 31
0.0
  0
LINE
  5
54BB
330
2
100
AcDbEntity
  8
4
100
AcDbLine
 10
621.7617444872574
 20
265.9212598519557
 30
0.0
 11
421.7617464872576
 21
265.9212598519557
 31
0.0
  0
ARC
  5
54BC
330
2
100
AcDbEntity
  8
4
100
AcDbCircle
 10
521.7617454872575
 20
-174.5787391480444
 30
0.0
 40
400.000056
100
AcDbArc
 50
78.27642000000002
 51
101.72358
  0
LINE
  5
54BD
330
2
100
AcDbEntity
  8
4
100
AcDbLine
 10
412.7617464872576
 20
326.9212588519558
 30
0.0
 11
412.7617464872576
 21
247.9212598519557
 31
0.0
  0
LINE
  5
54BE
330
2
100
AcDbEntity
  8
4
100
AcDbLine
 10
400.7617464872576
 20
326.9212588519558
 30
0.0
 11
400.7617464872576
 21
247.9212598519557
 31
0.0
  0
LINE
  5
54BF
330
2
100
AcDbEntity
  8
4
100
AcDbLine
 10
428.2617444872576
 20
325.9212598519557
 30
0.0
 11
428.2617444872576
 21
265.9212598519557
 31
0.0
  0
LINE
  5
54C0
330
2
100
AcDbEntity
  8
4
100
AcDbLine
 10
385.2617454872575
 20
325.9212598519557
 30
0.0
 11
385.2617454872575
 21
236.9212588519558
 31
0.0
  0
LINE
  5
54C1
330
2
100
AcDbEntity
  8
4
100
AcDbLine
 10
420.7617444872576
 20
247.9212598519557
 30
0.0
 11
420.7617444872576
 21
195.9212608519556
 31
0.0
  0
LINE
  5
54C2
330
2
100
AcDbEntity
  8
4
100
AcDbLine
 10
421.7617464872576
 20
265.9212598519557
 30
0.0
 11
421.7617464872576
 21
177.9212608519556
 31
0.0
  0
LINE
  5
54C3
330
2
100
AcDbEntity
  8
4
100
AcDbLine
 10
420.7617444872576
 20
196.9212598519557
 30
0.0
 11
406.7617464872576
 21
196.9212598519557
 31
0.0
  0
LINE
  5
54C4
330
2
100
AcDbEntity
  8
4
100
AcDbLine
 10
421.7617464872576
 20
177.9212608519556
 30
0.0
 11
430.9155534872575
 21
177.9212608519556
 31
0.0
  0
LINE
  5
54C5
330
2
100
AcDbEntity
  8
4
100
AcDbLine
 10
420.7617444872576
 20
195.9212608519556
 30
0.0
 11
421.7617464872576
 21
195.9212608519556
 31
0.0
  0
LINE
  5
54C8
330
2
100
AcDbEntity
  8
4
100
AcDbLine
 10
359.8869894872573
 20
209.9212588519558
 30
0.0
 11
360.1994901122573
 21
210.4212598519557
 31
0.0
  0
ARC
  5
54CA
330
2
100
AcDbEntity
  8
4
100
AcDbCircle
 10
406.7617464872576
 20
247.9212598519557
 30
0.0
 40
6.0
100
AcDbArc
 50
270.0
 51
0.0
  0
ARC
  5
54CB
330
2
100
AcDbEntity
  8
4
100
AcDbCircle
 10
406.7617464872576
 20
247.9212598519557
 30
0.0
 40
6.0
100
AcDbArc
 50
180.0
 51
270.0
  0
LINE
  5
54CC
330
2
100
AcDbEntity
  8
4
100
AcDbLine
 10
384.2617464872576
 20
236.9212588519558
 30
0.0
 11
420.7617444872576
 21
236.9212588519558
 31
0.0
  0
LINE
  5
54CE
330
2
100
AcDbEntity
  8
4
100
AcDbLine
 10
384.2617464872576
 20
236.9212588519558
 30
0.0
 11
384.2617464872576
 21
236.4212608519556
 31
0.0
  0
LINE
  5
54CF
330
2
100
AcDbEntity
  8
4
100
AcDbLine
 10
406.7617464872576
 20
241.9212598519557
 30
0.0
 11
406.7617464872576
 21
241.9212598519557
 31
0.0
  0
LINE
  5
54D2
330
2
100
AcDbEntity
  8
4
100
AcDbLine
 10
420.7617444872576
 20
247.9212598519557
 30
0.0
 11
421.7617464872576
 21
247.9212598519557
 31
0.0
  0
LINE
  5
54D3
330
2
100
AcDbEntity
  8
4
100
AcDbLine
 10
453.0848124872578
 20
149.766239851956
 30
0.0
 11
482.5280544872576
 21
152.1546178519557
 31
0.0
  0
LINE
  5
54D4
330
2
100
AcDbEntity
  8
L-CENTER
 48
4.0
100
AcDbLine
 10
475.9490681174209
 20
211.2711426099945
 30
0.0
 11
486.0744222939795
 21
193.7335178950673
 31
0.0
  0
ARC
  5
54D5
330
2
100
AcDbEntity
  8
4
100
AcDbCircle
 10
452.8422564872576
 20
152.7564178519556
 30
0.0
 40
3.0
100
AcDbArc
 50
163.1793259999997
 51
274.6375650000011
  0
LINE
  5
54D6
330
2
100
AcDbEntity
  8
4
100
AcDbLine
 10
503.9167644872575
 20
200.598191851956
 30
0.0
 11
501.5283864872576
 21
171.1549498519553
 31
0.0
  0
ARC
  5
54D7
330
2
100
AcDbEntity
  8
4
100
AcDbCircle
 10
482.2046454872575
 20
156.141521851956
 30
0.0
 40
3.999999
100
AcDbArc
 50
274.6375649999982
 51
353.181372999998
  0
ARC
  5
54D8
330
2
100
AcDbEntity
  8
4
100
AcDbCircle
 10
497.5414824872576
 20
171.4783588519558
 30
0.0
 40
3.999999
100
AcDbArc
 50
276.8186269999987
 51
355.3624349999986
  0
ARC
  5
54D9
330
2
100
AcDbEntity
  8
4
100
AcDbCircle
 10
500.9265864872575
 20
200.8407508519558
 30
0.0
 40
3.0
100
AcDbArc
 50
355.3624349999988
 51
106.8206740000004
  0
ARC
  5
54DA
330
2
100
AcDbEntity
  8
4
100
AcDbCircle
 10
441.5017344872576
 20
212.1812698519552
 30
0.0
 40
5.000064
100
AcDbArc
 50
101.7225259999994
 51
168.2747360000007
  0
LINE
  5
54DB
330
2
100
AcDbEntity
  8
4
100
AcDbLine
 10
386.2617444872576
 20
326.9212588519558
 30
0.0
 11
427.2617454872575
 21
326.9212588519558
 31
0.0
  0
LINE
  5
54DC
330
2
100
AcDbEntity
  8
4
100
AcDbLine
 10
385.2617454872575
 20
325.9212598519557
 30
0.0
 11
400.7617464872576
 21
325.9212598519557
 31
0.0
  0
LINE
  5
54DD
330
2
100
AcDbEntity
  8
4
100
AcDbLine
 10
386.2617444872576
 20
326.9212588519558
 30
0.0
 11
385.2617454872575
 21
325.9212598519557
 31
0.0
  0
LINE
  5
54DE
330
2
100
AcDbEntity
  8
4
100
AcDbLine
 10
412.7617464872576
 20
325.9212598519557
 30
0.0
 11
428.2617444872576
 21
325.9212598519557
 31
0.0
  0
LINE
  5
54DF
330
2
100
AcDbEntity
  8
4
100
AcDbLine
 10
427.2617454872575
 20
326.9212588519558
 30
0.0
 11
428.2617444872576
 21
325.9212598519557
 31
0.0
  0
LINE
  5
54E0
330
2
100
AcDbEntity
  8
4
100
AcDbLine
 10
641.7617454872577
 20
209.4212608519556
 30
0.0
 11
622.7617464872576
 21
209.4212608519556
 31
0.0
  0
LINE
  5
54E1
330
2
100
AcDbEntity
  8
4
100
AcDbLine
 10
641.7617454872577
 20
234.4212598519557
 30
0.0
 11
622.7617464872576
 21
234.4212598519557
 31
0.0
  0
LINE
  5
54E2
330
2
100
AcDbEntity
  8
4
100
AcDbLine
 10
622.7617464872576
 20
195.9212608519556
 30
0.0
 11
622.7617464872576
 21
247.9212598519557
 31
0.0
  0
LINE
  5
54E3
330
2
100
AcDbEntity
  8
4
100
AcDbLine
 10
621.7617444872574
 20
265.9212598519557
 30
0.0
 11
621.7617444872574
 21
177.9212608519556
 31
0.0
  0
LINE
  5
54E4
330
2
100
AcDbEntity
  8
4
100
AcDbLine
 10
590.4386784872574
 20
149.766239851956
 30
0.0
 11
560.9954364872572
 21
152.1546178519557
 31
0.0
  0
LINE
  5
54E5
330
2
100
AcDbEntity
  8
4
100
AcDbLine
 10
539.6067264872574
 20
200.598191851956
 30
0.0
 11
541.9951044872575
 21
171.1549498519553
 31
0.0
  0
ARC
  5
54E6
330
2
100
AcDbEntity
  8
4
100
AcDbCircle
 10
545.9820084872579
 20
171.4783588519558
 30
0.0
 40
3.999999
100
AcDbArc
 50
184.6375650000014
 51
263.1813729999947
  0
ARC
  5
54E7
330
2
100
AcDbEntity
  8
4
100
AcDbCircle
 10
561.3188454872577
 20
156.141521851956
 30
0.0
 40
3.999999
100
AcDbArc
 50
186.8186269999987
 51
265.3624349999985
  0
ARC
  5
54E8
330
2
100
AcDbEntity
  8
4
100
AcDbCircle
 10
542.5969044872577
 20
200.8407508519558
 30
0.0
 40
3.0
100
AcDbArc
 50
73.17932599999963
 51
184.637565000001
  0
ARC
  5
54E9
330
2
100
AcDbEntity
  8
4
100
AcDbCircle
 10
590.6812374872577
 20
152.7564178519556
 30
0.0
 40
3.0
100
AcDbArc
 50
265.3624349999989
 51
16.82067400000035
  0
LINE
  5
54EA
330
2
100
AcDbEntity
  8
4
100
AcDbLine
 10
612.6079374872577
 20
177.9212608519556
 30
0.0
 11
621.7617444872574
 21
177.9212608519556
 31
0.0
  0
LINE
  5
54EB
330
2
100
AcDbEntity
  8
4
100
AcDbLine
 10
621.7617444872574
 20
195.9212608519556
 30
0.0
 11
622.7617464872576
 21
195.9212608519556
 31
0.0
  0
ARC
  5
54EC
330
2
100
AcDbEntity
  8
4
100
AcDbCircle
 10
602.0217564872576
 20
212.1812698519552
 30
0.0
 40
5.000064
100
AcDbArc
 50
11.7252639999993
 51
78.27747400000061
  0
LINE
  5
54ED
330
2
100
AcDbEntity
  8
4
100
AcDbLine
 10
621.7617444872574
 20
247.9212598519557
 30
0.0
 11
622.7617464872576
 21
247.9212598519557
 31
0.0
  0
LINE
  5
54EE
330
2
100
AcDbEntity
  8
4
100
AcDbLine
 10
701.7617454872577
 20
236.4212608519556
 30
0.0
 11
646.7617464872576
 21
236.4212608519556
 31
0.0
  0
LINE
  5
54EF
330
2
100
AcDbEntity
  8
4
100
AcDbLine
 10
700.7617464872576
 20
210.4212598519557
 30
0.0
 11
641.7617454872577
 21
210.4212598519557
 31
0.0
  0
LINE
  5
54F0
330
2
100
AcDbEntity
  8
4
100
AcDbLine
 10
700.7617464872576
 20
233.4212608519556
 30
0.0
 11
641.7617454872577
 21
233.4212608519556
 31
0.0
  0
LINE
  5
54F1
330
2
100
AcDbEntity
  8
4
100
AcDbLine
 10
641.7617454872577
 20
234.4212598519557
 30
0.0
 11
641.7617454872577
 21
209.4212608519556
 31
0.0
  0
LINE
  5
54F2
330
2
100
AcDbEntity
  8
4
100
AcDbLine
 10
646.7617464872576
 20
236.4212608519556
 30
0.0
 11
646.7617464872576
 21
233.4212608519556
 31
0.0
  0
LINE
  5
54F3
330
2
100
AcDbEntity
  8
4
100
AcDbLine
 10
700.7617464872576
 20
233.4212608519556
 30
0.0
 11
700.7617464872576
 21
210.4212598519557
 31
0.0
  0
LINE
  5
54F4
330
2
100
AcDbEntity
  8
4
100
AcDbLine
 10
701.7617454872577
 20
236.4212608519556
 30
0.0
 11
701.7617454872577
 21
211.4212588519558
 31
0.0
  0
LINE
  5
54F5
330
2
100
AcDbEntity
  8
4
100
AcDbLine
 10
700.7617464872576
 20
210.4212598519557
 30
0.0
 11
701.7617454872577
 21
211.4212588519558
 31
0.0
  0
LINE
  5
54F6
330
2
100
AcDbEntity
  8
4
100
AcDbLine
 10
701.7617454872577
 20
232.4212588519558
 30
0.0
 11
700.7617464872576
 21
233.4212608519556
 31
0.0
  0
LINE
  5
54F7
330
2
100
AcDbEntity
  8
4
100
AcDbLine
 10
935.1376237569459
 20
94.92126105195598
 30
0.0
 11
935.1376237569459
 21
126.9212588519558
 31
0.0
  0
LINE
  5
54F8
330
2
100
AcDbEntity
  8
4
100
AcDbLine
 10
925.1376247569463
 20
96.9212608519556
 30
0.0
 11
925.1376247569463
 21
166.9212598519557
 31
0.0
  0
LINE
  5
54F9
330
2
100
AcDbEntity
  8
4
100
AcDbLine
 10
939.2376247569462
 20
44.92125885195583
 30
0.0
 11
939.2376247569462
 21
218.9212588519558
 31
0.0
  0
LINE
  5
54FA
330
2
100
AcDbEntity
  8
4
100
AcDbLine
 10
951.0376237569465
 20
41.92125885195583
 30
0.0
 11
951.0376237569465
 21
221.9212588519558
 31
0.0
  0
LINE
  5
54FB
330
2
100
AcDbEntity
  8
L-CENTER
 48
4.0
100
AcDbLine
 10
1000.037625756946
 20
271.3305937670457
 30
0.0
 11
1000.037625756946
 21
172.511923936866
 31
0.0
  0
LINE
  5
54FC
330
2
100
AcDbEntity
  8
L-CENTER
 48
4.0
100
AcDbLine
 10
1180.037625756946
 20
332.3283268519563
 30
0.0
 11
1180.037625756946
 21
26.58922785195546
 31
0.0
  0
LINE
  5
54FD
330
2
100
AcDbEntity
  8
4
100
AcDbLine
 10
1300.037625756946
 20
196.9212598519557
 30
0.0
 11
1300.037625756946
 21
49.92125985195571
 31
0.0
  0
LINE
  5
54FE
330
2
100
AcDbEntity
  8
4
100
AcDbLine
 10
1044.037623756946
 20
40.42125885195583
 30
0.0
 11
1044.037623756946
 21
221.9212588519558
 31
0.0
  0
LINE
  5
54FF
330
2
100
AcDbEntity
  8
4
100
AcDbLine
 10
953.5376257569462
 20
38.42126085195559
 30
0.0
 11
953.5376257569462
 21
225.4212598519557
 31
0.0
  0
LINE
  5
5500
330
2
100
AcDbEntity
  8
L-CENTER
 48
4.0
100
AcDbLine
 10
921.2237652562028
 20
131.9212588519558
 30
0.0
 11
1305.066478526562
 21
131.9212588519558
 31
0.0
  0
LINE
  5
5501
330
2
100
AcDbEntity
  8
4
100
AcDbLine
 10
1232.037624756946
 20
76.92125985195571
 30
0.0
 11
1128.037623756946
 21
76.92125985195571
 31
0.0
  0
LINE
  5
5502
330
2
100
AcDbEntity
  8
4
100
AcDbLine
 10
1230.037623756946
 20
36.92126085195559
 30
0.0
 11
1130.037624756946
 21
36.92126085195559
 31
0.0
  0
LINE
  5
5503
330
2
100
AcDbEntity
  8
4
100
AcDbLine
 10
1222.537623756946
 20
33.92126085195559
 30
0.0
 11
1137.537624756946
 21
33.92126085195559
 31
0.0
  0
LINE
  5
5504
330
2
100
AcDbEntity
  8
4
100
AcDbLine
 10
1060.037625756946
 20
38.42126085195559
 30
0.0
 11
953.5376257569462
 21
38.42126085195559
 31
0.0
  0
LINE
  5
5505
330
2
100
AcDbEntity
  8
4
100
AcDbLine
 10
939.2376247569462
 20
67.0998298519562
 30
0.0
 11
935.1376261414382
 21
94.92126057505743
 31
0.0
  0
LINE
  5
5506
330
2
100
AcDbEntity
  8
4
100
AcDbLine
 10
951.0376237569465
 20
43.92125985195571
 30
0.0
 11
940.2376237569463
 21
43.92125985195571
 31
0.0
  0
LINE
  5
5507
330
2
100
AcDbEntity
  8
4
100
AcDbLine
 10
939.2376247569462
 20
44.92125885195583
 30
0.0
 11
939.2376247569462
 21
59.92125885195583
 31
0.0
  0
ARC
  5
5508
330
2
100
AcDbEntity
  8
4
100
AcDbCircle
 10
940.2376237569463
 20
44.92125885195583
 30
0.0
 40
0.999999
100
AcDbArc
 50
180.0
 51
270.0
  0
LINE
  5
5509
330
2
100
AcDbEntity
  8
4
100
AcDbLine
 10
953.5376257569462
 20
41.92125885195583
 30
0.0
 11
951.0376237569465
 21
41.92125885195583
 31
0.0
  0
LINE
  5
550A
330
2
100
AcDbEntity
  8
4
100
AcDbLine
 10
925.1376247569463
 20
96.9212608519556
 30
0.0
 11
935.1376261414382
 21
94.92126057505743
 31
0.0
  0
ARC
  5
550B
330
2
100
AcDbEntity
  8
4
100
AcDbCircle
 10
1114.037625756946
 20
73.92125985195571
 30
0.0
 40
3.0
100
AcDbArc
 50
0.0
 51
90.0
  0
ARC
  5
550C
330
2
100
AcDbEntity
  8
4
100
AcDbCircle
 10
1114.037625756946
 20
54.92126085195559
 30
0.0
 40
3.0
100
AcDbArc
 50
270.0
 51
0.0
  0
LINE
  5
550D
330
2
100
AcDbEntity
  8
4
100
AcDbLine
 10
1060.037625756946
 20
26.92125885195583
 30
0.0
 11
1125.037623756946
 21
26.92125885195583
 31
0.0
  0
LINE
  5
550E
330
2
100
AcDbEntity
  8
4
100
AcDbLine
 10
1047.037623756946
 20
51.92126085195559
 30
0.0
 11
1114.037625756946
 21
51.92126085195559
 31
0.0
  0
LINE
  5
550F
330
2
100
AcDbEntity
  8
4
100
AcDbLine
 10
1060.037625756946
 20
26.92125885195583
 30
0.0
 11
1060.037625756946
 21
49.92125985195571
 31
0.0
  0
ARC
  5
5510
330
2
100
AcDbEntity
  8
4
100
AcDbCircle
 10
1042.037625756946
 20
40.42125885195583
 30
0.0
 40
2.000001
100
AcDbArc
 50
270.0
 51
0.0
  0
ARC
  5
5511
330
2
100
AcDbEntity
  8
4
100
AcDbCircle
 10
1047.037623756946
 20
54.92126085195559
 30
0.0
 40
3.0
100
AcDbArc
 50
180.0
 51
270.0
  0
ARC
  5
5512
330
2
100
AcDbEntity
  8
4
100
AcDbCircle
 10
1062.037623756946
 20
49.92125985195571
 30
0.0
 40
2.000001
100
AcDbArc
 50
90.0
 51
180.0
  0
LINE
  5
5513
330
2
100
AcDbEntity
  8
L-CENTER
 48
4.0
100
AcDbLine
 10
1085.037624756946
 20
14.92125885195583
 30
0.0
 11
1085.037624756946
 21
63.92126085195559
 31
0.0
  0
LINE
  5
5514
330
2
100
AcDbEntity
  8
4
100
AcDbLine
 10
1114.037625756946
 20
76.92125985195571
 30
0.0
 11
1047.037623756946
 21
76.92125985195571
 31
0.0
  0
ARC
  5
5515
330
2
100
AcDbEntity
  8
4
100
AcDbCircle
 10
1047.037623756946
 20
73.92125985195571
 30
0.0
 40
3.0
100
AcDbArc
 50
90.0
 51
180.0
  0
LINE
  5
5516
330
2
100
AcDbEntity
  8
4
100
AcDbLine
 10
1117.037625756946
 20
54.92126085195559
 30
0.0
 11
1117.037625756946
 21
116.9212588519558
 31
0.0
  0
LINE
  5
5517
330
2
100
AcDbEntity
  8
4
100
AcDbLine
 10
1125.037623756946
 20
116.9212588519558
 30
0.0
 11
1125.037623756946
 21
26.92125885195583
 31
0.0
  0
ARC
  5
5518
330
2
100
AcDbEntity
  8
4
100
AcDbCircle
 10
1130.037624756946
 20
31.92125985195571
 30
0.0
 40
5.000000999999999
100
AcDbArc
 50
90.0
 51
180.0
  0
LINE
  5
5519
330
2
100
AcDbEntity
  8
4
100
AcDbLine
 10
1137.537624756946
 20
36.92126085195559
 30
0.0
 11
1137.537624756946
 21
33.92126085195559
 31
0.0
  0
ARC
  5
551A
330
2
100
AcDbEntity
  8
4
100
AcDbCircle
 10
1128.037623756946
 20
73.92125985195571
 30
0.0
 40
3.0
100
AcDbArc
 50
90.0
 51
180.0
  0
LINE
  5
551B
330
2
100
AcDbEntity
  8
4
100
AcDbLine
 10
1243.037625756946
 20
54.92126085195559
 30
0.0
 11
1243.037625756946
 21
116.9212588519558
 31
0.0
  0
LINE
  5
551C
330
2
100
AcDbEntity
  8
4
100
AcDbLine
 10
1235.037624756946
 20
116.9212588519558
 30
0.0
 11
1235.037624756946
 21
26.92125885195583
 31
0.0
  0
LINE
  5
551D
330
2
100
AcDbEntity
  8
4
100
AcDbLine
 10
1246.037625756946
 20
51.92126085195559
 30
0.0
 11
1298.037624756946
 21
51.92126085195559
 31
0.0
  0
LINE
  5
551E
330
2
100
AcDbEntity
  8
4
100
AcDbLine
 10
1300.037625756946
 20
26.92125885195583
 30
0.0
 11
1235.037624756946
 21
26.92125885195583
 31
0.0
  0
ARC
  5
551F
330
2
100
AcDbEntity
  8
4
100
AcDbCircle
 10
1230.037623756946
 20
31.92125985195571
 30
0.0
 40
5.000000999999999
100
AcDbArc
 50
0.0
 51
90.0
  0
LINE
  5
5520
330
2
100
AcDbEntity
  8
4
100
AcDbLine
 10
1222.537623756946
 20
36.92126085195559
 30
0.0
 11
1222.537623756946
 21
33.92126085195559
 31
0.0
  0
ARC
  5
5521
330
2
100
AcDbEntity
  8
4
100
AcDbCircle
 10
1246.037625756946
 20
54.92126085195559
 30
0.0
 40
3.0
100
AcDbArc
 50
180.0
 51
270.0
  0
LINE
  5
5522
330
2
100
AcDbEntity
  8
4
100
AcDbLine
 10
1282.537623756946
 20
26.92125885195583
 30
0.0
 11
1282.537623756946
 21
51.92126085195559
 31
0.0
  0
LINE
  5
5523
330
2
100
AcDbEntity
  8
4
100
AcDbLine
 10
1267.537623756946
 20
26.92125885195583
 30
0.0
 11
1267.537623756946
 21
51.92126085195559
 31
0.0
  0
LINE
  5
5524
330
2
100
AcDbEntity
  8
L-CENTER
 48
4.0
100
AcDbLine
 10
1275.037623756946
 20
14.92125885195583
 30
0.0
 11
1275.037623756946
 21
63.92126085195559
 31
0.0
  0
LINE
  5
5525
330
2
100
AcDbEntity
  8
4
100
AcDbLine
 10
1300.037625756946
 20
26.92125885195583
 30
0.0
 11
1300.037625756946
 21
49.92125985195571
 31
0.0
  0
ARC
  5
5526
330
2
100
AcDbEntity
  8
4
100
AcDbCircle
 10
1298.037624756946
 20
49.92125985195571
 30
0.0
 40
2.000001
100
AcDbArc
 50
0.0
 51
90.0
  0
LINE
  5
5527
330
2
100
AcDbEntity
  8
4
100
AcDbLine
 10
1246.037625756946
 20
76.92125985195571
 30
0.0
 11
1296.037623756946
 21
76.92125985195571
 31
0.0
  0
ARC
  5
5528
330
2
100
AcDbEntity
  8
4
100
AcDbCircle
 10
1232.037624756946
 20
73.92125985195571
 30
0.0
 40
3.0
100
AcDbArc
 50
0.0
 51
90.0
  0
ARC
  5
5529
330
2
100
AcDbEntity
  8
4
100
AcDbCircle
 10
1246.037625756946
 20
73.92125985195571
 30
0.0
 40
3.0
100
AcDbArc
 50
90.0
 51
180.0
  0
LINE
  5
552A
330
2
100
AcDbEntity
  8
4
100
AcDbLine
 10
1296.037623756946
 20
76.92125985195571
 30
0.0
 11
1298.537625756946
 21
76.92125985195571
 31
0.0
  0
LINE
  5
552B
330
2
100
AcDbEntity
  8
4
100
AcDbLine
 10
1299.037623756946
 20
209.9212588519558
 30
0.0
 11
1180.037625756946
 21
209.9212588519558
 31
0.0
  0
LINE
  5
552C
330
2
100
AcDbEntity
  8
4
100
AcDbLine
 10
1180.037625756946
 20
212.9212588519558
 30
0.0
 11
1225.037379756946
 21
212.9212588519558
 31
0.0
  0
LINE
  5
552D
330
2
100
AcDbEntity
  8
4
100
AcDbLine
 10
1300.037625756946
 20
196.9212598519557
 30
0.0
 11
1180.037625756946
 21
196.9212598519557
 31
0.0
  0
LINE
  5
552E
330
2
100
AcDbEntity
  8
4
100
AcDbLine
 10
1204.037625756946
 20
186.9212608519556
 30
0.0
 11
1298.537625756947
 21
186.9212608519556
 31
0.0
  0
LINE
  5
552F
330
2
100
AcDbEntity
  8
L-CENTER
 48
4.0
100
AcDbLine
 10
950.6282908418564
 20
221.9212588519558
 30
0.0
 11
1049.446960672036
 21
221.9212588519558
 31
0.0
  0
ARC
  5
5530
330
2
100
AcDbEntity
  8
4
100
AcDbCircle
 10
1000.037625756946
 20
65.92101585195542
 30
0.0
 40
199.999953
100
AcDbArc
 50
79.05220200000008
 51
100.948443
  0
ARC
  5
5531
330
2
100
AcDbEntity
  8
4
100
AcDbCircle
 10
1000.037379756946
 20
377.9215048519559
 30
0.0
 40
199.99998
100
AcDbArc
 50
259.052489
 51
280.9484429999999
  0
ARC
  5
5532
330
2
100
AcDbEntity
  8
4
100
AcDbCircle
 10
1156.037625756946
 20
221.9212588519558
 30
0.0
 40
199.999905
100
AcDbArc
 50
169.052339
 51
190.948443
  0
LINE
  5
5533
330
2
100
AcDbEntity
  8
4
100
AcDbLine
 10
925.1376247569463
 20
166.9212598519557
 30
0.0
 11
935.1376237569459
 21
168.921259651956
 31
0.0
  0
LINE
  5
5534
330
2
100
AcDbEntity
  8
4
100
AcDbLine
 10
935.1376237569459
 20
168.9212455669447
 30
0.0
 11
939.2376247569462
 21
196.7426878519555
 31
0.0
  0
ARC
  5
5535
330
2
100
AcDbEntity
  8
4
100
AcDbCircle
 10
962.6230747569464
 20
184.506953851956
 30
0.0
 40
2.999904
100
AcDbArc
 50
190.9450550000013
 51
259.0503699999996
  0
LINE
  5
5536
330
2
100
AcDbEntity
  8
L-CENTER
 48
4.0
100
AcDbLine
 10
927.6233187467026
 20
202.5023306988428
 30
0.0
 11
960.6718652651809
 21
202.5023306988428
 31
0.0
  0
LINE
  5
5537
330
2
100
AcDbEntity
  8
4
100
AcDbLine
 10
951.0376237569465
 20
219.9212608519556
 30
0.0
 11
940.2376237569463
 21
219.9212608519556
 31
0.0
  0
ARC
  5
5538
330
2
100
AcDbEntity
  8
4
100
AcDbCircle
 10
940.2376237569463
 20
218.9212588519558
 30
0.0
 40
0.999999
100
AcDbArc
 50
90.0
 51
180.0
  0
LINE
  5
5539
330
2
100
AcDbEntity
  8
4
100
AcDbLine
 10
953.5376257569462
 20
225.4212598519557
 30
0.0
 11
956.0376247569459
 21
225.4212598519557
 31
0.0
  0
LINE
  5
553A
330
2
100
AcDbEntity
  8
4
100
AcDbLine
 10
953.5376257569462
 20
221.9212588519558
 30
0.0
 11
951.0376237569465
 21
221.9212588519558
 31
0.0
  0
ARC
  5
553B
330
2
100
AcDbEntity
  8
4
100
AcDbCircle
 10
962.6230747569464
 20
259.3355668519553
 30
0.0
 40
2.999904
100
AcDbArc
 50
100.9496270000036
 51
169.0549270000055
  0
ARC
  5
553C
330
2
100
AcDbEntity
  8
4
100
AcDbCircle
 10
1000.037625756946
 20
221.9212588519558
 30
0.0
 40
11.499999
100
AcDbArc
 50
107.718932
 51
72.28106800000003
  0
LINE
  5
553D
330
2
100
AcDbEntity
  8
4
100
AcDbLine
 10
1003.537623756946
 20
236.4212608519556
 30
0.0
 11
1003.537623756946
 21
229.4212588519558
 31
0.0
  0
LINE
  5
553E
330
2
100
AcDbEntity
  8
4
100
AcDbLine
 10
996.5376247569459
 20
236.4212608519556
 30
0.0
 11
996.5376247569459
 21
229.4212588519558
 31
0.0
  0
LINE
  5
553F
330
2
100
AcDbEntity
  8
4
100
AcDbLine
 10
996.5376247569459
 20
229.4212588519558
 30
0.0
 11
1003.537623756946
 21
229.4212588519558
 31
0.0
  0
LINE
  5
5540
330
2
100
AcDbEntity
  8
4
100
AcDbLine
 10
996.5376247569459
 20
236.4212608519556
 30
0.0
 11
1003.537623756946
 21
236.4212608519556
 31
0.0
  0
LINE
  5
5541
330
2
100
AcDbEntity
  8
4
100
AcDbLine
 10
1155.037623756946
 20
326.9212588519558
 30
0.0
 11
1155.037623756946
 21
241.9212598519557
 31
0.0
  0
LINE
  5
5542
330
2
100
AcDbEntity
  8
4
100
AcDbLine
 10
1201.537629756946
 20
325.9212598519557
 30
0.0
 11
1201.537629756946
 21
236.9212588519558
 31
0.0
  0
LINE
  5
5543
330
2
100
AcDbEntity
  8
4
100
AcDbLine
 10
1158.537630756946
 20
325.9212598519557
 30
0.0
 11
1158.537630756946
 21
236.9212588519558
 31
0.0
  0
LINE
  5
5544
330
2
100
AcDbEntity
  8
4
100
AcDbLine
 10
1060.037625756946
 20
196.9212598519557
 30
0.0
 11
1180.037625756946
 21
196.9212598519557
 31
0.0
  0
LINE
  5
5545
330
2
100
AcDbEntity
  8
4
100
AcDbLine
 10
1061.037624756946
 20
209.9212588519558
 30
0.0
 11
1180.037625756946
 21
209.9212588519558
 31
0.0
  0
LINE
  5
5546
330
2
100
AcDbEntity
  8
4
100
AcDbLine
 10
1047.037623756946
 20
186.9212608519556
 30
0.0
 11
1156.037625756946
 21
186.9212608519556
 31
0.0
  0
LINE
  5
5547
330
2
100
AcDbEntity
  8
4
100
AcDbLine
 10
1060.037625756946
 20
196.9212598519557
 30
0.0
 11
1180.037625756946
 21
196.9212598519557
 31
0.0
  0
LINE
  5
5548
330
2
100
AcDbEntity
  8
4
100
AcDbLine
 10
1060.037625756946
 20
208.9212598519557
 30
0.0
 11
1060.037625756946
 21
196.9212598519557
 31
0.0
  0
LINE
  5
5549
330
2
100
AcDbEntity
  8
L-CENTER
 48
4.0
100
AcDbLine
 10
1070.037624756946
 20
182.5627135168147
 30
0.0
 11
1070.037624756946
 21
222.8974321364894
 31
0.0
  0
ARC
  5
554A
330
2
100
AcDbEntity
  8
4
100
AcDbCircle
 10
844.0376257569462
 20
221.9212588519558
 30
0.0
 40
199.999956
100
AcDbArc
 50
349.0522700000001
 51
10.94815499999996
  0
ARC
  5
554B
330
2
100
AcDbEntity
  8
4
100
AcDbCircle
 10
1037.452176756946
 20
184.506953851956
 30
0.0
 40
2.999904
100
AcDbArc
 50
280.9496300000004
 51
349.0549449999991
  0
LINE
  5
554C
330
2
100
AcDbEntity
  8
4
100
AcDbLine
 10
1060.037625756946
 20
189.9212608519556
 30
0.0
 11
1060.037625756946
 21
196.9212598519557
 31
0.0
  0
ARC
  5
554D
330
2
100
AcDbEntity
  8
4
100
AcDbCircle
 10
1047.037623756946
 20
189.9212608519556
 30
0.0
 40
3.0
100
AcDbArc
 50
180.0
 51
270.0
  0
ARC
  5
554E
330
2
100
AcDbEntity
  8
4
100
AcDbCircle
 10
1057.037625756946
 20
189.9212608519556
 30
0.0
 40
3.0
100
AcDbArc
 50
270.0
 51
0.0
  0
LINE
  5
554F
330
2
100
AcDbEntity
  8
4
100
AcDbLine
 10
1064.037624756946
 20
186.9212608519556
 30
0.0
 11
1063.037625756946
 21
186.9212608519556
 31
0.0
  0
ARC
  5
5550
330
2
100
AcDbEntity
  8
4
100
AcDbCircle
 10
1061.037624756946
 20
208.9212598519557
 30
0.0
 40
0.999999
100
AcDbArc
 50
90.0
 51
180.0
  0
ARC
  5
5551
330
2
100
AcDbEntity
  8
4
100
AcDbCircle
 10
1037.452176756946
 20
259.3355668519553
 30
0.0
 40
2.999904
100
AcDbArc
 50
10.94507300000096
 51
79.0503729999964
  0
LINE
  5
5552
330
2
100
AcDbEntity
  8
L-CENTER
 48
4.0
100
AcDbLine
 10
1125.037869756946
 20
182.5627135168147
 30
0.0
 11
1125.037869756946
 21
222.8974321364894
 31
0.0
  0
LINE
  5
5553
330
2
100
AcDbEntity
  8
4
100
AcDbLine
 10
1163.037624756946
 20
206.4212608519556
 30
0.0
 11
1197.037623756946
 21
206.4212608519556
 31
0.0
  0
LINE
  5
5554
330
2
100
AcDbEntity
  8
4
100
AcDbLine
 10
1163.037624756946
 20
202.4212588519558
 30
0.0
 11
1197.037623756946
 21
202.4212588519558
 31
0.0
  0
LINE
  5
5555
330
2
100
AcDbEntity
  8
4
100
AcDbLine
 10
1163.037624756946
 20
199.4212588519558
 30
0.0
 11
1197.037623756946
 21
199.4212588519558
 31
0.0
  0
LINE
  5
5556
330
2
100
AcDbEntity
  8
4
100
AcDbLine
 10
1164.037623756946
 20
196.9212598519557
 30
0.0
 11
1196.037624756946
 21
196.9212598519557
 31
0.0
  0
LINE
  5
5557
330
2
100
AcDbEntity
  8
4
100
AcDbLine
 10
1156.037625756946
 20
171.9212608519556
 30
0.0
 11
1156.037625756946
 21
196.9212598519557
 31
0.0
  0
LINE
  5
5558
330
2
100
AcDbEntity
  8
4
100
AcDbLine
 10
1164.037623756946
 20
196.9212598519557
 30
0.0
 11
1164.037623756946
 21
199.4212588519558
 31
0.0
  0
LINE
  5
5559
330
2
100
AcDbEntity
  8
4
100
AcDbLine
 10
1163.037624756946
 20
199.4212588519558
 30
0.0
 11
1163.037624756946
 21
206.4212608519556
 31
0.0
  0
LINE
  5
555A
330
2
100
AcDbEntity
  8
4
100
AcDbLine
 10
1204.037625756946
 20
171.9212608519556
 30
0.0
 11
1204.037625756946
 21
196.9212598519557
 31
0.0
  0
LINE
  5
555B
330
2
100
AcDbEntity
  8
4
100
AcDbLine
 10
1171.537623756946
 20
202.4212588519558
 30
0.0
 11
1171.537623756946
 21
206.4212608519556
 31
0.0
  0
LINE
  5
555C
330
2
100
AcDbEntity
  8
4
100
AcDbLine
 10
1188.537624756946
 20
202.4212588519558
 30
0.0
 11
1188.537624756946
 21
206.4212608519556
 31
0.0
  0
LINE
  5
555D
330
2
100
AcDbEntity
  8
4
100
AcDbLine
 10
1196.037624756946
 20
196.9212598519557
 30
0.0
 11
1196.037624756946
 21
199.4212588519558
 31
0.0
  0
LINE
  5
555E
330
2
100
AcDbEntity
  8
4
100
AcDbLine
 10
1197.037623756946
 20
206.4212608519556
 30
0.0
 11
1197.037623756946
 21
199.4212588519558
 31
0.0
  0
LINE
  5
555F
330
2
100
AcDbEntity
  8
4
100
AcDbLine
 10
1157.537631756946
 20
236.9212588519558
 30
0.0
 11
1202.537619756946
 21
236.9212588519558
 31
0.0
  0
LINE
  5
5560
330
2
100
AcDbEntity
  8
4
100
AcDbLine
 10
1180.037625756946
 20
212.9212588519558
 30
0.0
 11
1135.037868756946
 21
212.9212588519558
 31
0.0
  0
LINE
  5
5561
330
2
100
AcDbEntity
  8
4
100
AcDbLine
 10
1180.037625756946
 20
213.9212608519556
 30
0.0
 11
1146.037623756946
 21
213.9212608519556
 31
0.0
  0
LINE
  5
5562
330
2
100
AcDbEntity
  8
4
100
AcDbLine
 10
1133.162868756946
 20
209.9212588519558
 30
0.0
 11
1135.037868756946
 21
212.9212588519558
 31
0.0
  0
LINE
  5
5563
330
2
100
AcDbEntity
  8
4
100
AcDbLine
 10
1157.537631756946
 20
236.9212588519558
 30
0.0
 11
1157.537631756946
 21
213.9212608519556
 31
0.0
  0
LINE
  5
5564
330
2
100
AcDbEntity
  8
4
100
AcDbLine
 10
1146.037623756946
 20
213.9212608519556
 30
0.0
 11
1146.037623756946
 21
212.9212588519558
 31
0.0
  0
LINE
  5
5565
330
2
100
AcDbEntity
  8
4
100
AcDbLine
 10
1155.037623756946
 20
241.9212598519557
 30
0.0
 11
1158.537630756946
 21
241.9212598519557
 31
0.0
  0
LINE
  5
5566
330
2
100
AcDbEntity
  8
4
100
AcDbLine
 10
1180.037625756946
 20
213.9212608519556
 30
0.0
 11
1214.037624756946
 21
213.9212608519556
 31
0.0
  0
LINE
  5
5567
330
2
100
AcDbEntity
  8
4
100
AcDbLine
 10
1180.037631756946
 20
241.9212598519557
 30
0.0
 11
1180.037631756946
 21
241.9212598519557
 31
0.0
  0
LINE
  5
5568
330
2
100
AcDbEntity
  8
4
100
AcDbLine
 10
1202.537619756946
 20
236.9212588519558
 30
0.0
 11
1202.537619756946
 21
213.9212608519556
 31
0.0
  0
LINE
  5
5569
330
2
100
AcDbEntity
  8
4
100
AcDbLine
 10
1214.037624756946
 20
213.9212608519556
 30
0.0
 11
1214.037624756946
 21
212.9212588519558
 31
0.0
  0
LINE
  5
556A
330
2
100
AcDbEntity
  8
4
100
AcDbLine
 10
1158.537630756946
 20
325.9212598519557
 30
0.0
 11
1201.537629756946
 21
325.9212598519557
 31
0.0
  0
LINE
  5
556B
330
2
100
AcDbEntity
  8
4
100
AcDbLine
 10
1155.037623756946
 20
326.9212588519558
 30
0.0
 11
1200.537630756946
 21
326.9212588519558
 31
0.0
  0
LINE
  5
556C
330
2
100
AcDbEntity
  8
4
100
AcDbLine
 10
1159.537629756946
 20
326.9212588519558
 30
0.0
 11
1158.537630756946
 21
325.9212598519557
 31
0.0
  0
LINE
  5
556D
330
2
100
AcDbEntity
  8
4
100
AcDbLine
 10
1200.537630756946
 20
326.9212588519558
 30
0.0
 11
1201.537629756946
 21
325.9212598519557
 31
0.0
  0
LINE
  5
556E
330
2
100
AcDbEntity
  8
4
100
AcDbLine
 10
1300.037625756946
 20
208.9212598519557
 30
0.0
 11
1300.037625756946
 21
196.9212598519557
 31
0.0
  0
LINE
  5
556F
330
2
100
AcDbEntity
  8
4
100
AcDbLine
 10
1226.912379756946
 20
209.9212588519558
 30
0.0
 11
1225.037379756946
 21
212.9212588519558
 31
0.0
  0
ARC
  5
5570
330
2
100
AcDbEntity
  8
4
100
AcDbCircle
 10
1299.037623756946
 20
208.9212598519557
 30
0.0
 40
0.999999
100
AcDbArc
 50
0.0
 51
90.0
  0
TEXT
  5
55F3
330
2
100
AcDbEntity
  8
3
100
AcDbText
 10
748.9668362377893
 20
19.98335957211725
 30
0.0
 40
12.0
  1
LEC3-04
  7
KANJI
 72
     1
 11
787.9668362377893
 21
19.98335957211725
 31
0.0
100
AcDbText
  0
CIRCLE
  5
5630
330
2
100
AcDbEntity
  8
4
100
AcDbCircle
 10
521.7617454872575
 20
131.9212588519558
 30
0.0
 40
25.0
  0
LINE
  5
5631
330
2
100
AcDbEntity
  8
4
100
AcDbLine
 10
924.1376247569463
 20
156.9212588519558
 30
0.0
 11
925.1376247569463
 21
156.9212588519558
 31
0.0
  0
LINE
  5
5632
330
2
100
AcDbEntity
  8
4
100
AcDbLine
 10
924.1376247569463
 20
106.9212588519558
 30
0.0
 11
925.1376247569463
 21
106.9212588519558
 31
0.0
  0
LINE
  5
5633
330
2
100
AcDbEntity
  8
4
100
AcDbLine
 10
924.1376247569463
 20
106.9212588519558
 30
0.0
 11
924.1376247569463
 21
156.9212588519558
 31
0.0
  0
LINE
  5
5634
330
2
100
AcDbEntity
  8
4
100
AcDbLine
 10
935.1376237569459
 20
136.9212588519558
 30
0.0
 11
935.1376237569459
 21
168.9212455669447
 31
0.0
  0
LINE
  5
5641
330
2
100
AcDbEntity
  8
4
100
AcDbLine
 10
533.7617454872575
 20
1038.286880494104
 30
0.0
 11
576.7617454872577
 21
1038.286880494104
 31
0.0
  0
LINE
  5
5642
330
2
100
AcDbEntity
  8
4
100
AcDbLine
 10
539.7617454872575
 20
1041.286880494103
 30
0.0
 11
612.7617454872577
 21
1041.286880494104
 31
0.0
  0
ARC
  5
5643
330
2
100
AcDbEntity
  8
4
100
AcDbCircle
 10
549.7617454872577
 20
845.2868804941038
 30
0.0
 40
100.0
100
AcDbArc
 50
78.64336574316225
 51
102.5999628407032
  0
LINE
  5
5644
330
2
100
AcDbEntity
  8
4
100
AcDbLine
 10
466.7617454872573
 20
1039.786880494104
 30
0.0
 11
576.7617454872577
 21
1039.786880494104
 31
0.0
  0
ARC
  5
5645
330
2
100
AcDbEntity
  8
4
100
AcDbCircle
 10
549.7617454872577
 20
997.2868804941038
 30
0.0
 40
100.0
100
AcDbArc
 50
257.4000371592968
 51
281.3566342568378
  0
LINE
  5
5646
330
2
100
AcDbEntity
  8
4
100
AcDbLine
 10
421.7617454872575
 20
785.2868804941038
 30
0.0
 11
621.7617454872577
 21
785.2868804941038
 31
0.0
  0
LINE
  5
5647
330
2
100
AcDbEntity
  8
4
100
AcDbLine
 10
431.7617454872573
 20
692.2868804941038
 30
0.0
 11
611.7617454872577
 21
692.2868804941038
 31
0.0
  0
LINE
  5
5648
330
2
100
AcDbEntity
  8
4
100
AcDbLine
 10
428.2617454872575
 20
694.7868804941038
 30
0.0
 11
615.2617454872577
 21
694.7868804941038
 31
0.0
  0
LINE
  5
5649
330
2
100
AcDbEntity
  8
4
100
AcDbLine
 10
421.7617454872575
 20
697.2868804941038
 30
0.0
 11
621.7617454872577
 21
697.2868804941038
 31
0.0
  0
LINE
  5
564A
330
2
100
AcDbEntity
  8
L-CENTER
 48
4.0
100
AcDbLine
 10
586.0745077375302
 20
921.2868804941038
 30
0.0
 11
273.9015109516854
 21
921.2868804941038
 31
0.0
  0
LINE
  5
564B
330
2
100
AcDbEntity
  8
4
  6
CENTER
 62
     1
 48
4.0
100
AcDbLine
 10
706.074404210292
 20
741.2868804941038
 30
0.0
 11
337.4490867642228
 21
741.2868804941038
 31
0.0
  0
ARC
  5
564C
330
2
100
AcDbEntity
  8
4
100
AcDbCircle
 10
609.7617454872577
 20
798.2868804941038
 30
0.0
 40
3.0
100
AcDbArc
 50
90.0
 51
180.0
  0
LINE
  5
564D
330
2
100
AcDbEntity
  8
4
100
AcDbLine
 10
576.7617454872577
 20
1039.786880494104
 30
0.0
 11
576.7617454872577
 21
788.2868804941038
 31
0.0
  0
LINE
  5
564E
330
2
100
AcDbEntity
  8
4
100
AcDbLine
 10
621.7617454872577
 20
785.2868804941038
 30
0.0
 11
621.7617454872577
 21
697.2868804941038
 31
0.0
  0
LINE
  5
564F
330
2
100
AcDbEntity
  8
4
100
AcDbLine
 10
611.7617454872577
 20
694.7868804941038
 30
0.0
 11
611.7617454872577
 21
692.2868804941038
 31
0.0
  0
LINE
  5
5650
330
2
100
AcDbEntity
  8
4
100
AcDbLine
 10
615.2617454872577
 20
697.2868804941038
 30
0.0
 11
615.2617454872577
 21
694.7868804941038
 31
0.0
  0
ARC
  5
5651
330
2
100
AcDbEntity
  8
4
100
AcDbCircle
 10
579.7617454872577
 20
788.2868804941038
 30
0.0
 40
3.0
100
AcDbArc
 50
180.0
 51
270.0
  0
ARC
  5
5652
330
2
100
AcDbEntity
  8
4
100
AcDbCircle
 10
609.7617454872577
 20
788.2868804941038
 30
0.0
 40
3.0
100
AcDbArc
 50
180.0
 51
270.0
  0
LINE
  5
5653
330
2
100
AcDbEntity
  8
4
100
AcDbLine
 10
606.7617454872577
 20
798.2868804941038
 30
0.0
 11
606.7617454872577
 21
788.2868804941038
 31
0.0
  0
LINE
  5
5654
330
2
100
AcDbEntity
  8
4
100
AcDbLine
 10
616.7617454872577
 20
1037.286880494104
 30
0.0
 11
616.7617454872577
 21
980.2868804941038
 31
0.0
  0
LINE
  5
5655
330
2
100
AcDbEntity
  8
4
100
AcDbLine
 10
579.7617454872577
 20
866.2868804941038
 30
0.0
 11
612.7617454872577
 21
866.2868804941038
 31
0.0
  0
LINE
  5
5656
330
2
100
AcDbEntity
  8
4
100
AcDbLine
 10
609.7617454872577
 20
801.2868804941038
 30
0.0
 11
612.7617454872577
 21
801.2868804941038
 31
0.0
  0
LINE
  5
5657
330
2
100
AcDbEntity
  8
4
100
AcDbLine
 10
616.7617454872577
 20
862.2868804941038
 30
0.0
 11
616.7617454872577
 21
805.2868804941038
 31
0.0
  0
ARC
  5
5658
330
2
100
AcDbEntity
  8
4
100
AcDbCircle
 10
612.7617454872577
 20
805.2868804941038
 30
0.0
 40
4.0
100
AcDbArc
 50
270.0
 51
0.0
  0
ARC
  5
5659
330
2
100
AcDbEntity
  8
4
100
AcDbCircle
 10
612.7617454872577
 20
862.2868804941038
 30
0.0
 40
4.0
100
AcDbArc
 50
0.0
 51
90.0
  0
LINE
  5
565A
330
2
100
AcDbEntity
  8
L-CENTER
 48
4.0
100
AcDbLine
 10
591.7617454872577
 20
810.3914695577259
 30
0.0
 11
591.7617454872577
 21
842.1822914304817
 31
0.0
  0
LINE
  5
565B
330
2
100
AcDbEntity
  8
L-CENTER
 48
4.0
100
AcDbLine
 10
575.8663345508799
 20
826.2868804941038
 30
0.0
 11
607.6571564236356
 21
826.2868804941038
 31
0.0
  0
CIRCLE
  5
565C
330
2
100
AcDbEntity
  8
4
100
AcDbCircle
 10
591.7617454872577
 20
826.2868804941038
 30
0.0
 40
7.5
  0
ARC
  5
565D
330
2
100
AcDbEntity
  8
4
100
AcDbCircle
 10
579.7617454872577
 20
869.2868804941038
 30
0.0
 40
3.0
100
AcDbArc
 50
180.0
 51
270.0
  0
LINE
  5
565E
330
2
100
AcDbEntity
  8
4
100
AcDbLine
 10
576.7617454872577
 20
872.6631888635941
 30
0.0
 11
576.7617454872577
 21
869.2868804941038
 31
0.0
  0
LINE
  5
565F
330
2
100
AcDbEntity
  8
4
100
AcDbLine
 10
579.7617454872577
 20
976.2868804941038
 30
0.0
 11
612.7617454872577
 21
976.2868804941038
 31
0.0
  0
ARC
  5
5660
330
2
100
AcDbEntity
  8
4
100
AcDbCircle
 10
612.7617454872577
 20
980.2868804941038
 30
0.0
 40
4.0
100
AcDbArc
 50
270.0
 51
0.0
  0
ARC
  5
5661
330
2
100
AcDbEntity
  8
4
100
AcDbCircle
 10
568.8625335728873
 20
940.3876685797334
 30
0.0
 40
3.0
100
AcDbArc
 50
11.35663425683976
 51
78.64336574316026
  0
ARC
  5
5662
330
2
100
AcDbEntity
  8
4
100
AcDbCircle
 10
568.8625335728873
 20
902.1860924084733
 30
0.0
 40
3.0
100
AcDbArc
 50
281.3566342568398
 51
348.6433657431602
  0
ARC
  5
5663
330
2
100
AcDbEntity
  8
4
100
AcDbCircle
 10
473.7617454872575
 20
921.2868804941038
 30
0.0
 40
100.0
100
AcDbArc
 50
348.643365743162
 51
11.35663425683773
  0
LINE
  5
5664
330
2
100
AcDbEntity
  8
4
100
AcDbLine
 10
576.7617454872577
 20
973.2868804941038
 30
0.0
 11
576.7617454872577
 21
969.5519469916846
 31
0.0
  0
ARC
  5
5665
330
2
100
AcDbEntity
  8
4
100
AcDbCircle
 10
579.7617454872577
 20
973.2868804941038
 30
0.0
 40
3.0
100
AcDbArc
 50
90.0
 51
180.0
  0
ARC
  5
5666
330
2
100
AcDbEntity
  8
4
100
AcDbCircle
 10
612.7617454872577
 20
1037.286880494104
 30
0.0
 40
4.0
100
AcDbArc
 50
0.0
 51
90.0
  0
LINE
  5
5667
330
2
100
AcDbEntity
  8
L-CENTER
 48
4.0
100
AcDbLine
 10
591.7617454872577
 20
1032.182291430482
 30
0.0
 11
591.7617454872577
 21
1000.391469557726
 31
0.0
  0
LINE
  5
5668
330
2
100
AcDbEntity
  8
L-CENTER
 48
4.0
100
AcDbLine
 10
575.8663345508799
 20
1016.286880494104
 30
0.0
 11
607.6571564236356
 21
1016.286880494104
 31
0.0
  0
CIRCLE
  5
5669
330
2
100
AcDbEntity
  8
4
100
AcDbCircle
 10
591.7617454872577
 20
1016.286880494104
 30
0.0
 40
7.5
  0
LINE
  5
566A
330
2
100
AcDbEntity
  8
4
100
AcDbLine
 10
428.2617454872575
 20
799.6860992466129
 30
0.0
 11
428.2617454872575
 21
788.2868804941038
 31
0.0
  0
LINE
  5
566B
330
2
100
AcDbEntity
  8
L-CENTER
 48
4.0
100
AcDbLine
 10
406.7617454872575
 20
1047.06478188509
 30
0.0
 11
406.7617454872575
 21
795.5089791031171
 31
0.0
  0
LINE
  5
566C
330
2
100
AcDbEntity
  8
L-CENTER
 48
4.0
100
AcDbLine
 10
521.7617454872575
 20
1047.673449055227
 30
0.0
 11
521.7617454872573
 21
660.2149309393928
 31
0.0
  0
LINE
  5
566D
330
2
100
AcDbEntity
  8
4
100
AcDbLine
 10
421.7617454872575
 20
785.2868804941038
 30
0.0
 11
421.7617454872575
 21
697.2868804941038
 31
0.0
  0
LINE
  5
566E
330
2
100
AcDbEntity
  8
4
100
AcDbLine
 10
431.7617454872575
 20
694.7868804941038
 30
0.0
 11
431.7617454872575
 21
692.2868804941038
 31
0.0
  0
LINE
  5
566F
330
2
100
AcDbEntity
  8
4
100
AcDbLine
 10
428.2617454872575
 20
697.2868804941038
 30
0.0
 11
428.2617454872575
 21
694.7868804941038
 31
0.0
  0
ARC
  5
5670
330
2
100
AcDbEntity
  8
4
100
AcDbCircle
 10
425.2617454872575
 20
788.2868804941038
 30
0.0
 40
3.0
100
AcDbArc
 50
270.0
 51
0.0
  0
LINE
  5
5671
330
2
100
AcDbEntity
  8
4
100
AcDbLine
 10
280.7617454872575
 20
1041.286880494104
 30
0.0
 11
352.7617454872575
 21
1041.286880494104
 31
0.0
  0
LINE
  5
5672
330
2
100
AcDbEntity
  8
4
100
AcDbLine
 10
280.7617454872575
 20
801.2868804941038
 30
0.0
 11
352.761745487257
 21
801.2868804941038
 31
0.0
  0
ARC
  5
5673
330
2
100
AcDbEntity
  8
4
100
AcDbCircle
 10
527.2930568155011
 20
896.7674394422768
 30
0.0
 40
3.0
100
AcDbArc
 50
77.40003715929744
 51
168.5013380856019
  0
LINE
  5
5674
330
2
100
AcDbEntity
  8
L-CENTER
 48
4.0
100
AcDbLine
 10
549.7617454872577
 20
954.4980866294293
 30
0.0
 11
549.7617454872577
 21
888.0756743587783
 31
0.0
  0
ARC
  5
5675
330
2
100
AcDbEntity
  8
4
100
AcDbCircle
 10
527.2930568155011
 20
945.8063215459299
 30
0.0
 40
3.0
100
AcDbArc
 50
191.4986619143981
 51
282.5999628407026
  0
ARC
  5
5676
330
2
100
AcDbEntity
  8
4
100
AcDbCircle
 10
425.2617454872575
 20
799.6860992466129
 30
0.0
 40
3.0
100
AcDbArc
 50
0.0
 51
98.65048479101708
  0
ARC
  5
5677
330
2
100
AcDbEntity
  8
4
100
AcDbCircle
 10
359.7617454872575
 20
807.620702587041
 30
0.0
 40
3.0
100
AcDbArc
 50
67.53532079010523
 51
180.0
  0
ARC
  5
5678
330
2
100
AcDbEntity
  8
4
100
AcDbCircle
 10
352.761745487257
 20
805.2868804941038
 30
0.0
 40
4.0
100
AcDbArc
 50
270.0
 51
0.0
  0
LINE
  5
5679
330
2
100
AcDbEntity
  8
4
100
AcDbLine
 10
356.7617454872573
 20
807.620702587041
 30
0.0
 11
356.761745487257
 21
805.2868804941038
 31
0.0
  0
LINE
  5
567A
330
2
100
AcDbEntity
  8
4
100
AcDbLine
 10
433.4263287392043
 20
1038.286880494104
 30
0.0
 11
509.7617454872575
 21
1038.286880494104
 31
0.0
  0
ARC
  5
567B
330
2
100
AcDbEntity
  8
4
100
AcDbCircle
 10
509.7617454872575
 20
1040.286880494104
 30
0.0
 40
2.0
100
AcDbArc
 50
270.0
 51
345.5224878140702
  0
ARC
  5
567C
330
2
100
AcDbEntity
  8
4
100
AcDbCircle
 10
533.7617454872575
 20
1040.286880494104
 30
0.0
 40
2.0
100
AcDbArc
 50
194.4775121859303
 51
270.0
  0
ARC
  5
567D
330
2
100
AcDbEntity
  8
4
100
AcDbCircle
 10
539.7617454872575
 20
1038.286880494103
 30
0.0
 40
3.0
100
AcDbArc
 50
90.0
 51
123.5573097618865
  0
LINE
  5
567E
330
2
100
AcDbEntity
  8
4
100
AcDbLine
 10
466.7617454872573
 20
1039.786880494104
 30
0.0
 11
466.7617454872573
 21
1038.286880494104
 31
0.0
  0
LINE
  5
567F
330
2
100
AcDbEntity
  8
4
100
AcDbLine
 10
356.7617454872575
 20
1037.286880494104
 30
0.0
 11
356.7617454872575
 21
1034.953058401166
 31
0.0
  0
ARC
  5
5680
330
2
100
AcDbEntity
  8
4
100
AcDbCircle
 10
352.7617454872575
 20
1037.286880494104
 30
0.0
 40
4.0
100
AcDbArc
 50
0.0
 51
90.0
  0
ARC
  5
5681
330
2
100
AcDbEntity
  8
4
100
AcDbCircle
 10
359.7617454872575
 20
1034.953058401166
 30
0.0
 40
3.0
100
AcDbArc
 50
180.0
 51
292.4646792099064
  0
LINE
  5
5682
330
2
100
AcDbEntity
  8
4
100
AcDbLine
 10
276.7617454872575
 20
1037.286880494104
 30
0.0
 11
276.7617454872575
 21
980.2868804941038
 31
0.0
  0
LINE
  5
5683
330
2
100
AcDbEntity
  8
4
100
AcDbLine
 10
280.7617454872575
 20
866.2868804941038
 30
0.0
 11
295.2942614392177
 21
866.2868804941038
 31
0.0
  0
CIRCLE
  5
5684
330
2
100
AcDbEntity
  8
4
100
AcDbCircle
 10
301.7617454872575
 20
826.2868804941038
 30
0.0
 40
7.5
  0
LINE
  5
5685
330
2
100
AcDbEntity
  8
L-CENTER
 48
4.0
100
AcDbLine
 10
301.7617454872575
 20
810.3914695577259
 30
0.0
 11
301.7617454872575
 21
842.1822914304817
 31
0.0
  0
LINE
  5
5686
330
2
100
AcDbEntity
  8
L-CENTER
 48
4.0
100
AcDbLine
 10
285.8663345508796
 20
826.2868804941038
 30
0.0
 11
317.6571564236353
 21
826.2868804941038
 31
0.0
  0
ARC
  5
5687
330
2
100
AcDbEntity
  8
4
100
AcDbCircle
 10
295.2942614392177
 20
869.2868804941038
 30
0.0
 40
3.0
100
AcDbArc
 50
270.0
 51
25.00922815001921
  0
LINE
  5
5688
330
2
100
AcDbEntity
  8
4
100
AcDbLine
 10
276.7617454872575
 20
862.2868804941038
 30
0.0
 11
276.7617454872575
 21
805.2868804941038
 31
0.0
  0
ARC
  5
5689
330
2
100
AcDbEntity
  8
4
100
AcDbCircle
 10
280.7617454872575
 20
805.2868804941038
 30
0.0
 40
4.0
100
AcDbArc
 50
180.0
 51
270.0
  0
ARC
  5
568A
330
2
100
AcDbEntity
  8
4
100
AcDbCircle
 10
280.7617454872575
 20
862.2868804941038
 30
0.0
 40
4.0
100
AcDbArc
 50
90.0
 51
180.0
  0
LINE
  5
568B
330
2
100
AcDbEntity
  8
4
100
AcDbLine
 10
280.7617454872575
 20
976.2868804941038
 30
0.0
 11
295.2942614392175
 21
976.2868804941038
 31
0.0
  0
ARC
  5
568C
330
2
100
AcDbEntity
  8
4
100
AcDbCircle
 10
285.5676862269133
 20
942.2868804941038
 30
0.0
 40
3.0
100
AcDbArc
 50
270.0
 51
350.1696352200362
  0
ARC
  5
568D
330
2
100
AcDbEntity
  8
4
100
AcDbCircle
 10
285.5676862269133
 20
900.2868804941038
 30
0.0
 40
3.0
100
AcDbArc
 50
9.83036477996379
 51
90.0
  0
ARC
  5
568E
330
2
100
AcDbEntity
  8
4
100
AcDbCircle
 10
295.2942614392177
 20
973.2868804941038
 30
0.0
 40
3.0
100
AcDbArc
 50
334.9907718499808
 51
90.0
  0
LINE
  5
568F
330
2
100
AcDbEntity
  8
4
100
AcDbLine
 10
281.2617454872575
 20
939.2868804941038
 30
0.0
 11
285.5676862269133
 21
939.2868804941038
 31
0.0
  0
LINE
  5
5690
330
2
100
AcDbEntity
  8
4
100
AcDbLine
 10
281.2617454872575
 20
903.2868804941038
 30
0.0
 11
285.5676862269133
 21
903.2868804941038
 31
0.0
  0
LINE
  5
5691
330
2
100
AcDbEntity
  8
4
100
AcDbLine
 10
281.2617454872575
 20
903.2868804941038
 30
0.0
 11
281.2617454872575
 21
939.2868804941038
 31
0.0
  0
ARC
  5
5692
330
2
100
AcDbEntity
  8
4
100
AcDbCircle
 10
280.7617454872575
 20
980.2868804941038
 30
0.0
 40
4.0
100
AcDbArc
 50
180.0
 51
270.0
  0
LINE
  5
5693
330
2
100
AcDbEntity
  8
L-CENTER
 48
4.0
100
AcDbLine
 10
301.7617454872575
 20
1032.182291430482
 30
0.0
 11
301.7617454872575
 21
1000.391469557726
 31
0.0
  0
CIRCLE
  5
5694
330
2
100
AcDbEntity
  8
4
100
AcDbCircle
 10
301.7617454872575
 20
1016.286880494104
 30
0.0
 40
7.5
  0
LINE
  5
5695
330
2
100
AcDbEntity
  8
L-CENTER
 48
4.0
100
AcDbLine
 10
285.8663345508796
 20
1016.286880494104
 30
0.0
 11
317.6571564236353
 21
1016.286880494104
 31
0.0
  0
ARC
  5
5696
330
2
100
AcDbEntity
  8
4
100
AcDbCircle
 10
280.7617454872575
 20
1037.286880494104
 30
0.0
 40
4.0
100
AcDbArc
 50
90.0
 51
180.0
  0
CIRCLE
  5
5697
330
2
100
AcDbEntity
  8
4
100
AcDbCircle
 10
406.7617454872575
 20
921.2868804941038
 30
0.0
 40
120.0
  0
CIRCLE
  5
5698
330
2
100
AcDbEntity
  8
4
100
AcDbCircle
 10
406.7617454872575
 20
921.2868804941043
 30
0.0
 40
100.0
  0
CIRCLE
  5
5699
330
2
100
AcDbEntity
  8
L-CENTER
 48
4.0
100
AcDbCircle
 10
406.7617454872575
 20
921.2868804941043
 30
0.0
 40
110.0
  0
ARC
  5
569A
330
2
100
AcDbEntity
  8
4
100
AcDbCircle
 10
406.7617454872575
 20
666.286880494104
 30
0.0
 40
300.0
100
AcDbArc
 50
82.67834086281708
 51
97.32165913718288
  0
ARC
  5
569B
330
2
100
AcDbEntity
  8
4
100
AcDbCircle
 10
406.7617454872575
 20
671.286880494104
 30
0.0
 40
300.0
100
AcDbArc
 50
81.81570322904957
 51
98.18429677095043
  0
ARC
  5
569C
330
2
100
AcDbEntity
  8
4
100
AcDbCircle
 10
406.7617454872575
 20
1176.286880494104
 30
0.0
 40
300.0
100
AcDbArc
 50
262.678340862817
 51
277.3216591371828
  0
ARC
  5
569D
330
2
100
AcDbEntity
  8
4
100
AcDbCircle
 10
406.7617454872575
 20
1171.286880494104
 30
0.0
 40
300.0
100
AcDbArc
 50
261.8157032290495
 51
278.1842967709505
  0
CIRCLE
  5
569E
330
2
100
AcDbEntity
  8
4
100
AcDbCircle
 10
406.7617454872575
 20
921.2868804941043
 30
0.0
 40
36.0
  0
ARC
  5
569F
330
2
100
AcDbEntity
  8
4
100
AcDbCircle
 10
656.7617454872577
 20
921.2868804941043
 30
0.0
 40
300.0
100
AcDbArc
 50
171.8157032290495
 51
188.1842967709505
  0
ARC
  5
56A0
330
2
100
AcDbEntity
  8
4
100
AcDbCircle
 10
661.7617454872577
 20
921.2868804941043
 30
0.0
 40
300.0
100
AcDbArc
 50
172.6783408628171
 51
187.3216591371829
  0
LINE
  5
56A1
330
2
100
AcDbEntity
  8
L-CENTER
 48
4.0
100
AcDbLine
 10
321.8912559163828
 20
872.2868804941038
 30
0.0
 11
301.106646225556
 21
860.2868804941033
 31
0.0
  0
ARC
  5
56A2
330
2
100
AcDbEntity
  8
4
100
AcDbCircle
 10
369.1670756762671
 20
883.6922106831132
 30
0.0
 40
5.0
100
AcDbArc
 50
187.3216591371798
 51
262.6783408628175
  0
ARC
  5
56A3
330
2
100
AcDbEntity
  8
4
100
AcDbCircle
 10
364.7662365656104
 20
879.2913715724569
 30
0.0
 40
5.0
100
AcDbArc
 50
188.1842967709536
 51
261.815703229049
  0
ARC
  5
56A4
330
2
100
AcDbEntity
  8
4
100
AcDbCircle
 10
369.1670756762671
 20
958.8815503050944
 30
0.0
 40
5.0
100
AcDbArc
 50
97.32165913718251
 51
172.6783408628149
  0
ARC
  5
56A5
330
2
100
AcDbEntity
  8
4
100
AcDbCircle
 10
364.7662365656101
 20
963.2823894157516
 30
0.0
 40
5.0
100
AcDbArc
 50
98.18429677095095
 51
171.8157032290516
  0
ARC
  5
56A6
330
2
100
AcDbEntity
  8
4
100
AcDbCircle
 10
151.7617454872575
 20
921.2868804941043
 30
0.0
 40
300.0
100
AcDbArc
 50
352.6783408628169
 51
7.321659137182868
  0
ARC
  5
56A7
330
2
100
AcDbEntity
  8
4
100
AcDbCircle
 10
156.7617454872575
 20
921.2868804941043
 30
0.0
 40
300.0
100
AcDbArc
 50
351.8157032290493
 51
8.184296770950409
  0
ARC
  5
56A8
330
2
100
AcDbEntity
  8
4
100
AcDbCircle
 10
444.3564152982481
 20
883.6922106831132
 30
0.0
 40
5.0
100
AcDbArc
 50
277.3216591371825
 51
352.6783408628202
  0
ARC
  5
56A9
330
2
100
AcDbEntity
  8
4
100
AcDbCircle
 10
448.7572544089048
 20
879.2913715724569
 30
0.0
 40
5.0
100
AcDbArc
 50
278.184296770951
 51
351.8157032290464
  0
ARC
  5
56AA
330
2
100
AcDbEntity
  8
4
100
AcDbCircle
 10
444.3564152982481
 20
958.8815503050944
 30
0.0
 40
5.0
100
AcDbArc
 50
7.321659137185064
 51
82.67834086281492
  0
ARC
  5
56AB
330
2
100
AcDbEntity
  8
4
100
AcDbCircle
 10
448.7572544089048
 20
963.2823894157516
 30
0.0
 40
5.0
100
AcDbArc
 50
8.184296770948398
 51
81.81570322904905
  0
LINE
  5
56AC
330
2
100
AcDbEntity
  8
L-CENTER
 48
4.0
100
AcDbLine
 10
311.4989520709698
 20
222.6223845456766
 30
0.0
 11
311.4989520709692
 21
184.2461429693035
 31
0.0
  0
ARC
  5
56AD
330
2
100
AcDbEntity
  8
4
100
AcDbCircle
 10
406.7617454872575
 20
921.2868804941038
 30
0.0
 40
21.500001
100
AcDbArc
 50
286.2046926022398
 51
253.7953070000001
  0
LINE
  5
56AE
330
2
100
AcDbEntity
  8
4
100
AcDbLine
 10
412.7617454872575
 20
904.2868794941039
 30
0.0
 11
400.7617454872575
 21
904.2868794941039
 31
0.0
  0
LINE
  5
56AF
330
2
100
AcDbEntity
  8
4
100
AcDbLine
 10
412.7617454872575
 20
896.2868814941037
 30
0.0
 11
412.7617454872575
 21
904.2868794941039
 31
0.0
  0
LINE
  5
56B0
330
2
100
AcDbEntity
  8
4
100
AcDbLine
 10
412.7617454872575
 20
896.2868814941037
 30
0.0
 11
400.7617454872575
 21
896.2868814941037
 31
0.0
  0
LINE
  5
56B1
330
2
100
AcDbEntity
  8
4
100
AcDbLine
 10
400.7617454872575
 20
896.2868814941037
 30
0.0
 11
400.7617454872575
 21
904.2868794941039
 31
0.0
  0
LINE
  5
56B2
330
2
100
AcDbEntity
  8
4
100
AcDbLine
 10
487.5815493899756
 20
676.2868804941038
 30
0.0
 11
555.9419415845384
 21
676.2868804941038
 31
0.0
  0
LINE
  5
56B3
330
2
100
AcDbEntity
  8
4
100
AcDbLine
 10
496.7617454872573
 20
665.2868804941036
 30
0.0
 11
546.7617454872573
 21
665.2868804941038
 31
0.0
  0
LINE
  5
56B4
330
2
100
AcDbEntity
  8
4
100
AcDbLine
 10
434.7617454872573
 20
680.3868804941037
 30
0.0
 11
608.7617454872573
 21
680.3868804941037
 31
0.0
  0
LINE
  5
56B5
330
2
100
AcDbEntity
  8
4
100
AcDbLine
 10
433.7617454872573
 20
691.8868804941037
 30
0.0
 11
609.7617454872568
 21
691.8868804941037
 31
0.0
  0
LINE
  5
56B6
330
2
100
AcDbEntity
  8
4
100
AcDbLine
 10
487.5815493899756
 20
666.2868804941038
 30
0.0
 11
555.9419415845384
 21
666.2868804941038
 31
0.0
  0
LINE
  5
56B7
330
2
100
AcDbEntity
  8
4
100
AcDbLine
 10
464.2617454872573
 20
680.3868804941035
 30
0.0
 11
476.0117469787349
 21
678.0368801958082
 31
0.0
  0
LINE
  5
56B8
330
2
100
AcDbEntity
  8
4
100
AcDbLine
 10
456.613216216874
 20
680.3868804941035
 30
0.0
 11
476.0117469787349
 21
676.5071743417304
 31
0.0
  0
LINE
  5
56B9
330
2
100
AcDbEntity
  8
4
100
AcDbLine
 10
450.7617454872573
 20
675.2868804941038
 30
0.0
 11
475.3800337716377
 21
675.2868804941038
 31
0.0
  0
ARC
  5
56BA
330
2
100
AcDbEntity
  8
4
100
AcDbCircle
 10
448.7617454872573
 20
679.3868804941037
 30
0.0
 40
1.0
100
AcDbArc
 50
0.0
 51
90.0
  0
ARC
  5
56BB
330
2
100
AcDbEntity
  8
4
100
AcDbCircle
 10
450.7617454872573
 20
676.2868804941038
 30
0.0
 40
1.0
100
AcDbArc
 50
180.0
 51
270.0
  0
LINE
  5
56BC
330
2
100
AcDbEntity
  8
4
100
AcDbLine
 10
449.7617454872573
 20
676.2868804941038
 30
0.0
 11
449.7617454872573
 21
679.3868804941037
 31
0.0
  0
ARC
  5
56BD
330
2
100
AcDbEntity
  8
4
100
AcDbCircle
 10
434.7617454872573
 20
681.3868804941037
 30
0.0
 40
1.0
100
AcDbArc
 50
180.0
 51
270.0
  0
LINE
  5
56BE
330
2
100
AcDbEntity
  8
L-CENTER
 48
4.0
100
AcDbLine
 10
463.7617454872573
 20
664.1713522720158
 30
0.0
 11
463.7617454872573
 21
686.7113273766283
 31
0.0
  0
LINE
  5
56BF
330
2
100
AcDbEntity
  8
4
100
AcDbLine
 10
433.7617454872573
 20
681.3868804941037
 30
0.0
 11
433.7617454872573
 21
691.8868804941037
 31
0.0
  0
LINE
  5
56C0
330
2
100
AcDbEntity
  8
4
100
AcDbLine
 10
496.7617454872573
 20
665.2868804941036
 30
0.0
 11
496.7617454872573
 21
666.286880494104
 31
0.0
  0
ARC
  5
56C1
330
2
100
AcDbEntity
  8
4
100
AcDbCircle
 10
487.5815493899756
 20
667.2868804941038
 30
0.0
 40
1.0
100
AcDbArc
 50
191.309932474024
 51
270.0
  0
LINE
  5
56C2
330
2
100
AcDbEntity
  8
4
100
AcDbLine
 10
486.6009687142844
 20
667.0907643589655
 30
0.0
 11
485.4417454872566
 21
672.8868804941037
 31
0.0
  0
LINE
  5
56C3
330
2
100
AcDbEntity
  8
4
100
AcDbLine
 10
579.2617454872563
 20
680.3868804941035
 30
0.0
 11
567.5117439957796
 21
678.0368801958082
 31
0.0
  0
LINE
  5
56C4
330
2
100
AcDbEntity
  8
4
100
AcDbLine
 10
586.9102747576437
 20
680.3868804941035
 30
0.0
 11
567.5117439957796
 21
676.5071743417309
 31
0.0
  0
LINE
  5
56C5
330
2
100
AcDbEntity
  8
4
100
AcDbLine
 10
546.7617454872573
 20
665.2868804941038
 30
0.0
 11
546.7617454872573
 21
666.2868804941038
 31
0.0
  0
ARC
  5
56C6
330
2
100
AcDbEntity
  8
4
100
AcDbCircle
 10
555.9419415845389
 20
667.2868804941038
 30
0.0
 40
1.0
100
AcDbArc
 50
270.0
 51
348.690067525976
  0
LINE
  5
56C7
330
2
100
AcDbEntity
  8
4
100
AcDbLine
 10
556.9225222602292
 20
667.0907643589655
 30
0.0
 11
558.081745487257
 21
672.8868804941037
 31
0.0
  0
ARC
  5
56C8
330
2
100
AcDbEntity
  8
4
100
AcDbCircle
 10
608.7617454872573
 20
681.3868804941037
 30
0.0
 40
1.0
100
AcDbArc
 50
270.0
 51
0.0
  0
LINE
  5
56C9
330
2
100
AcDbEntity
  8
4
100
AcDbLine
 10
609.7617454872568
 20
681.3868804941037
 30
0.0
 11
609.7617454872568
 21
691.8868804941037
 31
0.0
  0
LINE
  5
56CA
330
2
100
AcDbEntity
  8
L-CENTER
 48
4.0
100
AcDbLine
 10
562.5117439957796
 20
669.5087725775209
 30
0.0
 11
562.5117439957796
 21
700.5091880574371
 31
0.0
  0
LINE
  5
56CB
330
2
100
AcDbEntity
  8
L-CENTER
 48
4.0
100
AcDbLine
 10
603.2617454872577
 20
669.5087725775209
 30
0.0
 11
603.2617454872577
 21
700.5091880574371
 31
0.0
  0
CIRCLE
  5
56CC
330
2
100
AcDbEntity
  8
4
100
AcDbCircle
 10
549.7617454872577
 20
921.2868804941038
 30
0.0
 40
17.0
  0
LWPOLYLINE
  5
56CD
330
2
100
AcDbEntity
  8
4
100
AcDbPolyline
 90
        6
 70
     1
 43
0.0
 10
549.7617454872577
 20
938.2868804941038
 10
535.039313622922
 20
929.7868804941038
 10
535.039313622922
 20
912.7868804941038
 10
549.7617454872577
 20
904.2868804941038
 10
564.484177351593
 20
912.7868804941038
 10
564.484177351593
 20
929.7868804941038
  0
CIRCLE
  5
56CE
330
2
100
AcDbEntity
  8
4
100
AcDbCircle
 10
1000.037625756946
 20
221.9212588519558
 30
0.0
 40
26.0
  0
LINE
  5
56CF
330
2
100
AcDbEntity
  8
4
100
AcDbLine
 10
622.7617464872576
 20
715.2868824941036
 30
0.0
 11
622.7617464872576
 21
767.2868814941037
 31
0.0
  0
LINE
  5
56D0
330
2
100
AcDbEntity
  8
4
100
AcDbLine
 10
621.7617444872574
 20
715.2868824941036
 30
0.0
 11
622.7617464872576
 21
715.2868824941036
 31
0.0
  0
LINE
  5
56D1
330
2
100
AcDbEntity
  8
4
100
AcDbLine
 10
621.7617444872574
 20
767.2868814941037
 30
0.0
 11
622.7617464872576
 21
767.2868814941037
 31
0.0
  0
LINE
  5
56D2
330
2
100
AcDbEntity
  8
4
100
AcDbLine
 10
420.7617444872574
 20
767.2868814941037
 30
0.0
 11
420.7617444872574
 21
715.2868824941036
 31
0.0
  0
LINE
  5
56D3
330
2
100
AcDbEntity
  8
4
100
AcDbLine
 10
420.7617444872574
 20
715.2868824941036
 30
0.0
 11
421.7617464872574
 21
715.2868824941036
 31
0.0
  0
LINE
  5
56D4
330
2
100
AcDbEntity
  8
4
100
AcDbLine
 10
420.7617444872574
 20
767.2868814941037
 30
0.0
 11
421.7617464872574
 21
767.2868814941037
 31
0.0
  0
LINE
  5
56D5
330
2
100
AcDbEntity
  8
4
100
AcDbLine
 10
701.7617454872573
 20
737.7868804941038
 30
0.0
 11
650.2617454872573
 21
737.7868804941038
 31
0.0
  0
LINE
  5
56D6
330
2
100
AcDbEntity
  8
4
100
AcDbLine
 10
701.7617454872573
 20
744.7868804941038
 30
0.0
 11
650.2617454872573
 21
744.7868804941038
 31
0.0
  0
LINE
  5
56D7
330
2
100
AcDbEntity
  8
4
100
AcDbLine
 10
700.7617454872573
 20
729.7868804941038
 30
0.0
 11
642.7617454872573
 21
729.7868804941038
 31
0.0
  0
LINE
  5
56D8
330
2
100
AcDbEntity
  8
4
100
AcDbLine
 10
700.7617454872573
 20
752.7868804941038
 30
0.0
 11
642.7617454872573
 21
752.7868804941038
 31
0.0
  0
ARC
  5
56D9
330
2
100
AcDbEntity
  8
4
100
AcDbCircle
 10
642.7617454872573
 20
753.7868804941038
 30
0.0
 40
1.0
100
AcDbArc
 50
180.0
 51
270.0
  0
ARC
  5
56DA
330
2
100
AcDbEntity
  8
4
100
AcDbCircle
 10
650.2617454872573
 20
741.2868804941038
 30
0.0
 40
3.5
100
AcDbArc
 50
90.0
 51
270.0
  0
ARC
  5
56DB
330
2
100
AcDbEntity
  8
4
100
AcDbCircle
 10
642.7617454872573
 20
728.7868804941038
 30
0.0
 40
1.0
100
AcDbArc
 50
90.0
 51
180.0
  0
LINE
  5
56DC
330
2
100
AcDbEntity
  8
4
100
AcDbLine
 10
641.7617454872573
 20
753.7868804941038
 30
0.0
 11
641.7617454872573
 21
728.7868804941038
 31
0.0
  0
LINE
  5
56DD
330
2
100
AcDbEntity
  8
4
100
AcDbLine
 10
700.7617454872573
 20
752.7868804941038
 30
0.0
 11
701.7617454872573
 21
751.7868804941038
 31
0.0
  0
LINE
  5
56DE
330
2
100
AcDbEntity
  8
4
100
AcDbLine
 10
701.7617454872573
 20
751.7868804941038
 30
0.0
 11
701.7617454872573
 21
730.7868804941038
 31
0.0
  0
LINE
  5
56DF
330
2
100
AcDbEntity
  8
4
100
AcDbLine
 10
701.7617454872573
 20
751.7868804941038
 30
0.0
 11
701.7617454872573
 21
730.7868804941038
 31
0.0
  0
LINE
  5
56E0
330
2
100
AcDbEntity
  8
4
100
AcDbLine
 10
700.7617454872573
 20
752.7868804941038
 30
0.0
 11
700.7617454872573
 21
744.7868804941038
 31
0.0
  0
LINE
  5
56E1
330
2
100
AcDbEntity
  8
4
100
AcDbLine
 10
700.7617454872573
 20
729.7868804941038
 30
0.0
 11
701.7617454872573
 21
730.7868804941038
 31
0.0
  0
LINE
  5
56E2
330
2
100
AcDbEntity
  8
4
100
AcDbLine
 10
700.7617454872573
 20
737.7868804941038
 30
0.0
 11
700.7617454872573
 21
729.7868804941038
 31
0.0
  0
LINE
  5
56E3
330
2
100
AcDbEntity
  8
4
100
AcDbLine
 10
641.7617454872573
 20
753.7868804941038
 30
0.0
 11
622.7617464872576
 21
753.7868804941038
 31
0.0
  0
LINE
  5
56E4
330
2
100
AcDbEntity
  8
4
100
AcDbLine
 10
641.7617454872573
 20
728.7868804941038
 30
0.0
 11
622.7617464872576
 21
728.7868804941038
 31
0.0
  0
LINE
  5
56E5
330
2
100
AcDbEntity
  8
4
100
AcDbLine
 10
475.2617454872573
 20
673.7868804941038
 30
0.0
 11
475.2617454872573
 21
675.2868804941038
 31
0.0
  0
LINE
  5
56E6
330
2
100
AcDbEntity
  8
4
100
AcDbLine
 10
476.2617454872573
 20
671.7868804941038
 30
0.0
 11
476.2617454872573
 21
672.8868804941037
 31
0.0
  0
LWPOLYLINE
  5
56E7
330
2
100
AcDbEntity
  8
4
100
AcDbPolyline
 90
        2
 70
     0
 43
0.0
 10
474.5870630345628
 20
667.7868804941038
 10
474.5870630345628
 20
671.7868804941038
  0
LINE
  5
56E8
330
2
100
AcDbEntity
  8
4
100
AcDbLine
 10
474.5870630345628
 20
667.7868804941038
 30
0.0
 11
452.9364279399517
 21
667.7868804941038
 31
0.0
  0
LINE
  5
56E9
330
2
100
AcDbEntity
  8
4
100
AcDbLine
 10
476.0117469787349
 20
675.2868804941038
 30
0.0
 11
452.2617454872573
 21
675.2868804941038
 31
0.0
  0
LINE
  5
56EA
330
2
100
AcDbEntity
  8
4
100
AcDbLine
 10
476.2617454872573
 20
671.7868804941038
 30
0.0
 11
451.2617454872573
 21
671.7868804941038
 31
0.0
  0
LINE
  5
56EB
330
2
100
AcDbEntity
  8
4
100
AcDbLine
 10
476.0117469787349
 20
673.7868804941036
 30
0.0
 11
451.2617454872573
 21
673.7868804941038
 31
0.0
  0
LINE
  5
56EC
330
2
100
AcDbEntity
  8
4
100
AcDbLine
 10
451.2617454872573
 20
671.7868804941038
 30
0.0
 11
451.2617454872573
 21
673.7868804941038
 31
0.0
  0
LINE
  5
56ED
330
2
100
AcDbEntity
  8
4
100
AcDbLine
 10
452.2617454872573
 20
673.7868804941038
 30
0.0
 11
452.2617454872573
 21
675.2868804941038
 31
0.0
  0
LWPOLYLINE
  5
56EE
330
2
100
AcDbEntity
  8
4
100
AcDbPolyline
 90
        2
 70
     0
 43
0.0
 10
452.9364279399517
 20
671.7868804941038
 10
452.9364279399517
 20
667.7868804941038
  0
LINE
  5
56EF
330
2
100
AcDbEntity
  8
4
100
AcDbLine
 10
1298.537625756947
 20
186.9212608519556
 30
0.0
 11
1298.537625756946
 21
76.92125885195537
 31
0.0
  0
ARC
  5
56F0
330
2
100
AcDbEntity
  8
4
100
AcDbCircle
 10
1298.037625756946
 20
75.92125885195537
 30
0.0
 40
1.0
100
AcDbArc
 50
90.0
 51
180.0
  0
LINE
  5
56F1
330
2
100
AcDbEntity
  8
4
100
AcDbLine
 10
1297.037625756945
 20
51.92126085195559
 30
0.0
 11
1297.037625756946
 21
75.92125885195537
 31
0.0
  0
LINE
  5
56F2
330
2
100
AcDbEntity
  8
4
 48
3.0
100
AcDbLine
 10
1298.537625756947
 20
162.9212588519556
 30
0.0
 11
1299.537625756946
 21
162.9212588519558
 31
0.0
  0
LINE
  5
56F3
330
2
100
AcDbEntity
  8
4
 48
3.0
100
AcDbLine
 10
1298.537625756946
 20
100.9212588519558
 30
0.0
 11
1299.537625756946
 21
100.9212588519558
 31
0.0
  0
LINE
  5
56F4
330
2
100
AcDbEntity
  8
4
100
AcDbLine
 10
1299.537625756946
 20
162.9212588519558
 30
0.0
 11
1299.537625756946
 21
100.9212588519558
 31
0.0
  0
LINE
  5
56F5
330
2
100
AcDbEntity
  8
4
100
AcDbLine
 10
490.7617454872575
 20
1040.786880494104
 30
0.0
 11
490.7617454872575
 21
1039.786880494104
 31
0.0
  0
LINE
  5
56F6
330
2
100
AcDbEntity
  8
4
100
AcDbLine
 10
552.7617454872577
 20
1040.786880494104
 30
0.0
 11
552.7617454872577
 21
1039.786880494104
 31
0.0
  0
LINE
  5
56F7
330
2
100
AcDbEntity
  8
4
100
AcDbLine
 10
490.7617454872575
 20
1040.786880494104
 30
0.0
 11
552.7617454872577
 21
1040.786880494104
 31
0.0
  0
CIRCLE
  5
56F8
330
2
100
AcDbEntity
  8
4
100
AcDbCircle
 10
481.0117452057002
 20
202.5023302525308
 30
0.0
 40
5.75
  0
CIRCLE
  5
56F9
330
2
100
AcDbEntity
  8
4
100
AcDbCircle
 10
481.0117452057002
 20
202.5023302525308
 30
0.0
 40
5.0
  0
LINE
  5
56FA
330
2
100
AcDbEntity
  8
2
100
AcDbLine
 10
479.5683697279972
 20
200.002330139791
 30
0.0
 11
482.4551210739453
 21
200.0023303652706
 31
0.0
  0
LINE
  5
56FB
330
2
100
AcDbEntity
  8
2
100
AcDbLine
 10
479.5683693374551
 20
205.002330139791
 30
0.0
 11
482.455120683403
 21
205.0023303652708
 31
0.0
  0
LINE
  5
56FC
330
2
100
AcDbEntity
  8
2
100
AcDbLine
 10
482.455120683403
 20
205.0023303652708
 30
0.0
 11
483.8984965516483
 21
202.5023304780107
 31
0.0
  0
LINE
  5
56FD
330
2
100
AcDbEntity
  8
2
100
AcDbLine
 10
478.1249938597521
 20
202.5023300270511
 30
0.0
 11
479.5683697279972
 21
200.002330139791
 31
0.0
  0
LINE
  5
56FE
330
2
100
AcDbEntity
  8
2
100
AcDbLine
 10
479.5683693374551
 20
205.002330139791
 30
0.0
 11
478.1249938597521
 21
202.5023300270511
 31
0.0
  0
LINE
  5
56FF
330
2
100
AcDbEntity
  8
2
100
AcDbLine
 10
483.8984965516483
 20
202.5023304780107
 30
0.0
 11
482.4551210739453
 21
200.0023303652706
 31
0.0
  0
LINE
  5
5700
330
2
100
AcDbEntity
  8
2
100
AcDbLine
 10
443.1484958332057
 20
131.9212590774355
 30
0.0
 11
441.7051203555027
 21
129.4212589646957
 31
0.0
  0
LINE
  5
5701
330
2
100
AcDbEntity
  8
2
100
AcDbLine
 10
437.3749931413092
 20
131.9212586264762
 30
0.0
 11
438.8183690095545
 21
129.421258739216
 31
0.0
  0
CIRCLE
  5
5702
330
2
100
AcDbEntity
  8
4
100
AcDbCircle
 10
440.2617444872576
 20
131.9212588519558
 30
0.0
 40
5.0
  0
CIRCLE
  5
5703
330
2
100
AcDbEntity
  8
4
100
AcDbCircle
 10
440.2617444872576
 20
131.9212588519558
 30
0.0
 40
5.75
  0
LINE
  5
5704
330
2
100
AcDbEntity
  8
2
100
AcDbLine
 10
438.8183690095545
 20
129.421258739216
 30
0.0
 11
441.7051203555027
 21
129.4212589646957
 31
0.0
  0
LINE
  5
5705
330
2
100
AcDbEntity
  8
2
100
AcDbLine
 10
438.8183686190125
 20
134.421258739216
 30
0.0
 11
437.3749931413092
 21
131.9212586264762
 31
0.0
  0
LINE
  5
5706
330
2
100
AcDbEntity
  8
2
100
AcDbLine
 10
441.7051199649604
 20
134.4212589646957
 30
0.0
 11
443.1484958332057
 21
131.9212590774355
 31
0.0
  0
LINE
  5
5707
330
2
100
AcDbEntity
  8
2
100
AcDbLine
 10
438.8183686190125
 20
134.421258739216
 30
0.0
 11
441.7051199649604
 21
134.4212589646957
 31
0.0
  0
CIRCLE
  5
5708
330
2
100
AcDbEntity
  8
4
100
AcDbCircle
 10
562.5117457688145
 20
202.5023302525308
 30
0.0
 40
5.75
  0
LINE
  5
5709
330
2
100
AcDbEntity
  8
L-CENTER
 48
4.0
100
AcDbLine
 10
567.5744228570941
 20
211.2711426099945
 30
0.0
 11
557.4490686805354
 21
193.7335178950673
 31
0.0
  0
CIRCLE
  5
570A
330
2
100
AcDbEntity
  8
4
100
AcDbCircle
 10
562.5117457688145
 20
202.5023302525308
 30
0.0
 40
5.0
  0
LINE
  5
570B
330
2
100
AcDbEntity
  8
2
100
AcDbLine
 10
559.6249944228664
 20
202.5023304780107
 30
0.0
 11
561.0683699005697
 21
200.0023303652706
 31
0.0
  0
LINE
  5
570C
330
2
100
AcDbEntity
  8
2
100
AcDbLine
 10
563.9551216370598
 20
205.002330139791
 30
0.0
 11
565.3984971147627
 21
202.5023300270511
 31
0.0
  0
LINE
  5
570D
330
2
100
AcDbEntity
  8
2
100
AcDbLine
 10
565.3984971147627
 20
202.5023300270511
 30
0.0
 11
563.9551212465178
 21
200.002330139791
 31
0.0
  0
LINE
  5
570E
330
2
100
AcDbEntity
  8
2
100
AcDbLine
 10
561.0683702911117
 20
205.0023303652708
 30
0.0
 11
559.6249944228664
 21
202.5023304780107
 31
0.0
  0
LINE
  5
570F
330
2
100
AcDbEntity
  8
2
100
AcDbLine
 10
563.9551216370598
 20
205.002330139791
 30
0.0
 11
561.0683702911117
 21
205.0023303652708
 31
0.0
  0
LINE
  5
5710
330
2
100
AcDbEntity
  8
2
100
AcDbLine
 10
563.9551212465178
 20
200.002330139791
 30
0.0
 11
561.0683699005697
 21
200.0023303652706
 31
0.0
  0
CIRCLE
  5
5711
330
2
100
AcDbEntity
  8
4
100
AcDbCircle
 10
562.5117457688145
 20
61.34018745138064
 30
0.0
 40
5.75
  0
LINE
  5
5713
330
2
100
AcDbEntity
  8
2
100
AcDbLine
 10
563.9551212465178
 20
63.84018756412047
 30
0.0
 11
561.0683699005697
 21
63.84018733864082
 31
0.0
  0
LINE
  5
5714
330
2
100
AcDbEntity
  8
2
100
AcDbLine
 10
563.9551216370598
 20
58.84018756412047
 30
0.0
 11
561.0683702911117
 21
58.84018733864082
 31
0.0
  0
LINE
  5
5715
330
2
100
AcDbEntity
  8
2
100
AcDbLine
 10
561.0683702911117
 20
58.84018733864082
 30
0.0
 11
559.6249944228664
 21
61.34018722590099
 31
0.0
  0
LINE
  5
5716
330
2
100
AcDbEntity
  8
2
100
AcDbLine
 10
565.3984971147627
 20
61.3401876768603
 30
0.0
 11
563.9551212465178
 21
63.84018756412047
 31
0.0
  0
LINE
  5
5717
330
2
100
AcDbEntity
  8
2
100
AcDbLine
 10
563.9551216370598
 20
58.84018756412047
 30
0.0
 11
565.3984971147627
 21
61.3401876768603
 31
0.0
  0
LINE
  5
5718
330
2
100
AcDbEntity
  8
2
100
AcDbLine
 10
559.6249944228664
 20
61.34018722590099
 30
0.0
 11
561.0683699005697
 21
63.84018733864082
 31
0.0
  0
CIRCLE
  5
5719
330
2
100
AcDbEntity
  8
4
100
AcDbCircle
 10
562.5117457688145
 20
61.34018745138064
 30
0.0
 40
5.0
  0
CIRCLE
  5
571A
330
2
100
AcDbEntity
  8
4
100
AcDbCircle
 10
481.0117452057002
 20
61.34018745138064
 30
0.0
 40
5.75
  0
CIRCLE
  5
571C
330
2
100
AcDbEntity
  8
4
100
AcDbCircle
 10
481.0117452057002
 20
61.34018745138064
 30
0.0
 40
5.0
  0
LINE
  5
571D
330
2
100
AcDbEntity
  8
2
100
AcDbLine
 10
483.8984965516483
 20
61.34018722590099
 30
0.0
 11
482.4551210739453
 21
63.84018733864082
 31
0.0
  0
LINE
  5
571E
330
2
100
AcDbEntity
  8
2
100
AcDbLine
 10
479.5683693374551
 20
58.84018756412047
 30
0.0
 11
478.1249938597521
 21
61.3401876768603
 31
0.0
  0
LINE
  5
571F
330
2
100
AcDbEntity
  8
2
100
AcDbLine
 10
478.1249938597521
 20
61.3401876768603
 30
0.0
 11
479.5683697279972
 21
63.84018756412047
 31
0.0
  0
LINE
  5
5720
330
2
100
AcDbEntity
  8
2
100
AcDbLine
 10
482.455120683403
 20
58.84018733864082
 30
0.0
 11
483.8984965516483
 21
61.34018722590099
 31
0.0
  0
LINE
  5
5721
330
2
100
AcDbEntity
  8
2
100
AcDbLine
 10
479.5683693374551
 20
58.84018756412047
 30
0.0
 11
482.455120683403
 21
58.84018733864082
 31
0.0
  0
LINE
  5
5722
330
2
100
AcDbEntity
  8
2
100
AcDbLine
 10
479.5683697279972
 20
63.84018756412047
 30
0.0
 11
482.4551210739453
 21
63.84018733864082
 31
0.0
  0
LINE
  5
5723
330
2
100
AcDbEntity
  8
2
100
AcDbLine
 10
604.7051223555025
 20
134.421258739216
 30
0.0
 11
601.8183710095543
 21
134.4212589646957
 31
0.0
  0
LINE
  5
5724
330
2
100
AcDbEntity
  8
2
100
AcDbLine
 10
604.7051219649604
 20
129.421258739216
 30
0.0
 11
601.8183706190123
 21
129.4212589646957
 31
0.0
  0
CIRCLE
  5
5725
330
2
100
AcDbEntity
  8
4
100
AcDbCircle
 10
603.2617464872571
 20
131.9212588519558
 30
0.0
 40
5.75
  0
CIRCLE
  5
5726
330
2
100
AcDbEntity
  8
4
100
AcDbCircle
 10
603.2617464872571
 20
131.9212588519558
 30
0.0
 40
5.0
  0
LINE
  5
5727
330
2
100
AcDbEntity
  8
2
100
AcDbLine
 10
604.7051223555025
 20
134.421258739216
 30
0.0
 11
606.1484978332057
 21
131.9212586264762
 31
0.0
  0
LINE
  5
5728
330
2
100
AcDbEntity
  8
2
100
AcDbLine
 10
606.1484978332057
 20
131.9212586264762
 30
0.0
 11
604.7051219649604
 21
129.421258739216
 31
0.0
  0
LINE
  5
5729
330
2
100
AcDbEntity
  8
2
100
AcDbLine
 10
601.8183710095543
 20
134.4212589646957
 30
0.0
 11
600.374995141309
 21
131.9212590774355
 31
0.0
  0
LINE
  5
572A
330
2
100
AcDbEntity
  8
2
100
AcDbLine
 10
600.374995141309
 20
131.9212590774355
 30
0.0
 11
601.8183706190123
 21
129.4212589646957
 31
0.0
  0
LINE
  5
572B
330
2
100
AcDbEntity
  8
4
100
AcDbLine
 10
937.7376247569462
 20
196.7523306988428
 30
0.0
 11
937.7376247569462
 21
208.2523306988428
 31
0.0
  0
LINE
  5
572C
330
2
100
AcDbEntity
  8
4
100
AcDbLine
 10
931.7376247569462
 20
197.5023306988428
 30
0.0
 11
931.7376247569462
 21
207.5023306988428
 31
0.0
  0
LINE
  5
572D
330
2
100
AcDbEntity
  8
4
 48
4.0
100
AcDbLine
 10
937.7376247569462
 20
208.2523306988428
 30
0.0
 11
939.2376247569462
 21
208.2523306988428
 31
0.0
  0
LINE
  5
572E
330
2
100
AcDbEntity
  8
4
100
AcDbLine
 10
937.7376247569462
 20
196.7523306988428
 30
0.0
 11
939.2376247569462
 21
196.7523306988428
 31
0.0
  0
LINE
  5
572F
330
2
100
AcDbEntity
  8
4
100
AcDbLine
 10
931.7376247569462
 20
207.5023306988428
 30
0.0
 11
937.7376247569462
 21
207.5023306988428
 31
0.0
  0
LINE
  5
5730
330
2
100
AcDbEntity
  8
4
100
AcDbLine
 10
931.7376247569462
 20
197.5023306988428
 30
0.0
 11
937.7376247569462
 21
197.5023306988428
 31
0.0
  0
LINE
  5
5731
330
2
100
AcDbEntity
  8
2
100
AcDbLine
 10
937.7376247569462
 20
201.0023306988428
 30
0.0
 11
939.2376247569462
 21
202.5023306988428
 31
0.0
  0
LINE
  5
5732
330
2
100
AcDbEntity
  8
2
100
AcDbLine
 10
937.7376247569462
 20
203.1236510424023
 30
0.0
 11
939.2376247569462
 21
204.6236510424023
 31
0.0
  0
LINE
  5
5733
330
2
100
AcDbEntity
  8
4
100
AcDbLine
 10
937.7376247569462
 20
126.1712588519556
 30
0.0
 11
937.7376247569462
 21
137.6712588519558
 31
0.0
  0
LINE
  5
5734
330
2
100
AcDbEntity
  8
4
100
AcDbLine
 10
937.7376247569462
 20
126.1712588519556
 30
0.0
 11
939.2376247569462
 21
126.1712588519556
 31
0.0
  0
LINE
  5
5735
330
2
100
AcDbEntity
  8
4
100
AcDbLine
 10
931.7376247569462
 20
126.9212588519558
 30
0.0
 11
937.7376247569462
 21
126.9212588519556
 31
0.0
  0
LINE
  5
5736
330
2
100
AcDbEntity
  8
4
100
AcDbLine
 10
931.7376247569462
 20
136.9212588519558
 30
0.0
 11
937.7376247569462
 21
136.9212588519558
 31
0.0
  0
LINE
  5
5737
330
2
100
AcDbEntity
  8
4
100
AcDbLine
 10
931.7376247569462
 20
126.9212588519558
 30
0.0
 11
931.7376247569462
 21
136.9212588519558
 31
0.0
  0
LINE
  5
5738
330
2
100
AcDbEntity
  8
2
100
AcDbLine
 10
937.7376247569462
 20
130.4212588519558
 30
0.0
 11
939.2376247569462
 21
131.9212588519558
 31
0.0
  0
LINE
  5
5739
330
2
100
AcDbEntity
  8
2
100
AcDbLine
 10
937.7376247569462
 20
132.5425791955154
 30
0.0
 11
939.2376247569462
 21
134.0425791955154
 31
0.0
  0
LINE
  5
573A
330
2
100
AcDbEntity
  8
4
100
AcDbLine
 10
937.7376247569462
 20
137.6712588519558
 30
0.0
 11
939.2376247569462
 21
137.6712588519558
 31
0.0
  0
LINE
  5
573B
330
2
100
AcDbEntity
  8
4
100
AcDbLine
 10
937.7376247569462
 20
67.09018700506886
 30
0.0
 11
937.7376247569462
 21
55.59018700506863
 31
0.0
  0
LINE
  5
573C
330
2
100
AcDbEntity
  8
4
100
AcDbLine
 10
937.7376247569462
 20
67.09018700506886
 30
0.0
 11
939.2376247569462
 21
67.09018700506886
 31
0.0
  0
LINE
  5
573D
330
2
100
AcDbEntity
  8
4
100
AcDbLine
 10
931.7376247569462
 20
66.34018700506863
 30
0.0
 11
937.7376247569462
 21
66.34018700506886
 31
0.0
  0
LINE
  5
573E
330
2
100
AcDbEntity
  8
4
100
AcDbLine
 10
931.7376247569462
 20
56.34018700506863
 30
0.0
 11
937.7376247569462
 21
56.34018700506863
 31
0.0
  0
LINE
  5
573F
330
2
100
AcDbEntity
  8
4
100
AcDbLine
 10
931.7376247569462
 20
66.34018700506863
 30
0.0
 11
931.7376247569462
 21
56.34018700506863
 31
0.0
  0
LINE
  5
5740
330
2
100
AcDbEntity
  8
2
100
AcDbLine
 10
937.7376247569462
 20
62.84018700506863
 30
0.0
 11
939.2376247569462
 21
61.34018700506863
 31
0.0
  0
LINE
  5
5741
330
2
100
AcDbEntity
  8
2
100
AcDbLine
 10
937.7376247569462
 20
60.71886666150908
 30
0.0
 11
939.2376247569462
 21
59.21886666150908
 31
0.0
  0
LINE
  5
5742
330
2
100
AcDbEntity
  8
4
100
AcDbLine
 10
937.7376247569462
 20
55.59018700506863
 30
0.0
 11
939.2376247569462
 21
55.59018700506863
 31
0.0
  0
LINE
  5
5743
330
2
100
AcDbEntity
  8
L-CENTER
 48
4.0
100
AcDbLine
 10
927.6233187467026
 20
61.34018700506863
 30
0.0
 11
960.6718652651809
 21
61.34018700506863
 31
0.0
  0
LINE
  5
5744
330
2
100
AcDbEntity
  8
4
100
AcDbLine
 10
609.0117454872577
 20
678.8868804941037
 30
0.0
 11
597.5117454872573
 21
678.8868804941037
 31
0.0
  0
LINE
  5
5745
330
2
100
AcDbEntity
  8
4
100
AcDbLine
 10
598.2617454872573
 20
672.8868804941037
 30
0.0
 11
598.2617454872573
 21
678.8868804941037
 31
0.0
  0
LINE
  5
5746
330
2
100
AcDbEntity
  8
4
100
AcDbLine
 10
608.2617454872573
 20
672.8868804941037
 30
0.0
 11
598.2617454872573
 21
672.8868804941037
 31
0.0
  0
LINE
  5
5747
330
2
100
AcDbEntity
  8
4
100
AcDbLine
 10
597.5117454872573
 20
678.8868804941037
 30
0.0
 11
597.5117454872573
 21
680.3868804941037
 31
0.0
  0
LINE
  5
5748
330
2
100
AcDbEntity
  8
4
100
AcDbLine
 10
609.0117454872577
 20
678.8868804941037
 30
0.0
 11
609.0117454872577
 21
680.3868804941037
 31
0.0
  0
LINE
  5
5749
330
2
100
AcDbEntity
  8
4
100
AcDbLine
 10
608.2617454872573
 20
672.8868804941037
 30
0.0
 11
608.2617454872577
 21
678.8868804941037
 31
0.0
  0
LINE
  5
574A
330
2
100
AcDbEntity
  8
4
100
AcDbLine
 10
568.2617439957796
 20
678.8868804941037
 30
0.0
 11
556.7617439957796
 21
678.8868804941037
 31
0.0
  0
LINE
  5
574B
330
2
100
AcDbEntity
  8
4
100
AcDbLine
 10
567.5117439957796
 20
672.8868804941037
 30
0.0
 11
557.5117439957796
 21
672.8868804941037
 31
0.0
  0
LINE
  5
574C
330
2
100
AcDbEntity
  8
4
100
AcDbLine
 10
557.5117439957796
 20
672.8868804941037
 30
0.0
 11
557.5117439957796
 21
678.8868804941037
 31
0.0
  0
LINE
  5
574D
330
2
100
AcDbEntity
  8
4
100
AcDbLine
 10
556.7617439957796
 20
678.8868804941037
 30
0.0
 11
556.7617439957796
 21
680.3868804941037
 31
0.0
  0
LINE
  5
574E
330
2
100
AcDbEntity
  8
4
100
AcDbLine
 10
568.2617439957796
 20
678.8868804941037
 30
0.0
 11
568.2617439957796
 21
680.3868804941037
 31
0.0
  0
LINE
  5
574F
330
2
100
AcDbEntity
  8
4
100
AcDbLine
 10
567.5117439957796
 20
672.8868804941037
 30
0.0
 11
567.5117439957796
 21
678.8868804941037
 31
0.0
  0
LINE
  5
5750
330
2
100
AcDbEntity
  8
4
100
AcDbLine
 10
475.2617469787349
 20
678.8868804941037
 30
0.0
 11
486.7617469787351
 21
678.8868804941037
 31
0.0
  0
LINE
  5
5751
330
2
100
AcDbEntity
  8
4
100
AcDbLine
 10
486.7617469787351
 20
678.8868804941037
 30
0.0
 11
486.7617469787351
 21
680.3868804941037
 31
0.0
  0
LINE
  5
5752
330
2
100
AcDbEntity
  8
4
100
AcDbLine
 10
476.0117469787351
 20
672.8868804941037
 30
0.0
 11
476.0117469787349
 21
678.8868804941037
 31
0.0
  0
LINE
  5
5753
330
2
100
AcDbEntity
  8
4
100
AcDbLine
 10
475.2617469787349
 20
678.8868804941037
 30
0.0
 11
475.2617469787349
 21
680.3868804941037
 31
0.0
  0
LINE
  5
5754
330
2
100
AcDbEntity
  8
4
100
AcDbLine
 10
486.0117469787351
 20
672.8868804941037
 30
0.0
 11
486.0117469787351
 21
678.8868804941037
 31
0.0
  0
LINE
  5
5755
330
2
100
AcDbEntity
  8
4
100
AcDbLine
 10
476.0117469787351
 20
672.8868804941037
 30
0.0
 11
486.0117469787351
 21
672.8868804941037
 31
0.0
  0
LINE
  5
5756
330
2
100
AcDbEntity
  8
L-CENTER
 48
4.0
100
AcDbLine
 10
481.0117469787349
 20
669.5087725775209
 30
0.0
 11
481.0117469787349
 21
700.5091880574371
 31
0.0
  0
LINE
  5
5757
330
2
100
AcDbEntity
  8
4
100
AcDbLine
 10
434.511745487257
 20
678.8868804941037
 30
0.0
 11
446.0117454872573
 21
678.8868804941037
 31
0.0
  0
LINE
  5
5758
330
2
100
AcDbEntity
  8
4
100
AcDbLine
 10
435.2617454872573
 20
672.8868804941037
 30
0.0
 11
445.2617454872573
 21
672.8868804941037
 31
0.0
  0
LINE
  5
5759
330
2
100
AcDbEntity
  8
4
100
AcDbLine
 10
445.2617454872573
 20
672.8868804941037
 30
0.0
 11
445.2617454872573
 21
678.8868804941037
 31
0.0
  0
LINE
  5
575A
330
2
100
AcDbEntity
  8
4
100
AcDbLine
 10
446.0117454872573
 20
678.8868804941037
 30
0.0
 11
446.0117454872573
 21
680.3868804941037
 31
0.0
  0
LINE
  5
575B
330
2
100
AcDbEntity
  8
4
100
AcDbLine
 10
434.511745487257
 20
678.8868804941037
 30
0.0
 11
434.511745487257
 21
680.3868804941037
 31
0.0
  0
LINE
  5
575C
330
2
100
AcDbEntity
  8
4
100
AcDbLine
 10
435.2617454872573
 20
672.8868804941037
 30
0.0
 11
435.261745487257
 21
678.8868804941037
 31
0.0
  0
LINE
  5
575D
330
2
100
AcDbEntity
  8
L-CENTER
 48
4.0
100
AcDbLine
 10
440.261745487257
 20
669.5087725775209
 30
0.0
 11
440.261745487257
 21
700.5091880574371
 31
0.0
  0
CIRCLE
  5
575E
330
2
100
AcDbEntity
  8
4
100
AcDbCircle
 10
311.4989510709695
 20
866.2868804941033
 30
0.0
 40
7.25
  0
CIRCLE
  5
575F
330
2
100
AcDbEntity
  8
4
100
AcDbCircle
 10
311.4989510709695
 20
866.2868804941033
 30
0.0
 40
6.5
  0
LINE
  5
5760
330
2
100
AcDbEntity
  8
2
100
AcDbLine
 10
308.4989510709693
 20
868.0189313016724
 30
0.0
 11
308.4989510709693
 21
864.5548296865347
 31
0.0
  0
LINE
  5
5761
330
2
100
AcDbEntity
  8
2
100
AcDbLine
 10
314.4989510709695
 20
868.0189313016724
 30
0.0
 11
314.4989510709695
 21
864.5548296865347
 31
0.0
  0
LINE
  5
5762
330
2
100
AcDbEntity
  8
2
100
AcDbLine
 10
314.4989510709695
 20
864.5548296865347
 30
0.0
 11
311.4989510709695
 21
862.8227788789657
 31
0.0
  0
LINE
  5
5763
330
2
100
AcDbEntity
  8
2
100
AcDbLine
 10
311.498951070969
 20
869.7509821092415
 30
0.0
 11
308.4989510709693
 21
868.0189313016724
 31
0.0
  0
LINE
  5
5764
330
2
100
AcDbEntity
  8
2
100
AcDbLine
 10
314.4989510709695
 20
868.0189313016724
 30
0.0
 11
311.498951070969
 21
869.7509821092415
 31
0.0
  0
LINE
  5
5765
330
2
100
AcDbEntity
  8
2
100
AcDbLine
 10
311.4989510709695
 20
862.8227788789657
 30
0.0
 11
308.4989510709693
 21
864.5548296865347
 31
0.0
  0
LINE
  5
5766
330
2
100
AcDbEntity
  8
2
100
AcDbLine
 10
409.7617454872575
 20
813.0189313016733
 30
0.0
 11
406.761745487257
 21
814.7509821092419
 31
0.0
  0
LINE
  5
5767
330
2
100
AcDbEntity
  8
2
100
AcDbLine
 10
409.7617454872575
 20
809.5548296865352
 30
0.0
 11
406.7617454872575
 21
807.8227788789661
 31
0.0
  0
CIRCLE
  5
5768
330
2
100
AcDbEntity
  8
4
100
AcDbCircle
 10
406.7617454872575
 20
811.2868804941043
 30
0.0
 40
6.5
  0
CIRCLE
  5
5769
330
2
100
AcDbEntity
  8
4
100
AcDbCircle
 10
406.7617454872575
 20
811.2868804941043
 30
0.0
 40
7.25
  0
LINE
  5
576A
330
2
100
AcDbEntity
  8
2
100
AcDbLine
 10
406.7617454872575
 20
807.8227788789661
 30
0.0
 11
403.7617454872573
 21
809.5548296865352
 31
0.0
  0
LINE
  5
576B
330
2
100
AcDbEntity
  8
2
100
AcDbLine
 10
406.761745487257
 20
814.7509821092419
 30
0.0
 11
403.7617454872573
 21
813.0189313016733
 31
0.0
  0
LINE
  5
576C
330
2
100
AcDbEntity
  8
2
100
AcDbLine
 10
403.7617454872573
 20
813.0189313016733
 30
0.0
 11
403.7617454872573
 21
809.5548296865352
 31
0.0
  0
LINE
  5
576D
330
2
100
AcDbEntity
  8
2
100
AcDbLine
 10
409.7617454872575
 20
813.0189313016733
 30
0.0
 11
409.7617454872575
 21
809.5548296865352
 31
0.0
  0
LINE
  5
576E
330
2
100
AcDbEntity
  8
L-CENTER
 48
4.0
100
AcDbLine
 10
491.6322350581322
 20
872.2868804941038
 30
0.0
 11
512.416844748959
 21
860.2868804941033
 31
0.0
  0
LINE
  5
576F
330
2
100
AcDbEntity
  8
2
100
AcDbLine
 10
499.0245399035457
 20
868.0189313016724
 30
0.0
 11
502.0245399035457
 21
869.7509821092415
 31
0.0
  0
LINE
  5
5770
330
2
100
AcDbEntity
  8
2
100
AcDbLine
 10
499.0245399035457
 20
864.5548296865347
 30
0.0
 11
502.0245399035455
 21
862.8227788789657
 31
0.0
  0
CIRCLE
  5
5771
330
2
100
AcDbEntity
  8
4
100
AcDbCircle
 10
502.0245399035455
 20
866.2868804941033
 30
0.0
 40
6.5
  0
CIRCLE
  5
5772
330
2
100
AcDbEntity
  8
4
100
AcDbCircle
 10
502.0245399035455
 20
866.2868804941033
 30
0.0
 40
7.25
  0
LINE
  5
5773
330
2
100
AcDbEntity
  8
2
100
AcDbLine
 10
502.0245399035455
 20
862.8227788789657
 30
0.0
 11
505.0245399035457
 21
864.5548296865347
 31
0.0
  0
LINE
  5
5774
330
2
100
AcDbEntity
  8
2
100
AcDbLine
 10
502.0245399035457
 20
869.7509821092415
 30
0.0
 11
505.0245399035457
 21
868.0189313016724
 31
0.0
  0
LINE
  5
5775
330
2
100
AcDbEntity
  8
2
100
AcDbLine
 10
505.0245399035457
 20
868.0189313016724
 30
0.0
 11
505.0245399035457
 21
864.5548296865347
 31
0.0
  0
LINE
  5
5776
330
2
100
AcDbEntity
  8
2
100
AcDbLine
 10
499.0245399035457
 20
868.0189313016724
 30
0.0
 11
499.0245399035457
 21
864.5548296865347
 31
0.0
  0
LINE
  5
5777
330
2
100
AcDbEntity
  8
L-CENTER
 48
4.0
100
AcDbLine
 10
321.8912559163828
 20
970.2868804941038
 30
0.0
 11
301.106646225556
 21
982.2868804941043
 31
0.0
  0
LINE
  5
5778
330
2
100
AcDbEntity
  8
2
100
AcDbLine
 10
314.4989510709695
 20
974.5548296865352
 30
0.0
 11
311.498951070969
 21
972.8227788789661
 31
0.0
  0
LINE
  5
5779
330
2
100
AcDbEntity
  8
2
100
AcDbLine
 10
314.4989510709695
 20
978.0189313016729
 30
0.0
 11
311.4989510709695
 21
979.7509821092419
 31
0.0
  0
CIRCLE
  5
577A
330
2
100
AcDbEntity
  8
4
100
AcDbCircle
 10
311.4989510709695
 20
976.2868804941043
 30
0.0
 40
6.5
  0
CIRCLE
  5
577B
330
2
100
AcDbEntity
  8
4
100
AcDbCircle
 10
311.4989510709695
 20
976.2868804941043
 30
0.0
 40
7.25
  0
LINE
  5
577C
330
2
100
AcDbEntity
  8
2
100
AcDbLine
 10
311.4989510709695
 20
979.7509821092419
 30
0.0
 11
308.4989510709693
 21
978.0189313016729
 31
0.0
  0
LINE
  5
577D
330
2
100
AcDbEntity
  8
2
100
AcDbLine
 10
311.498951070969
 20
972.8227788789661
 30
0.0
 11
308.4989510709693
 21
974.5548296865352
 31
0.0
  0
LINE
  5
577E
330
2
100
AcDbEntity
  8
2
100
AcDbLine
 10
308.4989510709693
 20
974.5548296865352
 30
0.0
 11
308.4989510709693
 21
978.0189313016729
 31
0.0
  0
LINE
  5
577F
330
2
100
AcDbEntity
  8
2
100
AcDbLine
 10
314.4989510709695
 20
974.5548296865352
 30
0.0
 11
314.4989510709695
 21
978.0189313016729
 31
0.0
  0
CIRCLE
  5
5780
330
2
100
AcDbEntity
  8
4
100
AcDbCircle
 10
406.7617454872575
 20
1031.286880494103
 30
0.0
 40
7.25
  0
CIRCLE
  5
5781
330
2
100
AcDbEntity
  8
4
100
AcDbCircle
 10
406.7617454872575
 20
1031.286880494103
 30
0.0
 40
6.5
  0
LINE
  5
5782
330
2
100
AcDbEntity
  8
2
100
AcDbLine
 10
409.7617454872575
 20
1033.018931301672
 30
0.0
 11
406.7617454872575
 21
1034.750982109241
 31
0.0
  0
LINE
  5
5783
330
2
100
AcDbEntity
  8
2
100
AcDbLine
 10
409.7617454872575
 20
1029.554829686534
 30
0.0
 11
406.761745487257
 21
1027.822778878966
 31
0.0
  0
LINE
  5
5784
330
2
100
AcDbEntity
  8
2
100
AcDbLine
 10
403.7617454872573
 20
1029.554829686534
 30
0.0
 11
403.7617454872573
 21
1033.018931301672
 31
0.0
  0
LINE
  5
5785
330
2
100
AcDbEntity
  8
2
100
AcDbLine
 10
406.761745487257
 20
1027.822778878966
 30
0.0
 11
403.7617454872573
 21
1029.554829686534
 31
0.0
  0
LINE
  5
5786
330
2
100
AcDbEntity
  8
2
100
AcDbLine
 10
406.7617454872575
 20
1034.750982109241
 30
0.0
 11
403.7617454872573
 21
1033.018931301672
 31
0.0
  0
LINE
  5
5787
330
2
100
AcDbEntity
  8
2
100
AcDbLine
 10
409.7617454872575
 20
1029.554829686534
 30
0.0
 11
409.7617454872575
 21
1033.018931301672
 31
0.0
  0
LINE
  5
5788
330
2
100
AcDbEntity
  8
L-CENTER
 48
4.0
100
AcDbLine
 10
491.6322350581322
 20
970.2868804941038
 30
0.0
 11
512.416844748959
 21
982.2868804941043
 31
0.0
  0
CIRCLE
  5
5789
330
2
100
AcDbEntity
  8
4
100
AcDbCircle
 10
502.0245399035455
 20
976.2868804941043
 30
0.0
 40
7.25
  0
CIRCLE
  5
578A
330
2
100
AcDbEntity
  8
4
100
AcDbCircle
 10
502.0245399035455
 20
976.2868804941043
 30
0.0
 40
6.5
  0
LINE
  5
578B
330
2
100
AcDbEntity
  8
2
100
AcDbLine
 10
499.0245399035457
 20
978.0189313016729
 30
0.0
 11
502.0245399035455
 21
979.7509821092419
 31
0.0
  0
LINE
  5
578C
330
2
100
AcDbEntity
  8
2
100
AcDbLine
 10
499.0245399035457
 20
974.5548296865352
 30
0.0
 11
502.0245399035457
 21
972.8227788789661
 31
0.0
  0
LINE
  5
578D
330
2
100
AcDbEntity
  8
2
100
AcDbLine
 10
499.0245399035457
 20
974.5548296865352
 30
0.0
 11
499.0245399035457
 21
978.0189313016729
 31
0.0
  0
LINE
  5
578E
330
2
100
AcDbEntity
  8
2
 48
3.0
100
AcDbLine
 10
505.0245399035457
 20
974.5548296865352
 30
0.0
 11
505.0245399035457
 21
978.0189313016729
 31
0.0
  0
LINE
  5
578F
330
2
100
AcDbEntity
  8
2
100
AcDbLine
 10
502.0245399035457
 20
972.8227788789661
 30
0.0
 11
505.0245399035457
 21
974.5548296865352
 31
0.0
  0
LINE
  5
5790
330
2
100
AcDbEntity
  8
2
100
AcDbLine
 10
502.0245399035455
 20
979.7509821092419
 30
0.0
 11
505.0245399035457
 21
978.0189313016729
 31
0.0
  0
LINE
  5
5791
330
2
100
AcDbEntity
  8
4
100
AcDbLine
 10
304.2489520709696
 20
211.9212588519556
 30
0.0
 11
318.7489520709696
 21
211.9212588519558
 31
0.0
  0
LINE
  5
5792
330
2
100
AcDbEntity
  8
4
100
AcDbLine
 10
304.9989520709698
 20
219.9212588519556
 30
0.0
 11
317.9989520709698
 21
219.9212588519556
 31
0.0
  0
LINE
  5
5793
330
2
100
AcDbEntity
  8
4
100
AcDbLine
 10
318.7489520709696
 20
211.9212588519558
 30
0.0
 11
318.7489520709696
 21
209.9212588519558
 31
0.0
  0
LINE
  5
5794
330
2
100
AcDbEntity
  8
4
100
AcDbLine
 10
304.2489520709696
 20
211.9212588519556
 30
0.0
 11
304.2489520709696
 21
209.9212588519558
 31
0.0
  0
LINE
  5
5795
330
2
100
AcDbEntity
  8
4
100
AcDbLine
 10
317.9989520709698
 20
219.9212588519556
 30
0.0
 11
317.9989520709696
 21
211.9212588519558
 31
0.0
  0
LINE
  5
5796
330
2
100
AcDbEntity
  8
4
100
AcDbLine
 10
304.9989520709698
 20
219.9212588519556
 30
0.0
 11
304.9989520709696
 21
211.9212588519558
 31
0.0
  0
LINE
  5
5797
330
2
100
AcDbEntity
  8
2
100
AcDbLine
 10
313.4989520709694
 20
211.9212588519556
 30
0.0
 11
311.4989520709696
 21
209.9212588519558
 31
0.0
  0
LINE
  5
5798
330
2
100
AcDbEntity
  8
2
100
AcDbLine
 10
310.6705249462232
 20
211.9212588519556
 30
0.0
 11
308.6705249462234
 21
209.9212588519558
 31
0.0
  0
LINE
  5
579D
330
2
100
AcDbEntity
  8
4
100
AcDbLine
 10
399.5117464872576
 20
210.4212598519557
 30
0.0
 11
399.5117464872576
 21
209.9212588519558
 31
0.0
  0
LINE
  5
57A1
330
2
100
AcDbEntity
  8
4
100
AcDbLine
 10
1062.787624756946
 20
211.9212588519556
 30
0.0
 11
1077.287624756946
 21
211.9212588519558
 31
0.0
  0
LINE
  5
57A2
330
2
100
AcDbEntity
  8
4
100
AcDbLine
 10
1063.537624756946
 20
219.9212588519556
 30
0.0
 11
1076.537624756946
 21
219.9212588519556
 31
0.0
  0
LINE
  5
57A3
330
2
100
AcDbEntity
  8
4
100
AcDbLine
 10
1077.287624756946
 20
211.9212588519558
 30
0.0
 11
1077.287624756946
 21
209.9212588519558
 31
0.0
  0
LINE
  5
57A4
330
2
100
AcDbEntity
  8
4
100
AcDbLine
 10
1076.537624756946
 20
219.9212588519556
 30
0.0
 11
1076.537624756946
 21
211.9212588519558
 31
0.0
  0
LINE
  5
57A5
330
2
100
AcDbEntity
  8
4
100
AcDbLine
 10
1062.787624756946
 20
211.9212588519556
 30
0.0
 11
1062.787624756946
 21
209.9212588519558
 31
0.0
  0
LINE
  5
57A6
330
2
100
AcDbEntity
  8
4
100
AcDbLine
 10
1063.537624756946
 20
219.9212588519556
 30
0.0
 11
1063.537624756946
 21
211.9212588519558
 31
0.0
  0
LINE
  5
57A7
330
2
100
AcDbEntity
  8
4
100
AcDbLine
 10
1118.537869756946
 20
219.9212588519556
 30
0.0
 11
1131.537869756946
 21
219.9212588519556
 31
0.0
  0
LINE
  5
57A8
330
2
100
AcDbEntity
  8
4
100
AcDbLine
 10
1117.787869756946
 20
211.9212588519556
 30
0.0
 11
1132.287869756946
 21
211.9212588519558
 31
0.0
  0
LINE
  5
57A9
330
2
100
AcDbEntity
  8
4
100
AcDbLine
 10
1118.537869756946
 20
219.9212588519556
 30
0.0
 11
1118.537869756946
 21
211.9212588519558
 31
0.0
  0
LINE
  5
57AA
330
2
100
AcDbEntity
  8
4
100
AcDbLine
 10
1117.787869756946
 20
211.9212588519556
 30
0.0
 11
1117.787869756946
 21
209.9212588519558
 31
0.0
  0
LINE
  5
57AB
330
2
100
AcDbEntity
  8
4
100
AcDbLine
 10
1131.537869756946
 20
219.9212588519556
 30
0.0
 11
1131.537869756946
 21
211.9212588519558
 31
0.0
  0
LINE
  5
57AC
330
2
100
AcDbEntity
  8
4
100
AcDbLine
 10
1132.287869756946
 20
211.9212588519558
 30
0.0
 11
1132.287869756946
 21
209.9212588519558
 31
0.0
  0
LINE
  5
57AD
330
2
100
AcDbEntity
  8
4
100
AcDbLine
 10
1296.537626756947
 20
219.9212588519556
 30
0.0
 11
1283.537626756947
 21
219.9212588519556
 31
0.0
  0
LINE
  5
57AE
330
2
100
AcDbEntity
  8
4
100
AcDbLine
 10
1297.287626756947
 20
211.9212588519556
 30
0.0
 11
1282.787626756947
 21
211.9212588519558
 31
0.0
  0
LINE
  5
57AF
330
2
100
AcDbEntity
  8
4
100
AcDbLine
 10
1296.537626756947
 20
219.9212588519556
 30
0.0
 11
1296.537626756947
 21
211.9212588519558
 31
0.0
  0
LINE
  5
57B0
330
2
100
AcDbEntity
  8
4
100
AcDbLine
 10
1297.287626756947
 20
211.9212588519556
 30
0.0
 11
1297.287626756947
 21
209.9212588519558
 31
0.0
  0
LINE
  5
57B1
330
2
100
AcDbEntity
  8
4
100
AcDbLine
 10
1283.537626756947
 20
219.9212588519556
 30
0.0
 11
1283.537626756947
 21
211.9212588519558
 31
0.0
  0
LINE
  5
57B2
330
2
100
AcDbEntity
  8
4
100
AcDbLine
 10
1282.787626756947
 20
211.9212588519558
 30
0.0
 11
1282.787626756947
 21
209.9212588519558
 31
0.0
  0
LINE
  5
57B3
330
2
100
AcDbEntity
  8
L-CENTER
 48
4.0
100
AcDbLine
 10
1290.037626756947
 20
182.5627135168147
 30
0.0
 11
1290.037626756947
 21
222.8974321364894
 31
0.0
  0
LINE
  5
57B4
330
2
100
AcDbEntity
  8
4
100
AcDbLine
 10
1242.287381756946
 20
211.9212588519556
 30
0.0
 11
1227.787381756946
 21
211.9212588519558
 31
0.0
  0
LINE
  5
57B5
330
2
100
AcDbEntity
  8
4
100
AcDbLine
 10
1241.537381756946
 20
219.9212588519556
 30
0.0
 11
1228.537381756946
 21
219.9212588519556
 31
0.0
  0
LINE
  5
57B6
330
2
100
AcDbEntity
  8
4
100
AcDbLine
 10
1242.287381756946
 20
211.9212588519556
 30
0.0
 11
1242.287381756946
 21
209.9212588519558
 31
0.0
  0
LINE
  5
57B7
330
2
100
AcDbEntity
  8
4
100
AcDbLine
 10
1241.537381756946
 20
219.9212588519556
 30
0.0
 11
1241.537381756946
 21
211.9212588519558
 31
0.0
  0
LINE
  5
57B8
330
2
100
AcDbEntity
  8
4
100
AcDbLine
 10
1227.787381756946
 20
211.9212588519558
 30
0.0
 11
1227.787381756946
 21
209.9212588519558
 31
0.0
  0
LINE
  5
57B9
330
2
100
AcDbEntity
  8
4
100
AcDbLine
 10
1228.537381756946
 20
219.9212588519556
 30
0.0
 11
1228.537381756946
 21
211.9212588519558
 31
0.0
  0
LINE
  5
57BA
330
2
100
AcDbEntity
  8
L-CENTER
 48
4.0
100
AcDbLine
 10
1235.037381756946
 20
182.5627135168147
 30
0.0
 11
1235.037381756946
 21
222.8974321364894
 31
0.0
  0
LINE
  5
58BB
330
2
100
AcDbEntity
  8
4
100
AcDbLine
 10
341.7617454872575
 20
737.7868804941047
 30
0.0
 11
393.2617454872575
 21
737.7868804941045
 31
0.0
  0
LINE
  5
58BC
330
2
100
AcDbEntity
  8
4
100
AcDbLine
 10
341.7617454872575
 20
744.7868804941047
 30
0.0
 11
393.2617454872575
 21
744.7868804941045
 31
0.0
  0
LINE
  5
58BD
330
2
100
AcDbEntity
  8
4
100
AcDbLine
 10
342.7617454872574
 20
729.7868804941047
 30
0.0
 11
400.7617454872574
 21
729.7868804941045
 31
0.0
  0
LINE
  5
58BE
330
2
100
AcDbEntity
  8
4
100
AcDbLine
 10
342.7617454872576
 20
752.7868804941047
 30
0.0
 11
400.7617454872576
 21
752.7868804941045
 31
0.0
  0
ARC
  5
58BF
330
2
100
AcDbEntity
  8
4
100
AcDbCircle
 10
400.7617454872576
 20
753.7868804941045
 30
0.0
 40
1.0
100
AcDbArc
 50
270.0
 51
0.0
  0
ARC
  5
58C0
330
2
100
AcDbEntity
  8
4
100
AcDbCircle
 10
393.2617454872575
 20
741.2868804941045
 30
0.0
 40
3.5
100
AcDbArc
 50
270.0
 51
90.0
  0
ARC
  5
58C1
330
2
100
AcDbEntity
  8
4
100
AcDbCircle
 10
400.7617454872574
 20
728.7868804941045
 30
0.0
 40
1.0
100
AcDbArc
 50
0.0
 51
90.0
  0
LINE
  5
58C2
330
2
100
AcDbEntity
  8
4
100
AcDbLine
 10
401.7617454872576
 20
753.7868804941045
 30
0.0
 11
401.7617454872574
 21
728.7868804941045
 31
0.0
  0
LINE
  5
58C3
330
2
100
AcDbEntity
  8
4
100
AcDbLine
 10
342.7617454872576
 20
752.7868804941047
 30
0.0
 11
341.7617454872575
 21
751.7868804941047
 31
0.0
  0
LINE
  5
58C4
330
2
100
AcDbEntity
  8
4
100
AcDbLine
 10
341.7617454872575
 20
751.7868804941047
 30
0.0
 11
341.7617454872575
 21
730.7868804941047
 31
0.0
  0
LINE
  5
58C5
330
2
100
AcDbEntity
  8
4
100
AcDbLine
 10
341.7617454872575
 20
751.7868804941047
 30
0.0
 11
341.7617454872575
 21
730.7868804941047
 31
0.0
  0
LINE
  5
58C6
330
2
100
AcDbEntity
  8
4
100
AcDbLine
 10
342.7617454872576
 20
752.7868804941047
 30
0.0
 11
342.7617454872575
 21
744.7868804941047
 31
0.0
  0
LINE
  5
58C7
330
2
100
AcDbEntity
  8
4
100
AcDbLine
 10
342.7617454872574
 20
729.7868804941047
 30
0.0
 11
341.7617454872575
 21
730.7868804941047
 31
0.0
  0
LINE
  5
58C8
330
2
100
AcDbEntity
  8
4
100
AcDbLine
 10
342.7617454872575
 20
737.7868804941047
 30
0.0
 11
342.7617454872574
 21
729.7868804941047
 31
0.0
  0
LINE
  5
58C9
330
2
100
AcDbEntity
  8
4
100
AcDbLine
 10
401.7617454872576
 20
753.7868804941045
 30
0.0
 11
420.7617444872573
 21
753.7868804941043
 31
0.0
  0
LINE
  5
58CA
330
2
100
AcDbEntity
  8
4
100
AcDbLine
 10
401.7617454872574
 20
728.7868804941045
 30
0.0
 11
420.761744487257
 21
728.7868804941043
 31
0.0
  0
LINE
  5
58CB
330
2
100
AcDbEntity
  8
4
100
AcDbLine
 10
401.7617454872573
 20
209.4212608519556
 30
0.0
 11
420.7617444872574
 21
209.4212608519556
 31
0.0
  0
LINE
  5
58CC
330
2
100
AcDbEntity
  8
4
100
AcDbLine
 10
401.7617454872573
 20
234.4212598519557
 30
0.0
 11
420.7617444872574
 21
234.4212598519557
 31
0.0
  0
LINE
  5
58CD
330
2
100
AcDbEntity
  8
4
100
AcDbLine
 10
341.7617454872573
 20
236.4212608519556
 30
0.0
 11
396.7617444872574
 21
236.4212608519556
 31
0.0
  0
LINE
  5
58CE
330
2
100
AcDbEntity
  8
4
100
AcDbLine
 10
342.7617444872574
 20
210.4212598519557
 30
0.0
 11
401.7617454872573
 21
210.4212598519557
 31
0.0
  0
LINE
  5
58CF
330
2
100
AcDbEntity
  8
4
100
AcDbLine
 10
342.7617444872574
 20
233.4212608519556
 30
0.0
 11
401.7617454872573
 21
233.4212608519556
 31
0.0
  0
LINE
  5
58D0
330
2
100
AcDbEntity
  8
4
100
AcDbLine
 10
401.7617454872573
 20
234.4212598519557
 30
0.0
 11
401.7617454872573
 21
209.4212608519556
 31
0.0
  0
LINE
  5
58D1
330
2
100
AcDbEntity
  8
4
100
AcDbLine
 10
396.7617444872574
 20
236.4212608519556
 30
0.0
 11
396.7617444872574
 21
233.4212608519556
 31
0.0
  0
LINE
  5
58D2
330
2
100
AcDbEntity
  8
4
100
AcDbLine
 10
342.7617444872574
 20
233.4212608519556
 30
0.0
 11
342.7617444872574
 21
210.4212598519557
 31
0.0
  0
LINE
  5
58D3
330
2
100
AcDbEntity
  8
4
100
AcDbLine
 10
341.7617454872573
 20
236.4212608519556
 30
0.0
 11
341.7617454872573
 21
211.4212588519558
 31
0.0
  0
LINE
  5
58D4
330
2
100
AcDbEntity
  8
4
100
AcDbLine
 10
342.7617444872574
 20
210.4212598519557
 30
0.0
 11
341.7617454872573
 21
211.4212588519558
 31
0.0
  0
LINE
  5
58D5
330
2
100
AcDbEntity
  8
4
100
AcDbLine
 10
341.7617454872573
 20
232.4212588519558
 30
0.0
 11
342.7617444872574
 21
233.4212608519556
 31
0.0
  0
ENDSEC
  0
SECTION
  2
OBJECTS
  0
DICTIONARY
  5
1A
330
0
100
AcDbDictionary
281
     1
  3
ACAD_COLOR
350
4417
  3
ACAD_GROUP
350
18
  3
ACAD_LAYOUT
350
428D
  3
ACAD_MATERIAL
350
43EA
  3
ACAD_MLEADERSTYLE
350
443C
  3
ACAD_MLINESTYLE
350
19
  3
ACAD_PLOTSETTINGS
350
428E
  3
ACAD_PLOTSTYLENAME
350
428B
  3
ACAD_SCALELIST
350
441A
  3
ACAD_TABLESTYLE
350
4418
  3
ACAD_VISUALSTYLE
350
4403
  3
ACDBHEADERROUNDTRIPXREC
350
58E7
  3
AcDbVariableDictionary
350
42BF
  3
AuxHdrRndTripData
350
4620
  3
DWGPROPS
350
58EA
  0
DICTIONARY
  5
58EB
330
12
100
AcDbDictionary
280
     1
281
     1
  3
ACAD_XREC_ROUNDTRIP
360
58EC
  0
DICTIONARY
  5
4441
330
4
100
AcDbDictionary
280
     1
281
     1
  3
ADSK_XREC_LAYER_RECONCILED
360
4442
  0
DICTIONARY
  5
4443
330
37
100
AcDbDictionary
280
     1
281
     1
  3
ADSK_XREC_LAYER_RECONCILED
360
4444
  0
DICTIONARY
  5
4445
330
1B
100
AcDbDictionary
280
     1
281
     1
  3
ADSK_XREC_LAYER_RECONCILED
360
4446
  0
DICTIONARY
  5
4447
330
4C
100
AcDbDictionary
280
     1
281
     1
  3
ADSK_XREC_LAYER_RECONCILED
360
4448
  0
DICTIONARY
  5
4449
330
23
100
AcDbDictionary
280
     1
281
     1
  3
ADSK_XREC_LAYER_RECONCILED
360
444A
  0
DICTIONARY
  5
444B
330
42D7
100
AcDbDictionary
280
     1
281
     1
  3
ADSK_XREC_LAYER_RECONCILED
360
444C
  0
DICTIONARY
  5
4680
330
467F
100
AcDbDictionary
280
     1
281
     1
  3
ADSK_XREC_LAYER_RECONCILED
360
4681
  0
DICTIONARY
  5
4686
330
4685
100
AcDbDictionary
280
     1
281
     1
  3
ADSK_XREC_LAYER_RECONCILED
360
4687
  0
DICTIONARY
  5
545C
330
2
100
AcDbDictionary
280
     1
281
     1
  3
ACAD_SORTENTS
360
545D
  0
DICTIONARY
  5
4417
102
{ACAD_REACTORS
330
1A
102
}
330
1A
100
AcDbDictionary
281
     1
  0
DICTIONARY
  5
18
102
{ACAD_REACTORS
330
1A
102
}
330
1A
100
AcDbDictionary
281
     1
  0
DICTIONARY
  5
428D
102
{ACAD_REACTORS
330
1A
102
}
330
1A
100
AcDbDictionary
281
     1
  3
Model
350
428F
  3
ﾚｲｱｳﾄ1
350
4290
  0
DICTIONARY
  5
43EA
102
{ACAD_REACTORS
330
1A
102
}
330
1A
100
AcDbDictionary
281
     1
  3
ByBlock
350
43F3
  3
ByLayer
350
43EB
  3
Global
350
43FB
  0
DICTIONARY
  5
443C
102
{ACAD_REACTORS
330
1A
102
}
330
1A
100
AcDbDictionary
281
     1
  3
Standard
350
443D
  0
DICTIONARY
  5
19
102
{ACAD_REACTORS
330
1A
102
}
330
1A
100
AcDbDictionary
281
     1
  3
STANDARD
350
1D
  0
DICTIONARY
  5
428E
102
{ACAD_REACTORS
330
1A
102
}
330
1A
100
AcDbDictionary
281
     1
  0
ACDBDICTIONARYWDFLT
  5
428B
102
{ACAD_REACTORS
330
1A
102
}
330
1A
100
AcDbDictionary
281
     1
  3
Normal
350
428C
100
AcDbDictionaryWithDefault
340
428C
  0
DICTIONARY
  5
441A
102
{ACAD_REACTORS
330
1A
102
}
330
1A
100
AcDbDictionary
281
     1
  3
A0
350
441B
  3
A1
350
441C
  3
A2
350
441D
  3
A3
350
441E
  3
A4
350
441F
  3
A5
350
4420
  3
A6
350
4421
  3
A7
350
4422
  3
A8
350
4423
  3
A9
350
4424
  3
B0
350
4425
  3
B1
350
4426
  3
B2
350
4427
  3
B3
350
4428
  3
B4
350
4429
  3
B5
350
442A
  3
B6
350
442B
  3
B7
350
442C
  3
B8
350
442D
  3
B9
350
442E
  3
C0
350
442F
  3
C1
350
4430
  3
C2
350
4431
  3
C3
350
4432
  3
C4
350
4433
  3
C5
350
4434
  3
C6
350
4435
  3
C7
350
4436
  3
C8
350
4437
  3
C9
350
4438
  3
D0
350
4439
  3
D1
350
443A
  3
D2
350
443B
  0
DICTIONARY
  5
4418
102
{ACAD_REACTORS
330
1A
102
}
330
1A
100
AcDbDictionary
281
     1
  3
Standard
350
4419
  0
DICTIONARY
  5
4403
102
{ACAD_REACTORS
330
1A
102
}
330
1A
100
AcDbDictionary
281
     1
  3
2dWireframe
350
4409
  3
3D Hidden
350
440B
  3
3dWireframe
350
440A
  3
Basic
350
4408
  3
Brighten
350
440F
  3
ColorChange
350
4413
  3
Conceptual
350
440C
  3
Dim
350
440E
  3
EdgeColorOff
350
4416
  3
Facepattern
350
4412
  3
Flat
350
4404
  3
FlatWithEdges
350
4405
  3
Gouraud
350
4406
  3
GouraudWithEdges
350
4407
  3
Hidden
350
4666
  3
JitterOff
350
4414
  3
Linepattern
350
4411
  3
OverhangOff
350
4415
  3
Realistic
350
440D
  3
Shaded
350
466B
  3
Shaded with edges
350
466A
  3
Shades of Gray
350
4667
  3
Sketchy
350
4668
  3
Thicken
350
4410
  3
Wireframe
350
4665
  3
X-Ray
350
4669
  0
DICTIONARY
  5
58E7
102
{ACAD_REACTORS
330
1A
102
}
330
1A
100
AcDbDictionary
281
     1
  3
COLORDICT
350
58E8
  3
MATERIALDICT
350
58E9
  0
DICTIONARY
  5
42BF
102
{ACAD_REACTORS
330
1A
102
}
330
1A
100
AcDbDictionary
281
     1
  3
CANNOSCALE
350
466C
  3
CMLEADERSTYLE
350
44B8
  3
CTABLESTYLE
350
44B7
  3
DIMASSOC
350
42C0
  3
HIDETEXT
350
58E6
  3
INDEXCTL
350
44BB
  3
MSLTSCALE
350
466D
  3
SORTENTS
350
44BA
  3
XCLIPFRAME
350
4664
  0
XRECORD
  5
4620
102
{ACAD_REACTORS
330
1A
102
}
330
1A
100
AcDbXrecord
280
     1
310
6400000000000000060000001D000700000001000000000015000000150000000501280A0501280A0000000003000000000000000000000000000000060000000000000000000000000000000000000000000000000000000000000000000000E8BC07F2
  0
XRECORD
  5
58EA
102
{ACAD_REACTORS
330
1A
102
}
330
1A
100
AcDbXrecord
280
     1
  1
DWGPROPS COOKIE
  2

  3

  4

  6

  7

  8
sg-d03
  9

300
=
301
=
302
=
303
=
304
=
305
=
306
=
307
=
308
=
309
=
 40
0.0
 41
2457324.210767465
 42
2458124.371297639
  1

 90
        0
  0
XRECORD
  5
58EC
102
{ACAD_REACTORS
330
58EB
102
}
330
58EB
100
AcDbXrecord
280
     1
102
VTR_0.000_0.000_1.000_1.000_GRIDDISPLAY
 70
     3
102
VTR_0.000_0.000_1.000_1.000_GRIDMAJOR
 70
     5
102
VTR_0.000_0.000_1.000_1.000_DEFAULTLIGHTING
280
     1
102
VTR_0.000_0.000_1.000_1.000_DEFAULTLIGHTINGTYPE
 70
     1
102
VTR_0.000_0.000_1.000_1.000_BRIGHTNESS
141
0.0
102
VTR_0.000_0.000_1.000_1.000_CONTRAST
142
0.0
  0
XRECORD
  5
4442
102
{ACAD_REACTORS
330
4441
102
}
330
4441
100
AcDbXrecord
280
     1
290
     1
  0
XRECORD
  5
4444
102
{ACAD_REACTORS
330
4443
102
}
330
4443
100
AcDbXrecord
280
     1
290
     1
  0
XRECORD
  5
4446
102
{ACAD_REACTORS
330
4445
102
}
330
4445
100
AcDbXrecord
280
     1
290
     1
  0
XRECORD
  5
4448
102
{ACAD_REACTORS
330
4447
102
}
330
4447
100
AcDbXrecord
280
     1
290
     1
  0
XRECORD
  5
444A
102
{ACAD_REACTORS
330
4449
102
}
330
4449
100
AcDbXrecord
280
     1
290
     1
  0
XRECORD
  5
444C
102
{ACAD_REACTORS
330
444B
102
}
330
444B
100
AcDbXrecord
280
     1
290
     1
  0
XRECORD
  5
4681
102
{ACAD_REACTORS
330
4680
102
}
330
4680
100
AcDbXrecord
280
     1
290
     1
  0
XRECORD
  5
4687
102
{ACAD_REACTORS
330
4686
102
}
330
4686
100
AcDbXrecord
280
     1
290
     1
  0
SORTENTSTABLE
  5
545D
102
{ACAD_REACTORS
330
545C
102
}
330
545C
100
AcDbSortentsTable
330
2
331
0
  5
547B
331
0
  5
52CD
331
0
  5
52CE
331
0
  5
52CF
331
0
  5
52D0
331
0
  5
52D1
331
0
  5
52D2
331
0
  5
52D3
331
0
  5
52D4
331
0
  5
52D5
331
0
  5
52D6
331
0
  5
52D7
331
0
  5
52D8
331
0
  5
52D9
331
0
  5
52DA
331
0
  5
52DB
331
0
  5
52DC
331
0
  5
52DD
331
0
  5
52DE
331
0
  5
52DF
331
0
  5
52E0
331
0
  5
52E1
331
0
  5
52E2
331
0
  5
52E3
331
0
  5
52E4
331
0
  5
52E5
331
0
  5
52E6
331
0
  5
52E7
331
0
  5
52E8
331
0
  5
52E9
331
0
  5
52EA
331
0
  5
52EB
331
0
  5
52EC
331
0
  5
52ED
331
0
  5
52EE
331
0
  5
52EF
331
0
  5
52F0
331
0
  5
52F1
331
0
  5
52F2
331
0
  5
52F3
331
0
  5
52F4
331
0
  5
52F5
331
0
  5
52F6
331
0
  5
52F7
331
0
  5
52F8
331
0
  5
52F9
331
0
  5
52FA
331
0
  5
52FB
331
0
  5
52FC
331
0
  5
52FD
331
0
  5
52FE
331
0
  5
52FF
331
0
  5
5300
331
0
  5
5301
331
0
  5
5302
331
0
  5
5303
331
0
  5
5304
331
0
  5
5305
331
0
  5
5306
331
0
  5
5307
331
0
  5
5308
331
0
  5
5309
331
0
  5
530A
331
0
  5
530B
331
0
  5
530C
331
0
  5
530D
331
0
  5
530E
331
0
  5
530F
331
0
  5
5310
331
0
  5
5311
331
0
  5
5312
331
0
  5
5313
331
0
  5
5314
331
0
  5
5315
331
0
  5
5316
331
0
  5
5317
331
0
  5
5318
331
0
  5
5319
331
0
  5
531A
331
0
  5
531B
331
0
  5
531C
331
0
  5
531D
331
0
  5
531E
331
0
  5
531F
331
0
  5
5320
331
0
  5
5321
331
0
  5
5322
331
0
  5
5323
331
0
  5
5324
331
0
  5
5325
331
0
  5
5326
331
0
  5
5327
331
0
  5
5328
331
0
  5
5329
331
0
  5
532A
331
0
  5
532B
331
0
  5
532C
331
0
  5
532D
331
0
  5
532E
331
0
  5
532F
331
0
  5
5330
331
0
  5
5331
331
0
  5
5332
331
0
  5
5333
331
0
  5
5334
331
0
  5
5335
331
0
  5
5336
331
0
  5
5337
331
0
  5
5338
331
0
  5
5339
331
0
  5
533A
331
0
  5
533B
331
0
  5
533C
331
0
  5
533D
331
0
  5
533E
331
0
  5
533F
331
0
  5
5340
331
0
  5
5341
331
0
  5
5342
331
0
  5
5343
331
0
  5
5344
331
0
  5
5345
331
0
  5
5346
331
0
  5
5347
331
0
  5
5348
331
0
  5
5349
331
0
  5
534A
331
0
  5
534B
331
0
  5
534C
331
0
  5
534D
331
0
  5
534E
331
0
  5
534F
331
0
  5
5350
331
0
  5
5351
331
0
  5
5352
331
0
  5
5353
331
0
  5
5354
331
0
  5
5355
331
0
  5
5356
331
0
  5
5357
331
0
  5
5358
331
0
  5
5359
331
0
  5
535A
331
0
  5
535B
331
0
  5
535C
331
0
  5
535D
331
0
  5
535E
331
0
  5
535F
331
0
  5
5360
331
0
  5
5361
331
0
  5
5362
331
0
  5
5363
331
0
  5
5364
331
0
  5
5365
331
0
  5
5366
331
0
  5
5367
331
0
  5
5368
331
0
  5
5369
331
0
  5
536A
331
0
  5
536B
331
0
  5
536C
331
0
  5
536D
331
0
  5
536E
331
0
  5
536F
331
0
  5
5370
331
0
  5
5371
331
0
  5
5372
331
0
  5
5373
331
0
  5
5374
331
0
  5
5375
331
0
  5
5376
331
0
  5
5377
331
0
  5
5378
331
0
  5
5379
331
0
  5
537A
331
0
  5
537B
331
0
  5
537C
331
0
  5
537D
331
0
  5
537E
331
0
  5
537F
331
0
  5
5380
331
0
  5
5381
331
0
  5
5382
331
0
  5
5383
331
0
  5
5384
331
0
  5
5385
331
0
  5
5386
331
0
  5
5387
331
0
  5
5388
331
0
  5
5389
331
0
  5
538A
331
0
  5
538B
331
0
  5
538C
331
0
  5
538D
331
0
  5
538E
331
0
  5
538F
331
0
  5
5390
331
0
  5
5391
331
0
  5
5392
331
0
  5
5393
331
0
  5
5394
331
0
  5
5395
331
0
  5
5396
331
0
  5
5397
331
0
  5
5398
331
0
  5
5399
331
0
  5
53A6
331
0
  5
53A7
331
0
  5
53A8
331
0
  5
53A9
331
0
  5
53AA
331
0
  5
53AB
331
0
  5
53AC
331
0
  5
53AD
331
0
  5
53AE
331
0
  5
53AF
331
0
  5
53B0
331
0
  5
53B1
331
0
  5
53B2
331
0
  5
53B3
331
0
  5
53B4
331
0
  5
53B5
331
0
  5
53B6
331
0
  5
53B7
331
0
  5
53B8
331
0
  5
53B9
331
0
  5
53BA
331
0
  5
53BB
331
0
  5
53BC
331
0
  5
53BD
331
0
  5
53BE
331
0
  5
53BF
331
0
  5
53C0
331
0
  5
53C1
331
0
  5
53C2
331
0
  5
53C3
331
0
  5
53C4
331
0
  5
53C5
331
0
  5
53C6
331
0
  5
53C7
331
0
  5
53CA
331
0
  5
53CB
331
0
  5
53CE
331
0
  5
53CF
331
0
  5
53D0
331
0
  5
53D1
331
0
  5
53D2
331
0
  5
53D3
331
0
  5
53D4
331
0
  5
53D5
331
0
  5
53D6
331
0
  5
53D7
331
0
  5
53D8
331
0
  5
53D9
331
0
  5
53DA
331
0
  5
53DB
331
0
  5
53E8
331
0
  5
53E9
331
0
  5
53EA
331
0
  5
53EB
331
0
  5
53EC
331
0
  5
53ED
331
0
  5
53EE
331
0
  5
53EF
331
0
  5
53F0
331
0
  5
53F1
331
0
  5
53F2
331
0
  5
53F3
331
0
  5
53F4
331
0
  5
53F5
331
0
  5
53F6
331
0
  5
53F7
331
0
  5
53F8
331
0
  5
53F9
331
0
  5
53FA
331
0
  5
53FB
331
0
  5
53FC
331
0
  5
53FD
331
0
  5
53FE
331
0
  5
53FF
331
0
  5
5400
331
0
  5
5401
331
0
  5
5402
331
0
  5
5403
331
0
  5
5404
331
0
  5
5405
331
0
  5
5406
331
0
  5
5407
331
0
  5
5408
331
0
  5
5409
331
0
  5
540A
331
0
  5
540B
331
0
  5
540C
331
0
  5
540D
331
0
  5
540E
331
0
  5
540F
331
0
  5
5410
331
0
  5
5411
331
0
  5
5412
331
0
  5
5413
331
0
  5
5414
331
0
  5
5415
331
0
  5
5416
331
0
  5
5417
331
0
  5
5418
331
0
  5
5419
331
0
  5
541A
331
0
  5
541B
331
0
  5
541C
331
0
  5
541D
331
0
  5
541E
331
0
  5
541F
331
0
  5
5420
331
0
  5
5421
331
0
  5
5422
331
0
  5
5423
331
0
  5
5424
331
0
  5
5425
331
0
  5
5426
331
0
  5
5427
331
0
  5
5428
331
0
  5
5429
331
0
  5
542A
331
0
  5
542B
331
0
  5
542C
331
0
  5
542D
331
0
  5
542E
331
0
  5
542F
331
0
  5
5430
331
0
  5
5431
331
0
  5
5432
331
0
  5
5433
331
0
  5
5434
331
0
  5
5435
331
0
  5
5436
331
0
  5
5437
331
0
  5
5438
331
0
  5
5439
331
0
  5
543A
331
0
  5
543B
331
0
  5
543C
331
0
  5
543D
331
0
  5
543E
331
0
  5
543F
331
0
  5
5440
331
0
  5
5441
331
0
  5
5442
331
0
  5
5443
331
0
  5
5444
331
0
  5
5445
331
0
  5
5456
331
0
  5
5458
331
547B
  5
547C
331
547C
  5
547E
331
547D
  5
547F
331
547E
  5
5480
331
547F
  5
5481
331
5480
  5
5482
331
5481
  5
5483
331
5482
  5
5484
331
5483
  5
5485
331
5484
  5
5486
331
0
  5
5487
331
0
  5
5488
331
0
  5
5489
331
0
  5
548A
331
0
  5
548B
331
0
  5
548C
331
0
  5
548D
331
0
  5
548E
331
0
  5
548F
331
0
  5
5490
331
0
  5
5491
331
0
  5
5492
331
5491
  5
5493
331
5492
  5
5494
331
5493
  5
5495
331
5494
  5
5496
331
5495
  5
5497
331
5496
  5
5498
331
5497
  5
5499
331
5498
  5
549A
331
5499
  5
549B
331
549A
  5
549C
331
549B
  5
549D
331
549C
  5
549E
331
549D
  5
549F
331
549E
  5
54A0
331
549F
  5
54A1
331
54A0
  5
54A2
331
54A1
  5
54A3
331
54A2
  5
54A4
331
54A3
  5
54A5
331
54A4
  5
54A6
331
54A5
  5
54A7
331
54A6
  5
54A8
331
54A7
  5
54A9
331
54A8
  5
54AA
331
54A9
  5
54AB
331
54AA
  5
54AC
331
54AB
  5
54AD
331
54AC
  5
54AE
331
54AD
  5
54AF
331
54AE
  5
54B0
331
54AF
  5
54B1
331
54B0
  5
54B2
331
54B1
  5
54B3
331
54B2
  5
54B4
331
54B3
  5
54B5
331
54B4
  5
54B6
331
54B5
  5
54B7
331
54B6
  5
54B8
331
54B7
  5
54B9
331
54B8
  5
54BA
331
54B9
  5
54BB
331
54BA
  5
54BC
331
54BB
  5
54BD
331
54BC
  5
54BE
331
54BD
  5
54BF
331
54BE
  5
54C0
331
54BF
  5
54C1
331
54C0
  5
54C2
331
54C1
  5
54C3
331
54C2
  5
54C4
331
54C3
  5
54C5
331
54C4
  5
54C6
331
54C5
  5
54C7
331
54C8
  5
54CA
331
54CA
  5
54CC
331
54CB
  5
54CD
331
54CC
  5
54CE
331
54CE
  5
54D0
331
54CF
  5
54D1
331
54D2
  5
54D4
331
54D3
  5
54D5
331
54D4
  5
54D6
331
54D5
  5
54D7
331
54D6
  5
54D8
331
54D7
  5
54D9
331
54D8
  5
54DA
331
54D9
  5
54DB
331
54DA
  5
54DC
331
54DB
  5
54DD
331
54DC
  5
54DE
331
54DD
  5
54DF
331
54DE
  5
54E0
331
54DF
  5
54E1
331
54E0
  5
54E2
331
54E1
  5
54E3
331
54E2
  5
54E4
331
54E3
  5
54E5
331
54E4
  5
54E6
331
54E5
  5
54E7
331
54E6
  5
54E8
331
54E7
  5
54E9
331
54E8
  5
54EA
331
54E9
  5
54EB
331
54EA
  5
54EC
331
54EB
  5
54ED
331
54EC
  5
54EE
331
54ED
  5
54EF
331
54EE
  5
54F0
331
54EF
  5
54F1
331
54F0
  5
54F2
331
54F1
  5
54F3
331
54F2
  5
54F4
331
54F3
  5
54F5
331
54F4
  5
54F6
331
54F5
  5
54F7
331
54F6
  5
54F8
331
54F7
  5
54F9
331
54F8
  5
54FA
331
54F9
  5
54FB
331
54FA
  5
54FC
331
54FB
  5
54FD
331
54FC
  5
54FE
331
54FD
  5
54FF
331
54FE
  5
5500
331
54FF
  5
5501
331
5500
  5
5502
331
5501
  5
5503
331
5502
  5
5504
331
5503
  5
5505
331
5504
  5
5506
331
5505
  5
5507
331
5506
  5
5508
331
5507
  5
5509
331
5508
  5
550A
331
5509
  5
550B
331
550A
  5
550C
331
550B
  5
550D
331
550C
  5
550E
331
550D
  5
550F
331
550E
  5
5510
331
550F
  5
5511
331
5510
  5
5512
331
5511
  5
5513
331
5512
  5
5514
331
5513
  5
5515
331
5514
  5
5516
331
5515
  5
5517
331
5516
  5
5518
331
5517
  5
5519
331
5518
  5
551A
331
5519
  5
551B
331
551A
  5
551C
331
551B
  5
551D
331
551C
  5
551E
331
551D
  5
551F
331
551E
  5
5520
331
551F
  5
5521
331
5520
  5
5522
331
5521
  5
5523
331
5522
  5
5524
331
5523
  5
5525
331
5524
  5
5526
331
5525
  5
5527
331
5526
  5
5528
331
5527
  5
5529
331
5528
  5
552A
331
5529
  5
552B
331
552A
  5
552C
331
552B
  5
552D
331
552C
  5
552E
331
552D
  5
552F
331
552E
  5
5530
331
552F
  5
5531
331
5530
  5
5532
331
5531
  5
5533
331
5532
  5
5534
331
5533
  5
5535
331
5534
  5
5536
331
5535
  5
5537
331
5536
  5
5538
331
5537
  5
5539
331
5538
  5
553A
331
5539
  5
553B
331
553A
  5
553C
331
553B
  5
553D
331
553C
  5
553E
331
553D
  5
553F
331
553E
  5
5540
331
553F
  5
5541
331
5540
  5
5542
331
5541
  5
5543
331
5542
  5
5544
331
5543
  5
5545
331
5544
  5
5546
331
5545
  5
5547
331
5546
  5
5548
331
5547
  5
5549
331
5548
  5
554A
331
5549
  5
554B
331
554A
  5
554C
331
554B
  5
554D
331
554C
  5
554E
331
554D
  5
554F
331
554E
  5
5550
331
554F
  5
5551
331
5550
  5
5552
331
5551
  5
5553
331
5552
  5
5554
331
5553
  5
5555
331
5554
  5
5556
331
5555
  5
5557
331
5556
  5
5558
331
5557
  5
5559
331
5558
  5
555A
331
5559
  5
555B
331
555A
  5
555C
331
555B
  5
555D
331
555C
  5
555E
331
555D
  5
555F
331
555E
  5
5560
331
555F
  5
5561
331
5560
  5
5562
331
5561
  5
5563
331
5562
  5
5564
331
5563
  5
5565
331
5564
  5
5566
331
5565
  5
5567
331
5566
  5
5568
331
5567
  5
5569
331
5568
  5
556A
331
5569
  5
556B
331
556A
  5
556C
331
556B
  5
556D
331
556C
  5
556E
331
556D
  5
556F
331
556E
  5
5570
331
556F
  5
55F0
331
5570
  5
55F1
331
0
  5
55F2
331
0
  5
55F3
331
0
  5
560C
331
55F3
  5
560D
331
0
  5
5626
331
0
  5
5627
331
0
  5
5628
331
0
  5
5629
331
0
  5
562A
331
0
  5
562B
331
0
  5
562C
331
0
  5
562D
331
0
  5
562E
331
0
  5
562F
331
0
  5
5630
331
0
  5
5631
331
5630
  5
5632
331
5631
  5
5633
331
5632
  5
5634
331
5633
  5
5641
331
5634
  5
5642
331
5641
  5
5643
331
5642
  5
5644
331
5643
  5
5645
331
5644
  5
5646
331
5645
  5
5647
331
5646
  5
5648
331
5647
  5
5649
331
5648
  5
564A
331
5649
  5
564B
331
564A
  5
564C
331
564B
  5
564D
331
564C
  5
564E
331
564D
  5
564F
331
564E
  5
5650
331
564F
  5
5651
331
5650
  5
5652
331
5651
  5
5653
331
5652
  5
5654
331
5653
  5
5655
331
5654
  5
5656
331
5655
  5
5657
331
5656
  5
5658
331
5657
  5
5659
331
5658
  5
565A
331
5659
  5
565B
331
565A
  5
565C
331
565B
  5
565D
331
565C
  5
565E
331
565D
  5
565F
331
565E
  5
5660
331
565F
  5
5661
331
5660
  5
5662
331
5661
  5
5663
331
5662
  5
5664
331
5663
  5
5665
331
5664
  5
5666
331
5665
  5
5667
331
5666
  5
5668
331
5667
  5
5669
331
5668
  5
566A
331
5669
  5
566B
331
566A
  5
566C
331
566B
  5
566D
331
566C
  5
566E
331
566D
  5
566F
331
566E
  5
5670
331
566F
  5
5671
331
5670
  5
5672
331
5671
  5
5673
331
5672
  5
5674
331
5673
  5
5675
331
5674
  5
5676
331
5675
  5
5677
331
5676
  5
5678
331
5677
  5
5679
331
5678
  5
567A
331
5679
  5
567B
331
567A
  5
567C
331
567B
  5
567D
331
567C
  5
567E
331
567D
  5
567F
331
567E
  5
5680
331
567F
  5
5681
331
5680
  5
5682
331
5681
  5
5683
331
5682
  5
5684
331
5683
  5
5685
331
5684
  5
5686
331
5685
  5
5687
331
5686
  5
5688
331
5687
  5
5689
331
5688
  5
568A
331
5689
  5
568B
331
568A
  5
568C
331
568B
  5
568D
331
568C
  5
568E
331
568D
  5
568F
331
568E
  5
5690
331
568F
  5
5691
331
5690
  5
5692
331
5691
  5
5693
331
5692
  5
5694
331
5693
  5
5695
331
5694
  5
5696
331
5695
  5
5697
331
5696
  5
5698
331
5697
  5
5699
331
5698
  5
569A
331
5699
  5
569B
331
569A
  5
569C
331
569B
  5
569D
331
569C
  5
569E
331
569D
  5
569F
331
569E
  5
56A0
331
569F
  5
56A1
331
56A0
  5
56A2
331
56A1
  5
56A3
331
56A2
  5
56A4
331
56A3
  5
56A5
331
56A4
  5
56A6
331
56A5
  5
56A7
331
56A6
  5
56A8
331
56A7
  5
56A9
331
56A8
  5
56AA
331
56A9
  5
56AB
331
56AA
  5
56AC
331
56AB
  5
56AD
331
56AC
  5
56AE
331
56AD
  5
56AF
331
56AE
  5
56B0
331
56AF
  5
56B1
331
56B0
  5
56B2
331
56B1
  5
56B3
331
56B2
  5
56B4
331
56B3
  5
56B5
331
56B4
  5
56B6
331
56B5
  5
56B7
331
56B6
  5
56B8
331
56B7
  5
56B9
331
56B8
  5
56BA
331
56B9
  5
56BB
331
56BA
  5
56BC
331
56BB
  5
56BD
331
56BC
  5
56BE
331
56BD
  5
56BF
331
56BE
  5
56C0
331
56BF
  5
56C1
331
56C0
  5
56C2
331
56C1
  5
56C3
331
56C2
  5
56C4
331
56C3
  5
56C5
331
56C4
  5
56C6
331
56C5
  5
56C7
331
56C6
  5
56C8
331
56C7
  5
56C9
331
56C8
  5
56CA
331
56C9
  5
56CB
331
56CA
  5
56CC
331
56CB
  5
56CD
331
56CC
  5
56CE
331
56CD
  5
56CF
331
56CE
  5
56D0
331
56CF
  5
56D1
331
56D0
  5
56D2
331
56D1
  5
56D3
331
56D2
  5
56D4
331
56D3
  5
56D5
331
56D4
  5
56D6
331
56D5
  5
56D7
331
56D6
  5
56D8
331
56D7
  5
56D9
331
56D8
  5
56DA
331
56D9
  5
56DB
331
56DA
  5
56DC
331
56DB
  5
56DD
331
56DC
  5
56DE
331
56DD
  5
56DF
331
56DE
  5
56E0
331
56DF
  5
56E1
331
56E0
  5
56E2
331
56E1
  5
56E3
331
56E2
  5
56E4
331
56E3
  5
56E5
331
56E4
  5
56E6
331
56E5
  5
56E7
331
56E6
  5
56E8
331
56E7
  5
56E9
331
56E8
  5
56EA
331
56E9
  5
56EB
331
56EA
  5
56EC
331
56EB
  5
56ED
331
56EC
  5
56EE
331
56ED
  5
56EF
331
56EE
  5
56F0
331
56EF
  5
56F1
331
56F0
  5
56F2
331
56F1
  5
56F3
331
56F2
  5
56F4
331
56F3
  5
56F5
331
56F4
  5
56F6
331
56F5
  5
56F7
331
56F6
  5
56F8
331
56F7
  5
56F9
331
56F8
  5
56FA
331
56F9
  5
56FB
331
56FA
  5
56FC
331
56FB
  5
56FD
331
56FC
  5
56FE
331
56FD
  5
56FF
331
56FE
  5
5700
331
56FF
  5
5701
331
5700
  5
5702
331
5701
  5
5703
331
5702
  5
5704
331
5703
  5
5705
331
5704
  5
5706
331
5705
  5
5707
331
5706
  5
5708
331
5707
  5
5709
331
5708
  5
570A
331
5709
  5
570B
331
570A
  5
570C
331
570B
  5
570D
331
570C
  5
570E
331
570D
  5
570F
331
570E
  5
5710
331
570F
  5
5711
331
5710
  5
5713
331
5711
  5
5714
331
5713
  5
5715
331
5714
  5
5716
331
5715
  5
5717
331
5716
  5
5718
331
5717
  5
5719
331
5718
  5
571A
331
5719
  5
571C
331
571A
  5
571D
331
571C
  5
571E
331
571D
  5
571F
331
571E
  5
5720
331
571F
  5
5721
331
5720
  5
5722
331
5721
  5
5723
331
5722
  5
5724
331
5723
  5
5725
331
5724
  5
5726
331
5725
  5
5727
331
5726
  5
5728
331
5727
  5
5729
331
5728
  5
572A
331
5729
  5
572B
331
572A
  5
572C
331
572B
  5
572D
331
572C
  5
572E
331
572D
  5
572F
331
572E
  5
5730
331
572F
  5
5731
331
5730
  5
5732
331
5731
  5
5733
331
5732
  5
5734
331
5733
  5
5735
331
5734
  5
5736
331
5735
  5
5737
331
5736
  5
5738
331
5737
  5
5739
331
5738
  5
573A
331
5739
  5
573B
331
573A
  5
573C
331
573B
  5
573D
331
573C
  5
573E
331
573D
  5
573F
331
573E
  5
5740
331
573F
  5
5741
331
5740
  5
5742
331
5741
  5
5743
331
5742
  5
5744
331
5743
  5
5745
331
5744
  5
5746
331
5745
  5
5747
331
5746
  5
5748
331
5747
  5
5749
331
5748
  5
574A
331
5749
  5
574B
331
574A
  5
574C
331
574B
  5
574D
331
574C
  5
574E
331
574D
  5
574F
331
574E
  5
5750
331
574F
  5
5751
331
5750
  5
5752
331
5751
  5
5753
331
5752
  5
5754
331
5753
  5
5755
331
5754
  5
5756
331
5755
  5
5757
331
5756
  5
5758
331
5757
  5
5759
331
5758
  5
575A
331
5759
  5
575B
331
575A
  5
575C
331
575B
  5
575D
331
575C
  5
575E
331
575D
  5
575F
331
575E
  5
5760
331
575F
  5
5761
331
5760
  5
5762
331
5761
  5
5763
331
5762
  5
5764
331
5763
  5
5765
331
5764
  5
5766
331
5765
  5
5767
331
5766
  5
5768
331
5767
  5
5769
331
5768
  5
576A
331
5769
  5
576B
331
576A
  5
576C
331
576B
  5
576D
331
576C
  5
576E
331
576D
  5
576F
331
576E
  5
5770
331
576F
  5
5771
331
5770
  5
5772
331
5771
  5
5773
331
5772
  5
5774
331
5773
  5
5775
331
5774
  5
5776
331
5775
  5
5777
331
5776
  5
5778
331
5777
  5
5779
331
5778
  5
577A
331
5779
  5
577B
331
577A
  5
577C
331
577B
  5
577D
331
577C
  5
577E
331
577D
  5
577F
331
577E
  5
5780
331
577F
  5
5781
331
5780
  5
5782
331
5781
  5
5783
331
5782
  5
5784
331
5783
  5
5785
331
5784
  5
5786
331
5785
  5
5787
331
5786
  5
5788
331
5787
  5
5789
331
5788
  5
578A
331
5789
  5
578B
331
578A
  5
578C
331
578B
  5
578D
331
578C
  5
578E
331
578D
  5
578F
331
578E
  5
5790
331
578F
  5
5791
331
5790
  5
5792
331
5791
  5
5793
331
5792
  5
5794
331
5793
  5
5795
331
5794
  5
5796
331
5795
  5
5797
331
5796
  5
5798
331
5797
  5
5799
331
5798
  5
579A
331
579D
  5
579F
331
57A1
  5
57A3
331
57A2
  5
57A4
331
57A3
  5
57A5
331
57A4
  5
57A6
331
57A5
  5
57A7
331
57A6
  5
57A8
331
57A7
  5
57A9
331
57A8
  5
57AA
331
57A9
  5
57AB
331
57AA
  5
57AC
331
57AB
  5
57AD
331
57AC
  5
57AE
331
57AD
  5
57AF
331
57AE
  5
57B0
331
57AF
  5
57B1
331
57B0
  5
57B2
331
57B1
  5
57B3
331
57B2
  5
57B4
331
57B3
  5
57B5
331
57B4
  5
57B6
331
57B5
  5
57B7
331
57B6
  5
57B8
331
57B7
  5
57B9
331
57B8
  5
57BA
331
57B9
  5
57BB
331
57BA
  5
57BC
331
0
  5
57BD
331
0
  5
57BE
331
0
  5
57BF
331
0
  5
57C0
331
0
  5
57C1
331
0
  5
57C2
331
0
  5
57C3
331
0
  5
57C4
331
0
  5
57C5
331
0
  5
57C6
331
0
  5
57C7
331
0
  5
57C8
331
0
  5
57C9
331
0
  5
57CA
331
0
  5
57CB
331
0
  5
57CC
331
0
  5
57CD
331
0
  5
57CE
331
0
  5
57CF
331
0
  5
57D0
331
0
  5
57D1
331
0
  5
57D2
331
0
  5
57D3
331
0
  5
57D4
331
0
  5
57D5
331
0
  5
57D6
331
0
  5
57D7
331
0
  5
57D8
331
0
  5
57D9
331
0
  5
57DA
331
0
  5
57DB
331
0
  5
57DC
331
0
  5
57DD
331
0
  5
57DE
331
0
  5
57DF
331
0
  5
57E0
331
0
  5
57E1
331
0
  5
57E2
331
0
  5
57E3
331
0
  5
57E4
331
0
  5
57E5
331
0
  5
57E6
331
0
  5
57E7
331
0
  5
57E8
331
0
  5
57E9
331
0
  5
57EA
331
0
  5
57EB
331
0
  5
57EC
331
0
  5
57ED
331
0
  5
57EE
331
0
  5
57EF
331
0
  5
57F0
331
0
  5
57F1
331
0
  5
57F2
331
0
  5
57F3
331
0
  5
57F4
331
0
  5
57F5
331
0
  5
57F6
331
0
  5
57F7
331
0
  5
57F8
331
0
  5
57F9
331
0
  5
57FA
331
0
  5
57FB
331
0
  5
57FC
331
0
  5
57FD
331
0
  5
57FE
331
0
  5
57FF
331
0
  5
5800
331
0
  5
5801
331
0
  5
5802
331
0
  5
5803
331
0
  5
5804
331
0
  5
5805
331
0
  5
5806
331
0
  5
5807
331
0
  5
5808
331
0
  5
5809
331
0
  5
580A
331
0
  5
580B
331
0
  5
580C
331
0
  5
580D
331
0
  5
580E
331
0
  5
580F
331
0
  5
5810
331
0
  5
5811
331
0
  5
5812
331
0
  5
5813
331
0
  5
5814
331
0
  5
5815
331
0
  5
5816
331
0
  5
5817
331
0
  5
5818
331
0
  5
5819
331
0
  5
581A
331
0
  5
581B
331
0
  5
581C
331
0
  5
581D
331
0
  5
581E
331
0
  5
581F
331
0
  5
5820
331
0
  5
5821
331
0
  5
5822
331
0
  5
5823
331
0
  5
5824
331
0
  5
5825
331
0
  5
5826
331
0
  5
582D
331
0
  5
582E
331
0
  5
582F
331
0
  5
5830
331
0
  5
5831
331
0
  5
5832
331
0
  5
5833
331
0
  5
5834
331
0
  5
5835
331
0
  5
5836
331
0
  5
5837
331
0
  5
5838
331
0
  5
5839
331
0
  5
583A
331
0
  5
583B
331
0
  5
583C
331
0
  5
583D
331
0
  5
583E
331
0
  5
583F
331
0
  5
5840
331
0
  5
5841
331
0
  5
5842
331
0
  5
5843
331
0
  5
5844
331
0
  5
5845
331
0
  5
5846
331
0
  5
5847
331
0
  5
5848
331
0
  5
5849
331
0
  5
584A
331
0
  5
584B
331
0
  5
584C
331
0
  5
584D
331
0
  5
584E
331
0
  5
584F
331
0
  5
5850
331
0
  5
5851
331
0
  5
5852
331
0
  5
5853
331
0
  5
5854
331
0
  5
5855
331
0
  5
5856
331
0
  5
5857
331
0
  5
5858
331
0
  5
5859
331
0
  5
585A
331
0
  5
585B
331
0
  5
585C
331
0
  5
585D
331
0
  5
585E
331
0
  5
585F
331
0
  5
5860
331
0
  5
5861
331
0
  5
5862
331
0
  5
5863
331
0
  5
5864
331
0
  5
5865
331
0
  5
5866
331
0
  5
5867
331
0
  5
5868
331
0
  5
5869
331
0
  5
586A
331
0
  5
586B
331
0
  5
586C
331
0
  5
586D
331
0
  5
586E
331
0
  5
587D
331
0
  5
587E
331
0
  5
587F
331
0
  5
5880
331
0
  5
5881
331
0
  5
5882
331
0
  5
5883
331
0
  5
5884
331
0
  5
5886
331
0
  5
5887
331
0
  5
5888
331
0
  5
5889
331
0
  5
588A
331
0
  5
588B
331
0
  5
588C
331
0
  5
588D
331
0
  5
588E
331
0
  5
588F
331
0
  5
5890
331
0
  5
5891
331
0
  5
5892
331
0
  5
5893
331
0
  5
5894
331
0
  5
5895
331
0
  5
5896
331
0
  5
5897
331
0
  5
58A5
331
0
  5
58A6
331
0
  5
58A7
331
0
  5
58A8
331
0
  5
58A9
331
0
  5
58AB
331
0
  5
58AC
331
0
  5
58AD
331
0
  5
58B6
331
0
  5
58B7
  0
LAYOUT
  5
428F
102
{ACAD_REACTORS
330
428D
102
}
330
428D
100
AcDbPlotSettings
  1

  2
Bullzip PDF Printer.pc3
  4
A3
  6

 40
0.2
 41
0.0
 42
0.0
 43
0.0
 44
420.2
 45
297.1
 46
25.0
 47
12.0
 48
59.99999985999989
 49
0.0
140
1587.99999636
141
1089.999997456667
142
1.0
143
4.0
 70
 11936
 72
     1
 73
     0
 74
     4
  7
monochrome.ctb
 75
     0
147
1.0
148
-59.99999985999989
149
0.0
100
AcDbLayout
  1
Model
 70
     0
 71
     0
 10
0.0
 20
0.0
 11
12.0
 21
9.0
 12
0.0
 22
0.0
 32
0.0
 14
273.9015109516854
 24
14.92125885195583
 34
0.0
 15
1305.066478526562
 25
1047.673449055227
 35
0.0
146
0.0
 13
0.0
 23
0.0
 33
0.0
 16
1.0
 26
0.0
 36
0.0
 17
0.0
 27
1.0
 37
0.0
 76
     0
330
2
331
43E8
1001
ACAD_PSEXT
1000
Bullzip PDF Printer.pc3
1000
Bullzip PDF Printer
1000
BULLZIP
1000
Bullzip PDF Printer 10.1.0.1871
1070
     0
  0
LAYOUT
  5
4290
102
{ACAD_REACTORS
330
428D
102
}
330
428D
100
AcDbPlotSettings
  1

  2
SR-LP8300F
  4

  6

 40
0.0
 41
0.0
 42
0.0
 43
0.0
 44
0.0
 45
0.0
 46
0.0
 47
0.0
 48
0.0
 49
0.0
140
0.0
141
0.0
142
1.0
143
1.0
 70
   688
 72
     0
 73
     0
 74
     5
  7
monochrome.ctb
 75
    16
147
1.0
148
0.0
149
0.0
100
AcDbLayout
  1
ﾚｲｱｳﾄ1
 70
     0
 71
     1
 10
0.0
 20
0.0
 11
12.0
 21
9.0
 12
0.0
 22
0.0
 32
0.0
 14
1000000000000000E+20
 24
1000000000000000E+20
 34
1000000000000000E+20
 15
-1000000000000000E+20
 25
-1000000000000000E+20
 35
-1000000000000000E+20
146
0.0
 13
0.0
 23
0.0
 33
0.0
 16
1.0
 26
0.0
 36
0.0
 17
0.0
 27
1.0
 37
0.0
 76
     0
330
7
  0
MATERIAL
  5
43F3
102
{ACAD_REACTORS
330
43EA
102
}
102
{ACAD_XDICTIONARY
360
58ED
102
}
330
43EA
100
AcDbMaterial
  1
BYBLOCK
 72
     0
 73
     2
 43
0.0208333333333333
 43
0.0
 43
0.0
 43
0.0
 43
0.0
 43
0.0208333333333333
 43
0.0
 43
0.0
 43
0.0
 43
0.0
 43
1.0
 43
0.0
 43
0.0
 43
0.0
 43
0.0
 43
1.0
 77
     0
 78
     2
 47
0.0208333333333333
 47
0.0
 47
0.0
 47
0.0
 47
0.0
 47
0.0208333333333333
 47
0.0
 47
0.0
 47
0.0
 47
0.0
 47
1.0
 47
0.0
 47
0.0
 47
0.0
 47
0.0
 47
1.0
171
     0
172
     2
 49
0.0208333333333333
 49
0.0
 49
0.0
 49
0.0
 49
0.0
 49
0.0208333333333333
 49
0.0
 49
0.0
 49
0.0
 49
0.0
 49
1.0
 49
0.0
 49
0.0
 49
0.0
 49
0.0
 49
1.0
175
     0
176
     2
142
0.0208333333333333
142
0.0
142
0.0
142
0.0
142
0.0
142
0.0208333333333333
142
0.0
142
0.0
142
0.0
142
0.0
142
1.0
142
0.0
142
0.0
142
0.0
142
0.0
142
1.0
179
     0
270
     2
144
0.0208333333333333
144
0.0
144
0.0
144
0.0
144
0.0
144
0.0208333333333333
144
0.0
144
0.0
144
0.0
144
0.0
144
1.0
144
0.0
144
0.0
144
0.0
144
0.0
144
1.0
274
     2
147
0.0208333333333333
147
0.0
147
0.0
147
0.0
147
0.0
147
0.0208333333333333
147
0.0
147
0.0
147
0.0
147
0.0
147
1.0
147
0.0
147
0.0
147
0.0
147
0.0
147
1.0
  0
MATERIAL
  5
43EB
102
{ACAD_REACTORS
330
43EA
102
}
102
{ACAD_XDICTIONARY
360
58EF
102
}
330
43EA
100
AcDbMaterial
  1
BYLAYER
 72
     0
 73
     2
 43
0.0208333333333333
 43
0.0
 43
0.0
 43
0.0
 43
0.0
 43
0.0208333333333333
 43
0.0
 43
0.0
 43
0.0
 43
0.0
 43
1.0
 43
0.0
 43
0.0
 43
0.0
 43
0.0
 43
1.0
 77
     0
 78
     2
 47
0.0208333333333333
 47
0.0
 47
0.0
 47
0.0
 47
0.0
 47
0.0208333333333333
 47
0.0
 47
0.0
 47
0.0
 47
0.0
 47
1.0
 47
0.0
 47
0.0
 47
0.0
 47
0.0
 47
1.0
171
     0
172
     2
 49
0.0208333333333333
 49
0.0
 49
0.0
 49
0.0
 49
0.0
 49
0.0208333333333333
 49
0.0
 49
0.0
 49
0.0
 49
0.0
 49
1.0
 49
0.0
 49
0.0
 49
0.0
 49
0.0
 49
1.0
175
     0
176
     2
142
0.0208333333333333
142
0.0
142
0.0
142
0.0
142
0.0
142
0.0208333333333333
142
0.0
142
0.0
142
0.0
142
0.0
142
1.0
142
0.0
142
0.0
142
0.0
142
0.0
142
1.0
179
     0
270
     2
144
0.0208333333333333
144
0.0
144
0.0
144
0.0
144
0.0
144
0.0208333333333333
144
0.0
144
0.0
144
0.0
144
0.0
144
1.0
144
0.0
144
0.0
144
0.0
144
0.0
144
1.0
274
     2
147
0.0208333333333333
147
0.0
147
0.0
147
0.0
147
0.0
147
0.0208333333333333
147
0.0
147
0.0
147
0.0
147
0.0
147
1.0
147
0.0
147
0.0
147
0.0
147
0.0
147
1.0
  0
MATERIAL
  5
43FB
102
{ACAD_REACTORS
330
43EA
102
}
102
{ACAD_XDICTIONARY
360
58F1
102
}
330
43EA
100
AcDbMaterial
  1
GLOBAL
 72
     0
 73
     2
 43
0.0208333333333333
 43
0.0
 43
0.0
 43
0.0
 43
0.0
 43
0.0208333333333333
 43
0.0
 43
0.0
 43
0.0
 43
0.0
 43
1.0
 43
0.0
 43
0.0
 43
0.0
 43
0.0
 43
1.0
 77
     0
 78
     2
 47
0.0208333333333333
 47
0.0
 47
0.0
 47
0.0
 47
0.0
 47
0.0208333333333333
 47
0.0
 47
0.0
 47
0.0
 47
0.0
 47
1.0
 47
0.0
 47
0.0
 47
0.0
 47
0.0
 47
1.0
171
     0
172
     2
 49
0.0208333333333333
 49
0.0
 49
0.0
 49
0.0
 49
0.0
 49
0.0208333333333333
 49
0.0
 49
0.0
 49
0.0
 49
0.0
 49
1.0
 49
0.0
 49
0.0
 49
0.0
 49
0.0
 49
1.0
175
     0
176
     2
142
0.0208333333333333
142
0.0
142
0.0
142
0.0
142
0.0
142
0.0208333333333333
142
0.0
142
0.0
142
0.0
142
0.0
142
1.0
142
0.0
142
0.0
142
0.0
142
0.0
142
1.0
179
     0
270
     2
144
0.0208333333333333
144
0.0
144
0.0
144
0.0
144
0.0
144
0.0208333333333333
144
0.0
144
0.0
144
0.0
144
0.0
144
1.0
144
0.0
144
0.0
144
0.0
144
0.0
144
1.0
274
     2
147
0.0208333333333333
147
0.0
147
0.0
147
0.0
147
0.0
147
0.0208333333333333
147
0.0
147
0.0
147
0.0
147
0.0
147
1.0
147
0.0
147
0.0
147
0.0
147
0.0
147
1.0
1001
ACAD
1070
    -1
1070
     3
1070
     0
1000

1071
        0
  0
MLEADERSTYLE
  5
443D
102
{ACAD_REACTORS
330
443C
102
}
102
{ACAD_XDICTIONARY
360
58F3
102
}
330
443C
100
AcDbMLeaderStyle
170
     2
171
     1
172
     0
 90
        2
 40
0.0
 41
0.0
173
     1
 91
-1056964608
340
E
 92
       -2
290
     1
 42
0.09
291
     1
 43
0.36
  3
Standard
341
0
 44
0.18
300

342
C
174
     1
178
     6
175
     1
176
     0
 93
-1056964608
 45
0.18
292
     0
297
     0
 46
0.18
343
0
 94
-1056964608
 47
1.0
 49
1.0
140
1.0
293
     1
141
0.0
294
     1
177
     0
142
1.0
295
     0
296
     0
143
0.125
1001
ACAD_MLEADERVER
1070
     2
  0
MLINESTYLE
  5
1D
102
{ACAD_REACTORS
330
19
102
}
330
19
100
AcDbMlineStyle
  2
STANDARD
 70
     0
  3

 62
     0
 51
90.0
 52
90.0
 71
     2
 49
0.5
 62
   256
  6
BYLAYER
 49
-0.5
 62
   256
  6
BYLAYER
  0
ACDBPLACEHOLDER
  5
428C
102
{ACAD_REACTORS
330
428B
102
}
330
428B
  0
SCALE
  5
441B
102
{ACAD_REACTORS
330
441A
102
}
330
441A
100
AcDbScale
 70
     0
300
1:1
140
1.0
141
1.0
290
     1
  0
SCALE
  5
441C
102
{ACAD_REACTORS
330
441A
102
}
330
441A
100
AcDbScale
 70
     0
300
1:2
140
1.0
141
2.0
290
     0
  0
SCALE
  5
441D
102
{ACAD_REACTORS
330
441A
102
}
330
441A
100
AcDbScale
 70
     0
300
1:4
140
1.0
141
4.0
290
     0
  0
SCALE
  5
441E
102
{ACAD_REACTORS
330
441A
102
}
330
441A
100
AcDbScale
 70
     0
300
1:5
140
1.0
141
5.0
290
     0
  0
SCALE
  5
441F
102
{ACAD_REACTORS
330
441A
102
}
330
441A
100
AcDbScale
 70
     0
300
1:8
140
1.0
141
8.0
290
     0
  0
SCALE
  5
4420
102
{ACAD_REACTORS
330
441A
102
}
330
441A
100
AcDbScale
 70
     0
300
1:10
140
1.0
141
10.0
290
     0
  0
SCALE
  5
4421
102
{ACAD_REACTORS
330
441A
102
}
330
441A
100
AcDbScale
 70
     0
300
1:16
140
1.0
141
16.0
290
     0
  0
SCALE
  5
4422
102
{ACAD_REACTORS
330
441A
102
}
330
441A
100
AcDbScale
 70
     0
300
1:20
140
1.0
141
20.0
290
     0
  0
SCALE
  5
4423
102
{ACAD_REACTORS
330
441A
102
}
330
441A
100
AcDbScale
 70
     0
300
1:30
140
1.0
141
30.0
290
     0
  0
SCALE
  5
4424
102
{ACAD_REACTORS
330
441A
102
}
330
441A
100
AcDbScale
 70
     0
300
1:40
140
1.0
141
40.0
290
     0
  0
SCALE
  5
4425
102
{ACAD_REACTORS
330
441A
102
}
330
441A
100
AcDbScale
 70
     0
300
1:50
140
1.0
141
50.0
290
     0
  0
SCALE
  5
4426
102
{ACAD_REACTORS
330
441A
102
}
330
441A
100
AcDbScale
 70
     0
300
1:100
140
1.0
141
100.0
290
     0
  0
SCALE
  5
4427
102
{ACAD_REACTORS
330
441A
102
}
330
441A
100
AcDbScale
 70
     0
300
2:1
140
2.0
141
1.0
290
     0
  0
SCALE
  5
4428
102
{ACAD_REACTORS
330
441A
102
}
330
441A
100
AcDbScale
 70
     0
300
4:1
140
4.0
141
1.0
290
     0
  0
SCALE
  5
4429
102
{ACAD_REACTORS
330
441A
102
}
330
441A
100
AcDbScale
 70
     0
300
8:1
140
8.0
141
1.0
290
     0
  0
SCALE
  5
442A
102
{ACAD_REACTORS
330
441A
102
}
330
441A
100
AcDbScale
 70
     0
300
10:1
140
10.0
141
1.0
290
     0
  0
SCALE
  5
442B
102
{ACAD_REACTORS
330
441A
102
}
330
441A
100
AcDbScale
 70
     0
300
100:1
140
100.0
141
1.0
290
     0
  0
SCALE
  5
442C
102
{ACAD_REACTORS
330
441A
102
}
330
441A
100
AcDbScale
 70
     0
300
1/128" = 1'-0"
140
0.0078125
141
12.0
290
     0
  0
SCALE
  5
442D
102
{ACAD_REACTORS
330
441A
102
}
330
441A
100
AcDbScale
 70
     0
300
1/64" = 1'-0"
140
0.015625
141
12.0
290
     0
  0
SCALE
  5
442E
102
{ACAD_REACTORS
330
441A
102
}
330
441A
100
AcDbScale
 70
     0
300
1/32" = 1'-0"
140
0.03125
141
12.0
290
     0
  0
SCALE
  5
442F
102
{ACAD_REACTORS
330
441A
102
}
330
441A
100
AcDbScale
 70
     0
300
1/16" = 1'-0"
140
0.0625
141
12.0
290
     0
  0
SCALE
  5
4430
102
{ACAD_REACTORS
330
441A
102
}
330
441A
100
AcDbScale
 70
     0
300
3/32" = 1'-0"
140
0.09375
141
12.0
290
     0
  0
SCALE
  5
4431
102
{ACAD_REACTORS
330
441A
102
}
330
441A
100
AcDbScale
 70
     0
300
1/8" = 1'-0"
140
0.125
141
12.0
290
     0
  0
SCALE
  5
4432
102
{ACAD_REACTORS
330
441A
102
}
330
441A
100
AcDbScale
 70
     0
300
3/16" = 1'-0"
140
0.1875
141
12.0
290
     0
  0
SCALE
  5
4433
102
{ACAD_REACTORS
330
441A
102
}
330
441A
100
AcDbScale
 70
     0
300
1/4" = 1'-0"
140
0.25
141
12.0
290
     0
  0
SCALE
  5
4434
102
{ACAD_REACTORS
330
441A
102
}
330
441A
100
AcDbScale
 70
     0
300
3/8" = 1'-0"
140
0.375
141
12.0
290
     0
  0
SCALE
  5
4435
102
{ACAD_REACTORS
330
441A
102
}
330
441A
100
AcDbScale
 70
     0
300
1/2" = 1'-0"
140
0.5
141
12.0
290
     0
  0
SCALE
  5
4436
102
{ACAD_REACTORS
330
441A
102
}
330
441A
100
AcDbScale
 70
     0
300
3/4" = 1'-0"
140
0.75
141
12.0
290
     0
  0
SCALE
  5
4437
102
{ACAD_REACTORS
330
441A
102
}
330
441A
100
AcDbScale
 70
     0
300
1" = 1'-0"
140
1.0
141
12.0
290
     0
  0
SCALE
  5
4438
102
{ACAD_REACTORS
330
441A
102
}
330
441A
100
AcDbScale
 70
     0
300
1-1/2" = 1'-0"
140
1.5
141
12.0
290
     0
  0
SCALE
  5
4439
102
{ACAD_REACTORS
330
441A
102
}
330
441A
100
AcDbScale
 70
     0
300
3" = 1'-0"
140
3.0
141
12.0
290
     0
  0
SCALE
  5
443A
102
{ACAD_REACTORS
330
441A
102
}
330
441A
100
AcDbScale
 70
     0
300
6" = 1'-0"
140
6.0
141
12.0
290
     0
  0
SCALE
  5
443B
102
{ACAD_REACTORS
330
441A
102
}
330
441A
100
AcDbScale
 70
     0
300
1'-0" = 1'-0"
140
12.0
141
12.0
290
     0
  0
TABLESTYLE
  5
4419
102
{ACAD_REACTORS
330
4418
102
}
330
4418
100
AcDbTableStyle
  3
Standard
 70
     0
 71
     0
 40
0.06
 41
0.06
280
     0
281
     0
  7
STANDARD
140
0.18
170
     2
 62
     0
 63
   257
283
     0
274
    -2
284
     1
 64
     0
275
    -2
285
     1
 65
     0
276
    -2
286
     1
 66
     0
277
    -2
287
     1
 67
     0
278
    -2
288
     1
 68
     0
279
    -2
289
     1
 69
     0
  7
STANDARD
140
0.25
170
     5
 62
     0
 63
   257
283
     0
274
    -2
284
     1
 64
     0
275
    -2
285
     1
 65
     0
276
    -2
286
     1
 66
     0
277
    -2
287
     1
 67
     0
278
    -2
288
     1
 68
     0
279
    -2
289
     1
 69
     0
  7
STANDARD
140
0.18
170
     5
 62
     0
 63
   257
283
     0
274
    -2
284
     1
 64
     0
275
    -2
285
     1
 65
     0
276
    -2
286
     1
 66
     0
277
    -2
287
     1
 67
     0
278
    -2
288
     1
 68
     0
279
    -2
289
     1
 69
     0
  0
VISUALSTYLE
  5
4409
102
{ACAD_REACTORS
330
4403
102
}
102
{ACAD_XDICTIONARY
360
58F5
102
}
330
4403
100
AcDbVisualStyle
  2
2dWireframe
 70
     4
 71
     0
 72
     2
 73
     0
 90
        0
 40
-0.6
 41
-30.0
 62
     5
 63
     7
 74
     1
 91
        4
 64
     7
 65
   257
 75
     1
175
     1
 42
1.0
 92
        0
 66
   257
 43
1.0
 76
     1
 77
     6
 78
     2
 67
     7
 79
     5
170
     0
171
     0
290
     0
174
     0
 93
        1
 44
0.0
173
     0
291
     0
 45
0.0
1001
ACAD
1000
AcDbSavedByObjectVersion
1070
     0
  0
VISUALSTYLE
  5
440B
102
{ACAD_REACTORS
330
4403
102
}
102
{ACAD_XDICTIONARY
360
58F7
102
}
330
4403
100
AcDbVisualStyle
  2
3D Hidden
 70
     6
 71
     1
 72
     2
 73
     2
 90
        0
 40
-0.6
 41
-30.0
 62
     5
 63
     7
 74
     2
 91
        2
 64
     7
 65
   257
 75
     2
175
     1
 42
179.0
 92
        0
 66
   257
 43
1.0
 76
     1
 77
     6
 78
     2
 67
     7
 79
     3
170
     0
171
     0
290
     0
174
     0
 93
        1
 44
0.0
173
     0
291
     0
 45
0.0
1001
ACAD
1000
AcDbSavedByObjectVersion
1070
     0
  0
VISUALSTYLE
  5
440A
102
{ACAD_REACTORS
330
4403
102
}
102
{ACAD_XDICTIONARY
360
58F9
102
}
330
4403
100
AcDbVisualStyle
  2
3dWireframe
 70
     5
 71
     0
 72
     2
 73
     0
 90
        0
 40
-0.6
 41
-30.0
 62
     5
 63
     7
 74
     1
 91
        4
 64
     7
 65
   257
 75
     1
175
     1
 42
1.0
 92
        0
 66
   257
 43
1.0
 76
     1
 77
     6
 78
     2
 67
     7
 79
     5
170
     0
171
     0
290
     0
174
     0
 93
        1
 44
0.0
173
     0
291
     0
 45
0.0
1001
ACAD
1000
AcDbSavedByObjectVersion
1070
     0
  0
VISUALSTYLE
  5
4408
102
{ACAD_REACTORS
330
4403
102
}
102
{ACAD_XDICTIONARY
360
58FB
102
}
330
4403
100
AcDbVisualStyle
  2
Basic
 70
     7
 71
     1
 72
     0
 73
     1
 90
        0
 40
-0.6
 41
-30.0
 62
     5
 63
     7
 74
     0
 91
        4
 64
     7
 65
   257
 75
     1
175
     1
 42
1.0
 92
        8
 66
     7
 43
1.0
 76
     1
 77
     6
 78
     2
 67
     7
 79
     5
170
     0
171
     0
290
     0
174
     0
 93
        1
 44
0.0
173
     0
291
     1
 45
0.0
1001
ACAD
1000
AcDbSavedByObjectVersion
1070
     0
  0
VISUALSTYLE
  5
440F
102
{ACAD_REACTORS
330
4403
102
}
102
{ACAD_XDICTIONARY
360
58FD
102
}
330
4403
100
AcDbVisualStyle
  2
Brighten
 70
    12
 71
     2
 72
     2
 73
     0
 90
        0
 40
-0.6
 41
-30.0
 62
     5
 63
     7
 74
     1
 91
        4
 64
     7
 65
   257
 75
     1
175
     1
 42
1.0
 92
        8
 66
     7
 43
1.0
 76
     1
 77
     6
 78
     2
 67
     7
 79
     5
170
     0
171
     0
290
     0
174
     0
 93
        1
 44
50.0
173
     0
291
     1
 45
0.0
1001
ACAD
1000
AcDbSavedByObjectVersion
1070
     0
  0
VISUALSTYLE
  5
4413
102
{ACAD_REACTORS
330
4403
102
}
102
{ACAD_XDICTIONARY
360
58FF
102
}
330
4403
100
AcDbVisualStyle
  2
ColorChange
 70
    16
 71
     2
 72
     2
 73
     3
 90
        0
 40
-0.6
 41
-30.0
 62
     5
 63
     8
 74
     1
 91
        4
 64
     7
 65
   257
 75
     1
175
     1
 42
1.0
 92
        8
 66
     8
 43
1.0
 76
     1
 77
     6
 78
     2
 67
     7
 79
     5
170
     0
171
     0
290
     0
174
     0
 93
        1
 44
0.0
173
     0
291
     1
 45
0.0
1001
ACAD
1000
AcDbSavedByObjectVersion
1070
     0
  0
VISUALSTYLE
  5
440C
102
{ACAD_REACTORS
330
4403
102
}
102
{ACAD_XDICTIONARY
360
5901
102
}
330
4403
100
AcDbVisualStyle
  2
Conceptual
 70
     9
 71
     3
 72
     2
 73
     0
 90
        0
 40
-0.6
 41
-30.0
 62
     5
 63
     7
 74
     2
 91
        2
 64
     7
 65
   257
 75
     1
175
     1
 42
179.0
 92
        8
 66
     7
 43
1.0
 76
     1
 77
     6
 78
     2
 67
     7
 79
     3
170
     0
171
     0
290
     0
174
     0
 93
        1
 44
0.0
173
     0
291
     0
 45
0.0
1001
ACAD
1000
AcDbSavedByObjectVersion
1070
     0
  0
VISUALSTYLE
  5
440E
102
{ACAD_REACTORS
330
4403
102
}
102
{ACAD_XDICTIONARY
360
5903
102
}
330
4403
100
AcDbVisualStyle
  2
Dim
 70
    11
 71
     2
 72
     2
 73
     0
 90
        0
 40
-0.6
 41
-30.0
 62
     5
 63
     7
 74
     1
 91
        4
 64
     7
 65
   257
 75
     1
175
     1
 42
1.0
 92
        8
 66
     7
 43
1.0
 76
     1
 77
     6
 78
     2
 67
     7
 79
     5
170
     0
171
     0
290
     0
174
     0
 93
        1
 44
-50.0
173
     0
291
     1
 45
0.0
1001
ACAD
1000
AcDbSavedByObjectVersion
1070
     0
  0
VISUALSTYLE
  5
4416
102
{ACAD_REACTORS
330
4403
102
}
102
{ACAD_XDICTIONARY
360
5905
102
}
330
4403
100
AcDbVisualStyle
  2
EdgeColorOff
 70
    22
 71
     2
 72
     2
 73
     0
 90
        0
 40
-0.6
 41
-30.0
 62
     5
 63
     7
 74
     1
 91
        4
 64
     7
 65
   257
 75
     1
175
     1
 42
1.0
 92
        8
 66
     7
 43
1.0
 76
     1
 77
     6
 78
     2
 67
     7
 79
     5
170
     0
171
     0
290
     0
174
     0
 93
        1
 44
0.0
173
     0
291
     1
 45
0.0
1001
ACAD
1000
AcDbSavedByObjectVersion
1070
     0
  0
VISUALSTYLE
  5
4412
102
{ACAD_REACTORS
330
4403
102
}
102
{ACAD_XDICTIONARY
360
5907
102
}
330
4403
100
AcDbVisualStyle
  2
Facepattern
 70
    15
 71
     2
 72
     2
 73
     0
 90
        0
 40
-0.6
 41
-30.0
 62
     5
 63
     7
 74
     1
 91
        4
 64
     7
 65
   257
 75
     1
175
     1
 42
1.0
 92
        8
 66
     7
 43
1.0
 76
     1
 77
     6
 78
     2
 67
     7
 79
     5
170
     0
171
     0
290
     0
174
     0
 93
        1
 44
0.0
173
     0
291
     1
 45
0.0
1001
ACAD
1000
AcDbSavedByObjectVersion
1070
     0
  0
VISUALSTYLE
  5
4404
102
{ACAD_REACTORS
330
4403
102
}
102
{ACAD_XDICTIONARY
360
5909
102
}
330
4403
100
AcDbVisualStyle
  2
Flat
 70
     0
 71
     2
 72
     1
 73
     1
 90
        2
 40
-0.6
 41
30.0
 62
     5
 63
     7
 74
     0
 91
        4
 64
     7
 65
   257
 75
     1
175
     1
 42
1.0
 92
        8
 66
     7
 43
1.0
 76
     1
 77
     6
 78
     2
 67
     7
 79
     5
170
     0
171
     0
290
     0
174
     0
 93
       13
 44
0.0
173
     0
291
     1
 45
0.0
1001
ACAD
1000
AcDbSavedByObjectVersion
1070
     0
  0
VISUALSTYLE
  5
4405
102
{ACAD_REACTORS
330
4403
102
}
102
{ACAD_XDICTIONARY
360
590B
102
}
330
4403
100
AcDbVisualStyle
  2
FlatWithEdges
 70
     1
 71
     2
 72
     1
 73
     1
 90
        2
 40
-0.6
 41
30.0
 62
     5
 63
     7
 74
     1
 91
        4
 64
     7
 65
   257
 75
     1
175
     1
 42
1.0
 92
        0
 66
   257
 43
1.0
 76
     1
 77
     6
 78
     2
 67
     7
 79
     5
170
     0
171
     0
290
     0
174
     0
 93
       13
 44
0.0
173
     0
291
     1
 45
0.0
1001
ACAD
1000
AcDbSavedByObjectVersion
1070
     0
  0
VISUALSTYLE
  5
4406
102
{ACAD_REACTORS
330
4403
102
}
102
{ACAD_XDICTIONARY
360
590D
102
}
330
4403
100
AcDbVisualStyle
  2
Gouraud
 70
     2
 71
     2
 72
     2
 73
     1
 90
        2
 40
-0.6
 41
30.0
 62
     5
 63
     7
 74
     0
 91
        4
 64
     7
 65
   257
 75
     1
175
     1
 42
1.0
 92
        0
 66
     7
 43
1.0
 76
     1
 77
     6
 78
     2
 67
     7
 79
     5
170
     0
171
     0
290
     0
174
     0
 93
       13
 44
0.0
173
     0
291
     1
 45
0.0
1001
ACAD
1000
AcDbSavedByObjectVersion
1070
     0
  0
VISUALSTYLE
  5
4407
102
{ACAD_REACTORS
330
4403
102
}
102
{ACAD_XDICTIONARY
360
590F
102
}
330
4403
100
AcDbVisualStyle
  2
GouraudWithEdges
 70
     3
 71
     2
 72
     2
 73
     1
 90
        2
 40
-0.6
 41
30.0
 62
     5
 63
     7
 74
     1
 91
        4
 64
     7
 65
   257
 75
     1
175
     1
 42
1.0
 92
        0
 66
   257
 43
1.0
 76
     1
 77
     6
 78
     2
 67
     7
 79
     5
170
     0
171
     0
290
     0
174
     0
 93
       13
 44
0.0
173
     0
291
     1
 45
0.0
1001
ACAD
1000
AcDbSavedByObjectVersion
1070
     0
  0
VISUALSTYLE
  5
4666
102
{ACAD_REACTORS
330
4403
102
}
102
{ACAD_XDICTIONARY
360
591D
102
}
330
4403
100
AcDbVisualStyle
  2
Hidden
 70
     6
 71
     1
 72
     2
 73
     2
 90
        0
 40
0.6
 41
30.0
 62
     5
 63
     7
 74
     2
 91
        2
 64
     7
 65
   257
 75
     2
175
     1
 42
40.0
 92
        0
 66
   257
 43
1.0
 76
     1
 77
     6
 78
     2
 67
     7
 79
     3
170
     0
171
     0
290
     0
174
     0
 93
        1
 44
0.0
173
     0
291
     0
 45
0.0
1001
ACAD
1000
AcDbSavedByObjectVersion
1070
     0
  0
VISUALSTYLE
  5
4414
102
{ACAD_REACTORS
330
4403
102
}
102
{ACAD_XDICTIONARY
360
5911
102
}
330
4403
100
AcDbVisualStyle
  2
JitterOff
 70
    20
 71
     2
 72
     2
 73
     0
 90
        0
 40
-0.6
 41
-30.0
 62
     5
 63
     7
 74
     1
 91
        4
 64
     7
 65
   257
 75
     1
175
     1
 42
1.0
 92
       10
 66
     7
 43
1.0
 76
     1
 77
     6
 78
     2
 67
     7
 79
     5
170
     0
171
     0
290
     0
174
     0
 93
        1
 44
0.0
173
     0
291
     1
 45
0.0
1001
ACAD
1000
AcDbSavedByObjectVersion
1070
     0
  0
VISUALSTYLE
  5
4411
102
{ACAD_REACTORS
330
4403
102
}
102
{ACAD_XDICTIONARY
360
5913
102
}
330
4403
100
AcDbVisualStyle
  2
Linepattern
 70
    14
 71
     2
 72
     2
 73
     0
 90
        0
 40
-0.6
 41
-30.0
 62
     5
 63
     7
 74
     1
 91
        4
 64
     7
 65
   257
 75
     7
175
     7
 42
1.0
 92
        8
 66
     7
 43
1.0
 76
     1
 77
     6
 78
     2
 67
     7
 79
     5
170
     0
171
     0
290
     0
174
     0
 93
        1
 44
0.0
173
     0
291
     1
 45
0.0
1001
ACAD
1000
AcDbSavedByObjectVersion
1070
     0
  0
VISUALSTYLE
  5
4415
102
{ACAD_REACTORS
330
4403
102
}
102
{ACAD_XDICTIONARY
360
5915
102
}
330
4403
100
AcDbVisualStyle
  2
OverhangOff
 70
    21
 71
     2
 72
     2
 73
     0
 90
        0
 40
-0.6
 41
-30.0
 62
     5
 63
     7
 74
     1
 91
        4
 64
     7
 65
   257
 75
     1
175
     1
 42
1.0
 92
        9
 66
     7
 43
1.0
 76
     1
 77
     6
 78
     2
 67
     7
 79
     5
170
     0
171
     0
290
     0
174
     0
 93
        1
 44
0.0
173
     0
291
     1
 45
0.0
1001
ACAD
1000
AcDbSavedByObjectVersion
1070
     0
  0
VISUALSTYLE
  5
440D
102
{ACAD_REACTORS
330
4403
102
}
102
{ACAD_XDICTIONARY
360
5917
102
}
330
4403
100
AcDbVisualStyle
  2
Realistic
 70
     8
 71
     2
 72
     2
 73
     0
 90
        0
 40
-0.6
 41
-30.0
 62
     5
 63
     7
 74
     1
 91
        0
 64
     7
 65
   257
 75
     1
175
     1
 42
1.0
 92
        8
 66
     8
 43
1.0
 76
     1
 77
     6
 78
     2
 67
     7
 79
     5
170
     0
171
     0
290
     0
174
     0
 93
       13
 44
0.0
173
     0
291
     0
 45
0.0
1001
ACAD
1000
AcDbSavedByObjectVersion
1070
     0
  0
VISUALSTYLE
  5
466B
102
{ACAD_REACTORS
330
4403
102
}
102
{ACAD_XDICTIONARY
360
5927
102
}
330
4403
100
AcDbVisualStyle
  2
Shaded
 70
    27
 71
     2
 72
     2
 73
     1
 90
        2
 40
0.6
 41
30.0
 62
     5
 63
     7
 74
     0
 91
        4
 64
     7
 65
   257
 75
     1
175
     1
 42
1.0
 92
        8
 66
   257
 43
1.0
 76
     1
 77
     6
 78
     2
 67
   251
 79
     3
170
     0
171
     0
290
     0
174
     0
 93
        5
 44
0.0
173
     0
291
     0
 45
0.0
1001
ACAD
1000
AcDbSavedByObjectVersion
1070
     0
  0
VISUALSTYLE
  5
466A
102
{ACAD_REACTORS
330
4403
102
}
102
{ACAD_XDICTIONARY
360
5925
102
}
330
4403
100
AcDbVisualStyle
  2
Shaded with edges
 70
    26
 71
     2
 72
     2
 73
     1
 90
        2
 40
0.6
 41
30.0
 62
     5
 63
     7
 74
     1
 91
       10
 64
     7
 65
   257
 75
     2
175
     1
 42
1.0
 92
        8
 66
   257
 43
1.0
 76
     1
 77
     6
 78
     2
 67
     7
 79
     3
170
     0
171
     0
290
     0
174
     0
 93
        5
 44
0.0
173
     0
291
     0
 45
0.0
1001
ACAD
1000
AcDbSavedByObjectVersion
1070
     0
  0
VISUALSTYLE
  5
4667
102
{ACAD_REACTORS
330
4403
102
}
102
{ACAD_XDICTIONARY
360
591F
102
}
330
4403
100
AcDbVisualStyle
  2
Shades of Gray
 70
    23
 71
     2
 72
     2
 73
     3
 90
        0
 40
0.6
 41
30.0
 62
     5
 63
     7
 74
     2
 91
        2
 64
     7
 65
     7
 75
     1
175
     1
 42
40.0
 92
        8
 66
     7
 43
1.0
 76
     1
 77
     6
 78
     2
 67
     7
 79
     3
170
     0
171
     0
290
     0
174
     0
 93
        1
 44
0.0
173
     0
291
     0
 45
0.0
1001
ACAD
1000
AcDbSavedByObjectVersion
1070
     0
  0
VISUALSTYLE
  5
4668
102
{ACAD_REACTORS
330
4403
102
}
102
{ACAD_XDICTIONARY
360
5921
102
}
330
4403
100
AcDbVisualStyle
  2
Sketchy
 70
    24
 71
     1
 72
     2
 73
     2
 90
        0
 40
0.6
 41
30.0
 62
     5
 63
     7
 74
     2
 91
        2
 64
     7
 65
     7
 75
     1
175
     1
 42
40.0
 92
       11
 66
     7
 43
1.0
 76
     1
 77
     6
 78
     2
 67
     7
 79
     6
170
     0
171
     0
290
     0
174
     0
 93
        1
 44
0.0
173
     0
291
     0
 45
0.0
1001
ACAD
1000
AcDbSavedByObjectVersion
1070
     0
  0
VISUALSTYLE
  5
4410
102
{ACAD_REACTORS
330
4403
102
}
102
{ACAD_XDICTIONARY
360
5919
102
}
330
4403
100
AcDbVisualStyle
  2
Thicken
 70
    13
 71
     2
 72
     2
 73
     0
 90
        0
 40
-0.6
 41
-30.0
 62
     5
 63
     7
 74
     1
 91
        4
 64
     7
 65
   257
 75
     1
175
     1
 42
1.0
 92
       12
 66
     7
 43
1.0
 76
     1
 77
     6
 78
     2
 67
     7
 79
     5
170
     0
171
     0
290
     0
174
     0
 93
        1
 44
0.0
173
     0
291
     1
 45
0.0
1001
ACAD
1000
AcDbSavedByObjectVersion
1070
     0
  0
VISUALSTYLE
  5
4665
102
{ACAD_REACTORS
330
4403
102
}
102
{ACAD_XDICTIONARY
360
591B
102
}
330
4403
100
AcDbVisualStyle
  2
Wireframe
 70
     5
 71
     0
 72
     2
 73
     0
 90
        0
 40
0.6
 41
30.0
 62
     5
 63
     7
 74
     1
 91
        4
 64
     7
 65
   257
 75
     1
175
     1
 42
1.0
 92
        0
 66
   257
 43
1.0
 76
     1
 77
     6
 78
     2
 67
     7
 79
     5
170
     0
171
     0
290
     0
174
     0
 93
        1
 44
0.0
173
     0
291
     0
 45
0.0
1001
ACAD
1000
AcDbSavedByObjectVersion
1070
     0
  0
VISUALSTYLE
  5
4669
102
{ACAD_REACTORS
330
4403
102
}
102
{ACAD_XDICTIONARY
360
5923
102
}
330
4403
100
AcDbVisualStyle
  2
X-Ray
 70
    25
 71
     2
 72
     2
 73
     1
 90
        1
 40
0.5
 41
30.0
 62
     5
 63
     7
 74
     1
 91
        0
 64
     7
 65
   257
 75
     1
175
     1
 42
1.0
 92
        8
 66
     7
 43
1.0
 76
     1
 77
     6
 78
     2
 67
     7
 79
     3
170
     0
171
     0
290
     0
174
     0
 93
       13
 44
0.0
173
     0
291
     0
 45
0.0
1001
ACAD
1000
AcDbSavedByObjectVersion
1070
     0
  0
XRECORD
  5
58E8
102
{ACAD_REACTORS
330
58E7
102
}
330
58E7
100
AcDbXrecord
280
     1
340
4417
  0
XRECORD
  5
58E9
102
{ACAD_REACTORS
330
58E7
102
}
330
58E7
100
AcDbXrecord
280
     1
340
43EA
  0
DICTIONARYVAR
  5
466C
102
{ACAD_REACTORS
330
42BF
102
}
330
42BF
100
DictionaryVariables
280
     0
  1
1:1
  0
DICTIONARYVAR
  5
44B8
102
{ACAD_REACTORS
330
42BF
102
}
330
42BF
100
DictionaryVariables
280
     0
  1
Standard
  0
DICTIONARYVAR
  5
44B7
102
{ACAD_REACTORS
330
42BF
102
}
330
42BF
100
DictionaryVariables
280
     0
  1
Standard
  0
DICTIONARYVAR
  5
42C0
102
{ACAD_REACTORS
330
42BF
102
}
330
42BF
100
DictionaryVariables
280
     0
  1
0
  0
DICTIONARYVAR
  5
58E6
102
{ACAD_REACTORS
330
42BF
102
}
330
42BF
100
DictionaryVariables
280
     0
  1
1
  0
DICTIONARYVAR
  5
44BB
102
{ACAD_REACTORS
330
42BF
102
}
330
42BF
100
DictionaryVariables
280
     0
  1
0
  0
DICTIONARYVAR
  5
466D
102
{ACAD_REACTORS
330
42BF
102
}
330
42BF
100
DictionaryVariables
280
     0
  1
0
  0
DICTIONARYVAR
  5
44BA
102
{ACAD_REACTORS
330
42BF
102
}
330
42BF
100
DictionaryVariables
280
     0
  1
127
  0
DICTIONARYVAR
  5
4664
102
{ACAD_REACTORS
330
42BF
102
}
330
42BF
100
DictionaryVariables
280
     0
  1
2
  0
DICTIONARY
  5
58ED
330
43F3
100
AcDbDictionary
280
     1
281
     1
  3
ACAD_XREC_ROUNDTRIP
360
58EE
  0
DICTIONARY
  5
58EF
330
43EB
100
AcDbDictionary
280
     1
281
     1
  3
ACAD_XREC_ROUNDTRIP
360
58F0
  0
DICTIONARY
  5
58F1
330
43FB
100
AcDbDictionary
280
     1
281
     1
  3
ACAD_XREC_ROUNDTRIP
360
58F2
  0
DICTIONARY
  5
58F3
330
443D
100
AcDbDictionary
280
     1
281
     1
  3
ACAD_XREC_ROUNDTRIP
360
58F4
  0
DICTIONARY
  5
58F5
330
4409
100
AcDbDictionary
280
     1
281
     1
  3
ACAD_XREC_ROUNDTRIP
360
58F6
  0
DICTIONARY
  5
58F7
330
440B
100
AcDbDictionary
280
     1
281
     1
  3
ACAD_XREC_ROUNDTRIP
360
58F8
  0
DICTIONARY
  5
58F9
330
440A
100
AcDbDictionary
280
     1
281
     1
  3
ACAD_XREC_ROUNDTRIP
360
58FA
  0
DICTIONARY
  5
58FB
330
4408
100
AcDbDictionary
280
     1
281
     1
  3
ACAD_XREC_ROUNDTRIP
360
58FC
  0
DICTIONARY
  5
58FD
330
440F
100
AcDbDictionary
280
     1
281
     1
  3
ACAD_XREC_ROUNDTRIP
360
58FE
  0
DICTIONARY
  5
58FF
330
4413
100
AcDbDictionary
280
     1
281
     1
  3
ACAD_XREC_ROUNDTRIP
360
5900
  0
DICTIONARY
  5
5901
330
440C
100
AcDbDictionary
280
     1
281
     1
  3
ACAD_XREC_ROUNDTRIP
360
5902
  0
DICTIONARY
  5
5903
330
440E
100
AcDbDictionary
280
     1
281
     1
  3
ACAD_XREC_ROUNDTRIP
360
5904
  0
DICTIONARY
  5
5905
330
4416
100
AcDbDictionary
280
     1
281
     1
  3
ACAD_XREC_ROUNDTRIP
360
5906
  0
DICTIONARY
  5
5907
330
4412
100
AcDbDictionary
280
     1
281
     1
  3
ACAD_XREC_ROUNDTRIP
360
5908
  0
DICTIONARY
  5
5909
330
4404
100
AcDbDictionary
280
     1
281
     1
  3
ACAD_XREC_ROUNDTRIP
360
590A
  0
DICTIONARY
  5
590B
330
4405
100
AcDbDictionary
280
     1
281
     1
  3
ACAD_XREC_ROUNDTRIP
360
590C
  0
DICTIONARY
  5
590D
330
4406
100
AcDbDictionary
280
     1
281
     1
  3
ACAD_XREC_ROUNDTRIP
360
590E
  0
DICTIONARY
  5
590F
330
4407
100
AcDbDictionary
280
     1
281
     1
  3
ACAD_XREC_ROUNDTRIP
360
5910
  0
DICTIONARY
  5
591D
330
4666
100
AcDbDictionary
280
     1
281
     1
  3
ACAD_XREC_ROUNDTRIP
360
591E
  0
DICTIONARY
  5
5911
330
4414
100
AcDbDictionary
280
     1
281
     1
  3
ACAD_XREC_ROUNDTRIP
360
5912
  0
DICTIONARY
  5
5913
330
4411
100
AcDbDictionary
280
     1
281
     1
  3
ACAD_XREC_ROUNDTRIP
360
5914
  0
DICTIONARY
  5
5915
330
4415
100
AcDbDictionary
280
     1
281
     1
  3
ACAD_XREC_ROUNDTRIP
360
5916
  0
DICTIONARY
  5
5917
330
440D
100
AcDbDictionary
280
     1
281
     1
  3
ACAD_XREC_ROUNDTRIP
360
5918
  0
DICTIONARY
  5
5927
330
466B
100
AcDbDictionary
280
     1
281
     1
  3
ACAD_XREC_ROUNDTRIP
360
5928
  0
DICTIONARY
  5
5925
330
466A
100
AcDbDictionary
280
     1
281
     1
  3
ACAD_XREC_ROUNDTRIP
360
5926
  0
DICTIONARY
  5
591F
330
4667
100
AcDbDictionary
280
     1
281
     1
  3
ACAD_XREC_ROUNDTRIP
360
5920
  0
DICTIONARY
  5
5921
330
4668
100
AcDbDictionary
280
     1
281
     1
  3
ACAD_XREC_ROUNDTRIP
360
5922
  0
DICTIONARY
  5
5919
330
4410
100
AcDbDictionary
280
     1
281
     1
  3
ACAD_XREC_ROUNDTRIP
360
591A
  0
DICTIONARY
  5
591B
330
4665
100
AcDbDictionary
280
     1
281
     1
  3
ACAD_XREC_ROUNDTRIP
360
591C
  0
DICTIONARY
  5
5923
330
4669
100
AcDbDictionary
280
     1
281
     1
  3
ACAD_XREC_ROUNDTRIP
360
5924
  0
XRECORD
  5
58EE
102
{ACAD_REACTORS
330
58ED
102
}
330
58ED
100
AcDbXrecord
280
     1
102
MATERIAL
148
0.0
149
0.0
149
0.0
 93
        0
 94
      127
282
     0
 72
     0
 77
     0
171
     0
175
     0
179
     0
273
     0
  0
XRECORD
  5
58F0
102
{ACAD_REACTORS
330
58EF
102
}
330
58EF
100
AcDbXrecord
280
     1
102
MATERIAL
148
0.0
149
0.0
149
0.0
 93
        0
 94
      127
282
     0
 72
     0
 77
     0
171
     0
175
     0
179
     0
273
     0
  0
XRECORD
  5
58F2
102
{ACAD_REACTORS
330
58F1
102
}
330
58F1
100
AcDbXrecord
280
     1
102
MATERIAL
148
0.0
149
0.0
149
0.0
 93
        0
 94
      127
282
     0
 72
     0
 77
     0
171
     0
175
     0
179
     0
273
     0
  0
XRECORD
  5
58F4
102
{ACAD_REACTORS
330
58F3
102
}
330
58F3
100
AcDbXrecord
280
     1
102
ACAD_ROUNDTRIP_2010_MLEADER_STYLE
  0
XRECORD
  5
58F6
102
{ACAD_REACTORS
330
58F5
102
}
330
58F5
100
AcDbXrecord
280
     1
102
RTVSPropertyOp0
 70
     1
102
RTVSPropertyOp1
 70
     1
102
RTVSPropertyOp2
 70
     1
102
RTVSPropertyOp3
 70
     1
102
RTVSPropertyOp4
 70
     1
102
RTVSPropertyOp5
 70
     1
102
RTVSPropertyOp6
 70
     1
102
RTVSPropertyOp7
 70
     1
102
RTVSPropertyOp8
 70
     1
102
RTVSPropertyOp9
 70
     1
102
RTVSPropertyOp10
 70
     1
102
RTVSPropertyOp11
 70
     1
102
RTVSPropertyOp12
 70
     1
102
RTVSPropertyOp13
 70
     1
102
RTVSPropertyOp14
 70
     1
102
RTVSPropertyOp15
 70
     1
102
RTVSPropertyOp16
 70
     1
102
RTVSPropertyOp17
 70
     1
102
RTVSPropertyOp18
 70
     1
102
RTVSPropertyOp19
 70
     1
102
RTVSPropertyOp20
 70
     1
102
RTVSPropertyOp21
 70
     1
102
RTVSPropertyOp22
 70
     1
102
RTVSPropertyOp23
 70
     1
102
RTVSPropertyOp24
 70
     1
102
RTVSPropertyOp25
 70
     1
102
RTVSPropertyOp26
 70
     1
102
RTVSPropertyOp27
 70
     1
102
RTVSPropertyOp28
 70
     1
102
RTVSPropertyOp29
 70
     1
102
RTVSPropertyOp30
 70
     1
102
RTVSPropertyOp31
 70
     1
102
RTVSPropertyOp32
 70
     1
102
RTVSPropertyOp33
 70
     1
102
RTVSPropertyOp34
 70
     1
102
RTVSPropertyOp35
 70
     1
102
RTVSPropertyOp36
 70
     1
102
RTVSPropertyOp37
 70
     1
102
RTVSPropertyOp38
 70
     1
102
RTVSPropertyOp39
 70
     1
102
RTVSPropertyOp40
 70
     1
102
RTVSPropertyOp41
 70
     1
102
RTVSPropertyOp42
 70
     1
102
RTVSPropertyOp43
 70
     1
102
RTVSPropertyOp44
 70
     1
102
RTVSPropertyOp45
 70
     1
102
RTVSPropertyOp46
 70
     1
102
RTVSPropertyOp47
 70
     1
102
RTVSPropertyOp48
 70
     1
102
RTVSPropertyOp49
 70
     1
102
RTVSPropertyOp50
 70
     1
102
RTVSPropertyOp51
 70
     0
102
RTVSPropertyOp52
 70
     0
102
RTVSPropertyOp53
 70
     1
102
RTVSPropertyOp54
 70
     1
102
RTVSPropertyOp55
 70
     1
102
RTVSPropertyOp56
 70
     1
102
RTVSPropertyOp57
 70
     1
102
RTVSPost2010Prop28
280
     1
102
RTVSPost2010PropOp28
 70
     1
102
RTVSPost2010Prop29
280
     1
102
RTVSPost2010PropOp29
 70
     1
102
RTVSPost2010Prop30
280
     0
102
RTVSPost2010PropOp30
 70
     1
102
RTVSPost2010Prop31
280
     0
102
RTVSPost2010PropOp31
 70
     1
102
RTVSPost2010Prop32
280
     0
102
RTVSPost2010PropOp32
 70
     1
102
RTVSPost2010Prop33
280
     0
102
RTVSPost2010PropOp33
 70
     1
102
RTVSPost2010Prop34
280
     0
102
RTVSPost2010PropOp34
 70
     1
102
RTVSPost2010Prop35
280
     0
102
RTVSPost2010PropOp35
 70
     1
102
RTVSPost2010Prop36
280
     0
102
RTVSPost2010PropOp36
 70
     1
102
RTVSPost2010Prop37
 90
       50
102
RTVSPost2010PropOp37
 70
     1
102
RTVSPost2010Prop38
140
0.0
102
RTVSPost2010PropOp38
 70
     1
102
RTVSPost2010Prop39
140
1.0
102
RTVSPost2010PropOp39
 70
     1
102
RTVSPost2010Prop40
 90
        0
102
RTVSPost2010PropOp40
 70
     1
102
RTVSPost2010Prop41ColorIndex
 90
       18
102
RTVSPost2010Prop41ColorRGB
 90
        0
102
RTVSPost2010PropOp41
 70
     1
102
RTVSPost2010Prop42
 90
       50
102
RTVSPost2010PropOp42
 70
     1
102
RTVSPost2010Prop43
 90
        3
102
RTVSPost2010PropOp43
 70
     1
102
RTVSPost2010Prop44ColorIndex
 90
        5
102
RTVSPost2010Prop44ColorRGB
 90
      255
102
RTVSPost2010PropOp44
 70
     1
102
RTVSPost2010Prop45
280
     0
102
RTVSPost2010PropOp45
 70
     1
102
RTVSPost2010Prop46
 90
       50
102
RTVSPost2010PropOp46
 70
     1
102
RTVSPost2010Prop47
 90
       50
102
RTVSPost2010PropOp47
 70
     1
102
RTVSPost2010Prop48
 90
       50
102
RTVSPost2010PropOp48
 70
     1
102
RTVSPost2010Prop49
280
     0
102
RTVSPost2010PropOp49
 70
     1
102
RTVSPost2010Prop50
 90
       50
102
RTVSPost2010PropOp50
 70
     1
102
RTVSPost2010Prop51ColorIndex
 90
      256
102
RTVSPost2010Prop51ColorRGB
 90
-16777216
102
RTVSPost2010PropOp51
 70
     0
102
RTVSPost2010Prop52
140
1.0
102
RTVSPost2010PropOp52
 70
     0
102
RTVSPost2010Prop53
 90
        2
102
RTVSPost2010PropOp53
 70
     1
102
RTVSPost2010Prop54
  1
strokes_ogs.tif
102
RTVSPost2010PropOp54
 70
     1
102
RTVSPost2010Prop55
280
     0
102
RTVSPost2010PropOp55
 70
     1
102
RTVSPost2010Prop56
140
1.0
102
RTVSPost2010PropOp56
 70
     1
102
RTVSPost2010Prop57
140
1.0
102
RTVSPost2010PropOp57
 70
     1
  0
XRECORD
  5
58F8
102
{ACAD_REACTORS
330
58F7
102
}
330
58F7
100
AcDbXrecord
280
     1
102
RTVSPropertyOp0
 70
     1
102
RTVSPropertyOp1
 70
     1
102
RTVSPropertyOp2
 70
     1
102
RTVSPropertyOp3
 70
     1
102
RTVSPropertyOp4
 70
     1
102
RTVSPropertyOp5
 70
     1
102
RTVSPropertyOp6
 70
     1
102
RTVSPropertyOp7
 70
     1
102
RTVSPropertyOp8
 70
     1
102
RTVSPropertyOp9
 70
     1
102
RTVSPropertyOp10
 70
     1
102
RTVSPropertyOp11
 70
     1
102
RTVSPropertyOp12
 70
     1
102
RTVSPropertyOp13
 70
     1
102
RTVSPropertyOp14
 70
     1
102
RTVSPropertyOp15
 70
     1
102
RTVSPropertyOp16
 70
     1
102
RTVSPropertyOp17
 70
     1
102
RTVSPropertyOp18
 70
     1
102
RTVSPropertyOp19
 70
     1
102
RTVSPropertyOp20
 70
     1
102
RTVSPropertyOp21
 70
     1
102
RTVSPropertyOp22
 70
     1
102
RTVSPropertyOp23
 70
     1
102
RTVSPropertyOp24
 70
     1
102
RTVSPropertyOp25
 70
     1
102
RTVSPropertyOp26
 70
     1
102
RTVSPropertyOp27
 70
     1
102
RTVSPropertyOp28
 70
     1
102
RTVSPropertyOp29
 70
     1
102
RTVSPropertyOp30
 70
     1
102
RTVSPropertyOp31
 70
     1
102
RTVSPropertyOp32
 70
     1
102
RTVSPropertyOp33
 70
     1
102
RTVSPropertyOp34
 70
     1
102
RTVSPropertyOp35
 70
     1
102
RTVSPropertyOp36
 70
     1
102
RTVSPropertyOp37
 70
     1
102
RTVSPropertyOp38
 70
     1
102
RTVSPropertyOp39
 70
     1
102
RTVSPropertyOp40
 70
     1
102
RTVSPropertyOp41
 70
     1
102
RTVSPropertyOp42
 70
     1
102
RTVSPropertyOp43
 70
     1
102
RTVSPropertyOp44
 70
     1
102
RTVSPropertyOp45
 70
     1
102
RTVSPropertyOp46
 70
     1
102
RTVSPropertyOp47
 70
     1
102
RTVSPropertyOp48
 70
     1
102
RTVSPropertyOp49
 70
     1
102
RTVSPropertyOp50
 70
     1
102
RTVSPropertyOp51
 70
     0
102
RTVSPropertyOp52
 70
     0
102
RTVSPropertyOp53
 70
     1
102
RTVSPropertyOp54
 70
     1
102
RTVSPropertyOp55
 70
     1
102
RTVSPropertyOp56
 70
     1
102
RTVSPropertyOp57
 70
     1
102
RTVSPost2010Prop28
280
     0
102
RTVSPost2010PropOp28
 70
     1
102
RTVSPost2010Prop29
280
     1
102
RTVSPost2010PropOp29
 70
     1
102
RTVSPost2010Prop30
280
     1
102
RTVSPost2010PropOp30
 70
     1
102
RTVSPost2010Prop31
280
     0
102
RTVSPost2010PropOp31
 70
     1
102
RTVSPost2010Prop32
280
     0
102
RTVSPost2010PropOp32
 70
     1
102
RTVSPost2010Prop33
280
     0
102
RTVSPost2010PropOp33
 70
     1
102
RTVSPost2010Prop34
280
     0
102
RTVSPost2010PropOp34
 70
     1
102
RTVSPost2010Prop35
280
     0
102
RTVSPost2010PropOp35
 70
     1
102
RTVSPost2010Prop36
280
     0
102
RTVSPost2010PropOp36
 70
     1
102
RTVSPost2010Prop37
 90
       50
102
RTVSPost2010PropOp37
 70
     1
102
RTVSPost2010Prop38
140
0.0
102
RTVSPost2010PropOp38
 70
     1
102
RTVSPost2010Prop39
140
1.0
102
RTVSPost2010PropOp39
 70
     1
102
RTVSPost2010Prop40
 90
        0
102
RTVSPost2010PropOp40
 70
     1
102
RTVSPost2010Prop41ColorIndex
 90
       18
102
RTVSPost2010Prop41ColorRGB
 90
        0
102
RTVSPost2010PropOp41
 70
     1
102
RTVSPost2010Prop42
 90
       50
102
RTVSPost2010PropOp42
 70
     1
102
RTVSPost2010Prop43
 90
        3
102
RTVSPost2010PropOp43
 70
     1
102
RTVSPost2010Prop44ColorIndex
 90
        5
102
RTVSPost2010Prop44ColorRGB
 90
      255
102
RTVSPost2010PropOp44
 70
     1
102
RTVSPost2010Prop45
280
     0
102
RTVSPost2010PropOp45
 70
     1
102
RTVSPost2010Prop46
 90
       50
102
RTVSPost2010PropOp46
 70
     1
102
RTVSPost2010Prop47
 90
       50
102
RTVSPost2010PropOp47
 70
     1
102
RTVSPost2010Prop48
 90
       50
102
RTVSPost2010PropOp48
 70
     1
102
RTVSPost2010Prop49
280
     0
102
RTVSPost2010PropOp49
 70
     1
102
RTVSPost2010Prop50
 90
       50
102
RTVSPost2010PropOp50
 70
     1
102
RTVSPost2010Prop51ColorIndex
 90
      256
102
RTVSPost2010Prop51ColorRGB
 90
-16777216
102
RTVSPost2010PropOp51
 70
     0
102
RTVSPost2010Prop52
140
1.0
102
RTVSPost2010PropOp52
 70
     0
102
RTVSPost2010Prop53
 90
        2
102
RTVSPost2010PropOp53
 70
     1
102
RTVSPost2010Prop54
  1
strokes_ogs.tif
102
RTVSPost2010PropOp54
 70
     1
102
RTVSPost2010Prop55
280
     0
102
RTVSPost2010PropOp55
 70
     1
102
RTVSPost2010Prop56
140
1.0
102
RTVSPost2010PropOp56
 70
     1
102
RTVSPost2010Prop57
140
1.0
102
RTVSPost2010PropOp57
 70
     1
  0
XRECORD
  5
58FA
102
{ACAD_REACTORS
330
58F9
102
}
330
58F9
100
AcDbXrecord
280
     1
102
RTVSPropertyOp0
 70
     1
102
RTVSPropertyOp1
 70
     1
102
RTVSPropertyOp2
 70
     1
102
RTVSPropertyOp3
 70
     1
102
RTVSPropertyOp4
 70
     1
102
RTVSPropertyOp5
 70
     1
102
RTVSPropertyOp6
 70
     1
102
RTVSPropertyOp7
 70
     1
102
RTVSPropertyOp8
 70
     1
102
RTVSPropertyOp9
 70
     1
102
RTVSPropertyOp10
 70
     1
102
RTVSPropertyOp11
 70
     1
102
RTVSPropertyOp12
 70
     1
102
RTVSPropertyOp13
 70
     1
102
RTVSPropertyOp14
 70
     1
102
RTVSPropertyOp15
 70
     1
102
RTVSPropertyOp16
 70
     1
102
RTVSPropertyOp17
 70
     1
102
RTVSPropertyOp18
 70
     1
102
RTVSPropertyOp19
 70
     1
102
RTVSPropertyOp20
 70
     1
102
RTVSPropertyOp21
 70
     1
102
RTVSPropertyOp22
 70
     1
102
RTVSPropertyOp23
 70
     1
102
RTVSPropertyOp24
 70
     1
102
RTVSPropertyOp25
 70
     1
102
RTVSPropertyOp26
 70
     1
102
RTVSPropertyOp27
 70
     1
102
RTVSPropertyOp28
 70
     1
102
RTVSPropertyOp29
 70
     1
102
RTVSPropertyOp30
 70
     1
102
RTVSPropertyOp31
 70
     1
102
RTVSPropertyOp32
 70
     1
102
RTVSPropertyOp33
 70
     1
102
RTVSPropertyOp34
 70
     1
102
RTVSPropertyOp35
 70
     1
102
RTVSPropertyOp36
 70
     1
102
RTVSPropertyOp37
 70
     1
102
RTVSPropertyOp38
 70
     1
102
RTVSPropertyOp39
 70
     1
102
RTVSPropertyOp40
 70
     1
102
RTVSPropertyOp41
 70
     1
102
RTVSPropertyOp42
 70
     1
102
RTVSPropertyOp43
 70
     1
102
RTVSPropertyOp44
 70
     1
102
RTVSPropertyOp45
 70
     1
102
RTVSPropertyOp46
 70
     1
102
RTVSPropertyOp47
 70
     1
102
RTVSPropertyOp48
 70
     1
102
RTVSPropertyOp49
 70
     1
102
RTVSPropertyOp50
 70
     1
102
RTVSPropertyOp51
 70
     0
102
RTVSPropertyOp52
 70
     0
102
RTVSPropertyOp53
 70
     1
102
RTVSPropertyOp54
 70
     1
102
RTVSPropertyOp55
 70
     1
102
RTVSPropertyOp56
 70
     1
102
RTVSPropertyOp57
 70
     1
102
RTVSPost2010Prop28
280
     0
102
RTVSPost2010PropOp28
 70
     1
102
RTVSPost2010Prop29
280
     1
102
RTVSPost2010PropOp29
 70
     1
102
RTVSPost2010Prop30
280
     1
102
RTVSPost2010PropOp30
 70
     1
102
RTVSPost2010Prop31
280
     0
102
RTVSPost2010PropOp31
 70
     1
102
RTVSPost2010Prop32
280
     0
102
RTVSPost2010PropOp32
 70
     1
102
RTVSPost2010Prop33
280
     0
102
RTVSPost2010PropOp33
 70
     1
102
RTVSPost2010Prop34
280
     0
102
RTVSPost2010PropOp34
 70
     1
102
RTVSPost2010Prop35
280
     0
102
RTVSPost2010PropOp35
 70
     1
102
RTVSPost2010Prop36
280
     0
102
RTVSPost2010PropOp36
 70
     1
102
RTVSPost2010Prop37
 90
       50
102
RTVSPost2010PropOp37
 70
     1
102
RTVSPost2010Prop38
140
0.0
102
RTVSPost2010PropOp38
 70
     1
102
RTVSPost2010Prop39
140
1.0
102
RTVSPost2010PropOp39
 70
     1
102
RTVSPost2010Prop40
 90
        0
102
RTVSPost2010PropOp40
 70
     1
102
RTVSPost2010Prop41ColorIndex
 90
       18
102
RTVSPost2010Prop41ColorRGB
 90
        0
102
RTVSPost2010PropOp41
 70
     1
102
RTVSPost2010Prop42
 90
       50
102
RTVSPost2010PropOp42
 70
     1
102
RTVSPost2010Prop43
 90
        3
102
RTVSPost2010PropOp43
 70
     1
102
RTVSPost2010Prop44ColorIndex
 90
        5
102
RTVSPost2010Prop44ColorRGB
 90
      255
102
RTVSPost2010PropOp44
 70
     1
102
RTVSPost2010Prop45
280
     0
102
RTVSPost2010PropOp45
 70
     1
102
RTVSPost2010Prop46
 90
       50
102
RTVSPost2010PropOp46
 70
     1
102
RTVSPost2010Prop47
 90
       50
102
RTVSPost2010PropOp47
 70
     1
102
RTVSPost2010Prop48
 90
       50
102
RTVSPost2010PropOp48
 70
     1
102
RTVSPost2010Prop49
280
     0
102
RTVSPost2010PropOp49
 70
     1
102
RTVSPost2010Prop50
 90
       50
102
RTVSPost2010PropOp50
 70
     1
102
RTVSPost2010Prop51ColorIndex
 90
      256
102
RTVSPost2010Prop51ColorRGB
 90
-16777216
102
RTVSPost2010PropOp51
 70
     0
102
RTVSPost2010Prop52
140
1.0
102
RTVSPost2010PropOp52
 70
     0
102
RTVSPost2010Prop53
 90
        2
102
RTVSPost2010PropOp53
 70
     1
102
RTVSPost2010Prop54
  1
strokes_ogs.tif
102
RTVSPost2010PropOp54
 70
     1
102
RTVSPost2010Prop55
280
     0
102
RTVSPost2010PropOp55
 70
     1
102
RTVSPost2010Prop56
140
1.0
102
RTVSPost2010PropOp56
 70
     1
102
RTVSPost2010Prop57
140
1.0
102
RTVSPost2010PropOp57
 70
     1
  0
XRECORD
  5
58FC
102
{ACAD_REACTORS
330
58FB
102
}
330
58FB
100
AcDbXrecord
280
     1
102
RTVSPropertyOp0
 70
     1
102
RTVSPropertyOp1
 70
     1
102
RTVSPropertyOp2
 70
     1
102
RTVSPropertyOp3
 70
     1
102
RTVSPropertyOp4
 70
     1
102
RTVSPropertyOp5
 70
     1
102
RTVSPropertyOp6
 70
     1
102
RTVSPropertyOp7
 70
     1
102
RTVSPropertyOp8
 70
     1
102
RTVSPropertyOp9
 70
     1
102
RTVSPropertyOp10
 70
     1
102
RTVSPropertyOp11
 70
     1
102
RTVSPropertyOp12
 70
     1
102
RTVSPropertyOp13
 70
     1
102
RTVSPropertyOp14
 70
     1
102
RTVSPropertyOp15
 70
     1
102
RTVSPropertyOp16
 70
     1
102
RTVSPropertyOp17
 70
     1
102
RTVSPropertyOp18
 70
     1
102
RTVSPropertyOp19
 70
     1
102
RTVSPropertyOp20
 70
     1
102
RTVSPropertyOp21
 70
     1
102
RTVSPropertyOp22
 70
     1
102
RTVSPropertyOp23
 70
     1
102
RTVSPropertyOp24
 70
     1
102
RTVSPropertyOp25
 70
     1
102
RTVSPropertyOp26
 70
     1
102
RTVSPropertyOp27
 70
     1
102
RTVSPropertyOp28
 70
     1
102
RTVSPropertyOp29
 70
     1
102
RTVSPropertyOp30
 70
     1
102
RTVSPropertyOp31
 70
     1
102
RTVSPropertyOp32
 70
     1
102
RTVSPropertyOp33
 70
     1
102
RTVSPropertyOp34
 70
     1
102
RTVSPropertyOp35
 70
     1
102
RTVSPropertyOp36
 70
     1
102
RTVSPropertyOp37
 70
     1
102
RTVSPropertyOp38
 70
     1
102
RTVSPropertyOp39
 70
     1
102
RTVSPropertyOp40
 70
     1
102
RTVSPropertyOp41
 70
     1
102
RTVSPropertyOp42
 70
     1
102
RTVSPropertyOp43
 70
     1
102
RTVSPropertyOp44
 70
     1
102
RTVSPropertyOp45
 70
     1
102
RTVSPropertyOp46
 70
     1
102
RTVSPropertyOp47
 70
     1
102
RTVSPropertyOp48
 70
     1
102
RTVSPropertyOp49
 70
     1
102
RTVSPropertyOp50
 70
     1
102
RTVSPropertyOp51
 70
     0
102
RTVSPropertyOp52
 70
     0
102
RTVSPropertyOp53
 70
     1
102
RTVSPropertyOp54
 70
     1
102
RTVSPropertyOp55
 70
     1
102
RTVSPropertyOp56
 70
     1
102
RTVSPropertyOp57
 70
     1
102
RTVSPost2010Prop28
280
     0
102
RTVSPost2010PropOp28
 70
     1
102
RTVSPost2010Prop29
280
     1
102
RTVSPost2010PropOp29
 70
     1
102
RTVSPost2010Prop30
280
     1
102
RTVSPost2010PropOp30
 70
     1
102
RTVSPost2010Prop31
280
     0
102
RTVSPost2010PropOp31
 70
     1
102
RTVSPost2010Prop32
280
     0
102
RTVSPost2010PropOp32
 70
     1
102
RTVSPost2010Prop33
280
     0
102
RTVSPost2010PropOp33
 70
     1
102
RTVSPost2010Prop34
280
     0
102
RTVSPost2010PropOp34
 70
     1
102
RTVSPost2010Prop35
280
     0
102
RTVSPost2010PropOp35
 70
     1
102
RTVSPost2010Prop36
280
     0
102
RTVSPost2010PropOp36
 70
     1
102
RTVSPost2010Prop37
 90
       50
102
RTVSPost2010PropOp37
 70
     1
102
RTVSPost2010Prop38
140
0.0
102
RTVSPost2010PropOp38
 70
     1
102
RTVSPost2010Prop39
140
1.0
102
RTVSPost2010PropOp39
 70
     1
102
RTVSPost2010Prop40
 90
        0
102
RTVSPost2010PropOp40
 70
     1
102
RTVSPost2010Prop41ColorIndex
 90
       18
102
RTVSPost2010Prop41ColorRGB
 90
        0
102
RTVSPost2010PropOp41
 70
     1
102
RTVSPost2010Prop42
 90
       50
102
RTVSPost2010PropOp42
 70
     1
102
RTVSPost2010Prop43
 90
        3
102
RTVSPost2010PropOp43
 70
     1
102
RTVSPost2010Prop44ColorIndex
 90
        5
102
RTVSPost2010Prop44ColorRGB
 90
      255
102
RTVSPost2010PropOp44
 70
     1
102
RTVSPost2010Prop45
280
     0
102
RTVSPost2010PropOp45
 70
     1
102
RTVSPost2010Prop46
 90
       50
102
RTVSPost2010PropOp46
 70
     1
102
RTVSPost2010Prop47
 90
       50
102
RTVSPost2010PropOp47
 70
     1
102
RTVSPost2010Prop48
 90
       50
102
RTVSPost2010PropOp48
 70
     1
102
RTVSPost2010Prop49
280
     0
102
RTVSPost2010PropOp49
 70
     1
102
RTVSPost2010Prop50
 90
       50
102
RTVSPost2010PropOp50
 70
     1
102
RTVSPost2010Prop51ColorIndex
 90
      256
102
RTVSPost2010Prop51ColorRGB
 90
-16777216
102
RTVSPost2010PropOp51
 70
     0
102
RTVSPost2010Prop52
140
1.0
102
RTVSPost2010PropOp52
 70
     0
102
RTVSPost2010Prop53
 90
        2
102
RTVSPost2010PropOp53
 70
     1
102
RTVSPost2010Prop54
  1
strokes_ogs.tif
102
RTVSPost2010PropOp54
 70
     1
102
RTVSPost2010Prop55
280
     0
102
RTVSPost2010PropOp55
 70
     1
102
RTVSPost2010Prop56
140
1.0
102
RTVSPost2010PropOp56
 70
     1
102
RTVSPost2010Prop57
140
1.0
102
RTVSPost2010PropOp57
 70
     1
  0
XRECORD
  5
58FE
102
{ACAD_REACTORS
330
58FD
102
}
330
58FD
100
AcDbXrecord
280
     1
102
RTVSPropertyOp0
 70
     1
102
RTVSPropertyOp1
 70
     1
102
RTVSPropertyOp2
 70
     1
102
RTVSPropertyOp3
 70
     1
102
RTVSPropertyOp4
 70
     1
102
RTVSPropertyOp5
 70
     1
102
RTVSPropertyOp6
 70
     1
102
RTVSPropertyOp7
 70
     1
102
RTVSPropertyOp8
 70
     1
102
RTVSPropertyOp9
 70
     1
102
RTVSPropertyOp10
 70
     1
102
RTVSPropertyOp11
 70
     1
102
RTVSPropertyOp12
 70
     1
102
RTVSPropertyOp13
 70
     1
102
RTVSPropertyOp14
 70
     1
102
RTVSPropertyOp15
 70
     1
102
RTVSPropertyOp16
 70
     1
102
RTVSPropertyOp17
 70
     1
102
RTVSPropertyOp18
 70
     1
102
RTVSPropertyOp19
 70
     1
102
RTVSPropertyOp20
 70
     1
102
RTVSPropertyOp21
 70
     1
102
RTVSPropertyOp22
 70
     1
102
RTVSPropertyOp23
 70
     1
102
RTVSPropertyOp24
 70
     1
102
RTVSPropertyOp25
 70
     1
102
RTVSPropertyOp26
 70
     1
102
RTVSPropertyOp27
 70
     1
102
RTVSPropertyOp28
 70
     1
102
RTVSPropertyOp29
 70
     1
102
RTVSPropertyOp30
 70
     1
102
RTVSPropertyOp31
 70
     1
102
RTVSPropertyOp32
 70
     1
102
RTVSPropertyOp33
 70
     1
102
RTVSPropertyOp34
 70
     1
102
RTVSPropertyOp35
 70
     1
102
RTVSPropertyOp36
 70
     1
102
RTVSPropertyOp37
 70
     1
102
RTVSPropertyOp38
 70
     1
102
RTVSPropertyOp39
 70
     1
102
RTVSPropertyOp40
 70
     1
102
RTVSPropertyOp41
 70
     1
102
RTVSPropertyOp42
 70
     1
102
RTVSPropertyOp43
 70
     1
102
RTVSPropertyOp44
 70
     1
102
RTVSPropertyOp45
 70
     1
102
RTVSPropertyOp46
 70
     1
102
RTVSPropertyOp47
 70
     1
102
RTVSPropertyOp48
 70
     1
102
RTVSPropertyOp49
 70
     1
102
RTVSPropertyOp50
 70
     1
102
RTVSPropertyOp51
 70
     0
102
RTVSPropertyOp52
 70
     0
102
RTVSPropertyOp53
 70
     1
102
RTVSPropertyOp54
 70
     1
102
RTVSPropertyOp55
 70
     1
102
RTVSPropertyOp56
 70
     1
102
RTVSPropertyOp57
 70
     1
102
RTVSPost2010Prop28
280
     0
102
RTVSPost2010PropOp28
 70
     1
102
RTVSPost2010Prop29
280
     1
102
RTVSPost2010PropOp29
 70
     1
102
RTVSPost2010Prop30
280
     1
102
RTVSPost2010PropOp30
 70
     1
102
RTVSPost2010Prop31
280
     0
102
RTVSPost2010PropOp31
 70
     1
102
RTVSPost2010Prop32
280
     0
102
RTVSPost2010PropOp32
 70
     1
102
RTVSPost2010Prop33
280
     0
102
RTVSPost2010PropOp33
 70
     1
102
RTVSPost2010Prop34
280
     0
102
RTVSPost2010PropOp34
 70
     1
102
RTVSPost2010Prop35
280
     0
102
RTVSPost2010PropOp35
 70
     1
102
RTVSPost2010Prop36
280
     0
102
RTVSPost2010PropOp36
 70
     1
102
RTVSPost2010Prop37
 90
       50
102
RTVSPost2010PropOp37
 70
     1
102
RTVSPost2010Prop38
140
0.0
102
RTVSPost2010PropOp38
 70
     1
102
RTVSPost2010Prop39
140
1.0
102
RTVSPost2010PropOp39
 70
     1
102
RTVSPost2010Prop40
 90
        0
102
RTVSPost2010PropOp40
 70
     1
102
RTVSPost2010Prop41ColorIndex
 90
       18
102
RTVSPost2010Prop41ColorRGB
 90
        0
102
RTVSPost2010PropOp41
 70
     1
102
RTVSPost2010Prop42
 90
       50
102
RTVSPost2010PropOp42
 70
     1
102
RTVSPost2010Prop43
 90
        3
102
RTVSPost2010PropOp43
 70
     1
102
RTVSPost2010Prop44ColorIndex
 90
        5
102
RTVSPost2010Prop44ColorRGB
 90
      255
102
RTVSPost2010PropOp44
 70
     1
102
RTVSPost2010Prop45
280
     0
102
RTVSPost2010PropOp45
 70
     1
102
RTVSPost2010Prop46
 90
       50
102
RTVSPost2010PropOp46
 70
     1
102
RTVSPost2010Prop47
 90
       50
102
RTVSPost2010PropOp47
 70
     1
102
RTVSPost2010Prop48
 90
       50
102
RTVSPost2010PropOp48
 70
     1
102
RTVSPost2010Prop49
280
     0
102
RTVSPost2010PropOp49
 70
     1
102
RTVSPost2010Prop50
 90
       50
102
RTVSPost2010PropOp50
 70
     1
102
RTVSPost2010Prop51ColorIndex
 90
      256
102
RTVSPost2010Prop51ColorRGB
 90
-16777216
102
RTVSPost2010PropOp51
 70
     0
102
RTVSPost2010Prop52
140
1.0
102
RTVSPost2010PropOp52
 70
     0
102
RTVSPost2010Prop53
 90
        2
102
RTVSPost2010PropOp53
 70
     1
102
RTVSPost2010Prop54
  1
strokes_ogs.tif
102
RTVSPost2010PropOp54
 70
     1
102
RTVSPost2010Prop55
280
     0
102
RTVSPost2010PropOp55
 70
     1
102
RTVSPost2010Prop56
140
1.0
102
RTVSPost2010PropOp56
 70
     1
102
RTVSPost2010Prop57
140
1.0
102
RTVSPost2010PropOp57
 70
     1
  0
XRECORD
  5
5900
102
{ACAD_REACTORS
330
58FF
102
}
330
58FF
100
AcDbXrecord
280
     1
102
RTVSPropertyOp0
 70
     1
102
RTVSPropertyOp1
 70
     1
102
RTVSPropertyOp2
 70
     1
102
RTVSPropertyOp3
 70
     1
102
RTVSPropertyOp4
 70
     1
102
RTVSPropertyOp5
 70
     1
102
RTVSPropertyOp6
 70
     1
102
RTVSPropertyOp7
 70
     1
102
RTVSPropertyOp8
 70
     1
102
RTVSPropertyOp9
 70
     1
102
RTVSPropertyOp10
 70
     1
102
RTVSPropertyOp11
 70
     1
102
RTVSPropertyOp12
 70
     1
102
RTVSPropertyOp13
 70
     1
102
RTVSPropertyOp14
 70
     1
102
RTVSPropertyOp15
 70
     1
102
RTVSPropertyOp16
 70
     1
102
RTVSPropertyOp17
 70
     1
102
RTVSPropertyOp18
 70
     1
102
RTVSPropertyOp19
 70
     1
102
RTVSPropertyOp20
 70
     1
102
RTVSPropertyOp21
 70
     1
102
RTVSPropertyOp22
 70
     1
102
RTVSPropertyOp23
 70
     1
102
RTVSPropertyOp24
 70
     1
102
RTVSPropertyOp25
 70
     1
102
RTVSPropertyOp26
 70
     1
102
RTVSPropertyOp27
 70
     1
102
RTVSPropertyOp28
 70
     1
102
RTVSPropertyOp29
 70
     1
102
RTVSPropertyOp30
 70
     1
102
RTVSPropertyOp31
 70
     1
102
RTVSPropertyOp32
 70
     1
102
RTVSPropertyOp33
 70
     1
102
RTVSPropertyOp34
 70
     1
102
RTVSPropertyOp35
 70
     1
102
RTVSPropertyOp36
 70
     1
102
RTVSPropertyOp37
 70
     1
102
RTVSPropertyOp38
 70
     1
102
RTVSPropertyOp39
 70
     1
102
RTVSPropertyOp40
 70
     1
102
RTVSPropertyOp41
 70
     1
102
RTVSPropertyOp42
 70
     1
102
RTVSPropertyOp43
 70
     1
102
RTVSPropertyOp44
 70
     1
102
RTVSPropertyOp45
 70
     1
102
RTVSPropertyOp46
 70
     1
102
RTVSPropertyOp47
 70
     1
102
RTVSPropertyOp48
 70
     1
102
RTVSPropertyOp49
 70
     1
102
RTVSPropertyOp50
 70
     1
102
RTVSPropertyOp51
 70
     0
102
RTVSPropertyOp52
 70
     0
102
RTVSPropertyOp53
 70
     1
102
RTVSPropertyOp54
 70
     1
102
RTVSPropertyOp55
 70
     1
102
RTVSPropertyOp56
 70
     1
102
RTVSPropertyOp57
 70
     1
102
RTVSPost2010Prop28
280
     0
102
RTVSPost2010PropOp28
 70
     1
102
RTVSPost2010Prop29
280
     1
102
RTVSPost2010PropOp29
 70
     1
102
RTVSPost2010Prop30
280
     1
102
RTVSPost2010PropOp30
 70
     1
102
RTVSPost2010Prop31
280
     0
102
RTVSPost2010PropOp31
 70
     1
102
RTVSPost2010Prop32
280
     0
102
RTVSPost2010PropOp32
 70
     1
102
RTVSPost2010Prop33
280
     0
102
RTVSPost2010PropOp33
 70
     1
102
RTVSPost2010Prop34
280
     0
102
RTVSPost2010PropOp34
 70
     1
102
RTVSPost2010Prop35
280
     0
102
RTVSPost2010PropOp35
 70
     1
102
RTVSPost2010Prop36
280
     0
102
RTVSPost2010PropOp36
 70
     1
102
RTVSPost2010Prop37
 90
       50
102
RTVSPost2010PropOp37
 70
     1
102
RTVSPost2010Prop38
140
0.0
102
RTVSPost2010PropOp38
 70
     1
102
RTVSPost2010Prop39
140
1.0
102
RTVSPost2010PropOp39
 70
     1
102
RTVSPost2010Prop40
 90
        0
102
RTVSPost2010PropOp40
 70
     1
102
RTVSPost2010Prop41ColorIndex
 90
       18
102
RTVSPost2010Prop41ColorRGB
 90
        0
102
RTVSPost2010PropOp41
 70
     1
102
RTVSPost2010Prop42
 90
       50
102
RTVSPost2010PropOp42
 70
     1
102
RTVSPost2010Prop43
 90
        3
102
RTVSPost2010PropOp43
 70
     1
102
RTVSPost2010Prop44ColorIndex
 90
        5
102
RTVSPost2010Prop44ColorRGB
 90
      255
102
RTVSPost2010PropOp44
 70
     1
102
RTVSPost2010Prop45
280
     0
102
RTVSPost2010PropOp45
 70
     1
102
RTVSPost2010Prop46
 90
       50
102
RTVSPost2010PropOp46
 70
     1
102
RTVSPost2010Prop47
 90
       50
102
RTVSPost2010PropOp47
 70
     1
102
RTVSPost2010Prop48
 90
       50
102
RTVSPost2010PropOp48
 70
     1
102
RTVSPost2010Prop49
280
     0
102
RTVSPost2010PropOp49
 70
     1
102
RTVSPost2010Prop50
 90
       50
102
RTVSPost2010PropOp50
 70
     1
102
RTVSPost2010Prop51ColorIndex
 90
      256
102
RTVSPost2010Prop51ColorRGB
 90
-16777216
102
RTVSPost2010PropOp51
 70
     0
102
RTVSPost2010Prop52
140
1.0
102
RTVSPost2010PropOp52
 70
     0
102
RTVSPost2010Prop53
 90
        2
102
RTVSPost2010PropOp53
 70
     1
102
RTVSPost2010Prop54
  1
strokes_ogs.tif
102
RTVSPost2010PropOp54
 70
     1
102
RTVSPost2010Prop55
280
     0
102
RTVSPost2010PropOp55
 70
     1
102
RTVSPost2010Prop56
140
1.0
102
RTVSPost2010PropOp56
 70
     1
102
RTVSPost2010Prop57
140
1.0
102
RTVSPost2010PropOp57
 70
     1
  0
XRECORD
  5
5902
102
{ACAD_REACTORS
330
5901
102
}
330
5901
100
AcDbXrecord
280
     1
102
RTVSPropertyOp0
 70
     1
102
RTVSPropertyOp1
 70
     1
102
RTVSPropertyOp2
 70
     1
102
RTVSPropertyOp3
 70
     1
102
RTVSPropertyOp4
 70
     1
102
RTVSPropertyOp5
 70
     1
102
RTVSPropertyOp6
 70
     1
102
RTVSPropertyOp7
 70
     1
102
RTVSPropertyOp8
 70
     1
102
RTVSPropertyOp9
 70
     1
102
RTVSPropertyOp10
 70
     1
102
RTVSPropertyOp11
 70
     1
102
RTVSPropertyOp12
 70
     1
102
RTVSPropertyOp13
 70
     1
102
RTVSPropertyOp14
 70
     1
102
RTVSPropertyOp15
 70
     1
102
RTVSPropertyOp16
 70
     1
102
RTVSPropertyOp17
 70
     1
102
RTVSPropertyOp18
 70
     1
102
RTVSPropertyOp19
 70
     1
102
RTVSPropertyOp20
 70
     1
102
RTVSPropertyOp21
 70
     1
102
RTVSPropertyOp22
 70
     1
102
RTVSPropertyOp23
 70
     1
102
RTVSPropertyOp24
 70
     1
102
RTVSPropertyOp25
 70
     1
102
RTVSPropertyOp26
 70
     1
102
RTVSPropertyOp27
 70
     1
102
RTVSPropertyOp28
 70
     1
102
RTVSPropertyOp29
 70
     1
102
RTVSPropertyOp30
 70
     1
102
RTVSPropertyOp31
 70
     1
102
RTVSPropertyOp32
 70
     1
102
RTVSPropertyOp33
 70
     1
102
RTVSPropertyOp34
 70
     1
102
RTVSPropertyOp35
 70
     1
102
RTVSPropertyOp36
 70
     1
102
RTVSPropertyOp37
 70
     1
102
RTVSPropertyOp38
 70
     1
102
RTVSPropertyOp39
 70
     1
102
RTVSPropertyOp40
 70
     1
102
RTVSPropertyOp41
 70
     1
102
RTVSPropertyOp42
 70
     1
102
RTVSPropertyOp43
 70
     1
102
RTVSPropertyOp44
 70
     1
102
RTVSPropertyOp45
 70
     1
102
RTVSPropertyOp46
 70
     1
102
RTVSPropertyOp47
 70
     1
102
RTVSPropertyOp48
 70
     1
102
RTVSPropertyOp49
 70
     1
102
RTVSPropertyOp50
 70
     1
102
RTVSPropertyOp51
 70
     0
102
RTVSPropertyOp52
 70
     0
102
RTVSPropertyOp53
 70
     1
102
RTVSPropertyOp54
 70
     1
102
RTVSPropertyOp55
 70
     1
102
RTVSPropertyOp56
 70
     1
102
RTVSPropertyOp57
 70
     1
102
RTVSPost2010Prop28
280
     0
102
RTVSPost2010PropOp28
 70
     1
102
RTVSPost2010Prop29
280
     1
102
RTVSPost2010PropOp29
 70
     1
102
RTVSPost2010Prop30
280
     1
102
RTVSPost2010PropOp30
 70
     1
102
RTVSPost2010Prop31
280
     0
102
RTVSPost2010PropOp31
 70
     1
102
RTVSPost2010Prop32
280
     0
102
RTVSPost2010PropOp32
 70
     1
102
RTVSPost2010Prop33
280
     0
102
RTVSPost2010PropOp33
 70
     1
102
RTVSPost2010Prop34
280
     0
102
RTVSPost2010PropOp34
 70
     1
102
RTVSPost2010Prop35
280
     0
102
RTVSPost2010PropOp35
 70
     1
102
RTVSPost2010Prop36
280
     0
102
RTVSPost2010PropOp36
 70
     1
102
RTVSPost2010Prop37
 90
       50
102
RTVSPost2010PropOp37
 70
     1
102
RTVSPost2010Prop38
140
0.0
102
RTVSPost2010PropOp38
 70
     1
102
RTVSPost2010Prop39
140
1.0
102
RTVSPost2010PropOp39
 70
     1
102
RTVSPost2010Prop40
 90
        0
102
RTVSPost2010PropOp40
 70
     1
102
RTVSPost2010Prop41ColorIndex
 90
       18
102
RTVSPost2010Prop41ColorRGB
 90
        0
102
RTVSPost2010PropOp41
 70
     1
102
RTVSPost2010Prop42
 90
       50
102
RTVSPost2010PropOp42
 70
     1
102
RTVSPost2010Prop43
 90
        3
102
RTVSPost2010PropOp43
 70
     1
102
RTVSPost2010Prop44ColorIndex
 90
        5
102
RTVSPost2010Prop44ColorRGB
 90
      255
102
RTVSPost2010PropOp44
 70
     1
102
RTVSPost2010Prop45
280
     0
102
RTVSPost2010PropOp45
 70
     1
102
RTVSPost2010Prop46
 90
       50
102
RTVSPost2010PropOp46
 70
     1
102
RTVSPost2010Prop47
 90
       50
102
RTVSPost2010PropOp47
 70
     1
102
RTVSPost2010Prop48
 90
       50
102
RTVSPost2010PropOp48
 70
     1
102
RTVSPost2010Prop49
280
     0
102
RTVSPost2010PropOp49
 70
     1
102
RTVSPost2010Prop50
 90
       50
102
RTVSPost2010PropOp50
 70
     1
102
RTVSPost2010Prop51ColorIndex
 90
      256
102
RTVSPost2010Prop51ColorRGB
 90
-16777216
102
RTVSPost2010PropOp51
 70
     0
102
RTVSPost2010Prop52
140
1.0
102
RTVSPost2010PropOp52
 70
     0
102
RTVSPost2010Prop53
 90
        2
102
RTVSPost2010PropOp53
 70
     1
102
RTVSPost2010Prop54
  1
strokes_ogs.tif
102
RTVSPost2010PropOp54
 70
     1
102
RTVSPost2010Prop55
280
     0
102
RTVSPost2010PropOp55
 70
     1
102
RTVSPost2010Prop56
140
1.0
102
RTVSPost2010PropOp56
 70
     1
102
RTVSPost2010Prop57
140
1.0
102
RTVSPost2010PropOp57
 70
     1
  0
XRECORD
  5
5904
102
{ACAD_REACTORS
330
5903
102
}
330
5903
100
AcDbXrecord
280
     1
102
RTVSPropertyOp0
 70
     1
102
RTVSPropertyOp1
 70
     1
102
RTVSPropertyOp2
 70
     1
102
RTVSPropertyOp3
 70
     1
102
RTVSPropertyOp4
 70
     1
102
RTVSPropertyOp5
 70
     1
102
RTVSPropertyOp6
 70
     1
102
RTVSPropertyOp7
 70
     1
102
RTVSPropertyOp8
 70
     1
102
RTVSPropertyOp9
 70
     1
102
RTVSPropertyOp10
 70
     1
102
RTVSPropertyOp11
 70
     1
102
RTVSPropertyOp12
 70
     1
102
RTVSPropertyOp13
 70
     1
102
RTVSPropertyOp14
 70
     1
102
RTVSPropertyOp15
 70
     1
102
RTVSPropertyOp16
 70
     1
102
RTVSPropertyOp17
 70
     1
102
RTVSPropertyOp18
 70
     1
102
RTVSPropertyOp19
 70
     1
102
RTVSPropertyOp20
 70
     1
102
RTVSPropertyOp21
 70
     1
102
RTVSPropertyOp22
 70
     1
102
RTVSPropertyOp23
 70
     1
102
RTVSPropertyOp24
 70
     1
102
RTVSPropertyOp25
 70
     1
102
RTVSPropertyOp26
 70
     1
102
RTVSPropertyOp27
 70
     1
102
RTVSPropertyOp28
 70
     1
102
RTVSPropertyOp29
 70
     1
102
RTVSPropertyOp30
 70
     1
102
RTVSPropertyOp31
 70
     1
102
RTVSPropertyOp32
 70
     1
102
RTVSPropertyOp33
 70
     1
102
RTVSPropertyOp34
 70
     1
102
RTVSPropertyOp35
 70
     1
102
RTVSPropertyOp36
 70
     1
102
RTVSPropertyOp37
 70
     1
102
RTVSPropertyOp38
 70
     1
102
RTVSPropertyOp39
 70
     1
102
RTVSPropertyOp40
 70
     1
102
RTVSPropertyOp41
 70
     1
102
RTVSPropertyOp42
 70
     1
102
RTVSPropertyOp43
 70
     1
102
RTVSPropertyOp44
 70
     1
102
RTVSPropertyOp45
 70
     1
102
RTVSPropertyOp46
 70
     1
102
RTVSPropertyOp47
 70
     1
102
RTVSPropertyOp48
 70
     1
102
RTVSPropertyOp49
 70
     1
102
RTVSPropertyOp50
 70
     1
102
RTVSPropertyOp51
 70
     0
102
RTVSPropertyOp52
 70
     0
102
RTVSPropertyOp53
 70
     1
102
RTVSPropertyOp54
 70
     1
102
RTVSPropertyOp55
 70
     1
102
RTVSPropertyOp56
 70
     1
102
RTVSPropertyOp57
 70
     1
102
RTVSPost2010Prop28
280
     0
102
RTVSPost2010PropOp28
 70
     1
102
RTVSPost2010Prop29
280
     1
102
RTVSPost2010PropOp29
 70
     1
102
RTVSPost2010Prop30
280
     1
102
RTVSPost2010PropOp30
 70
     1
102
RTVSPost2010Prop31
280
     0
102
RTVSPost2010PropOp31
 70
     1
102
RTVSPost2010Prop32
280
     0
102
RTVSPost2010PropOp32
 70
     1
102
RTVSPost2010Prop33
280
     0
102
RTVSPost2010PropOp33
 70
     1
102
RTVSPost2010Prop34
280
     0
102
RTVSPost2010PropOp34
 70
     1
102
RTVSPost2010Prop35
280
     0
102
RTVSPost2010PropOp35
 70
     1
102
RTVSPost2010Prop36
280
     0
102
RTVSPost2010PropOp36
 70
     1
102
RTVSPost2010Prop37
 90
       50
102
RTVSPost2010PropOp37
 70
     1
102
RTVSPost2010Prop38
140
0.0
102
RTVSPost2010PropOp38
 70
     1
102
RTVSPost2010Prop39
140
1.0
102
RTVSPost2010PropOp39
 70
     1
102
RTVSPost2010Prop40
 90
        0
102
RTVSPost2010PropOp40
 70
     1
102
RTVSPost2010Prop41ColorIndex
 90
       18
102
RTVSPost2010Prop41ColorRGB
 90
        0
102
RTVSPost2010PropOp41
 70
     1
102
RTVSPost2010Prop42
 90
       50
102
RTVSPost2010PropOp42
 70
     1
102
RTVSPost2010Prop43
 90
        3
102
RTVSPost2010PropOp43
 70
     1
102
RTVSPost2010Prop44ColorIndex
 90
        5
102
RTVSPost2010Prop44ColorRGB
 90
      255
102
RTVSPost2010PropOp44
 70
     1
102
RTVSPost2010Prop45
280
     0
102
RTVSPost2010PropOp45
 70
     1
102
RTVSPost2010Prop46
 90
       50
102
RTVSPost2010PropOp46
 70
     1
102
RTVSPost2010Prop47
 90
       50
102
RTVSPost2010PropOp47
 70
     1
102
RTVSPost2010Prop48
 90
       50
102
RTVSPost2010PropOp48
 70
     1
102
RTVSPost2010Prop49
280
     0
102
RTVSPost2010PropOp49
 70
     1
102
RTVSPost2010Prop50
 90
       50
102
RTVSPost2010PropOp50
 70
     1
102
RTVSPost2010Prop51ColorIndex
 90
      256
102
RTVSPost2010Prop51ColorRGB
 90
-16777216
102
RTVSPost2010PropOp51
 70
     0
102
RTVSPost2010Prop52
140
1.0
102
RTVSPost2010PropOp52
 70
     0
102
RTVSPost2010Prop53
 90
        2
102
RTVSPost2010PropOp53
 70
     1
102
RTVSPost2010Prop54
  1
strokes_ogs.tif
102
RTVSPost2010PropOp54
 70
     1
102
RTVSPost2010Prop55
280
     0
102
RTVSPost2010PropOp55
 70
     1
102
RTVSPost2010Prop56
140
1.0
102
RTVSPost2010PropOp56
 70
     1
102
RTVSPost2010Prop57
140
1.0
102
RTVSPost2010PropOp57
 70
     1
  0
XRECORD
  5
5906
102
{ACAD_REACTORS
330
5905
102
}
330
5905
100
AcDbXrecord
280
     1
102
RTVSPropertyOp0
 70
     0
102
RTVSPropertyOp1
 70
     0
102
RTVSPropertyOp2
 70
     0
102
RTVSPropertyOp3
 70
     0
102
RTVSPropertyOp4
 70
     0
102
RTVSPropertyOp5
 70
     0
102
RTVSPropertyOp6
 70
     0
102
RTVSPropertyOp7
 70
     0
102
RTVSPropertyOp8
 70
     0
102
RTVSPropertyOp9
 70
     0
102
RTVSPropertyOp10
 70
     0
102
RTVSPropertyOp11
 70
     0
102
RTVSPropertyOp12
 70
     0
102
RTVSPropertyOp13
 70
     0
102
RTVSPropertyOp14
 70
     2
102
RTVSPropertyOp15
 70
     0
102
RTVSPropertyOp16
 70
     0
102
RTVSPropertyOp17
 70
     0
102
RTVSPropertyOp18
 70
     0
102
RTVSPropertyOp19
 70
     0
102
RTVSPropertyOp20
 70
     0
102
RTVSPropertyOp21
 70
     0
102
RTVSPropertyOp22
 70
     0
102
RTVSPropertyOp23
 70
     0
102
RTVSPropertyOp24
 70
     0
102
RTVSPropertyOp25
 70
     0
102
RTVSPropertyOp26
 70
     0
102
RTVSPropertyOp27
 70
     0
102
RTVSPropertyOp28
 70
     1
102
RTVSPropertyOp29
 70
     1
102
RTVSPropertyOp30
 70
     1
102
RTVSPropertyOp31
 70
     1
102
RTVSPropertyOp32
 70
     1
102
RTVSPropertyOp33
 70
     1
102
RTVSPropertyOp34
 70
     1
102
RTVSPropertyOp35
 70
     1
102
RTVSPropertyOp36
 70
     1
102
RTVSPropertyOp37
 70
     1
102
RTVSPropertyOp38
 70
     1
102
RTVSPropertyOp39
 70
     1
102
RTVSPropertyOp40
 70
     1
102
RTVSPropertyOp41
 70
     1
102
RTVSPropertyOp42
 70
     1
102
RTVSPropertyOp43
 70
     1
102
RTVSPropertyOp44
 70
     1
102
RTVSPropertyOp45
 70
     1
102
RTVSPropertyOp46
 70
     1
102
RTVSPropertyOp47
 70
     1
102
RTVSPropertyOp48
 70
     1
102
RTVSPropertyOp49
 70
     1
102
RTVSPropertyOp50
 70
     1
102
RTVSPropertyOp51
 70
     0
102
RTVSPropertyOp52
 70
     0
102
RTVSPropertyOp53
 70
     1
102
RTVSPropertyOp54
 70
     1
102
RTVSPropertyOp55
 70
     1
102
RTVSPropertyOp56
 70
     1
102
RTVSPropertyOp57
 70
     1
102
RTVSPost2010Prop28
280
     0
102
RTVSPost2010PropOp28
 70
     1
102
RTVSPost2010Prop29
280
     1
102
RTVSPost2010PropOp29
 70
     1
102
RTVSPost2010Prop30
280
     1
102
RTVSPost2010PropOp30
 70
     1
102
RTVSPost2010Prop31
280
     0
102
RTVSPost2010PropOp31
 70
     1
102
RTVSPost2010Prop32
280
     0
102
RTVSPost2010PropOp32
 70
     1
102
RTVSPost2010Prop33
280
     0
102
RTVSPost2010PropOp33
 70
     1
102
RTVSPost2010Prop34
280
     0
102
RTVSPost2010PropOp34
 70
     1
102
RTVSPost2010Prop35
280
     0
102
RTVSPost2010PropOp35
 70
     1
102
RTVSPost2010Prop36
280
     0
102
RTVSPost2010PropOp36
 70
     1
102
RTVSPost2010Prop37
 90
       50
102
RTVSPost2010PropOp37
 70
     1
102
RTVSPost2010Prop38
140
0.0
102
RTVSPost2010PropOp38
 70
     1
102
RTVSPost2010Prop39
140
1.0
102
RTVSPost2010PropOp39
 70
     1
102
RTVSPost2010Prop40
 90
        0
102
RTVSPost2010PropOp40
 70
     1
102
RTVSPost2010Prop41ColorIndex
 90
       18
102
RTVSPost2010Prop41ColorRGB
 90
        0
102
RTVSPost2010PropOp41
 70
     1
102
RTVSPost2010Prop42
 90
       50
102
RTVSPost2010PropOp42
 70
     1
102
RTVSPost2010Prop43
 90
        3
102
RTVSPost2010PropOp43
 70
     1
102
RTVSPost2010Prop44ColorIndex
 90
        5
102
RTVSPost2010Prop44ColorRGB
 90
      255
102
RTVSPost2010PropOp44
 70
     1
102
RTVSPost2010Prop45
280
     0
102
RTVSPost2010PropOp45
 70
     1
102
RTVSPost2010Prop46
 90
       50
102
RTVSPost2010PropOp46
 70
     1
102
RTVSPost2010Prop47
 90
       50
102
RTVSPost2010PropOp47
 70
     1
102
RTVSPost2010Prop48
 90
       50
102
RTVSPost2010PropOp48
 70
     1
102
RTVSPost2010Prop49
280
     0
102
RTVSPost2010PropOp49
 70
     1
102
RTVSPost2010Prop50
 90
       50
102
RTVSPost2010PropOp50
 70
     1
102
RTVSPost2010Prop51ColorIndex
 90
      256
102
RTVSPost2010Prop51ColorRGB
 90
-16777216
102
RTVSPost2010PropOp51
 70
     0
102
RTVSPost2010Prop52
140
1.0
102
RTVSPost2010PropOp52
 70
     0
102
RTVSPost2010Prop53
 90
        2
102
RTVSPost2010PropOp53
 70
     1
102
RTVSPost2010Prop54
  1
strokes_ogs.tif
102
RTVSPost2010PropOp54
 70
     1
102
RTVSPost2010Prop55
280
     0
102
RTVSPost2010PropOp55
 70
     1
102
RTVSPost2010Prop56
140
1.0
102
RTVSPost2010PropOp56
 70
     1
102
RTVSPost2010Prop57
140
1.0
102
RTVSPost2010PropOp57
 70
     1
  0
XRECORD
  5
5908
102
{ACAD_REACTORS
330
5907
102
}
330
5907
100
AcDbXrecord
280
     1
102
RTVSPropertyOp0
 70
     1
102
RTVSPropertyOp1
 70
     1
102
RTVSPropertyOp2
 70
     1
102
RTVSPropertyOp3
 70
     1
102
RTVSPropertyOp4
 70
     1
102
RTVSPropertyOp5
 70
     1
102
RTVSPropertyOp6
 70
     1
102
RTVSPropertyOp7
 70
     1
102
RTVSPropertyOp8
 70
     1
102
RTVSPropertyOp9
 70
     1
102
RTVSPropertyOp10
 70
     1
102
RTVSPropertyOp11
 70
     1
102
RTVSPropertyOp12
 70
     1
102
RTVSPropertyOp13
 70
     1
102
RTVSPropertyOp14
 70
     1
102
RTVSPropertyOp15
 70
     1
102
RTVSPropertyOp16
 70
     1
102
RTVSPropertyOp17
 70
     1
102
RTVSPropertyOp18
 70
     1
102
RTVSPropertyOp19
 70
     1
102
RTVSPropertyOp20
 70
     1
102
RTVSPropertyOp21
 70
     1
102
RTVSPropertyOp22
 70
     1
102
RTVSPropertyOp23
 70
     1
102
RTVSPropertyOp24
 70
     1
102
RTVSPropertyOp25
 70
     1
102
RTVSPropertyOp26
 70
     1
102
RTVSPropertyOp27
 70
     1
102
RTVSPropertyOp28
 70
     1
102
RTVSPropertyOp29
 70
     1
102
RTVSPropertyOp30
 70
     1
102
RTVSPropertyOp31
 70
     1
102
RTVSPropertyOp32
 70
     1
102
RTVSPropertyOp33
 70
     1
102
RTVSPropertyOp34
 70
     1
102
RTVSPropertyOp35
 70
     1
102
RTVSPropertyOp36
 70
     1
102
RTVSPropertyOp37
 70
     1
102
RTVSPropertyOp38
 70
     1
102
RTVSPropertyOp39
 70
     1
102
RTVSPropertyOp40
 70
     1
102
RTVSPropertyOp41
 70
     1
102
RTVSPropertyOp42
 70
     1
102
RTVSPropertyOp43
 70
     1
102
RTVSPropertyOp44
 70
     1
102
RTVSPropertyOp45
 70
     1
102
RTVSPropertyOp46
 70
     1
102
RTVSPropertyOp47
 70
     1
102
RTVSPropertyOp48
 70
     1
102
RTVSPropertyOp49
 70
     1
102
RTVSPropertyOp50
 70
     1
102
RTVSPropertyOp51
 70
     0
102
RTVSPropertyOp52
 70
     0
102
RTVSPropertyOp53
 70
     1
102
RTVSPropertyOp54
 70
     1
102
RTVSPropertyOp55
 70
     1
102
RTVSPropertyOp56
 70
     1
102
RTVSPropertyOp57
 70
     1
102
RTVSPost2010Prop28
280
     0
102
RTVSPost2010PropOp28
 70
     1
102
RTVSPost2010Prop29
280
     1
102
RTVSPost2010PropOp29
 70
     1
102
RTVSPost2010Prop30
280
     1
102
RTVSPost2010PropOp30
 70
     1
102
RTVSPost2010Prop31
280
     0
102
RTVSPost2010PropOp31
 70
     1
102
RTVSPost2010Prop32
280
     0
102
RTVSPost2010PropOp32
 70
     1
102
RTVSPost2010Prop33
280
     0
102
RTVSPost2010PropOp33
 70
     1
102
RTVSPost2010Prop34
280
     0
102
RTVSPost2010PropOp34
 70
     1
102
RTVSPost2010Prop35
280
     0
102
RTVSPost2010PropOp35
 70
     1
102
RTVSPost2010Prop36
280
     0
102
RTVSPost2010PropOp36
 70
     1
102
RTVSPost2010Prop37
 90
       50
102
RTVSPost2010PropOp37
 70
     1
102
RTVSPost2010Prop38
140
0.0
102
RTVSPost2010PropOp38
 70
     1
102
RTVSPost2010Prop39
140
1.0
102
RTVSPost2010PropOp39
 70
     1
102
RTVSPost2010Prop40
 90
        0
102
RTVSPost2010PropOp40
 70
     1
102
RTVSPost2010Prop41ColorIndex
 90
       18
102
RTVSPost2010Prop41ColorRGB
 90
        0
102
RTVSPost2010PropOp41
 70
     1
102
RTVSPost2010Prop42
 90
       50
102
RTVSPost2010PropOp42
 70
     1
102
RTVSPost2010Prop43
 90
        3
102
RTVSPost2010PropOp43
 70
     1
102
RTVSPost2010Prop44ColorIndex
 90
        5
102
RTVSPost2010Prop44ColorRGB
 90
      255
102
RTVSPost2010PropOp44
 70
     1
102
RTVSPost2010Prop45
280
     0
102
RTVSPost2010PropOp45
 70
     1
102
RTVSPost2010Prop46
 90
       50
102
RTVSPost2010PropOp46
 70
     1
102
RTVSPost2010Prop47
 90
       50
102
RTVSPost2010PropOp47
 70
     1
102
RTVSPost2010Prop48
 90
       50
102
RTVSPost2010PropOp48
 70
     1
102
RTVSPost2010Prop49
280
     0
102
RTVSPost2010PropOp49
 70
     1
102
RTVSPost2010Prop50
 90
       50
102
RTVSPost2010PropOp50
 70
     1
102
RTVSPost2010Prop51ColorIndex
 90
      256
102
RTVSPost2010Prop51ColorRGB
 90
-16777216
102
RTVSPost2010PropOp51
 70
     0
102
RTVSPost2010Prop52
140
1.0
102
RTVSPost2010PropOp52
 70
     0
102
RTVSPost2010Prop53
 90
        2
102
RTVSPost2010PropOp53
 70
     1
102
RTVSPost2010Prop54
  1
strokes_ogs.tif
102
RTVSPost2010PropOp54
 70
     1
102
RTVSPost2010Prop55
280
     0
102
RTVSPost2010PropOp55
 70
     1
102
RTVSPost2010Prop56
140
1.0
102
RTVSPost2010PropOp56
 70
     1
102
RTVSPost2010Prop57
140
1.0
102
RTVSPost2010PropOp57
 70
     1
  0
XRECORD
  5
590A
102
{ACAD_REACTORS
330
5909
102
}
330
5909
100
AcDbXrecord
280
     1
102
RTVSPropertyOp0
 70
     1
102
RTVSPropertyOp1
 70
     1
102
RTVSPropertyOp2
 70
     1
102
RTVSPropertyOp3
 70
     1
102
RTVSPropertyOp4
 70
     1
102
RTVSPropertyOp5
 70
     1
102
RTVSPropertyOp6
 70
     1
102
RTVSPropertyOp7
 70
     1
102
RTVSPropertyOp8
 70
     1
102
RTVSPropertyOp9
 70
     1
102
RTVSPropertyOp10
 70
     1
102
RTVSPropertyOp11
 70
     1
102
RTVSPropertyOp12
 70
     1
102
RTVSPropertyOp13
 70
     1
102
RTVSPropertyOp14
 70
     1
102
RTVSPropertyOp15
 70
     1
102
RTVSPropertyOp16
 70
     1
102
RTVSPropertyOp17
 70
     1
102
RTVSPropertyOp18
 70
     1
102
RTVSPropertyOp19
 70
     1
102
RTVSPropertyOp20
 70
     1
102
RTVSPropertyOp21
 70
     1
102
RTVSPropertyOp22
 70
     1
102
RTVSPropertyOp23
 70
     1
102
RTVSPropertyOp24
 70
     1
102
RTVSPropertyOp25
 70
     1
102
RTVSPropertyOp26
 70
     1
102
RTVSPropertyOp27
 70
     1
102
RTVSPropertyOp28
 70
     1
102
RTVSPropertyOp29
 70
     1
102
RTVSPropertyOp30
 70
     1
102
RTVSPropertyOp31
 70
     1
102
RTVSPropertyOp32
 70
     1
102
RTVSPropertyOp33
 70
     1
102
RTVSPropertyOp34
 70
     1
102
RTVSPropertyOp35
 70
     1
102
RTVSPropertyOp36
 70
     1
102
RTVSPropertyOp37
 70
     1
102
RTVSPropertyOp38
 70
     1
102
RTVSPropertyOp39
 70
     1
102
RTVSPropertyOp40
 70
     1
102
RTVSPropertyOp41
 70
     1
102
RTVSPropertyOp42
 70
     1
102
RTVSPropertyOp43
 70
     1
102
RTVSPropertyOp44
 70
     1
102
RTVSPropertyOp45
 70
     1
102
RTVSPropertyOp46
 70
     1
102
RTVSPropertyOp47
 70
     1
102
RTVSPropertyOp48
 70
     1
102
RTVSPropertyOp49
 70
     1
102
RTVSPropertyOp50
 70
     1
102
RTVSPropertyOp51
 70
     0
102
RTVSPropertyOp52
 70
     0
102
RTVSPropertyOp53
 70
     1
102
RTVSPropertyOp54
 70
     1
102
RTVSPropertyOp55
 70
     1
102
RTVSPropertyOp56
 70
     1
102
RTVSPropertyOp57
 70
     1
102
RTVSPost2010Prop28
280
     0
102
RTVSPost2010PropOp28
 70
     1
102
RTVSPost2010Prop29
280
     1
102
RTVSPost2010PropOp29
 70
     1
102
RTVSPost2010Prop30
280
     1
102
RTVSPost2010PropOp30
 70
     1
102
RTVSPost2010Prop31
280
     0
102
RTVSPost2010PropOp31
 70
     1
102
RTVSPost2010Prop32
280
     0
102
RTVSPost2010PropOp32
 70
     1
102
RTVSPost2010Prop33
280
     0
102
RTVSPost2010PropOp33
 70
     1
102
RTVSPost2010Prop34
280
     0
102
RTVSPost2010PropOp34
 70
     1
102
RTVSPost2010Prop35
280
     0
102
RTVSPost2010PropOp35
 70
     1
102
RTVSPost2010Prop36
280
     0
102
RTVSPost2010PropOp36
 70
     1
102
RTVSPost2010Prop37
 90
       50
102
RTVSPost2010PropOp37
 70
     1
102
RTVSPost2010Prop38
140
0.0
102
RTVSPost2010PropOp38
 70
     1
102
RTVSPost2010Prop39
140
1.0
102
RTVSPost2010PropOp39
 70
     1
102
RTVSPost2010Prop40
 90
        0
102
RTVSPost2010PropOp40
 70
     1
102
RTVSPost2010Prop41ColorIndex
 90
       18
102
RTVSPost2010Prop41ColorRGB
 90
        0
102
RTVSPost2010PropOp41
 70
     1
102
RTVSPost2010Prop42
 90
       50
102
RTVSPost2010PropOp42
 70
     1
102
RTVSPost2010Prop43
 90
        3
102
RTVSPost2010PropOp43
 70
     1
102
RTVSPost2010Prop44ColorIndex
 90
        5
102
RTVSPost2010Prop44ColorRGB
 90
      255
102
RTVSPost2010PropOp44
 70
     1
102
RTVSPost2010Prop45
280
     0
102
RTVSPost2010PropOp45
 70
     1
102
RTVSPost2010Prop46
 90
       50
102
RTVSPost2010PropOp46
 70
     1
102
RTVSPost2010Prop47
 90
       50
102
RTVSPost2010PropOp47
 70
     1
102
RTVSPost2010Prop48
 90
       50
102
RTVSPost2010PropOp48
 70
     1
102
RTVSPost2010Prop49
280
     0
102
RTVSPost2010PropOp49
 70
     1
102
RTVSPost2010Prop50
 90
       50
102
RTVSPost2010PropOp50
 70
     1
102
RTVSPost2010Prop51ColorIndex
 90
      256
102
RTVSPost2010Prop51ColorRGB
 90
-16777216
102
RTVSPost2010PropOp51
 70
     0
102
RTVSPost2010Prop52
140
1.0
102
RTVSPost2010PropOp52
 70
     0
102
RTVSPost2010Prop53
 90
        2
102
RTVSPost2010PropOp53
 70
     1
102
RTVSPost2010Prop54
  1
strokes_ogs.tif
102
RTVSPost2010PropOp54
 70
     1
102
RTVSPost2010Prop55
280
     0
102
RTVSPost2010PropOp55
 70
     1
102
RTVSPost2010Prop56
140
1.0
102
RTVSPost2010PropOp56
 70
     1
102
RTVSPost2010Prop57
140
1.0
102
RTVSPost2010PropOp57
 70
     1
  0
XRECORD
  5
590C
102
{ACAD_REACTORS
330
590B
102
}
330
590B
100
AcDbXrecord
280
     1
102
RTVSPropertyOp0
 70
     1
102
RTVSPropertyOp1
 70
     1
102
RTVSPropertyOp2
 70
     1
102
RTVSPropertyOp3
 70
     1
102
RTVSPropertyOp4
 70
     1
102
RTVSPropertyOp5
 70
     1
102
RTVSPropertyOp6
 70
     1
102
RTVSPropertyOp7
 70
     1
102
RTVSPropertyOp8
 70
     1
102
RTVSPropertyOp9
 70
     1
102
RTVSPropertyOp10
 70
     1
102
RTVSPropertyOp11
 70
     1
102
RTVSPropertyOp12
 70
     1
102
RTVSPropertyOp13
 70
     1
102
RTVSPropertyOp14
 70
     1
102
RTVSPropertyOp15
 70
     1
102
RTVSPropertyOp16
 70
     1
102
RTVSPropertyOp17
 70
     1
102
RTVSPropertyOp18
 70
     1
102
RTVSPropertyOp19
 70
     1
102
RTVSPropertyOp20
 70
     1
102
RTVSPropertyOp21
 70
     1
102
RTVSPropertyOp22
 70
     1
102
RTVSPropertyOp23
 70
     1
102
RTVSPropertyOp24
 70
     1
102
RTVSPropertyOp25
 70
     1
102
RTVSPropertyOp26
 70
     1
102
RTVSPropertyOp27
 70
     1
102
RTVSPropertyOp28
 70
     1
102
RTVSPropertyOp29
 70
     1
102
RTVSPropertyOp30
 70
     1
102
RTVSPropertyOp31
 70
     1
102
RTVSPropertyOp32
 70
     1
102
RTVSPropertyOp33
 70
     1
102
RTVSPropertyOp34
 70
     1
102
RTVSPropertyOp35
 70
     1
102
RTVSPropertyOp36
 70
     1
102
RTVSPropertyOp37
 70
     1
102
RTVSPropertyOp38
 70
     1
102
RTVSPropertyOp39
 70
     1
102
RTVSPropertyOp40
 70
     1
102
RTVSPropertyOp41
 70
     1
102
RTVSPropertyOp42
 70
     1
102
RTVSPropertyOp43
 70
     1
102
RTVSPropertyOp44
 70
     1
102
RTVSPropertyOp45
 70
     1
102
RTVSPropertyOp46
 70
     1
102
RTVSPropertyOp47
 70
     1
102
RTVSPropertyOp48
 70
     1
102
RTVSPropertyOp49
 70
     1
102
RTVSPropertyOp50
 70
     1
102
RTVSPropertyOp51
 70
     0
102
RTVSPropertyOp52
 70
     0
102
RTVSPropertyOp53
 70
     1
102
RTVSPropertyOp54
 70
     1
102
RTVSPropertyOp55
 70
     1
102
RTVSPropertyOp56
 70
     1
102
RTVSPropertyOp57
 70
     1
102
RTVSPost2010Prop28
280
     0
102
RTVSPost2010PropOp28
 70
     1
102
RTVSPost2010Prop29
280
     1
102
RTVSPost2010PropOp29
 70
     1
102
RTVSPost2010Prop30
280
     1
102
RTVSPost2010PropOp30
 70
     1
102
RTVSPost2010Prop31
280
     0
102
RTVSPost2010PropOp31
 70
     1
102
RTVSPost2010Prop32
280
     0
102
RTVSPost2010PropOp32
 70
     1
102
RTVSPost2010Prop33
280
     0
102
RTVSPost2010PropOp33
 70
     1
102
RTVSPost2010Prop34
280
     0
102
RTVSPost2010PropOp34
 70
     1
102
RTVSPost2010Prop35
280
     0
102
RTVSPost2010PropOp35
 70
     1
102
RTVSPost2010Prop36
280
     0
102
RTVSPost2010PropOp36
 70
     1
102
RTVSPost2010Prop37
 90
       50
102
RTVSPost2010PropOp37
 70
     1
102
RTVSPost2010Prop38
140
0.0
102
RTVSPost2010PropOp38
 70
     1
102
RTVSPost2010Prop39
140
1.0
102
RTVSPost2010PropOp39
 70
     1
102
RTVSPost2010Prop40
 90
        0
102
RTVSPost2010PropOp40
 70
     1
102
RTVSPost2010Prop41ColorIndex
 90
       18
102
RTVSPost2010Prop41ColorRGB
 90
        0
102
RTVSPost2010PropOp41
 70
     1
102
RTVSPost2010Prop42
 90
       50
102
RTVSPost2010PropOp42
 70
     1
102
RTVSPost2010Prop43
 90
        3
102
RTVSPost2010PropOp43
 70
     1
102
RTVSPost2010Prop44ColorIndex
 90
        5
102
RTVSPost2010Prop44ColorRGB
 90
      255
102
RTVSPost2010PropOp44
 70
     1
102
RTVSPost2010Prop45
280
     0
102
RTVSPost2010PropOp45
 70
     1
102
RTVSPost2010Prop46
 90
       50
102
RTVSPost2010PropOp46
 70
     1
102
RTVSPost2010Prop47
 90
       50
102
RTVSPost2010PropOp47
 70
     1
102
RTVSPost2010Prop48
 90
       50
102
RTVSPost2010PropOp48
 70
     1
102
RTVSPost2010Prop49
280
     0
102
RTVSPost2010PropOp49
 70
     1
102
RTVSPost2010Prop50
 90
       50
102
RTVSPost2010PropOp50
 70
     1
102
RTVSPost2010Prop51ColorIndex
 90
      256
102
RTVSPost2010Prop51ColorRGB
 90
-16777216
102
RTVSPost2010PropOp51
 70
     0
102
RTVSPost2010Prop52
140
1.0
102
RTVSPost2010PropOp52
 70
     0
102
RTVSPost2010Prop53
 90
        2
102
RTVSPost2010PropOp53
 70
     1
102
RTVSPost2010Prop54
  1
strokes_ogs.tif
102
RTVSPost2010PropOp54
 70
     1
102
RTVSPost2010Prop55
280
     0
102
RTVSPost2010PropOp55
 70
     1
102
RTVSPost2010Prop56
140
1.0
102
RTVSPost2010PropOp56
 70
     1
102
RTVSPost2010Prop57
140
1.0
102
RTVSPost2010PropOp57
 70
     1
  0
XRECORD
  5
590E
102
{ACAD_REACTORS
330
590D
102
}
330
590D
100
AcDbXrecord
280
     1
102
RTVSPropertyOp0
 70
     1
102
RTVSPropertyOp1
 70
     1
102
RTVSPropertyOp2
 70
     1
102
RTVSPropertyOp3
 70
     1
102
RTVSPropertyOp4
 70
     1
102
RTVSPropertyOp5
 70
     1
102
RTVSPropertyOp6
 70
     1
102
RTVSPropertyOp7
 70
     1
102
RTVSPropertyOp8
 70
     1
102
RTVSPropertyOp9
 70
     1
102
RTVSPropertyOp10
 70
     1
102
RTVSPropertyOp11
 70
     1
102
RTVSPropertyOp12
 70
     1
102
RTVSPropertyOp13
 70
     1
102
RTVSPropertyOp14
 70
     1
102
RTVSPropertyOp15
 70
     1
102
RTVSPropertyOp16
 70
     1
102
RTVSPropertyOp17
 70
     1
102
RTVSPropertyOp18
 70
     1
102
RTVSPropertyOp19
 70
     1
102
RTVSPropertyOp20
 70
     1
102
RTVSPropertyOp21
 70
     1
102
RTVSPropertyOp22
 70
     1
102
RTVSPropertyOp23
 70
     1
102
RTVSPropertyOp24
 70
     1
102
RTVSPropertyOp25
 70
     1
102
RTVSPropertyOp26
 70
     1
102
RTVSPropertyOp27
 70
     1
102
RTVSPropertyOp28
 70
     1
102
RTVSPropertyOp29
 70
     1
102
RTVSPropertyOp30
 70
     1
102
RTVSPropertyOp31
 70
     1
102
RTVSPropertyOp32
 70
     1
102
RTVSPropertyOp33
 70
     1
102
RTVSPropertyOp34
 70
     1
102
RTVSPropertyOp35
 70
     1
102
RTVSPropertyOp36
 70
     1
102
RTVSPropertyOp37
 70
     1
102
RTVSPropertyOp38
 70
     1
102
RTVSPropertyOp39
 70
     1
102
RTVSPropertyOp40
 70
     1
102
RTVSPropertyOp41
 70
     1
102
RTVSPropertyOp42
 70
     1
102
RTVSPropertyOp43
 70
     1
102
RTVSPropertyOp44
 70
     1
102
RTVSPropertyOp45
 70
     1
102
RTVSPropertyOp46
 70
     1
102
RTVSPropertyOp47
 70
     1
102
RTVSPropertyOp48
 70
     1
102
RTVSPropertyOp49
 70
     1
102
RTVSPropertyOp50
 70
     1
102
RTVSPropertyOp51
 70
     0
102
RTVSPropertyOp52
 70
     0
102
RTVSPropertyOp53
 70
     1
102
RTVSPropertyOp54
 70
     1
102
RTVSPropertyOp55
 70
     1
102
RTVSPropertyOp56
 70
     1
102
RTVSPropertyOp57
 70
     1
102
RTVSPost2010Prop28
280
     0
102
RTVSPost2010PropOp28
 70
     1
102
RTVSPost2010Prop29
280
     1
102
RTVSPost2010PropOp29
 70
     1
102
RTVSPost2010Prop30
280
     1
102
RTVSPost2010PropOp30
 70
     1
102
RTVSPost2010Prop31
280
     0
102
RTVSPost2010PropOp31
 70
     1
102
RTVSPost2010Prop32
280
     0
102
RTVSPost2010PropOp32
 70
     1
102
RTVSPost2010Prop33
280
     0
102
RTVSPost2010PropOp33
 70
     1
102
RTVSPost2010Prop34
280
     0
102
RTVSPost2010PropOp34
 70
     1
102
RTVSPost2010Prop35
280
     0
102
RTVSPost2010PropOp35
 70
     1
102
RTVSPost2010Prop36
280
     0
102
RTVSPost2010PropOp36
 70
     1
102
RTVSPost2010Prop37
 90
       50
102
RTVSPost2010PropOp37
 70
     1
102
RTVSPost2010Prop38
140
0.0
102
RTVSPost2010PropOp38
 70
     1
102
RTVSPost2010Prop39
140
1.0
102
RTVSPost2010PropOp39
 70
     1
102
RTVSPost2010Prop40
 90
        0
102
RTVSPost2010PropOp40
 70
     1
102
RTVSPost2010Prop41ColorIndex
 90
       18
102
RTVSPost2010Prop41ColorRGB
 90
        0
102
RTVSPost2010PropOp41
 70
     1
102
RTVSPost2010Prop42
 90
       50
102
RTVSPost2010PropOp42
 70
     1
102
RTVSPost2010Prop43
 90
        3
102
RTVSPost2010PropOp43
 70
     1
102
RTVSPost2010Prop44ColorIndex
 90
        5
102
RTVSPost2010Prop44ColorRGB
 90
      255
102
RTVSPost2010PropOp44
 70
     1
102
RTVSPost2010Prop45
280
     0
102
RTVSPost2010PropOp45
 70
     1
102
RTVSPost2010Prop46
 90
       50
102
RTVSPost2010PropOp46
 70
     1
102
RTVSPost2010Prop47
 90
       50
102
RTVSPost2010PropOp47
 70
     1
102
RTVSPost2010Prop48
 90
       50
102
RTVSPost2010PropOp48
 70
     1
102
RTVSPost2010Prop49
280
     0
102
RTVSPost2010PropOp49
 70
     1
102
RTVSPost2010Prop50
 90
       50
102
RTVSPost2010PropOp50
 70
     1
102
RTVSPost2010Prop51ColorIndex
 90
      256
102
RTVSPost2010Prop51ColorRGB
 90
-16777216
102
RTVSPost2010PropOp51
 70
     0
102
RTVSPost2010Prop52
140
1.0
102
RTVSPost2010PropOp52
 70
     0
102
RTVSPost2010Prop53
 90
        2
102
RTVSPost2010PropOp53
 70
     1
102
RTVSPost2010Prop54
  1
strokes_ogs.tif
102
RTVSPost2010PropOp54
 70
     1
102
RTVSPost2010Prop55
280
     0
102
RTVSPost2010PropOp55
 70
     1
102
RTVSPost2010Prop56
140
1.0
102
RTVSPost2010PropOp56
 70
     1
102
RTVSPost2010Prop57
140
1.0
102
RTVSPost2010PropOp57
 70
     1
  0
XRECORD
  5
5910
102
{ACAD_REACTORS
330
590F
102
}
330
590F
100
AcDbXrecord
280
     1
102
RTVSPropertyOp0
 70
     1
102
RTVSPropertyOp1
 70
     1
102
RTVSPropertyOp2
 70
     1
102
RTVSPropertyOp3
 70
     1
102
RTVSPropertyOp4
 70
     1
102
RTVSPropertyOp5
 70
     1
102
RTVSPropertyOp6
 70
     1
102
RTVSPropertyOp7
 70
     1
102
RTVSPropertyOp8
 70
     1
102
RTVSPropertyOp9
 70
     1
102
RTVSPropertyOp10
 70
     1
102
RTVSPropertyOp11
 70
     1
102
RTVSPropertyOp12
 70
     1
102
RTVSPropertyOp13
 70
     1
102
RTVSPropertyOp14
 70
     1
102
RTVSPropertyOp15
 70
     1
102
RTVSPropertyOp16
 70
     1
102
RTVSPropertyOp17
 70
     1
102
RTVSPropertyOp18
 70
     1
102
RTVSPropertyOp19
 70
     1
102
RTVSPropertyOp20
 70
     1
102
RTVSPropertyOp21
 70
     1
102
RTVSPropertyOp22
 70
     1
102
RTVSPropertyOp23
 70
     1
102
RTVSPropertyOp24
 70
     1
102
RTVSPropertyOp25
 70
     1
102
RTVSPropertyOp26
 70
     1
102
RTVSPropertyOp27
 70
     1
102
RTVSPropertyOp28
 70
     1
102
RTVSPropertyOp29
 70
     1
102
RTVSPropertyOp30
 70
     1
102
RTVSPropertyOp31
 70
     1
102
RTVSPropertyOp32
 70
     1
102
RTVSPropertyOp33
 70
     1
102
RTVSPropertyOp34
 70
     1
102
RTVSPropertyOp35
 70
     1
102
RTVSPropertyOp36
 70
     1
102
RTVSPropertyOp37
 70
     1
102
RTVSPropertyOp38
 70
     1
102
RTVSPropertyOp39
 70
     1
102
RTVSPropertyOp40
 70
     1
102
RTVSPropertyOp41
 70
     1
102
RTVSPropertyOp42
 70
     1
102
RTVSPropertyOp43
 70
     1
102
RTVSPropertyOp44
 70
     1
102
RTVSPropertyOp45
 70
     1
102
RTVSPropertyOp46
 70
     1
102
RTVSPropertyOp47
 70
     1
102
RTVSPropertyOp48
 70
     1
102
RTVSPropertyOp49
 70
     1
102
RTVSPropertyOp50
 70
     1
102
RTVSPropertyOp51
 70
     0
102
RTVSPropertyOp52
 70
     0
102
RTVSPropertyOp53
 70
     1
102
RTVSPropertyOp54
 70
     1
102
RTVSPropertyOp55
 70
     1
102
RTVSPropertyOp56
 70
     1
102
RTVSPropertyOp57
 70
     1
102
RTVSPost2010Prop28
280
     0
102
RTVSPost2010PropOp28
 70
     1
102
RTVSPost2010Prop29
280
     1
102
RTVSPost2010PropOp29
 70
     1
102
RTVSPost2010Prop30
280
     1
102
RTVSPost2010PropOp30
 70
     1
102
RTVSPost2010Prop31
280
     0
102
RTVSPost2010PropOp31
 70
     1
102
RTVSPost2010Prop32
280
     0
102
RTVSPost2010PropOp32
 70
     1
102
RTVSPost2010Prop33
280
     0
102
RTVSPost2010PropOp33
 70
     1
102
RTVSPost2010Prop34
280
     0
102
RTVSPost2010PropOp34
 70
     1
102
RTVSPost2010Prop35
280
     0
102
RTVSPost2010PropOp35
 70
     1
102
RTVSPost2010Prop36
280
     0
102
RTVSPost2010PropOp36
 70
     1
102
RTVSPost2010Prop37
 90
       50
102
RTVSPost2010PropOp37
 70
     1
102
RTVSPost2010Prop38
140
0.0
102
RTVSPost2010PropOp38
 70
     1
102
RTVSPost2010Prop39
140
1.0
102
RTVSPost2010PropOp39
 70
     1
102
RTVSPost2010Prop40
 90
        0
102
RTVSPost2010PropOp40
 70
     1
102
RTVSPost2010Prop41ColorIndex
 90
       18
102
RTVSPost2010Prop41ColorRGB
 90
        0
102
RTVSPost2010PropOp41
 70
     1
102
RTVSPost2010Prop42
 90
       50
102
RTVSPost2010PropOp42
 70
     1
102
RTVSPost2010Prop43
 90
        3
102
RTVSPost2010PropOp43
 70
     1
102
RTVSPost2010Prop44ColorIndex
 90
        5
102
RTVSPost2010Prop44ColorRGB
 90
      255
102
RTVSPost2010PropOp44
 70
     1
102
RTVSPost2010Prop45
280
     0
102
RTVSPost2010PropOp45
 70
     1
102
RTVSPost2010Prop46
 90
       50
102
RTVSPost2010PropOp46
 70
     1
102
RTVSPost2010Prop47
 90
       50
102
RTVSPost2010PropOp47
 70
     1
102
RTVSPost2010Prop48
 90
       50
102
RTVSPost2010PropOp48
 70
     1
102
RTVSPost2010Prop49
280
     0
102
RTVSPost2010PropOp49
 70
     1
102
RTVSPost2010Prop50
 90
       50
102
RTVSPost2010PropOp50
 70
     1
102
RTVSPost2010Prop51ColorIndex
 90
      256
102
RTVSPost2010Prop51ColorRGB
 90
-16777216
102
RTVSPost2010PropOp51
 70
     0
102
RTVSPost2010Prop52
140
1.0
102
RTVSPost2010PropOp52
 70
     0
102
RTVSPost2010Prop53
 90
        2
102
RTVSPost2010PropOp53
 70
     1
102
RTVSPost2010Prop54
  1
strokes_ogs.tif
102
RTVSPost2010PropOp54
 70
     1
102
RTVSPost2010Prop55
280
     0
102
RTVSPost2010PropOp55
 70
     1
102
RTVSPost2010Prop56
140
1.0
102
RTVSPost2010PropOp56
 70
     1
102
RTVSPost2010Prop57
140
1.0
102
RTVSPost2010PropOp57
 70
     1
  0
XRECORD
  5
591E
102
{ACAD_REACTORS
330
591D
102
}
330
591D
100
AcDbXrecord
280
     1
102
RTVSPropertyOp0
 70
     1
102
RTVSPropertyOp1
 70
     1
102
RTVSPropertyOp2
 70
     1
102
RTVSPropertyOp3
 70
     1
102
RTVSPropertyOp4
 70
     1
102
RTVSPropertyOp5
 70
     1
102
RTVSPropertyOp6
 70
     1
102
RTVSPropertyOp7
 70
     1
102
RTVSPropertyOp8
 70
     1
102
RTVSPropertyOp9
 70
     1
102
RTVSPropertyOp10
 70
     1
102
RTVSPropertyOp11
 70
     1
102
RTVSPropertyOp12
 70
     1
102
RTVSPropertyOp13
 70
     1
102
RTVSPropertyOp14
 70
     1
102
RTVSPropertyOp15
 70
     1
102
RTVSPropertyOp16
 70
     1
102
RTVSPropertyOp17
 70
     1
102
RTVSPropertyOp18
 70
     1
102
RTVSPropertyOp19
 70
     1
102
RTVSPropertyOp20
 70
     1
102
RTVSPropertyOp21
 70
     1
102
RTVSPropertyOp22
 70
     1
102
RTVSPropertyOp23
 70
     1
102
RTVSPropertyOp24
 70
     1
102
RTVSPropertyOp25
 70
     1
102
RTVSPropertyOp26
 70
     1
102
RTVSPropertyOp27
 70
     1
102
RTVSPropertyOp28
 70
     1
102
RTVSPropertyOp29
 70
     1
102
RTVSPropertyOp30
 70
     1
102
RTVSPropertyOp31
 70
     1
102
RTVSPropertyOp32
 70
     1
102
RTVSPropertyOp33
 70
     1
102
RTVSPropertyOp34
 70
     1
102
RTVSPropertyOp35
 70
     1
102
RTVSPropertyOp36
 70
     1
102
RTVSPropertyOp37
 70
     1
102
RTVSPropertyOp38
 70
     1
102
RTVSPropertyOp39
 70
     1
102
RTVSPropertyOp40
 70
     1
102
RTVSPropertyOp41
 70
     1
102
RTVSPropertyOp42
 70
     1
102
RTVSPropertyOp43
 70
     1
102
RTVSPropertyOp44
 70
     1
102
RTVSPropertyOp45
 70
     1
102
RTVSPropertyOp46
 70
     1
102
RTVSPropertyOp47
 70
     1
102
RTVSPropertyOp48
 70
     1
102
RTVSPropertyOp49
 70
     1
102
RTVSPropertyOp50
 70
     1
102
RTVSPropertyOp51
 70
     0
102
RTVSPropertyOp52
 70
     0
102
RTVSPropertyOp53
 70
     1
102
RTVSPropertyOp54
 70
     1
102
RTVSPropertyOp55
 70
     1
102
RTVSPropertyOp56
 70
     1
102
RTVSPropertyOp57
 70
     1
102
RTVSPost2010Prop28
280
     0
102
RTVSPost2010PropOp28
 70
     1
102
RTVSPost2010Prop29
280
     1
102
RTVSPost2010PropOp29
 70
     1
102
RTVSPost2010Prop30
280
     1
102
RTVSPost2010PropOp30
 70
     1
102
RTVSPost2010Prop31
280
     0
102
RTVSPost2010PropOp31
 70
     1
102
RTVSPost2010Prop32
280
     0
102
RTVSPost2010PropOp32
 70
     1
102
RTVSPost2010Prop33
280
     0
102
RTVSPost2010PropOp33
 70
     1
102
RTVSPost2010Prop34
280
     0
102
RTVSPost2010PropOp34
 70
     1
102
RTVSPost2010Prop35
280
     0
102
RTVSPost2010PropOp35
 70
     1
102
RTVSPost2010Prop36
280
     0
102
RTVSPost2010PropOp36
 70
     1
102
RTVSPost2010Prop37
 90
       50
102
RTVSPost2010PropOp37
 70
     1
102
RTVSPost2010Prop38
140
0.0
102
RTVSPost2010PropOp38
 70
     1
102
RTVSPost2010Prop39
140
1.0
102
RTVSPost2010PropOp39
 70
     1
102
RTVSPost2010Prop40
 90
        0
102
RTVSPost2010PropOp40
 70
     1
102
RTVSPost2010Prop41ColorIndex
 90
       18
102
RTVSPost2010Prop41ColorRGB
 90
        0
102
RTVSPost2010PropOp41
 70
     1
102
RTVSPost2010Prop42
 90
       50
102
RTVSPost2010PropOp42
 70
     1
102
RTVSPost2010Prop43
 90
        3
102
RTVSPost2010PropOp43
 70
     1
102
RTVSPost2010Prop44ColorIndex
 90
        5
102
RTVSPost2010Prop44ColorRGB
 90
      255
102
RTVSPost2010PropOp44
 70
     1
102
RTVSPost2010Prop45
280
     0
102
RTVSPost2010PropOp45
 70
     1
102
RTVSPost2010Prop46
 90
       50
102
RTVSPost2010PropOp46
 70
     1
102
RTVSPost2010Prop47
 90
       50
102
RTVSPost2010PropOp47
 70
     1
102
RTVSPost2010Prop48
 90
       50
102
RTVSPost2010PropOp48
 70
     1
102
RTVSPost2010Prop49
280
     0
102
RTVSPost2010PropOp49
 70
     1
102
RTVSPost2010Prop50
 90
       50
102
RTVSPost2010PropOp50
 70
     1
102
RTVSPost2010Prop51ColorIndex
 90
      256
102
RTVSPost2010Prop51ColorRGB
 90
-16777216
102
RTVSPost2010PropOp51
 70
     0
102
RTVSPost2010Prop52
140
1.0
102
RTVSPost2010PropOp52
 70
     0
102
RTVSPost2010Prop53
 90
        2
102
RTVSPost2010PropOp53
 70
     1
102
RTVSPost2010Prop54
  1
strokes_ogs.tif
102
RTVSPost2010PropOp54
 70
     1
102
RTVSPost2010Prop55
280
     0
102
RTVSPost2010PropOp55
 70
     1
102
RTVSPost2010Prop56
140
1.0
102
RTVSPost2010PropOp56
 70
     1
102
RTVSPost2010Prop57
140
1.0
102
RTVSPost2010PropOp57
 70
     1
  0
XRECORD
  5
5912
102
{ACAD_REACTORS
330
5911
102
}
330
5911
100
AcDbXrecord
280
     1
102
RTVSPropertyOp0
 70
     0
102
RTVSPropertyOp1
 70
     0
102
RTVSPropertyOp2
 70
     0
102
RTVSPropertyOp3
 70
     0
102
RTVSPropertyOp4
 70
     0
102
RTVSPropertyOp5
 70
     0
102
RTVSPropertyOp6
 70
     0
102
RTVSPropertyOp7
 70
     0
102
RTVSPropertyOp8
 70
     0
102
RTVSPropertyOp9
 70
     0
102
RTVSPropertyOp10
 70
     0
102
RTVSPropertyOp11
 70
     0
102
RTVSPropertyOp12
 70
     0
102
RTVSPropertyOp13
 70
     0
102
RTVSPropertyOp14
 70
     2
102
RTVSPropertyOp15
 70
     0
102
RTVSPropertyOp16
 70
     0
102
RTVSPropertyOp17
 70
     0
102
RTVSPropertyOp18
 70
     0
102
RTVSPropertyOp19
 70
     0
102
RTVSPropertyOp20
 70
     0
102
RTVSPropertyOp21
 70
     0
102
RTVSPropertyOp22
 70
     0
102
RTVSPropertyOp23
 70
     0
102
RTVSPropertyOp24
 70
     0
102
RTVSPropertyOp25
 70
     0
102
RTVSPropertyOp26
 70
     0
102
RTVSPropertyOp27
 70
     0
102
RTVSPropertyOp28
 70
     1
102
RTVSPropertyOp29
 70
     1
102
RTVSPropertyOp30
 70
     1
102
RTVSPropertyOp31
 70
     1
102
RTVSPropertyOp32
 70
     1
102
RTVSPropertyOp33
 70
     1
102
RTVSPropertyOp34
 70
     1
102
RTVSPropertyOp35
 70
     1
102
RTVSPropertyOp36
 70
     1
102
RTVSPropertyOp37
 70
     1
102
RTVSPropertyOp38
 70
     1
102
RTVSPropertyOp39
 70
     1
102
RTVSPropertyOp40
 70
     1
102
RTVSPropertyOp41
 70
     1
102
RTVSPropertyOp42
 70
     1
102
RTVSPropertyOp43
 70
     1
102
RTVSPropertyOp44
 70
     1
102
RTVSPropertyOp45
 70
     1
102
RTVSPropertyOp46
 70
     1
102
RTVSPropertyOp47
 70
     1
102
RTVSPropertyOp48
 70
     1
102
RTVSPropertyOp49
 70
     1
102
RTVSPropertyOp50
 70
     1
102
RTVSPropertyOp51
 70
     0
102
RTVSPropertyOp52
 70
     0
102
RTVSPropertyOp53
 70
     1
102
RTVSPropertyOp54
 70
     1
102
RTVSPropertyOp55
 70
     1
102
RTVSPropertyOp56
 70
     1
102
RTVSPropertyOp57
 70
     1
102
RTVSPost2010Prop28
280
     0
102
RTVSPost2010PropOp28
 70
     1
102
RTVSPost2010Prop29
280
     1
102
RTVSPost2010PropOp29
 70
     1
102
RTVSPost2010Prop30
280
     1
102
RTVSPost2010PropOp30
 70
     1
102
RTVSPost2010Prop31
280
     0
102
RTVSPost2010PropOp31
 70
     1
102
RTVSPost2010Prop32
280
     0
102
RTVSPost2010PropOp32
 70
     1
102
RTVSPost2010Prop33
280
     0
102
RTVSPost2010PropOp33
 70
     1
102
RTVSPost2010Prop34
280
     0
102
RTVSPost2010PropOp34
 70
     1
102
RTVSPost2010Prop35
280
     0
102
RTVSPost2010PropOp35
 70
     1
102
RTVSPost2010Prop36
280
     0
102
RTVSPost2010PropOp36
 70
     1
102
RTVSPost2010Prop37
 90
       50
102
RTVSPost2010PropOp37
 70
     1
102
RTVSPost2010Prop38
140
0.0
102
RTVSPost2010PropOp38
 70
     1
102
RTVSPost2010Prop39
140
1.0
102
RTVSPost2010PropOp39
 70
     1
102
RTVSPost2010Prop40
 90
        0
102
RTVSPost2010PropOp40
 70
     1
102
RTVSPost2010Prop41ColorIndex
 90
       18
102
RTVSPost2010Prop41ColorRGB
 90
        0
102
RTVSPost2010PropOp41
 70
     1
102
RTVSPost2010Prop42
 90
       50
102
RTVSPost2010PropOp42
 70
     1
102
RTVSPost2010Prop43
 90
        3
102
RTVSPost2010PropOp43
 70
     1
102
RTVSPost2010Prop44ColorIndex
 90
        5
102
RTVSPost2010Prop44ColorRGB
 90
      255
102
RTVSPost2010PropOp44
 70
     1
102
RTVSPost2010Prop45
280
     0
102
RTVSPost2010PropOp45
 70
     1
102
RTVSPost2010Prop46
 90
       50
102
RTVSPost2010PropOp46
 70
     1
102
RTVSPost2010Prop47
 90
       50
102
RTVSPost2010PropOp47
 70
     1
102
RTVSPost2010Prop48
 90
       50
102
RTVSPost2010PropOp48
 70
     1
102
RTVSPost2010Prop49
280
     0
102
RTVSPost2010PropOp49
 70
     1
102
RTVSPost2010Prop50
 90
       50
102
RTVSPost2010PropOp50
 70
     1
102
RTVSPost2010Prop51ColorIndex
 90
      256
102
RTVSPost2010Prop51ColorRGB
 90
-16777216
102
RTVSPost2010PropOp51
 70
     0
102
RTVSPost2010Prop52
140
1.0
102
RTVSPost2010PropOp52
 70
     0
102
RTVSPost2010Prop53
 90
        2
102
RTVSPost2010PropOp53
 70
     1
102
RTVSPost2010Prop54
  1
strokes_ogs.tif
102
RTVSPost2010PropOp54
 70
     1
102
RTVSPost2010Prop55
280
     0
102
RTVSPost2010PropOp55
 70
     1
102
RTVSPost2010Prop56
140
1.0
102
RTVSPost2010PropOp56
 70
     1
102
RTVSPost2010Prop57
140
1.0
102
RTVSPost2010PropOp57
 70
     1
  0
XRECORD
  5
5914
102
{ACAD_REACTORS
330
5913
102
}
330
5913
100
AcDbXrecord
280
     1
102
RTVSPropertyOp0
 70
     1
102
RTVSPropertyOp1
 70
     1
102
RTVSPropertyOp2
 70
     1
102
RTVSPropertyOp3
 70
     1
102
RTVSPropertyOp4
 70
     1
102
RTVSPropertyOp5
 70
     1
102
RTVSPropertyOp6
 70
     1
102
RTVSPropertyOp7
 70
     1
102
RTVSPropertyOp8
 70
     1
102
RTVSPropertyOp9
 70
     1
102
RTVSPropertyOp10
 70
     1
102
RTVSPropertyOp11
 70
     1
102
RTVSPropertyOp12
 70
     1
102
RTVSPropertyOp13
 70
     1
102
RTVSPropertyOp14
 70
     1
102
RTVSPropertyOp15
 70
     1
102
RTVSPropertyOp16
 70
     1
102
RTVSPropertyOp17
 70
     1
102
RTVSPropertyOp18
 70
     1
102
RTVSPropertyOp19
 70
     1
102
RTVSPropertyOp20
 70
     1
102
RTVSPropertyOp21
 70
     1
102
RTVSPropertyOp22
 70
     1
102
RTVSPropertyOp23
 70
     1
102
RTVSPropertyOp24
 70
     1
102
RTVSPropertyOp25
 70
     1
102
RTVSPropertyOp26
 70
     1
102
RTVSPropertyOp27
 70
     1
102
RTVSPropertyOp28
 70
     1
102
RTVSPropertyOp29
 70
     1
102
RTVSPropertyOp30
 70
     1
102
RTVSPropertyOp31
 70
     1
102
RTVSPropertyOp32
 70
     1
102
RTVSPropertyOp33
 70
     1
102
RTVSPropertyOp34
 70
     1
102
RTVSPropertyOp35
 70
     1
102
RTVSPropertyOp36
 70
     1
102
RTVSPropertyOp37
 70
     1
102
RTVSPropertyOp38
 70
     1
102
RTVSPropertyOp39
 70
     1
102
RTVSPropertyOp40
 70
     1
102
RTVSPropertyOp41
 70
     1
102
RTVSPropertyOp42
 70
     1
102
RTVSPropertyOp43
 70
     1
102
RTVSPropertyOp44
 70
     1
102
RTVSPropertyOp45
 70
     1
102
RTVSPropertyOp46
 70
     1
102
RTVSPropertyOp47
 70
     1
102
RTVSPropertyOp48
 70
     1
102
RTVSPropertyOp49
 70
     1
102
RTVSPropertyOp50
 70
     1
102
RTVSPropertyOp51
 70
     0
102
RTVSPropertyOp52
 70
     0
102
RTVSPropertyOp53
 70
     1
102
RTVSPropertyOp54
 70
     1
102
RTVSPropertyOp55
 70
     1
102
RTVSPropertyOp56
 70
     1
102
RTVSPropertyOp57
 70
     1
102
RTVSPost2010Prop28
280
     0
102
RTVSPost2010PropOp28
 70
     1
102
RTVSPost2010Prop29
280
     1
102
RTVSPost2010PropOp29
 70
     1
102
RTVSPost2010Prop30
280
     1
102
RTVSPost2010PropOp30
 70
     1
102
RTVSPost2010Prop31
280
     0
102
RTVSPost2010PropOp31
 70
     1
102
RTVSPost2010Prop32
280
     0
102
RTVSPost2010PropOp32
 70
     1
102
RTVSPost2010Prop33
280
     0
102
RTVSPost2010PropOp33
 70
     1
102
RTVSPost2010Prop34
280
     0
102
RTVSPost2010PropOp34
 70
     1
102
RTVSPost2010Prop35
280
     0
102
RTVSPost2010PropOp35
 70
     1
102
RTVSPost2010Prop36
280
     0
102
RTVSPost2010PropOp36
 70
     1
102
RTVSPost2010Prop37
 90
       50
102
RTVSPost2010PropOp37
 70
     1
102
RTVSPost2010Prop38
140
0.0
102
RTVSPost2010PropOp38
 70
     1
102
RTVSPost2010Prop39
140
1.0
102
RTVSPost2010PropOp39
 70
     1
102
RTVSPost2010Prop40
 90
        0
102
RTVSPost2010PropOp40
 70
     1
102
RTVSPost2010Prop41ColorIndex
 90
       18
102
RTVSPost2010Prop41ColorRGB
 90
        0
102
RTVSPost2010PropOp41
 70
     1
102
RTVSPost2010Prop42
 90
       50
102
RTVSPost2010PropOp42
 70
     1
102
RTVSPost2010Prop43
 90
        3
102
RTVSPost2010PropOp43
 70
     1
102
RTVSPost2010Prop44ColorIndex
 90
        5
102
RTVSPost2010Prop44ColorRGB
 90
      255
102
RTVSPost2010PropOp44
 70
     1
102
RTVSPost2010Prop45
280
     0
102
RTVSPost2010PropOp45
 70
     1
102
RTVSPost2010Prop46
 90
       50
102
RTVSPost2010PropOp46
 70
     1
102
RTVSPost2010Prop47
 90
       50
102
RTVSPost2010PropOp47
 70
     1
102
RTVSPost2010Prop48
 90
       50
102
RTVSPost2010PropOp48
 70
     1
102
RTVSPost2010Prop49
280
     0
102
RTVSPost2010PropOp49
 70
     1
102
RTVSPost2010Prop50
 90
       50
102
RTVSPost2010PropOp50
 70
     1
102
RTVSPost2010Prop51ColorIndex
 90
      256
102
RTVSPost2010Prop51ColorRGB
 90
-16777216
102
RTVSPost2010PropOp51
 70
     0
102
RTVSPost2010Prop52
140
1.0
102
RTVSPost2010PropOp52
 70
     0
102
RTVSPost2010Prop53
 90
        2
102
RTVSPost2010PropOp53
 70
     1
102
RTVSPost2010Prop54
  1
strokes_ogs.tif
102
RTVSPost2010PropOp54
 70
     1
102
RTVSPost2010Prop55
280
     0
102
RTVSPost2010PropOp55
 70
     1
102
RTVSPost2010Prop56
140
1.0
102
RTVSPost2010PropOp56
 70
     1
102
RTVSPost2010Prop57
140
1.0
102
RTVSPost2010PropOp57
 70
     1
  0
XRECORD
  5
5916
102
{ACAD_REACTORS
330
5915
102
}
330
5915
100
AcDbXrecord
280
     1
102
RTVSPropertyOp0
 70
     0
102
RTVSPropertyOp1
 70
     0
102
RTVSPropertyOp2
 70
     0
102
RTVSPropertyOp3
 70
     0
102
RTVSPropertyOp4
 70
     0
102
RTVSPropertyOp5
 70
     0
102
RTVSPropertyOp6
 70
     0
102
RTVSPropertyOp7
 70
     0
102
RTVSPropertyOp8
 70
     0
102
RTVSPropertyOp9
 70
     0
102
RTVSPropertyOp10
 70
     0
102
RTVSPropertyOp11
 70
     0
102
RTVSPropertyOp12
 70
     0
102
RTVSPropertyOp13
 70
     0
102
RTVSPropertyOp14
 70
     2
102
RTVSPropertyOp15
 70
     0
102
RTVSPropertyOp16
 70
     0
102
RTVSPropertyOp17
 70
     0
102
RTVSPropertyOp18
 70
     0
102
RTVSPropertyOp19
 70
     0
102
RTVSPropertyOp20
 70
     0
102
RTVSPropertyOp21
 70
     0
102
RTVSPropertyOp22
 70
     0
102
RTVSPropertyOp23
 70
     0
102
RTVSPropertyOp24
 70
     0
102
RTVSPropertyOp25
 70
     0
102
RTVSPropertyOp26
 70
     0
102
RTVSPropertyOp27
 70
     0
102
RTVSPropertyOp28
 70
     1
102
RTVSPropertyOp29
 70
     1
102
RTVSPropertyOp30
 70
     1
102
RTVSPropertyOp31
 70
     1
102
RTVSPropertyOp32
 70
     1
102
RTVSPropertyOp33
 70
     1
102
RTVSPropertyOp34
 70
     1
102
RTVSPropertyOp35
 70
     1
102
RTVSPropertyOp36
 70
     1
102
RTVSPropertyOp37
 70
     1
102
RTVSPropertyOp38
 70
     1
102
RTVSPropertyOp39
 70
     1
102
RTVSPropertyOp40
 70
     1
102
RTVSPropertyOp41
 70
     1
102
RTVSPropertyOp42
 70
     1
102
RTVSPropertyOp43
 70
     1
102
RTVSPropertyOp44
 70
     1
102
RTVSPropertyOp45
 70
     1
102
RTVSPropertyOp46
 70
     1
102
RTVSPropertyOp47
 70
     1
102
RTVSPropertyOp48
 70
     1
102
RTVSPropertyOp49
 70
     1
102
RTVSPropertyOp50
 70
     1
102
RTVSPropertyOp51
 70
     0
102
RTVSPropertyOp52
 70
     0
102
RTVSPropertyOp53
 70
     1
102
RTVSPropertyOp54
 70
     1
102
RTVSPropertyOp55
 70
     1
102
RTVSPropertyOp56
 70
     1
102
RTVSPropertyOp57
 70
     1
102
RTVSPost2010Prop28
280
     0
102
RTVSPost2010PropOp28
 70
     1
102
RTVSPost2010Prop29
280
     1
102
RTVSPost2010PropOp29
 70
     1
102
RTVSPost2010Prop30
280
     1
102
RTVSPost2010PropOp30
 70
     1
102
RTVSPost2010Prop31
280
     0
102
RTVSPost2010PropOp31
 70
     1
102
RTVSPost2010Prop32
280
     0
102
RTVSPost2010PropOp32
 70
     1
102
RTVSPost2010Prop33
280
     0
102
RTVSPost2010PropOp33
 70
     1
102
RTVSPost2010Prop34
280
     0
102
RTVSPost2010PropOp34
 70
     1
102
RTVSPost2010Prop35
280
     0
102
RTVSPost2010PropOp35
 70
     1
102
RTVSPost2010Prop36
280
     0
102
RTVSPost2010PropOp36
 70
     1
102
RTVSPost2010Prop37
 90
       50
102
RTVSPost2010PropOp37
 70
     1
102
RTVSPost2010Prop38
140
0.0
102
RTVSPost2010PropOp38
 70
     1
102
RTVSPost2010Prop39
140
1.0
102
RTVSPost2010PropOp39
 70
     1
102
RTVSPost2010Prop40
 90
        0
102
RTVSPost2010PropOp40
 70
     1
102
RTVSPost2010Prop41ColorIndex
 90
       18
102
RTVSPost2010Prop41ColorRGB
 90
        0
102
RTVSPost2010PropOp41
 70
     1
102
RTVSPost2010Prop42
 90
       50
102
RTVSPost2010PropOp42
 70
     1
102
RTVSPost2010Prop43
 90
        3
102
RTVSPost2010PropOp43
 70
     1
102
RTVSPost2010Prop44ColorIndex
 90
        5
102
RTVSPost2010Prop44ColorRGB
 90
      255
102
RTVSPost2010PropOp44
 70
     1
102
RTVSPost2010Prop45
280
     0
102
RTVSPost2010PropOp45
 70
     1
102
RTVSPost2010Prop46
 90
       50
102
RTVSPost2010PropOp46
 70
     1
102
RTVSPost2010Prop47
 90
       50
102
RTVSPost2010PropOp47
 70
     1
102
RTVSPost2010Prop48
 90
       50
102
RTVSPost2010PropOp48
 70
     1
102
RTVSPost2010Prop49
280
     0
102
RTVSPost2010PropOp49
 70
     1
102
RTVSPost2010Prop50
 90
       50
102
RTVSPost2010PropOp50
 70
     1
102
RTVSPost2010Prop51ColorIndex
 90
      256
102
RTVSPost2010Prop51ColorRGB
 90
-16777216
102
RTVSPost2010PropOp51
 70
     0
102
RTVSPost2010Prop52
140
1.0
102
RTVSPost2010PropOp52
 70
     0
102
RTVSPost2010Prop53
 90
        2
102
RTVSPost2010PropOp53
 70
     1
102
RTVSPost2010Prop54
  1
strokes_ogs.tif
102
RTVSPost2010PropOp54
 70
     1
102
RTVSPost2010Prop55
280
     0
102
RTVSPost2010PropOp55
 70
     1
102
RTVSPost2010Prop56
140
1.0
102
RTVSPost2010PropOp56
 70
     1
102
RTVSPost2010Prop57
140
1.0
102
RTVSPost2010PropOp57
 70
     1
  0
XRECORD
  5
5918
102
{ACAD_REACTORS
330
5917
102
}
330
5917
100
AcDbXrecord
280
     1
102
RTVSPropertyOp0
 70
     1
102
RTVSPropertyOp1
 70
     1
102
RTVSPropertyOp2
 70
     1
102
RTVSPropertyOp3
 70
     1
102
RTVSPropertyOp4
 70
     1
102
RTVSPropertyOp5
 70
     1
102
RTVSPropertyOp6
 70
     1
102
RTVSPropertyOp7
 70
     1
102
RTVSPropertyOp8
 70
     1
102
RTVSPropertyOp9
 70
     1
102
RTVSPropertyOp10
 70
     1
102
RTVSPropertyOp11
 70
     1
102
RTVSPropertyOp12
 70
     1
102
RTVSPropertyOp13
 70
     1
102
RTVSPropertyOp14
 70
     1
102
RTVSPropertyOp15
 70
     1
102
RTVSPropertyOp16
 70
     1
102
RTVSPropertyOp17
 70
     1
102
RTVSPropertyOp18
 70
     1
102
RTVSPropertyOp19
 70
     1
102
RTVSPropertyOp20
 70
     1
102
RTVSPropertyOp21
 70
     1
102
RTVSPropertyOp22
 70
     1
102
RTVSPropertyOp23
 70
     1
102
RTVSPropertyOp24
 70
     1
102
RTVSPropertyOp25
 70
     1
102
RTVSPropertyOp26
 70
     1
102
RTVSPropertyOp27
 70
     1
102
RTVSPropertyOp28
 70
     1
102
RTVSPropertyOp29
 70
     1
102
RTVSPropertyOp30
 70
     1
102
RTVSPropertyOp31
 70
     1
102
RTVSPropertyOp32
 70
     1
102
RTVSPropertyOp33
 70
     1
102
RTVSPropertyOp34
 70
     1
102
RTVSPropertyOp35
 70
     1
102
RTVSPropertyOp36
 70
     1
102
RTVSPropertyOp37
 70
     1
102
RTVSPropertyOp38
 70
     1
102
RTVSPropertyOp39
 70
     1
102
RTVSPropertyOp40
 70
     1
102
RTVSPropertyOp41
 70
     1
102
RTVSPropertyOp42
 70
     1
102
RTVSPropertyOp43
 70
     1
102
RTVSPropertyOp44
 70
     1
102
RTVSPropertyOp45
 70
     1
102
RTVSPropertyOp46
 70
     1
102
RTVSPropertyOp47
 70
     1
102
RTVSPropertyOp48
 70
     1
102
RTVSPropertyOp49
 70
     1
102
RTVSPropertyOp50
 70
     1
102
RTVSPropertyOp51
 70
     0
102
RTVSPropertyOp52
 70
     0
102
RTVSPropertyOp53
 70
     1
102
RTVSPropertyOp54
 70
     1
102
RTVSPropertyOp55
 70
     1
102
RTVSPropertyOp56
 70
     1
102
RTVSPropertyOp57
 70
     1
102
RTVSPost2010Prop28
280
     0
102
RTVSPost2010PropOp28
 70
     1
102
RTVSPost2010Prop29
280
     1
102
RTVSPost2010PropOp29
 70
     1
102
RTVSPost2010Prop30
280
     1
102
RTVSPost2010PropOp30
 70
     1
102
RTVSPost2010Prop31
280
     0
102
RTVSPost2010PropOp31
 70
     1
102
RTVSPost2010Prop32
280
     0
102
RTVSPost2010PropOp32
 70
     1
102
RTVSPost2010Prop33
280
     0
102
RTVSPost2010PropOp33
 70
     1
102
RTVSPost2010Prop34
280
     0
102
RTVSPost2010PropOp34
 70
     1
102
RTVSPost2010Prop35
280
     0
102
RTVSPost2010PropOp35
 70
     1
102
RTVSPost2010Prop36
280
     0
102
RTVSPost2010PropOp36
 70
     1
102
RTVSPost2010Prop37
 90
       50
102
RTVSPost2010PropOp37
 70
     1
102
RTVSPost2010Prop38
140
0.0
102
RTVSPost2010PropOp38
 70
     1
102
RTVSPost2010Prop39
140
1.0
102
RTVSPost2010PropOp39
 70
     1
102
RTVSPost2010Prop40
 90
        0
102
RTVSPost2010PropOp40
 70
     1
102
RTVSPost2010Prop41ColorIndex
 90
       18
102
RTVSPost2010Prop41ColorRGB
 90
        0
102
RTVSPost2010PropOp41
 70
     1
102
RTVSPost2010Prop42
 90
       50
102
RTVSPost2010PropOp42
 70
     1
102
RTVSPost2010Prop43
 90
        3
102
RTVSPost2010PropOp43
 70
     1
102
RTVSPost2010Prop44ColorIndex
 90
        5
102
RTVSPost2010Prop44ColorRGB
 90
      255
102
RTVSPost2010PropOp44
 70
     1
102
RTVSPost2010Prop45
280
     0
102
RTVSPost2010PropOp45
 70
     1
102
RTVSPost2010Prop46
 90
       50
102
RTVSPost2010PropOp46
 70
     1
102
RTVSPost2010Prop47
 90
       50
102
RTVSPost2010PropOp47
 70
     1
102
RTVSPost2010Prop48
 90
       50
102
RTVSPost2010PropOp48
 70
     1
102
RTVSPost2010Prop49
280
     0
102
RTVSPost2010PropOp49
 70
     1
102
RTVSPost2010Prop50
 90
       50
102
RTVSPost2010PropOp50
 70
     1
102
RTVSPost2010Prop51ColorIndex
 90
      256
102
RTVSPost2010Prop51ColorRGB
 90
-16777216
102
RTVSPost2010PropOp51
 70
     0
102
RTVSPost2010Prop52
140
1.0
102
RTVSPost2010PropOp52
 70
     0
102
RTVSPost2010Prop53
 90
        2
102
RTVSPost2010PropOp53
 70
     1
102
RTVSPost2010Prop54
  1
strokes_ogs.tif
102
RTVSPost2010PropOp54
 70
     1
102
RTVSPost2010Prop55
280
     0
102
RTVSPost2010PropOp55
 70
     1
102
RTVSPost2010Prop56
140
1.0
102
RTVSPost2010PropOp56
 70
     1
102
RTVSPost2010Prop57
140
1.0
102
RTVSPost2010PropOp57
 70
     1
  0
XRECORD
  5
5928
102
{ACAD_REACTORS
330
5927
102
}
330
5927
100
AcDbXrecord
280
     1
102
RTVSPropertyOp0
 70
     1
102
RTVSPropertyOp1
 70
     1
102
RTVSPropertyOp2
 70
     1
102
RTVSPropertyOp3
 70
     1
102
RTVSPropertyOp4
 70
     1
102
RTVSPropertyOp5
 70
     1
102
RTVSPropertyOp6
 70
     1
102
RTVSPropertyOp7
 70
     1
102
RTVSPropertyOp8
 70
     1
102
RTVSPropertyOp9
 70
     1
102
RTVSPropertyOp10
 70
     1
102
RTVSPropertyOp11
 70
     1
102
RTVSPropertyOp12
 70
     1
102
RTVSPropertyOp13
 70
     1
102
RTVSPropertyOp14
 70
     1
102
RTVSPropertyOp15
 70
     1
102
RTVSPropertyOp16
 70
     1
102
RTVSPropertyOp17
 70
     1
102
RTVSPropertyOp18
 70
     1
102
RTVSPropertyOp19
 70
     1
102
RTVSPropertyOp20
 70
     1
102
RTVSPropertyOp21
 70
     1
102
RTVSPropertyOp22
 70
     1
102
RTVSPropertyOp23
 70
     1
102
RTVSPropertyOp24
 70
     1
102
RTVSPropertyOp25
 70
     1
102
RTVSPropertyOp26
 70
     1
102
RTVSPropertyOp27
 70
     1
102
RTVSPropertyOp28
 70
     1
102
RTVSPropertyOp29
 70
     1
102
RTVSPropertyOp30
 70
     1
102
RTVSPropertyOp31
 70
     1
102
RTVSPropertyOp32
 70
     1
102
RTVSPropertyOp33
 70
     1
102
RTVSPropertyOp34
 70
     1
102
RTVSPropertyOp35
 70
     1
102
RTVSPropertyOp36
 70
     1
102
RTVSPropertyOp37
 70
     1
102
RTVSPropertyOp38
 70
     1
102
RTVSPropertyOp39
 70
     1
102
RTVSPropertyOp40
 70
     1
102
RTVSPropertyOp41
 70
     1
102
RTVSPropertyOp42
 70
     1
102
RTVSPropertyOp43
 70
     1
102
RTVSPropertyOp44
 70
     1
102
RTVSPropertyOp45
 70
     1
102
RTVSPropertyOp46
 70
     1
102
RTVSPropertyOp47
 70
     1
102
RTVSPropertyOp48
 70
     1
102
RTVSPropertyOp49
 70
     1
102
RTVSPropertyOp50
 70
     1
102
RTVSPropertyOp51
 70
     0
102
RTVSPropertyOp52
 70
     0
102
RTVSPropertyOp53
 70
     1
102
RTVSPropertyOp54
 70
     1
102
RTVSPropertyOp55
 70
     1
102
RTVSPropertyOp56
 70
     1
102
RTVSPropertyOp57
 70
     1
102
RTVSPost2010Prop28
280
     0
102
RTVSPost2010PropOp28
 70
     1
102
RTVSPost2010Prop29
280
     1
102
RTVSPost2010PropOp29
 70
     1
102
RTVSPost2010Prop30
280
     1
102
RTVSPost2010PropOp30
 70
     1
102
RTVSPost2010Prop31
280
     0
102
RTVSPost2010PropOp31
 70
     1
102
RTVSPost2010Prop32
280
     0
102
RTVSPost2010PropOp32
 70
     1
102
RTVSPost2010Prop33
280
     0
102
RTVSPost2010PropOp33
 70
     1
102
RTVSPost2010Prop34
280
     0
102
RTVSPost2010PropOp34
 70
     1
102
RTVSPost2010Prop35
280
     0
102
RTVSPost2010PropOp35
 70
     1
102
RTVSPost2010Prop36
280
     0
102
RTVSPost2010PropOp36
 70
     1
102
RTVSPost2010Prop37
 90
       50
102
RTVSPost2010PropOp37
 70
     1
102
RTVSPost2010Prop38
140
0.0
102
RTVSPost2010PropOp38
 70
     1
102
RTVSPost2010Prop39
140
1.0
102
RTVSPost2010PropOp39
 70
     1
102
RTVSPost2010Prop40
 90
        0
102
RTVSPost2010PropOp40
 70
     1
102
RTVSPost2010Prop41ColorIndex
 90
       18
102
RTVSPost2010Prop41ColorRGB
 90
        0
102
RTVSPost2010PropOp41
 70
     1
102
RTVSPost2010Prop42
 90
       50
102
RTVSPost2010PropOp42
 70
     1
102
RTVSPost2010Prop43
 90
        3
102
RTVSPost2010PropOp43
 70
     1
102
RTVSPost2010Prop44ColorIndex
 90
        5
102
RTVSPost2010Prop44ColorRGB
 90
      255
102
RTVSPost2010PropOp44
 70
     1
102
RTVSPost2010Prop45
280
     0
102
RTVSPost2010PropOp45
 70
     1
102
RTVSPost2010Prop46
 90
       50
102
RTVSPost2010PropOp46
 70
     1
102
RTVSPost2010Prop47
 90
       50
102
RTVSPost2010PropOp47
 70
     1
102
RTVSPost2010Prop48
 90
       50
102
RTVSPost2010PropOp48
 70
     1
102
RTVSPost2010Prop49
280
     0
102
RTVSPost2010PropOp49
 70
     1
102
RTVSPost2010Prop50
 90
       50
102
RTVSPost2010PropOp50
 70
     1
102
RTVSPost2010Prop51ColorIndex
 90
      256
102
RTVSPost2010Prop51ColorRGB
 90
-16777216
102
RTVSPost2010PropOp51
 70
     0
102
RTVSPost2010Prop52
140
1.0
102
RTVSPost2010PropOp52
 70
     0
102
RTVSPost2010Prop53
 90
        2
102
RTVSPost2010PropOp53
 70
     1
102
RTVSPost2010Prop54
  1
strokes_ogs.tif
102
RTVSPost2010PropOp54
 70
     1
102
RTVSPost2010Prop55
280
     0
102
RTVSPost2010PropOp55
 70
     1
102
RTVSPost2010Prop56
140
1.0
102
RTVSPost2010PropOp56
 70
     1
102
RTVSPost2010Prop57
140
1.0
102
RTVSPost2010PropOp57
 70
     1
  0
XRECORD
  5
5926
102
{ACAD_REACTORS
330
5925
102
}
330
5925
100
AcDbXrecord
280
     1
102
RTVSPropertyOp0
 70
     1
102
RTVSPropertyOp1
 70
     1
102
RTVSPropertyOp2
 70
     1
102
RTVSPropertyOp3
 70
     1
102
RTVSPropertyOp4
 70
     1
102
RTVSPropertyOp5
 70
     1
102
RTVSPropertyOp6
 70
     1
102
RTVSPropertyOp7
 70
     1
102
RTVSPropertyOp8
 70
     1
102
RTVSPropertyOp9
 70
     1
102
RTVSPropertyOp10
 70
     1
102
RTVSPropertyOp11
 70
     1
102
RTVSPropertyOp12
 70
     1
102
RTVSPropertyOp13
 70
     1
102
RTVSPropertyOp14
 70
     1
102
RTVSPropertyOp15
 70
     1
102
RTVSPropertyOp16
 70
     1
102
RTVSPropertyOp17
 70
     1
102
RTVSPropertyOp18
 70
     1
102
RTVSPropertyOp19
 70
     1
102
RTVSPropertyOp20
 70
     1
102
RTVSPropertyOp21
 70
     1
102
RTVSPropertyOp22
 70
     1
102
RTVSPropertyOp23
 70
     1
102
RTVSPropertyOp24
 70
     1
102
RTVSPropertyOp25
 70
     1
102
RTVSPropertyOp26
 70
     1
102
RTVSPropertyOp27
 70
     1
102
RTVSPropertyOp28
 70
     1
102
RTVSPropertyOp29
 70
     1
102
RTVSPropertyOp30
 70
     1
102
RTVSPropertyOp31
 70
     1
102
RTVSPropertyOp32
 70
     1
102
RTVSPropertyOp33
 70
     1
102
RTVSPropertyOp34
 70
     1
102
RTVSPropertyOp35
 70
     1
102
RTVSPropertyOp36
 70
     1
102
RTVSPropertyOp37
 70
     1
102
RTVSPropertyOp38
 70
     1
102
RTVSPropertyOp39
 70
     1
102
RTVSPropertyOp40
 70
     1
102
RTVSPropertyOp41
 70
     1
102
RTVSPropertyOp42
 70
     1
102
RTVSPropertyOp43
 70
     1
102
RTVSPropertyOp44
 70
     1
102
RTVSPropertyOp45
 70
     1
102
RTVSPropertyOp46
 70
     1
102
RTVSPropertyOp47
 70
     1
102
RTVSPropertyOp48
 70
     1
102
RTVSPropertyOp49
 70
     1
102
RTVSPropertyOp50
 70
     1
102
RTVSPropertyOp51
 70
     0
102
RTVSPropertyOp52
 70
     0
102
RTVSPropertyOp53
 70
     1
102
RTVSPropertyOp54
 70
     1
102
RTVSPropertyOp55
 70
     1
102
RTVSPropertyOp56
 70
     1
102
RTVSPropertyOp57
 70
     1
102
RTVSPost2010Prop28
280
     0
102
RTVSPost2010PropOp28
 70
     1
102
RTVSPost2010Prop29
280
     1
102
RTVSPost2010PropOp29
 70
     1
102
RTVSPost2010Prop30
280
     1
102
RTVSPost2010PropOp30
 70
     1
102
RTVSPost2010Prop31
280
     0
102
RTVSPost2010PropOp31
 70
     1
102
RTVSPost2010Prop32
280
     0
102
RTVSPost2010PropOp32
 70
     1
102
RTVSPost2010Prop33
280
     0
102
RTVSPost2010PropOp33
 70
     1
102
RTVSPost2010Prop34
280
     0
102
RTVSPost2010PropOp34
 70
     1
102
RTVSPost2010Prop35
280
     0
102
RTVSPost2010PropOp35
 70
     1
102
RTVSPost2010Prop36
280
     0
102
RTVSPost2010PropOp36
 70
     1
102
RTVSPost2010Prop37
 90
       50
102
RTVSPost2010PropOp37
 70
     1
102
RTVSPost2010Prop38
140
0.0
102
RTVSPost2010PropOp38
 70
     1
102
RTVSPost2010Prop39
140
1.0
102
RTVSPost2010PropOp39
 70
     1
102
RTVSPost2010Prop40
 90
        0
102
RTVSPost2010PropOp40
 70
     1
102
RTVSPost2010Prop41ColorIndex
 90
       18
102
RTVSPost2010Prop41ColorRGB
 90
        0
102
RTVSPost2010PropOp41
 70
     1
102
RTVSPost2010Prop42
 90
       50
102
RTVSPost2010PropOp42
 70
     1
102
RTVSPost2010Prop43
 90
        3
102
RTVSPost2010PropOp43
 70
     1
102
RTVSPost2010Prop44ColorIndex
 90
        5
102
RTVSPost2010Prop44ColorRGB
 90
      255
102
RTVSPost2010PropOp44
 70
     1
102
RTVSPost2010Prop45
280
     0
102
RTVSPost2010PropOp45
 70
     1
102
RTVSPost2010Prop46
 90
       50
102
RTVSPost2010PropOp46
 70
     1
102
RTVSPost2010Prop47
 90
       50
102
RTVSPost2010PropOp47
 70
     1
102
RTVSPost2010Prop48
 90
       50
102
RTVSPost2010PropOp48
 70
     1
102
RTVSPost2010Prop49
280
     0
102
RTVSPost2010PropOp49
 70
     1
102
RTVSPost2010Prop50
 90
       50
102
RTVSPost2010PropOp50
 70
     1
102
RTVSPost2010Prop51ColorIndex
 90
      256
102
RTVSPost2010Prop51ColorRGB
 90
-16777216
102
RTVSPost2010PropOp51
 70
     0
102
RTVSPost2010Prop52
140
1.0
102
RTVSPost2010PropOp52
 70
     0
102
RTVSPost2010Prop53
 90
        2
102
RTVSPost2010PropOp53
 70
     1
102
RTVSPost2010Prop54
  1
strokes_ogs.tif
102
RTVSPost2010PropOp54
 70
     1
102
RTVSPost2010Prop55
280
     0
102
RTVSPost2010PropOp55
 70
     1
102
RTVSPost2010Prop56
140
1.0
102
RTVSPost2010PropOp56
 70
     1
102
RTVSPost2010Prop57
140
1.0
102
RTVSPost2010PropOp57
 70
     1
  0
XRECORD
  5
5920
102
{ACAD_REACTORS
330
591F
102
}
330
591F
100
AcDbXrecord
280
     1
102
RTVSPropertyOp0
 70
     1
102
RTVSPropertyOp1
 70
     1
102
RTVSPropertyOp2
 70
     1
102
RTVSPropertyOp3
 70
     1
102
RTVSPropertyOp4
 70
     1
102
RTVSPropertyOp5
 70
     1
102
RTVSPropertyOp6
 70
     1
102
RTVSPropertyOp7
 70
     1
102
RTVSPropertyOp8
 70
     1
102
RTVSPropertyOp9
 70
     1
102
RTVSPropertyOp10
 70
     1
102
RTVSPropertyOp11
 70
     1
102
RTVSPropertyOp12
 70
     1
102
RTVSPropertyOp13
 70
     1
102
RTVSPropertyOp14
 70
     1
102
RTVSPropertyOp15
 70
     1
102
RTVSPropertyOp16
 70
     1
102
RTVSPropertyOp17
 70
     1
102
RTVSPropertyOp18
 70
     1
102
RTVSPropertyOp19
 70
     1
102
RTVSPropertyOp20
 70
     1
102
RTVSPropertyOp21
 70
     1
102
RTVSPropertyOp22
 70
     1
102
RTVSPropertyOp23
 70
     1
102
RTVSPropertyOp24
 70
     1
102
RTVSPropertyOp25
 70
     1
102
RTVSPropertyOp26
 70
     1
102
RTVSPropertyOp27
 70
     1
102
RTVSPropertyOp28
 70
     1
102
RTVSPropertyOp29
 70
     1
102
RTVSPropertyOp30
 70
     1
102
RTVSPropertyOp31
 70
     1
102
RTVSPropertyOp32
 70
     1
102
RTVSPropertyOp33
 70
     1
102
RTVSPropertyOp34
 70
     1
102
RTVSPropertyOp35
 70
     1
102
RTVSPropertyOp36
 70
     1
102
RTVSPropertyOp37
 70
     1
102
RTVSPropertyOp38
 70
     1
102
RTVSPropertyOp39
 70
     1
102
RTVSPropertyOp40
 70
     1
102
RTVSPropertyOp41
 70
     1
102
RTVSPropertyOp42
 70
     1
102
RTVSPropertyOp43
 70
     1
102
RTVSPropertyOp44
 70
     1
102
RTVSPropertyOp45
 70
     1
102
RTVSPropertyOp46
 70
     1
102
RTVSPropertyOp47
 70
     1
102
RTVSPropertyOp48
 70
     1
102
RTVSPropertyOp49
 70
     1
102
RTVSPropertyOp50
 70
     1
102
RTVSPropertyOp51
 70
     0
102
RTVSPropertyOp52
 70
     0
102
RTVSPropertyOp53
 70
     1
102
RTVSPropertyOp54
 70
     1
102
RTVSPropertyOp55
 70
     1
102
RTVSPropertyOp56
 70
     1
102
RTVSPropertyOp57
 70
     1
102
RTVSPost2010Prop28
280
     0
102
RTVSPost2010PropOp28
 70
     1
102
RTVSPost2010Prop29
280
     1
102
RTVSPost2010PropOp29
 70
     1
102
RTVSPost2010Prop30
280
     1
102
RTVSPost2010PropOp30
 70
     1
102
RTVSPost2010Prop31
280
     0
102
RTVSPost2010PropOp31
 70
     1
102
RTVSPost2010Prop32
280
     0
102
RTVSPost2010PropOp32
 70
     1
102
RTVSPost2010Prop33
280
     0
102
RTVSPost2010PropOp33
 70
     1
102
RTVSPost2010Prop34
280
     0
102
RTVSPost2010PropOp34
 70
     1
102
RTVSPost2010Prop35
280
     0
102
RTVSPost2010PropOp35
 70
     1
102
RTVSPost2010Prop36
280
     0
102
RTVSPost2010PropOp36
 70
     1
102
RTVSPost2010Prop37
 90
       50
102
RTVSPost2010PropOp37
 70
     1
102
RTVSPost2010Prop38
140
0.0
102
RTVSPost2010PropOp38
 70
     1
102
RTVSPost2010Prop39
140
1.0
102
RTVSPost2010PropOp39
 70
     1
102
RTVSPost2010Prop40
 90
        0
102
RTVSPost2010PropOp40
 70
     1
102
RTVSPost2010Prop41ColorIndex
 90
       18
102
RTVSPost2010Prop41ColorRGB
 90
        0
102
RTVSPost2010PropOp41
 70
     1
102
RTVSPost2010Prop42
 90
       50
102
RTVSPost2010PropOp42
 70
     1
102
RTVSPost2010Prop43
 90
        3
102
RTVSPost2010PropOp43
 70
     1
102
RTVSPost2010Prop44ColorIndex
 90
        5
102
RTVSPost2010Prop44ColorRGB
 90
      255
102
RTVSPost2010PropOp44
 70
     1
102
RTVSPost2010Prop45
280
     0
102
RTVSPost2010PropOp45
 70
     1
102
RTVSPost2010Prop46
 90
       50
102
RTVSPost2010PropOp46
 70
     1
102
RTVSPost2010Prop47
 90
       50
102
RTVSPost2010PropOp47
 70
     1
102
RTVSPost2010Prop48
 90
       50
102
RTVSPost2010PropOp48
 70
     1
102
RTVSPost2010Prop49
280
     0
102
RTVSPost2010PropOp49
 70
     1
102
RTVSPost2010Prop50
 90
       50
102
RTVSPost2010PropOp50
 70
     1
102
RTVSPost2010Prop51ColorIndex
 90
      256
102
RTVSPost2010Prop51ColorRGB
 90
-16777216
102
RTVSPost2010PropOp51
 70
     0
102
RTVSPost2010Prop52
140
1.0
102
RTVSPost2010PropOp52
 70
     0
102
RTVSPost2010Prop53
 90
        2
102
RTVSPost2010PropOp53
 70
     1
102
RTVSPost2010Prop54
  1
strokes_ogs.tif
102
RTVSPost2010PropOp54
 70
     1
102
RTVSPost2010Prop55
280
     0
102
RTVSPost2010PropOp55
 70
     1
102
RTVSPost2010Prop56
140
1.0
102
RTVSPost2010PropOp56
 70
     1
102
RTVSPost2010Prop57
140
1.0
102
RTVSPost2010PropOp57
 70
     1
  0
XRECORD
  5
5922
102
{ACAD_REACTORS
330
5921
102
}
330
5921
100
AcDbXrecord
280
     1
102
RTVSPropertyOp0
 70
     1
102
RTVSPropertyOp1
 70
     1
102
RTVSPropertyOp2
 70
     1
102
RTVSPropertyOp3
 70
     1
102
RTVSPropertyOp4
 70
     1
102
RTVSPropertyOp5
 70
     1
102
RTVSPropertyOp6
 70
     1
102
RTVSPropertyOp7
 70
     1
102
RTVSPropertyOp8
 70
     1
102
RTVSPropertyOp9
 70
     1
102
RTVSPropertyOp10
 70
     1
102
RTVSPropertyOp11
 70
     1
102
RTVSPropertyOp12
 70
     1
102
RTVSPropertyOp13
 70
     1
102
RTVSPropertyOp14
 70
     1
102
RTVSPropertyOp15
 70
     1
102
RTVSPropertyOp16
 70
     1
102
RTVSPropertyOp17
 70
     1
102
RTVSPropertyOp18
 70
     1
102
RTVSPropertyOp19
 70
     1
102
RTVSPropertyOp20
 70
     1
102
RTVSPropertyOp21
 70
     1
102
RTVSPropertyOp22
 70
     1
102
RTVSPropertyOp23
 70
     1
102
RTVSPropertyOp24
 70
     1
102
RTVSPropertyOp25
 70
     1
102
RTVSPropertyOp26
 70
     1
102
RTVSPropertyOp27
 70
     1
102
RTVSPropertyOp28
 70
     1
102
RTVSPropertyOp29
 70
     1
102
RTVSPropertyOp30
 70
     1
102
RTVSPropertyOp31
 70
     1
102
RTVSPropertyOp32
 70
     1
102
RTVSPropertyOp33
 70
     1
102
RTVSPropertyOp34
 70
     1
102
RTVSPropertyOp35
 70
     1
102
RTVSPropertyOp36
 70
     1
102
RTVSPropertyOp37
 70
     1
102
RTVSPropertyOp38
 70
     1
102
RTVSPropertyOp39
 70
     1
102
RTVSPropertyOp40
 70
     1
102
RTVSPropertyOp41
 70
     1
102
RTVSPropertyOp42
 70
     1
102
RTVSPropertyOp43
 70
     1
102
RTVSPropertyOp44
 70
     1
102
RTVSPropertyOp45
 70
     1
102
RTVSPropertyOp46
 70
     1
102
RTVSPropertyOp47
 70
     1
102
RTVSPropertyOp48
 70
     1
102
RTVSPropertyOp49
 70
     1
102
RTVSPropertyOp50
 70
     1
102
RTVSPropertyOp51
 70
     0
102
RTVSPropertyOp52
 70
     0
102
RTVSPropertyOp53
 70
     1
102
RTVSPropertyOp54
 70
     1
102
RTVSPropertyOp55
 70
     1
102
RTVSPropertyOp56
 70
     1
102
RTVSPropertyOp57
 70
     1
102
RTVSPost2010Prop28
280
     0
102
RTVSPost2010PropOp28
 70
     1
102
RTVSPost2010Prop29
280
     1
102
RTVSPost2010PropOp29
 70
     1
102
RTVSPost2010Prop30
280
     1
102
RTVSPost2010PropOp30
 70
     1
102
RTVSPost2010Prop31
280
     0
102
RTVSPost2010PropOp31
 70
     1
102
RTVSPost2010Prop32
280
     0
102
RTVSPost2010PropOp32
 70
     1
102
RTVSPost2010Prop33
280
     0
102
RTVSPost2010PropOp33
 70
     1
102
RTVSPost2010Prop34
280
     0
102
RTVSPost2010PropOp34
 70
     1
102
RTVSPost2010Prop35
280
     0
102
RTVSPost2010PropOp35
 70
     1
102
RTVSPost2010Prop36
280
     0
102
RTVSPost2010PropOp36
 70
     1
102
RTVSPost2010Prop37
 90
       50
102
RTVSPost2010PropOp37
 70
     1
102
RTVSPost2010Prop38
140
0.0
102
RTVSPost2010PropOp38
 70
     1
102
RTVSPost2010Prop39
140
1.0
102
RTVSPost2010PropOp39
 70
     1
102
RTVSPost2010Prop40
 90
        0
102
RTVSPost2010PropOp40
 70
     1
102
RTVSPost2010Prop41ColorIndex
 90
       18
102
RTVSPost2010Prop41ColorRGB
 90
        0
102
RTVSPost2010PropOp41
 70
     1
102
RTVSPost2010Prop42
 90
       50
102
RTVSPost2010PropOp42
 70
     1
102
RTVSPost2010Prop43
 90
        3
102
RTVSPost2010PropOp43
 70
     1
102
RTVSPost2010Prop44ColorIndex
 90
        5
102
RTVSPost2010Prop44ColorRGB
 90
      255
102
RTVSPost2010PropOp44
 70
     1
102
RTVSPost2010Prop45
280
     0
102
RTVSPost2010PropOp45
 70
     1
102
RTVSPost2010Prop46
 90
       50
102
RTVSPost2010PropOp46
 70
     1
102
RTVSPost2010Prop47
 90
       50
102
RTVSPost2010PropOp47
 70
     1
102
RTVSPost2010Prop48
 90
       50
102
RTVSPost2010PropOp48
 70
     1
102
RTVSPost2010Prop49
280
     0
102
RTVSPost2010PropOp49
 70
     1
102
RTVSPost2010Prop50
 90
       50
102
RTVSPost2010PropOp50
 70
     1
102
RTVSPost2010Prop51ColorIndex
 90
      256
102
RTVSPost2010Prop51ColorRGB
 90
-16777216
102
RTVSPost2010PropOp51
 70
     0
102
RTVSPost2010Prop52
140
1.0
102
RTVSPost2010PropOp52
 70
     0
102
RTVSPost2010Prop53
 90
        2
102
RTVSPost2010PropOp53
 70
     1
102
RTVSPost2010Prop54
  1
strokes_ogs.tif
102
RTVSPost2010PropOp54
 70
     1
102
RTVSPost2010Prop55
280
     0
102
RTVSPost2010PropOp55
 70
     1
102
RTVSPost2010Prop56
140
1.0
102
RTVSPost2010PropOp56
 70
     1
102
RTVSPost2010Prop57
140
1.0
102
RTVSPost2010PropOp57
 70
     1
  0
XRECORD
  5
591A
102
{ACAD_REACTORS
330
5919
102
}
330
5919
100
AcDbXrecord
280
     1
102
RTVSPropertyOp0
 70
     1
102
RTVSPropertyOp1
 70
     1
102
RTVSPropertyOp2
 70
     1
102
RTVSPropertyOp3
 70
     1
102
RTVSPropertyOp4
 70
     1
102
RTVSPropertyOp5
 70
     1
102
RTVSPropertyOp6
 70
     1
102
RTVSPropertyOp7
 70
     1
102
RTVSPropertyOp8
 70
     1
102
RTVSPropertyOp9
 70
     1
102
RTVSPropertyOp10
 70
     1
102
RTVSPropertyOp11
 70
     1
102
RTVSPropertyOp12
 70
     1
102
RTVSPropertyOp13
 70
     1
102
RTVSPropertyOp14
 70
     1
102
RTVSPropertyOp15
 70
     1
102
RTVSPropertyOp16
 70
     1
102
RTVSPropertyOp17
 70
     1
102
RTVSPropertyOp18
 70
     1
102
RTVSPropertyOp19
 70
     1
102
RTVSPropertyOp20
 70
     1
102
RTVSPropertyOp21
 70
     1
102
RTVSPropertyOp22
 70
     1
102
RTVSPropertyOp23
 70
     1
102
RTVSPropertyOp24
 70
     1
102
RTVSPropertyOp25
 70
     1
102
RTVSPropertyOp26
 70
     1
102
RTVSPropertyOp27
 70
     1
102
RTVSPropertyOp28
 70
     1
102
RTVSPropertyOp29
 70
     1
102
RTVSPropertyOp30
 70
     1
102
RTVSPropertyOp31
 70
     1
102
RTVSPropertyOp32
 70
     1
102
RTVSPropertyOp33
 70
     1
102
RTVSPropertyOp34
 70
     1
102
RTVSPropertyOp35
 70
     1
102
RTVSPropertyOp36
 70
     1
102
RTVSPropertyOp37
 70
     1
102
RTVSPropertyOp38
 70
     1
102
RTVSPropertyOp39
 70
     1
102
RTVSPropertyOp40
 70
     1
102
RTVSPropertyOp41
 70
     1
102
RTVSPropertyOp42
 70
     1
102
RTVSPropertyOp43
 70
     1
102
RTVSPropertyOp44
 70
     1
102
RTVSPropertyOp45
 70
     1
102
RTVSPropertyOp46
 70
     1
102
RTVSPropertyOp47
 70
     1
102
RTVSPropertyOp48
 70
     1
102
RTVSPropertyOp49
 70
     1
102
RTVSPropertyOp50
 70
     1
102
RTVSPropertyOp51
 70
     0
102
RTVSPropertyOp52
 70
     0
102
RTVSPropertyOp53
 70
     1
102
RTVSPropertyOp54
 70
     1
102
RTVSPropertyOp55
 70
     1
102
RTVSPropertyOp56
 70
     1
102
RTVSPropertyOp57
 70
     1
102
RTVSPost2010Prop28
280
     0
102
RTVSPost2010PropOp28
 70
     1
102
RTVSPost2010Prop29
280
     1
102
RTVSPost2010PropOp29
 70
     1
102
RTVSPost2010Prop30
280
     1
102
RTVSPost2010PropOp30
 70
     1
102
RTVSPost2010Prop31
280
     0
102
RTVSPost2010PropOp31
 70
     1
102
RTVSPost2010Prop32
280
     0
102
RTVSPost2010PropOp32
 70
     1
102
RTVSPost2010Prop33
280
     0
102
RTVSPost2010PropOp33
 70
     1
102
RTVSPost2010Prop34
280
     0
102
RTVSPost2010PropOp34
 70
     1
102
RTVSPost2010Prop35
280
     0
102
RTVSPost2010PropOp35
 70
     1
102
RTVSPost2010Prop36
280
     0
102
RTVSPost2010PropOp36
 70
     1
102
RTVSPost2010Prop37
 90
       50
102
RTVSPost2010PropOp37
 70
     1
102
RTVSPost2010Prop38
140
0.0
102
RTVSPost2010PropOp38
 70
     1
102
RTVSPost2010Prop39
140
1.0
102
RTVSPost2010PropOp39
 70
     1
102
RTVSPost2010Prop40
 90
        0
102
RTVSPost2010PropOp40
 70
     1
102
RTVSPost2010Prop41ColorIndex
 90
       18
102
RTVSPost2010Prop41ColorRGB
 90
        0
102
RTVSPost2010PropOp41
 70
     1
102
RTVSPost2010Prop42
 90
       50
102
RTVSPost2010PropOp42
 70
     1
102
RTVSPost2010Prop43
 90
        3
102
RTVSPost2010PropOp43
 70
     1
102
RTVSPost2010Prop44ColorIndex
 90
        5
102
RTVSPost2010Prop44ColorRGB
 90
      255
102
RTVSPost2010PropOp44
 70
     1
102
RTVSPost2010Prop45
280
     0
102
RTVSPost2010PropOp45
 70
     1
102
RTVSPost2010Prop46
 90
       50
102
RTVSPost2010PropOp46
 70
     1
102
RTVSPost2010Prop47
 90
       50
102
RTVSPost2010PropOp47
 70
     1
102
RTVSPost2010Prop48
 90
       50
102
RTVSPost2010PropOp48
 70
     1
102
RTVSPost2010Prop49
280
     0
102
RTVSPost2010PropOp49
 70
     1
102
RTVSPost2010Prop50
 90
       50
102
RTVSPost2010PropOp50
 70
     1
102
RTVSPost2010Prop51ColorIndex
 90
      256
102
RTVSPost2010Prop51ColorRGB
 90
-16777216
102
RTVSPost2010PropOp51
 70
     0
102
RTVSPost2010Prop52
140
1.0
102
RTVSPost2010PropOp52
 70
     0
102
RTVSPost2010Prop53
 90
        2
102
RTVSPost2010PropOp53
 70
     1
102
RTVSPost2010Prop54
  1
strokes_ogs.tif
102
RTVSPost2010PropOp54
 70
     1
102
RTVSPost2010Prop55
280
     0
102
RTVSPost2010PropOp55
 70
     1
102
RTVSPost2010Prop56
140
1.0
102
RTVSPost2010PropOp56
 70
     1
102
RTVSPost2010Prop57
140
1.0
102
RTVSPost2010PropOp57
 70
     1
  0
XRECORD
  5
591C
102
{ACAD_REACTORS
330
591B
102
}
330
591B
100
AcDbXrecord
280
     1
102
RTVSPropertyOp0
 70
     1
102
RTVSPropertyOp1
 70
     1
102
RTVSPropertyOp2
 70
     1
102
RTVSPropertyOp3
 70
     1
102
RTVSPropertyOp4
 70
     1
102
RTVSPropertyOp5
 70
     1
102
RTVSPropertyOp6
 70
     1
102
RTVSPropertyOp7
 70
     1
102
RTVSPropertyOp8
 70
     1
102
RTVSPropertyOp9
 70
     1
102
RTVSPropertyOp10
 70
     1
102
RTVSPropertyOp11
 70
     1
102
RTVSPropertyOp12
 70
     1
102
RTVSPropertyOp13
 70
     1
102
RTVSPropertyOp14
 70
     1
102
RTVSPropertyOp15
 70
     1
102
RTVSPropertyOp16
 70
     1
102
RTVSPropertyOp17
 70
     1
102
RTVSPropertyOp18
 70
     1
102
RTVSPropertyOp19
 70
     1
102
RTVSPropertyOp20
 70
     1
102
RTVSPropertyOp21
 70
     1
102
RTVSPropertyOp22
 70
     1
102
RTVSPropertyOp23
 70
     1
102
RTVSPropertyOp24
 70
     1
102
RTVSPropertyOp25
 70
     1
102
RTVSPropertyOp26
 70
     1
102
RTVSPropertyOp27
 70
     1
102
RTVSPropertyOp28
 70
     1
102
RTVSPropertyOp29
 70
     1
102
RTVSPropertyOp30
 70
     1
102
RTVSPropertyOp31
 70
     1
102
RTVSPropertyOp32
 70
     1
102
RTVSPropertyOp33
 70
     1
102
RTVSPropertyOp34
 70
     1
102
RTVSPropertyOp35
 70
     1
102
RTVSPropertyOp36
 70
     1
102
RTVSPropertyOp37
 70
     1
102
RTVSPropertyOp38
 70
     1
102
RTVSPropertyOp39
 70
     1
102
RTVSPropertyOp40
 70
     1
102
RTVSPropertyOp41
 70
     1
102
RTVSPropertyOp42
 70
     1
102
RTVSPropertyOp43
 70
     1
102
RTVSPropertyOp44
 70
     1
102
RTVSPropertyOp45
 70
     1
102
RTVSPropertyOp46
 70
     1
102
RTVSPropertyOp47
 70
     1
102
RTVSPropertyOp48
 70
     1
102
RTVSPropertyOp49
 70
     1
102
RTVSPropertyOp50
 70
     1
102
RTVSPropertyOp51
 70
     0
102
RTVSPropertyOp52
 70
     0
102
RTVSPropertyOp53
 70
     1
102
RTVSPropertyOp54
 70
     1
102
RTVSPropertyOp55
 70
     1
102
RTVSPropertyOp56
 70
     1
102
RTVSPropertyOp57
 70
     1
102
RTVSPost2010Prop28
280
     0
102
RTVSPost2010PropOp28
 70
     1
102
RTVSPost2010Prop29
280
     1
102
RTVSPost2010PropOp29
 70
     1
102
RTVSPost2010Prop30
280
     1
102
RTVSPost2010PropOp30
 70
     1
102
RTVSPost2010Prop31
280
     0
102
RTVSPost2010PropOp31
 70
     1
102
RTVSPost2010Prop32
280
     0
102
RTVSPost2010PropOp32
 70
     1
102
RTVSPost2010Prop33
280
     0
102
RTVSPost2010PropOp33
 70
     1
102
RTVSPost2010Prop34
280
     0
102
RTVSPost2010PropOp34
 70
     1
102
RTVSPost2010Prop35
280
     0
102
RTVSPost2010PropOp35
 70
     1
102
RTVSPost2010Prop36
280
     0
102
RTVSPost2010PropOp36
 70
     1
102
RTVSPost2010Prop37
 90
       50
102
RTVSPost2010PropOp37
 70
     1
102
RTVSPost2010Prop38
140
0.0
102
RTVSPost2010PropOp38
 70
     1
102
RTVSPost2010Prop39
140
1.0
102
RTVSPost2010PropOp39
 70
     1
102
RTVSPost2010Prop40
 90
        0
102
RTVSPost2010PropOp40
 70
     1
102
RTVSPost2010Prop41ColorIndex
 90
       18
102
RTVSPost2010Prop41ColorRGB
 90
        0
102
RTVSPost2010PropOp41
 70
     1
102
RTVSPost2010Prop42
 90
       50
102
RTVSPost2010PropOp42
 70
     1
102
RTVSPost2010Prop43
 90
        3
102
RTVSPost2010PropOp43
 70
     1
102
RTVSPost2010Prop44ColorIndex
 90
        5
102
RTVSPost2010Prop44ColorRGB
 90
      255
102
RTVSPost2010PropOp44
 70
     1
102
RTVSPost2010Prop45
280
     0
102
RTVSPost2010PropOp45
 70
     1
102
RTVSPost2010Prop46
 90
       50
102
RTVSPost2010PropOp46
 70
     1
102
RTVSPost2010Prop47
 90
       50
102
RTVSPost2010PropOp47
 70
     1
102
RTVSPost2010Prop48
 90
       50
102
RTVSPost2010PropOp48
 70
     1
102
RTVSPost2010Prop49
280
     0
102
RTVSPost2010PropOp49
 70
     1
102
RTVSPost2010Prop50
 90
       50
102
RTVSPost2010PropOp50
 70
     1
102
RTVSPost2010Prop51ColorIndex
 90
      256
102
RTVSPost2010Prop51ColorRGB
 90
-16777216
102
RTVSPost2010PropOp51
 70
     0
102
RTVSPost2010Prop52
140
1.0
102
RTVSPost2010PropOp52
 70
     0
102
RTVSPost2010Prop53
 90
        2
102
RTVSPost2010PropOp53
 70
     1
102
RTVSPost2010Prop54
  1
strokes_ogs.tif
102
RTVSPost2010PropOp54
 70
     1
102
RTVSPost2010Prop55
280
     0
102
RTVSPost2010PropOp55
 70
     1
102
RTVSPost2010Prop56
140
1.0
102
RTVSPost2010PropOp56
 70
     1
102
RTVSPost2010Prop57
140
1.0
102
RTVSPost2010PropOp57
 70
     1
  0
XRECORD
  5
5924
102
{ACAD_REACTORS
330
5923
102
}
330
5923
100
AcDbXrecord
280
     1
102
RTVSPropertyOp0
 70
     1
102
RTVSPropertyOp1
 70
     1
102
RTVSPropertyOp2
 70
     1
102
RTVSPropertyOp3
 70
     1
102
RTVSPropertyOp4
 70
     1
102
RTVSPropertyOp5
 70
     1
102
RTVSPropertyOp6
 70
     1
102
RTVSPropertyOp7
 70
     1
102
RTVSPropertyOp8
 70
     1
102
RTVSPropertyOp9
 70
     1
102
RTVSPropertyOp10
 70
     1
102
RTVSPropertyOp11
 70
     1
102
RTVSPropertyOp12
 70
     1
102
RTVSPropertyOp13
 70
     1
102
RTVSPropertyOp14
 70
     1
102
RTVSPropertyOp15
 70
     1
102
RTVSPropertyOp16
 70
     1
102
RTVSPropertyOp17
 70
     1
102
RTVSPropertyOp18
 70
     1
102
RTVSPropertyOp19
 70
     1
102
RTVSPropertyOp20
 70
     1
102
RTVSPropertyOp21
 70
     1
102
RTVSPropertyOp22
 70
     1
102
RTVSPropertyOp23
 70
     1
102
RTVSPropertyOp24
 70
     1
102
RTVSPropertyOp25
 70
     1
102
RTVSPropertyOp26
 70
     1
102
RTVSPropertyOp27
 70
     1
102
RTVSPropertyOp28
 70
     1
102
RTVSPropertyOp29
 70
     1
102
RTVSPropertyOp30
 70
     1
102
RTVSPropertyOp31
 70
     1
102
RTVSPropertyOp32
 70
     1
102
RTVSPropertyOp33
 70
     1
102
RTVSPropertyOp34
 70
     1
102
RTVSPropertyOp35
 70
     1
102
RTVSPropertyOp36
 70
     1
102
RTVSPropertyOp37
 70
     1
102
RTVSPropertyOp38
 70
     1
102
RTVSPropertyOp39
 70
     1
102
RTVSPropertyOp40
 70
     1
102
RTVSPropertyOp41
 70
     1
102
RTVSPropertyOp42
 70
     1
102
RTVSPropertyOp43
 70
     1
102
RTVSPropertyOp44
 70
     1
102
RTVSPropertyOp45
 70
     1
102
RTVSPropertyOp46
 70
     1
102
RTVSPropertyOp47
 70
     1
102
RTVSPropertyOp48
 70
     1
102
RTVSPropertyOp49
 70
     1
102
RTVSPropertyOp50
 70
     1
102
RTVSPropertyOp51
 70
     0
102
RTVSPropertyOp52
 70
     0
102
RTVSPropertyOp53
 70
     1
102
RTVSPropertyOp54
 70
     1
102
RTVSPropertyOp55
 70
     1
102
RTVSPropertyOp56
 70
     1
102
RTVSPropertyOp57
 70
     1
102
RTVSPost2010Prop28
280
     0
102
RTVSPost2010PropOp28
 70
     1
102
RTVSPost2010Prop29
280
     1
102
RTVSPost2010PropOp29
 70
     1
102
RTVSPost2010Prop30
280
     1
102
RTVSPost2010PropOp30
 70
     1
102
RTVSPost2010Prop31
280
     0
102
RTVSPost2010PropOp31
 70
     1
102
RTVSPost2010Prop32
280
     0
102
RTVSPost2010PropOp32
 70
     1
102
RTVSPost2010Prop33
280
     0
102
RTVSPost2010PropOp33
 70
     1
102
RTVSPost2010Prop34
280
     0
102
RTVSPost2010PropOp34
 70
     1
102
RTVSPost2010Prop35
280
     0
102
RTVSPost2010PropOp35
 70
     1
102
RTVSPost2010Prop36
280
     0
102
RTVSPost2010PropOp36
 70
     1
102
RTVSPost2010Prop37
 90
       50
102
RTVSPost2010PropOp37
 70
     1
102
RTVSPost2010Prop38
140
0.0
102
RTVSPost2010PropOp38
 70
     1
102
RTVSPost2010Prop39
140
1.0
102
RTVSPost2010PropOp39
 70
     1
102
RTVSPost2010Prop40
 90
        0
102
RTVSPost2010PropOp40
 70
     1
102
RTVSPost2010Prop41ColorIndex
 90
       18
102
RTVSPost2010Prop41ColorRGB
 90
        0
102
RTVSPost2010PropOp41
 70
     1
102
RTVSPost2010Prop42
 90
       50
102
RTVSPost2010PropOp42
 70
     1
102
RTVSPost2010Prop43
 90
        3
102
RTVSPost2010PropOp43
 70
     1
102
RTVSPost2010Prop44ColorIndex
 90
        5
102
RTVSPost2010Prop44ColorRGB
 90
      255
102
RTVSPost2010PropOp44
 70
     1
102
RTVSPost2010Prop45
280
     0
102
RTVSPost2010PropOp45
 70
     1
102
RTVSPost2010Prop46
 90
       50
102
RTVSPost2010PropOp46
 70
     1
102
RTVSPost2010Prop47
 90
       50
102
RTVSPost2010PropOp47
 70
     1
102
RTVSPost2010Prop48
 90
       50
102
RTVSPost2010PropOp48
 70
     1
102
RTVSPost2010Prop49
280
     0
102
RTVSPost2010PropOp49
 70
     1
102
RTVSPost2010Prop50
 90
       50
102
RTVSPost2010PropOp50
 70
     1
102
RTVSPost2010Prop51ColorIndex
 90
      256
102
RTVSPost2010Prop51ColorRGB
 90
-16777216
102
RTVSPost2010PropOp51
 70
     0
102
RTVSPost2010Prop52
140
1.0
102
RTVSPost2010PropOp52
 70
     0
102
RTVSPost2010Prop53
 90
        2
102
RTVSPost2010PropOp53
 70
     1
102
RTVSPost2010Prop54
  1
strokes_ogs.tif
102
RTVSPost2010PropOp54
 70
     1
102
RTVSPost2010Prop55
280
     0
102
RTVSPost2010PropOp55
 70
     1
102
RTVSPost2010Prop56
140
1.0
102
RTVSPost2010PropOp56
 70
     1
102
RTVSPost2010Prop57
140
1.0
102
RTVSPost2010PropOp57
 70
     1
  0
ENDSEC
  0
SECTION
  2
THUMBNAILIMAGE
 90
    16364
310
28000000B4000000550000000100080000000000C43B000000000000000000000001000000010000FFFFFF000000FF0000FFFF0000FF0000FFFF0000FF000000FF00FF000000000080808000C0C0C0000000FF007F7FFF000000A5005252A50000007F003F3F7F0000004C0026264C000000260013132600003FFF007F9FFF
310
000029A5005267A500001F7F003F4F7F0000134C00262F4C000009260013172600007FFF007FBFFF000052A500527CA500003F7F003F5F7F0000264C0026394C0000132600131C260000BFFF007FDFFF00007CA5005291A500005F7F003F6F7F0000394C0026424C00001C26001321260000FFFF007FFFFF0000A5A50052A5
310
A500007F7F003F7F7F00004C4C00264C4C00002626001326260000FFBF007FFFDF0000A57C0052A59100007F5F003F7F6F00004C3900264C420000261C001326210000FF7F007FFFBF0000A5520052A57C00007F3F003F7F5F00004C2600264C39000026130013261C0000FF3F007FFF9F0000A5290052A56700007F1F003F
310
7F4F00004C1300264C2F00002609001326170000FF00007FFF7F0000A5000052A55200007F00003F7F3F00004C0000264C260000260000132613003FFF00009FFF7F0029A5000067A552001F7F00004F7F3F00134C00002F4C260009260000172613007FFF0000BFFF7F0052A500007CA552003F7F00005F7F3F00264C0000
310
394C2600132600001C261300BFFF0000DFFF7F007CA5000091A552005F7F00006F7F3F00394C0000424C26001C26000021261300FFFF0000FFFF7F00A5A50000A5A552007F7F00007F7F3F004C4C00004C4C26002626000026261300FFBF0000FFDF7F00A57C0000A59152007F5F00007F6F3F004C3900004C422600261C00
310
0026211300FF7F0000FFBF7F00A5520000A57C52007F3F00007F5F3F004C2600004C39260026130000261C1300FF3F0000FF9F7F00A5290000A56752007F1F00007F4F3F004C1300004C2F26002609000026171300FF000000FF7F7F00A5000000A55252007F0000007F3F3F004C0000004C2626002600000026131300FF00
310
3F00FF7F9F00A5002900A55267007F001F007F3F4F004C0013004C262F002600090026131700FF007F00FF7FBF00A5005200A5527C007F003F007F3F5F004C0026004C2639002600130026131C00FF00BF00FF7FDF00A5007C00A55291007F005F007F3F6F004C0039004C26420026001C0026132100FF00FF00FF7FFF00A5
310
00A500A552A5007F007F007F3F7F004C004C004C264C002600260026132600BF00FF00DF7FFF007C00A5009152A5005F007F006F3F7F0039004C0042264C001C002600211326007F00FF00BF7FFF005200A5007C52A5003F007F005F3F7F0026004C0039264C00130026001C1326003F00FF009F7FFF002900A5006752A500
310
1F007F004F3F7F0013004C002F264C000900260017132600000000002D2D2D005B5B5B0089898900B7B7B700B3B3B30000000000000000000000000000000000000000000000000000000000000000000000000000000000000000000000000000000000000000000000000000000000000000000000000000000000000000
310
00000000000000000000000000000000000000000000000000000000000000000000000000000000000000000000000000000000000000000000000000000000000000000000000000000000000000000000000000000000000000000000000000000000000000000000000000000000000000000000000000000000000000
310
00000000000000000000000000000000000000000000000000000000000000000000000000000000000000000000000000000000000000000000000000000000000000000000000000000000000000000000000000000000000000000000000000000000000000000000000000000000000000000000000000000000000000
310
00000000000000000000000000000000000000000000000000000000000000000000000000000000000000000000000000000000000000000000000000000000000000000000000000000000000000000000000000000000000000000000000000000000000000000000000000000000000000000000000000000000000000
310
00000000000000000000000000000000000000000000000000000000000000000000000000000000000000000000000000000000000000000000000000000000000000000000000000000000000000000000000000000000000000000000000000000000000000000000000000000000000000000000000000000000000000
310
00000000000000000000000000000000000000000000000000000000000000000000000000000000000000000000000000000000000000000000000000000000000000000000000000000000000000000000000000000000000000000000000000000000000000000000000000000000000000000000000000000000000000
310
00000000000000000000000000000000000000000000000000000000000000000000000000000000000000000000000000000000000000000000000000000000000000000000000000000000000000000000000000000000000000000000000000000000000000000000000000000000000000000000000000000000000000
310
00000000000000000000000000000000000000000000000000000000000000000000000000000000000000000000000000000000000000000000000000000000000000000000000000000000000000000000000000000000000000000000000000000000000000000000000000000000000000000000000000000000000000
310
00000000000000000000000000000000000000000000000000000000000000000000000000000000000000000000000000000000000000000000000000000000000000000000000000000000000000000000000000000000000000000000000000000000000000000000000000000000000000000000000000000000000000
310
00000000000000000000000000000000000000000000000000000000000000000000000000000000000000000000000000000000000000000000000000000000000000000000000000000000000000000000000000000000000000000000000000000000000000000000000000000000000000000000000000000000000000
310
00000000000000000000000000000000000000000000000000000000000000000000000000000000000000000000000000000000000000000000000000000000000000000000000000000000000000000000000000000000000000000000000000000000000000000000000000000000000000000000000000000000000000
310
00000000000000000000000000000000000000000000000000000000000000000000000000000000000000000000000000000000000000000000000000000000000000000000000000000000000000000000000000000000000000000000000000000000000000000000000000000000000000000000000000000000000000
310
00000000000000000000000000000000000000000000000000000000000000000000000000000000000000000000000000000000000000000000000000000000000000000000000000000000000000000000000000000000000000000000000000000000000000000000000000000000000000000000000000000000000000
310
00000000000000000000000000000000000000000000000000000000000000000000000000000000000000000000000000000000000000000000000000000000000000000000000000000000000000000000000000000000000000000000000000000000000000000000000000000000000000000000000000000000000000
310
00000000000000000000000000000000000000000000000000000000000000000000000000000000000000000000000000000000000000000000000000000000000000000000000000000000000000000000000000000000000000000000000000000000000000010000000000000000000000000000000000000100000000
310
00000000000202020202020000000000000000000000000000000001000000000000000000000001000000000000000000000000000000000000000000000000000000000000000000000000000000000000000000000000000000000000000000000000000000000000000000000000000000000000000000000000000000
310
00000000000000000000000000000000000000000000000000000000030103030303030303030303030303030303030301030300000000000000020202020202000000000000000000000000000003030103030303030303030303030103030000000000000000000000000000000000000000000000000000000000000000
310
00000000000000000000000000000000000000000000000000000000000000000000000000000000000000000000000000000000000000000000000000000000000000000000000000000000000000000003010303030300000100030303030303030301030103030000000000000000000000000000000000000003030303
310
03030303030301030300000001000003030301030300000000000000000000000000000000000000000000000000000000000000000000000000000000000000000000000000000000000000000000000000000000000000000000000000000000000000000000000000000000000000000000000000000000000000000000
310
00000000000000030100000000000001000300010403010303030101030000000000000000000000000000000000000000010101000000000300000100030000000100000303000103030000000000000000000000000000000000000000000000000000000000000000000000000000000000000000000000000000000000
310
00000000000000000000000000000000000000000000000000000000000000000000000000000000000000000000000000000000000000000000000003000000000000000100030101010301000301010103000000000000000000000000000000000000000003030000000000030303030303030303030303030303030303
310
00000000000000000000000000000000000000000000000000000000000000000000000000000000000000000000000000000000000000000000000000000000000000000000000000000000000000000000000000000000000000000000000000000000000000000000000000000000000300000000000000010003010303
310
03030303030301030000000000000000000000000000000000000003030300000000000300000000030000000100000303000003030000000000000000000000000000000000000000000000000000000000000000000000000000000000000000000000000000000000000000000000000000000000000000000000000000
310
00000000000000000000000000000000000000000000000000000000000000000000000000000003000000000000000100030303030303030303030303000000000000000000000000000000000000000303030000000000030000000003000000010000030300000303000000000000000000000000000000000000000000
310
00000000000000000000000000000000000000000000000000000000000000000000000000000000000000000000000000000000000000000000000000000000000000000000000000000000000000000000000000000000000000000300000000000000010304030303030100030300030400000000000000000000000000
310
00000000000003040300000000000300000000030000000100000303000003030000000000000000000000000000000000000000000000000000000000000000000000000000000000000000000000000000000000000000000000000000000000000000000000000000000000000000000000000000000000000000000000
310
00000000000000000000000000000000000003000000000000000101040303010301010301010104010000000000000000000000000000000000000303010101010101010101010101010101010101010101010301000000000000000000000000000000000000000000000000000000000000000000000000000000000000
310
00000000000000000000000000000000000000000000000000000000000000000000000000000000000000000000000000000000000000000000000000000000000000000000000300000000000000010003030303030303030303030300000000000000000000000000000000000000030303000000000003000000000000
310
00000100000000000003030000000000000000000000000000000000000000000000000000000000000000000000000000000000000000000000000000000000000000000000000000000000000000000000000000000000000000000000000000000000000000000000000000000000000000000000000000000000030000
310
00000000000100030103030303030303030103000000000000000000000000000000000000000303030000010000030000000000000300010300000000000303000000000000000000000000000000000000000000000000000000000000000000000000000000000000000000000000000000000000000000000000000000
310
00000000000000000000000000000000000000000000000000000000000000000000000000000000000000000000000000000300010000000000010303010100030100030001010303000000000000000000000000000000000000000303030303030303030103030103030001030301030303010300000000000000000000
310
00000000000000000000000000000000000000000000000000000000000000000000000000000000000000000000000000000000000000000000000000000000000000000000000000000000000000000000000000000000000000000000000000000000000000030301030303030303030300010403010303040100030300
310
00000000000000000000000000000000000004010103030303030301030301030303030303010303030103000000000000000000000000000000000000000000000000000000000000000000000000000000000000000000000000000000000000000000000000000000000000000000000000000000000000000000000000
310
00000000000000000000000000000000000000000000000000000000000303040303030303030303030301010101010103030303030303030300000000000000000000000000000303010303030303030303030303030303030301030303010300000000000000000000000000000000000000000000000000000000000000
310
00000000000000000000000000000000000000000000000000000000000000000000000000000000000000000000000000000000000000000000000000000000000000000000000000000000000000000000000000000303030303030000000003030303000000000303030303030000000000000000000000000000000300
310
03030303030000000000000303030300000000000000000000000000000000000000000000000000000000000000000000000000000000000000000000000000000000000000000000000000000000000000000000000000000000000000000000000000000000000000000000000000000000000000000000000000000000
310
00000000000000000000000000000003030300000000000100000000000003000000000000000000000000000000000000000003030303030003000000000000030003030000000000000000000000000000000000000000000000000000000000000000000000000000000000000000000000000000000000000000000000
310
00000000000000000000000000000000000000000000000000000000000000000000000000000000000000000000000000000000000000000000000000000000000000000303030303030303030303030303030300000000000000000000000000000000000000000003030303030300000000000003000103000000000000
310
00000000000000000000000000000000000000000000000000000000000000000000000000000000000000000000000000000000000000000000000000000000000000000000000000000000000000000000000000000000000000000000000000000000000000000000000000000000000000000000000000030303000000
310
00000100000000000000000000000000000000000000000000000000000000000001000000000000000000030001030000000000000000000000000000000000000000000000000000000000000000000000000000000000000000000000000000000000000000000000000000000000000000000000000000000000000000
310
00000000000000000000000000000000000000000000000000000000000000000000000000000000000000000000000303030000000000000000000000000000000000000000000000000000000000000000000000000000000000000000000003000103000000000000000000000000000000000000000000000000000000
310
00000000000000000000000000000000000000000000000000000000000000000000000000000000000000000000000000000000000000000000000000000000000000000000000000000000000000000000000000000000000000000000000000000000030303000000000000000000000000000000000000000000000000
310
00000000000000000000000000000000000000000000030001030000000000000000000000000000000000000000000000000000000000000000000000000000000000000000000000000000000000000000000000000000000000000000000000000000000000000000000000000000000000000000000000000000000000
310
00000000000000000000000000000000000000000000000000000303030000000000000000000000000000000000000000000000000000000000000000000000000000000000000000000003030303000000000000000000000000000000000000000000000000000000000000000000000000000000000000000000000000
310
00000000000000000000000000000000000000000000000000000000000000000000000000000000000000000000000000000000000000000000000000000000000000000000000000000000000000000000000000000000000000000000000000000000000000000000000000000000000000000000000000000000000000
310
00000000000000000000000000000000000000000000000000000000000000000000000000000000000000000000000000000000000000000000000000000000000000000000000000000000000000000000000000000000000000000000000000000000000000000000000000000000000000000000000000000000000000
310
00000000000000000000000000000000000000000000000000000000000000000000000000000000000000000000000000000000000000000000000000000000000000000000000000000000000000000000000000000000000000000000000000000000000000000000000000000000000000000000000000000000000000
310
00000000000000000000000000000000000000000000000000000000000000000000000000000000000000000000000000000000000000000000000000000000000000000000000000000000000000000000000000000000000000000000000000000000000000000000000000000000000000000000000000000000000000
310
00000000000000000000000000000000000000000000000000000000000000000000000000000000000000000000000000000000000000000000000000000000000000000000000000000000000000000000000000000000000000000000000000000000000000000000000000000000000000000000000000000000000000
310
00000000000000000000000000000000000000000000000000000000000000000000000000000000000000000000000000000000000000000000000000000000000000000000000000000000000000000000000000000000000000000000000000000000000000000000000000000000000000000000000000000000000000
310
00000000000000000000000000000000000000000000000000000000000000000000000000000000000000000000000000000000000000000000000000000000000000000000000000000000000000000000000000000000000000000000000000000000000000000000000000000000000000000000000000000000000000
310
00000000000000000000000000000000000000000000000000000000000000000000000000000000000000000000000000000000000000000000000000000000000000000000000000000000000000000000000000000000000000000000000000000000000000000000000000000000000000000000000000000000000000
310
00000000000000000000000000000000000000000000000000000000000000000000000000000000000000000000000000000000000000000000000000000000000000000000000000000000000000000000000000000000000000000000000000000000000000000000000000000000000000000000000000000000000000
310
00000000000000000000000000000000000000000000000000000000000000000000000000000000000000000000000000000000000000000000000000000000000000000000000000000000000000000000000000000000000000000000000000000000000000000000000000000000000000000000000000000000000000
310
00000000000000000000000000000000000000000000000000000000000000000000000000000000000000000000000000000000000000000000000000000000000000000000000000000000000000000000000000000000000000000000000000000000000000000000000000000000000000000000000000000000000000
310
00000000000000000000000000000000000000000000000000000000000000000000000000000000000000000000000000000000000000000000000000000000000000000000000000000000000000000000000000000000000000000000000000000000000000000000000000000000000000000000000000000000000000
310
00000000000000000000000000000000000000000000000000000000000000000000000000000000000000000000000000000000000000000000000000000000000000000000000000000000000000000000000000000000000000000000000000000000000000000000000000000000000000000000000000000000000000
310
00000000000000000000000000000000000000000000000000000000000000000000000000000000000000000000000000000000000000000000000000000000000000000000000000000000000000000000000000000000000000000000000000000000000000000000000000000000000000000000000000000000000000
310
00000000000000000000000000000000000000000000000000000000000000000000000000000000000000000000000000000000000000000000000000000000000000000000000000000000000000000000000000000000000000000000000000000000000000000000000000000000000000000000000000000000000000
310
00000000000000000000000000000000000000000000000000000000000000000000000000000000000000000000000000000000000000000000000000000000000000000000000000000000000000000000000000000000000000000000000000000000000000000000000000000000000000000000000000000000000000
310
00000000000000000000000000000000000000000000000000000000000000000000000000000000000000000000000000000000000000000000000000000000000000000000000000000000000000000000000000000000000000000000000000000000000000000000000000000000000000000000000000000000000000
310
00000000000000000000000000000000000000000000000000000000000000000000000000000000000000000000000000000000000000000000000000000000000000000000000000000000000000000000000000000000000000000000000000000000000000000000000000000000000000000000000000000000000000
310
00000000000000000000000000000000000000000000000000000000000000000000000000000000000000000000000000000000000000000000000000000000000000000000000000000000000000000000000000000000000000000000000000000000000000000000000000000000000000000000000000000000000000
310
00000000000000000000000000000000000000000000000000000000000000000000000000000000000000000000000000000000000000000000000000000000000000000000000000000000000000000000000000000000000000000000000000000000000000000000000000000000000000000000000000000000000000
310
00000000000000000000000000000000000000000000000000000000000000000000000000000000000000000000000000000000000000000000000000000000000000000000000000000000000000000000000000000000000000000000000000000000000000000000000000000000000000000000000000000000000000
310
00000000000000000000000000000000000000000000000000000000000000000000000000000000000000000000000000000000000000000000000000000000000000000000000000000000000000000000000000000000000000000000000000000000000000000000000000000000000000000000000000000000000000
310
00000000000000000000000000000000000000000000000000000000000000000000000000000000000000000000000000000000000000000000000000000000000000000000000000000000000000000000000000000000000000000000000000000000000000000000000000000000000000000000000000000000000000
310
00000000000000000000000000000000000000000000000000000000000000000000000000000000000000000000000000000000000000000000000000000000000000000000000000000000000000000000000000000000000000000000000000000000000000000000000000000000000000000000000000000000000000
310
00000000000000000000000000000000000000000000000000000000000000000000000000000000000000000000000000000000000000000000000000000000000000000000000000000000000000000000000000000000000000000000000000000000000000000000000000000000000000000000000000000000000000
310
00000000000000000000000000000000000000000000000000000000000000000000000000000000000000000000000000000000000000000000000000000000000000000000000000000000000000000000000000000000000000000000000000000000000000000000000000000000000000000000000000000000000000
310
00000000000000000000000000000000000000000000000000000000000000000000000000000000000000000000000000000000000000000000000000000000000000000000000000000000000000000000000000000000000000000000000000000000000000000000000000000000000000000000000000000000000000
310
00000000000000000000000000000000000000000000000000000000000000000000000000000000000000000000000000000000000000000000000000000000000000000000000000000000000000000000000000000000000000000000000000000000000000000000000000000000000000000000000000000000000000
310
00000000000000000000000000000000000000000000000000000000000000000000000000000000000000000000000000000000000000000000000000000000000000000000000000000000000000000000000000000000000000000000000000000000000000000000000000000000000000000000000000000000000000
310
00000000000000000000000000000000000000000000000000000000000000000000000000000000000000000000000000000000000000000000000000000000000000000000000000000000000000000000000000000000000000000000000000000000000000000000000000000000000000000000000000000000000000
310
00000000000000000000000000000000000000000000000000000000000000000000000000000000000000000000000000000000010303010303030303000303000000000000000000000000000000000000000000000000000000000000000000000000000000000000000000000000000000000000000000000000000000
310
00000000000000000000000000000000000000000000000000000000000000000000000000000000000000000000000000000000000000000000000000000000000000000000000000000000000000000000000000000000000000000000000000000000000000000001030301030303030303030300000000000000000000
310
00000000000000000000000000000000000000000000000000000000000000000000000000000000000000000000000000000000000000000000000000000000000000000000000000000000000000000000000000000000000000000000000000000000000000000000000000000000000000000000000000000000000000
310
00000000000000000000000000000000000000000000000000000000000003010303010303030301030301030000000000000000000000000000000000000000000000000000000000000000000000000000000000000000000000000000000000000000000000000000000000000000000000000000000000000000000000
310
00000000000000000000000000000000000000000000000000000000000000000000000000000000000000000000000000000000000000000000000000000000000000000000000000000000000000000000000300000000000100000000000003000000000000000000000000000000000000000000000000000000000000
310
00000000000000000000000000000000000000000000000000000000000000000000000000000000000000000000000000000000000000000000000000000000000000000000000000000000000000000000000000000000000000000000000000000000000000000000000000000000000000000000000000000000000000
310
00000000030303030303000000000001000000000000030303030303000000000000000000000000000000000000000000000000000000000000000000000000000000000000000000000000000000000000000000000000000000000000000000000000000000000000000000000000000000000000000000000000000000
310
00000000000000000000000000000000000000000000000000000000000000000000000000000000000000000000000000000000000000000003030303030301010101010101010101010103030303030300000000000000000000000000000000000000000000000000000000000000000000000000000000000000000000
310
00000000000000000000000000000000000000000000000000000000000000000000000000000000000000000000000000000000000000000000000000000000000000000000000000000000000000000000000000000000000000000000000000000000000000000000000000000303030303030000000000010000000000
310
00030303030303000000000000000000000000000000000000000000000000000000000000000000000000000000000000000000000000000000000000000000000000000000000000000000000000000000000000000000000000000000000000000000000000000000000000000000000000000000000000000000000000
310
00000000000000000000000000000000000000000000000000000000000000000000000000000000000300000000000100000000000003000000000000000000000000000000000000000000000000000000000000000000000000000000000000000000000000000000000000000000000000000000000000000000000000
310
00000000000000000000000000000000000000000000000000000000000000000000000000000000000000000000000000000000000000000000000000000000000000000000000000000000000000000000000000000000000000000001030303030303010303030303030300000000000000000000000000000000000000
310
00000000000000000000000000000000000000000000000000000000000000000000000000000000000000000000000000000000000000000000000000000000000000000000000000000000000000000000000000000000000000000000000000000000000000000000000000000000000000000000000000000000000000
310
00000000000000000000000301030303030101040101030000000100000003010303000000000000000000000000000000000000000000000000000000000000000000000000000000000000000000000000000000000000000000000000000000000000000000000000000000000000000000000000000000000000000000
310
00000000000000000000000000000000000000000000000000000000000000000000000000000000000000000000000000000000000000000000000000000000030101030101010304030101010300010000000103010300000000000000000000000000000000000000000000000000000000000000000000000000000000
310
00000000000000000000000000000000000000000000000000000000000000000000000000000000000000000000000000000000000000000000000000000000000000000000000000000000000000000000000000000000000000000000000000000000000000000000000000000000000000000003010301010300000100
310
00030101030100000003010003000000000000000000000000000000000000000000000000000000000000000000000000000000000000000000000000000000000000000000000000000000000000000000000000000000000000000000000000000000000000000000000000000000000000000000000000000000000000
310
00000000000000000000000000000000000000000000000000000000000000000000000000000000000000030101010300000001000000000101010000000300000300000000000000000000000000000000000000000000000000000000000000000000000000000000000000000000000000000000000000000000000000
310
00000000000000000000000000000000000000000000000000000000000000000000000000000000000000000000000000000000000000000000000000000000000000000000000000000000000000000000000000000000000000000000000003030401000303030303030300030403000000030303030000000000000000
310
00000000000000000000000000000000000000000000000000000000000000000000000000000000000000000000000000000000000000000000000000000000000000000000000000000000000000000000000000000000000000000000000000000000000000000000000000000000000000000000000000000000000000
310
00000000000000000000000000000000000000000000000101000003030303030303000003010001000300000000000000000000000000000000000000000000000000000000000000000000000000000000000000000000000000000000000000000000000000000000000000000000000000000000000000000000000000
310
00000000000000000000000000000000000000000000000000000000000000000000000000000000000000000000000000000000000000000000000000000000000000000000000000000003010300000303030303030300000301030303030000000000000000000000000000000000000000000000000000000000000000
310
00000000000000000000000000000000000000000000000000000000000000000000000000000000000000000000000000000000000000000000000000000000000000000000000000000000000000000000000000000000000000000000000000000000000000000000000000000000000000000000000000000000000000
310
00030103010103030301030303010103010303030301000000000000000000000000000000000000000000000000000000000000000000000000000000000000000000000000000000000000000000000000000000000000000000000000000000000000000000000000000000000000000000000000000000000000000000
310
00000000000000000000000000000000000000000000000000000000000000000000000000000000000000000000000000000000000003010300000303030103030300000301030303030000000000000000000000000000000000000000000000000000000000000000000000000000000000000000000000000000000000
310
00000000000000000000000000000000000000000000000000000000000000000000000000000000000000000000000000000000000000000000000000000000000000000000000000000000000000000000000000000000000000000000000000000000000000000000000301030000030303030303030000030103010303
310
00000000000000000000000000000000000000000000000000000000000000000000000000000000000000000000000000000000000000000000000000000000000000000000000000000000000000000000000000000000000000000000000000000000000000000000000000000000000000000000000000000000000000
310
00000000000000000000000000000000000000000000000000000000000000000000010100000303030303030300000101000100030000000000000000000000000000000000000000000000000000000000000000000000000000000000000000000000000000000000000000000000000000000000000000000000000000
310
00000000000000000000000000000000000000000000000000000000000000000000000000000000000000000000000000000000000000000000000000000000000000000000000000000000000000000000000000000301040100000003030300000003040100000003030303000000000000000000000000000000000000
310
00000000000000000000000000000000000000000000000000000000000000000000000000000000000000000000000000000000000000000000000000000000000000000000000000000000000000000000000000000000000000000000000000000000000000000000000000000000000000000000000000000000000000
310
00000000000000000000000003010101030000000100000003010103000000030100030000000000000000000000000000000000000000000000000000000000000000000000000000000000000000000000000000000000000000000000000000000000000000000000000000000000000000000000000000000000000000
310
00000000000000000000000000000000000000000000000000000000000000000000000000000000000000000000000000000000000000000000000000000000000101010101030300010003030101030100000001030103000000000000000000000000000000000000000000000000000000000000000000000000000000
310
00000000000000000000000000000000000000000000000000000000000000000000000000000000000000000000000000000000000000000000000000000000000000000000000000000000000000000000000000000000000000000000000000000000000000000000000000000000000000000000030100030301010104
310
01010101030001000000030100030000000000000000000000000000000000000000000000000000000000000000000000000000000000000000000000000000000000000000000000000000000000000000000000000000000000000000000000000000000000000000000000000000000000000000000000000000000000
310
00000000000000000000000000000000000000000000000000000000000000000000000000000000000000000303030303030303040303030303030303030303030303000000000000000000000000000000000000000000000000000000000000000000000000000000000000000000000000000000000000000000000000
310
00000000000000000000000000000000000000000000000000000000000000000000000000000000000000000000000000000000000000000000000000000000000000000000000000000000000000000000000000000000000000000000000000000000000000000000000000000000000000000000000000000000000000
310
00000000000000000000000000000000000000000000000000000000000000000000000000000000000000000000000000000000000000000000000000000000000000000000000000000000000000000000000000000000000000000000000000000000000000000000000000000000000000000000000000000000000000
310
00000000000000000000000000000000000000000000000000000000000000000000000000000000000000000000000000000000000000000000000000000000000000000000000000000000000000000000000000000000000000000000000000000000000000000000000000000000000000000000000000000000000000
310
00000000000000000000000000000000000000000000000000000000000000000000000000000000000000000000000000000000000000000000000000000000000000000000000000000000000000000000000000000000000000000000000000000000000000000000000000000000000000000000000000000000000000
310
00000000000000000000000000000000000000000000000000000000000000000000000000000000000000000000000000000000000000000000000000000000000000000000000000000000000000000000000000000000000000000000000000000000000000000000000000000000000000000000000000000000000000
310
00000000000000000000000000000000000000000000000000000000000000000000000000000000000000000000000000000000000000000000000000000000000000000000000000000000000000000000000000000000000000000000000000000000000000000000000000000000000000000000000000000000000000
310
00000000000000000000000000000000000000000000000000000000000000000000000000000000000000000000000000000000000000000000000000000000000000000000000000000000000000000000000000000000000000000000000000000000000000000000000000000000000000000000000000000000000000
310
00000000000000000000000000000000000000000000000000000000000000000000000000000000000000000000000000000000000000000000000000000000000000000000000000000000000000000000000000000000000000000000000000000000000000000000000000000000000000000000000000000000000000
310
00000000000000000000000000000000000000000000000000000000000000000000000000000000000000000000000000000000000000000000000000000000000000000000000000000000000000000000000000000000000000000000000000000000000000000000000000000000000000000000000000000000000000
310
00000000000000000000000000000000000000000000000000000000000000000000000000000000000000000000000000000000000000000000000000000000000000000000000000000000000000000000000000000000000000000000000000000000000000000000000000000000000000000000000000000000000000
310
00000000000000000000000000000000000000000000000000000000000000000000000000000000000000000000000000000000000000000000000000000000000000000000000000000000000000000000000000000000000000000000000000000000000000000000000000000000000000000000000000000000000000
310
000000000000000000000000000000000000000000000000000000000000000000000000000000000000000000000000000000000000000000000000000000000000000000000000000000000000000000000000000000000000000000000000000000000000000000000000
  0
ENDSEC
  0
EOF
