  0
SECTION
  2
HEADER
  9
$ACADVER
  1
AC1015
  9
$ACADMAINTVER
 70
     6
  9
$DWGCODEPAGE
  3
ANSI_932
  9
$INSBASE
 10
2039.924644995217
 20
269.7584042994665
 30
0.0
  9
$EXTMIN
 10
180.3744930054169
 20
13.68898577990478
 30
0.0
  9
$EXTMAX
 10
1015.538310005416
 20
861.4742620146478
 30
0.0
  9
$LIMMIN
 10
0.0
 20
0.0
  9
$LIMMAX
 10
816.5000000000001
 20
565.0
  9
$ORTHOMODE
 70
     1
  9
$REGENMODE
 70
     1
  9
$FILLMODE
 70
     1
  9
$QTEXTMODE
 70
     0
  9
$MIRRTEXT
 70
     1
  9
$LTSCALE
 40
5.0
  9
$ATTMODE
 70
     1
  9
$TEXTSIZE
 40
9.0
  9
$TRACEWID
 40
0.05
  9
$TEXTSTYLE
  7
KANJI
  9
$CLAYER
  8
2
  9
$CELTYPE
  6
BYLAYER
  9
$CECOLOR
 62
   256
  9
$CELTSCALE
 40
1.0
  9
$DISPSILH
 70
     0
  9
$DIMSCALE
 40
3.0
  9
$DIMASZ
 40
2.0
  9
$DIMEXO
 40
0.5
  9
$DIMDLI
 40
0.0
  9
$DIMRND
 40
0.0
  9
$DIMDLE
 40
0.0
  9
$DIMEXE
 40
1.0
  9
$DIMTP
 40
0.0
  9
$DIMTM
 40
0.0
  9
$DIMTXT
 40
3.0
  9
$DIMCEN
 40
0.09
  9
$DIMTSZ
 40
0.0
  9
$DIMTOL
 70
     0
  9
$DIMLIM
 70
     0
  9
$DIMTIH
 70
     0
  9
$DIMTOH
 70
     0
  9
$DIMSE1
 70
     0
  9
$DIMSE2
 70
     0
  9
$DIMTAD
 70
     0
  9
$DIMZIN
 70
     8
  9
$DIMBLK
  1

  9
$DIMASO
 70
     0
  9
$DIMSHO
 70
     0
  9
$DIMPOST
  1

  9
$DIMAPOST
  1

  9
$DIMALT
 70
     0
  9
$DIMALTD
 70
     2
  9
$DIMALTF
 40
25.4
  9
$DIMLFAC
 40
1.0
  9
$DIMTOFL
 70
     1
  9
$DIMTVP
 40
1.0
  9
$DIMTIX
 70
     1
  9
$DIMSOXD
 70
     1
  9
$DIMSAH
 70
     0
  9
$DIMBLK1
  1

  9
$DIMBLK2
  1

  9
$DIMSTYLE
  2
STANDARD
  9
$DIMCLRD
 70
   256
  9
$DIMCLRE
 70
   256
  9
$DIMCLRT
 70
     2
  9
$DIMTFAC
 40
1.0
  9
$DIMGAP
 40
0.09
  9
$DIMJUST
 70
     0
  9
$DIMSD1
 70
     0
  9
$DIMSD2
 70
     0
  9
$DIMTOLJ
 70
     1
  9
$DIMTZIN
 70
     0
  9
$DIMALTZ
 70
     0
  9
$DIMALTTZ
 70
     0
  9
$DIMUPT
 70
     0
  9
$DIMDEC
 70
     1
  9
$DIMTDEC
 70
     4
  9
$DIMALTU
 70
     2
  9
$DIMALTTD
 70
     2
  9
$DIMTXSTY
  7
STANDARD
  9
$DIMAUNIT
 70
     0
  9
$DIMADEC
 70
     0
  9
$DIMALTRND
 40
0.0
  9
$DIMAZIN
 70
     0
  9
$DIMDSEP
 70
    46
  9
$DIMATFIT
 70
     3
  9
$DIMFRAC
 70
     0
  9
$DIMLDRBLK
  1

  9
$DIMLUNIT
 70
     2
  9
$DIMLWD
 70
    -2
  9
$DIMLWE
 70
    -2
  9
$DIMTMOVE
 70
     0
  9
$LUNITS
 70
     2
  9
$LUPREC
 70
     3
  9
$SKETCHINC
 40
0.1
  9
$FILLETRAD
 40
1.0
  9
$AUNITS
 70
     0
  9
$AUPREC
 70
     3
  9
$MENU
  1
C:\R13\WIN\SUPPORT\ACADFULL
  9
$ELEVATION
 40
0.0
  9
$PELEVATION
 40
0.0
  9
$THICKNESS
 40
0.0
  9
$LIMCHECK
 70
     0
  9
$CHAMFERA
 40
0.0
  9
$CHAMFERB
 40
0.0
  9
$CHAMFERC
 40
0.0
  9
$CHAMFERD
 40
0.0
  9
$SKPOLY
 70
     0
  9
$TDCREATE
 40
2457560.795311099
  9
$TDUCREATE
 40
2457560.420311099
  9
$TDUPDATE
 40
2458124.735061504
  9
$TDUUPDATE
 40
2458124.360061504
  9
$TDINDWG
 40
0.0225047454
  9
$TDUSRTIMER
 40
0.0225038542
  9
$USRTIMER
 70
     1
  9
$ANGBASE
 50
0.0
  9
$ANGDIR
 70
     0
  9
$PDMODE
 70
     0
  9
$PDSIZE
 40
0.0
  9
$PLINEWID
 40
0.0
  9
$SPLFRAME
 70
     0
  9
$SPLINETYPE
 70
     6
  9
$SPLINESEGS
 70
     8
  9
$HANDSEED
  5
66A
  9
$SURFTAB1
 70
     6
  9
$SURFTAB2
 70
     6
  9
$SURFTYPE
 70
     6
  9
$SURFU
 70
     6
  9
$SURFV
 70
     6
  9
$UCSBASE
  2

  9
$UCSNAME
  2

  9
$UCSORG
 10
0.0
 20
0.0
 30
0.0
  9
$UCSXDIR
 10
1.0
 20
0.0
 30
0.0
  9
$UCSYDIR
 10
0.0
 20
1.0
 30
0.0
  9
$UCSORTHOREF
  2

  9
$UCSORTHOVIEW
 70
     0
  9
$UCSORGTOP
 10
0.0
 20
0.0
 30
0.0
  9
$UCSORGBOTTOM
 10
0.0
 20
0.0
 30
0.0
  9
$UCSORGLEFT
 10
0.0
 20
0.0
 30
0.0
  9
$UCSORGRIGHT
 10
0.0
 20
0.0
 30
0.0
  9
$UCSORGFRONT
 10
0.0
 20
0.0
 30
0.0
  9
$UCSORGBACK
 10
0.0
 20
0.0
 30
0.0
  9
$PUCSBASE
  2

  9
$PUCSNAME
  2

  9
$PUCSORG
 10
0.0
 20
0.0
 30
0.0
  9
$PUCSXDIR
 10
1.0
 20
0.0
 30
0.0
  9
$PUCSYDIR
 10
0.0
 20
1.0
 30
0.0
  9
$PUCSORTHOREF
  2

  9
$PUCSORTHOVIEW
 70
     0
  9
$PUCSORGTOP
 10
0.0
 20
0.0
 30
0.0
  9
$PUCSORGBOTTOM
 10
0.0
 20
0.0
 30
0.0
  9
$PUCSORGLEFT
 10
0.0
 20
0.0
 30
0.0
  9
$PUCSORGRIGHT
 10
0.0
 20
0.0
 30
0.0
  9
$PUCSORGFRONT
 10
0.0
 20
0.0
 30
0.0
  9
$PUCSORGBACK
 10
0.0
 20
0.0
 30
0.0
  9
$USERI1
 70
     0
  9
$USERI2
 70
     0
  9
$USERI3
 70
     0
  9
$USERI4
 70
     0
  9
$USERI5
 70
     0
  9
$USERR1
 40
0.0
  9
$USERR2
 40
0.0
  9
$USERR3
 40
0.0
  9
$USERR4
 40
2448925.372986111
  9
$USERR5
 40
0.04166667
  9
$WORLDVIEW
 70
     1
  9
$SHADEDGE
 70
     3
  9
$SHADEDIF
 70
    70
  9
$TILEMODE
 70
     1
  9
$MAXACTVP
 70
    16
  9
$PINSBASE
 10
0.0
 20
0.0
 30
0.0
  9
$PLIMCHECK
 70
     0
  9
$PEXTMIN
 10
1000000000000000E+20
 20
1000000000000000E+20
 30
1000000000000000E+20
  9
$PEXTMAX
 10
-1000000000000000E+20
 20
-1000000000000000E+20
 30
-1000000000000000E+20
  9
$PLIMMIN
 10
0.0
 20
0.0
  9
$PLIMMAX
 10
12.0
 20
9.0
  9
$UNITMODE
 70
     0
  9
$VISRETAIN
 70
     0
  9
$PLINEGEN
 70
     0
  9
$PSLTSCALE
 70
     0
  9
$TREEDEPTH
 70
  3020
  9
$CMLSTYLE
  2
STANDARD
  9
$CMLJUST
 70
     0
  9
$CMLSCALE
 40
1.0
  9
$PROXYGRAPHICS
 70
     1
  9
$MEASUREMENT
 70
     0
  9
$CELWEIGHT
370
    -1
  9
$ENDCAPS
280
     0
  9
$JOINSTYLE
280
     0
  9
$LWDISPLAY
290
     0
  9
$INSUNITS
 70
     0
  9
$HYPERLINKBASE
  1

  9
$STYLESHEET
  1

  9
$XEDIT
290
     1
  9
$CEPSNTYPE
380
     0
  9
$PSTYLEMODE
290
     1
  9
$FINGERPRINTGUID
  2
{81B25329-2D18-4A55-9AC4-44666BCB9DEF}
  9
$VERSIONGUID
  2
{FAEB1C32-E019-11D5-929B-00C0DF256EC4}
  9
$EXTNAMES
290
     1
  9
$PSVPSCALE
 40
0.0
  9
$OLESTARTUP
290
     0
  0
ENDSEC
  0
SECTION
  2
CLASSES
  0
CLASS
  1
ACDBDICTIONARYWDFLT
  2
AcDbDictionaryWithDefault
  3
ObjectDBX Classes
 90
        0
280
     0
281
     0
  0
CLASS
  1
MATERIAL
  2
AcDbMaterial
  3
ObjectDBX Classes
 90
     1153
280
     0
281
     0
  0
CLASS
  1
SORTENTSTABLE
  2
AcDbSortentsTable
  3
ObjectDBX Classes
 90
        0
280
     0
281
     0
  0
CLASS
  1
SCALE
  2
AcDbScale
  3
ObjectDBX Classes
 90
     1153
280
     0
281
     0
  0
CLASS
  1
DIMASSOC
  2
AcDbDimAssoc
  3
"AcDbDimAssoc|Product Desc:     AcDim ARX App For Dimension|Company:          Autodesk, Inc.|WEB Address:      www.autodesk.com"
 90
        0
280
     0
281
     0
  0
CLASS
  1
DICTIONARYVAR
  2
AcDbDictionaryVar
  3
ObjectDBX Classes
 90
        0
280
     0
281
     0
  0
CLASS
  1
VISUALSTYLE
  2
AcDbVisualStyle
  3
ObjectDBX Classes
 90
     4095
280
     0
281
     0
  0
CLASS
  1
TABLESTYLE
  2
AcDbTableStyle
  3
ObjectDBX Classes
 90
     4095
280
     0
281
     0
  0
CLASS
  1
MLEADERSTYLE
  2
AcDbMLeaderStyle
  3
ACDB_MLEADERSTYLE_CLASS
 90
     4095
280
     0
281
     0
  0
CLASS
  1
ACDBPLACEHOLDER
  2
AcDbPlaceHolder
  3
ObjectDBX Classes
 90
        0
280
     0
281
     0
  0
CLASS
  1
LAYOUT
  2
AcDbLayout
  3
ObjectDBX Classes
 90
        0
280
     0
281
     0
  0
ENDSEC
  0
SECTION
  2
TABLES
  0
TABLE
  2
VPORT
  5
26
102
{ACAD_XDICTIONARY
360
62F
102
}
330
0
100
AcDbSymbolTable
 70
     2
  0
VPORT
  5
2B
330
26
100
AcDbSymbolTableRecord
100
AcDbViewportTableRecord
  2
*ACTIVE
 70
     0
 10
0.0
 20
0.0
 11
1.0
 21
1.0
 12
1071.278239145969
 22
474.4329344677109
 13
0.0
 23
0.0
 14
1.0
 24
1.0
 15
50.0
 25
50.0
 16
0.0
 26
0.0
 36
1.0
 17
0.0
 27
0.0
 37
0.0
 40
1103.435127286064
 41
1.827160493827161
 42
50.0
 43
0.0
 44
0.0
 50
0.0
 51
0.0
 71
     0
 72
 20000
 73
     1
 74
     0
 75
     0
 76
     0
 77
     0
 78
     0
281
     0
 65
     1
110
0.0
120
0.0
130
0.0
111
1.0
121
0.0
131
0.0
112
0.0
122
1.0
132
0.0
 79
     0
146
0.0
  0
ENDTAB
  0
TABLE
  2
LTYPE
  5
B
330
0
100
AcDbSymbolTable
 70
     2
  0
LTYPE
  5
C
330
B
100
AcDbSymbolTableRecord
100
AcDbLinetypeTableRecord
  2
BYBLOCK
 70
     0
  3

 72
    65
 73
     0
 40
0.0
  0
LTYPE
  5
D
330
B
100
AcDbSymbolTableRecord
100
AcDbLinetypeTableRecord
  2
BYLAYER
 70
     0
  3

 72
    65
 73
     0
 40
0.0
  0
LTYPE
  5
A
330
B
100
AcDbSymbolTableRecord
100
AcDbLinetypeTableRecord
  2
CONTINUOUS
 70
     0
  3
Solid line
 72
    65
 73
     0
 40
0.0
  0
LTYPE
  5
7A
330
B
100
AcDbSymbolTableRecord
100
AcDbLinetypeTableRecord
  2
CENTER
 70
     0
  3
____ _ ____ _ ____ _ ____ _ ____ _ ____ _ ____
 72
    65
 73
     4
 40
2.0
 49
1.25
 74
     0
 49
-0.25
 74
     0
 49
0.25
 74
     0
 49
-0.25
 74
     0
  0
ENDTAB
  0
TABLE
  2
LAYER
  5
2
330
0
100
AcDbSymbolTable
 70
    10
  0
LAYER
  5
1B
330
2
100
AcDbSymbolTableRecord
100
AcDbLayerTableRecord
  2
0
 70
     0
 62
     7
  6
CONTINUOUS
370
    -3
390
3
  0
LAYER
  5
3F6
330
2
100
AcDbSymbolTableRecord
100
AcDbLayerTableRecord
  2
1
 70
     0
 62
     9
  6
CONTINUOUS
370
    -3
390
3
  0
LAYER
  5
1
330
2
100
AcDbSymbolTableRecord
100
AcDbLayerTableRecord
  2
2
 70
     0
 62
     4
  6
CONTINUOUS
370
    -3
390
3
  0
LAYER
  5
7C
330
2
100
AcDbSymbolTableRecord
100
AcDbLayerTableRecord
  2
4
 70
     0
 62
     3
  6
CONTINUOUS
370
    -3
390
3
  0
LAYER
  5
79
330
2
100
AcDbSymbolTableRecord
100
AcDbLayerTableRecord
  2
L-CENTER
 70
     0
 62
     1
  6
CENTER
370
    -3
390
3
  0
LAYER
  5
8E
330
2
100
AcDbSymbolTableRecord
100
AcDbLayerTableRecord
  2
3
 70
     0
 62
     2
  6
CONTINUOUS
370
    -3
390
3
  0
LAYER
  5
3F0
330
2
100
AcDbSymbolTableRecord
100
AcDbLayerTableRecord
  2
5
 70
     0
 62
     6
  6
CONTINUOUS
370
    -3
390
3
  0
LAYER
  5
3CB
330
2
100
AcDbSymbolTableRecord
100
AcDbLayerTableRecord
  2
DEFPOINTS
 70
     0
 62
     7
  6
CONTINUOUS
290
     0
370
    -3
390
3
  0
LAYER
  5
88
102
{ACAD_XDICTIONARY
360
89
102
}
330
2
100
AcDbSymbolTableRecord
100
AcDbLayerTableRecord
  2
CENTER
 70
     0
 62
     1
  6
CENTER
370
    -3
390
3
  0
ENDTAB
  0
TABLE
  2
STYLE
  5
F
330
0
100
AcDbSymbolTable
 70
     2
  0
STYLE
  5
13
330
F
100
AcDbSymbolTableRecord
100
AcDbTextStyleTableRecord
  2
STANDARD
 70
     0
 40
0.0
 41
1.0
 50
0.0
 71
     0
 42
5.4
  3
TXT
  4

  0
STYLE
  5
E
330
F
100
AcDbSymbolTableRecord
100
AcDbTextStyleTableRecord
  2
KANJI
 70
     0
 40
0.0
 41
1.0
 50
0.0
 71
     0
 42
9.0
  3
TXT
  4
BIGFONT
  0
ENDTAB
  0
TABLE
  2
VIEW
  5
24
330
0
100
AcDbSymbolTable
 70
     0
  0
ENDTAB
  0
TABLE
  2
UCS
  5
25
330
0
100
AcDbSymbolTable
 70
     0
  0
ENDTAB
  0
TABLE
  2
APPID
  5
9
330
0
100
AcDbSymbolTable
 70
     5
  0
APPID
  5
8
330
9
100
AcDbSymbolTableRecord
100
AcDbRegAppTableRecord
  2
ACAD
 70
     0
  0
APPID
  5
1F
330
9
100
AcDbSymbolTableRecord
100
AcDbRegAppTableRecord
  2
ACAD_PSEXT
 70
     0
  0
APPID
  5
5A3
330
9
100
AcDbSymbolTableRecord
100
AcDbRegAppTableRecord
  2
ACAD_MLEADERVER
 70
     0
  0
ENDTAB
  0
TABLE
  2
DIMSTYLE
  5
12
330
0
100
AcDbSymbolTable
 70
     1
100
AcDbDimStyleTable
  0
DIMSTYLE
105
11
330
12
100
AcDbSymbolTableRecord
100
AcDbDimStyleTableRecord
  2
STANDARD
 70
     0
178
     0
340
13
  0
ENDTAB
  0
TABLE
  2
BLOCK_RECORD
  5
16
330
0
100
AcDbSymbolTable
 70
    27
  0
BLOCK_RECORD
  5
17
102
{ACAD_XDICTIONARY
360
18
102
}
330
16
100
AcDbSymbolTableRecord
100
AcDbBlockTableRecord
  2
*MODEL_SPACE
340
1D
  0
BLOCK_RECORD
  5
20
330
16
100
AcDbSymbolTableRecord
100
AcDbBlockTableRecord
  2
*PAPER_SPACE
340
23
  0
BLOCK_RECORD
  5
55F
330
16
100
AcDbSymbolTableRecord
100
AcDbBlockTableRecord
  2
*D18
340
0
  0
BLOCK_RECORD
  5
577
330
16
100
AcDbSymbolTableRecord
100
AcDbBlockTableRecord
  2
*D20
340
0
  0
BLOCK_RECORD
  5
5E2
330
16
100
AcDbSymbolTableRecord
100
AcDbBlockTableRecord
  2
*D22
340
0
  0
BLOCK_RECORD
  5
5F1
330
16
100
AcDbSymbolTableRecord
100
AcDbBlockTableRecord
  2
*D23
340
0
  0
BLOCK_RECORD
  5
600
330
16
100
AcDbSymbolTableRecord
100
AcDbBlockTableRecord
  2
*D24
340
0
  0
BLOCK_RECORD
  5
60F
330
16
100
AcDbSymbolTableRecord
100
AcDbBlockTableRecord
  2
*D25
340
0
  0
BLOCK_RECORD
  5
61C
330
16
100
AcDbSymbolTableRecord
100
AcDbBlockTableRecord
  2
*D26
340
0
  0
ENDTAB
  0
ENDSEC
  0
SECTION
  2
BLOCKS
  0
BLOCK
  5
1A
330
17
100
AcDbEntity
  8
0
100
AcDbBlockBegin
  2
*MODEL_SPACE
 70
     0
 10
0.0
 20
0.0
 30
0.0
  3
*MODEL_SPACE
  1

  0
ENDBLK
  5
1C
330
17
100
AcDbEntity
  8
0
100
AcDbBlockEnd
  0
BLOCK
  5
21
330
20
100
AcDbEntity
 67
     1
  8
0
100
AcDbBlockBegin
  2
*PAPER_SPACE
 70
     0
 10
0.0
 20
0.0
 30
0.0
  3
*PAPER_SPACE
  1

  0
ENDBLK
  5
22
330
20
100
AcDbEntity
 67
     1
  8
0
100
AcDbBlockEnd
  0
BLOCK
  5
569
330
55F
100
AcDbEntity
  8
2
100
AcDbBlockBegin
  2
*D18
 70
     1
 10
0.0
 20
0.0
 30
0.0
  3
*D18
  1
Acad:XRef
  0
LINE
  5
560
330
55F
100
AcDbEntity
  8
2
370
    -2
100
AcDbLine
 10
1011.874494005417
 20
451.6411409764259
 30
0.0
 11
1112.015505891906
 21
451.6411409764259
 31
0.0
  0
LINE
  5
561
330
55F
100
AcDbEntity
  8
2
370
    -2
100
AcDbLine
 10
919.8748350054167
 20
371.641139976426
 30
0.0
 11
1112.015505891906
 21
371.641139976426
 31
0.0
  0
LINE
  5
562
330
55F
100
AcDbEntity
  8
2
370
    -2
100
AcDbLine
 10
1109.015505891906
 20
445.6411409764259
 30
0.0
 11
1109.015505891906
 21
377.641139976426
 31
0.0
  0
SOLID
  5
563
330
55F
100
AcDbEntity
  8
2
100
AcDbTrace
 10
1110.015505891906
 20
445.6411409764259
 30
0.0
 11
1108.015505891906
 21
445.6411409764259
 31
0.0
 12
1109.015505891906
 22
451.6411409764259
 32
0.0
 13
1109.015505891906
 23
451.6411409764259
 33
0.0
  0
SOLID
  5
564
330
55F
100
AcDbEntity
  8
2
100
AcDbTrace
 10
1108.015505891906
 20
377.641139976426
 30
0.0
 11
1110.015505891906
 21
377.641139976426
 31
0.0
 12
1109.015505891906
 22
371.641139976426
 32
0.0
 13
1109.015505891906
 23
371.641139976426
 33
0.0
  0
MTEXT
  5
565
330
55F
100
AcDbEntity
  8
2
 62
     2
100
AcDbMText
 10
1100.015505891906
 20
411.641140476426
 30
0.0
 40
9.0
 41
0.0
 71
     5
 72
     1
  1
\A1;80
 11
0.0
 21
1.0
 31
0.0
 73
     1
 44
1.0
  0
POINT
  5
566
330
55F
100
AcDbEntity
  8
DEFPOINTS
 62
     0
100
AcDbPoint
 10
1010.374494005417
 20
451.6411409764259
 30
0.0
  0
POINT
  5
567
330
55F
100
AcDbEntity
  8
DEFPOINTS
 62
     0
100
AcDbPoint
 10
918.3748350054167
 20
371.641139976426
 30
0.0
  0
POINT
  5
568
330
55F
100
AcDbEntity
  8
DEFPOINTS
 62
     0
100
AcDbPoint
 10
1109.015505891906
 20
371.641139976426
 30
0.0
  0
ENDBLK
  5
56A
330
55F
100
AcDbEntity
  8
2
100
AcDbBlockEnd
  0
BLOCK
  5
581
330
577
100
AcDbEntity
  8
2
100
AcDbBlockBegin
  2
*D20
 70
     1
 10
0.0
 20
0.0
 30
0.0
  3
*D20
  1
Acad:XRef
  0
LINE
  5
578
330
577
100
AcDbEntity
  8
2
370
    -2
100
AcDbLine
 10
664.8062114410956
 20
655.641140976426
 30
0.0
 11
626.6053387483317
 21
655.641140976426
 31
0.0
  0
LINE
  5
579
330
577
100
AcDbEntity
  8
2
370
    -2
100
AcDbLine
 10
664.8062114410956
 20
451.6411409764259
 30
0.0
 11
626.6053387483317
 21
451.6411409764259
 31
0.0
  0
LINE
  5
57A
330
577
100
AcDbEntity
  8
2
370
    -2
100
AcDbLine
 10
629.6053387483317
 20
649.641140976426
 30
0.0
 11
629.6053387483317
 21
457.6411409764259
 31
0.0
  0
SOLID
  5
57B
330
577
100
AcDbEntity
  8
2
100
AcDbTrace
 10
630.6053387483317
 20
649.641140976426
 30
0.0
 11
628.6053387483317
 21
649.641140976426
 31
0.0
 12
629.6053387483317
 22
655.641140976426
 32
0.0
 13
629.6053387483317
 23
655.641140976426
 33
0.0
  0
SOLID
  5
57C
330
577
100
AcDbEntity
  8
2
100
AcDbTrace
 10
628.6053387483317
 20
457.6411409764259
 30
0.0
 11
630.6053387483317
 21
457.6411409764259
 31
0.0
 12
629.6053387483317
 22
451.6411409764259
 32
0.0
 13
629.6053387483317
 23
451.6411409764259
 33
0.0
  0
MTEXT
  5
57D
330
577
100
AcDbEntity
  8
2
 62
     2
100
AcDbMText
 10
620.6053387483317
 20
553.641140976426
 30
0.0
 40
9.0
 41
0.0
 71
     5
 72
     1
  1
\A1;204
 11
0.0
 21
1.0
 31
0.0
 73
     1
 44
1.0
  0
POINT
  5
57E
330
577
100
AcDbEntity
  8
DEFPOINTS
 62
     0
100
AcDbPoint
 10
666.3062114410956
 20
655.641140976426
 30
0.0
  0
POINT
  5
57F
330
577
100
AcDbEntity
  8
DEFPOINTS
 62
     0
100
AcDbPoint
 10
666.3062114410956
 20
451.6411409764259
 30
0.0
  0
POINT
  5
580
330
577
100
AcDbEntity
  8
DEFPOINTS
 62
     0
100
AcDbPoint
 10
629.6053387483317
 20
451.6411409764259
 30
0.0
  0
ENDBLK
  5
582
330
577
100
AcDbEntity
  8
2
100
AcDbBlockEnd
  0
BLOCK
  5
5EC
330
5E2
100
AcDbEntity
  8
2
100
AcDbBlockBegin
  2
*D22
 70
     1
 10
0.0
 20
0.0
 30
0.0
  3
*D22
  1
Acad:XRef
  0
LINE
  5
5E3
330
5E2
100
AcDbEntity
  8
2
370
    -2
100
AcDbLine
 10
876.3748350054167
 20
371.641139976426
 30
0.0
 11
853.2538702924453
 21
371.641139976426
 31
0.0
  0
LINE
  5
5E4
330
5E2
100
AcDbEntity
  8
2
370
    -2
100
AcDbLine
 10
878.8748370054169
 20
451.6411409764259
 30
0.0
 11
853.2538702924453
 21
451.6411409764259
 31
0.0
  0
LINE
  5
5E5
330
5E2
100
AcDbEntity
  8
2
370
    -2
100
AcDbLine
 10
856.2538702924453
 20
377.641139976426
 30
0.0
 11
856.2538702924453
 21
445.6411409764259
 31
0.0
  0
SOLID
  5
5E6
330
5E2
100
AcDbEntity
  8
2
100
AcDbTrace
 10
855.2538702924453
 20
377.641139976426
 30
0.0
 11
857.2538702924453
 21
377.641139976426
 31
0.0
 12
856.2538702924453
 22
371.641139976426
 32
0.0
 13
856.2538702924453
 23
371.641139976426
 33
0.0
  0
SOLID
  5
5E7
330
5E2
100
AcDbEntity
  8
2
100
AcDbTrace
 10
857.2538702924453
 20
445.6411409764259
 30
0.0
 11
855.2538702924453
 21
445.6411409764259
 31
0.0
 12
856.2538702924453
 22
451.6411409764259
 32
0.0
 13
856.2538702924453
 23
451.6411409764259
 33
0.0
  0
MTEXT
  5
5E8
330
5E2
100
AcDbEntity
  8
2
 62
     2
100
AcDbMText
 10
847.2538702924453
 20
411.641140476426
 30
0.0
 40
9.0
 41
0.0
 71
     5
 72
     1
  1
\A1;80
 11
0.0
 21
1.0
 31
0.0
 73
     1
 44
1.0
  0
POINT
  5
5E9
330
5E2
100
AcDbEntity
  8
DEFPOINTS
 62
     0
100
AcDbPoint
 10
877.8748350054167
 20
371.641139976426
 30
0.0
  0
POINT
  5
5EA
330
5E2
100
AcDbEntity
  8
DEFPOINTS
 62
     0
100
AcDbPoint
 10
880.3748370054169
 20
451.6411409764259
 30
0.0
  0
POINT
  5
5EB
330
5E2
100
AcDbEntity
  8
DEFPOINTS
 62
     0
100
AcDbPoint
 10
856.2538702924453
 20
451.6411409764259
 30
0.0
  0
ENDBLK
  5
5ED
330
5E2
100
AcDbEntity
  8
2
100
AcDbBlockEnd
  0
BLOCK
  5
5FB
330
5F1
100
AcDbEntity
  8
2
100
AcDbBlockBegin
  2
*D23
 70
     1
 10
0.0
 20
0.0
 30
0.0
  3
*D23
  1
Acad:XRef
  0
LINE
  5
5F2
330
5F1
100
AcDbEntity
  8
2
370
    -2
100
AcDbLine
 10
876.3748350054167
 20
711.6411419764258
 30
0.0
 11
853.2538702924453
 21
711.6411419764258
 31
0.0
  0
LINE
  5
5F3
330
5F1
100
AcDbEntity
  8
2
370
    -2
100
AcDbLine
 10
878.8748370054169
 20
631.641140976426
 30
0.0
 11
853.2538702924453
 21
631.641140976426
 31
0.0
  0
LINE
  5
5F4
330
5F1
100
AcDbEntity
  8
2
370
    -2
100
AcDbLine
 10
856.2538702924453
 20
705.6411419764258
 30
0.0
 11
856.2538702924453
 21
637.641140976426
 31
0.0
  0
SOLID
  5
5F5
330
5F1
100
AcDbEntity
  8
2
100
AcDbTrace
 10
857.2538702924453
 20
705.6411419764258
 30
0.0
 11
855.2538702924453
 21
705.6411419764258
 31
0.0
 12
856.2538702924453
 22
711.6411419764258
 32
0.0
 13
856.2538702924453
 23
711.6411419764258
 33
0.0
  0
SOLID
  5
5F6
330
5F1
100
AcDbEntity
  8
2
100
AcDbTrace
 10
855.2538702924453
 20
637.641140976426
 30
0.0
 11
857.2538702924453
 21
637.641140976426
 31
0.0
 12
856.2538702924453
 22
631.641140976426
 32
0.0
 13
856.2538702924453
 23
631.641140976426
 33
0.0
  0
MTEXT
  5
5F7
330
5F1
100
AcDbEntity
  8
2
 62
     2
100
AcDbMText
 10
847.2538702924453
 20
671.6411414764259
 30
0.0
 40
9.0
 41
0.0
 71
     5
 72
     1
  1
\A1;80
 11
0.0
 21
1.0
 31
0.0
 73
     1
 44
1.0
  0
POINT
  5
5F8
330
5F1
100
AcDbEntity
  8
DEFPOINTS
 62
     0
100
AcDbPoint
 10
877.8748350054167
 20
711.6411419764258
 30
0.0
  0
POINT
  5
5F9
330
5F1
100
AcDbEntity
  8
DEFPOINTS
 62
     0
100
AcDbPoint
 10
880.3748370054169
 20
631.641140976426
 30
0.0
  0
POINT
  5
5FA
330
5F1
100
AcDbEntity
  8
DEFPOINTS
 62
     0
100
AcDbPoint
 10
856.2538702924453
 20
631.641140976426
 30
0.0
  0
ENDBLK
  5
5FC
330
5F1
100
AcDbEntity
  8
2
100
AcDbBlockEnd
  0
BLOCK
  5
60A
330
600
100
AcDbEntity
  8
2
100
AcDbBlockBegin
  2
*D24
 70
     1
 10
0.0
 20
0.0
 30
0.0
  3
*D24
  1
Acad:XRef
  0
LINE
  5
601
330
600
100
AcDbEntity
  8
2
370
    -2
100
AcDbLine
 10
1017.038310005417
 20
541.641140976426
 30
0.0
 11
1087.286564450882
 21
541.641140976426
 31
0.0
  0
LINE
  5
602
330
600
100
AcDbEntity
  8
2
370
    -2
100
AcDbLine
 10
919.8748350054167
 20
711.6411419764258
 30
0.0
 11
1087.286564450882
 21
711.6411419764258
 31
0.0
  0
LINE
  5
603
330
600
100
AcDbEntity
  8
2
370
    -2
100
AcDbLine
 10
1084.286564450882
 20
547.641140976426
 30
0.0
 11
1084.286564450882
 21
705.6411419764258
 31
0.0
  0
SOLID
  5
604
330
600
100
AcDbEntity
  8
2
100
AcDbTrace
 10
1083.286564450882
 20
547.641140976426
 30
0.0
 11
1085.286564450882
 21
547.641140976426
 31
0.0
 12
1084.286564450882
 22
541.641140976426
 32
0.0
 13
1084.286564450882
 23
541.641140976426
 33
0.0
  0
SOLID
  5
605
330
600
100
AcDbEntity
  8
2
100
AcDbTrace
 10
1085.286564450882
 20
705.6411419764258
 30
0.0
 11
1083.286564450882
 21
705.6411419764258
 31
0.0
 12
1084.286564450882
 22
711.6411419764258
 32
0.0
 13
1084.286564450882
 23
711.6411419764258
 33
0.0
  0
MTEXT
  5
606
330
600
100
AcDbEntity
  8
2
 62
     2
100
AcDbMText
 10
1075.286564450882
 20
626.6411414764259
 30
0.0
 40
9.0
 41
0.0
 71
     5
 72
     1
  1
\A1;170
 11
0.0
 21
1.0
 31
0.0
 73
     1
 44
1.0
  0
POINT
  5
607
330
600
100
AcDbEntity
  8
DEFPOINTS
 62
     0
100
AcDbPoint
 10
1015.538310005417
 20
541.641140976426
 30
0.0
  0
POINT
  5
608
330
600
100
AcDbEntity
  8
DEFPOINTS
 62
     0
100
AcDbPoint
 10
918.3748350054167
 20
711.6411419764258
 30
0.0
  0
POINT
  5
609
330
600
100
AcDbEntity
  8
DEFPOINTS
 62
     0
100
AcDbPoint
 10
1084.286564450882
 20
711.6411419764258
 30
0.0
  0
ENDBLK
  5
60B
330
600
100
AcDbEntity
  8
2
100
AcDbBlockEnd
  0
BLOCK
  5
619
330
60F
100
AcDbEntity
  8
2
100
AcDbBlockBegin
  2
*D25
 70
     1
 10
0.0
 20
0.0
 30
0.0
  3
*D25
  1
Acad:XRef
  0
LINE
  5
610
330
60F
100
AcDbEntity
  8
2
370
    -2
100
AcDbLine
 10
1085.786564450882
 20
451.6411409764259
 30
0.0
 11
1112.015505891906
 21
451.6411409764259
 31
0.0
  0
LINE
  5
611
330
60F
100
AcDbEntity
  8
2
370
    -2
100
AcDbLine
 10
1085.786564450882
 20
711.6411419764258
 30
0.0
 11
1112.015505891906
 21
711.6411419764258
 31
0.0
  0
LINE
  5
612
330
60F
100
AcDbEntity
  8
2
370
    -2
100
AcDbLine
 10
1109.015505891906
 20
457.6411409764259
 30
0.0
 11
1109.015505891906
 21
705.6411419764258
 31
0.0
  0
SOLID
  5
613
330
60F
100
AcDbEntity
  8
2
100
AcDbTrace
 10
1108.015505891906
 20
457.6411409764259
 30
0.0
 11
1110.015505891906
 21
457.6411409764259
 31
0.0
 12
1109.015505891906
 22
451.6411409764259
 32
0.0
 13
1109.015505891906
 23
451.6411409764259
 33
0.0
  0
SOLID
  5
614
330
60F
100
AcDbEntity
  8
2
100
AcDbTrace
 10
1110.015505891906
 20
705.6411419764258
 30
0.0
 11
1108.015505891906
 21
705.6411419764258
 31
0.0
 12
1109.015505891906
 22
711.6411419764258
 32
0.0
 13
1109.015505891906
 23
711.6411419764258
 33
0.0
  0
MTEXT
  5
615
330
60F
100
AcDbEntity
  8
2
 62
     2
100
AcDbMText
 10
1100.015505891906
 20
581.6411414764259
 30
0.0
 40
9.0
 41
0.0
 71
     5
 72
     1
  1
\A1;260
 11
0.0
 21
1.0
 31
0.0
 73
     1
 44
1.0
  0
POINT
  5
616
330
60F
100
AcDbEntity
  8
DEFPOINTS
 62
     0
100
AcDbPoint
 10
1084.286564450882
 20
451.6411409764259
 30
0.0
  0
POINT
  5
617
330
60F
100
AcDbEntity
  8
DEFPOINTS
 62
     0
100
AcDbPoint
 10
1084.286564450882
 20
711.6411419764258
 30
0.0
  0
POINT
  5
618
330
60F
100
AcDbEntity
  8
DEFPOINTS
 62
     0
100
AcDbPoint
 10
1109.015505891906
 20
711.6411419764258
 30
0.0
  0
ENDBLK
  5
61A
330
60F
100
AcDbEntity
  8
2
100
AcDbBlockEnd
  0
BLOCK
  5
626
330
61C
100
AcDbEntity
  8
2
100
AcDbBlockBegin
  2
*D26
 70
     1
 10
0.0
 20
0.0
 30
0.0
  3
*D26
  1
Acad:XRef
  0
LINE
  5
61D
330
61C
100
AcDbEntity
  8
2
370
    -2
100
AcDbLine
 10
1110.515505891906
 20
371.641139976426
 30
0.0
 11
1135.283527149728
 21
371.641139976426
 31
0.0
  0
LINE
  5
61E
330
61C
100
AcDbEntity
  8
2
370
    -2
100
AcDbLine
 10
1110.515505891906
 20
711.6411419764258
 30
0.0
 11
1135.283527149728
 21
711.6411419764258
 31
0.0
  0
LINE
  5
61F
330
61C
100
AcDbEntity
  8
2
370
    -2
100
AcDbLine
 10
1132.283527149728
 20
377.641139976426
 30
0.0
 11
1132.283527149728
 21
705.6411419764258
 31
0.0
  0
SOLID
  5
620
330
61C
100
AcDbEntity
  8
2
100
AcDbTrace
 10
1131.283527149728
 20
377.641139976426
 30
0.0
 11
1133.283527149728
 21
377.641139976426
 31
0.0
 12
1132.283527149728
 22
371.641139976426
 32
0.0
 13
1132.283527149728
 23
371.641139976426
 33
0.0
  0
SOLID
  5
621
330
61C
100
AcDbEntity
  8
2
100
AcDbTrace
 10
1133.283527149728
 20
705.6411419764258
 30
0.0
 11
1131.283527149728
 21
705.6411419764258
 31
0.0
 12
1132.283527149728
 22
711.6411419764258
 32
0.0
 13
1132.283527149728
 23
711.6411419764258
 33
0.0
  0
MTEXT
  5
622
330
61C
100
AcDbEntity
  8
2
 62
     2
100
AcDbMText
 10
1123.283527149728
 20
541.641140976426
 30
0.0
 40
9.0
 41
0.0
 71
     5
 72
     1
  1
\A1;340
 11
0.0
 21
1.0
 31
0.0
 73
     1
 44
1.0
  0
POINT
  5
623
330
61C
100
AcDbEntity
  8
DEFPOINTS
 62
     0
100
AcDbPoint
 10
1109.015505891906
 20
371.641139976426
 30
0.0
  0
POINT
  5
624
330
61C
100
AcDbEntity
  8
DEFPOINTS
 62
     0
100
AcDbPoint
 10
1109.015505891906
 20
711.6411419764258
 30
0.0
  0
POINT
  5
625
330
61C
100
AcDbEntity
  8
DEFPOINTS
 62
     0
100
AcDbPoint
 10
1132.283527149728
 20
711.6411419764258
 30
0.0
  0
ENDBLK
  5
627
330
61C
100
AcDbEntity
  8
2
100
AcDbBlockEnd
  0
ENDSEC
  0
SECTION
  2
ENTITIES
  0
LINE
  5
78
330
17
100
AcDbEntity
  8
L-CENTER
 48
3.0
100
AcDbLine
 10
300.3744930054169
 20
360.2954130697528
 30
0.0
 11
300.3744930054169
 21
13.68898577990461
 31
0.0
  0
LINE
  5
7B
330
17
100
AcDbEntity
  8
4
100
AcDbLine
 10
305.3744940054168
 20
17.45208677349177
 30
0.0
 11
305.3744940054168
 21
87.45208877349154
 31
0.0
  0
LINE
  5
7D
330
17
100
AcDbEntity
  8
4
100
AcDbLine
 10
295.374492005417
 20
17.45208677349177
 30
0.0
 11
295.374492005417
 21
87.45208877349154
 31
0.0
  0
LINE
  5
7E
330
17
100
AcDbEntity
  8
4
100
AcDbLine
 10
319.374492005417
 20
18.45208877349154
 30
0.0
 11
319.374492005417
 21
97.45208777349166
 31
0.0
  0
LINE
  5
7F
330
17
100
AcDbEntity
  8
4
100
AcDbLine
 10
281.3744940054168
 20
18.45208877349154
 30
0.0
 11
281.3744940054168
 21
97.45208777349166
 31
0.0
  0
LINE
  5
83
330
17
100
AcDbEntity
  8
L-CENTER
 48
3.0
100
AcDbLine
 10
312.9702870054174
 20
187.4520877734917
 30
0.0
 11
487.7786970054166
 21
187.4520877734917
 31
0.0
  0
LINE
  5
84
330
17
100
AcDbEntity
  8
4
100
AcDbLine
 10
313.374492005417
 20
247.4520877734917
 30
0.0
 11
192.3744930054169
 21
247.4520877734917
 31
0.0
  0
LINE
  5
85
330
17
100
AcDbEntity
  8
4
100
AcDbLine
 10
257.3744940054168
 20
117.4520887734915
 30
0.0
 11
183.3744930054169
 21
117.4520887734915
 31
0.0
  0
LINE
  5
86
330
17
100
AcDbEntity
  8
4
100
AcDbLine
 10
260.3744940054168
 20
97.45208777349166
 30
0.0
 11
180.3744930054169
 21
97.45208777349166
 31
0.0
  0
LINE
  5
87
330
17
100
AcDbEntity
  8
CENTER
100
AcDbLine
 10
194.6021125457979
 20
119.4520877734917
 30
0.0
 11
185.2947247087094
 21
119.4520877734917
 31
0.0
  0
LINE
  5
8B
330
17
100
AcDbEntity
  8
4
100
AcDbLine
 10
313.374492005417
 20
259.7520877734917
 30
0.0
 11
192.3742740054171
 21
259.7520877734917
 31
0.0
  0
LINE
  5
AB
330
17
100
AcDbEntity
  8
4
100
AcDbLine
 10
189.3744930054169
 20
117.4520887734915
 30
0.0
 11
189.3744930054169
 21
155.4520867734918
 31
0.0
  0
LINE
  5
AC
330
17
100
AcDbEntity
  8
4
100
AcDbLine
 10
192.3744930054169
 20
120.4520887734915
 30
0.0
 11
192.3744930054169
 21
259.7520877734917
 31
0.0
  0
LINE
  5
B0
330
17
100
AcDbEntity
  8
4
100
AcDbLine
 10
180.3744930054169
 20
97.45208777349166
 30
0.0
 11
180.3744930054169
 21
114.4520887734915
 31
0.0
  0
ARC
  5
B1
330
17
100
AcDbEntity
  8
4
100
AcDbCircle
 10
183.3744930054169
 20
114.4520887734915
 30
0.0
 40
3.0
100
AcDbArc
 50
90.0
 51
180.0
  0
LINE
  5
B5
330
17
100
AcDbEntity
  8
L-CENTER
 48
3.0
100
AcDbLine
 10
200.3744940054168
 20
91.45208777349166
 30
0.0
 11
200.3744940054168
 21
123.4520887734915
 31
0.0
  0
ARC
  5
B6
330
17
100
AcDbEntity
  8
4
100
AcDbCircle
 10
189.3744930054169
 20
120.4520887734915
 30
0.0
 40
3.0
100
AcDbArc
 50
270.0
 51
0.0
  0
LINE
  5
B7
330
17
100
AcDbEntity
  8
4
100
AcDbLine
 10
188.3744940054168
 20
155.4520867734918
 30
0.0
 11
188.3744940054168
 21
195.4520887734916
 31
0.0
  0
LINE
  5
B8
330
17
100
AcDbEntity
  8
4
100
AcDbLine
 10
189.3744930054169
 20
155.4520867734918
 30
0.0
 11
188.3744940054168
 21
155.4520867734918
 31
0.0
  0
ARC
  5
B9
330
17
100
AcDbEntity
  8
4
100
AcDbCircle
 10
189.3744930054169
 20
198.4520887734916
 30
0.0
 40
3.0
100
AcDbArc
 50
270.0
 51
0.0
  0
LINE
  5
BA
330
17
100
AcDbEntity
  8
4
100
AcDbLine
 10
189.3744930054169
 20
195.4520887734916
 30
0.0
 11
188.3744940054168
 21
195.4520887734916
 31
0.0
  0
LINE
  5
BB
330
17
100
AcDbEntity
  8
L-CENTER
 48
3.0
100
AcDbLine
 10
214.6379780307576
 20
270.3177845788418
 30
0.0
 11
214.6379780307576
 21
239.8279781707522
 31
0.0
  0
CIRCLE
  5
E2
330
17
100
AcDbEntity
  8
4
100
AcDbCircle
 10
400.374492005417
 20
187.4520877734917
 30
0.0
 40
23.5
  0
LINE
  5
E4
330
17
100
AcDbEntity
  8
L-CENTER
 48
3.0
100
AcDbLine
 10
310.98937787138
 20
263.4520867734918
 30
0.0
 11
532.5643249036043
 21
263.4520867734918
 31
0.0
  0
LINE
  5
E5
330
17
100
AcDbEntity
  8
4
100
AcDbLine
 10
485.3744940054168
 20
97.45208777349166
 30
0.0
 11
385.374492005417
 21
97.45208777349166
 31
0.0
  0
ARC
  5
E6
330
17
100
AcDbEntity
  8
4
100
AcDbCircle
 10
400.374492005417
 20
-31.54791222650834
 30
0.0
 40
300.0
100
AcDbArc
 50
76.42634
 51
103.57366
  0
ARC
  5
E7
330
17
100
AcDbEntity
  8
4
100
AcDbCircle
 10
400.374492005417
 20
406.4520877734917
 30
0.0
 40
300.0
100
AcDbArc
 50
256.42634
 51
283.57366
  0
LINE
  5
E8
330
17
100
AcDbEntity
  8
4
100
AcDbLine
 10
481.374492005417
 20
301.4520877734917
 30
0.0
 11
319.374492005417
 21
301.4520877734917
 31
0.0
  0
ARC
  5
E9
330
17
100
AcDbEntity
  8
4
100
AcDbCircle
 10
423.4357350054171
 20
153.6885697734917
 30
0.0
 40
3.999999
100
AcDbArc
 50
98.61234199999963
 51
172.3560449999989
  0
ARC
  5
EA
330
17
100
AcDbEntity
  8
4
100
AcDbCircle
 10
419.4657990054171
 20
131.6262367734916
 30
0.0
 40
3.0
100
AcDbArc
 50
172.3560449999988
 51
288.8796439999998
  0
LINE
  5
EB
330
17
100
AcDbEntity
  8
4
100
AcDbLine
 10
419.4712800054166
 20
154.2206377734919
 30
0.0
 11
416.4924570054167
 21
132.0252877734917
 31
0.0
  0
ARC
  5
EC
330
17
100
AcDbEntity
  8
4
100
AcDbCircle
 10
423.4357350054171
 20
221.2156057734917
 30
0.0
 40
3.999999
100
AcDbArc
 50
187.6439550000011
 51
261.3876579999996
  0
ARC
  5
ED
330
17
100
AcDbEntity
  8
4
100
AcDbCircle
 10
419.4657990054171
 20
243.2779387734918
 30
0.0
 40
3.0
100
AcDbArc
 50
71.12035599999983
 51
187.6439550000011
  0
LINE
  5
EE
330
17
100
AcDbEntity
  8
4
100
AcDbLine
 10
419.4712800054166
 20
220.6835377734915
 30
0.0
 11
416.4924570054167
 21
242.8788877734917
 31
0.0
  0
ARC
  5
EF
330
17
100
AcDbEntity
  8
4
100
AcDbCircle
 10
400.374492005417
 20
307.4520877734917
 30
0.0
 40
150.0
100
AcDbArc
 50
260.255952
 51
279.744048
  0
ARC
  5
F0
330
17
100
AcDbEntity
  8
4
100
AcDbCircle
 10
400.374492005417
 20
305.9520877734917
 30
0.0
 40
150.0
100
AcDbArc
 50
259.751247
 51
280.248753
  0
ARC
  5
F1
330
17
100
AcDbEntity
  8
4
100
AcDbCircle
 10
400.374492005417
 20
68.95208777349166
 30
0.0
 40
150.0
100
AcDbArc
 50
79.75124699999999
 51
100.248753
  0
ARC
  5
F2
330
17
100
AcDbEntity
  8
4
100
AcDbCircle
 10
400.374492005417
 20
67.45208777349166
 30
0.0
 40
150.0
100
AcDbArc
 50
80.25595200000002
 51
99.744048
  0
CIRCLE
  5
F3
330
17
100
AcDbEntity
  8
4
100
AcDbCircle
 10
400.374492005417
 20
187.4520877734917
 30
0.0
 40
62.000031
  0
CIRCLE
  5
F4
330
17
100
AcDbEntity
  8
4
100
AcDbCircle
 10
400.374492005417
 20
187.4520877734917
 30
0.0
 40
80.000031
  0
CIRCLE
  5
F5
330
17
100
AcDbEntity
  8
L-CENTER
 48
3.0
100
AcDbCircle
 10
400.374492005417
 20
187.4520877734917
 30
0.0
 40
73.000029
  0
ARC
  5
F6
330
17
100
AcDbEntity
  8
4
100
AcDbCircle
 10
619.374492005417
 20
187.4520877734917
 30
0.0
 40
300.0
100
AcDbArc
 50
166.42634
 51
193.57366
  0
LINE
  5
F7
330
17
100
AcDbEntity
  8
L-CENTER
 48
3.0
100
AcDbLine
 10
400.374492005417
 20
100.0478827734921
 30
0.0
 11
400.374492005417
 21
307.8069337734919
 31
0.0
  0
ARC
  5
F8
330
17
100
AcDbEntity
  8
4
100
AcDbCircle
 10
381.2831880054172
 20
131.6262367734916
 30
0.0
 40
3.0
100
AcDbArc
 50
251.1203559999991
 51
7.643955000001181
  0
LINE
  5
FB
330
17
100
AcDbEntity
  8
4
100
AcDbLine
 10
365.791260005417
 20
108.4520887734915
 30
0.0
 11
260.3744940054168
 21
108.4520887734915
 31
0.0
  0
LINE
  5
FC
330
17
100
AcDbEntity
  8
4
100
AcDbLine
 10
340.374492005417
 20
106.4520877734917
 30
0.0
 11
260.3744940054168
 21
106.4520877734917
 31
0.0
  0
LINE
  5
FE
330
17
100
AcDbEntity
  8
4
100
AcDbLine
 10
260.3744940054168
 20
97.45208777349166
 30
0.0
 11
260.3744940054168
 21
114.4520887734915
 31
0.0
  0
ARC
  5
FF
330
17
100
AcDbEntity
  8
4
100
AcDbCircle
 10
257.3744940054168
 20
114.4520887734915
 30
0.0
 40
3.0
100
AcDbArc
 50
0.0
 51
90.0
  0
ARC
  5
105
330
17
100
AcDbEntity
  8
4
100
AcDbCircle
 10
330.6700020054167
 20
117.7475947734917
 30
0.0
 40
3.0
100
AcDbArc
 50
193.573660000001
 51
256.4263400000003
  0
LINE
  5
106
330
17
100
AcDbEntity
  8
4
100
AcDbLine
 10
340.374492005417
 20
106.4520877734917
 30
0.0
 11
340.374492005417
 21
108.4520887734915
 31
0.0
  0
LINE
  5
107
330
17
100
AcDbEntity
  8
4
100
AcDbLine
 10
385.374492005417
 20
97.45208777349166
 30
0.0
 11
385.374492005417
 21
106.8273217734917
 31
0.0
  0
LINE
  5
108
330
17
100
AcDbEntity
  8
4
100
AcDbLine
 10
319.374492005417
 20
187.4520877734917
 30
0.0
 11
319.374492005417
 21
301.4520877734917
 31
0.0
  0
LINE
  5
109
330
17
100
AcDbEntity
  8
4
100
AcDbLine
 10
314.3744940054168
 20
228.4520887734916
 30
0.0
 11
314.3744940054168
 21
298.4520877734917
 31
0.0
  0
LINE
  5
10A
330
17
100
AcDbEntity
  8
4
100
AcDbLine
 10
316.374492005417
 20
228.4520887734916
 30
0.0
 11
314.3744940054168
 21
228.4520887734916
 31
0.0
  0
ARC
  5
10B
330
17
100
AcDbEntity
  8
4
100
AcDbCircle
 10
316.374492005417
 20
225.4520887734916
 30
0.0
 40
3.0
100
AcDbArc
 50
0.0
 51
90.0
  0
LINE
  5
10C
330
17
100
AcDbEntity
  8
4
100
AcDbLine
 10
313.374492005417
 20
265.4520877734917
 30
0.0
 11
305.3744930054169
 21
265.4520877734917
 31
0.0
  0
LINE
  5
10D
330
17
100
AcDbEntity
  8
4
100
AcDbLine
 10
313.374492005417
 20
266.4520867734918
 30
0.0
 11
305.3744930054169
 21
266.4520867734918
 31
0.0
  0
LINE
  5
10E
330
17
100
AcDbEntity
  8
4
100
AcDbLine
 10
257.7835761054171
 20
259.7520877734917
 30
0.0
 11
260.3744940054168
 21
265.4520877734917
 31
0.0
  0
LINE
  5
10F
330
17
100
AcDbEntity
  8
4
100
AcDbLine
 10
269.3744940054168
 20
265.4520877734917
 30
0.0
 11
269.3744940054168
 21
266.4520867734918
 31
0.0
  0
LINE
  5
110
330
17
100
AcDbEntity
  8
4
100
AcDbLine
 10
313.374492005417
 20
239.9520877734917
 30
0.0
 11
313.374492005417
 21
286.9520887734916
 31
0.0
  0
ARC
  5
111
330
17
100
AcDbEntity
  8
4
100
AcDbCircle
 10
300.3744930054169
 20
87.45208877349154
 30
0.0
 40
5.000000999999999
100
AcDbArc
 50
0.0
 51
90.0
  0
ARC
  5
112
330
17
100
AcDbEntity
  8
4
100
AcDbCircle
 10
300.3744930054169
 20
87.45208877349154
 30
0.0
 40
5.000000999999999
100
AcDbArc
 50
90.0
 51
180.0
  0
LINE
  5
113
330
17
100
AcDbEntity
  8
4
100
AcDbLine
 10
320.3744940054168
 20
97.45208777349166
 30
0.0
 11
280.374492005417
 21
97.45208777349166
 31
0.0
  0
LINE
  5
114
330
17
100
AcDbEntity
  8
4
100
AcDbLine
 10
280.374492005417
 20
97.45208777349166
 30
0.0
 11
280.374492005417
 21
105.4520877734917
 31
0.0
  0
LINE
  5
115
330
17
100
AcDbEntity
  8
4
100
AcDbLine
 10
313.374492005417
 20
239.9520877734917
 30
0.0
 11
314.3744940054168
 21
239.9520877734917
 31
0.0
  0
LINE
  5
116
330
17
100
AcDbEntity
  8
4
100
AcDbLine
 10
316.374492005417
 20
298.4520877734917
 30
0.0
 11
314.3744940054168
 21
298.4520877734917
 31
0.0
  0
LINE
  5
117
330
17
100
AcDbEntity
  8
4
100
AcDbLine
 10
313.374492005417
 20
286.9520887734916
 30
0.0
 11
314.3744940054168
 21
286.9520887734916
 31
0.0
  0
ARC
  5
118
330
17
100
AcDbEntity
  8
4
100
AcDbCircle
 10
316.374492005417
 20
301.4520877734917
 30
0.0
 40
3.0
100
AcDbArc
 50
270.0
 51
0.0
  0
LINE
  5
119
330
17
100
AcDbEntity
  8
4
100
AcDbLine
 10
381.2777040054167
 20
220.6835377734915
 30
0.0
 11
384.2565300054169
 21
242.8788877734917
 31
0.0
  0
ARC
  5
11A
330
17
100
AcDbEntity
  8
4
100
AcDbCircle
 10
375.4951680054168
 20
162.5727607734918
 30
0.0
 40
3.0
100
AcDbArc
 50
189.7440479999997
 51
260.2559520000004
  0
ARC
  5
11B
330
17
100
AcDbEntity
  8
4
100
AcDbCircle
 10
374.2199400054168
 20
161.2975357734917
 30
0.0
 40
3.0
100
AcDbArc
 50
190.2487529999963
 51
259.7512470000004
  0
ARC
  5
11C
330
17
100
AcDbEntity
  8
4
100
AcDbCircle
 10
374.2199400054168
 20
213.6066397734917
 30
0.0
 40
3.0
100
AcDbArc
 50
100.2487529999995
 51
169.7512470000037
  0
ARC
  5
11D
330
17
100
AcDbEntity
  8
4
100
AcDbCircle
 10
375.4951680054168
 20
212.3314147734916
 30
0.0
 40
3.0
100
AcDbArc
 50
99.7440479999995
 51
170.2559520000003
  0
CIRCLE
  5
11E
330
17
100
AcDbEntity
  8
4
100
AcDbCircle
 10
353.3742780054166
 20
187.4520877734917
 30
0.0
 40
14.000001
  0
LINE
  5
11F
330
17
100
AcDbEntity
  8
L-CENTER
 48
3.0
100
AcDbLine
 10
353.3742780054166
 20
171.549255773492
 30
0.0
 11
353.3742780054166
 21
203.3549197734915
 31
0.0
  0
ARC
  5
120
330
17
100
AcDbEntity
  8
4
100
AcDbCircle
 10
518.874492005417
 20
187.4520877734917
 30
0.0
 40
150.0
100
AcDbArc
 50
169.7512469999999
 51
190.2487530000001
  0
ARC
  5
121
330
17
100
AcDbEntity
  8
4
100
AcDbCircle
 10
520.374492005417
 20
187.4520877734917
 30
0.0
 40
150.0
100
AcDbArc
 50
170.2559520000001
 51
189.744048
  0
CIRCLE
  5
122
330
17
100
AcDbEntity
  8
4
100
AcDbCircle
 10
353.3740650054168
 20
187.4518447734918
 30
0.0
 40
12.500001
  0
LINE
  5
123
330
17
100
AcDbEntity
  8
4
100
AcDbLine
 10
353.3740650054168
 20
174.9518437734919
 30
0.0
 11
364.1995050054171
 21
181.201842773492
 31
0.0
  0
LINE
  5
124
330
17
100
AcDbEntity
  8
4
100
AcDbLine
 10
342.5488710054166
 20
181.201842773492
 30
0.0
 11
353.3740650054168
 21
174.9518437734919
 31
0.0
  0
LINE
  5
125
330
17
100
AcDbEntity
  8
4
100
AcDbLine
 10
367.1430420054168
 20
168.3552997734919
 30
0.0
 11
344.947692005417
 21
171.3341257734917
 31
0.0
  0
ARC
  5
126
330
17
100
AcDbEntity
  8
4
100
AcDbCircle
 10
344.5486410054167
 20
168.3607837734917
 30
0.0
 40
3.0
100
AcDbArc
 50
82.3560449999998
 51
198.8796440000043
  0
ARC
  5
127
330
17
100
AcDbEntity
  8
4
100
AcDbCircle
 10
366.610974005417
 20
164.3908447734916
 30
0.0
 40
3.999999
100
AcDbArc
 50
8.612341999998026
 51
82.35604499999985
  0
LINE
  5
128
330
17
100
AcDbEntity
  8
4
100
AcDbLine
 10
367.1430420054168
 20
206.5488757734915
 30
0.0
 11
344.947692005417
 21
203.5700497734917
 31
0.0
  0
LINE
  5
129
330
17
100
AcDbEntity
  8
4
100
AcDbLine
 10
353.3740650054168
 20
199.951842773492
 30
0.0
 11
342.5488710054166
 21
193.7018437734919
 31
0.0
  0
ARC
  5
12A
330
17
100
AcDbEntity
  8
4
100
AcDbCircle
 10
344.5486410054167
 20
206.5433917734917
 30
0.0
 40
3.0
100
AcDbArc
 50
161.1203559999957
 51
277.6439550000002
  0
LINE
  5
12B
330
17
100
AcDbEntity
  8
4
100
AcDbLine
 10
342.5488710054166
 20
181.201842773492
 30
0.0
 11
342.5488710054166
 21
193.7018437734919
 31
0.0
  0
ARC
  5
12C
330
17
100
AcDbEntity
  8
4
100
AcDbCircle
 10
366.610974005417
 20
210.5133307734918
 30
0.0
 40
3.999999
100
AcDbArc
 50
277.6439550000001
 51
351.387658000002
  0
LINE
  5
12D
330
17
100
AcDbEntity
  8
4
100
AcDbLine
 10
364.1995050054171
 20
193.7018437734919
 30
0.0
 11
353.3740650054168
 21
199.951842773492
 31
0.0
  0
LINE
  5
12E
330
17
100
AcDbEntity
  8
4
100
AcDbLine
 10
364.1995050054171
 20
181.201842773492
 30
0.0
 11
364.1995050054171
 21
193.7018437734919
 31
0.0
  0
LINE
  5
12F
330
17
100
AcDbEntity
  8
4
100
AcDbLine
 10
381.2777040054167
 20
154.2206377734919
 30
0.0
 11
384.2565300054169
 21
132.0252877734917
 31
0.0
  0
ARC
  5
130
330
17
100
AcDbEntity
  8
4
100
AcDbCircle
 10
377.3132490054169
 20
153.6885697734917
 30
0.0
 40
3.999999
100
AcDbArc
 50
7.643955000001085
 51
81.3876580000004
  0
ARC
  5
131
330
17
100
AcDbEntity
  8
4
100
AcDbCircle
 10
377.3132490054169
 20
221.2156057734917
 30
0.0
 40
3.999999
100
AcDbArc
 50
278.6123419999996
 51
352.3560449999989
  0
ARC
  5
132
330
17
100
AcDbEntity
  8
4
100
AcDbCircle
 10
330.6700020054167
 20
257.1565807734917
 30
0.0
 40
3.0
100
AcDbArc
 50
103.5736599999997
 51
166.426339999999
  0
LINE
  5
133
330
17
100
AcDbEntity
  8
L-CENTER
 48
3.0
100
AcDbLine
 10
367.8012900054172
 20
243.8705287734917
 30
0.0
 11
359.9476669359933
 21
257.473407070112
 31
0.0
  0
ARC
  5
134
330
17
100
AcDbEntity
  8
4
100
AcDbCircle
 10
381.2831880054172
 20
243.2779387734918
 30
0.0
 40
3.0
100
AcDbArc
 50
352.3560449999988
 51
108.8796440000002
  0
ARC
  5
135
330
17
100
AcDbEntity
  8
4
100
AcDbCircle
 10
181.374492005417
 20
187.4520877734917
 30
0.0
 40
300.0
100
AcDbArc
 50
346.4263399999999
 51
13.57366000000002
  0
LINE
  5
13C
330
17
100
AcDbEntity
  8
L-CENTER
 48
3.0
100
AcDbLine
 10
465.3744930054169
 20
91.45208777349166
 30
0.0
 11
465.3744930054169
 21
123.4520887734915
 31
0.0
  0
LINE
  5
13D
330
17
100
AcDbEntity
  8
4
100
AcDbLine
 10
485.3744940054168
 20
97.45208777349166
 30
0.0
 11
485.3744940054168
 21
114.4520887734915
 31
0.0
  0
LINE
  5
13E
330
17
100
AcDbEntity
  8
4
100
AcDbLine
 10
482.3744940054168
 20
117.4520887734915
 30
0.0
 11
473.093535005417
 21
117.4520887734915
 31
0.0
  0
ARC
  5
13F
330
17
100
AcDbEntity
  8
4
100
AcDbCircle
 10
470.0789850054169
 20
117.7475947734917
 30
0.0
 40
3.0
100
AcDbArc
 50
283.5736599999997
 51
346.426339999999
  0
ARC
  5
140
330
17
100
AcDbEntity
  8
4
100
AcDbCircle
 10
482.3744940054168
 20
114.4520887734915
 30
0.0
 40
3.0
100
AcDbArc
 50
0.0
 51
90.0
  0
LINE
  5
141
330
17
100
AcDbEntity
  8
4
100
AcDbLine
 10
498.3744930054169
 20
274.4520877734917
 30
0.0
 11
530.3744940054168
 21
274.4520877734917
 31
0.0
  0
LINE
  5
142
330
17
100
AcDbEntity
  8
4
100
AcDbLine
 10
495.3744930054169
 20
254.4520867734918
 30
0.0
 11
529.374492005417
 21
254.4520867734918
 31
0.0
  0
LINE
  5
143
330
17
100
AcDbEntity
  8
4
100
AcDbLine
 10
495.3744930054169
 20
272.4520867734918
 30
0.0
 11
529.374492005417
 21
272.4520867734918
 31
0.0
  0
LINE
  5
144
330
17
100
AcDbEntity
  8
4
100
AcDbLine
 10
481.374492005417
 20
187.4520877734917
 30
0.0
 11
481.374492005417
 21
301.4520877734917
 31
0.0
  0
LINE
  5
145
330
17
100
AcDbEntity
  8
4
100
AcDbLine
 10
486.3744930054169
 20
228.4520887734916
 30
0.0
 11
486.3744930054169
 21
298.4520877734917
 31
0.0
  0
ARC
  5
146
330
17
100
AcDbEntity
  8
4
100
AcDbCircle
 10
280.374492005417
 20
187.4520877734917
 30
0.0
 40
150.0
100
AcDbArc
 50
350.255952
 51
9.744047999999912
  0
ARC
  5
147
330
17
100
AcDbEntity
  8
4
100
AcDbCircle
 10
281.874492005417
 20
187.4520877734917
 30
0.0
 40
150.0
100
AcDbArc
 50
349.7512470000001
 51
10.24875300000007
  0
LINE
  5
148
330
17
100
AcDbEntity
  8
4
100
AcDbLine
 10
433.6059450054169
 20
168.3552997734919
 30
0.0
 11
455.8012950054166
 21
171.3341257734917
 31
0.0
  0
ARC
  5
149
330
17
100
AcDbEntity
  8
4
100
AcDbCircle
 10
434.1380130054166
 20
164.3908447734916
 30
0.0
 40
3.999999
100
AcDbArc
 50
97.64395500000015
 51
171.387658000002
  0
ARC
  5
14A
330
17
100
AcDbEntity
  8
4
100
AcDbCircle
 10
425.2538190054169
 20
162.5727607734918
 30
0.0
 40
3.0
100
AcDbArc
 50
279.7440479999995
 51
350.2559520000003
  0
ARC
  5
14B
330
17
100
AcDbEntity
  8
4
100
AcDbCircle
 10
426.5290440054172
 20
161.2975357734917
 30
0.0
 40
3.0
100
AcDbArc
 50
280.2487529999995
 51
349.7512470000037
  0
ARC
  5
14C
330
17
100
AcDbEntity
  8
4
100
AcDbCircle
 10
456.2003430054166
 20
168.3607837734917
 30
0.0
 40
3.0
100
AcDbArc
 50
341.1203559999957
 51
97.6439550000002
  0
LINE
  5
14D
330
17
100
AcDbEntity
  8
4
100
AcDbLine
 10
433.6059450054169
 20
206.5488757734915
 30
0.0
 11
455.8012950054166
 21
203.5700497734917
 31
0.0
  0
ARC
  5
14E
330
17
100
AcDbEntity
  8
4
100
AcDbCircle
 10
434.1380130054166
 20
210.5133307734918
 30
0.0
 40
3.999999
100
AcDbArc
 50
188.612341999998
 51
262.3560449999999
  0
ARC
  5
14F
330
17
100
AcDbEntity
  8
4
100
AcDbCircle
 10
426.5290440054172
 20
213.6066397734917
 30
0.0
 40
3.0
100
AcDbArc
 50
10.24875299999631
 51
79.75124700000049
  0
ARC
  5
150
330
17
100
AcDbEntity
  8
4
100
AcDbCircle
 10
425.2538190054169
 20
212.3314147734916
 30
0.0
 40
3.0
100
AcDbArc
 50
9.744047999999724
 51
80.25595200000052
  0
ARC
  5
151
330
17
100
AcDbEntity
  8
4
100
AcDbCircle
 10
456.2003430054166
 20
206.5433917734917
 30
0.0
 40
3.0
100
AcDbArc
 50
262.3560449999998
 51
18.87964400000429
  0
ARC
  5
152
330
17
100
AcDbEntity
  8
4
100
AcDbCircle
 10
484.374492005417
 20
225.4520887734916
 30
0.0
 40
3.0
100
AcDbArc
 50
90.0
 51
180.0
  0
LINE
  5
153
330
17
100
AcDbEntity
  8
4
100
AcDbLine
 10
486.3744930054169
 20
228.4520887734916
 30
0.0
 11
484.374492005417
 21
228.4520887734916
 31
0.0
  0
LINE
  5
154
330
17
100
AcDbEntity
  8
4
100
AcDbLine
 10
487.374492005417
 20
239.9520877734917
 30
0.0
 11
487.374492005417
 21
286.9520887734916
 31
0.0
  0
LINE
  5
155
330
17
100
AcDbEntity
  8
4
100
AcDbLine
 10
487.374768005417
 20
253.4520877734917
 30
0.0
 11
495.3744930054169
 21
253.4520877734917
 31
0.0
  0
LINE
  5
156
330
17
100
AcDbEntity
  8
4
100
AcDbLine
 10
487.374768005417
 20
273.4520887734916
 30
0.0
 11
495.3744930054169
 21
273.4520887734916
 31
0.0
  0
ARC
  5
157
330
17
100
AcDbEntity
  8
4
100
AcDbCircle
 10
470.0789850054169
 20
257.1565807734917
 30
0.0
 40
3.0
100
AcDbArc
 50
13.57366000000102
 51
76.42634000000032
  0
LINE
  5
158
330
17
100
AcDbEntity
  8
4
100
AcDbLine
 10
486.3744930054169
 20
239.9520877734917
 30
0.0
 11
487.374492005417
 21
239.9520877734917
 31
0.0
  0
LINE
  5
159
330
17
100
AcDbEntity
  8
4
100
AcDbLine
 10
495.3744930054169
 20
273.4520887734916
 30
0.0
 11
495.3744930054169
 21
253.4520877734917
 31
0.0
  0
LINE
  5
15A
330
17
100
AcDbEntity
  8
4
100
AcDbLine
 10
498.3744930054169
 20
274.4520877734917
 30
0.0
 11
498.3744930054169
 21
272.4520867734918
 31
0.0
  0
LINE
  5
15B
330
17
100
AcDbEntity
  8
4
100
AcDbLine
 10
486.3744930054169
 20
286.9520887734916
 30
0.0
 11
487.374492005417
 21
286.9520887734916
 31
0.0
  0
ARC
  5
15C
330
17
100
AcDbEntity
  8
4
100
AcDbCircle
 10
484.2744930054167
 20
301.3520887734917
 30
0.0
 40
2.900001
100
AcDbArc
 50
180.0
 51
270.0
  0
LINE
  5
15D
330
17
100
AcDbEntity
  8
4
100
AcDbLine
 10
486.3744930054169
 20
298.4520877734917
 30
0.0
 11
484.2744930054167
 21
298.4520877734917
 31
0.0
  0
LINE
  5
160
330
17
100
AcDbEntity
  8
4
100
AcDbLine
 10
529.374492005417
 20
272.4520867734918
 30
0.0
 11
529.374492005417
 21
254.4520867734918
 31
0.0
  0
LINE
  5
161
330
17
100
AcDbEntity
  8
4
100
AcDbLine
 10
530.3744940054168
 20
274.4520877734917
 30
0.0
 11
530.3744940054168
 21
255.4520887734916
 31
0.0
  0
LINE
  5
162
330
17
100
AcDbEntity
  8
4
100
AcDbLine
 10
529.374492005417
 20
254.4520867734918
 30
0.0
 11
530.3744940054168
 21
255.4520887734916
 31
0.0
  0
LINE
  5
163
330
17
100
AcDbEntity
  8
4
100
AcDbLine
 10
529.374492005417
 20
272.4520867734918
 30
0.0
 11
530.3744940054168
 21
271.4520877734917
 31
0.0
  0
CIRCLE
  5
165
330
17
100
AcDbEntity
  8
4
100
AcDbCircle
 10
300.3744930054169
 20
749.7411672217349
 30
0.0
 40
108.0
  0
CIRCLE
  5
166
330
17
100
AcDbEntity
  8
4
100
AcDbCircle
 10
300.3744930054169
 20
749.7411672217349
 30
0.0
 40
90.0
  0
CIRCLE
  5
167
330
17
100
AcDbEntity
  8
L-CENTER
 48
3.0
100
AcDbCircle
 10
300.3744930054169
 20
749.7411672217349
 30
0.0
 40
99.0
  0
LINE
  5
168
330
17
100
AcDbEntity
  8
4
100
AcDbLine
 10
183.3744930054169
 20
859.7411672217349
 30
0.0
 11
257.3744930054169
 21
859.7411672217349
 31
0.0
  0
LINE
  5
169
330
17
100
AcDbEntity
  8
4
100
AcDbLine
 10
183.3744930054169
 20
639.7411672217354
 30
0.0
 11
257.3744930054169
 21
639.7411672217345
 31
0.0
  0
LINE
  5
16A
330
17
100
AcDbEntity
  8
L-CENTER
 48
3.0
100
AcDbLine
 10
183.6620934023661
 20
749.7411672217349
 30
0.0
 11
454.5312694164999
 21
749.7411672217349
 31
0.0
  0
LINE
  5
170
330
17
100
AcDbEntity
  8
4
100
AcDbLine
 10
180.3744930054169
 20
802.7411672217349
 30
0.0
 11
180.3744930054169
 21
856.7411672217349
 31
0.0
  0
LINE
  5
171
330
17
100
AcDbEntity
  8
L-CENTER
 48
3.0
100
AcDbLine
 10
200.3744930054169
 20
819.4096950252206
 30
0.0
 11
200.3744930054169
 21
850.0726394182493
 31
0.0
  0
LINE
  5
172
330
17
100
AcDbEntity
  8
4
100
AcDbLine
 10
183.3744930054169
 20
699.7411672217349
 30
0.0
 11
199.8160522856048
 21
699.7411672217349
 31
0.0
  0
LINE
  5
173
330
17
100
AcDbEntity
  8
L-CENTER
 48
3.0
100
AcDbLine
 10
185.0430208089025
 20
664.7411672217349
 30
0.0
 11
215.7059652019312
 21
664.7411672217349
 31
0.0
  0
LINE
  5
174
330
17
100
AcDbEntity
  8
4
100
AcDbLine
 10
180.3744930054169
 20
642.7411672217354
 30
0.0
 11
180.3744930054169
 21
696.7411672217349
 31
0.0
  0
ARC
  5
175
330
17
100
AcDbEntity
  8
4
100
AcDbCircle
 10
183.3744930054169
 20
642.7411672217354
 30
0.0
 40
3.0
100
AcDbArc
 50
180.0
 51
270.0
  0
ARC
  5
176
330
17
100
AcDbEntity
  8
4
100
AcDbCircle
 10
183.3744930054169
 20
696.7411672217349
 30
0.0
 40
3.0
100
AcDbArc
 50
90.0
 51
180.0
  0
CIRCLE
  5
177
330
17
100
AcDbEntity
  8
4
100
AcDbCircle
 10
200.3744930054169
 20
664.7411672217349
 30
0.0
 40
7.5
  0
LINE
  5
178
330
17
100
AcDbEntity
  8
L-CENTER
 48
3.0
100
AcDbLine
 10
200.3744930054169
 20
649.4096950252206
 30
0.0
 11
200.3744930054169
 21
680.0726394182493
 31
0.0
  0
ARC
  5
179
330
17
100
AcDbEntity
  8
4
100
AcDbCircle
 10
199.8160522856048
 20
702.7411672217349
 30
0.0
 40
3.0
100
AcDbArc
 50
270.0
 51
25.05091198872283
  0
LINE
  5
17A
330
17
100
AcDbEntity
  8
4
100
AcDbLine
 10
183.3744930054169
 20
799.7411672217349
 30
0.0
 11
199.8160522856045
 21
799.7411672217349
 31
0.0
  0
LINE
  5
17B
330
17
100
AcDbEntity
  8
4
100
AcDbLine
 10
187.3744930054169
 20
769.7411672217349
 30
0.0
 11
191.7835173214311
 21
769.7411672217349
 31
0.0
  0
LINE
  5
17C
330
17
100
AcDbEntity
  8
4
100
AcDbLine
 10
187.3744930054169
 20
729.7411672217349
 30
0.0
 11
191.7835173214311
 21
729.7411672217354
 31
0.0
  0
LINE
  5
17D
330
17
100
AcDbEntity
  8
4
100
AcDbLine
 10
187.3744930054169
 20
729.7411672217349
 30
0.0
 11
187.3744930054169
 21
769.7411672217349
 31
0.0
  0
ARC
  5
17E
330
17
100
AcDbEntity
  8
4
100
AcDbCircle
 10
183.374493005417
 20
802.7411672217349
 30
0.0
 40
3.0
100
AcDbArc
 50
180.0
 51
270.0
  0
ARC
  5
17F
330
17
100
AcDbEntity
  8
4
100
AcDbCircle
 10
191.7835173214312
 20
772.7411672217349
 30
0.0
 40
3.0
100
AcDbArc
 50
270.0
 51
348.041262537407
  0
ARC
  5
180
330
17
100
AcDbEntity
  8
4
100
AcDbCircle
 10
191.7835173214311
 20
726.7411672217349
 30
0.0
 40
3.0
100
AcDbArc
 50
11.95873746259295
 51
90.0
  0
ARC
  5
181
330
17
100
AcDbEntity
  8
4
100
AcDbCircle
 10
199.8160522856047
 20
796.7411672217349
 30
0.0
 40
3.0
100
AcDbArc
 50
334.9490880112772
 51
90.0
  0
LINE
  5
182
330
17
100
AcDbEntity
  8
L-CENTER
 48
3.0
100
AcDbLine
 10
185.0430208089025
 20
834.7411672217349
 30
0.0
 11
215.7059652019312
 21
834.7411672217349
 31
0.0
  0
ARC
  5
183
330
17
100
AcDbEntity
  8
4
100
AcDbCircle
 10
183.374493005417
 20
856.7411672217349
 30
0.0
 40
3.0
100
AcDbArc
 50
90.0
 51
180.0
  0
CIRCLE
  5
184
330
17
100
AcDbEntity
  8
4
100
AcDbCircle
 10
200.374493005417
 20
834.7411672217349
 30
0.0
 40
7.5
  0
LINE
  5
185
330
17
100
AcDbEntity
  8
4
100
AcDbLine
 10
487.3744930054169
 20
571.2411682217348
 30
0.0
 11
487.3744930054169
 21
618.2411692217347
 31
0.0
  0
LINE
  5
186
330
17
100
AcDbEntity
  8
4
100
AcDbLine
 10
313.3744930054169
 20
571.2411682217348
 30
0.0
 11
313.3744930054169
 21
618.2411692217347
 31
0.0
  0
LINE
  5
187
330
17
100
AcDbEntity
  8
4
100
AcDbLine
 10
314.3744930054169
 20
561.7411672217349
 30
0.0
 11
314.3744930054169
 21
629.7411672217349
 31
0.0
  0
LINE
  5
188
330
17
100
AcDbEntity
  8
4
100
AcDbLine
 10
319.3744930054173
 20
560.7411672217349
 30
0.0
 11
319.3744930054169
 21
639.9003733425939
 31
0.0
  0
LINE
  5
189
330
17
100
AcDbEntity
  8
L-CENTER
 48
3.0
100
AcDbLine
 10
400.3744930054169
 20
535.6093678770267
 30
0.0
 11
400.3744930054169
 21
857.2997675073593
 31
0.0
  0
LINE
  5
18A
330
17
100
AcDbEntity
  8
4
100
AcDbLine
 10
486.3744930054169
 20
561.7411672217349
 30
0.0
 11
486.3744930054169
 21
629.7411672217349
 31
0.0
  0
LINE
  5
18B
330
17
100
AcDbEntity
  8
4
100
AcDbLine
 10
481.3744930054165
 20
560.7411672217354
 30
0.0
 11
481.374493005417
 21
637.0843129722434
 31
0.0
  0
LINE
  5
18C
330
17
100
AcDbEntity
  8
4
100
AcDbLine
 10
376.8744930054173
 20
540.2411672217349
 30
0.0
 11
423.8744930054169
 21
540.2411672217349
 31
0.0
  0
LINE
  5
18D
330
17
100
AcDbEntity
  8
4
100
AcDbLine
 10
478.3744930054169
 20
558.8411672217348
 30
0.0
 11
322.3744930054169
 21
558.8411672217348
 31
0.0
  0
LINE
  5
18E
330
17
100
AcDbEntity
  8
4
100
AcDbLine
 10
477.3744930054169
 20
549.3411672217348
 30
0.0
 11
323.3744930054169
 21
549.3411672217348
 31
0.0
  0
LINE
  5
18F
330
17
100
AcDbEntity
  8
4
100
AcDbLine
 10
371.206310058583
 20
541.2411672217349
 30
0.0
 11
429.5426759522508
 21
541.2411672217349
 31
0.0
  0
LINE
  5
190
330
17
100
AcDbEntity
  8
L-CENTER
 48
3.0
100
AcDbLine
 10
309.3837949226791
 20
594.7411672217349
 30
0.0
 11
532.5643249036043
 21
594.7411672217349
 31
0.0
  0
LINE
  5
191
330
17
100
AcDbEntity
  8
4
100
AcDbLine
 10
314.3744930054169
 20
561.7411672217349
 30
0.0
 11
486.3744930054169
 21
561.7411672217349
 31
0.0
  0
LINE
  5
192
330
17
100
AcDbEntity
  8
4
100
AcDbLine
 10
319.3744930054169
 20
560.7411672217349
 30
0.0
 11
481.3744930054169
 21
560.7411672217354
 31
0.0
  0
LINE
  5
193
330
17
100
AcDbEntity
  8
4
100
AcDbLine
 10
320.3744930054169
 20
559.2411672217349
 30
0.0
 11
480.3744930054169
 21
559.2411672217349
 31
0.0
  0
LINE
  5
19A
330
17
100
AcDbEntity
  8
4
100
AcDbLine
 10
318.3744930054169
 20
17.45208677349177
 30
0.0
 11
282.3744930054169
 21
17.45208677349177
 31
0.0
  0
LINE
  5
19B
330
17
100
AcDbEntity
  8
4
100
AcDbLine
 10
281.3744940054168
 20
18.45208877349154
 30
0.0
 11
295.374492005417
 21
18.45208877349154
 31
0.0
  0
LINE
  5
19C
330
17
100
AcDbEntity
  8
4
100
AcDbLine
 10
282.3744930054169
 20
17.45208677349177
 30
0.0
 11
281.3744940054168
 21
18.45208877349154
 31
0.0
  0
LINE
  5
19D
330
17
100
AcDbEntity
  8
4
100
AcDbLine
 10
305.3744940054168
 20
18.45208877349154
 30
0.0
 11
319.374492005417
 21
18.45208877349154
 31
0.0
  0
LINE
  5
19E
330
17
100
AcDbEntity
  8
4
100
AcDbLine
 10
318.3744930054169
 20
17.45208677349177
 30
0.0
 11
319.374492005417
 21
18.45208877349154
 31
0.0
  0
LINE
  5
1A8
330
17
100
AcDbEntity
  8
4
100
AcDbLine
 10
320.3744930054169
 20
559.2411672217349
 30
0.0
 11
320.3744930054169
 21
560.7411672217349
 31
0.0
  0
ARC
  5
1A9
330
17
100
AcDbEntity
  8
4
100
AcDbCircle
 10
323.3744930054164
 20
550.3411672217348
 30
0.0
 40
1.0
100
AcDbArc
 50
180.0
 51
270.0
  0
LINE
  5
1AA
330
17
100
AcDbEntity
  8
4
100
AcDbLine
 10
322.3744930054169
 20
550.3411672217348
 30
0.0
 11
322.3744930054169
 21
558.8411672217348
 31
0.0
  0
LINE
  5
1AB
330
17
100
AcDbEntity
  8
4
100
AcDbLine
 10
313.3744930054169
 20
571.2411682217348
 30
0.0
 11
314.3744950054166
 21
571.2411682217348
 31
0.0
  0
LINE
  5
1AC
330
17
100
AcDbEntity
  8
L-CENTER
 48
3.0
100
AcDbLine
 10
363.8744784707052
 20
541.1256509579789
 30
0.0
 11
363.8744784707052
 21
562.9987405300399
 31
0.0
  0
LINE
  5
1AD
330
17
100
AcDbEntity
  8
L-CENTER
 48
3.0
100
AcDbLine
 10
327.3744630054169
 20
541.1256509579789
 30
0.0
 11
327.3744630054169
 21
562.9987405300399
 31
0.0
  0
LINE
  5
1AE
330
17
100
AcDbEntity
  8
4
100
AcDbLine
 10
361.8744930054169
 20
549.3411672217348
 30
0.0
 11
338.8744930054169
 21
549.3411672217348
 31
0.0
  0
LINE
  5
1AF
330
17
100
AcDbEntity
  8
4
100
AcDbLine
 10
359.6244784707054
 20
545.8411672217348
 30
0.0
 11
337.8744930054169
 21
545.8411672217348
 31
0.0
  0
LINE
  5
1B0
330
17
100
AcDbEntity
  8
4
100
AcDbLine
 10
359.6244784707054
 20
547.8411672217348
 30
0.0
 11
337.8744930054169
 21
547.8411672217348
 31
0.0
  0
LINE
  5
1B1
330
17
100
AcDbEntity
  8
4
100
AcDbLine
 10
361.1998105527224
 20
541.8411672217348
 30
0.0
 11
339.5491754581113
 21
541.8411672217348
 31
0.0
  0
LINE
  5
1B2
330
17
100
AcDbEntity
  8
4
100
AcDbLine
 10
337.8744930054169
 20
545.8411672217348
 30
0.0
 11
337.8744930054169
 21
547.8411672217348
 31
0.0
  0
LINE
  5
1B3
330
17
100
AcDbEntity
  8
4
100
AcDbLine
 10
338.8744930054169
 20
547.8411672217348
 30
0.0
 11
338.8744930054169
 21
549.3411672217348
 31
0.0
  0
LWPOLYLINE
  5
1B4
330
17
100
AcDbEntity
  8
4
100
AcDbPolyline
 90
        2
 70
     0
 43
0.0
 10
339.5491754581113
 20
545.8411672217348
 10
339.5491754581113
 20
541.8411672217348
  0
LINE
  5
1B5
330
17
100
AcDbEntity
  8
4
  6
Continuous
100
AcDbLine
 10
357.3310966248029
 20
549.3411672217348
 30
0.0
 11
359.6244784707053
 21
549.1417427133956
 31
0.0
  0
LINE
  5
1B6
330
17
100
AcDbEntity
  8
L-CENTER
 48
3.0
100
AcDbLine
 10
350.3744930054169
 20
538.9752267523563
 30
0.0
 11
350.3744930054169
 21
557.4951439306988
 31
0.0
  0
LWPOLYLINE
  5
1B7
330
17
100
AcDbEntity
  8
4
100
AcDbPolyline
 90
        2
 70
     0
 43
0.0
 10
361.1998105527224
 20
541.8411672217348
 10
361.1998105527224
 20
543.0411672217351
  0
ARC
  5
1B8
330
17
100
AcDbEntity
  8
4
100
AcDbCircle
 10
371.206310058583
 20
542.2411672217349
 30
0.0
 40
1.0
100
AcDbArc
 50
190.4914770123277
 51
270.0
  0
LINE
  5
1B9
330
17
100
AcDbEntity
  8
4
100
AcDbLine
 10
369.1516153583967
 20
547.8447065156438
 30
0.0
 11
370.2230280535988
 21
542.0590779615527
 31
0.0
  0
LINE
  5
1BA
330
17
100
AcDbEntity
  8
4
  6
Continuous
 62
     3
100
AcDbLine
 10
368.1244784707054
 20
548.4026122786127
 30
0.0
 11
368.9972202801101
 21
548.3267216864906
 31
0.0
  0
ARC
  5
1BB
330
17
100
AcDbEntity
  8
4
100
AcDbCircle
 10
367.1850513484279
 20
547.4805279952793
 30
0.0
 40
2.0
100
AcDbArc
 50
10.49147701232769
 51
61.98429522316089
  0
LINE
  5
1BC
330
17
100
AcDbEntity
  8
4
100
AcDbLine
 10
376.8744930054173
 20
540.2411672217349
 30
0.0
 11
376.8744930054169
 21
541.2411672217349
 31
0.0
  0
LINE
  5
1C6
330
17
100
AcDbEntity
  8
4
100
AcDbLine
 10
496.3744930054169
 20
585.7411672217349
 30
0.0
 11
529.3744930054169
 21
585.7411672217349
 31
0.0
  0
LINE
  5
1C7
330
17
100
AcDbEntity
  8
4
100
AcDbLine
 10
500.8744930054169
 20
592.2411672217349
 30
0.0
 11
530.3744930054169
 21
592.2411672217349
 31
0.0
  0
LINE
  5
1C8
330
17
100
AcDbEntity
  8
4
100
AcDbLine
 10
500.8744930054169
 20
597.2411672217349
 30
0.0
 11
530.3744930054169
 21
597.2411672217349
 31
0.0
  0
LINE
  5
1C9
330
17
100
AcDbEntity
  8
4
100
AcDbLine
 10
496.3744930054169
 20
603.7411672217349
 30
0.0
 11
529.3744930054169
 21
603.7411672217349
 31
0.0
  0
LINE
  5
1CA
330
17
100
AcDbEntity
  8
L-CENTER
 48
3.0
100
AcDbLine
 10
436.8745075401254
 20
541.1256509579789
 30
0.0
 11
436.8745075401274
 21
562.9987405300367
 31
0.0
  0
LINE
  5
1CB
330
17
100
AcDbEntity
  8
4
  6
Continuous
100
AcDbLine
 10
443.4178893860309
 20
549.3411672217348
 30
0.0
 11
441.1245075401263
 21
549.1417427133956
 31
0.0
  0
ARC
  5
1CC
330
17
100
AcDbEntity
  8
4
100
AcDbCircle
 10
429.5426759522503
 20
542.2411672217349
 30
0.0
 40
1.0
100
AcDbArc
 50
270.0
 51
349.5085229876723
  0
LINE
  5
1CD
330
17
100
AcDbEntity
  8
4
100
AcDbLine
 10
423.8744930054169
 20
540.2411672217349
 30
0.0
 11
423.8744930054169
 21
541.2411672217349
 31
0.0
  0
LINE
  5
1CE
330
17
100
AcDbEntity
  8
4
  6
Continuous
100
AcDbLine
 10
432.6245075401263
 20
548.4026122786127
 30
0.0
 11
431.7517657307236
 21
548.3267216864906
 31
0.0
  0
ARC
  5
1CF
330
17
100
AcDbEntity
  8
4
100
AcDbCircle
 10
433.5639346624058
 20
547.4805279952793
 30
0.0
 40
2.0
100
AcDbArc
 50
154.9697407281196
 51
169.5085229876723
  0
LINE
  5
1D0
330
17
100
AcDbEntity
  8
4
100
AcDbLine
 10
431.597370652437
 20
547.8447065156438
 30
0.0
 11
430.5259579572349
 21
542.0590779615527
 31
0.0
  0
ARC
  5
1D1
330
17
100
AcDbEntity
  8
4
100
AcDbCircle
 10
433.5639346624054
 20
547.4805279952775
 30
0.0
 40
2.0
100
AcDbArc
 50
118.0157047768829
 51
169.5085229876593
  0
LINE
  5
1D2
330
17
100
AcDbEntity
  8
L-CENTER
 48
3.0
100
AcDbLine
 10
473.3745230054137
 20
541.1256509579757
 30
0.0
 11
473.3745230054157
 21
562.9987405300335
 31
0.0
  0
LINE
  5
1D3
330
17
100
AcDbEntity
  8
4
100
AcDbLine
 10
480.3744930054169
 20
559.2411672217349
 30
0.0
 11
480.3744930054169
 21
560.7411672217349
 31
0.0
  0
ARC
  5
1D4
330
17
100
AcDbEntity
  8
4
100
AcDbCircle
 10
477.3744930054164
 20
550.3411672217348
 30
0.0
 40
1.0
100
AcDbArc
 50
270.0
 51
0.0
  0
LINE
  5
1D5
330
17
100
AcDbEntity
  8
4
100
AcDbLine
 10
478.3744930054169
 20
550.3411672217348
 30
0.0
 11
478.3744930054169
 21
558.8411672217348
 31
0.0
  0
LINE
  5
1D6
330
17
100
AcDbEntity
  8
4
100
AcDbLine
 10
487.3744930054168
 20
584.7411672217349
 30
0.0
 11
495.3744930054169
 21
584.7411672217349
 31
0.0
  0
LINE
  5
1D7
330
17
100
AcDbEntity
  8
4
100
AcDbLine
 10
487.3744930054168
 20
604.7411672217349
 30
0.0
 11
495.3744930054169
 21
604.7411672217349
 31
0.0
  0
LINE
  5
1D8
330
17
100
AcDbEntity
  8
4
100
AcDbLine
 10
486.3744940054168
 20
571.2411682217348
 30
0.0
 11
487.3744930054169
 21
571.2411682217348
 31
0.0
  0
LINE
  5
1D9
330
17
100
AcDbEntity
  8
4
100
AcDbLine
 10
495.3744930054169
 20
584.7411672217349
 30
0.0
 11
495.3744930054169
 21
604.7411672217349
 31
0.0
  0
ARC
  5
1DA
330
17
100
AcDbEntity
  8
4
100
AcDbCircle
 10
496.3744930054169
 20
584.7411672217349
 30
0.0
 40
1.0
100
AcDbArc
 50
90.0
 51
180.0
  0
ARC
  5
1DB
330
17
100
AcDbEntity
  8
4
100
AcDbCircle
 10
500.8744930054169
 20
594.7411672217349
 30
0.0
 40
2.5
100
AcDbArc
 50
90.0
 51
270.0
  0
ARC
  5
1DC
330
17
100
AcDbEntity
  8
4
100
AcDbCircle
 10
496.3744930054169
 20
604.7411672217349
 30
0.0
 40
1.0
100
AcDbArc
 50
180.0
 51
270.0
  0
LINE
  5
1DD
330
17
100
AcDbEntity
  8
4
100
AcDbLine
 10
529.3744930054169
 20
592.2411672217349
 30
0.0
 11
529.3744930054169
 21
585.7411672217349
 31
0.0
  0
LINE
  5
1DE
330
17
100
AcDbEntity
  8
4
100
AcDbLine
 10
529.3744930054169
 20
585.7411672217349
 30
0.0
 11
530.3744930054169
 21
586.7411672217349
 31
0.0
  0
LINE
  5
1DF
330
17
100
AcDbEntity
  8
4
100
AcDbLine
 10
530.3744930054169
 20
602.7411672217349
 30
0.0
 11
530.3744930054169
 21
586.7411672217349
 31
0.0
  0
LINE
  5
1E0
330
17
100
AcDbEntity
  8
4
100
AcDbLine
 10
529.3744930054169
 20
603.7411672217349
 30
0.0
 11
529.3744930054169
 21
597.2411672217349
 31
0.0
  0
LINE
  5
1E1
330
17
100
AcDbEntity
  8
4
100
AcDbLine
 10
529.3744930054169
 20
603.7411672217349
 30
0.0
 11
530.3744930054169
 21
602.7411672217349
 31
0.0
  0
LWPOLYLINE
  5
1E2
330
17
100
AcDbEntity
  8
4
100
AcDbPolyline
 90
        6
 70
     1
 43
0.0
 10
440.8744930054169
 20
749.7411672217349
 10
434.6244930054169
 20
760.5664847690405
 10
422.1244930054169
 20
760.5664847690405
 10
415.8744930054169
 20
749.7411672217349
 10
422.1244930054169
 20
738.9158496744294
 10
434.6244930054169
 20
738.9158496744294
  0
CIRCLE
  5
1E3
330
17
100
AcDbEntity
  8
4
100
AcDbCircle
 10
428.3744930054169
 20
749.7411672217349
 30
0.0
 40
12.5
  0
LINE
  5
1E4
330
17
100
AcDbEntity
  8
4
100
AcDbLine
 10
374.3744930054169
 20
852.7411672217349
 30
0.0
 11
426.3744930054168
 21
852.7411672217349
 31
0.0
  0
LINE
  5
1E5
330
17
100
AcDbEntity
  8
4
100
AcDbLine
 10
350.3744930054169
 20
851.7411672217349
 30
0.0
 11
450.3744930054169
 21
851.7411672217349
 31
0.0
  0
LINE
  5
1E6
330
17
100
AcDbEntity
  8
4
100
AcDbLine
 10
343.5369767152314
 20
848.7411672217349
 30
0.0
 11
450.3744930054169
 21
848.7411672217349
 31
0.0
  0
ARC
  5
1E7
330
17
100
AcDbEntity
  8
4
100
AcDbCircle
 10
428.3744930054169
 20
688.7411672217349
 30
0.0
 40
80.0
100
AcDbArc
 50
78.57264116188689
 51
103.8206244495005
  0
ARC
  5
1E8
330
17
100
AcDbEntity
  8
4
100
AcDbCircle
 10
428.3744930054169
 20
810.7411672217349
 30
0.0
 40
80.0
100
AcDbArc
 50
256.1793755504994
 51
281.427358838113
  0
LINE
  5
1E9
330
17
100
AcDbEntity
  8
4
100
AcDbLine
 10
319.3744930054169
 20
632.7411672217349
 30
0.0
 11
481.3744930054169
 21
632.7411672217349
 31
0.0
  0
LINE
  5
1EA
330
17
100
AcDbEntity
  8
4
100
AcDbLine
 10
388.3744930054169
 20
859.7411672217349
 30
0.0
 11
482.3744930054169
 21
859.7411672217349
 31
0.0
  0
LINE
  5
1EB
330
17
100
AcDbEntity
  8
L-CENTER
 48
3.0
100
AcDbLine
 10
300.3744930054169
 20
638.0080724288221
 30
0.0
 11
300.3744930054169
 21
861.4742620146478
 31
0.0
  0
ARC
  5
1EC
330
17
100
AcDbEntity
  8
4
100
AcDbCircle
 10
300.3744930054169
 20
489.7411672217349
 30
0.0
 40
300.0
100
AcDbArc
 50
83.24431586312696
 51
96.75568413687301
  0
ARC
  5
1ED
330
17
100
AcDbEntity
  8
4
100
AcDbCircle
 10
300.3744930054169
 20
494.7411672217349
 30
0.0
 40
300.0
100
AcDbArc
 50
82.38096498357213
 51
97.61903501642792
  0
ARC
  5
1EE
330
17
100
AcDbEntity
  8
4
100
AcDbCircle
 10
300.3744930054169
 20
1009.741167221735
 30
0.0
 40
300.0
100
AcDbArc
 50
263.2443158631269
 51
276.7556841368731
  0
ARC
  5
1EF
330
17
100
AcDbEntity
  8
4
100
AcDbCircle
 10
300.3744930054169
 20
1004.741167221735
 30
0.0
 40
300.0
100
AcDbArc
 50
262.380964983572
 51
277.6190350164279
  0
CIRCLE
  5
1F0
330
17
100
AcDbEntity
  8
4
100
AcDbCircle
 10
300.3744930054169
 20
749.7411672217349
 30
0.0
 40
31.0
  0
ARC
  5
1F1
330
17
100
AcDbEntity
  8
4
100
AcDbCircle
 10
555.3744930054171
 20
749.7411672217349
 30
0.0
 40
300.0
100
AcDbArc
 50
172.3809649835721
 51
187.6190350164279
  0
ARC
  5
1F2
330
17
100
AcDbEntity
  8
4
100
AcDbCircle
 10
560.3744930054171
 20
749.7411672217349
 30
0.0
 40
300.0
100
AcDbArc
 50
173.2443158631269
 51
186.755684136873
  0
ARC
  5
1F3
330
17
100
AcDbEntity
  8
4
100
AcDbCircle
 10
257.3744930054169
 20
642.7411672217345
 30
0.0
 40
3.0
100
AcDbArc
 50
269.9999999999989
 51
0.0
  0
ARC
  5
1F4
330
17
100
AcDbEntity
  8
4
100
AcDbCircle
 10
263.3744930054169
 20
645.089363606126
 30
0.0
 40
3.0
100
AcDbArc
 50
70.52877936551049
 51
180.0
  0
LINE
  5
1F5
330
17
100
AcDbEntity
  8
4
100
AcDbLine
 10
260.3744930054169
 20
642.7411672217345
 30
0.0
 11
260.3744930054169
 21
645.089363606126
 31
0.0
  0
ARC
  5
1F6
330
17
100
AcDbEntity
  8
4
100
AcDbCircle
 10
260.9965435932792
 20
710.3632178095977
 30
0.0
 40
3.0
100
AcDbArc
 50
187.6190350164341
 51
262.3809649835724
  0
ARC
  5
1F7
330
17
100
AcDbEntity
  8
4
100
AcDbCircle
 10
265.4366259160187
 20
714.803300132337
 30
0.0
 40
3.0
100
AcDbArc
 50
186.7556841368715
 51
263.2443158631277
  0
LINE
  5
1F8
330
17
100
AcDbEntity
  8
4
100
AcDbLine
 10
259.2591357829727
 20
708.6258099992906
 30
0.0
 11
262.7439468630149
 21
712.1106210793328
 31
0.0
  0
LINE
  5
1F9
330
17
100
AcDbEntity
  8
4
100
AcDbLine
 10
314.3744930054169
 20
629.7411672217349
 30
0.0
 11
316.3744930054169
 21
629.7411672217354
 31
0.0
  0
LINE
  5
1FA
330
17
100
AcDbEntity
  8
4
100
AcDbLine
 10
313.3744930054169
 20
618.2411692217347
 30
0.0
 11
314.3744950054166
 21
618.2411692217347
 31
0.0
  0
ARC
  5
1FB
330
17
100
AcDbEntity
  8
4
100
AcDbCircle
 10
316.3744930054169
 20
632.7411672217354
 30
0.0
 40
3.0
100
AcDbArc
 50
270.0
 51
0.0
  0
ARC
  5
1FC
330
17
100
AcDbEntity
  8
4
100
AcDbCircle
 10
316.3744930054169
 20
639.9003733425939
 30
0.0
 40
3.0
100
AcDbArc
 50
0.0
 51
98.28772162057577
  0
ARC
  5
1FD
330
17
100
AcDbEntity
  8
4
100
AcDbCircle
 10
260.9965435932792
 20
789.1191166338731
 30
0.0
 40
3.0
100
AcDbArc
 50
97.61903501642861
 51
172.3809649835834
  0
ARC
  5
1FE
330
17
100
AcDbEntity
  8
4
100
AcDbCircle
 10
265.4366259160187
 20
784.6790343111334
 30
0.0
 40
3.0
100
AcDbArc
 50
96.75568413687334
 51
173.2443158631286
  0
LINE
  5
1FF
330
17
100
AcDbEntity
  8
4
100
AcDbLine
 10
259.2591357829734
 20
790.8565244441797
 30
0.0
 11
262.7439468630156
 21
787.3717133641371
 31
0.0
  0
ARC
  5
200
330
17
100
AcDbEntity
  8
4
100
AcDbCircle
 10
45.37449300541698
 20
749.7411672217349
 30
0.0
 40
300.0
100
AcDbArc
 50
352.3809649835721
 51
7.619035016427927
  0
ARC
  5
201
330
17
100
AcDbEntity
  8
4
100
AcDbCircle
 10
40.37449300541698
 20
749.7411672217349
 30
0.0
 40
300.0
100
AcDbArc
 50
353.244315863127
 51
6.755684136873116
  0
ARC
  5
202
330
17
100
AcDbEntity
  8
4
100
AcDbCircle
 10
335.3123600948151
 20
714.803300132337
 30
0.0
 40
3.0
100
AcDbArc
 50
276.7556841368723
 51
353.2443158631286
  0
ARC
  5
203
330
17
100
AcDbEntity
  8
4
100
AcDbCircle
 10
339.7524424175548
 20
710.3632178095977
 30
0.0
 40
3.0
100
AcDbArc
 50
277.6190350164264
 51
352.3809649835659
  0
LINE
  5
204
330
17
100
AcDbEntity
  8
4
100
AcDbLine
 10
341.489850227861
 20
708.625809999291
 30
0.0
 11
338.005039147819
 21
712.1106210793332
 31
0.0
  0
ARC
  5
205
330
17
100
AcDbEntity
  8
4
100
AcDbCircle
 10
335.3123600948151
 20
784.6790343111334
 30
0.0
 40
3.0
100
AcDbArc
 50
6.75568413687144
 51
83.24431586312774
  0
ARC
  5
206
330
17
100
AcDbEntity
  8
4
100
AcDbCircle
 10
339.7524424175548
 20
789.1191166338731
 30
0.0
 40
3.0
100
AcDbArc
 50
7.619035016416653
 51
82.38096498357137
  0
LINE
  5
207
330
17
100
AcDbEntity
  8
4
100
AcDbLine
 10
341.4898502278596
 20
790.8565244441797
 30
0.0
 11
338.0050391478177
 21
787.3717133641376
 31
0.0
  0
ARC
  5
208
330
17
100
AcDbEntity
  8
4
100
AcDbCircle
 10
408.7860856908459
 20
731.115202242474
 30
0.0
 40
2.0
100
AcDbArc
 50
76.17937555049768
 51
170.2513109230879
  0
ARC
  5
209
330
17
100
AcDbEntity
  8
4
100
AcDbCircle
 10
408.7860856908459
 20
768.3671322009959
 30
0.0
 40
2.0
100
AcDbArc
 50
189.7486890769121
 51
283.8206244494992
  0
LINE
  5
20A
330
17
100
AcDbEntity
  8
L-CENTER
 48
3.0
100
AcDbLine
 10
377.4507539422319
 20
794.2411672217349
 30
0.0
 11
394.7712620179208
 21
804.2411672217349
 31
0.0
  0
ARC
  5
20B
330
17
100
AcDbEntity
  8
4
100
AcDbCircle
 10
263.374493005417
 20
854.3929708373439
 30
0.0
 40
3.0
100
AcDbArc
 50
180.0
 51
289.4712206344895
  0
LINE
  5
20C
330
17
100
AcDbEntity
  8
4
100
AcDbLine
 10
260.3744930054169
 20
854.3929708373444
 30
0.0
 11
260.3744930054169
 21
856.7411672217349
 31
0.0
  0
ARC
  5
20D
330
17
100
AcDbEntity
  8
4
100
AcDbCircle
 10
257.374493005417
 20
856.7411672217349
 30
0.0
 40
3.0
100
AcDbArc
 50
0.0
 51
90.0
  0
LINE
  5
20E
330
17
100
AcDbEntity
  8
4
100
AcDbLine
 10
350.3744930054169
 20
848.7411672217349
 30
0.0
 11
350.3744930054169
 21
851.7411672217349
 31
0.0
  0
LINE
  5
20F
330
17
100
AcDbEntity
  8
4
100
AcDbLine
 10
374.3744930054169
 20
851.7411672217349
 30
0.0
 11
374.3744930054169
 21
852.7411672217349
 31
0.0
  0
LINE
  5
210
330
17
100
AcDbEntity
  8
4
100
AcDbLine
 10
385.3744930054169
 20
852.7411672217349
 30
0.0
 11
385.3744930054169
 21
856.7411672217349
 31
0.0
  0
ARC
  5
211
330
17
100
AcDbEntity
  8
4
100
AcDbCircle
 10
388.3744930054169
 20
856.7411672217349
 30
0.0
 40
3.0
100
AcDbArc
 50
90.0
 51
180.0
  0
LINE
  5
212
330
17
100
AcDbEntity
  8
4
100
AcDbLine
 10
450.3744930054169
 20
635.7411672217349
 30
0.0
 11
450.3744930054169
 21
851.7411672217345
 31
0.0
  0
LINE
  5
213
330
17
100
AcDbEntity
  8
4
100
AcDbLine
 10
485.3744930054169
 20
802.7411672217349
 30
0.0
 11
485.3744930054169
 21
856.7411672217349
 31
0.0
  0
LINE
  5
214
330
17
100
AcDbEntity
  8
L-CENTER
 48
3.0
100
AcDbLine
 10
465.3744930054169
 20
819.4096950252206
 30
0.0
 11
465.3744930054169
 21
850.0726394182493
 31
0.0
  0
CIRCLE
  5
215
330
17
100
AcDbEntity
  8
4
100
AcDbCircle
 10
465.3744930054169
 20
664.7411672217349
 30
0.0
 40
7.5
  0
LINE
  5
216
330
17
100
AcDbEntity
  8
L-CENTER
 48
3.0
100
AcDbLine
 10
450.0430208089025
 20
664.7411672217349
 30
0.0
 11
480.7059652019312
 21
664.7411672217349
 31
0.0
  0
LINE
  5
217
330
17
100
AcDbEntity
  8
4
100
AcDbLine
 10
453.3744930054169
 20
699.7411672217349
 30
0.0
 11
482.3744930054169
 21
699.7411672217349
 31
0.0
  0
ARC
  5
218
330
17
100
AcDbEntity
  8
4
100
AcDbCircle
 10
453.3744930054169
 20
635.7411672217349
 30
0.0
 40
3.0
100
AcDbArc
 50
180.0
 51
270.0
  0
ARC
  5
219
330
17
100
AcDbEntity
  8
4
100
AcDbCircle
 10
453.3744930054169
 20
702.7411672217349
 30
0.0
 40
3.0
100
AcDbArc
 50
180.0
 51
270.0
  0
LINE
  5
21A
330
17
100
AcDbEntity
  8
4
100
AcDbLine
 10
485.3744930054169
 20
642.7411672217354
 30
0.0
 11
485.3744930054169
 21
696.7411672217349
 31
0.0
  0
LINE
  5
21B
330
17
100
AcDbEntity
  8
L-CENTER
 48
3.0
100
AcDbLine
 10
465.3744930054169
 20
649.4096950252206
 30
0.0
 11
465.3744930054169
 21
680.0726394182493
 31
0.0
  0
ARC
  5
21C
330
17
100
AcDbEntity
  8
4
100
AcDbCircle
 10
484.374493005417
 20
637.084312972243
 30
0.0
 40
3.0
100
AcDbArc
 50
109.4712206344916
 51
180.0
  0
LINE
  5
21D
330
17
100
AcDbEntity
  8
4
100
AcDbLine
 10
486.3744940054168
 20
618.2411692217347
 30
0.0
 11
487.3744930054169
 21
618.2411692217347
 31
0.0
  0
LINE
  5
21E
330
17
100
AcDbEntity
  8
4
100
AcDbLine
 10
484.3744930054172
 20
629.7411672217349
 30
0.0
 11
486.3744930054169
 21
629.7411672217349
 31
0.0
  0
ARC
  5
21F
330
17
100
AcDbEntity
  8
4
100
AcDbCircle
 10
484.374493005417
 20
632.7411672217349
 30
0.0
 40
3.0
100
AcDbArc
 50
180.0
 51
270.0000000000054
  0
ARC
  5
220
330
17
100
AcDbEntity
  8
4
100
AcDbCircle
 10
482.3744930054169
 20
642.7411672217354
 30
0.0
 40
3.0
100
AcDbArc
 50
289.4712206344915
 51
0.0
  0
ARC
  5
221
330
17
100
AcDbEntity
  8
4
100
AcDbCircle
 10
482.3744930054169
 20
696.7411672217349
 30
0.0
 40
3.0
100
AcDbArc
 50
0.0
 51
90.0
  0
LINE
  5
222
330
17
100
AcDbEntity
  8
4
100
AcDbLine
 10
453.3744930054169
 20
799.7411672217349
 30
0.0
 11
482.3744930054169
 21
799.7411672217349
 31
0.0
  0
LINE
  5
223
330
17
100
AcDbEntity
  8
L-CENTER
 48
3.0
100
AcDbLine
 10
428.3744930054169
 20
727.1574241221263
 30
0.0
 11
428.3744930054169
 21
772.3249103213436
 31
0.0
  0
ARC
  5
224
330
17
100
AcDbEntity
  8
4
100
AcDbCircle
 10
367.3744930054169
 20
749.7411672217349
 30
0.0
 40
80.0
100
AcDbArc
 50
348.5726411618868
 51
11.42735883811319
  0
ARC
  5
225
330
17
100
AcDbEntity
  8
4
100
AcDbCircle
 10
443.8282741338507
 20
734.2873860933009
 30
0.0
 40
2.0
100
AcDbArc
 50
281.4273588381118
 51
348.5726411618846
  0
ARC
  5
226
330
17
100
AcDbEntity
  8
4
100
AcDbCircle
 10
443.8282741338507
 20
765.1949483501689
 30
0.0
 40
2.0
100
AcDbArc
 50
11.42735883811534
 51
78.57264116188657
  0
ARC
  5
227
330
17
100
AcDbEntity
  8
4
100
AcDbCircle
 10
453.3744930054169
 20
796.7411672217349
 30
0.0
 40
3.0
100
AcDbArc
 50
90.0
 51
180.0
  0
ARC
  5
228
330
17
100
AcDbEntity
  8
4
100
AcDbCircle
 10
482.3744930054169
 20
802.7411672217349
 30
0.0
 40
3.0
100
AcDbArc
 50
270.0
 51
0.0
  0
CIRCLE
  5
229
330
17
100
AcDbEntity
  8
4
100
AcDbCircle
 10
465.3744930054169
 20
834.7411672217349
 30
0.0
 40
7.5
  0
LINE
  5
22A
330
17
100
AcDbEntity
  8
L-CENTER
 48
3.0
100
AcDbLine
 10
450.0430208089025
 20
834.7411672217349
 30
0.0
 11
480.7059652019312
 21
834.7411672217349
 31
0.0
  0
LINE
  5
22B
330
17
100
AcDbEntity
  8
4
100
AcDbLine
 10
426.3744930054168
 20
851.7411672217349
 30
0.0
 11
426.3744930054169
 21
852.7411672217349
 31
0.0
  0
ARC
  5
22C
330
17
100
AcDbEntity
  8
4
100
AcDbCircle
 10
482.3744930054169
 20
856.7411672217349
 30
0.0
 40
3.0
100
AcDbArc
 50
0.0
 51
90.0
  0
LINE
  5
234
330
17
100
AcDbEntity
  8
L-CENTER
 48
3.0
100
AcDbLine
 10
900.3744930054169
 20
360.2954130697528
 30
0.0
 11
900.3744930054169
 21
14.60876247723058
 31
0.0
  0
LINE
  5
235
330
17
100
AcDbEntity
  8
4
100
AcDbLine
 10
877.8748350054167
 20
17.45208677349177
 30
0.0
 11
877.8748350054167
 21
92.45208677349177
 31
0.0
  0
LINE
  5
236
330
17
100
AcDbEntity
  8
4
100
AcDbLine
 10
919.3748370054169
 20
18.45208877349154
 30
0.0
 11
919.3748370054169
 21
97.45208777349166
 31
0.0
  0
LINE
  5
237
330
17
100
AcDbEntity
  8
4
100
AcDbLine
 10
881.3748360054166
 20
18.45208877349154
 30
0.0
 11
881.3748360054166
 21
97.45208777349166
 31
0.0
  0
LINE
  5
23B
330
17
100
AcDbEntity
  8
L-CENTER
 48
3.0
100
AcDbLine
 10
688.2904911895956
 20
187.4520877734917
 30
0.0
 11
1015.538310005417
 21
187.4520877734917
 31
0.0
  0
LINE
  5
23C
330
17
100
AcDbEntity
  8
4
100
AcDbLine
 10
961.374492005417
 20
140.4520867734918
 30
0.0
 11
996.3744930054169
 21
140.4520867734918
 31
0.0
  0
LINE
  5
23D
330
17
100
AcDbEntity
  8
4
100
AcDbLine
 10
921.3744930054169
 20
242.4520867734918
 30
0.0
 11
996.3744930054169
 21
242.4520867734918
 31
0.0
  0
LINE
  5
23E
330
17
100
AcDbEntity
  8
4
100
AcDbLine
 10
792.3744930054169
 20
247.4520877734917
 30
0.0
 11
1008.374493005417
 21
247.4520877734917
 31
0.0
  0
LINE
  5
23F
330
17
100
AcDbEntity
  8
4
100
AcDbLine
 10
786.3744930054169
 20
234.4520887734916
 30
0.0
 11
996.3744930054169
 21
234.4520887734916
 31
0.0
  0
LINE
  5
240
330
17
100
AcDbEntity
  8
4
100
AcDbLine
 10
953.3744940054168
 20
117.4520887734915
 30
0.0
 11
1007.374494005417
 21
117.4520887734915
 31
0.0
  0
LINE
  5
241
330
17
100
AcDbEntity
  8
4
100
AcDbLine
 10
950.3744940054168
 20
97.45208777349166
 30
0.0
 11
1010.374494005417
 21
97.45208777349166
 31
0.0
  0
LINE
  5
242
330
17
100
AcDbEntity
  8
4
100
AcDbLine
 10
1008.374274005417
 20
259.7520877734917
 30
0.0
 11
792.3742740054173
 21
259.7520877734917
 31
0.0
  0
ARC
  5
243
330
17
100
AcDbEntity
  8
4
100
AcDbCircle
 10
787.374492005417
 20
103.4520877734917
 30
0.0
 40
3.0
100
AcDbArc
 50
0.0
 51
90.0
  0
LINE
  5
244
330
17
100
AcDbEntity
  8
4
100
AcDbLine
 10
786.3744930054169
 20
140.4520867734918
 30
0.0
 11
839.3744940054168
 21
140.4520867734918
 31
0.0
  0
LINE
  5
245
330
17
100
AcDbEntity
  8
4
100
AcDbLine
 10
786.3744930054169
 20
242.4520867734918
 30
0.0
 11
879.3744930054169
 21
242.4520867734918
 31
0.0
  0
LINE
  5
247
330
17
100
AcDbEntity
  8
L-CENTER
 48
3.0
100
AcDbLine
 10
745.374492005417
 20
221.919695010351
 30
0.0
 11
745.374492005417
 21
304.9844785366327
 31
0.0
  0
LINE
  5
248
330
17
100
AcDbEntity
  8
4
100
AcDbLine
 10
783.3744930054169
 20
263.4520867734918
 30
0.0
 11
783.3744930054169
 21
106.4520877734917
 31
0.0
  0
LINE
  5
249
330
17
100
AcDbEntity
  8
4
100
AcDbLine
 10
709.8744930054169
 20
107.4520867734918
 30
0.0
 11
709.8744930054169
 21
267.4520887734916
 31
0.0
  0
LINE
  5
24A
330
17
100
AcDbEntity
  8
4
100
AcDbLine
 10
711.3744930054169
 20
106.4520877734917
 30
0.0
 11
711.3744930054169
 21
268.4520877734917
 31
0.0
  0
LINE
  5
24B
330
17
100
AcDbEntity
  8
4
100
AcDbLine
 10
699.9744930054172
 20
108.4520887734915
 30
0.0
 11
699.9744930054172
 21
266.4520867734918
 31
0.0
  0
LINE
  5
24C
330
17
100
AcDbEntity
  8
L-CENTER
 48
3.0
100
AcDbLine
 10
691.7189579496877
 20
124.2322083919479
 30
0.0
 11
716.7550185250024
 21
124.2322083919473
 31
0.0
  0
LINE
  5
24F
330
17
100
AcDbEntity
  8
4
100
AcDbLine
 10
711.3744930054169
 20
106.4520877734917
 30
0.0
 11
787.374492005417
 21
106.4520877734917
 31
0.0
  0
LINE
  5
250
330
17
100
AcDbEntity
  8
4
100
AcDbLine
 10
700.9744920054169
 20
107.4520867734918
 30
0.0
 11
709.8744930054169
 21
107.4520867734918
 31
0.0
  0
ARC
  5
251
330
17
100
AcDbEntity
  8
4
100
AcDbCircle
 10
700.9744920054169
 20
108.4520887734915
 30
0.0
 40
0.999999
100
AcDbArc
 50
180.0
 51
270.0
  0
LINE
  5
252
330
17
100
AcDbEntity
  8
4
100
AcDbLine
 10
709.8744930054169
 20
107.4520867734918
 30
0.0
 11
711.3744930054169
 21
107.4520867734918
 31
0.0
  0
LINE
  5
254
330
17
100
AcDbEntity
  8
4
100
AcDbLine
 10
692.692404005417
 20
157.3006237734916
 30
0.0
 11
699.9744930054172
 21
155.9520877734917
 31
0.0
  0
LINE
  5
255
330
17
100
AcDbEntity
  8
4
100
AcDbLine
 10
692.692404005417
 20
217.6035517734917
 30
0.0
 11
699.9744930054172
 21
218.9520877734917
 31
0.0
  0
LINE
  5
256
330
17
100
AcDbEntity
  8
4
100
AcDbLine
 10
690.8744930054169
 20
163.9520877734917
 30
0.0
 11
690.8744930054169
 21
210.9520877734917
 31
0.0
  0
LINE
  5
258
330
17
100
AcDbEntity
  8
4
100
AcDbLine
 10
691.8744930054169
 20
158.2839037734918
 30
0.0
 11
691.8744930054169
 21
216.6202717734916
 31
0.0
  0
LINE
  5
259
330
17
100
AcDbEntity
  8
4
 48
2.0
100
AcDbLine
 10
690.8744930054169
 20
163.9520877734917
 30
0.0
 11
691.8744930054169
 21
163.9520877734917
 31
0.0
  0
ARC
  5
25A
330
17
100
AcDbEntity
  8
4
100
AcDbCircle
 10
692.874492005417
 20
158.2839037734918
 30
0.0
 40
0.999999
100
AcDbArc
 50
180.0
 51
259.5085230000005
  0
LINE
  5
25B
330
17
100
AcDbEntity
  8
4
 48
2.0
100
AcDbLine
 10
690.8744930054169
 20
210.9520877734917
 30
0.0
 11
691.8744930054169
 21
210.9520877734917
 31
0.0
  0
ARC
  5
25C
330
17
100
AcDbEntity
  8
4
100
AcDbCircle
 10
692.874492005417
 20
216.6202717734916
 30
0.0
 40
0.999999
100
AcDbArc
 50
100.4914770000001
 51
180.0
  0
LINE
  5
25F
330
17
100
AcDbEntity
  8
4
100
AcDbLine
 10
712.374492005417
 20
228.1933747734915
 30
0.0
 11
712.374492005417
 21
298.7108017734918
 31
0.0
  0
ARC
  5
260
330
17
100
AcDbEntity
  8
4
100
AcDbCircle
 10
775.1164200054169
 20
233.7101617734916
 30
0.0
 40
3.0
100
AcDbArc
 50
278.6833900000001
 51
351.3166100000021
  0
ARC
  5
261
330
17
100
AcDbEntity
  8
4
100
AcDbCircle
 10
583.374492005417
 20
263.4520867734918
 30
0.0
 40
200.000001
100
AcDbArc
 50
350.5546119999999
 51
9.445388000000055
  0
ARC
  5
262
330
17
100
AcDbEntity
  8
4
100
AcDbCircle
 10
715.6325670054172
 20
233.7101617734916
 30
0.0
 40
3.0
100
AcDbArc
 50
188.683389999998
 51
261.3166099999999
  0
ARC
  5
263
330
17
100
AcDbEntity
  8
4
100
AcDbCircle
 10
745.374492005417
 20
425.4520867734918
 30
0.0
 40
200.000001
100
AcDbArc
 50
260.5546120000001
 51
279.4453879999999
  0
ARC
  5
264
330
17
100
AcDbEntity
  8
4
100
AcDbCircle
 10
745.374492005417
 20
428.4520867734918
 30
0.0
 40
200.000001
100
AcDbArc
 50
261.31661
 51
278.68339
  0
ARC
  5
265
330
17
100
AcDbEntity
  8
4
100
AcDbCircle
 10
786.3744930054169
 20
137.4520867734918
 30
0.0
 40
3.0
100
AcDbArc
 50
90.0
 51
180.0
  0
ARC
  5
266
330
17
100
AcDbEntity
  8
4
100
AcDbCircle
 10
777.7036590054164
 20
231.122919773492
 30
0.0
 40
3.0
100
AcDbArc
 50
279.4453879999996
 51
350.5546119999958
  0
ARC
  5
267
330
17
100
AcDbEntity
  8
4
100
AcDbCircle
 10
745.374492005417
 20
263.4520867734918
 30
0.0
 40
9.0
100
AcDbArc
 50
106.1276199999998
 51
73.87238000000018
  0
LINE
  5
268
330
17
100
AcDbEntity
  8
4
100
AcDbLine
 10
742.8744930054169
 20
274.4520877734917
 30
0.0
 11
747.8744940054168
 21
274.4520877734917
 31
0.0
  0
LINE
  5
269
330
17
100
AcDbEntity
  8
4
100
AcDbLine
 10
742.8744930054169
 20
269.4520867734918
 30
0.0
 11
747.8744940054168
 21
269.4520867734918
 31
0.0
  0
LINE
  5
26A
330
17
100
AcDbEntity
  8
L-CENTER
 48
3.0
100
AcDbLine
 10
703.8421002422762
 20
263.4520867734918
 30
0.0
 11
786.9068837685578
 21
263.4520867734918
 31
0.0
  0
ARC
  5
26B
330
17
100
AcDbEntity
  8
4
100
AcDbCircle
 10
745.374492005417
 20
101.4520867734918
 30
0.0
 40
200.000001
100
AcDbArc
 50
80.55461200000002
 51
99.497234
  0
ARC
  5
26C
330
17
100
AcDbEntity
  8
4
100
AcDbCircle
 10
745.374492005417
 20
98.45208677349177
 30
0.0
 40
200.000001
100
AcDbArc
 50
81.31661000000001
 51
98.68339
  0
CIRCLE
  5
26D
330
17
100
AcDbEntity
  8
4
100
AcDbCircle
 10
745.374492005417
 20
263.4520867734918
 30
0.0
 40
23.499999
  0
ARC
  5
26E
330
17
100
AcDbEntity
  8
4
100
AcDbCircle
 10
910.374492005417
 20
263.4520867734918
 30
0.0
 40
200.000001
100
AcDbArc
 50
188.109614
 51
188.6833899999999
  0
LINE
  5
26F
330
17
100
AcDbEntity
  8
4
100
AcDbLine
 10
709.8744930054169
 20
267.4520887734916
 30
0.0
 11
700.9744920054169
 21
267.4520887734916
 31
0.0
  0
ARC
  5
270
330
17
100
AcDbEntity
  8
4
100
AcDbCircle
 10
700.9744920054169
 20
266.4520867734918
 30
0.0
 40
0.999999
100
AcDbArc
 50
90.0
 51
180.0
  0
LINE
  5
271
330
17
100
AcDbEntity
  8
4
100
AcDbLine
 10
709.8744930054169
 20
267.4520887734916
 30
0.0
 11
711.3744930054169
 21
267.4520887734916
 31
0.0
  0
LINE
  5
272
330
17
100
AcDbEntity
  8
4
100
AcDbLine
 10
711.3744930054169
 20
268.4520877734917
 30
0.0
 11
712.374492005417
 21
268.4520877734917
 31
0.0
  0
LINE
  5
273
330
17
100
AcDbEntity
  8
4
100
AcDbLine
 10
742.8744930054169
 20
274.4520877734917
 30
0.0
 11
742.8744930054169
 21
269.4520867734918
 31
0.0
  0
ARC
  5
274
330
17
100
AcDbEntity
  8
4
100
AcDbCircle
 10
910.374492005417
 20
263.4520867734918
 30
0.0
 40
200.000001
100
AcDbArc
 50
171.3166100000001
 51
171.8903860000001
  0
ARC
  5
275
330
17
100
AcDbEntity
  8
4
100
AcDbCircle
 10
715.6325670054172
 20
293.1940147734917
 30
0.0
 40
3.0
100
AcDbArc
 50
98.68339000000009
 51
171.3166100000021
  0
ARC
  5
276
330
17
100
AcDbEntity
  8
4
100
AcDbCircle
 10
580.374492005417
 20
263.4520867734918
 30
0.0
 40
200.000001
100
AcDbArc
 50
351.3166100000001
 51
8.683389999999866
  0
LINE
  5
277
330
17
100
AcDbEntity
  8
4
100
AcDbLine
 10
747.8744940054168
 20
274.4520877734917
 30
0.0
 11
747.8744940054168
 21
269.4520867734918
 31
0.0
  0
ARC
  5
278
330
17
100
AcDbEntity
  8
4
100
AcDbCircle
 10
786.3744930054169
 20
237.4520887734916
 30
0.0
 40
3.0
100
AcDbArc
 50
180.0
 51
270.0
  0
ARC
  5
279
330
17
100
AcDbEntity
  8
4
100
AcDbCircle
 10
786.3744930054169
 20
245.4520867734918
 30
0.0
 40
3.0
100
AcDbArc
 50
180.0
 51
270.0
  0
ARC
  5
27A
330
17
100
AcDbEntity
  8
4
100
AcDbCircle
 10
775.1164200054169
 20
293.1940147734917
 30
0.0
 40
3.0
100
AcDbArc
 50
8.683389999997928
 51
81.31660999999993
  0
ARC
  5
27B
330
17
100
AcDbEntity
  8
4
100
AcDbCircle
 10
777.7036590054164
 20
295.7812537734917
 30
0.0
 40
3.0
100
AcDbArc
 50
9.44538800000424
 51
80.55461200000042
  0
LINE
  5
27C
330
17
100
AcDbEntity
  8
4
100
AcDbLine
 10
842.3744940054168
 20
120.4520887734915
 30
0.0
 11
842.3744940054168
 21
177.4520887734916
 31
0.0
  0
LINE
  5
27D
330
17
100
AcDbEntity
  8
4
100
AcDbLine
 10
958.374492005417
 20
120.4520887734915
 30
0.0
 11
958.374492005417
 21
177.4520887734916
 31
0.0
  0
LINE
  5
27E
330
17
100
AcDbEntity
  8
4
100
AcDbLine
 10
850.374492005417
 20
97.45208777349166
 30
0.0
 11
850.374492005417
 21
177.4520887734916
 31
0.0
  0
LINE
  5
27F
330
17
100
AcDbEntity
  8
4
100
AcDbLine
 10
950.3744940054168
 20
97.45208777349166
 30
0.0
 11
950.3744940054168
 21
177.4520887734916
 31
0.0
  0
LINE
  5
280
330
17
100
AcDbEntity
  8
4
100
AcDbLine
 10
860.3744940054168
 20
106.4520877734917
 30
0.0
 11
940.374492005417
 21
106.4520877734917
 31
0.0
  0
LINE
  5
281
330
17
100
AcDbEntity
  8
4
100
AcDbLine
 10
850.374492005417
 20
108.4520887734915
 30
0.0
 11
950.3744940054168
 21
108.4520887734915
 31
0.0
  0
LINE
  5
285
330
17
100
AcDbEntity
  8
4
100
AcDbLine
 10
793.374492005417
 20
117.4520887734915
 30
0.0
 11
847.374492005417
 21
117.4520887734915
 31
0.0
  0
LINE
  5
286
330
17
100
AcDbEntity
  8
4
100
AcDbLine
 10
790.374492005417
 20
97.45208777349166
 30
0.0
 11
850.374492005417
 21
97.45208777349166
 31
0.0
  0
LINE
  5
288
330
17
100
AcDbEntity
  8
4
100
AcDbLine
 10
790.374492005417
 20
97.45208777349166
 30
0.0
 11
790.374492005417
 21
114.4520887734915
 31
0.0
  0
ARC
  5
289
330
17
100
AcDbEntity
  8
4
100
AcDbCircle
 10
793.374492005417
 20
114.4520887734915
 30
0.0
 40
3.0
100
AcDbArc
 50
90.0
 51
180.0
  0
LINE
  5
28A
330
17
100
AcDbEntity
  8
L-CENTER
 48
3.0
100
AcDbLine
 10
815.3744940054168
 20
91.45208777349166
 30
0.0
 11
815.3744940054168
 21
123.4520887734915
 31
0.0
  0
ARC
  5
28B
330
17
100
AcDbEntity
  8
4
100
AcDbCircle
 10
839.3744940054168
 20
120.4520887734915
 30
0.0
 40
3.0
100
AcDbArc
 50
270.0
 51
0.0
  0
ARC
  5
28C
330
17
100
AcDbEntity
  8
4
100
AcDbCircle
 10
847.374492005417
 20
114.4520887734915
 30
0.0
 40
3.0
100
AcDbArc
 50
0.0
 51
90.0
  0
LINE
  5
28D
330
17
100
AcDbEntity
  8
4
100
AcDbLine
 10
860.3744940054168
 20
106.4520877734917
 30
0.0
 11
860.3744940054168
 21
108.4520887734915
 31
0.0
  0
ARC
  5
290
330
17
100
AcDbEntity
  8
4
100
AcDbCircle
 10
953.3744940054168
 20
114.4520887734915
 30
0.0
 40
3.0
100
AcDbArc
 50
90.0
 51
180.0
  0
LINE
  5
291
330
17
100
AcDbEntity
  8
4
100
AcDbLine
 10
940.374492005417
 20
106.4520877734917
 30
0.0
 11
940.374492005417
 21
108.4520887734915
 31
0.0
  0
LWPOLYLINE
  5
292
330
17
100
AcDbEntity
  8
4
100
AcDbPolyline
 90
       36
 70
     0
 43
0.0
 10
967.5312840054168
 20
117.4520887734915
 10
967.9150530054168
 20
117.0727267734916
 10
968.2743450054169
 20
116.6931817734916
 10
968.5881330054168
 20
116.3132977734917
 10
968.835396005417
 20
115.9329187734915
 10
968.9951070054173
 20
115.5518827734917
 10
969.0462390054169
 20
115.1700397734916
 10
969.0029610054168
 20
114.8789797734916
 10
968.8963080054169
 20
114.5871577734915
 10
968.7378690054171
 20
114.2943637734917
 10
968.0676960054171
 20
113.4081247734916
 10
967.3485570054169
 20
112.5057937734918
 10
967.1520330054169
 20
112.2004867734915
 10
966.9964140054168
 20
111.8925697734916
 10
966.893286005417
 20
111.5818447734918
 10
966.8495850054165
 20
111.2117047734918
 10
966.8820930054168
 20
110.8376437734918
 10
966.9779400054168
 20
110.4599317734919
 10
967.5168450054167
 20
109.3076137734919
 10
968.162598005417
 20
108.1322197734916
 10
968.3415450054168
 20
107.7365587734918
 10
968.4808950054172
 20
107.3394217734917
 10
968.5677840054174
 20
106.9410757734917
 10
968.5862040054168
 20
106.3721617734915
 10
968.4984990054169
 20
105.8023267734915
 10
968.3310930054168
 20
105.2325487734915
 10
967.614873005417
 20
103.5333097734915
 10
967.3928730054164
 20
102.9735187734915
 10
967.2232770054171
 20
102.4186657734917
 10
967.1325120054167
 20
101.8697287734917
 10
967.1703960054166
 20
101.1126037734918
 10
967.380624005417
 20
100.3667617734915
 10
967.7294700054168
 20
99.62999777349154
 10
968.183208005417
 20
98.90010377349148
 10
968.7081150054165
 20
98.17486877349182
 10
969.2704620054166
 20
97.45208777349166
  0
ARC
  5
293
330
17
100
AcDbEntity
  8
4
100
AcDbCircle
 10
961.374492005417
 20
120.4520887734915
 30
0.0
 40
3.0
100
AcDbArc
 50
180.0
 51
270.0
  0
LINE
  5
294
330
17
100
AcDbEntity
  8
4
100
AcDbLine
 10
853.374492005417
 20
140.4520867734918
 30
0.0
 11
947.3744940054168
 21
140.4520867734918
 31
0.0
  0
LINE
  5
295
330
17
100
AcDbEntity
  8
4
100
AcDbLine
 10
869.3745180054167
 20
266.4520867734918
 30
0.0
 11
931.3745160054169
 21
266.4520867734918
 31
0.0
  0
LINE
  5
296
330
17
100
AcDbEntity
  8
4
100
AcDbLine
 10
920.3741970054172
 20
97.45208777349166
 30
0.0
 11
880.3748370054169
 21
97.45208777349166
 31
0.0
  0
LINE
  5
297
330
17
100
AcDbEntity
  8
4
100
AcDbLine
 10
860.3742720054166
 20
265.4520877734917
 30
0.0
 11
940.3742730054165
 21
265.4520877734917
 31
0.0
  0
ARC
  5
298
330
17
100
AcDbEntity
  8
4
100
AcDbCircle
 10
839.3744940054168
 20
137.4520867734918
 30
0.0
 40
3.0
100
AcDbArc
 50
0.0
 51
90.0
  0
ARC
  5
299
330
17
100
AcDbEntity
  8
4
100
AcDbCircle
 10
853.374492005417
 20
137.4520867734918
 30
0.0
 40
3.0
100
AcDbArc
 50
90.0
 51
180.0
  0
LINE
  5
29A
330
17
100
AcDbEntity
  8
L-CENTER
 48
3.0
100
AcDbLine
 10
801.3744930054166
 20
270.3177845788418
 30
0.0
 11
801.3744930054166
 21
239.8279781707522
 31
0.0
  0
LINE
  5
29B
330
17
100
AcDbEntity
  8
4
100
AcDbLine
 10
792.3744930054169
 20
242.4520867734918
 30
0.0
 11
792.3744930054169
 21
259.7520877734917
 31
0.0
  0
LINE
  5
29D
330
17
100
AcDbEntity
  8
4
100
AcDbLine
 10
857.7833427054173
 20
259.7520877734917
 30
0.0
 11
860.3742720054166
 21
265.4520877734917
 31
0.0
  0
LINE
  5
29E
330
17
100
AcDbEntity
  8
L-CENTER
 48
3.0
100
AcDbLine
 10
850.874493005417
 20
270.3177845788418
 30
0.0
 11
850.874493005417
 21
239.8279781707522
 31
0.0
  0
ARC
  5
2A0
330
17
100
AcDbEntity
  8
4
100
AcDbCircle
 10
879.3744930054169
 20
236.4520867734918
 30
0.0
 40
2.000001
100
AcDbArc
 50
270.0
 51
0.0
  0
ARC
  5
2A1
330
17
100
AcDbEntity
  8
4
100
AcDbCircle
 10
879.3744930054169
 20
244.4520877734917
 30
0.0
 40
2.000001
100
AcDbArc
 50
270.0
 51
0.0
  0
LINE
  5
2A2
330
17
100
AcDbEntity
  8
4
100
AcDbLine
 10
881.3744940054168
 20
236.4520867734918
 30
0.0
 11
881.3744940054168
 21
247.4520877734917
 31
0.0
  0
LINE
  5
2A3
330
17
100
AcDbEntity
  8
4
100
AcDbLine
 10
869.3745180054167
 20
265.4520877734917
 30
0.0
 11
869.3745180054167
 21
266.4520867734918
 31
0.0
  0
LINE
  5
2A4
330
17
100
AcDbEntity
  8
4
100
AcDbLine
 10
881.3748360054166
 20
92.45208677349177
 30
0.0
 11
877.8748350054167
 21
92.45208677349177
 31
0.0
  0
LINE
  5
2A5
330
17
100
AcDbEntity
  8
4
100
AcDbLine
 10
880.3748370054169
 20
97.45208777349166
 30
0.0
 11
880.3748370054169
 21
105.4520877734917
 31
0.0
  0
ARC
  5
2A7
330
17
100
AcDbEntity
  8
4
100
AcDbCircle
 10
947.3744940054168
 20
137.4520867734918
 30
0.0
 40
3.0
100
AcDbArc
 50
0.0
 51
90.0
  0
ARC
  5
2A8
330
17
100
AcDbEntity
  8
4
100
AcDbCircle
 10
961.374492005417
 20
137.4520867734918
 30
0.0
 40
3.0
100
AcDbArc
 50
90.0
 51
180.0
  0
LINE
  5
2A9
330
17
100
AcDbEntity
  8
4
100
AcDbLine
 10
912.8742720054166
 20
249.9520867734918
 30
0.0
 11
887.8742730054165
 21
249.9520867734918
 31
0.0
  0
LINE
  5
2AA
330
17
100
AcDbEntity
  8
4
100
AcDbLine
 10
912.8742720054166
 20
251.9520877734917
 30
0.0
 11
887.8742730054165
 21
251.9520877734917
 31
0.0
  0
LINE
  5
2AB
330
17
100
AcDbEntity
  8
4
100
AcDbLine
 10
911.1994680054164
 20
255.9520867734918
 30
0.0
 11
889.5488340054168
 21
255.9520867734918
 31
0.0
  0
LINE
  5
2AC
330
17
100
AcDbEntity
  8
4
100
AcDbLine
 10
888.8742720054166
 20
247.4520877734917
 30
0.0
 11
888.8742720054166
 21
249.9520867734918
 31
0.0
  0
LINE
  5
2AD
330
17
100
AcDbEntity
  8
4
100
AcDbLine
 10
887.8742730054165
 20
249.9520867734918
 30
0.0
 11
887.8742730054165
 21
251.9520877734917
 31
0.0
  0
LINE
  5
2AE
330
17
100
AcDbEntity
  8
4
100
AcDbLine
 10
889.5488340054168
 20
251.9520877734917
 30
0.0
 11
889.5488340054168
 21
255.9520867734918
 31
0.0
  0
LINE
  5
2AF
330
17
100
AcDbEntity
  8
4
100
AcDbLine
 10
911.8742730054165
 20
247.4520877734917
 30
0.0
 11
911.8742730054165
 21
249.9520867734918
 31
0.0
  0
LINE
  5
2B0
330
17
100
AcDbEntity
  8
4
100
AcDbLine
 10
911.1994680054164
 20
251.9520877734917
 30
0.0
 11
911.1994680054164
 21
255.9520867734918
 31
0.0
  0
LINE
  5
2B1
330
17
100
AcDbEntity
  8
4
100
AcDbLine
 10
912.8742720054166
 20
249.9520867734918
 30
0.0
 11
912.8742720054166
 21
251.9520877734917
 31
0.0
  0
ARC
  5
2B2
330
17
100
AcDbEntity
  8
4
100
AcDbCircle
 10
921.3744930054169
 20
236.4520867734918
 30
0.0
 40
2.000001
100
AcDbArc
 50
180.0
 51
270.0
  0
ARC
  5
2B3
330
17
100
AcDbEntity
  8
4
100
AcDbCircle
 10
921.3744930054169
 20
244.4520877734917
 30
0.0
 40
2.000001
100
AcDbArc
 50
180.0
 51
270.0
  0
LINE
  5
2B4
330
17
100
AcDbEntity
  8
4
100
AcDbLine
 10
919.374492005417
 20
236.4520867734918
 30
0.0
 11
919.374492005417
 21
247.4520877734917
 31
0.0
  0
LINE
  5
2B5
330
17
100
AcDbEntity
  8
4
100
AcDbLine
 10
920.3741970054172
 20
97.45208777349166
 30
0.0
 11
920.3741970054172
 21
105.4520877734917
 31
0.0
  0
LINE
  5
2B6
330
17
100
AcDbEntity
  8
4
100
AcDbLine
 10
931.3745160054169
 20
265.4520877734917
 30
0.0
 11
931.3745160054169
 21
266.4520867734918
 31
0.0
  0
LINE
  5
2B7
330
17
100
AcDbEntity
  8
4
100
AcDbLine
 10
942.9652023054168
 20
259.7520877734917
 30
0.0
 11
940.3742730054165
 21
265.4520877734917
 31
0.0
  0
LINE
  5
2BA
330
17
100
AcDbEntity
  8
4
100
AcDbLine
 10
999.3744930054169
 20
120.4520887734915
 30
0.0
 11
999.3744930054169
 21
177.4520887734916
 31
0.0
  0
LINE
  5
2BB
330
17
100
AcDbEntity
  8
4
100
AcDbLine
 10
1008.374493005417
 20
117.4520887734915
 30
0.0
 11
1008.374493005417
 21
259.4520877734917
 31
0.0
  0
TEXT
  5
2BD
330
17
100
AcDbEntity
  8
3
 62
     2
100
AcDbText
 10
563.5686710854045
 20
65.4800948541735
 30
0.0
 40
9.0
  1
LEC2-05
  7
KANJI
 72
     1
 11
592.8186710854045
 21
65.4800948541735
 31
0.0
100
AcDbText
  0
LINE
  5
2C7
330
17
100
AcDbEntity
  8
L-CENTER
 48
3.0
100
AcDbLine
 10
985.374492005417
 20
91.45208777349166
 30
0.0
 11
985.374492005417
 21
123.4520887734915
 31
0.0
  0
LINE
  5
2C8
330
17
100
AcDbEntity
  8
4
100
AcDbLine
 10
992.8745160054169
 20
97.45208777349166
 30
0.0
 11
992.8745160054169
 21
117.4520887734915
 31
0.0
  0
LINE
  5
2C9
330
17
100
AcDbEntity
  8
4
100
AcDbLine
 10
977.8745160054169
 20
97.45208777349166
 30
0.0
 11
977.8745160054169
 21
117.4520887734915
 31
0.0
  0
LINE
  5
2CB
330
17
100
AcDbEntity
  8
4
100
AcDbLine
 10
1010.374494005417
 20
97.45208777349166
 30
0.0
 11
1010.374494005417
 21
114.4520887734915
 31
0.0
  0
ARC
  5
2CC
330
17
100
AcDbEntity
  8
4
100
AcDbCircle
 10
1007.374494005417
 20
114.4520887734915
 30
0.0
 40
3.0
100
AcDbArc
 50
0.0
 51
90.0
  0
ARC
  5
2CD
330
17
100
AcDbEntity
  8
4
100
AcDbCircle
 10
1002.374493005417
 20
120.4520887734915
 30
0.0
 40
3.0
100
AcDbArc
 50
180.0
 51
270.0
  0
ARC
  5
2D6
330
17
100
AcDbEntity
  8
4
100
AcDbCircle
 10
996.3744930054169
 20
231.4520887734916
 30
0.0
 40
3.0
100
AcDbArc
 50
0.0
 51
90.0
  0
LINE
  5
2D7
330
17
100
AcDbEntity
  8
4
100
AcDbLine
 10
999.3744930054169
 20
197.4520867734918
 30
0.0
 11
999.3744930054169
 21
239.4520867734918
 31
0.0
  0
LINE
  5
2D8
330
17
100
AcDbEntity
  8
4
100
AcDbLine
 10
1002.374493005417
 20
137.4520867734918
 30
0.0
 11
1002.374493005417
 21
237.4520887734916
 31
0.0
  0
LINE
  5
2D9
330
17
100
AcDbEntity
  8
4
100
AcDbLine
 10
1003.374493005417
 20
161.4520877734917
 30
0.0
 11
1003.374493005417
 21
213.4520877734917
 31
0.0
  0
ARC
  5
2DA
330
17
100
AcDbEntity
  8
4
100
AcDbCircle
 10
996.3744930054169
 20
143.4520867734918
 30
0.0
 40
3.0
100
AcDbArc
 50
270.0
 51
0.0
  0
ARC
  5
2DB
330
17
100
AcDbEntity
  8
4
100
AcDbCircle
 10
1002.274494005417
 20
134.5520887734917
 30
0.0
 40
2.900001
100
AcDbArc
 50
90.0
 51
180.0
  0
LINE
  5
2DC
330
17
100
AcDbEntity
  8
4
100
AcDbLine
 10
1002.274494005417
 20
137.4520867734918
 30
0.0
 11
1002.374493005417
 21
137.4520867734918
 31
0.0
  0
LINE
  5
2DD
330
17
100
AcDbEntity
  8
4
 48
2.0
100
AcDbLine
 10
1002.374493005417
 20
161.4520877734917
 30
0.0
 11
1003.374493005417
 21
161.4520877734917
 31
0.0
  0
LINE
  5
2DE
330
17
100
AcDbEntity
  8
4
100
AcDbLine
 10
999.3744930054169
 20
177.4520887734916
 30
0.0
 11
1002.374493005417
 21
177.4520887734916
 31
0.0
  0
LINE
  5
2DF
330
17
100
AcDbEntity
  8
4
100
AcDbLine
 10
999.3744930054169
 20
197.4520867734918
 30
0.0
 11
1002.374493005417
 21
197.4520867734918
 31
0.0
  0
LINE
  5
2E0
330
17
100
AcDbEntity
  8
4
 48
2.0
100
AcDbLine
 10
1002.374493005417
 20
213.4520877734917
 30
0.0
 11
1003.374493005417
 21
213.4520877734917
 31
0.0
  0
ARC
  5
2E1
330
17
100
AcDbEntity
  8
4
100
AcDbCircle
 10
996.3744930054169
 20
239.4520867734918
 30
0.0
 40
3.0
100
AcDbArc
 50
0.0
 51
90.0
  0
ARC
  5
2E2
330
17
100
AcDbEntity
  8
4
100
AcDbCircle
 10
1002.274494005417
 20
240.3520867734917
 30
0.0
 40
2.900001
100
AcDbArc
 50
180.0
 51
270.0
  0
LINE
  5
2E3
330
17
100
AcDbEntity
  8
4
100
AcDbLine
 10
1002.274494005417
 20
237.4520887734916
 30
0.0
 11
1002.374493005417
 21
237.4520887734916
 31
0.0
  0
LINE
  5
2F0
330
17
100
AcDbEntity
  8
4
100
AcDbLine
 10
881.3748360054166
 20
18.45208877349154
 30
0.0
 11
919.3748370054169
 21
18.45208877349154
 31
0.0
  0
LINE
  5
2F1
330
17
100
AcDbEntity
  8
4
100
AcDbLine
 10
882.3748350054167
 20
17.45208677349177
 30
0.0
 11
881.3748360054166
 21
18.45208877349154
 31
0.0
  0
LINE
  5
2F2
330
17
100
AcDbEntity
  8
4
100
AcDbLine
 10
918.3748350054167
 20
17.45208677349177
 30
0.0
 11
877.8748350054167
 21
17.45208677349177
 31
0.0
  0
LINE
  5
2FA
330
17
100
AcDbEntity
  8
4
100
AcDbLine
 10
918.3748350054167
 20
17.45208677349177
 30
0.0
 11
919.3748370054169
 21
18.45208877349154
 31
0.0
  0
CIRCLE
  5
302
330
17
100
AcDbEntity
  8
4
100
AcDbCircle
 10
363.8744784707052
 20
250.6719679218018
 30
0.0
 40
4.25
  0
LINE
  5
303
330
17
100
AcDbEntity
  8
2
100
AcDbLine
 10
365.0291792711853
 20
252.6719677704777
 30
0.0
 11
362.7197781944269
 21
252.6719680731258
 31
0.0
  0
LINE
  5
304
330
17
100
AcDbEntity
  8
2
100
AcDbLine
 10
365.0291787469837
 20
248.6719677704777
 30
0.0
 11
362.7197776702253
 21
248.6719680731258
 31
0.0
  0
LINE
  5
305
330
17
100
AcDbEntity
  8
2
100
AcDbLine
 10
366.1838795474638
 20
250.6719676191537
 30
0.0
 11
365.0291792711853
 21
252.6719677704777
 31
0.0
  0
LINE
  5
306
330
17
100
AcDbEntity
  8
2
100
AcDbLine
 10
362.7197776702253
 20
248.6719680731258
 30
0.0
 11
361.5650773939468
 21
250.6719682244498
 31
0.0
  0
LINE
  5
307
330
17
100
AcDbEntity
  8
2
100
AcDbLine
 10
361.5650773939468
 20
250.6719682244498
 30
0.0
 11
362.7197781944269
 21
252.6719680731258
 31
0.0
  0
LINE
  5
308
330
17
100
AcDbEntity
  8
2
100
AcDbLine
 10
365.0291787469837
 20
248.6719677704777
 30
0.0
 11
366.1838795474638
 21
250.6719676191537
 31
0.0
  0
LINE
  5
309
330
17
100
AcDbEntity
  8
L-CENTER
 48
3.0
100
AcDbLine
 10
432.9476940054168
 20
243.8705287734917
 30
0.0
 11
440.8013170748407
 21
257.473407070112
 31
0.0
  0
CIRCLE
  5
30A
330
17
100
AcDbEntity
  8
4
100
AcDbCircle
 10
436.8745055401288
 20
250.6719679218018
 30
0.0
 40
4.25
  0
LINE
  5
30B
330
17
100
AcDbEntity
  8
2
100
AcDbLine
 10
435.7198052638502
 20
248.6719677704777
 30
0.0
 11
434.5651044633702
 21
250.6719676191537
 31
0.0
  0
LINE
  5
30C
330
17
100
AcDbEntity
  8
2
100
AcDbLine
 10
439.1839066168872
 20
250.6719682244498
 30
0.0
 11
438.0292058164071
 21
252.6719680731258
 31
0.0
  0
LINE
  5
30D
330
17
100
AcDbEntity
  8
2
100
AcDbLine
 10
438.0292063406087
 20
248.6719680731258
 30
0.0
 11
439.1839066168872
 21
250.6719682244498
 31
0.0
  0
LINE
  5
30E
330
17
100
AcDbEntity
  8
2
100
AcDbLine
 10
434.5651044633702
 20
250.6719676191537
 30
0.0
 11
435.7198047396486
 21
252.6719677704777
 31
0.0
  0
LINE
  5
30F
330
17
100
AcDbEntity
  8
2
100
AcDbLine
 10
435.7198052638502
 20
248.6719677704777
 30
0.0
 11
438.0292063406087
 21
248.6719680731258
 31
0.0
  0
LINE
  5
310
330
17
100
AcDbEntity
  8
2
100
AcDbLine
 10
435.7198047396486
 20
252.6719677704777
 30
0.0
 11
438.0292058164071
 21
252.6719680731258
 31
0.0
  0
LINE
  5
311
330
17
100
AcDbEntity
  8
L-CENTER
 48
3.0
100
AcDbLine
 10
367.8012900054172
 20
131.0336467734916
 30
0.0
 11
359.9476669359933
 21
117.4307684768714
 31
0.0
  0
CIRCLE
  5
312
330
17
100
AcDbEntity
  8
4
100
AcDbCircle
 10
363.8744784707052
 20
124.2322076251816
 30
0.0
 40
4.25
  0
LINE
  5
313
330
17
100
AcDbEntity
  8
2
100
AcDbLine
 10
365.0291787469837
 20
126.2322077765056
 30
0.0
 11
366.1838795474638
 21
124.2322079278296
 31
0.0
  0
LINE
  5
314
330
17
100
AcDbEntity
  8
2
100
AcDbLine
 10
361.5650773939468
 20
124.2322073225336
 30
0.0
 11
362.7197781944269
 21
122.2322074738576
 31
0.0
  0
LINE
  5
315
330
17
100
AcDbEntity
  8
2
100
AcDbLine
 10
362.7197776702253
 20
126.2322074738576
 30
0.0
 11
361.5650773939468
 21
124.2322073225336
 31
0.0
  0
LINE
  5
316
330
17
100
AcDbEntity
  8
2
100
AcDbLine
 10
366.1838795474638
 20
124.2322079278296
 30
0.0
 11
365.0291792711853
 21
122.2322077765056
 31
0.0
  0
LINE
  5
317
330
17
100
AcDbEntity
  8
2
100
AcDbLine
 10
365.0291787469837
 20
126.2322077765056
 30
0.0
 11
362.7197776702253
 21
126.2322074738576
 31
0.0
  0
LINE
  5
318
330
17
100
AcDbEntity
  8
2
100
AcDbLine
 10
365.0291792711853
 20
122.2322077765056
 30
0.0
 11
362.7197781944269
 21
122.2322074738576
 31
0.0
  0
LINE
  5
319
330
17
100
AcDbEntity
  8
2
100
AcDbLine
 10
435.7198047396486
 20
122.2322077765056
 30
0.0
 11
438.0292058164071
 21
122.2322074738576
 31
0.0
  0
LINE
  5
31A
330
17
100
AcDbEntity
  8
2
100
AcDbLine
 10
435.7198052638502
 20
126.2322077765056
 30
0.0
 11
438.0292063406087
 21
126.2322074738576
 31
0.0
  0
LINE
  5
31B
330
17
100
AcDbEntity
  8
2
100
AcDbLine
 10
434.5651044633702
 20
124.2322079278296
 30
0.0
 11
435.7198047396486
 21
122.2322077765056
 31
0.0
  0
LINE
  5
31C
330
17
100
AcDbEntity
  8
2
100
AcDbLine
 10
438.0292063406087
 20
126.2322074738576
 30
0.0
 11
439.1839066168872
 21
124.2322073225336
 31
0.0
  0
LINE
  5
31D
330
17
100
AcDbEntity
  8
2
100
AcDbLine
 10
439.1839066168872
 20
124.2322073225336
 30
0.0
 11
438.0292058164071
 21
122.2322074738576
 31
0.0
  0
LINE
  5
31E
330
17
100
AcDbEntity
  8
2
100
AcDbLine
 10
435.7198052638502
 20
126.2322077765056
 30
0.0
 11
434.5651044633702
 21
124.2322079278296
 31
0.0
  0
CIRCLE
  5
31F
330
17
100
AcDbEntity
  8
4
100
AcDbCircle
 10
436.8745055401288
 20
124.2322076251816
 30
0.0
 40
4.25
  0
LINE
  5
320
330
17
100
AcDbEntity
  8
L-CENTER
 48
3.0
100
AcDbLine
 10
432.9476940054168
 20
131.0336467734916
 30
0.0
 11
440.8013170748407
 21
117.4307684768714
 31
0.0
  0
LINE
  5
321
330
17
100
AcDbEntity
  8
2
100
AcDbLine
 10
472.2198202049369
 20
189.4520876221677
 30
0.0
 11
474.5292212816953
 21
189.4520879248155
 31
0.0
  0
LINE
  5
322
330
17
100
AcDbEntity
  8
2
100
AcDbLine
 10
472.2198207291385
 20
185.4520876221677
 30
0.0
 11
474.529221805897
 21
185.4520879248157
 31
0.0
  0
LINE
  5
323
330
17
100
AcDbEntity
  8
2
100
AcDbLine
 10
471.0651199286584
 20
187.4520874708437
 30
0.0
 11
472.2198202049369
 21
189.4520876221677
 31
0.0
  0
LINE
  5
324
330
17
100
AcDbEntity
  8
2
100
AcDbLine
 10
474.529221805897
 20
185.4520879248157
 30
0.0
 11
475.6839220821754
 21
187.4520880761397
 31
0.0
  0
LINE
  5
325
330
17
100
AcDbEntity
  8
2
100
AcDbLine
 10
475.6839220821754
 20
187.4520880761397
 30
0.0
 11
474.5292212816953
 21
189.4520879248155
 31
0.0
  0
LINE
  5
326
330
17
100
AcDbEntity
  8
2
100
AcDbLine
 10
472.2198207291385
 20
185.4520876221677
 30
0.0
 11
471.0651199286584
 21
187.4520874708437
 31
0.0
  0
CIRCLE
  5
327
330
17
100
AcDbEntity
  8
4
100
AcDbCircle
 10
473.374521005417
 20
187.4520877734917
 30
0.0
 40
4.25
  0
CIRCLE
  5
328
330
17
100
AcDbEntity
  8
4
100
AcDbCircle
 10
327.3744630054169
 20
187.4520877734917
 30
0.0
 40
4.25
  0
LINE
  5
329
330
17
100
AcDbEntity
  8
2
100
AcDbLine
 10
328.5291632816955
 20
185.4520876221677
 30
0.0
 11
329.6838640821755
 21
187.4520874708437
 31
0.0
  0
LINE
  5
32A
330
17
100
AcDbEntity
  8
2
100
AcDbLine
 10
325.0650619286586
 20
187.4520880761397
 30
0.0
 11
326.2197627291387
 21
189.4520879248155
 31
0.0
  0
LINE
  5
32B
330
17
100
AcDbEntity
  8
2
100
AcDbLine
 10
326.219762204937
 20
185.4520879248157
 30
0.0
 11
325.0650619286586
 21
187.4520880761397
 31
0.0
  0
LINE
  5
32C
330
17
100
AcDbEntity
  8
2
100
AcDbLine
 10
329.6838640821755
 20
187.4520874708437
 30
0.0
 11
328.5291638058971
 21
189.4520876221677
 31
0.0
  0
LINE
  5
32D
330
17
100
AcDbEntity
  8
2
100
AcDbLine
 10
328.5291632816955
 20
185.4520876221677
 30
0.0
 11
326.219762204937
 21
185.4520879248157
 31
0.0
  0
LINE
  5
32E
330
17
100
AcDbEntity
  8
2
100
AcDbLine
 10
328.5291638058971
 20
189.4520876221677
 30
0.0
 11
326.2197627291387
 21
189.4520879248155
 31
0.0
  0
LINE
  5
32F
330
17
100
AcDbEntity
  8
4
100
AcDbLine
 10
693.6744930054173
 20
128.4822083919479
 30
0.0
 11
699.9744930054171
 21
128.4822083919477
 31
0.0
  0
LINE
  5
330
330
17
100
AcDbEntity
  8
4
100
AcDbLine
 10
693.6744930054173
 20
119.9822083919479
 30
0.0
 11
699.9744930054171
 21
119.9822083919477
 31
0.0
  0
LINE
  5
331
330
17
100
AcDbEntity
  8
4
100
AcDbLine
 10
698.6744930054173
 20
119.9822083919477
 30
0.0
 11
698.6744930054173
 21
128.4822083919477
 31
0.0
  0
LINE
  5
332
330
17
100
AcDbEntity
  8
4
100
AcDbLine
 10
693.6744930054173
 20
119.9822083919479
 30
0.0
 11
693.6744930054173
 21
128.4822083919479
 31
0.0
  0
LINE
  5
333
330
17
100
AcDbEntity
  8
2
100
AcDbLine
 10
698.6744930054173
 20
122.9322083919478
 30
0.0
 11
699.9744930054172
 21
124.2322083919477
 31
0.0
  0
LINE
  5
334
330
17
100
AcDbEntity
  8
2
100
AcDbLine
 10
698.6744930054173
 20
124.7706860230327
 30
0.0
 11
699.9744930054172
 21
126.0706860230327
 31
0.0
  0
LINE
  5
335
330
17
100
AcDbEntity
  8
4
100
AcDbLine
 10
698.6744930054172
 20
183.2020877734917
 30
0.0
 11
698.6744930054172
 21
191.7020877734917
 31
0.0
  0
LINE
  5
336
330
17
100
AcDbEntity
  8
4
100
AcDbLine
 10
693.6744930054172
 20
183.2020877734919
 30
0.0
 11
693.6744930054172
 21
191.7020877734919
 31
0.0
  0
LINE
  5
337
330
17
100
AcDbEntity
  8
4
100
AcDbLine
 10
693.6744930054172
 20
183.2020877734919
 30
0.0
 11
699.974493005417
 21
183.2020877734917
 31
0.0
  0
LINE
  5
338
330
17
100
AcDbEntity
  8
2
100
AcDbLine
 10
698.6744930054172
 20
187.9905654045767
 30
0.0
 11
699.9744930054171
 21
189.2905654045767
 31
0.0
  0
LINE
  5
339
330
17
100
AcDbEntity
  8
2
100
AcDbLine
 10
698.6744930054172
 20
186.1520877734918
 30
0.0
 11
699.9744930054171
 21
187.4520877734917
 31
0.0
  0
LINE
  5
33A
330
17
100
AcDbEntity
  8
4
100
AcDbLine
 10
693.6744930054172
 20
191.7020877734919
 30
0.0
 11
699.974493005417
 21
191.7020877734917
 31
0.0
  0
LINE
  5
33B
330
17
100
AcDbEntity
  8
4
100
AcDbLine
 10
698.6744930054173
 20
254.9219671550356
 30
0.0
 11
698.6744930054173
 21
246.4219671550356
 31
0.0
  0
LINE
  5
33C
330
17
100
AcDbEntity
  8
4
100
AcDbLine
 10
693.6744930054173
 20
254.9219671550354
 30
0.0
 11
693.6744930054173
 21
246.4219671550354
 31
0.0
  0
LINE
  5
33D
330
17
100
AcDbEntity
  8
L-CENTER
 48
3.0
100
AcDbLine
 10
691.7189579496877
 20
250.6719671550354
 30
0.0
 11
716.7550185250024
 21
250.6719671550361
 31
0.0
  0
LINE
  5
33E
330
17
100
AcDbEntity
  8
4
100
AcDbLine
 10
693.6744930054173
 20
254.9219671550354
 30
0.0
 11
699.9744930054171
 21
254.9219671550356
 31
0.0
  0
LINE
  5
33F
330
17
100
AcDbEntity
  8
2
100
AcDbLine
 10
698.6744930054173
 20
250.1334895239506
 30
0.0
 11
699.9744930054172
 21
248.8334895239507
 31
0.0
  0
LINE
  5
340
330
17
100
AcDbEntity
  8
2
100
AcDbLine
 10
698.6744930054173
 20
251.9719671550356
 30
0.0
 11
699.9744930054172
 21
250.6719671550356
 31
0.0
  0
LINE
  5
341
330
17
100
AcDbEntity
  8
4
100
AcDbLine
 10
693.6744930054173
 20
246.4219671550354
 30
0.0
 11
699.9744930054171
 21
246.4219671550356
 31
0.0
  0
CIRCLE
  5
342
330
17
100
AcDbEntity
  8
4
100
AcDbCircle
 10
386.1110079800765
 20
799.2411672217349
 30
0.0
 40
5.75
  0
CIRCLE
  5
343
330
17
100
AcDbEntity
  8
4
100
AcDbCircle
 10
386.1110079800765
 20
799.2411672217349
 30
0.0
 40
5.0
  0
LINE
  5
344
330
17
100
AcDbEntity
  8
2
100
AcDbLine
 10
383.6110079800764
 20
797.7977915487609
 30
0.0
 11
383.6110079800764
 21
800.684542894709
 31
0.0
  0
LINE
  5
345
330
17
100
AcDbEntity
  8
2
100
AcDbLine
 10
388.6110079800763
 20
797.7977915487609
 30
0.0
 11
388.6110079800764
 21
800.684542894709
 31
0.0
  0
LINE
  5
346
330
17
100
AcDbEntity
  8
2
100
AcDbLine
 10
383.6110079800764
 20
800.684542894709
 30
0.0
 11
386.1110079800764
 21
802.1279185676831
 31
0.0
  0
LINE
  5
347
330
17
100
AcDbEntity
  8
2
100
AcDbLine
 10
386.1110079800763
 20
796.3544158757868
 30
0.0
 11
388.6110079800763
 21
797.7977915487609
 31
0.0
  0
LINE
  5
348
330
17
100
AcDbEntity
  8
2
100
AcDbLine
 10
386.1110079800764
 20
802.1279185676831
 30
0.0
 11
388.6110079800764
 21
800.684542894709
 31
0.0
  0
LINE
  5
349
330
17
100
AcDbEntity
  8
2
100
AcDbLine
 10
383.6110079800764
 20
797.7977915487609
 30
0.0
 11
386.1110079800763
 21
796.3544158757868
 31
0.0
  0
CIRCLE
  5
34A
330
17
100
AcDbEntity
  8
4
100
AcDbCircle
 10
300.3744930054169
 20
848.7411672217349
 30
0.0
 40
5.75
  0
CIRCLE
  5
34B
330
17
100
AcDbEntity
  8
4
100
AcDbCircle
 10
300.3744930054169
 20
848.7411672217349
 30
0.0
 40
5.0
  0
LINE
  5
34C
330
17
100
AcDbEntity
  8
2
100
AcDbLine
 10
297.8744930054168
 20
847.2977915487609
 30
0.0
 11
300.3744930054167
 21
845.8544158757868
 31
0.0
  0
LINE
  5
34D
330
17
100
AcDbEntity
  8
2
100
AcDbLine
 10
297.8744930054168
 20
850.184542894709
 30
0.0
 11
300.3744930054168
 21
851.6279185676831
 31
0.0
  0
LINE
  5
34E
330
17
100
AcDbEntity
  8
2
100
AcDbLine
 10
297.8744930054168
 20
847.2977915487609
 30
0.0
 11
297.8744930054168
 21
850.184542894709
 31
0.0
  0
LINE
  5
34F
330
17
100
AcDbEntity
  8
2
100
AcDbLine
 10
300.3744930054167
 20
845.8544158757868
 30
0.0
 11
302.8744930054167
 21
847.2977915487609
 31
0.0
  0
LINE
  5
350
330
17
100
AcDbEntity
  8
2
100
AcDbLine
 10
302.8744930054167
 20
847.2977915487609
 30
0.0
 11
302.8744930054168
 21
850.184542894709
 31
0.0
  0
LINE
  5
351
330
17
100
AcDbEntity
  8
2
100
AcDbLine
 10
300.3744930054168
 20
851.6279185676831
 30
0.0
 11
302.8744930054168
 21
850.184542894709
 31
0.0
  0
CIRCLE
  5
352
330
17
100
AcDbEntity
  8
4
100
AcDbCircle
 10
214.6379780307573
 20
799.2411672217349
 30
0.0
 40
5.75
  0
CIRCLE
  5
353
330
17
100
AcDbEntity
  8
4
100
AcDbCircle
 10
214.6379780307573
 20
799.2411672217349
 30
0.0
 40
5.0
  0
LINE
  5
354
330
17
100
AcDbEntity
  8
L-CENTER
 48
3.0
100
AcDbLine
 10
223.2982320686018
 20
794.2411672217349
 30
0.0
 11
205.977723992913
 21
804.2411672217349
 31
0.0
  0
LINE
  5
355
330
17
100
AcDbEntity
  8
2
100
AcDbLine
 10
217.1379780307573
 20
797.7977915487609
 30
0.0
 11
214.6379780307574
 21
796.3544158757868
 31
0.0
  0
LINE
  5
356
330
17
100
AcDbEntity
  8
2
100
AcDbLine
 10
217.1379780307573
 20
800.684542894709
 30
0.0
 11
214.6379780307574
 21
802.1279185676831
 31
0.0
  0
LINE
  5
357
330
17
100
AcDbEntity
  8
2
100
AcDbLine
 10
217.1379780307573
 20
797.7977915487609
 30
0.0
 11
217.1379780307573
 21
800.684542894709
 31
0.0
  0
LINE
  5
358
330
17
100
AcDbEntity
  8
2
100
AcDbLine
 10
214.6379780307574
 20
796.3544158757868
 30
0.0
 11
212.1379780307574
 21
797.7977915487609
 31
0.0
  0
LINE
  5
359
330
17
100
AcDbEntity
  8
2
100
AcDbLine
 10
212.1379780307574
 20
797.7977915487609
 30
0.0
 11
212.1379780307574
 21
800.684542894709
 31
0.0
  0
LINE
  5
35A
330
17
100
AcDbEntity
  8
2
100
AcDbLine
 10
214.6379780307574
 20
802.1279185676831
 30
0.0
 11
212.1379780307574
 21
800.684542894709
 31
0.0
  0
LINE
  5
35B
330
17
100
AcDbEntity
  8
L-CENTER
 48
3.0
100
AcDbLine
 10
223.2982320686018
 20
705.2411672217349
 30
0.0
 11
205.977723992913
 21
695.2411672217349
 31
0.0
  0
CIRCLE
  5
35C
330
17
100
AcDbEntity
  8
4
100
AcDbCircle
 10
214.6379780307573
 20
700.2411672217349
 30
0.0
 40
5.0
  0
CIRCLE
  5
35D
330
17
100
AcDbEntity
  8
4
100
AcDbCircle
 10
214.6379780307573
 20
700.2411672217349
 30
0.0
 40
5.75
  0
LINE
  5
35E
330
17
100
AcDbEntity
  8
2
100
AcDbLine
 10
214.6379780307574
 20
697.3544158757868
 30
0.0
 11
212.1379780307574
 21
698.7977915487609
 31
0.0
  0
LINE
  5
35F
330
17
100
AcDbEntity
  8
2
100
AcDbLine
 10
212.1379780307574
 20
701.684542894709
 30
0.0
 11
212.1379780307574
 21
698.7977915487609
 31
0.0
  0
LINE
  5
360
330
17
100
AcDbEntity
  8
2
100
AcDbLine
 10
214.6379780307574
 20
703.1279185676831
 30
0.0
 11
212.1379780307574
 21
701.684542894709
 31
0.0
  0
LINE
  5
361
330
17
100
AcDbEntity
  8
2
100
AcDbLine
 10
217.1379780307573
 20
701.684542894709
 30
0.0
 11
217.1379780307573
 21
698.7977915487609
 31
0.0
  0
LINE
  5
362
330
17
100
AcDbEntity
  8
2
100
AcDbLine
 10
217.1379780307573
 20
698.7977915487609
 30
0.0
 11
214.6379780307574
 21
697.3544158757868
 31
0.0
  0
LINE
  5
363
330
17
100
AcDbEntity
  8
2
100
AcDbLine
 10
217.1379780307573
 20
701.684542894709
 30
0.0
 11
214.6379780307574
 21
703.1279185676831
 31
0.0
  0
CIRCLE
  5
364
330
17
100
AcDbEntity
  8
4
100
AcDbCircle
 10
300.3744930054169
 20
650.7411672217349
 30
0.0
 40
5.0
  0
CIRCLE
  5
365
330
17
100
AcDbEntity
  8
4
100
AcDbCircle
 10
300.3744930054169
 20
650.7411672217349
 30
0.0
 40
5.75
  0
LINE
  5
366
330
17
100
AcDbEntity
  8
2
100
AcDbLine
 10
300.3744930054168
 20
647.8544158757868
 30
0.0
 11
302.8744930054168
 21
649.2977915487609
 31
0.0
  0
LINE
  5
367
330
17
100
AcDbEntity
  8
2
100
AcDbLine
 10
302.8744930054167
 20
652.184542894709
 30
0.0
 11
302.8744930054168
 21
649.2977915487609
 31
0.0
  0
LINE
  5
368
330
17
100
AcDbEntity
  8
2
100
AcDbLine
 10
300.3744930054167
 20
653.6279185676831
 30
0.0
 11
302.8744930054167
 21
652.184542894709
 31
0.0
  0
LINE
  5
369
330
17
100
AcDbEntity
  8
2
100
AcDbLine
 10
297.8744930054168
 20
652.184542894709
 30
0.0
 11
297.8744930054168
 21
649.2977915487609
 31
0.0
  0
LINE
  5
36A
330
17
100
AcDbEntity
  8
2
100
AcDbLine
 10
297.8744930054168
 20
649.2977915487609
 30
0.0
 11
300.3744930054168
 21
647.8544158757868
 31
0.0
  0
LINE
  5
36B
330
17
100
AcDbEntity
  8
2
100
AcDbLine
 10
297.8744930054168
 20
652.184542894709
 30
0.0
 11
300.3744930054167
 21
653.6279185676831
 31
0.0
  0
CIRCLE
  5
36C
330
17
100
AcDbEntity
  8
4
100
AcDbCircle
 10
386.1110079800765
 20
700.2411672217349
 30
0.0
 40
5.75
  0
CIRCLE
  5
36D
330
17
100
AcDbEntity
  8
4
100
AcDbCircle
 10
386.1110079800765
 20
700.2411672217349
 30
0.0
 40
5.0
  0
LINE
  5
36E
330
17
100
AcDbEntity
  8
L-CENTER
 48
2.0
100
AcDbLine
 10
377.4507539422319
 20
705.2411672217349
 30
0.0
 11
394.7712620179208
 21
695.2411672217349
 31
0.0
  0
LINE
  5
36F
330
17
100
AcDbEntity
  8
2
100
AcDbLine
 10
383.6110079800764
 20
701.684542894709
 30
0.0
 11
386.1110079800763
 21
703.1279185676831
 31
0.0
  0
LINE
  5
370
330
17
100
AcDbEntity
  8
2
100
AcDbLine
 10
383.6110079800764
 20
698.7977915487609
 30
0.0
 11
386.1110079800764
 21
697.3544158757868
 31
0.0
  0
LINE
  5
371
330
17
100
AcDbEntity
  8
2
100
AcDbLine
 10
383.6110079800764
 20
701.684542894709
 30
0.0
 11
383.6110079800764
 21
698.7977915487609
 31
0.0
  0
LINE
  5
372
330
17
100
AcDbEntity
  8
2
100
AcDbLine
 10
386.1110079800763
 20
703.1279185676831
 30
0.0
 11
388.6110079800763
 21
701.684542894709
 31
0.0
  0
LINE
  5
373
330
17
100
AcDbEntity
  8
2
100
AcDbLine
 10
388.6110079800763
 20
701.684542894709
 30
0.0
 11
388.6110079800764
 21
698.7977915487609
 31
0.0
  0
LINE
  5
374
330
17
100
AcDbEntity
  8
2
100
AcDbLine
 10
386.1110079800764
 20
697.3544158757868
 30
0.0
 11
388.6110079800764
 21
698.7977915487609
 31
0.0
  0
LINE
  5
375
330
17
100
AcDbEntity
  8
4
100
AcDbLine
 10
220.3879780307576
 20
261.2520877734917
 30
0.0
 11
220.3879780307577
 21
259.7520877734917
 31
0.0
  0
LINE
  5
376
330
17
100
AcDbEntity
  8
4
100
AcDbLine
 10
208.8879780307576
 20
261.2520877734917
 30
0.0
 11
208.8879780307576
 21
259.7520877734917
 31
0.0
  0
LINE
  5
377
330
17
100
AcDbEntity
  8
4
100
AcDbLine
 10
219.6379780307576
 20
267.2520877734917
 30
0.0
 11
219.6379780307576
 21
261.2520877734914
 31
0.0
  0
LINE
  5
378
330
17
100
AcDbEntity
  8
4
100
AcDbLine
 10
209.6379780307576
 20
267.2520877734917
 30
0.0
 11
209.6379780307576
 21
261.2520877734914
 31
0.0
  0
LINE
  5
379
330
17
100
AcDbEntity
  8
4
100
AcDbLine
 10
220.3879780307576
 20
261.2520877734917
 30
0.0
 11
208.8879780307576
 21
261.2520877734917
 31
0.0
  0
LINE
  5
37A
330
17
100
AcDbEntity
  8
4
100
AcDbLine
 10
219.6379780307576
 20
267.2520877734917
 30
0.0
 11
209.6379780307576
 21
267.2520877734917
 31
0.0
  0
LINE
  5
37B
330
17
100
AcDbEntity
  8
2
100
AcDbLine
 10
216.1379780307576
 20
261.2520877734917
 30
0.0
 11
214.6379780307576
 21
259.7520877734917
 31
0.0
  0
LINE
  5
37C
330
17
100
AcDbEntity
  8
2
100
AcDbLine
 10
214.016657687198
 20
261.2520877734917
 30
0.0
 11
212.516657687198
 21
259.7520877734917
 31
0.0
  0
LINE
  5
37D
330
17
100
AcDbEntity
  8
4
100
AcDbLine
 10
306.1244930054169
 20
261.2520877734917
 30
0.0
 11
294.6244930054169
 21
261.2520877734917
 31
0.0
  0
LINE
  5
37E
330
17
100
AcDbEntity
  8
4
100
AcDbLine
 10
305.3744930054169
 20
267.2520877734917
 30
0.0
 11
295.3744930054169
 21
267.2520877734917
 31
0.0
  0
LINE
  5
37F
330
17
100
AcDbEntity
  8
4
100
AcDbLine
 10
294.6244930054169
 20
261.2520877734917
 30
0.0
 11
294.6244930054169
 21
259.7520877734917
 31
0.0
  0
LINE
  5
380
330
17
100
AcDbEntity
  8
4
100
AcDbLine
 10
295.3744930054169
 20
267.2520877734917
 30
0.0
 11
295.3744930054169
 21
261.2520877734914
 31
0.0
  0
LINE
  5
381
330
17
100
AcDbEntity
  8
2
100
AcDbLine
 10
301.8744930054169
 20
261.2520877734917
 30
0.0
 11
300.3744930054169
 21
259.7520877734917
 31
0.0
  0
LINE
  5
382
330
17
100
AcDbEntity
  8
2
100
AcDbLine
 10
299.7531726618573
 20
261.2520877734917
 30
0.0
 11
298.2531726618573
 21
259.7520877734917
 31
0.0
  0
LINE
  5
383
330
17
100
AcDbEntity
  8
4
100
AcDbLine
 10
306.1244930054169
 20
261.2520877734917
 30
0.0
 11
306.1244930054169
 21
259.7520877734917
 31
0.0
  0
LINE
  5
384
330
17
100
AcDbEntity
  8
4
100
AcDbLine
 10
305.3744930054169
 20
267.2520877734917
 30
0.0
 11
305.3744930054169
 21
261.2520877734914
 31
0.0
  0
LINE
  5
385
330
17
100
AcDbEntity
  8
4
100
AcDbLine
 10
295.3744930054169
 20
265.4520877734917
 30
0.0
 11
260.3744940054168
 21
265.4520877734917
 31
0.0
  0
LINE
  5
386
330
17
100
AcDbEntity
  8
4
100
AcDbLine
 10
295.3744930054169
 20
266.4520867734918
 30
0.0
 11
269.3744940054168
 21
266.4520867734918
 31
0.0
  0
LINE
  5
387
330
17
100
AcDbEntity
  8
4
100
AcDbLine
 10
806.3744930054166
 20
267.2520877734917
 30
0.0
 11
796.3744930054166
 21
267.2520877734917
 31
0.0
  0
LINE
  5
388
330
17
100
AcDbEntity
  8
4
100
AcDbLine
 10
806.3744930054166
 20
267.2520877734917
 30
0.0
 11
806.3744930054166
 21
261.2520877734914
 31
0.0
  0
LINE
  5
389
330
17
100
AcDbEntity
  8
4
100
AcDbLine
 10
807.1244930054166
 20
261.2520877734917
 30
0.0
 11
795.6244930054166
 21
261.2520877734917
 31
0.0
  0
LINE
  5
38A
330
17
100
AcDbEntity
  8
4
100
AcDbLine
 10
795.6244930054166
 20
261.2520877734917
 30
0.0
 11
795.6244930054166
 21
259.7520877734917
 31
0.0
  0
LINE
  5
38B
330
17
100
AcDbEntity
  8
4
100
AcDbLine
 10
796.3744930054166
 20
267.2520877734917
 30
0.0
 11
796.3744930054166
 21
261.2520877734914
 31
0.0
  0
LINE
  5
38C
330
17
100
AcDbEntity
  8
4
100
AcDbLine
 10
807.1244930054166
 20
261.2520877734917
 30
0.0
 11
807.1244930054166
 21
259.7520877734917
 31
0.0
  0
LINE
  5
38D
330
17
100
AcDbEntity
  8
4
100
AcDbLine
 10
855.874493005417
 20
267.2520877734917
 30
0.0
 11
845.874493005417
 21
267.2520877734917
 31
0.0
  0
LINE
  5
38E
330
17
100
AcDbEntity
  8
4
100
AcDbLine
 10
856.624493005417
 20
261.2520877734917
 30
0.0
 11
845.124493005417
 21
261.2520877734917
 31
0.0
  0
LINE
  5
38F
330
17
100
AcDbEntity
  8
4
100
AcDbLine
 10
845.124493005417
 20
261.2520877734917
 30
0.0
 11
845.124493005417
 21
259.7520877734917
 31
0.0
  0
LINE
  5
390
330
17
100
AcDbEntity
  8
4
100
AcDbLine
 10
845.874493005417
 20
267.2520877734917
 30
0.0
 11
845.874493005417
 21
261.2520877734914
 31
0.0
  0
LINE
  5
391
330
17
100
AcDbEntity
  8
4
100
AcDbLine
 10
855.874493005417
 20
267.2520877734917
 30
0.0
 11
855.874493005417
 21
261.2520877734914
 31
0.0
  0
LINE
  5
392
330
17
100
AcDbEntity
  8
4
100
AcDbLine
 10
856.624493005417
 20
261.2520877734917
 30
0.0
 11
856.624493005417
 21
259.7520877734917
 31
0.0
  0
LINE
  5
393
330
17
100
AcDbEntity
  8
4
100
AcDbLine
 10
994.3744930054171
 20
267.2520877734917
 30
0.0
 11
1004.374493005417
 21
267.2520877734917
 31
0.0
  0
LINE
  5
394
330
17
100
AcDbEntity
  8
4
100
AcDbLine
 10
993.6244930054171
 20
261.2520877734917
 30
0.0
 11
1005.124493005417
 21
261.2520877734917
 31
0.0
  0
LINE
  5
395
330
17
100
AcDbEntity
  8
4
100
AcDbLine
 10
1005.124493005417
 20
261.2520877734917
 30
0.0
 11
1005.124493005417
 21
259.7520877734917
 31
0.0
  0
LINE
  5
396
330
17
100
AcDbEntity
  8
4
100
AcDbLine
 10
1004.374493005417
 20
267.2520877734917
 30
0.0
 11
1004.374493005417
 21
261.2520877734914
 31
0.0
  0
LINE
  5
397
330
17
100
AcDbEntity
  8
4
100
AcDbLine
 10
994.3744930054171
 20
267.2520877734917
 30
0.0
 11
994.3744930054171
 21
261.2520877734914
 31
0.0
  0
LINE
  5
398
330
17
100
AcDbEntity
  8
4
100
AcDbLine
 10
993.6244930054171
 20
261.2520877734917
 30
0.0
 11
993.6244930054171
 21
259.7520877734917
 31
0.0
  0
LINE
  5
399
330
17
100
AcDbEntity
  8
L-CENTER
 48
3.0
100
AcDbLine
 10
999.3744930054171
 20
270.3177845788418
 30
0.0
 11
999.3744930054171
 21
239.8279781707522
 31
0.0
  0
LINE
  5
39A
330
17
100
AcDbEntity
  8
4
100
AcDbLine
 10
944.1244930054168
 20
261.2520877734917
 30
0.0
 11
955.6244930054168
 21
261.2520877734917
 31
0.0
  0
LINE
  5
39B
330
17
100
AcDbEntity
  8
4
100
AcDbLine
 10
944.8744930054168
 20
267.2520877734917
 30
0.0
 11
954.8744930054168
 21
267.2520877734917
 31
0.0
  0
LINE
  5
39C
330
17
100
AcDbEntity
  8
4
100
AcDbLine
 10
954.8744930054168
 20
267.2520877734917
 30
0.0
 11
954.8744930054168
 21
261.2520877734914
 31
0.0
  0
LINE
  5
39D
330
17
100
AcDbEntity
  8
4
100
AcDbLine
 10
955.6244930054168
 20
261.2520877734917
 30
0.0
 11
955.6244930054168
 21
259.7520877734917
 31
0.0
  0
LINE
  5
39E
330
17
100
AcDbEntity
  8
4
100
AcDbLine
 10
944.1244930054168
 20
261.2520877734917
 30
0.0
 11
944.1244930054168
 21
259.7520877734917
 31
0.0
  0
LINE
  5
39F
330
17
100
AcDbEntity
  8
4
100
AcDbLine
 10
944.8744930054168
 20
267.2520877734917
 30
0.0
 11
944.8744930054168
 21
261.2520877734914
 31
0.0
  0
LINE
  5
3A0
330
17
100
AcDbEntity
  8
L-CENTER
 48
3.0
100
AcDbLine
 10
949.8744930054168
 20
270.3177845788418
 30
0.0
 11
949.8744930054168
 21
239.8279781707522
 31
0.0
  0
LINE
  5
3A1
330
17
100
AcDbEntity
  8
4
100
AcDbLine
 10
432.6245075401265
 20
543.0411672217351
 30
0.0
 11
432.6245075401263
 21
549.3411672217348
 31
0.0
  0
LINE
  5
3A2
330
17
100
AcDbEntity
  8
4
100
AcDbLine
 10
432.6245075401265
 20
543.0411672217351
 30
0.0
 11
441.1245075401265
 21
543.0411672217351
 31
0.0
  0
LINE
  5
3A3
330
17
100
AcDbEntity
  8
4
100
AcDbLine
 10
432.6245075401263
 20
548.0411672217351
 30
0.0
 11
441.1245075401264
 21
548.0411672217351
 31
0.0
  0
LINE
  5
3A4
330
17
100
AcDbEntity
  8
4
100
AcDbLine
 10
441.1245075401265
 20
543.0411672217351
 30
0.0
 11
441.1245075401263
 21
549.3411672217348
 31
0.0
  0
LINE
  5
3A5
330
17
100
AcDbEntity
  8
4
100
AcDbLine
 10
477.6245230054147
 20
543.0411672217351
 30
0.0
 11
477.6245230054145
 21
549.3411672217348
 31
0.0
  0
LINE
  5
3A6
330
17
100
AcDbEntity
  8
4
100
AcDbLine
 10
469.1245230054147
 20
543.0411672217351
 30
0.0
 11
477.6245230054147
 21
543.0411672217351
 31
0.0
  0
LINE
  5
3A7
330
17
100
AcDbEntity
  8
4
100
AcDbLine
 10
469.1245230054145
 20
548.0411672217351
 30
0.0
 11
477.6245230054146
 21
548.0411672217351
 31
0.0
  0
LINE
  5
3A8
330
17
100
AcDbEntity
  8
4
100
AcDbLine
 10
469.1245230054147
 20
543.0411672217351
 30
0.0
 11
469.1245230054145
 21
549.3411672217348
 31
0.0
  0
LINE
  5
3A9
330
17
100
AcDbEntity
  8
4
100
AcDbLine
 10
331.6244630054173
 20
543.0411672217351
 30
0.0
 11
331.6244630054171
 21
549.3411672217348
 31
0.0
  0
LINE
  5
3AA
330
17
100
AcDbEntity
  8
4
100
AcDbLine
 10
323.1244630054173
 20
543.0411672217351
 30
0.0
 11
323.1244630054171
 21
549.3411672217348
 31
0.0
  0
LINE
  5
3AB
330
17
100
AcDbEntity
  8
4
100
AcDbLine
 10
323.1244630054173
 20
543.0411672217351
 30
0.0
 11
331.6244630054173
 21
543.0411672217351
 31
0.0
  0
LINE
  5
3AC
330
17
100
AcDbEntity
  8
4
100
AcDbLine
 10
323.1244630054171
 20
548.0411672217351
 30
0.0
 11
331.6244630054172
 21
548.0411672217351
 31
0.0
  0
LINE
  5
3AD
330
17
100
AcDbEntity
  8
4
100
AcDbLine
 10
359.6244784707053
 20
548.0411672217351
 30
0.0
 11
368.1244784707054
 21
548.0411672217351
 31
0.0
  0
LINE
  5
3AE
330
17
100
AcDbEntity
  8
4
100
AcDbLine
 10
359.6244784707055
 20
543.0411672217351
 30
0.0
 11
368.1244784707055
 21
543.0411672217351
 31
0.0
  0
LINE
  5
3AF
330
17
100
AcDbEntity
  8
4
100
AcDbLine
 10
359.6244784707055
 20
543.0411672217351
 30
0.0
 11
359.6244784707053
 21
549.3411672217348
 31
0.0
  0
LINE
  5
3B0
330
17
100
AcDbEntity
  8
4
100
AcDbLine
 10
368.1244784707055
 20
543.0411672217351
 30
0.0
 11
368.1244784707053
 21
549.3411672217348
 31
0.0
  0
LINE
  5
3B1
330
17
100
AcDbEntity
  8
4
100
AcDbLine
 10
320.3744940054168
 20
97.45208777349166
 30
0.0
 11
320.3744940054168
 21
105.4520877734917
 31
0.0
  0
LINE
  5
3B2
330
17
100
AcDbEntity
  8
4
100
AcDbLine
 10
931.374492005417
 20
105.4520877734917
 30
0.0
 11
869.3744940054168
 21
105.4520877734917
 31
0.0
  0
LINE
  5
3B3
330
17
100
AcDbEntity
  8
4
100
AcDbLine
 10
869.3744940054168
 20
106.4520877734917
 30
0.0
 11
869.3744940054168
 21
105.4520877734917
 31
0.0
  0
LINE
  5
3B4
330
17
100
AcDbEntity
  8
4
100
AcDbLine
 10
931.374492005417
 20
106.4520877734917
 30
0.0
 11
931.374492005417
 21
105.4520877734917
 31
0.0
  0
LINE
  5
3B5
330
17
100
AcDbEntity
  8
4
100
AcDbLine
 10
269.3744940054168
 20
106.4520877734917
 30
0.0
 11
269.3744940054167
 21
105.4520877734917
 31
0.0
  0
LINE
  5
3B6
330
17
100
AcDbEntity
  8
4
100
AcDbLine
 10
331.374492005417
 20
105.4520877734917
 30
0.0
 11
269.3744940054168
 21
105.4520877734917
 31
0.0
  0
LINE
  5
3B7
330
17
100
AcDbEntity
  8
4
100
AcDbLine
 10
331.374492005417
 20
106.4520877734917
 30
0.0
 11
331.374492005417
 21
105.4520877734917
 31
0.0
  0
LINE
  5
550
330
17
100
AcDbEntity
  8
2
 48
3.0
100
AcDbLine
 10
187.3245900054166
 20
125.0618024805293
 30
0.0
 11
189.3744930054169
 21
124.9520877734917
 31
0.0
  0
LINE
  5
551
330
17
100
AcDbEntity
  8
4
100
AcDbLine
 10
187.3245900054166
 20
117.4520887734915
 30
0.0
 11
187.3245900054166
 21
126.1603477707941
 31
0.0
  0
LINE
  5
552
330
17
100
AcDbEntity
  8
4
100
AcDbLine
 10
189.3744930054166
 20
125.997993770794
 30
0.0
 11
187.3245900054166
 21
126.1603477707941
 31
0.0
  0
ARC
  5
5AD
330
17
100
AcDbEntity
  8
4
100
AcDbCircle
 10
300.3744930054169
 20
749.7411672217349
 30
0.0
 40
18.999999
100
AcDbArc
 50
285.2575272387606
 51
254.7424769999998
  0
LINE
  5
5AE
330
17
100
AcDbEntity
  8
4
100
AcDbLine
 10
305.3744940054168
 20
727.2411672217349
 30
0.0
 11
295.374492005417
 21
727.2411672217349
 31
0.0
  0
LINE
  5
5AF
330
17
100
AcDbEntity
  8
4
100
AcDbLine
 10
305.3744940054168
 20
735.2411682217348
 30
0.0
 11
295.374492005417
 21
735.2411682217348
 31
0.0
  0
LINE
  5
5B0
330
17
100
AcDbEntity
  8
4
100
AcDbLine
 10
305.3744940054168
 20
727.2411672217349
 30
0.0
 11
305.3744940054168
 21
735.2411682217348
 31
0.0
  0
LINE
  5
5B1
330
17
100
AcDbEntity
  8
4
100
AcDbLine
 10
295.374492005417
 20
727.2411672217349
 30
0.0
 11
295.374492005417
 21
735.2411682217348
 31
0.0
  0
LINE
  5
5B2
330
17
100
AcDbEntity
  8
4
100
AcDbLine
 10
305.3744940054168
 20
357.4520887734916
 30
0.0
 11
305.3744940054168
 21
287.4520867734918
 31
0.0
  0
LINE
  5
5B3
330
17
100
AcDbEntity
  8
4
100
AcDbLine
 10
295.374492005417
 20
357.4520887734916
 30
0.0
 11
295.374492005417
 21
287.4520867734918
 31
0.0
  0
LINE
  5
5B4
330
17
100
AcDbEntity
  8
4
100
AcDbLine
 10
319.374492005417
 20
356.4520867734918
 30
0.0
 11
319.374492005417
 21
301.4520877734917
 31
0.0
  0
LINE
  5
5B5
330
17
100
AcDbEntity
  8
4
100
AcDbLine
 10
281.3744940054168
 20
356.4520867734918
 30
0.0
 11
281.3744940054168
 21
277.4520877734917
 31
0.0
  0
ARC
  5
5B6
330
17
100
AcDbEntity
  8
4
100
AcDbCircle
 10
300.3744930054169
 20
287.4520867734918
 30
0.0
 40
5.000000999999999
100
AcDbArc
 50
270.0
 51
0.0
  0
ARC
  5
5B7
330
17
100
AcDbEntity
  8
4
100
AcDbCircle
 10
300.3744930054169
 20
287.4520867734918
 30
0.0
 40
5.000000999999999
100
AcDbArc
 50
180.0
 51
270.0
  0
LINE
  5
5B8
330
17
100
AcDbEntity
  8
4
100
AcDbLine
 10
313.374492005417
 20
277.4520877734917
 30
0.0
 11
280.374492005417
 21
277.4520877734917
 31
0.0
  0
LINE
  5
5B9
330
17
100
AcDbEntity
  8
4
100
AcDbLine
 10
280.374492005417
 20
277.4520877734917
 30
0.0
 11
280.374492005417
 21
266.4520867734918
 31
0.0
  0
LINE
  5
5BA
330
17
100
AcDbEntity
  8
4
100
AcDbLine
 10
318.3744930054169
 20
357.4520887734916
 30
0.0
 11
282.3744930054169
 21
357.4520887734916
 31
0.0
  0
LINE
  5
5BB
330
17
100
AcDbEntity
  8
4
100
AcDbLine
 10
281.3744940054168
 20
356.4520867734918
 30
0.0
 11
295.374492005417
 21
356.4520867734918
 31
0.0
  0
LINE
  5
5BC
330
17
100
AcDbEntity
  8
4
100
AcDbLine
 10
282.3744930054169
 20
357.4520887734916
 30
0.0
 11
281.3744940054168
 21
356.4520867734918
 31
0.0
  0
LINE
  5
5BD
330
17
100
AcDbEntity
  8
4
100
AcDbLine
 10
305.3744940054168
 20
356.4520867734918
 30
0.0
 11
319.374492005417
 21
356.4520867734918
 31
0.0
  0
LINE
  5
5BE
330
17
100
AcDbEntity
  8
4
100
AcDbLine
 10
318.3744930054169
 20
357.4520887734916
 30
0.0
 11
319.374492005417
 21
356.4520867734918
 31
0.0
  0
LINE
  5
5BF
330
17
100
AcDbEntity
  8
4
100
AcDbLine
 10
877.8748350054167
 20
357.4520887734916
 30
0.0
 11
877.8748350054167
 21
282.4520887734916
 31
0.0
  0
LINE
  5
5C0
330
17
100
AcDbEntity
  8
4
100
AcDbLine
 10
919.3748370054169
 20
356.4520867734918
 30
0.0
 11
919.3748370054169
 21
277.4520877734917
 31
0.0
  0
LINE
  5
5C1
330
17
100
AcDbEntity
  8
4
100
AcDbLine
 10
881.3748360054166
 20
356.4520867734918
 30
0.0
 11
881.3748360054166
 21
277.4520877734917
 31
0.0
  0
LINE
  5
5C2
330
17
100
AcDbEntity
  8
4
100
AcDbLine
 10
920.3741970054172
 20
277.4520877734917
 30
0.0
 11
880.3748370054169
 21
277.4520877734917
 31
0.0
  0
LINE
  5
5C3
330
17
100
AcDbEntity
  8
4
100
AcDbLine
 10
881.3748360054166
 20
282.4520887734916
 30
0.0
 11
877.8748350054167
 21
282.4520887734916
 31
0.0
  0
LINE
  5
5C4
330
17
100
AcDbEntity
  8
4
100
AcDbLine
 10
880.3748370054169
 20
277.4520877734917
 30
0.0
 11
880.3748370054169
 21
266.4520867734918
 31
0.0
  0
LINE
  5
5C5
330
17
100
AcDbEntity
  8
4
100
AcDbLine
 10
920.3741970054172
 20
277.4520877734917
 30
0.0
 11
920.3741970054172
 21
266.4520867734918
 31
0.0
  0
LINE
  5
5C6
330
17
100
AcDbEntity
  8
4
100
AcDbLine
 10
881.3748360054166
 20
356.4520867734918
 30
0.0
 11
919.3748370054169
 21
356.4520867734918
 31
0.0
  0
LINE
  5
5C7
330
17
100
AcDbEntity
  8
4
100
AcDbLine
 10
882.3748350054167
 20
357.4520887734916
 30
0.0
 11
881.3748360054166
 21
356.4520867734918
 31
0.0
  0
LINE
  5
5C8
330
17
100
AcDbEntity
  8
4
100
AcDbLine
 10
918.3748350054167
 20
357.4520887734916
 30
0.0
 11
877.8748350054167
 21
357.4520887734916
 31
0.0
  0
LINE
  5
5CA
102
{ACAD_REACTORS
330
3C1
102
}
330
17
100
AcDbEntity
  8
4
100
AcDbLine
 10
918.3748350054167
 20
357.4520887734916
 30
0.0
 11
919.3748370054169
 21
356.4520867734918
 31
0.0
  0
ENDSEC
  0
SECTION
  2
OBJECTS
  0
DICTIONARY
  5
5
330
0
100
AcDbDictionary
281
     1
  3
ACAD_COLOR
350
29
  3
ACAD_GROUP
350
27
  3
ACAD_LAYOUT
350
1E
  3
ACAD_MATERIAL
350
7
  3
ACAD_MLEADERSTYLE
350
586
  3
ACAD_MLINESTYLE
350
15
  3
ACAD_PLOTSETTINGS
350
28
  3
ACAD_PLOTSTYLENAME
350
4
  3
ACAD_SCALELIST
350
2D
  3
ACAD_TABLESTYLE
350
585
  3
ACAD_VISUALSTYLE
350
2A
  3
ACDBHEADERROUNDTRIPXREC
350
62B
  3
AcDbVariableDictionary
350
583
  3
DWGPROPS
350
62E
  0
DICTIONARY
  5
62F
330
26
100
AcDbDictionary
280
     1
281
     1
  3
ACAD_XREC_ROUNDTRIP
360
630
  0
DICTIONARY
  5
89
330
88
100
AcDbDictionary
280
     1
281
     1
  3
ADSK_XREC_LAYER_RECONCILED
360
8A
  0
DICTIONARY
  5
18
330
17
100
AcDbDictionary
280
     1
281
     1
  3
ACAD_SORTENTS
360
19
  0
DICTIONARY
  5
29
102
{ACAD_REACTORS
330
5
102
}
330
5
100
AcDbDictionary
281
     1
  0
DICTIONARY
  5
27
102
{ACAD_REACTORS
330
5
102
}
330
5
100
AcDbDictionary
281
     1
  0
DICTIONARY
  5
1E
102
{ACAD_REACTORS
330
5
102
}
330
5
100
AcDbDictionary
281
     1
  3
Model
350
1D
  3
レイアウト 1
350
23
  0
DICTIONARY
  5
7
102
{ACAD_REACTORS
330
5
102
}
330
5
100
AcDbDictionary
281
     1
  3
ByBlock
350
70
  3
ByLayer
350
10
  3
Global
350
6
  0
DICTIONARY
  5
586
102
{ACAD_REACTORS
330
5
102
}
330
5
100
AcDbDictionary
281
     1
  3
Standard
350
5A2
  0
DICTIONARY
  5
15
102
{ACAD_REACTORS
330
5
102
}
330
5
100
AcDbDictionary
281
     1
  3
STANDARD
350
14
  0
DICTIONARY
  5
28
102
{ACAD_REACTORS
330
5
102
}
330
5
100
AcDbDictionary
281
     1
  0
ACDBDICTIONARYWDFLT
  5
4
102
{ACAD_REACTORS
330
5
102
}
330
5
100
AcDbDictionary
281
     1
  3
Normal
350
3
100
AcDbDictionaryWithDefault
340
3
  0
DICTIONARY
  5
2D
102
{ACAD_REACTORS
330
5
102
}
330
5
100
AcDbDictionary
281
     1
  3
*A1
350
4F
  3
*A10
350
58
  3
*A11
350
59
  3
*A12
350
5A
  3
*A13
350
5B
  3
*A14
350
5C
  3
*A15
350
5D
  3
*A16
350
5E
  3
*A17
350
5F
  3
*A18
350
60
  3
*A19
350
61
  3
*A2
350
50
  3
*A20
350
62
  3
*A21
350
63
  3
*A22
350
64
  3
*A23
350
65
  3
*A24
350
66
  3
*A25
350
67
  3
*A26
350
68
  3
*A27
350
69
  3
*A28
350
6A
  3
*A29
350
6B
  3
*A3
350
51
  3
*A30
350
6C
  3
*A31
350
6D
  3
*A32
350
6E
  3
*A33
350
6F
  3
*A4
350
52
  3
*A5
350
53
  3
*A6
350
54
  3
*A7
350
55
  3
*A8
350
56
  3
*A9
350
57
  0
DICTIONARY
  5
585
102
{ACAD_REACTORS
330
5
102
}
330
5
100
AcDbDictionary
281
     1
  3
Standard
350
5A1
  0
DICTIONARY
  5
2A
102
{ACAD_REACTORS
330
5
102
}
330
5
100
AcDbDictionary
281
     1
  3
2dWireframe
350
58D
  3
Basic
350
590
  3
Brighten
350
594
  3
ColorChange
350
598
  3
Conceptual
350
592
  3
Dim
350
593
  3
EdgeColorOff
350
59B
  3
Facepattern
350
597
  3
Flat
350
589
  3
FlatWithEdges
350
58A
  3
Gouraud
350
58B
  3
GouraudWithEdges
350
58C
  3
Hidden
350
58F
  3
JitterOff
350
599
  3
Linepattern
350
596
  3
OverhangOff
350
59A
  3
Realistic
350
591
  3
Shaded
350
5A0
  3
Shaded with edges
350
59F
  3
Shades of Gray
350
59C
  3
Sketchy
350
59D
  3
Thicken
350
595
  3
Wireframe
350
58E
  3
X-Ray
350
59E
  0
DICTIONARY
  5
62B
102
{ACAD_REACTORS
330
5
102
}
330
5
100
AcDbDictionary
281
     1
  3
COLORDICT
350
62C
  3
MATERIALDICT
350
62D
  0
DICTIONARY
  5
583
102
{ACAD_REACTORS
330
5
102
}
330
5
100
AcDbDictionary
281
     1
  3
CANNOSCALE
350
584
  3
CMLEADERSTYLE
350
5A5
  3
CTABLESTYLE
350
5A4
  3
DIMASSOC
350
629
  3
HIDETEXT
350
62A
  3
MSLTSCALE
350
631
  3
XCLIPFRAME
350
628
  0
XRECORD
  5
62E
102
{ACAD_REACTORS
330
5
102
}
330
5
100
AcDbXrecord
280
     1
  1
DWGPROPS COOKIE
  2

  3

  4

  6

  7

  8
sg-d03
  9

300
=
301
=
302
=
303
=
304
=
305
=
306
=
307
=
308
=
309
=
 40
0.0
 41
2457560.420311099
 42
2458124.360061504
  1

 90
        0
  0
XRECORD
  5
630
102
{ACAD_REACTORS
330
62F
102
}
330
62F
100
AcDbXrecord
280
     1
102
VTR_0.000_0.000_1.000_1.000_GRIDDISPLAY
 70
     3
102
VTR_0.000_0.000_1.000_1.000_GRIDMAJOR
 70
     5
102
VTR_0.000_0.000_1.000_1.000_DEFAULTLIGHTING
280
     1
102
VTR_0.000_0.000_1.000_1.000_DEFAULTLIGHTINGTYPE
 70
     1
102
VTR_0.000_0.000_1.000_1.000_BRIGHTNESS
141
0.0
102
VTR_0.000_0.000_1.000_1.000_CONTRAST
142
0.0
  0
XRECORD
  5
8A
102
{ACAD_REACTORS
330
89
102
}
330
89
100
AcDbXrecord
280
     1
290
     1
  0
SORTENTSTABLE
  5
19
102
{ACAD_REACTORS
330
18
102
}
330
18
100
AcDbSortentsTable
330
17
  0
LAYOUT
  5
1D
102
{ACAD_REACTORS
330
1E
102
}
330
1E
100
AcDbPlotSettings
  1

  2
Bullzip PDF Printer.pc3
  4
A3
  6

 40
0.2
 41
0.0
 42
0.0
 43
0.0
 44
420.2
 45
297.1
 46
25.0
 47
12.0
 48
59.99999985999989
 49
0.0
140
1205.999997235
141
817.4999980924999
142
1.0
143
3.0
 70
  1696
 72
     1
 73
     0
 74
     4
  7
monochrome.ctb
 75
     0
147
0.3333333333333333
148
-59.99999985999989
149
0.0
100
AcDbLayout
  1
Model
 70
     0
 71
     0
 10
0.0
 20
0.0
 11
816.5000000000001
 21
565.0
 12
0.0
 22
0.0
 32
0.0
 14
180.3744930054169
 24
13.68898577990478
 34
0.0
 15
1015.538310005416
 25
861.4742620146478
 35
0.0
146
0.0
 13
0.0
 23
0.0
 33
0.0
 16
1.0
 26
0.0
 36
0.0
 17
0.0
 27
1.0
 37
0.0
 76
     0
330
17
331
2B
1001
ACAD_PSEXT
1000
Bullzip PDF Printer.pc3
1000
Bullzip PDF Printer
1000
BULLZIP
1000
Bullzip PDF Printer 10.1.0.1871
1070
     0
  0
LAYOUT
  5
23
102
{ACAD_REACTORS
330
1E
102
}
330
1E
100
AcDbPlotSettings
  1

  2
none_device
  4
ISO_A4_(210.00_x_297.00_MM)
  6

 40
0.0
 41
0.0
 42
0.0
 43
0.0
 44
0.0
 45
0.0
 46
0.0
 47
0.0
 48
0.0
 49
0.0
140
0.0
141
0.0
142
1.0
143
1.0
 70
   688
 72
     0
 73
     1
 74
     5
  7
monochrome.ctb
 75
    16
147
1.0
148
0.0
149
0.0
100
AcDbLayout
  1
レイアウト 1
 70
     0
 71
     1
 10
0.0
 20
0.0
 11
12.0
 21
9.0
 12
0.0
 22
0.0
 32
0.0
 14
1000000000000000E+20
 24
1000000000000000E+20
 34
1000000000000000E+20
 15
-1000000000000000E+20
 25
-1000000000000000E+20
 35
-1000000000000000E+20
146
0.0
 13
0.0
 23
0.0
 33
0.0
 16
1.0
 26
0.0
 36
0.0
 17
0.0
 27
1.0
 37
0.0
 76
     0
330
20
  0
MATERIAL
  5
70
102
{ACAD_REACTORS
330
7
102
}
102
{ACAD_XDICTIONARY
360
636
102
}
330
7
100
AcDbMaterial
  1
ByBlock
  0
MATERIAL
  5
10
102
{ACAD_REACTORS
330
7
102
}
102
{ACAD_XDICTIONARY
360
632
102
}
330
7
100
AcDbMaterial
  1
ByLayer
  0
MATERIAL
  5
6
102
{ACAD_REACTORS
330
7
102
}
102
{ACAD_XDICTIONARY
360
634
102
}
330
7
100
AcDbMaterial
  1
Global
1001
ACAD
1070
    -1
1070
     3
1070
     0
1000

1071
        0
  0
MLEADERSTYLE
  5
5A2
102
{ACAD_REACTORS
330
586
102
}
102
{ACAD_XDICTIONARY
360
668
102
}
330
586
100
AcDbMLeaderStyle
170
     2
171
     1
172
     0
 90
        2
 40
0.0
 41
0.0
173
     1
 91
-1056964608
340
D
 92
       -2
290
     1
 42
0.09
291
     1
 43
0.36
  3
Standard
341
0
 44
0.18
300

342
E
174
     1
178
     6
175
     1
176
     0
 93
-1056964608
 45
0.18
292
     0
297
     0
 46
0.18
343
0
 94
-1056964608
 47
1.0
 49
1.0
140
1.0
293
     1
141
0.0
294
     1
177
     0
142
1.0
295
     0
296
     0
143
0.125
1001
ACAD_MLEADERVER
1070
     2
  0
MLINESTYLE
  5
14
102
{ACAD_REACTORS
330
15
102
}
330
15
100
AcDbMlineStyle
  2
STANDARD
 70
     0
  3

 62
     0
 51
90.0
 52
90.0
 71
     2
 49
0.5
 62
   256
  6
BYLAYER
 49
-0.5
 62
   256
  6
BYLAYER
  0
ACDBPLACEHOLDER
  5
3
102
{ACAD_REACTORS
330
4
102
}
330
4
  0
SCALE
  5
4F
102
{ACAD_REACTORS
330
2D
102
}
330
2D
100
AcDbScale
 70
     0
300
1:1
140
1.0
141
1.0
290
     1
  0
SCALE
  5
58
102
{ACAD_REACTORS
330
2D
102
}
330
2D
100
AcDbScale
 70
     0
300
1:40
140
1.0
141
40.0
290
     0
  0
SCALE
  5
59
102
{ACAD_REACTORS
330
2D
102
}
330
2D
100
AcDbScale
 70
     0
300
1:50
140
1.0
141
50.0
290
     0
  0
SCALE
  5
5A
102
{ACAD_REACTORS
330
2D
102
}
330
2D
100
AcDbScale
 70
     0
300
1:100
140
1.0
141
100.0
290
     0
  0
SCALE
  5
5B
102
{ACAD_REACTORS
330
2D
102
}
330
2D
100
AcDbScale
 70
     0
300
2:1
140
2.0
141
1.0
290
     0
  0
SCALE
  5
5C
102
{ACAD_REACTORS
330
2D
102
}
330
2D
100
AcDbScale
 70
     0
300
4:1
140
4.0
141
1.0
290
     0
  0
SCALE
  5
5D
102
{ACAD_REACTORS
330
2D
102
}
330
2D
100
AcDbScale
 70
     0
300
8:1
140
8.0
141
1.0
290
     0
  0
SCALE
  5
5E
102
{ACAD_REACTORS
330
2D
102
}
330
2D
100
AcDbScale
 70
     0
300
10:1
140
10.0
141
1.0
290
     0
  0
SCALE
  5
5F
102
{ACAD_REACTORS
330
2D
102
}
330
2D
100
AcDbScale
 70
     0
300
100:1
140
100.0
141
1.0
290
     0
  0
SCALE
  5
60
102
{ACAD_REACTORS
330
2D
102
}
330
2D
100
AcDbScale
 70
     0
300
1/128" = 1'-0"
140
0.0078125
141
12.0
290
     0
  0
SCALE
  5
61
102
{ACAD_REACTORS
330
2D
102
}
330
2D
100
AcDbScale
 70
     0
300
1/64" = 1'-0"
140
0.015625
141
12.0
290
     0
  0
SCALE
  5
50
102
{ACAD_REACTORS
330
2D
102
}
330
2D
100
AcDbScale
 70
     0
300
1:2
140
1.0
141
2.0
290
     0
  0
SCALE
  5
62
102
{ACAD_REACTORS
330
2D
102
}
330
2D
100
AcDbScale
 70
     0
300
1/32" = 1'-0"
140
0.03125
141
12.0
290
     0
  0
SCALE
  5
63
102
{ACAD_REACTORS
330
2D
102
}
330
2D
100
AcDbScale
 70
     0
300
1/16" = 1'-0"
140
0.0625
141
12.0
290
     0
  0
SCALE
  5
64
102
{ACAD_REACTORS
330
2D
102
}
330
2D
100
AcDbScale
 70
     0
300
3/32" = 1'-0"
140
0.09375
141
12.0
290
     0
  0
SCALE
  5
65
102
{ACAD_REACTORS
330
2D
102
}
330
2D
100
AcDbScale
 70
     0
300
1/8" = 1'-0"
140
0.125
141
12.0
290
     0
  0
SCALE
  5
66
102
{ACAD_REACTORS
330
2D
102
}
330
2D
100
AcDbScale
 70
     0
300
3/16" = 1'-0"
140
0.1875
141
12.0
290
     0
  0
SCALE
  5
67
102
{ACAD_REACTORS
330
2D
102
}
330
2D
100
AcDbScale
 70
     0
300
1/4" = 1'-0"
140
0.25
141
12.0
290
     0
  0
SCALE
  5
68
102
{ACAD_REACTORS
330
2D
102
}
330
2D
100
AcDbScale
 70
     0
300
3/8" = 1'-0"
140
0.375
141
12.0
290
     0
  0
SCALE
  5
69
102
{ACAD_REACTORS
330
2D
102
}
330
2D
100
AcDbScale
 70
     0
300
1/2" = 1'-0"
140
0.5
141
12.0
290
     0
  0
SCALE
  5
6A
102
{ACAD_REACTORS
330
2D
102
}
330
2D
100
AcDbScale
 70
     0
300
3/4" = 1'-0"
140
0.75
141
12.0
290
     0
  0
SCALE
  5
6B
102
{ACAD_REACTORS
330
2D
102
}
330
2D
100
AcDbScale
 70
     0
300
1" = 1'-0"
140
1.0
141
12.0
290
     0
  0
SCALE
  5
51
102
{ACAD_REACTORS
330
2D
102
}
330
2D
100
AcDbScale
 70
     0
300
1:4
140
1.0
141
4.0
290
     0
  0
SCALE
  5
6C
102
{ACAD_REACTORS
330
2D
102
}
330
2D
100
AcDbScale
 70
     0
300
1-1/2" = 1'-0"
140
1.5
141
12.0
290
     0
  0
SCALE
  5
6D
102
{ACAD_REACTORS
330
2D
102
}
330
2D
100
AcDbScale
 70
     0
300
3" = 1'-0"
140
3.0
141
12.0
290
     0
  0
SCALE
  5
6E
102
{ACAD_REACTORS
330
2D
102
}
330
2D
100
AcDbScale
 70
     0
300
6" = 1'-0"
140
6.0
141
12.0
290
     0
  0
SCALE
  5
6F
102
{ACAD_REACTORS
330
2D
102
}
330
2D
100
AcDbScale
 70
     0
300
1'-0" = 1'-0"
140
12.0
141
12.0
290
     0
  0
SCALE
  5
52
102
{ACAD_REACTORS
330
2D
102
}
330
2D
100
AcDbScale
 70
     0
300
1:5
140
1.0
141
5.0
290
     0
  0
SCALE
  5
53
102
{ACAD_REACTORS
330
2D
102
}
330
2D
100
AcDbScale
 70
     0
300
1:8
140
1.0
141
8.0
290
     0
  0
SCALE
  5
54
102
{ACAD_REACTORS
330
2D
102
}
330
2D
100
AcDbScale
 70
     0
300
1:10
140
1.0
141
10.0
290
     0
  0
SCALE
  5
55
102
{ACAD_REACTORS
330
2D
102
}
330
2D
100
AcDbScale
 70
     0
300
1:16
140
1.0
141
16.0
290
     0
  0
SCALE
  5
56
102
{ACAD_REACTORS
330
2D
102
}
330
2D
100
AcDbScale
 70
     0
300
1:20
140
1.0
141
20.0
290
     0
  0
SCALE
  5
57
102
{ACAD_REACTORS
330
2D
102
}
330
2D
100
AcDbScale
 70
     0
300
1:30
140
1.0
141
30.0
290
     0
  0
TABLESTYLE
  5
5A1
102
{ACAD_REACTORS
330
585
102
}
330
585
100
AcDbTableStyle
  3
Standard
 70
     0
 71
     0
 40
0.06
 41
0.06
280
     0
281
     0
  7
STANDARD
140
0.18
170
     2
 62
     0
 63
   257
283
     0
274
    -2
284
     1
 64
     0
275
    -2
285
     1
 65
     0
276
    -2
286
     1
 66
     0
277
    -2
287
     1
 67
     0
278
    -2
288
     1
 68
     0
279
    -2
289
     1
 69
     0
  7
STANDARD
140
0.25
170
     5
 62
     0
 63
   257
283
     0
274
    -2
284
     1
 64
     0
275
    -2
285
     1
 65
     0
276
    -2
286
     1
 66
     0
277
    -2
287
     1
 67
     0
278
    -2
288
     1
 68
     0
279
    -2
289
     1
 69
     0
  7
STANDARD
140
0.18
170
     5
 62
     0
 63
   257
283
     0
274
    -2
284
     1
 64
     0
275
    -2
285
     1
 65
     0
276
    -2
286
     1
 66
     0
277
    -2
287
     1
 67
     0
278
    -2
288
     1
 68
     0
279
    -2
289
     1
 69
     0
  0
VISUALSTYLE
  5
58D
102
{ACAD_REACTORS
330
2A
102
}
102
{ACAD_XDICTIONARY
360
640
102
}
330
2A
100
AcDbVisualStyle
  2
2dWireframe
 70
     4
 71
     0
 72
     2
 73
     0
 90
        0
 40
0.6
 41
30.0
 62
     5
 63
     7
 74
     1
 91
        4
 64
     7
 65
   257
 75
     1
175
     1
 42
1.0
 92
        0
 66
   257
 43
1.0
 76
     1
 77
     6
 78
     2
 67
     7
 79
     5
170
     0
171
     0
290
     0
174
     0
 93
        1
 44
0.0
173
     0
291
     0
 45
0.0
1001
ACAD
1000
AcDbSavedByObjectVersion
1070
     0
  0
VISUALSTYLE
  5
590
102
{ACAD_REACTORS
330
2A
102
}
102
{ACAD_XDICTIONARY
360
646
102
}
330
2A
100
AcDbVisualStyle
  2
Basic
 70
     7
 71
     1
 72
     0
 73
     1
 90
        0
 40
0.6
 41
30.0
 62
     5
 63
     7
 74
     0
 91
        4
 64
     7
 65
   257
 75
     1
175
     1
 42
1.0
 92
        8
 66
     7
 43
1.0
 76
     1
 77
     6
 78
     2
 67
     7
 79
     5
170
     0
171
     0
290
     0
174
     0
 93
        1
 44
0.0
173
     0
291
     1
 45
0.0
1001
ACAD
1000
AcDbSavedByObjectVersion
1070
     0
  0
VISUALSTYLE
  5
594
102
{ACAD_REACTORS
330
2A
102
}
102
{ACAD_XDICTIONARY
360
64E
102
}
330
2A
100
AcDbVisualStyle
  2
Brighten
 70
    12
 71
     2
 72
     2
 73
     0
 90
        0
 40
0.6
 41
30.0
 62
     5
 63
     7
 74
     1
 91
        4
 64
     7
 65
   257
 75
     1
175
     1
 42
1.0
 92
        8
 66
     7
 43
1.0
 76
     1
 77
     6
 78
     2
 67
     7
 79
     5
170
     0
171
     0
290
     0
174
     0
 93
        1
 44
50.0
173
     0
291
     1
 45
0.0
1001
ACAD
1000
AcDbSavedByObjectVersion
1070
     0
  0
VISUALSTYLE
  5
598
102
{ACAD_REACTORS
330
2A
102
}
102
{ACAD_XDICTIONARY
360
656
102
}
330
2A
100
AcDbVisualStyle
  2
ColorChange
 70
    16
 71
     2
 72
     2
 73
     3
 90
        0
 40
0.6
 41
30.0
 62
     5
 63
     8
 74
     1
 91
        4
 64
     7
 65
   257
 75
     1
175
     1
 42
1.0
 92
        8
 66
     8
 43
1.0
 76
     1
 77
     6
 78
     2
 67
     7
 79
     5
170
     0
171
     0
290
     0
174
     0
 93
        1
 44
0.0
173
     0
291
     1
 45
0.0
1001
ACAD
1000
AcDbSavedByObjectVersion
1070
     0
  0
VISUALSTYLE
  5
592
102
{ACAD_REACTORS
330
2A
102
}
102
{ACAD_XDICTIONARY
360
64A
102
}
330
2A
100
AcDbVisualStyle
  2
Conceptual
 70
     9
 71
     3
 72
     2
 73
     0
 90
        0
 40
0.6
 41
30.0
 62
     5
 63
     7
 74
     2
 91
        2
 64
     7
 65
   257
 75
     1
175
     1
 42
40.0
 92
        8
 66
     7
 43
1.0
 76
     1
 77
     6
 78
     2
 67
     7
 79
     3
170
     0
171
     0
290
     0
174
     0
 93
        1
 44
0.0
173
     0
291
     0
 45
0.0
1001
ACAD
1000
AcDbSavedByObjectVersion
1070
     0
  0
VISUALSTYLE
  5
593
102
{ACAD_REACTORS
330
2A
102
}
102
{ACAD_XDICTIONARY
360
64C
102
}
330
2A
100
AcDbVisualStyle
  2
Dim
 70
    11
 71
     2
 72
     2
 73
     0
 90
        0
 40
0.6
 41
30.0
 62
     5
 63
     7
 74
     1
 91
        4
 64
     7
 65
   257
 75
     1
175
     1
 42
1.0
 92
        8
 66
     7
 43
1.0
 76
     1
 77
     6
 78
     2
 67
     7
 79
     5
170
     0
171
     0
290
     0
174
     0
 93
        1
 44
-50.0
173
     0
291
     1
 45
0.0
1001
ACAD
1000
AcDbSavedByObjectVersion
1070
     0
  0
VISUALSTYLE
  5
59B
102
{ACAD_REACTORS
330
2A
102
}
102
{ACAD_XDICTIONARY
360
65C
102
}
330
2A
100
AcDbVisualStyle
  2
EdgeColorOff
 70
    22
 71
     2
 72
     2
 73
     0
 90
        0
 40
0.6
 41
30.0
 62
     5
 63
     7
 74
     1
 91
        4
 64
     7
 65
   257
 75
     1
175
     1
 42
1.0
 92
        8
 66
     7
 43
1.0
 76
     1
 77
     6
 78
     2
 67
     7
 79
     5
170
     0
171
     0
290
     0
174
     0
 93
        1
 44
0.0
173
     0
291
     1
 45
0.0
1001
ACAD
1000
AcDbSavedByObjectVersion
1070
     0
  0
VISUALSTYLE
  5
597
102
{ACAD_REACTORS
330
2A
102
}
102
{ACAD_XDICTIONARY
360
654
102
}
330
2A
100
AcDbVisualStyle
  2
Facepattern
 70
    15
 71
     2
 72
     2
 73
     0
 90
        0
 40
0.6
 41
30.0
 62
     5
 63
     7
 74
     1
 91
        4
 64
     7
 65
   257
 75
     1
175
     1
 42
1.0
 92
        8
 66
     7
 43
1.0
 76
     1
 77
     6
 78
     2
 67
     7
 79
     5
170
     0
171
     0
290
     0
174
     0
 93
        1
 44
0.0
173
     0
291
     1
 45
0.0
1001
ACAD
1000
AcDbSavedByObjectVersion
1070
     0
  0
VISUALSTYLE
  5
589
102
{ACAD_REACTORS
330
2A
102
}
102
{ACAD_XDICTIONARY
360
638
102
}
330
2A
100
AcDbVisualStyle
  2
Flat
 70
     0
 71
     2
 72
     1
 73
     1
 90
        2
 40
0.6
 41
30.0
 62
     5
 63
     7
 74
     0
 91
        4
 64
     7
 65
   257
 75
     1
175
     1
 42
1.0
 92
        8
 66
     7
 43
1.0
 76
     1
 77
     6
 78
     2
 67
     7
 79
     5
170
     0
171
     0
290
     0
174
     0
 93
       13
 44
0.0
173
     0
291
     1
 45
0.0
1001
ACAD
1000
AcDbSavedByObjectVersion
1070
     0
  0
VISUALSTYLE
  5
58A
102
{ACAD_REACTORS
330
2A
102
}
102
{ACAD_XDICTIONARY
360
63A
102
}
330
2A
100
AcDbVisualStyle
  2
FlatWithEdges
 70
     1
 71
     2
 72
     1
 73
     1
 90
        2
 40
0.6
 41
30.0
 62
     5
 63
     7
 74
     1
 91
        4
 64
     7
 65
   257
 75
     1
175
     1
 42
1.0
 92
        0
 66
   257
 43
1.0
 76
     1
 77
     6
 78
     2
 67
     7
 79
     5
170
     0
171
     0
290
     0
174
     0
 93
       13
 44
0.0
173
     0
291
     1
 45
0.0
1001
ACAD
1000
AcDbSavedByObjectVersion
1070
     0
  0
VISUALSTYLE
  5
58B
102
{ACAD_REACTORS
330
2A
102
}
102
{ACAD_XDICTIONARY
360
63C
102
}
330
2A
100
AcDbVisualStyle
  2
Gouraud
 70
     2
 71
     2
 72
     2
 73
     1
 90
        2
 40
0.6
 41
30.0
 62
     5
 63
     7
 74
     0
 91
        4
 64
     7
 65
   257
 75
     1
175
     1
 42
1.0
 92
        0
 66
     7
 43
1.0
 76
     1
 77
     6
 78
     2
 67
     7
 79
     5
170
     0
171
     0
290
     0
174
     0
 93
       13
 44
0.0
173
     0
291
     1
 45
0.0
1001
ACAD
1000
AcDbSavedByObjectVersion
1070
     0
  0
VISUALSTYLE
  5
58C
102
{ACAD_REACTORS
330
2A
102
}
102
{ACAD_XDICTIONARY
360
63E
102
}
330
2A
100
AcDbVisualStyle
  2
GouraudWithEdges
 70
     3
 71
     2
 72
     2
 73
     1
 90
        2
 40
0.6
 41
30.0
 62
     5
 63
     7
 74
     1
 91
        4
 64
     7
 65
   257
 75
     1
175
     1
 42
1.0
 92
        0
 66
   257
 43
1.0
 76
     1
 77
     6
 78
     2
 67
     7
 79
     5
170
     0
171
     0
290
     0
174
     0
 93
       13
 44
0.0
173
     0
291
     1
 45
0.0
1001
ACAD
1000
AcDbSavedByObjectVersion
1070
     0
  0
VISUALSTYLE
  5
58F
102
{ACAD_REACTORS
330
2A
102
}
102
{ACAD_XDICTIONARY
360
644
102
}
330
2A
100
AcDbVisualStyle
  2
Hidden
 70
     6
 71
     1
 72
     2
 73
     2
 90
        0
 40
0.6
 41
30.0
 62
     5
 63
     7
 74
     2
 91
        2
 64
     7
 65
   257
 75
     2
175
     1
 42
40.0
 92
        0
 66
   257
 43
1.0
 76
     1
 77
     6
 78
     2
 67
     7
 79
     3
170
     0
171
     0
290
     0
174
     0
 93
        1
 44
0.0
173
     0
291
     0
 45
0.0
1001
ACAD
1000
AcDbSavedByObjectVersion
1070
     0
  0
VISUALSTYLE
  5
599
102
{ACAD_REACTORS
330
2A
102
}
102
{ACAD_XDICTIONARY
360
658
102
}
330
2A
100
AcDbVisualStyle
  2
JitterOff
 70
    20
 71
     2
 72
     2
 73
     0
 90
        0
 40
0.6
 41
30.0
 62
     5
 63
     7
 74
     1
 91
        4
 64
     7
 65
   257
 75
     1
175
     1
 42
1.0
 92
       10
 66
     7
 43
1.0
 76
     1
 77
     6
 78
     2
 67
     7
 79
     5
170
     0
171
     0
290
     0
174
     0
 93
        1
 44
0.0
173
     0
291
     1
 45
0.0
1001
ACAD
1000
AcDbSavedByObjectVersion
1070
     0
  0
VISUALSTYLE
  5
596
102
{ACAD_REACTORS
330
2A
102
}
102
{ACAD_XDICTIONARY
360
652
102
}
330
2A
100
AcDbVisualStyle
  2
Linepattern
 70
    14
 71
     2
 72
     2
 73
     0
 90
        0
 40
0.6
 41
30.0
 62
     5
 63
     7
 74
     1
 91
        4
 64
     7
 65
   257
 75
     7
175
     7
 42
1.0
 92
        8
 66
     7
 43
1.0
 76
     1
 77
     6
 78
     2
 67
     7
 79
     5
170
     0
171
     0
290
     0
174
     0
 93
        1
 44
0.0
173
     0
291
     1
 45
0.0
1001
ACAD
1000
AcDbSavedByObjectVersion
1070
     0
  0
VISUALSTYLE
  5
59A
102
{ACAD_REACTORS
330
2A
102
}
102
{ACAD_XDICTIONARY
360
65A
102
}
330
2A
100
AcDbVisualStyle
  2
OverhangOff
 70
    21
 71
     2
 72
     2
 73
     0
 90
        0
 40
0.6
 41
30.0
 62
     5
 63
     7
 74
     1
 91
        4
 64
     7
 65
   257
 75
     1
175
     1
 42
1.0
 92
        9
 66
     7
 43
1.0
 76
     1
 77
     6
 78
     2
 67
     7
 79
     5
170
     0
171
     0
290
     0
174
     0
 93
        1
 44
0.0
173
     0
291
     1
 45
0.0
1001
ACAD
1000
AcDbSavedByObjectVersion
1070
     0
  0
VISUALSTYLE
  5
591
102
{ACAD_REACTORS
330
2A
102
}
102
{ACAD_XDICTIONARY
360
648
102
}
330
2A
100
AcDbVisualStyle
  2
Realistic
 70
     8
 71
     2
 72
     3
 73
     0
 90
        2
 40
0.6
 41
30.0
 62
     5
 63
     7
 74
     0
 91
        0
 64
     7
 65
   257
 75
     1
175
     1
 42
1.0
 92
        8
 66
   257
 43
1.0
 76
     1
 77
     6
 78
     2
 67
     7
 79
     3
170
     0
171
     0
290
     0
174
     0
 93
       13
 44
0.0
173
     0
291
     0
 45
0.0
1001
ACAD
1000
AcDbSavedByObjectVersion
1070
     0
  0
VISUALSTYLE
  5
5A0
102
{ACAD_REACTORS
330
2A
102
}
102
{ACAD_XDICTIONARY
360
666
102
}
330
2A
100
AcDbVisualStyle
  2
Shaded
 70
    27
 71
     2
 72
     2
 73
     1
 90
        2
 40
0.6
 41
30.0
 62
     5
 63
     7
 74
     0
 91
        4
 64
     7
 65
   257
 75
     1
175
     1
 42
1.0
 92
        8
 66
   257
 43
1.0
 76
     1
 77
     6
 78
     2
 67
   251
 79
     3
170
     0
171
     0
290
     0
174
     0
 93
        5
 44
0.0
173
     0
291
     0
 45
0.0
1001
ACAD
1000
AcDbSavedByObjectVersion
1070
     0
  0
VISUALSTYLE
  5
59F
102
{ACAD_REACTORS
330
2A
102
}
102
{ACAD_XDICTIONARY
360
664
102
}
330
2A
100
AcDbVisualStyle
  2
Shaded with edges
 70
    26
 71
     2
 72
     2
 73
     1
 90
        2
 40
0.6
 41
30.0
 62
     5
 63
     7
 74
     1
 91
       10
 64
     7
 65
   257
 75
     2
175
     1
 42
1.0
 92
        8
 66
   257
 43
1.0
 76
     1
 77
     6
 78
     2
 67
     7
 79
     3
170
     0
171
     0
290
     0
174
     0
 93
        5
 44
0.0
173
     0
291
     0
 45
0.0
1001
ACAD
1000
AcDbSavedByObjectVersion
1070
     0
  0
VISUALSTYLE
  5
59C
102
{ACAD_REACTORS
330
2A
102
}
102
{ACAD_XDICTIONARY
360
65E
102
}
330
2A
100
AcDbVisualStyle
  2
Shades of Gray
 70
    23
 71
     2
 72
     2
 73
     3
 90
        0
 40
0.6
 41
30.0
 62
     5
 63
     7
 74
     2
 91
        2
 64
     7
 65
     7
 75
     1
175
     1
 42
40.0
 92
        8
 66
     7
 43
1.0
 76
     1
 77
     6
 78
     2
 67
     7
 79
     3
170
     0
171
     0
290
     0
174
     0
 93
        1
 44
0.0
173
     0
291
     0
 45
0.0
1001
ACAD
1000
AcDbSavedByObjectVersion
1070
     0
  0
VISUALSTYLE
  5
59D
102
{ACAD_REACTORS
330
2A
102
}
102
{ACAD_XDICTIONARY
360
660
102
}
330
2A
100
AcDbVisualStyle
  2
Sketchy
 70
    24
 71
     1
 72
     2
 73
     2
 90
        0
 40
0.6
 41
30.0
 62
     5
 63
     7
 74
     2
 91
        2
 64
     7
 65
     7
 75
     1
175
     1
 42
40.0
 92
       11
 66
     7
 43
1.0
 76
     1
 77
     6
 78
     2
 67
     7
 79
     6
170
     0
171
     0
290
     0
174
     0
 93
        1
 44
0.0
173
     0
291
     0
 45
0.0
1001
ACAD
1000
AcDbSavedByObjectVersion
1070
     0
  0
VISUALSTYLE
  5
595
102
{ACAD_REACTORS
330
2A
102
}
102
{ACAD_XDICTIONARY
360
650
102
}
330
2A
100
AcDbVisualStyle
  2
Thicken
 70
    13
 71
     2
 72
     2
 73
     0
 90
        0
 40
0.6
 41
30.0
 62
     5
 63
     7
 74
     1
 91
        4
 64
     7
 65
   257
 75
     1
175
     1
 42
1.0
 92
       12
 66
     7
 43
1.0
 76
     1
 77
     6
 78
     2
 67
     7
 79
     5
170
     0
171
     0
290
     0
174
     0
 93
        1
 44
0.0
173
     0
291
     1
 45
0.0
1001
ACAD
1000
AcDbSavedByObjectVersion
1070
     0
  0
VISUALSTYLE
  5
58E
102
{ACAD_REACTORS
330
2A
102
}
102
{ACAD_XDICTIONARY
360
642
102
}
330
2A
100
AcDbVisualStyle
  2
Wireframe
 70
     5
 71
     0
 72
     2
 73
     0
 90
        0
 40
0.6
 41
30.0
 62
     5
 63
     7
 74
     1
 91
        4
 64
     7
 65
   257
 75
     1
175
     1
 42
1.0
 92
        0
 66
   257
 43
1.0
 76
     1
 77
     6
 78
     2
 67
     7
 79
     5
170
     0
171
     0
290
     0
174
     0
 93
        1
 44
0.0
173
     0
291
     0
 45
0.0
1001
ACAD
1000
AcDbSavedByObjectVersion
1070
     0
  0
VISUALSTYLE
  5
59E
102
{ACAD_REACTORS
330
2A
102
}
102
{ACAD_XDICTIONARY
360
662
102
}
330
2A
100
AcDbVisualStyle
  2
X-Ray
 70
    25
 71
     2
 72
     2
 73
     1
 90
        1
 40
0.5
 41
30.0
 62
     5
 63
     7
 74
     1
 91
        0
 64
     7
 65
   257
 75
     1
175
     1
 42
1.0
 92
        8
 66
     7
 43
1.0
 76
     1
 77
     6
 78
     2
 67
     7
 79
     3
170
     0
171
     0
290
     0
174
     0
 93
       13
 44
0.0
173
     0
291
     0
 45
0.0
1001
ACAD
1000
AcDbSavedByObjectVersion
1070
     0
  0
XRECORD
  5
62C
102
{ACAD_REACTORS
330
62B
102
}
330
62B
100
AcDbXrecord
280
     1
340
29
  0
XRECORD
  5
62D
102
{ACAD_REACTORS
330
62B
102
}
330
62B
100
AcDbXrecord
280
     1
340
7
  0
DICTIONARYVAR
  5
584
102
{ACAD_REACTORS
330
583
102
}
330
583
100
DictionaryVariables
280
     0
  1
1:1
  0
DICTIONARYVAR
  5
5A5
102
{ACAD_REACTORS
330
583
102
}
330
583
100
DictionaryVariables
280
     0
  1
Standard
  0
DICTIONARYVAR
  5
5A4
102
{ACAD_REACTORS
330
583
102
}
330
583
100
DictionaryVariables
280
     0
  1
Standard
  0
DICTIONARYVAR
  5
629
102
{ACAD_REACTORS
330
583
102
}
330
583
100
DictionaryVariables
280
     0
  1
2
  0
DICTIONARYVAR
  5
62A
102
{ACAD_REACTORS
330
583
102
}
330
583
100
DictionaryVariables
280
     0
  1
1
  0
DICTIONARYVAR
  5
631
102
{ACAD_REACTORS
330
583
102
}
330
583
100
DictionaryVariables
280
     0
  1
1
  0
DICTIONARYVAR
  5
628
102
{ACAD_REACTORS
330
583
102
}
330
583
100
DictionaryVariables
280
     0
  1
0
  0
DICTIONARY
  5
636
330
70
100
AcDbDictionary
280
     1
281
     1
  3
ACAD_XREC_ROUNDTRIP
360
637
  0
DICTIONARY
  5
632
330
10
100
AcDbDictionary
280
     1
281
     1
  3
ACAD_XREC_ROUNDTRIP
360
633
  0
DICTIONARY
  5
634
330
6
100
AcDbDictionary
280
     1
281
     1
  3
ACAD_XREC_ROUNDTRIP
360
635
  0
DICTIONARY
  5
668
330
5A2
100
AcDbDictionary
280
     1
281
     1
  3
ACAD_XREC_ROUNDTRIP
360
669
  0
DICTIONARY
  5
640
330
58D
100
AcDbDictionary
280
     1
281
     1
  3
ACAD_XREC_ROUNDTRIP
360
641
  0
DICTIONARY
  5
646
330
590
100
AcDbDictionary
280
     1
281
     1
  3
ACAD_XREC_ROUNDTRIP
360
647
  0
DICTIONARY
  5
64E
330
594
100
AcDbDictionary
280
     1
281
     1
  3
ACAD_XREC_ROUNDTRIP
360
64F
  0
DICTIONARY
  5
656
330
598
100
AcDbDictionary
280
     1
281
     1
  3
ACAD_XREC_ROUNDTRIP
360
657
  0
DICTIONARY
  5
64A
330
592
100
AcDbDictionary
280
     1
281
     1
  3
ACAD_XREC_ROUNDTRIP
360
64B
  0
DICTIONARY
  5
64C
330
593
100
AcDbDictionary
280
     1
281
     1
  3
ACAD_XREC_ROUNDTRIP
360
64D
  0
DICTIONARY
  5
65C
330
59B
100
AcDbDictionary
280
     1
281
     1
  3
ACAD_XREC_ROUNDTRIP
360
65D
  0
DICTIONARY
  5
654
330
597
100
AcDbDictionary
280
     1
281
     1
  3
ACAD_XREC_ROUNDTRIP
360
655
  0
DICTIONARY
  5
638
330
589
100
AcDbDictionary
280
     1
281
     1
  3
ACAD_XREC_ROUNDTRIP
360
639
  0
DICTIONARY
  5
63A
330
58A
100
AcDbDictionary
280
     1
281
     1
  3
ACAD_XREC_ROUNDTRIP
360
63B
  0
DICTIONARY
  5
63C
330
58B
100
AcDbDictionary
280
     1
281
     1
  3
ACAD_XREC_ROUNDTRIP
360
63D
  0
DICTIONARY
  5
63E
330
58C
100
AcDbDictionary
280
     1
281
     1
  3
ACAD_XREC_ROUNDTRIP
360
63F
  0
DICTIONARY
  5
644
330
58F
100
AcDbDictionary
280
     1
281
     1
  3
ACAD_XREC_ROUNDTRIP
360
645
  0
DICTIONARY
  5
658
330
599
100
AcDbDictionary
280
     1
281
     1
  3
ACAD_XREC_ROUNDTRIP
360
659
  0
DICTIONARY
  5
652
330
596
100
AcDbDictionary
280
     1
281
     1
  3
ACAD_XREC_ROUNDTRIP
360
653
  0
DICTIONARY
  5
65A
330
59A
100
AcDbDictionary
280
     1
281
     1
  3
ACAD_XREC_ROUNDTRIP
360
65B
  0
DICTIONARY
  5
648
330
591
100
AcDbDictionary
280
     1
281
     1
  3
ACAD_XREC_ROUNDTRIP
360
649
  0
DICTIONARY
  5
666
330
5A0
100
AcDbDictionary
280
     1
281
     1
  3
ACAD_XREC_ROUNDTRIP
360
667
  0
DICTIONARY
  5
664
330
59F
100
AcDbDictionary
280
     1
281
     1
  3
ACAD_XREC_ROUNDTRIP
360
665
  0
DICTIONARY
  5
65E
330
59C
100
AcDbDictionary
280
     1
281
     1
  3
ACAD_XREC_ROUNDTRIP
360
65F
  0
DICTIONARY
  5
660
330
59D
100
AcDbDictionary
280
     1
281
     1
  3
ACAD_XREC_ROUNDTRIP
360
661
  0
DICTIONARY
  5
650
330
595
100
AcDbDictionary
280
     1
281
     1
  3
ACAD_XREC_ROUNDTRIP
360
651
  0
DICTIONARY
  5
642
330
58E
100
AcDbDictionary
280
     1
281
     1
  3
ACAD_XREC_ROUNDTRIP
360
643
  0
DICTIONARY
  5
662
330
59E
100
AcDbDictionary
280
     1
281
     1
  3
ACAD_XREC_ROUNDTRIP
360
663
  0
XRECORD
  5
637
102
{ACAD_REACTORS
330
636
102
}
330
636
100
AcDbXrecord
280
     1
102
MATERIAL
148
0.0
149
0.0
149
0.0
 93
        0
 94
      127
282
     0
 72
     1
 77
     1
171
     1
175
     1
179
     1
273
     0
  0
XRECORD
  5
633
102
{ACAD_REACTORS
330
632
102
}
330
632
100
AcDbXrecord
280
     1
102
MATERIAL
148
0.0
149
0.0
149
0.0
 93
        0
 94
      127
282
     0
 72
     1
 77
     1
171
     1
175
     1
179
     1
273
     0
  0
XRECORD
  5
635
102
{ACAD_REACTORS
330
634
102
}
330
634
100
AcDbXrecord
280
     1
102
MATERIAL
148
0.0
149
0.0
149
0.0
 93
        0
 94
      127
282
     0
 72
     1
 77
     1
171
     1
175
     1
179
     1
273
     0
  0
XRECORD
  5
669
102
{ACAD_REACTORS
330
668
102
}
330
668
100
AcDbXrecord
280
     1
102
ACAD_ROUNDTRIP_2010_MLEADER_STYLE
  0
XRECORD
  5
641
102
{ACAD_REACTORS
330
640
102
}
330
640
100
AcDbXrecord
280
     1
102
RTVSPropertyOp0
 70
     1
102
RTVSPropertyOp1
 70
     1
102
RTVSPropertyOp2
 70
     1
102
RTVSPropertyOp3
 70
     1
102
RTVSPropertyOp4
 70
     1
102
RTVSPropertyOp5
 70
     1
102
RTVSPropertyOp6
 70
     1
102
RTVSPropertyOp7
 70
     1
102
RTVSPropertyOp8
 70
     1
102
RTVSPropertyOp9
 70
     1
102
RTVSPropertyOp10
 70
     1
102
RTVSPropertyOp11
 70
     1
102
RTVSPropertyOp12
 70
     1
102
RTVSPropertyOp13
 70
     1
102
RTVSPropertyOp14
 70
     1
102
RTVSPropertyOp15
 70
     1
102
RTVSPropertyOp16
 70
     1
102
RTVSPropertyOp17
 70
     1
102
RTVSPropertyOp18
 70
     1
102
RTVSPropertyOp19
 70
     1
102
RTVSPropertyOp20
 70
     1
102
RTVSPropertyOp21
 70
     1
102
RTVSPropertyOp22
 70
     1
102
RTVSPropertyOp23
 70
     1
102
RTVSPropertyOp24
 70
     1
102
RTVSPropertyOp25
 70
     1
102
RTVSPropertyOp26
 70
     1
102
RTVSPropertyOp27
 70
     1
102
RTVSPropertyOp28
 70
     1
102
RTVSPropertyOp29
 70
     1
102
RTVSPropertyOp30
 70
     1
102
RTVSPropertyOp31
 70
     1
102
RTVSPropertyOp32
 70
     1
102
RTVSPropertyOp33
 70
     1
102
RTVSPropertyOp34
 70
     1
102
RTVSPropertyOp35
 70
     1
102
RTVSPropertyOp36
 70
     1
102
RTVSPropertyOp37
 70
     1
102
RTVSPropertyOp38
 70
     1
102
RTVSPropertyOp39
 70
     1
102
RTVSPropertyOp40
 70
     1
102
RTVSPropertyOp41
 70
     1
102
RTVSPropertyOp42
 70
     1
102
RTVSPropertyOp43
 70
     1
102
RTVSPropertyOp44
 70
     1
102
RTVSPropertyOp45
 70
     1
102
RTVSPropertyOp46
 70
     1
102
RTVSPropertyOp47
 70
     1
102
RTVSPropertyOp48
 70
     1
102
RTVSPropertyOp49
 70
     1
102
RTVSPropertyOp50
 70
     1
102
RTVSPropertyOp51
 70
     0
102
RTVSPropertyOp52
 70
     0
102
RTVSPropertyOp53
 70
     1
102
RTVSPropertyOp54
 70
     1
102
RTVSPropertyOp55
 70
     1
102
RTVSPropertyOp56
 70
     1
102
RTVSPropertyOp57
 70
     1
102
RTVSPost2010Prop28
280
     1
102
RTVSPost2010PropOp28
 70
     1
102
RTVSPost2010Prop29
280
     1
102
RTVSPost2010PropOp29
 70
     1
102
RTVSPost2010Prop30
280
     0
102
RTVSPost2010PropOp30
 70
     1
102
RTVSPost2010Prop31
280
     0
102
RTVSPost2010PropOp31
 70
     1
102
RTVSPost2010Prop32
280
     0
102
RTVSPost2010PropOp32
 70
     1
102
RTVSPost2010Prop33
280
     0
102
RTVSPost2010PropOp33
 70
     1
102
RTVSPost2010Prop34
280
     0
102
RTVSPost2010PropOp34
 70
     1
102
RTVSPost2010Prop35
280
     0
102
RTVSPost2010PropOp35
 70
     1
102
RTVSPost2010Prop36
280
     0
102
RTVSPost2010PropOp36
 70
     1
102
RTVSPost2010Prop37
 90
       50
102
RTVSPost2010PropOp37
 70
     1
102
RTVSPost2010Prop38
140
0.0
102
RTVSPost2010PropOp38
 70
     1
102
RTVSPost2010Prop39
140
1.0
102
RTVSPost2010PropOp39
 70
     1
102
RTVSPost2010Prop40
 90
        0
102
RTVSPost2010PropOp40
 70
     1
102
RTVSPost2010Prop41ColorIndex
 90
       18
102
RTVSPost2010Prop41ColorRGB
 90
        0
102
RTVSPost2010PropOp41
 70
     1
102
RTVSPost2010Prop42
 90
       50
102
RTVSPost2010PropOp42
 70
     1
102
RTVSPost2010Prop43
 90
        3
102
RTVSPost2010PropOp43
 70
     1
102
RTVSPost2010Prop44ColorIndex
 90
        5
102
RTVSPost2010Prop44ColorRGB
 90
      255
102
RTVSPost2010PropOp44
 70
     1
102
RTVSPost2010Prop45
280
     0
102
RTVSPost2010PropOp45
 70
     1
102
RTVSPost2010Prop46
 90
       50
102
RTVSPost2010PropOp46
 70
     1
102
RTVSPost2010Prop47
 90
       50
102
RTVSPost2010PropOp47
 70
     1
102
RTVSPost2010Prop48
 90
       50
102
RTVSPost2010PropOp48
 70
     1
102
RTVSPost2010Prop49
280
     0
102
RTVSPost2010PropOp49
 70
     1
102
RTVSPost2010Prop50
 90
       50
102
RTVSPost2010PropOp50
 70
     1
102
RTVSPost2010Prop51ColorIndex
 90
      256
102
RTVSPost2010Prop51ColorRGB
 90
-16777216
102
RTVSPost2010PropOp51
 70
     0
102
RTVSPost2010Prop52
140
1.0
102
RTVSPost2010PropOp52
 70
     0
102
RTVSPost2010Prop53
 90
        2
102
RTVSPost2010PropOp53
 70
     1
102
RTVSPost2010Prop54
  1
strokes_ogs.tif
102
RTVSPost2010PropOp54
 70
     1
102
RTVSPost2010Prop55
280
     0
102
RTVSPost2010PropOp55
 70
     1
102
RTVSPost2010Prop56
140
1.0
102
RTVSPost2010PropOp56
 70
     1
102
RTVSPost2010Prop57
140
1.0
102
RTVSPost2010PropOp57
 70
     1
  0
XRECORD
  5
647
102
{ACAD_REACTORS
330
646
102
}
330
646
100
AcDbXrecord
280
     1
102
RTVSPropertyOp0
 70
     1
102
RTVSPropertyOp1
 70
     1
102
RTVSPropertyOp2
 70
     1
102
RTVSPropertyOp3
 70
     1
102
RTVSPropertyOp4
 70
     1
102
RTVSPropertyOp5
 70
     1
102
RTVSPropertyOp6
 70
     1
102
RTVSPropertyOp7
 70
     1
102
RTVSPropertyOp8
 70
     1
102
RTVSPropertyOp9
 70
     1
102
RTVSPropertyOp10
 70
     1
102
RTVSPropertyOp11
 70
     1
102
RTVSPropertyOp12
 70
     1
102
RTVSPropertyOp13
 70
     1
102
RTVSPropertyOp14
 70
     1
102
RTVSPropertyOp15
 70
     1
102
RTVSPropertyOp16
 70
     1
102
RTVSPropertyOp17
 70
     1
102
RTVSPropertyOp18
 70
     1
102
RTVSPropertyOp19
 70
     1
102
RTVSPropertyOp20
 70
     1
102
RTVSPropertyOp21
 70
     1
102
RTVSPropertyOp22
 70
     1
102
RTVSPropertyOp23
 70
     1
102
RTVSPropertyOp24
 70
     1
102
RTVSPropertyOp25
 70
     1
102
RTVSPropertyOp26
 70
     1
102
RTVSPropertyOp27
 70
     1
102
RTVSPropertyOp28
 70
     1
102
RTVSPropertyOp29
 70
     1
102
RTVSPropertyOp30
 70
     1
102
RTVSPropertyOp31
 70
     1
102
RTVSPropertyOp32
 70
     1
102
RTVSPropertyOp33
 70
     1
102
RTVSPropertyOp34
 70
     1
102
RTVSPropertyOp35
 70
     1
102
RTVSPropertyOp36
 70
     1
102
RTVSPropertyOp37
 70
     1
102
RTVSPropertyOp38
 70
     1
102
RTVSPropertyOp39
 70
     1
102
RTVSPropertyOp40
 70
     1
102
RTVSPropertyOp41
 70
     1
102
RTVSPropertyOp42
 70
     1
102
RTVSPropertyOp43
 70
     1
102
RTVSPropertyOp44
 70
     1
102
RTVSPropertyOp45
 70
     1
102
RTVSPropertyOp46
 70
     1
102
RTVSPropertyOp47
 70
     1
102
RTVSPropertyOp48
 70
     1
102
RTVSPropertyOp49
 70
     1
102
RTVSPropertyOp50
 70
     1
102
RTVSPropertyOp51
 70
     0
102
RTVSPropertyOp52
 70
     0
102
RTVSPropertyOp53
 70
     1
102
RTVSPropertyOp54
 70
     1
102
RTVSPropertyOp55
 70
     1
102
RTVSPropertyOp56
 70
     1
102
RTVSPropertyOp57
 70
     1
102
RTVSPost2010Prop28
280
     0
102
RTVSPost2010PropOp28
 70
     1
102
RTVSPost2010Prop29
280
     1
102
RTVSPost2010PropOp29
 70
     1
102
RTVSPost2010Prop30
280
     1
102
RTVSPost2010PropOp30
 70
     1
102
RTVSPost2010Prop31
280
     0
102
RTVSPost2010PropOp31
 70
     1
102
RTVSPost2010Prop32
280
     0
102
RTVSPost2010PropOp32
 70
     1
102
RTVSPost2010Prop33
280
     0
102
RTVSPost2010PropOp33
 70
     1
102
RTVSPost2010Prop34
280
     0
102
RTVSPost2010PropOp34
 70
     1
102
RTVSPost2010Prop35
280
     0
102
RTVSPost2010PropOp35
 70
     1
102
RTVSPost2010Prop36
280
     0
102
RTVSPost2010PropOp36
 70
     1
102
RTVSPost2010Prop37
 90
       50
102
RTVSPost2010PropOp37
 70
     1
102
RTVSPost2010Prop38
140
0.0
102
RTVSPost2010PropOp38
 70
     1
102
RTVSPost2010Prop39
140
1.0
102
RTVSPost2010PropOp39
 70
     1
102
RTVSPost2010Prop40
 90
        0
102
RTVSPost2010PropOp40
 70
     1
102
RTVSPost2010Prop41ColorIndex
 90
       18
102
RTVSPost2010Prop41ColorRGB
 90
        0
102
RTVSPost2010PropOp41
 70
     1
102
RTVSPost2010Prop42
 90
       50
102
RTVSPost2010PropOp42
 70
     1
102
RTVSPost2010Prop43
 90
        3
102
RTVSPost2010PropOp43
 70
     1
102
RTVSPost2010Prop44ColorIndex
 90
        5
102
RTVSPost2010Prop44ColorRGB
 90
      255
102
RTVSPost2010PropOp44
 70
     1
102
RTVSPost2010Prop45
280
     0
102
RTVSPost2010PropOp45
 70
     1
102
RTVSPost2010Prop46
 90
       50
102
RTVSPost2010PropOp46
 70
     1
102
RTVSPost2010Prop47
 90
       50
102
RTVSPost2010PropOp47
 70
     1
102
RTVSPost2010Prop48
 90
       50
102
RTVSPost2010PropOp48
 70
     1
102
RTVSPost2010Prop49
280
     0
102
RTVSPost2010PropOp49
 70
     1
102
RTVSPost2010Prop50
 90
       50
102
RTVSPost2010PropOp50
 70
     1
102
RTVSPost2010Prop51ColorIndex
 90
      256
102
RTVSPost2010Prop51ColorRGB
 90
-16777216
102
RTVSPost2010PropOp51
 70
     0
102
RTVSPost2010Prop52
140
1.0
102
RTVSPost2010PropOp52
 70
     0
102
RTVSPost2010Prop53
 90
        2
102
RTVSPost2010PropOp53
 70
     1
102
RTVSPost2010Prop54
  1
strokes_ogs.tif
102
RTVSPost2010PropOp54
 70
     1
102
RTVSPost2010Prop55
280
     0
102
RTVSPost2010PropOp55
 70
     1
102
RTVSPost2010Prop56
140
1.0
102
RTVSPost2010PropOp56
 70
     1
102
RTVSPost2010Prop57
140
1.0
102
RTVSPost2010PropOp57
 70
     1
  0
XRECORD
  5
64F
102
{ACAD_REACTORS
330
64E
102
}
330
64E
100
AcDbXrecord
280
     1
102
RTVSPropertyOp0
 70
     1
102
RTVSPropertyOp1
 70
     1
102
RTVSPropertyOp2
 70
     1
102
RTVSPropertyOp3
 70
     1
102
RTVSPropertyOp4
 70
     1
102
RTVSPropertyOp5
 70
     1
102
RTVSPropertyOp6
 70
     1
102
RTVSPropertyOp7
 70
     1
102
RTVSPropertyOp8
 70
     1
102
RTVSPropertyOp9
 70
     1
102
RTVSPropertyOp10
 70
     1
102
RTVSPropertyOp11
 70
     1
102
RTVSPropertyOp12
 70
     1
102
RTVSPropertyOp13
 70
     1
102
RTVSPropertyOp14
 70
     1
102
RTVSPropertyOp15
 70
     1
102
RTVSPropertyOp16
 70
     1
102
RTVSPropertyOp17
 70
     1
102
RTVSPropertyOp18
 70
     1
102
RTVSPropertyOp19
 70
     1
102
RTVSPropertyOp20
 70
     1
102
RTVSPropertyOp21
 70
     1
102
RTVSPropertyOp22
 70
     1
102
RTVSPropertyOp23
 70
     1
102
RTVSPropertyOp24
 70
     1
102
RTVSPropertyOp25
 70
     1
102
RTVSPropertyOp26
 70
     1
102
RTVSPropertyOp27
 70
     1
102
RTVSPropertyOp28
 70
     1
102
RTVSPropertyOp29
 70
     1
102
RTVSPropertyOp30
 70
     1
102
RTVSPropertyOp31
 70
     1
102
RTVSPropertyOp32
 70
     1
102
RTVSPropertyOp33
 70
     1
102
RTVSPropertyOp34
 70
     1
102
RTVSPropertyOp35
 70
     1
102
RTVSPropertyOp36
 70
     1
102
RTVSPropertyOp37
 70
     1
102
RTVSPropertyOp38
 70
     1
102
RTVSPropertyOp39
 70
     1
102
RTVSPropertyOp40
 70
     1
102
RTVSPropertyOp41
 70
     1
102
RTVSPropertyOp42
 70
     1
102
RTVSPropertyOp43
 70
     1
102
RTVSPropertyOp44
 70
     1
102
RTVSPropertyOp45
 70
     1
102
RTVSPropertyOp46
 70
     1
102
RTVSPropertyOp47
 70
     1
102
RTVSPropertyOp48
 70
     1
102
RTVSPropertyOp49
 70
     1
102
RTVSPropertyOp50
 70
     1
102
RTVSPropertyOp51
 70
     0
102
RTVSPropertyOp52
 70
     0
102
RTVSPropertyOp53
 70
     1
102
RTVSPropertyOp54
 70
     1
102
RTVSPropertyOp55
 70
     1
102
RTVSPropertyOp56
 70
     1
102
RTVSPropertyOp57
 70
     1
102
RTVSPost2010Prop28
280
     0
102
RTVSPost2010PropOp28
 70
     1
102
RTVSPost2010Prop29
280
     1
102
RTVSPost2010PropOp29
 70
     1
102
RTVSPost2010Prop30
280
     1
102
RTVSPost2010PropOp30
 70
     1
102
RTVSPost2010Prop31
280
     0
102
RTVSPost2010PropOp31
 70
     1
102
RTVSPost2010Prop32
280
     0
102
RTVSPost2010PropOp32
 70
     1
102
RTVSPost2010Prop33
280
     0
102
RTVSPost2010PropOp33
 70
     1
102
RTVSPost2010Prop34
280
     0
102
RTVSPost2010PropOp34
 70
     1
102
RTVSPost2010Prop35
280
     0
102
RTVSPost2010PropOp35
 70
     1
102
RTVSPost2010Prop36
280
     0
102
RTVSPost2010PropOp36
 70
     1
102
RTVSPost2010Prop37
 90
       50
102
RTVSPost2010PropOp37
 70
     1
102
RTVSPost2010Prop38
140
0.0
102
RTVSPost2010PropOp38
 70
     1
102
RTVSPost2010Prop39
140
1.0
102
RTVSPost2010PropOp39
 70
     1
102
RTVSPost2010Prop40
 90
        0
102
RTVSPost2010PropOp40
 70
     1
102
RTVSPost2010Prop41ColorIndex
 90
       18
102
RTVSPost2010Prop41ColorRGB
 90
        0
102
RTVSPost2010PropOp41
 70
     1
102
RTVSPost2010Prop42
 90
       50
102
RTVSPost2010PropOp42
 70
     1
102
RTVSPost2010Prop43
 90
        3
102
RTVSPost2010PropOp43
 70
     1
102
RTVSPost2010Prop44ColorIndex
 90
        5
102
RTVSPost2010Prop44ColorRGB
 90
      255
102
RTVSPost2010PropOp44
 70
     1
102
RTVSPost2010Prop45
280
     0
102
RTVSPost2010PropOp45
 70
     1
102
RTVSPost2010Prop46
 90
       50
102
RTVSPost2010PropOp46
 70
     1
102
RTVSPost2010Prop47
 90
       50
102
RTVSPost2010PropOp47
 70
     1
102
RTVSPost2010Prop48
 90
       50
102
RTVSPost2010PropOp48
 70
     1
102
RTVSPost2010Prop49
280
     0
102
RTVSPost2010PropOp49
 70
     1
102
RTVSPost2010Prop50
 90
       50
102
RTVSPost2010PropOp50
 70
     1
102
RTVSPost2010Prop51ColorIndex
 90
      256
102
RTVSPost2010Prop51ColorRGB
 90
-16777216
102
RTVSPost2010PropOp51
 70
     0
102
RTVSPost2010Prop52
140
1.0
102
RTVSPost2010PropOp52
 70
     0
102
RTVSPost2010Prop53
 90
        2
102
RTVSPost2010PropOp53
 70
     1
102
RTVSPost2010Prop54
  1
strokes_ogs.tif
102
RTVSPost2010PropOp54
 70
     1
102
RTVSPost2010Prop55
280
     0
102
RTVSPost2010PropOp55
 70
     1
102
RTVSPost2010Prop56
140
1.0
102
RTVSPost2010PropOp56
 70
     1
102
RTVSPost2010Prop57
140
1.0
102
RTVSPost2010PropOp57
 70
     1
  0
XRECORD
  5
657
102
{ACAD_REACTORS
330
656
102
}
330
656
100
AcDbXrecord
280
     1
102
RTVSPropertyOp0
 70
     1
102
RTVSPropertyOp1
 70
     1
102
RTVSPropertyOp2
 70
     1
102
RTVSPropertyOp3
 70
     1
102
RTVSPropertyOp4
 70
     1
102
RTVSPropertyOp5
 70
     1
102
RTVSPropertyOp6
 70
     1
102
RTVSPropertyOp7
 70
     1
102
RTVSPropertyOp8
 70
     1
102
RTVSPropertyOp9
 70
     1
102
RTVSPropertyOp10
 70
     1
102
RTVSPropertyOp11
 70
     1
102
RTVSPropertyOp12
 70
     1
102
RTVSPropertyOp13
 70
     1
102
RTVSPropertyOp14
 70
     1
102
RTVSPropertyOp15
 70
     1
102
RTVSPropertyOp16
 70
     1
102
RTVSPropertyOp17
 70
     1
102
RTVSPropertyOp18
 70
     1
102
RTVSPropertyOp19
 70
     1
102
RTVSPropertyOp20
 70
     1
102
RTVSPropertyOp21
 70
     1
102
RTVSPropertyOp22
 70
     1
102
RTVSPropertyOp23
 70
     1
102
RTVSPropertyOp24
 70
     1
102
RTVSPropertyOp25
 70
     1
102
RTVSPropertyOp26
 70
     1
102
RTVSPropertyOp27
 70
     1
102
RTVSPropertyOp28
 70
     1
102
RTVSPropertyOp29
 70
     1
102
RTVSPropertyOp30
 70
     1
102
RTVSPropertyOp31
 70
     1
102
RTVSPropertyOp32
 70
     1
102
RTVSPropertyOp33
 70
     1
102
RTVSPropertyOp34
 70
     1
102
RTVSPropertyOp35
 70
     1
102
RTVSPropertyOp36
 70
     1
102
RTVSPropertyOp37
 70
     1
102
RTVSPropertyOp38
 70
     1
102
RTVSPropertyOp39
 70
     1
102
RTVSPropertyOp40
 70
     1
102
RTVSPropertyOp41
 70
     1
102
RTVSPropertyOp42
 70
     1
102
RTVSPropertyOp43
 70
     1
102
RTVSPropertyOp44
 70
     1
102
RTVSPropertyOp45
 70
     1
102
RTVSPropertyOp46
 70
     1
102
RTVSPropertyOp47
 70
     1
102
RTVSPropertyOp48
 70
     1
102
RTVSPropertyOp49
 70
     1
102
RTVSPropertyOp50
 70
     1
102
RTVSPropertyOp51
 70
     0
102
RTVSPropertyOp52
 70
     0
102
RTVSPropertyOp53
 70
     1
102
RTVSPropertyOp54
 70
     1
102
RTVSPropertyOp55
 70
     1
102
RTVSPropertyOp56
 70
     1
102
RTVSPropertyOp57
 70
     1
102
RTVSPost2010Prop28
280
     0
102
RTVSPost2010PropOp28
 70
     1
102
RTVSPost2010Prop29
280
     1
102
RTVSPost2010PropOp29
 70
     1
102
RTVSPost2010Prop30
280
     1
102
RTVSPost2010PropOp30
 70
     1
102
RTVSPost2010Prop31
280
     0
102
RTVSPost2010PropOp31
 70
     1
102
RTVSPost2010Prop32
280
     0
102
RTVSPost2010PropOp32
 70
     1
102
RTVSPost2010Prop33
280
     0
102
RTVSPost2010PropOp33
 70
     1
102
RTVSPost2010Prop34
280
     0
102
RTVSPost2010PropOp34
 70
     1
102
RTVSPost2010Prop35
280
     0
102
RTVSPost2010PropOp35
 70
     1
102
RTVSPost2010Prop36
280
     0
102
RTVSPost2010PropOp36
 70
     1
102
RTVSPost2010Prop37
 90
       50
102
RTVSPost2010PropOp37
 70
     1
102
RTVSPost2010Prop38
140
0.0
102
RTVSPost2010PropOp38
 70
     1
102
RTVSPost2010Prop39
140
1.0
102
RTVSPost2010PropOp39
 70
     1
102
RTVSPost2010Prop40
 90
        0
102
RTVSPost2010PropOp40
 70
     1
102
RTVSPost2010Prop41ColorIndex
 90
       18
102
RTVSPost2010Prop41ColorRGB
 90
        0
102
RTVSPost2010PropOp41
 70
     1
102
RTVSPost2010Prop42
 90
       50
102
RTVSPost2010PropOp42
 70
     1
102
RTVSPost2010Prop43
 90
        3
102
RTVSPost2010PropOp43
 70
     1
102
RTVSPost2010Prop44ColorIndex
 90
        5
102
RTVSPost2010Prop44ColorRGB
 90
      255
102
RTVSPost2010PropOp44
 70
     1
102
RTVSPost2010Prop45
280
     0
102
RTVSPost2010PropOp45
 70
     1
102
RTVSPost2010Prop46
 90
       50
102
RTVSPost2010PropOp46
 70
     1
102
RTVSPost2010Prop47
 90
       50
102
RTVSPost2010PropOp47
 70
     1
102
RTVSPost2010Prop48
 90
       50
102
RTVSPost2010PropOp48
 70
     1
102
RTVSPost2010Prop49
280
     0
102
RTVSPost2010PropOp49
 70
     1
102
RTVSPost2010Prop50
 90
       50
102
RTVSPost2010PropOp50
 70
     1
102
RTVSPost2010Prop51ColorIndex
 90
      256
102
RTVSPost2010Prop51ColorRGB
 90
-16777216
102
RTVSPost2010PropOp51
 70
     0
102
RTVSPost2010Prop52
140
1.0
102
RTVSPost2010PropOp52
 70
     0
102
RTVSPost2010Prop53
 90
        2
102
RTVSPost2010PropOp53
 70
     1
102
RTVSPost2010Prop54
  1
strokes_ogs.tif
102
RTVSPost2010PropOp54
 70
     1
102
RTVSPost2010Prop55
280
     0
102
RTVSPost2010PropOp55
 70
     1
102
RTVSPost2010Prop56
140
1.0
102
RTVSPost2010PropOp56
 70
     1
102
RTVSPost2010Prop57
140
1.0
102
RTVSPost2010PropOp57
 70
     1
  0
XRECORD
  5
64B
102
{ACAD_REACTORS
330
64A
102
}
330
64A
100
AcDbXrecord
280
     1
102
RTVSPropertyOp0
 70
     1
102
RTVSPropertyOp1
 70
     1
102
RTVSPropertyOp2
 70
     1
102
RTVSPropertyOp3
 70
     1
102
RTVSPropertyOp4
 70
     1
102
RTVSPropertyOp5
 70
     1
102
RTVSPropertyOp6
 70
     1
102
RTVSPropertyOp7
 70
     1
102
RTVSPropertyOp8
 70
     1
102
RTVSPropertyOp9
 70
     1
102
RTVSPropertyOp10
 70
     1
102
RTVSPropertyOp11
 70
     1
102
RTVSPropertyOp12
 70
     1
102
RTVSPropertyOp13
 70
     1
102
RTVSPropertyOp14
 70
     1
102
RTVSPropertyOp15
 70
     1
102
RTVSPropertyOp16
 70
     1
102
RTVSPropertyOp17
 70
     1
102
RTVSPropertyOp18
 70
     1
102
RTVSPropertyOp19
 70
     1
102
RTVSPropertyOp20
 70
     1
102
RTVSPropertyOp21
 70
     1
102
RTVSPropertyOp22
 70
     1
102
RTVSPropertyOp23
 70
     1
102
RTVSPropertyOp24
 70
     1
102
RTVSPropertyOp25
 70
     1
102
RTVSPropertyOp26
 70
     1
102
RTVSPropertyOp27
 70
     1
102
RTVSPropertyOp28
 70
     1
102
RTVSPropertyOp29
 70
     1
102
RTVSPropertyOp30
 70
     1
102
RTVSPropertyOp31
 70
     1
102
RTVSPropertyOp32
 70
     1
102
RTVSPropertyOp33
 70
     1
102
RTVSPropertyOp34
 70
     1
102
RTVSPropertyOp35
 70
     1
102
RTVSPropertyOp36
 70
     1
102
RTVSPropertyOp37
 70
     1
102
RTVSPropertyOp38
 70
     1
102
RTVSPropertyOp39
 70
     1
102
RTVSPropertyOp40
 70
     1
102
RTVSPropertyOp41
 70
     1
102
RTVSPropertyOp42
 70
     1
102
RTVSPropertyOp43
 70
     1
102
RTVSPropertyOp44
 70
     1
102
RTVSPropertyOp45
 70
     1
102
RTVSPropertyOp46
 70
     1
102
RTVSPropertyOp47
 70
     1
102
RTVSPropertyOp48
 70
     1
102
RTVSPropertyOp49
 70
     1
102
RTVSPropertyOp50
 70
     1
102
RTVSPropertyOp51
 70
     0
102
RTVSPropertyOp52
 70
     0
102
RTVSPropertyOp53
 70
     1
102
RTVSPropertyOp54
 70
     1
102
RTVSPropertyOp55
 70
     1
102
RTVSPropertyOp56
 70
     1
102
RTVSPropertyOp57
 70
     1
102
RTVSPost2010Prop28
280
     0
102
RTVSPost2010PropOp28
 70
     1
102
RTVSPost2010Prop29
280
     1
102
RTVSPost2010PropOp29
 70
     1
102
RTVSPost2010Prop30
280
     1
102
RTVSPost2010PropOp30
 70
     1
102
RTVSPost2010Prop31
280
     0
102
RTVSPost2010PropOp31
 70
     1
102
RTVSPost2010Prop32
280
     0
102
RTVSPost2010PropOp32
 70
     1
102
RTVSPost2010Prop33
280
     0
102
RTVSPost2010PropOp33
 70
     1
102
RTVSPost2010Prop34
280
     0
102
RTVSPost2010PropOp34
 70
     1
102
RTVSPost2010Prop35
280
     0
102
RTVSPost2010PropOp35
 70
     1
102
RTVSPost2010Prop36
280
     0
102
RTVSPost2010PropOp36
 70
     1
102
RTVSPost2010Prop37
 90
       50
102
RTVSPost2010PropOp37
 70
     1
102
RTVSPost2010Prop38
140
0.0
102
RTVSPost2010PropOp38
 70
     1
102
RTVSPost2010Prop39
140
1.0
102
RTVSPost2010PropOp39
 70
     1
102
RTVSPost2010Prop40
 90
        0
102
RTVSPost2010PropOp40
 70
     1
102
RTVSPost2010Prop41ColorIndex
 90
       18
102
RTVSPost2010Prop41ColorRGB
 90
        0
102
RTVSPost2010PropOp41
 70
     1
102
RTVSPost2010Prop42
 90
       50
102
RTVSPost2010PropOp42
 70
     1
102
RTVSPost2010Prop43
 90
        3
102
RTVSPost2010PropOp43
 70
     1
102
RTVSPost2010Prop44ColorIndex
 90
        5
102
RTVSPost2010Prop44ColorRGB
 90
      255
102
RTVSPost2010PropOp44
 70
     1
102
RTVSPost2010Prop45
280
     0
102
RTVSPost2010PropOp45
 70
     1
102
RTVSPost2010Prop46
 90
       50
102
RTVSPost2010PropOp46
 70
     1
102
RTVSPost2010Prop47
 90
       50
102
RTVSPost2010PropOp47
 70
     1
102
RTVSPost2010Prop48
 90
       50
102
RTVSPost2010PropOp48
 70
     1
102
RTVSPost2010Prop49
280
     0
102
RTVSPost2010PropOp49
 70
     1
102
RTVSPost2010Prop50
 90
       50
102
RTVSPost2010PropOp50
 70
     1
102
RTVSPost2010Prop51ColorIndex
 90
      256
102
RTVSPost2010Prop51ColorRGB
 90
-16777216
102
RTVSPost2010PropOp51
 70
     0
102
RTVSPost2010Prop52
140
1.0
102
RTVSPost2010PropOp52
 70
     0
102
RTVSPost2010Prop53
 90
        2
102
RTVSPost2010PropOp53
 70
     1
102
RTVSPost2010Prop54
  1
strokes_ogs.tif
102
RTVSPost2010PropOp54
 70
     1
102
RTVSPost2010Prop55
280
     0
102
RTVSPost2010PropOp55
 70
     1
102
RTVSPost2010Prop56
140
1.0
102
RTVSPost2010PropOp56
 70
     1
102
RTVSPost2010Prop57
140
1.0
102
RTVSPost2010PropOp57
 70
     1
  0
XRECORD
  5
64D
102
{ACAD_REACTORS
330
64C
102
}
330
64C
100
AcDbXrecord
280
     1
102
RTVSPropertyOp0
 70
     1
102
RTVSPropertyOp1
 70
     1
102
RTVSPropertyOp2
 70
     1
102
RTVSPropertyOp3
 70
     1
102
RTVSPropertyOp4
 70
     1
102
RTVSPropertyOp5
 70
     1
102
RTVSPropertyOp6
 70
     1
102
RTVSPropertyOp7
 70
     1
102
RTVSPropertyOp8
 70
     1
102
RTVSPropertyOp9
 70
     1
102
RTVSPropertyOp10
 70
     1
102
RTVSPropertyOp11
 70
     1
102
RTVSPropertyOp12
 70
     1
102
RTVSPropertyOp13
 70
     1
102
RTVSPropertyOp14
 70
     1
102
RTVSPropertyOp15
 70
     1
102
RTVSPropertyOp16
 70
     1
102
RTVSPropertyOp17
 70
     1
102
RTVSPropertyOp18
 70
     1
102
RTVSPropertyOp19
 70
     1
102
RTVSPropertyOp20
 70
     1
102
RTVSPropertyOp21
 70
     1
102
RTVSPropertyOp22
 70
     1
102
RTVSPropertyOp23
 70
     1
102
RTVSPropertyOp24
 70
     1
102
RTVSPropertyOp25
 70
     1
102
RTVSPropertyOp26
 70
     1
102
RTVSPropertyOp27
 70
     1
102
RTVSPropertyOp28
 70
     1
102
RTVSPropertyOp29
 70
     1
102
RTVSPropertyOp30
 70
     1
102
RTVSPropertyOp31
 70
     1
102
RTVSPropertyOp32
 70
     1
102
RTVSPropertyOp33
 70
     1
102
RTVSPropertyOp34
 70
     1
102
RTVSPropertyOp35
 70
     1
102
RTVSPropertyOp36
 70
     1
102
RTVSPropertyOp37
 70
     1
102
RTVSPropertyOp38
 70
     1
102
RTVSPropertyOp39
 70
     1
102
RTVSPropertyOp40
 70
     1
102
RTVSPropertyOp41
 70
     1
102
RTVSPropertyOp42
 70
     1
102
RTVSPropertyOp43
 70
     1
102
RTVSPropertyOp44
 70
     1
102
RTVSPropertyOp45
 70
     1
102
RTVSPropertyOp46
 70
     1
102
RTVSPropertyOp47
 70
     1
102
RTVSPropertyOp48
 70
     1
102
RTVSPropertyOp49
 70
     1
102
RTVSPropertyOp50
 70
     1
102
RTVSPropertyOp51
 70
     0
102
RTVSPropertyOp52
 70
     0
102
RTVSPropertyOp53
 70
     1
102
RTVSPropertyOp54
 70
     1
102
RTVSPropertyOp55
 70
     1
102
RTVSPropertyOp56
 70
     1
102
RTVSPropertyOp57
 70
     1
102
RTVSPost2010Prop28
280
     0
102
RTVSPost2010PropOp28
 70
     1
102
RTVSPost2010Prop29
280
     1
102
RTVSPost2010PropOp29
 70
     1
102
RTVSPost2010Prop30
280
     1
102
RTVSPost2010PropOp30
 70
     1
102
RTVSPost2010Prop31
280
     0
102
RTVSPost2010PropOp31
 70
     1
102
RTVSPost2010Prop32
280
     0
102
RTVSPost2010PropOp32
 70
     1
102
RTVSPost2010Prop33
280
     0
102
RTVSPost2010PropOp33
 70
     1
102
RTVSPost2010Prop34
280
     0
102
RTVSPost2010PropOp34
 70
     1
102
RTVSPost2010Prop35
280
     0
102
RTVSPost2010PropOp35
 70
     1
102
RTVSPost2010Prop36
280
     0
102
RTVSPost2010PropOp36
 70
     1
102
RTVSPost2010Prop37
 90
       50
102
RTVSPost2010PropOp37
 70
     1
102
RTVSPost2010Prop38
140
0.0
102
RTVSPost2010PropOp38
 70
     1
102
RTVSPost2010Prop39
140
1.0
102
RTVSPost2010PropOp39
 70
     1
102
RTVSPost2010Prop40
 90
        0
102
RTVSPost2010PropOp40
 70
     1
102
RTVSPost2010Prop41ColorIndex
 90
       18
102
RTVSPost2010Prop41ColorRGB
 90
        0
102
RTVSPost2010PropOp41
 70
     1
102
RTVSPost2010Prop42
 90
       50
102
RTVSPost2010PropOp42
 70
     1
102
RTVSPost2010Prop43
 90
        3
102
RTVSPost2010PropOp43
 70
     1
102
RTVSPost2010Prop44ColorIndex
 90
        5
102
RTVSPost2010Prop44ColorRGB
 90
      255
102
RTVSPost2010PropOp44
 70
     1
102
RTVSPost2010Prop45
280
     0
102
RTVSPost2010PropOp45
 70
     1
102
RTVSPost2010Prop46
 90
       50
102
RTVSPost2010PropOp46
 70
     1
102
RTVSPost2010Prop47
 90
       50
102
RTVSPost2010PropOp47
 70
     1
102
RTVSPost2010Prop48
 90
       50
102
RTVSPost2010PropOp48
 70
     1
102
RTVSPost2010Prop49
280
     0
102
RTVSPost2010PropOp49
 70
     1
102
RTVSPost2010Prop50
 90
       50
102
RTVSPost2010PropOp50
 70
     1
102
RTVSPost2010Prop51ColorIndex
 90
      256
102
RTVSPost2010Prop51ColorRGB
 90
-16777216
102
RTVSPost2010PropOp51
 70
     0
102
RTVSPost2010Prop52
140
1.0
102
RTVSPost2010PropOp52
 70
     0
102
RTVSPost2010Prop53
 90
        2
102
RTVSPost2010PropOp53
 70
     1
102
RTVSPost2010Prop54
  1
strokes_ogs.tif
102
RTVSPost2010PropOp54
 70
     1
102
RTVSPost2010Prop55
280
     0
102
RTVSPost2010PropOp55
 70
     1
102
RTVSPost2010Prop56
140
1.0
102
RTVSPost2010PropOp56
 70
     1
102
RTVSPost2010Prop57
140
1.0
102
RTVSPost2010PropOp57
 70
     1
  0
XRECORD
  5
65D
102
{ACAD_REACTORS
330
65C
102
}
330
65C
100
AcDbXrecord
280
     1
102
RTVSPropertyOp0
 70
     0
102
RTVSPropertyOp1
 70
     0
102
RTVSPropertyOp2
 70
     0
102
RTVSPropertyOp3
 70
     0
102
RTVSPropertyOp4
 70
     0
102
RTVSPropertyOp5
 70
     0
102
RTVSPropertyOp6
 70
     0
102
RTVSPropertyOp7
 70
     0
102
RTVSPropertyOp8
 70
     0
102
RTVSPropertyOp9
 70
     0
102
RTVSPropertyOp10
 70
     0
102
RTVSPropertyOp11
 70
     0
102
RTVSPropertyOp12
 70
     0
102
RTVSPropertyOp13
 70
     0
102
RTVSPropertyOp14
 70
     0
102
RTVSPropertyOp15
 70
     0
102
RTVSPropertyOp16
 70
     0
102
RTVSPropertyOp17
 70
     0
102
RTVSPropertyOp18
 70
     0
102
RTVSPropertyOp19
 70
     0
102
RTVSPropertyOp20
 70
     0
102
RTVSPropertyOp21
 70
     0
102
RTVSPropertyOp22
 70
     0
102
RTVSPropertyOp23
 70
     0
102
RTVSPropertyOp24
 70
     0
102
RTVSPropertyOp25
 70
     0
102
RTVSPropertyOp26
 70
     0
102
RTVSPropertyOp27
 70
     0
102
RTVSPropertyOp28
 70
     1
102
RTVSPropertyOp29
 70
     1
102
RTVSPropertyOp30
 70
     1
102
RTVSPropertyOp31
 70
     1
102
RTVSPropertyOp32
 70
     1
102
RTVSPropertyOp33
 70
     1
102
RTVSPropertyOp34
 70
     1
102
RTVSPropertyOp35
 70
     1
102
RTVSPropertyOp36
 70
     1
102
RTVSPropertyOp37
 70
     1
102
RTVSPropertyOp38
 70
     1
102
RTVSPropertyOp39
 70
     1
102
RTVSPropertyOp40
 70
     1
102
RTVSPropertyOp41
 70
     1
102
RTVSPropertyOp42
 70
     1
102
RTVSPropertyOp43
 70
     1
102
RTVSPropertyOp44
 70
     1
102
RTVSPropertyOp45
 70
     1
102
RTVSPropertyOp46
 70
     1
102
RTVSPropertyOp47
 70
     1
102
RTVSPropertyOp48
 70
     1
102
RTVSPropertyOp49
 70
     1
102
RTVSPropertyOp50
 70
     1
102
RTVSPropertyOp51
 70
     0
102
RTVSPropertyOp52
 70
     0
102
RTVSPropertyOp53
 70
     1
102
RTVSPropertyOp54
 70
     1
102
RTVSPropertyOp55
 70
     1
102
RTVSPropertyOp56
 70
     1
102
RTVSPropertyOp57
 70
     1
102
RTVSPost2010Prop28
280
     0
102
RTVSPost2010PropOp28
 70
     1
102
RTVSPost2010Prop29
280
     1
102
RTVSPost2010PropOp29
 70
     1
102
RTVSPost2010Prop30
280
     1
102
RTVSPost2010PropOp30
 70
     1
102
RTVSPost2010Prop31
280
     0
102
RTVSPost2010PropOp31
 70
     1
102
RTVSPost2010Prop32
280
     0
102
RTVSPost2010PropOp32
 70
     1
102
RTVSPost2010Prop33
280
     0
102
RTVSPost2010PropOp33
 70
     1
102
RTVSPost2010Prop34
280
     0
102
RTVSPost2010PropOp34
 70
     1
102
RTVSPost2010Prop35
280
     0
102
RTVSPost2010PropOp35
 70
     1
102
RTVSPost2010Prop36
280
     0
102
RTVSPost2010PropOp36
 70
     1
102
RTVSPost2010Prop37
 90
       50
102
RTVSPost2010PropOp37
 70
     1
102
RTVSPost2010Prop38
140
0.0
102
RTVSPost2010PropOp38
 70
     1
102
RTVSPost2010Prop39
140
1.0
102
RTVSPost2010PropOp39
 70
     1
102
RTVSPost2010Prop40
 90
        0
102
RTVSPost2010PropOp40
 70
     1
102
RTVSPost2010Prop41ColorIndex
 90
       18
102
RTVSPost2010Prop41ColorRGB
 90
        0
102
RTVSPost2010PropOp41
 70
     1
102
RTVSPost2010Prop42
 90
       50
102
RTVSPost2010PropOp42
 70
     1
102
RTVSPost2010Prop43
 90
        3
102
RTVSPost2010PropOp43
 70
     1
102
RTVSPost2010Prop44ColorIndex
 90
        5
102
RTVSPost2010Prop44ColorRGB
 90
      255
102
RTVSPost2010PropOp44
 70
     1
102
RTVSPost2010Prop45
280
     0
102
RTVSPost2010PropOp45
 70
     1
102
RTVSPost2010Prop46
 90
       50
102
RTVSPost2010PropOp46
 70
     1
102
RTVSPost2010Prop47
 90
       50
102
RTVSPost2010PropOp47
 70
     1
102
RTVSPost2010Prop48
 90
       50
102
RTVSPost2010PropOp48
 70
     1
102
RTVSPost2010Prop49
280
     0
102
RTVSPost2010PropOp49
 70
     1
102
RTVSPost2010Prop50
 90
       50
102
RTVSPost2010PropOp50
 70
     1
102
RTVSPost2010Prop51ColorIndex
 90
      256
102
RTVSPost2010Prop51ColorRGB
 90
-16777216
102
RTVSPost2010PropOp51
 70
     0
102
RTVSPost2010Prop52
140
1.0
102
RTVSPost2010PropOp52
 70
     0
102
RTVSPost2010Prop53
 90
        2
102
RTVSPost2010PropOp53
 70
     1
102
RTVSPost2010Prop54
  1
strokes_ogs.tif
102
RTVSPost2010PropOp54
 70
     1
102
RTVSPost2010Prop55
280
     0
102
RTVSPost2010PropOp55
 70
     1
102
RTVSPost2010Prop56
140
1.0
102
RTVSPost2010PropOp56
 70
     1
102
RTVSPost2010Prop57
140
1.0
102
RTVSPost2010PropOp57
 70
     1
  0
XRECORD
  5
655
102
{ACAD_REACTORS
330
654
102
}
330
654
100
AcDbXrecord
280
     1
102
RTVSPropertyOp0
 70
     1
102
RTVSPropertyOp1
 70
     1
102
RTVSPropertyOp2
 70
     1
102
RTVSPropertyOp3
 70
     1
102
RTVSPropertyOp4
 70
     1
102
RTVSPropertyOp5
 70
     1
102
RTVSPropertyOp6
 70
     1
102
RTVSPropertyOp7
 70
     1
102
RTVSPropertyOp8
 70
     1
102
RTVSPropertyOp9
 70
     1
102
RTVSPropertyOp10
 70
     1
102
RTVSPropertyOp11
 70
     1
102
RTVSPropertyOp12
 70
     1
102
RTVSPropertyOp13
 70
     1
102
RTVSPropertyOp14
 70
     1
102
RTVSPropertyOp15
 70
     1
102
RTVSPropertyOp16
 70
     1
102
RTVSPropertyOp17
 70
     1
102
RTVSPropertyOp18
 70
     1
102
RTVSPropertyOp19
 70
     1
102
RTVSPropertyOp20
 70
     1
102
RTVSPropertyOp21
 70
     1
102
RTVSPropertyOp22
 70
     1
102
RTVSPropertyOp23
 70
     1
102
RTVSPropertyOp24
 70
     1
102
RTVSPropertyOp25
 70
     1
102
RTVSPropertyOp26
 70
     1
102
RTVSPropertyOp27
 70
     1
102
RTVSPropertyOp28
 70
     1
102
RTVSPropertyOp29
 70
     1
102
RTVSPropertyOp30
 70
     1
102
RTVSPropertyOp31
 70
     1
102
RTVSPropertyOp32
 70
     1
102
RTVSPropertyOp33
 70
     1
102
RTVSPropertyOp34
 70
     1
102
RTVSPropertyOp35
 70
     1
102
RTVSPropertyOp36
 70
     1
102
RTVSPropertyOp37
 70
     1
102
RTVSPropertyOp38
 70
     1
102
RTVSPropertyOp39
 70
     1
102
RTVSPropertyOp40
 70
     1
102
RTVSPropertyOp41
 70
     1
102
RTVSPropertyOp42
 70
     1
102
RTVSPropertyOp43
 70
     1
102
RTVSPropertyOp44
 70
     1
102
RTVSPropertyOp45
 70
     1
102
RTVSPropertyOp46
 70
     1
102
RTVSPropertyOp47
 70
     1
102
RTVSPropertyOp48
 70
     1
102
RTVSPropertyOp49
 70
     1
102
RTVSPropertyOp50
 70
     1
102
RTVSPropertyOp51
 70
     0
102
RTVSPropertyOp52
 70
     0
102
RTVSPropertyOp53
 70
     1
102
RTVSPropertyOp54
 70
     1
102
RTVSPropertyOp55
 70
     1
102
RTVSPropertyOp56
 70
     1
102
RTVSPropertyOp57
 70
     1
102
RTVSPost2010Prop28
280
     0
102
RTVSPost2010PropOp28
 70
     1
102
RTVSPost2010Prop29
280
     1
102
RTVSPost2010PropOp29
 70
     1
102
RTVSPost2010Prop30
280
     1
102
RTVSPost2010PropOp30
 70
     1
102
RTVSPost2010Prop31
280
     0
102
RTVSPost2010PropOp31
 70
     1
102
RTVSPost2010Prop32
280
     0
102
RTVSPost2010PropOp32
 70
     1
102
RTVSPost2010Prop33
280
     0
102
RTVSPost2010PropOp33
 70
     1
102
RTVSPost2010Prop34
280
     0
102
RTVSPost2010PropOp34
 70
     1
102
RTVSPost2010Prop35
280
     0
102
RTVSPost2010PropOp35
 70
     1
102
RTVSPost2010Prop36
280
     0
102
RTVSPost2010PropOp36
 70
     1
102
RTVSPost2010Prop37
 90
       50
102
RTVSPost2010PropOp37
 70
     1
102
RTVSPost2010Prop38
140
0.0
102
RTVSPost2010PropOp38
 70
     1
102
RTVSPost2010Prop39
140
1.0
102
RTVSPost2010PropOp39
 70
     1
102
RTVSPost2010Prop40
 90
        0
102
RTVSPost2010PropOp40
 70
     1
102
RTVSPost2010Prop41ColorIndex
 90
       18
102
RTVSPost2010Prop41ColorRGB
 90
        0
102
RTVSPost2010PropOp41
 70
     1
102
RTVSPost2010Prop42
 90
       50
102
RTVSPost2010PropOp42
 70
     1
102
RTVSPost2010Prop43
 90
        3
102
RTVSPost2010PropOp43
 70
     1
102
RTVSPost2010Prop44ColorIndex
 90
        5
102
RTVSPost2010Prop44ColorRGB
 90
      255
102
RTVSPost2010PropOp44
 70
     1
102
RTVSPost2010Prop45
280
     0
102
RTVSPost2010PropOp45
 70
     1
102
RTVSPost2010Prop46
 90
       50
102
RTVSPost2010PropOp46
 70
     1
102
RTVSPost2010Prop47
 90
       50
102
RTVSPost2010PropOp47
 70
     1
102
RTVSPost2010Prop48
 90
       50
102
RTVSPost2010PropOp48
 70
     1
102
RTVSPost2010Prop49
280
     0
102
RTVSPost2010PropOp49
 70
     1
102
RTVSPost2010Prop50
 90
       50
102
RTVSPost2010PropOp50
 70
     1
102
RTVSPost2010Prop51ColorIndex
 90
      256
102
RTVSPost2010Prop51ColorRGB
 90
-16777216
102
RTVSPost2010PropOp51
 70
     0
102
RTVSPost2010Prop52
140
1.0
102
RTVSPost2010PropOp52
 70
     0
102
RTVSPost2010Prop53
 90
        2
102
RTVSPost2010PropOp53
 70
     1
102
RTVSPost2010Prop54
  1
strokes_ogs.tif
102
RTVSPost2010PropOp54
 70
     1
102
RTVSPost2010Prop55
280
     0
102
RTVSPost2010PropOp55
 70
     1
102
RTVSPost2010Prop56
140
1.0
102
RTVSPost2010PropOp56
 70
     1
102
RTVSPost2010Prop57
140
1.0
102
RTVSPost2010PropOp57
 70
     1
  0
XRECORD
  5
639
102
{ACAD_REACTORS
330
638
102
}
330
638
100
AcDbXrecord
280
     1
102
RTVSPropertyOp0
 70
     1
102
RTVSPropertyOp1
 70
     1
102
RTVSPropertyOp2
 70
     1
102
RTVSPropertyOp3
 70
     1
102
RTVSPropertyOp4
 70
     1
102
RTVSPropertyOp5
 70
     1
102
RTVSPropertyOp6
 70
     1
102
RTVSPropertyOp7
 70
     1
102
RTVSPropertyOp8
 70
     1
102
RTVSPropertyOp9
 70
     1
102
RTVSPropertyOp10
 70
     1
102
RTVSPropertyOp11
 70
     1
102
RTVSPropertyOp12
 70
     1
102
RTVSPropertyOp13
 70
     1
102
RTVSPropertyOp14
 70
     1
102
RTVSPropertyOp15
 70
     1
102
RTVSPropertyOp16
 70
     1
102
RTVSPropertyOp17
 70
     1
102
RTVSPropertyOp18
 70
     1
102
RTVSPropertyOp19
 70
     1
102
RTVSPropertyOp20
 70
     1
102
RTVSPropertyOp21
 70
     1
102
RTVSPropertyOp22
 70
     1
102
RTVSPropertyOp23
 70
     1
102
RTVSPropertyOp24
 70
     1
102
RTVSPropertyOp25
 70
     1
102
RTVSPropertyOp26
 70
     1
102
RTVSPropertyOp27
 70
     1
102
RTVSPropertyOp28
 70
     1
102
RTVSPropertyOp29
 70
     1
102
RTVSPropertyOp30
 70
     1
102
RTVSPropertyOp31
 70
     1
102
RTVSPropertyOp32
 70
     1
102
RTVSPropertyOp33
 70
     1
102
RTVSPropertyOp34
 70
     1
102
RTVSPropertyOp35
 70
     1
102
RTVSPropertyOp36
 70
     1
102
RTVSPropertyOp37
 70
     1
102
RTVSPropertyOp38
 70
     1
102
RTVSPropertyOp39
 70
     1
102
RTVSPropertyOp40
 70
     1
102
RTVSPropertyOp41
 70
     1
102
RTVSPropertyOp42
 70
     1
102
RTVSPropertyOp43
 70
     1
102
RTVSPropertyOp44
 70
     1
102
RTVSPropertyOp45
 70
     1
102
RTVSPropertyOp46
 70
     1
102
RTVSPropertyOp47
 70
     1
102
RTVSPropertyOp48
 70
     1
102
RTVSPropertyOp49
 70
     1
102
RTVSPropertyOp50
 70
     1
102
RTVSPropertyOp51
 70
     0
102
RTVSPropertyOp52
 70
     0
102
RTVSPropertyOp53
 70
     1
102
RTVSPropertyOp54
 70
     1
102
RTVSPropertyOp55
 70
     1
102
RTVSPropertyOp56
 70
     1
102
RTVSPropertyOp57
 70
     1
102
RTVSPost2010Prop28
280
     0
102
RTVSPost2010PropOp28
 70
     1
102
RTVSPost2010Prop29
280
     1
102
RTVSPost2010PropOp29
 70
     1
102
RTVSPost2010Prop30
280
     1
102
RTVSPost2010PropOp30
 70
     1
102
RTVSPost2010Prop31
280
     0
102
RTVSPost2010PropOp31
 70
     1
102
RTVSPost2010Prop32
280
     0
102
RTVSPost2010PropOp32
 70
     1
102
RTVSPost2010Prop33
280
     0
102
RTVSPost2010PropOp33
 70
     1
102
RTVSPost2010Prop34
280
     0
102
RTVSPost2010PropOp34
 70
     1
102
RTVSPost2010Prop35
280
     0
102
RTVSPost2010PropOp35
 70
     1
102
RTVSPost2010Prop36
280
     0
102
RTVSPost2010PropOp36
 70
     1
102
RTVSPost2010Prop37
 90
       50
102
RTVSPost2010PropOp37
 70
     1
102
RTVSPost2010Prop38
140
0.0
102
RTVSPost2010PropOp38
 70
     1
102
RTVSPost2010Prop39
140
1.0
102
RTVSPost2010PropOp39
 70
     1
102
RTVSPost2010Prop40
 90
        0
102
RTVSPost2010PropOp40
 70
     1
102
RTVSPost2010Prop41ColorIndex
 90
       18
102
RTVSPost2010Prop41ColorRGB
 90
        0
102
RTVSPost2010PropOp41
 70
     1
102
RTVSPost2010Prop42
 90
       50
102
RTVSPost2010PropOp42
 70
     1
102
RTVSPost2010Prop43
 90
        3
102
RTVSPost2010PropOp43
 70
     1
102
RTVSPost2010Prop44ColorIndex
 90
        5
102
RTVSPost2010Prop44ColorRGB
 90
      255
102
RTVSPost2010PropOp44
 70
     1
102
RTVSPost2010Prop45
280
     0
102
RTVSPost2010PropOp45
 70
     1
102
RTVSPost2010Prop46
 90
       50
102
RTVSPost2010PropOp46
 70
     1
102
RTVSPost2010Prop47
 90
       50
102
RTVSPost2010PropOp47
 70
     1
102
RTVSPost2010Prop48
 90
       50
102
RTVSPost2010PropOp48
 70
     1
102
RTVSPost2010Prop49
280
     0
102
RTVSPost2010PropOp49
 70
     1
102
RTVSPost2010Prop50
 90
       50
102
RTVSPost2010PropOp50
 70
     1
102
RTVSPost2010Prop51ColorIndex
 90
      256
102
RTVSPost2010Prop51ColorRGB
 90
-16777216
102
RTVSPost2010PropOp51
 70
     0
102
RTVSPost2010Prop52
140
1.0
102
RTVSPost2010PropOp52
 70
     0
102
RTVSPost2010Prop53
 90
        2
102
RTVSPost2010PropOp53
 70
     1
102
RTVSPost2010Prop54
  1
strokes_ogs.tif
102
RTVSPost2010PropOp54
 70
     1
102
RTVSPost2010Prop55
280
     0
102
RTVSPost2010PropOp55
 70
     1
102
RTVSPost2010Prop56
140
1.0
102
RTVSPost2010PropOp56
 70
     1
102
RTVSPost2010Prop57
140
1.0
102
RTVSPost2010PropOp57
 70
     1
  0
XRECORD
  5
63B
102
{ACAD_REACTORS
330
63A
102
}
330
63A
100
AcDbXrecord
280
     1
102
RTVSPropertyOp0
 70
     1
102
RTVSPropertyOp1
 70
     1
102
RTVSPropertyOp2
 70
     1
102
RTVSPropertyOp3
 70
     1
102
RTVSPropertyOp4
 70
     1
102
RTVSPropertyOp5
 70
     1
102
RTVSPropertyOp6
 70
     1
102
RTVSPropertyOp7
 70
     1
102
RTVSPropertyOp8
 70
     1
102
RTVSPropertyOp9
 70
     1
102
RTVSPropertyOp10
 70
     1
102
RTVSPropertyOp11
 70
     1
102
RTVSPropertyOp12
 70
     1
102
RTVSPropertyOp13
 70
     1
102
RTVSPropertyOp14
 70
     1
102
RTVSPropertyOp15
 70
     1
102
RTVSPropertyOp16
 70
     1
102
RTVSPropertyOp17
 70
     1
102
RTVSPropertyOp18
 70
     1
102
RTVSPropertyOp19
 70
     1
102
RTVSPropertyOp20
 70
     1
102
RTVSPropertyOp21
 70
     1
102
RTVSPropertyOp22
 70
     1
102
RTVSPropertyOp23
 70
     1
102
RTVSPropertyOp24
 70
     1
102
RTVSPropertyOp25
 70
     1
102
RTVSPropertyOp26
 70
     1
102
RTVSPropertyOp27
 70
     1
102
RTVSPropertyOp28
 70
     1
102
RTVSPropertyOp29
 70
     1
102
RTVSPropertyOp30
 70
     1
102
RTVSPropertyOp31
 70
     1
102
RTVSPropertyOp32
 70
     1
102
RTVSPropertyOp33
 70
     1
102
RTVSPropertyOp34
 70
     1
102
RTVSPropertyOp35
 70
     1
102
RTVSPropertyOp36
 70
     1
102
RTVSPropertyOp37
 70
     1
102
RTVSPropertyOp38
 70
     1
102
RTVSPropertyOp39
 70
     1
102
RTVSPropertyOp40
 70
     1
102
RTVSPropertyOp41
 70
     1
102
RTVSPropertyOp42
 70
     1
102
RTVSPropertyOp43
 70
     1
102
RTVSPropertyOp44
 70
     1
102
RTVSPropertyOp45
 70
     1
102
RTVSPropertyOp46
 70
     1
102
RTVSPropertyOp47
 70
     1
102
RTVSPropertyOp48
 70
     1
102
RTVSPropertyOp49
 70
     1
102
RTVSPropertyOp50
 70
     1
102
RTVSPropertyOp51
 70
     0
102
RTVSPropertyOp52
 70
     0
102
RTVSPropertyOp53
 70
     1
102
RTVSPropertyOp54
 70
     1
102
RTVSPropertyOp55
 70
     1
102
RTVSPropertyOp56
 70
     1
102
RTVSPropertyOp57
 70
     1
102
RTVSPost2010Prop28
280
     0
102
RTVSPost2010PropOp28
 70
     1
102
RTVSPost2010Prop29
280
     1
102
RTVSPost2010PropOp29
 70
     1
102
RTVSPost2010Prop30
280
     1
102
RTVSPost2010PropOp30
 70
     1
102
RTVSPost2010Prop31
280
     0
102
RTVSPost2010PropOp31
 70
     1
102
RTVSPost2010Prop32
280
     0
102
RTVSPost2010PropOp32
 70
     1
102
RTVSPost2010Prop33
280
     0
102
RTVSPost2010PropOp33
 70
     1
102
RTVSPost2010Prop34
280
     0
102
RTVSPost2010PropOp34
 70
     1
102
RTVSPost2010Prop35
280
     0
102
RTVSPost2010PropOp35
 70
     1
102
RTVSPost2010Prop36
280
     0
102
RTVSPost2010PropOp36
 70
     1
102
RTVSPost2010Prop37
 90
       50
102
RTVSPost2010PropOp37
 70
     1
102
RTVSPost2010Prop38
140
0.0
102
RTVSPost2010PropOp38
 70
     1
102
RTVSPost2010Prop39
140
1.0
102
RTVSPost2010PropOp39
 70
     1
102
RTVSPost2010Prop40
 90
        0
102
RTVSPost2010PropOp40
 70
     1
102
RTVSPost2010Prop41ColorIndex
 90
       18
102
RTVSPost2010Prop41ColorRGB
 90
        0
102
RTVSPost2010PropOp41
 70
     1
102
RTVSPost2010Prop42
 90
       50
102
RTVSPost2010PropOp42
 70
     1
102
RTVSPost2010Prop43
 90
        3
102
RTVSPost2010PropOp43
 70
     1
102
RTVSPost2010Prop44ColorIndex
 90
        5
102
RTVSPost2010Prop44ColorRGB
 90
      255
102
RTVSPost2010PropOp44
 70
     1
102
RTVSPost2010Prop45
280
     0
102
RTVSPost2010PropOp45
 70
     1
102
RTVSPost2010Prop46
 90
       50
102
RTVSPost2010PropOp46
 70
     1
102
RTVSPost2010Prop47
 90
       50
102
RTVSPost2010PropOp47
 70
     1
102
RTVSPost2010Prop48
 90
       50
102
RTVSPost2010PropOp48
 70
     1
102
RTVSPost2010Prop49
280
     0
102
RTVSPost2010PropOp49
 70
     1
102
RTVSPost2010Prop50
 90
       50
102
RTVSPost2010PropOp50
 70
     1
102
RTVSPost2010Prop51ColorIndex
 90
      256
102
RTVSPost2010Prop51ColorRGB
 90
-16777216
102
RTVSPost2010PropOp51
 70
     0
102
RTVSPost2010Prop52
140
1.0
102
RTVSPost2010PropOp52
 70
     0
102
RTVSPost2010Prop53
 90
        2
102
RTVSPost2010PropOp53
 70
     1
102
RTVSPost2010Prop54
  1
strokes_ogs.tif
102
RTVSPost2010PropOp54
 70
     1
102
RTVSPost2010Prop55
280
     0
102
RTVSPost2010PropOp55
 70
     1
102
RTVSPost2010Prop56
140
1.0
102
RTVSPost2010PropOp56
 70
     1
102
RTVSPost2010Prop57
140
1.0
102
RTVSPost2010PropOp57
 70
     1
  0
XRECORD
  5
63D
102
{ACAD_REACTORS
330
63C
102
}
330
63C
100
AcDbXrecord
280
     1
102
RTVSPropertyOp0
 70
     1
102
RTVSPropertyOp1
 70
     1
102
RTVSPropertyOp2
 70
     1
102
RTVSPropertyOp3
 70
     1
102
RTVSPropertyOp4
 70
     1
102
RTVSPropertyOp5
 70
     1
102
RTVSPropertyOp6
 70
     1
102
RTVSPropertyOp7
 70
     1
102
RTVSPropertyOp8
 70
     1
102
RTVSPropertyOp9
 70
     1
102
RTVSPropertyOp10
 70
     1
102
RTVSPropertyOp11
 70
     1
102
RTVSPropertyOp12
 70
     1
102
RTVSPropertyOp13
 70
     1
102
RTVSPropertyOp14
 70
     1
102
RTVSPropertyOp15
 70
     1
102
RTVSPropertyOp16
 70
     1
102
RTVSPropertyOp17
 70
     1
102
RTVSPropertyOp18
 70
     1
102
RTVSPropertyOp19
 70
     1
102
RTVSPropertyOp20
 70
     1
102
RTVSPropertyOp21
 70
     1
102
RTVSPropertyOp22
 70
     1
102
RTVSPropertyOp23
 70
     1
102
RTVSPropertyOp24
 70
     1
102
RTVSPropertyOp25
 70
     1
102
RTVSPropertyOp26
 70
     1
102
RTVSPropertyOp27
 70
     1
102
RTVSPropertyOp28
 70
     1
102
RTVSPropertyOp29
 70
     1
102
RTVSPropertyOp30
 70
     1
102
RTVSPropertyOp31
 70
     1
102
RTVSPropertyOp32
 70
     1
102
RTVSPropertyOp33
 70
     1
102
RTVSPropertyOp34
 70
     1
102
RTVSPropertyOp35
 70
     1
102
RTVSPropertyOp36
 70
     1
102
RTVSPropertyOp37
 70
     1
102
RTVSPropertyOp38
 70
     1
102
RTVSPropertyOp39
 70
     1
102
RTVSPropertyOp40
 70
     1
102
RTVSPropertyOp41
 70
     1
102
RTVSPropertyOp42
 70
     1
102
RTVSPropertyOp43
 70
     1
102
RTVSPropertyOp44
 70
     1
102
RTVSPropertyOp45
 70
     1
102
RTVSPropertyOp46
 70
     1
102
RTVSPropertyOp47
 70
     1
102
RTVSPropertyOp48
 70
     1
102
RTVSPropertyOp49
 70
     1
102
RTVSPropertyOp50
 70
     1
102
RTVSPropertyOp51
 70
     0
102
RTVSPropertyOp52
 70
     0
102
RTVSPropertyOp53
 70
     1
102
RTVSPropertyOp54
 70
     1
102
RTVSPropertyOp55
 70
     1
102
RTVSPropertyOp56
 70
     1
102
RTVSPropertyOp57
 70
     1
102
RTVSPost2010Prop28
280
     0
102
RTVSPost2010PropOp28
 70
     1
102
RTVSPost2010Prop29
280
     1
102
RTVSPost2010PropOp29
 70
     1
102
RTVSPost2010Prop30
280
     1
102
RTVSPost2010PropOp30
 70
     1
102
RTVSPost2010Prop31
280
     0
102
RTVSPost2010PropOp31
 70
     1
102
RTVSPost2010Prop32
280
     0
102
RTVSPost2010PropOp32
 70
     1
102
RTVSPost2010Prop33
280
     0
102
RTVSPost2010PropOp33
 70
     1
102
RTVSPost2010Prop34
280
     0
102
RTVSPost2010PropOp34
 70
     1
102
RTVSPost2010Prop35
280
     0
102
RTVSPost2010PropOp35
 70
     1
102
RTVSPost2010Prop36
280
     0
102
RTVSPost2010PropOp36
 70
     1
102
RTVSPost2010Prop37
 90
       50
102
RTVSPost2010PropOp37
 70
     1
102
RTVSPost2010Prop38
140
0.0
102
RTVSPost2010PropOp38
 70
     1
102
RTVSPost2010Prop39
140
1.0
102
RTVSPost2010PropOp39
 70
     1
102
RTVSPost2010Prop40
 90
        0
102
RTVSPost2010PropOp40
 70
     1
102
RTVSPost2010Prop41ColorIndex
 90
       18
102
RTVSPost2010Prop41ColorRGB
 90
        0
102
RTVSPost2010PropOp41
 70
     1
102
RTVSPost2010Prop42
 90
       50
102
RTVSPost2010PropOp42
 70
     1
102
RTVSPost2010Prop43
 90
        3
102
RTVSPost2010PropOp43
 70
     1
102
RTVSPost2010Prop44ColorIndex
 90
        5
102
RTVSPost2010Prop44ColorRGB
 90
      255
102
RTVSPost2010PropOp44
 70
     1
102
RTVSPost2010Prop45
280
     0
102
RTVSPost2010PropOp45
 70
     1
102
RTVSPost2010Prop46
 90
       50
102
RTVSPost2010PropOp46
 70
     1
102
RTVSPost2010Prop47
 90
       50
102
RTVSPost2010PropOp47
 70
     1
102
RTVSPost2010Prop48
 90
       50
102
RTVSPost2010PropOp48
 70
     1
102
RTVSPost2010Prop49
280
     0
102
RTVSPost2010PropOp49
 70
     1
102
RTVSPost2010Prop50
 90
       50
102
RTVSPost2010PropOp50
 70
     1
102
RTVSPost2010Prop51ColorIndex
 90
      256
102
RTVSPost2010Prop51ColorRGB
 90
-16777216
102
RTVSPost2010PropOp51
 70
     0
102
RTVSPost2010Prop52
140
1.0
102
RTVSPost2010PropOp52
 70
     0
102
RTVSPost2010Prop53
 90
        2
102
RTVSPost2010PropOp53
 70
     1
102
RTVSPost2010Prop54
  1
strokes_ogs.tif
102
RTVSPost2010PropOp54
 70
     1
102
RTVSPost2010Prop55
280
     0
102
RTVSPost2010PropOp55
 70
     1
102
RTVSPost2010Prop56
140
1.0
102
RTVSPost2010PropOp56
 70
     1
102
RTVSPost2010Prop57
140
1.0
102
RTVSPost2010PropOp57
 70
     1
  0
XRECORD
  5
63F
102
{ACAD_REACTORS
330
63E
102
}
330
63E
100
AcDbXrecord
280
     1
102
RTVSPropertyOp0
 70
     1
102
RTVSPropertyOp1
 70
     1
102
RTVSPropertyOp2
 70
     1
102
RTVSPropertyOp3
 70
     1
102
RTVSPropertyOp4
 70
     1
102
RTVSPropertyOp5
 70
     1
102
RTVSPropertyOp6
 70
     1
102
RTVSPropertyOp7
 70
     1
102
RTVSPropertyOp8
 70
     1
102
RTVSPropertyOp9
 70
     1
102
RTVSPropertyOp10
 70
     1
102
RTVSPropertyOp11
 70
     1
102
RTVSPropertyOp12
 70
     1
102
RTVSPropertyOp13
 70
     1
102
RTVSPropertyOp14
 70
     1
102
RTVSPropertyOp15
 70
     1
102
RTVSPropertyOp16
 70
     1
102
RTVSPropertyOp17
 70
     1
102
RTVSPropertyOp18
 70
     1
102
RTVSPropertyOp19
 70
     1
102
RTVSPropertyOp20
 70
     1
102
RTVSPropertyOp21
 70
     1
102
RTVSPropertyOp22
 70
     1
102
RTVSPropertyOp23
 70
     1
102
RTVSPropertyOp24
 70
     1
102
RTVSPropertyOp25
 70
     1
102
RTVSPropertyOp26
 70
     1
102
RTVSPropertyOp27
 70
     1
102
RTVSPropertyOp28
 70
     1
102
RTVSPropertyOp29
 70
     1
102
RTVSPropertyOp30
 70
     1
102
RTVSPropertyOp31
 70
     1
102
RTVSPropertyOp32
 70
     1
102
RTVSPropertyOp33
 70
     1
102
RTVSPropertyOp34
 70
     1
102
RTVSPropertyOp35
 70
     1
102
RTVSPropertyOp36
 70
     1
102
RTVSPropertyOp37
 70
     1
102
RTVSPropertyOp38
 70
     1
102
RTVSPropertyOp39
 70
     1
102
RTVSPropertyOp40
 70
     1
102
RTVSPropertyOp41
 70
     1
102
RTVSPropertyOp42
 70
     1
102
RTVSPropertyOp43
 70
     1
102
RTVSPropertyOp44
 70
     1
102
RTVSPropertyOp45
 70
     1
102
RTVSPropertyOp46
 70
     1
102
RTVSPropertyOp47
 70
     1
102
RTVSPropertyOp48
 70
     1
102
RTVSPropertyOp49
 70
     1
102
RTVSPropertyOp50
 70
     1
102
RTVSPropertyOp51
 70
     0
102
RTVSPropertyOp52
 70
     0
102
RTVSPropertyOp53
 70
     1
102
RTVSPropertyOp54
 70
     1
102
RTVSPropertyOp55
 70
     1
102
RTVSPropertyOp56
 70
     1
102
RTVSPropertyOp57
 70
     1
102
RTVSPost2010Prop28
280
     0
102
RTVSPost2010PropOp28
 70
     1
102
RTVSPost2010Prop29
280
     1
102
RTVSPost2010PropOp29
 70
     1
102
RTVSPost2010Prop30
280
     1
102
RTVSPost2010PropOp30
 70
     1
102
RTVSPost2010Prop31
280
     0
102
RTVSPost2010PropOp31
 70
     1
102
RTVSPost2010Prop32
280
     0
102
RTVSPost2010PropOp32
 70
     1
102
RTVSPost2010Prop33
280
     0
102
RTVSPost2010PropOp33
 70
     1
102
RTVSPost2010Prop34
280
     0
102
RTVSPost2010PropOp34
 70
     1
102
RTVSPost2010Prop35
280
     0
102
RTVSPost2010PropOp35
 70
     1
102
RTVSPost2010Prop36
280
     0
102
RTVSPost2010PropOp36
 70
     1
102
RTVSPost2010Prop37
 90
       50
102
RTVSPost2010PropOp37
 70
     1
102
RTVSPost2010Prop38
140
0.0
102
RTVSPost2010PropOp38
 70
     1
102
RTVSPost2010Prop39
140
1.0
102
RTVSPost2010PropOp39
 70
     1
102
RTVSPost2010Prop40
 90
        0
102
RTVSPost2010PropOp40
 70
     1
102
RTVSPost2010Prop41ColorIndex
 90
       18
102
RTVSPost2010Prop41ColorRGB
 90
        0
102
RTVSPost2010PropOp41
 70
     1
102
RTVSPost2010Prop42
 90
       50
102
RTVSPost2010PropOp42
 70
     1
102
RTVSPost2010Prop43
 90
        3
102
RTVSPost2010PropOp43
 70
     1
102
RTVSPost2010Prop44ColorIndex
 90
        5
102
RTVSPost2010Prop44ColorRGB
 90
      255
102
RTVSPost2010PropOp44
 70
     1
102
RTVSPost2010Prop45
280
     0
102
RTVSPost2010PropOp45
 70
     1
102
RTVSPost2010Prop46
 90
       50
102
RTVSPost2010PropOp46
 70
     1
102
RTVSPost2010Prop47
 90
       50
102
RTVSPost2010PropOp47
 70
     1
102
RTVSPost2010Prop48
 90
       50
102
RTVSPost2010PropOp48
 70
     1
102
RTVSPost2010Prop49
280
     0
102
RTVSPost2010PropOp49
 70
     1
102
RTVSPost2010Prop50
 90
       50
102
RTVSPost2010PropOp50
 70
     1
102
RTVSPost2010Prop51ColorIndex
 90
      256
102
RTVSPost2010Prop51ColorRGB
 90
-16777216
102
RTVSPost2010PropOp51
 70
     0
102
RTVSPost2010Prop52
140
1.0
102
RTVSPost2010PropOp52
 70
     0
102
RTVSPost2010Prop53
 90
        2
102
RTVSPost2010PropOp53
 70
     1
102
RTVSPost2010Prop54
  1
strokes_ogs.tif
102
RTVSPost2010PropOp54
 70
     1
102
RTVSPost2010Prop55
280
     0
102
RTVSPost2010PropOp55
 70
     1
102
RTVSPost2010Prop56
140
1.0
102
RTVSPost2010PropOp56
 70
     1
102
RTVSPost2010Prop57
140
1.0
102
RTVSPost2010PropOp57
 70
     1
  0
XRECORD
  5
645
102
{ACAD_REACTORS
330
644
102
}
330
644
100
AcDbXrecord
280
     1
102
RTVSPropertyOp0
 70
     1
102
RTVSPropertyOp1
 70
     1
102
RTVSPropertyOp2
 70
     1
102
RTVSPropertyOp3
 70
     1
102
RTVSPropertyOp4
 70
     1
102
RTVSPropertyOp5
 70
     1
102
RTVSPropertyOp6
 70
     1
102
RTVSPropertyOp7
 70
     1
102
RTVSPropertyOp8
 70
     1
102
RTVSPropertyOp9
 70
     1
102
RTVSPropertyOp10
 70
     1
102
RTVSPropertyOp11
 70
     1
102
RTVSPropertyOp12
 70
     1
102
RTVSPropertyOp13
 70
     1
102
RTVSPropertyOp14
 70
     1
102
RTVSPropertyOp15
 70
     1
102
RTVSPropertyOp16
 70
     1
102
RTVSPropertyOp17
 70
     1
102
RTVSPropertyOp18
 70
     1
102
RTVSPropertyOp19
 70
     1
102
RTVSPropertyOp20
 70
     1
102
RTVSPropertyOp21
 70
     1
102
RTVSPropertyOp22
 70
     1
102
RTVSPropertyOp23
 70
     1
102
RTVSPropertyOp24
 70
     1
102
RTVSPropertyOp25
 70
     1
102
RTVSPropertyOp26
 70
     1
102
RTVSPropertyOp27
 70
     1
102
RTVSPropertyOp28
 70
     1
102
RTVSPropertyOp29
 70
     1
102
RTVSPropertyOp30
 70
     1
102
RTVSPropertyOp31
 70
     1
102
RTVSPropertyOp32
 70
     1
102
RTVSPropertyOp33
 70
     1
102
RTVSPropertyOp34
 70
     1
102
RTVSPropertyOp35
 70
     1
102
RTVSPropertyOp36
 70
     1
102
RTVSPropertyOp37
 70
     1
102
RTVSPropertyOp38
 70
     1
102
RTVSPropertyOp39
 70
     1
102
RTVSPropertyOp40
 70
     1
102
RTVSPropertyOp41
 70
     1
102
RTVSPropertyOp42
 70
     1
102
RTVSPropertyOp43
 70
     1
102
RTVSPropertyOp44
 70
     1
102
RTVSPropertyOp45
 70
     1
102
RTVSPropertyOp46
 70
     1
102
RTVSPropertyOp47
 70
     1
102
RTVSPropertyOp48
 70
     1
102
RTVSPropertyOp49
 70
     1
102
RTVSPropertyOp50
 70
     1
102
RTVSPropertyOp51
 70
     0
102
RTVSPropertyOp52
 70
     0
102
RTVSPropertyOp53
 70
     1
102
RTVSPropertyOp54
 70
     1
102
RTVSPropertyOp55
 70
     1
102
RTVSPropertyOp56
 70
     1
102
RTVSPropertyOp57
 70
     1
102
RTVSPost2010Prop28
280
     0
102
RTVSPost2010PropOp28
 70
     1
102
RTVSPost2010Prop29
280
     1
102
RTVSPost2010PropOp29
 70
     1
102
RTVSPost2010Prop30
280
     1
102
RTVSPost2010PropOp30
 70
     1
102
RTVSPost2010Prop31
280
     0
102
RTVSPost2010PropOp31
 70
     1
102
RTVSPost2010Prop32
280
     0
102
RTVSPost2010PropOp32
 70
     1
102
RTVSPost2010Prop33
280
     0
102
RTVSPost2010PropOp33
 70
     1
102
RTVSPost2010Prop34
280
     0
102
RTVSPost2010PropOp34
 70
     1
102
RTVSPost2010Prop35
280
     0
102
RTVSPost2010PropOp35
 70
     1
102
RTVSPost2010Prop36
280
     0
102
RTVSPost2010PropOp36
 70
     1
102
RTVSPost2010Prop37
 90
       50
102
RTVSPost2010PropOp37
 70
     1
102
RTVSPost2010Prop38
140
0.0
102
RTVSPost2010PropOp38
 70
     1
102
RTVSPost2010Prop39
140
1.0
102
RTVSPost2010PropOp39
 70
     1
102
RTVSPost2010Prop40
 90
        0
102
RTVSPost2010PropOp40
 70
     1
102
RTVSPost2010Prop41ColorIndex
 90
       18
102
RTVSPost2010Prop41ColorRGB
 90
        0
102
RTVSPost2010PropOp41
 70
     1
102
RTVSPost2010Prop42
 90
       50
102
RTVSPost2010PropOp42
 70
     1
102
RTVSPost2010Prop43
 90
        3
102
RTVSPost2010PropOp43
 70
     1
102
RTVSPost2010Prop44ColorIndex
 90
        5
102
RTVSPost2010Prop44ColorRGB
 90
      255
102
RTVSPost2010PropOp44
 70
     1
102
RTVSPost2010Prop45
280
     0
102
RTVSPost2010PropOp45
 70
     1
102
RTVSPost2010Prop46
 90
       50
102
RTVSPost2010PropOp46
 70
     1
102
RTVSPost2010Prop47
 90
       50
102
RTVSPost2010PropOp47
 70
     1
102
RTVSPost2010Prop48
 90
       50
102
RTVSPost2010PropOp48
 70
     1
102
RTVSPost2010Prop49
280
     0
102
RTVSPost2010PropOp49
 70
     1
102
RTVSPost2010Prop50
 90
       50
102
RTVSPost2010PropOp50
 70
     1
102
RTVSPost2010Prop51ColorIndex
 90
      256
102
RTVSPost2010Prop51ColorRGB
 90
-16777216
102
RTVSPost2010PropOp51
 70
     0
102
RTVSPost2010Prop52
140
1.0
102
RTVSPost2010PropOp52
 70
     0
102
RTVSPost2010Prop53
 90
        2
102
RTVSPost2010PropOp53
 70
     1
102
RTVSPost2010Prop54
  1
strokes_ogs.tif
102
RTVSPost2010PropOp54
 70
     1
102
RTVSPost2010Prop55
280
     0
102
RTVSPost2010PropOp55
 70
     1
102
RTVSPost2010Prop56
140
1.0
102
RTVSPost2010PropOp56
 70
     1
102
RTVSPost2010Prop57
140
1.0
102
RTVSPost2010PropOp57
 70
     1
  0
XRECORD
  5
659
102
{ACAD_REACTORS
330
658
102
}
330
658
100
AcDbXrecord
280
     1
102
RTVSPropertyOp0
 70
     0
102
RTVSPropertyOp1
 70
     0
102
RTVSPropertyOp2
 70
     0
102
RTVSPropertyOp3
 70
     0
102
RTVSPropertyOp4
 70
     0
102
RTVSPropertyOp5
 70
     0
102
RTVSPropertyOp6
 70
     0
102
RTVSPropertyOp7
 70
     0
102
RTVSPropertyOp8
 70
     0
102
RTVSPropertyOp9
 70
     0
102
RTVSPropertyOp10
 70
     0
102
RTVSPropertyOp11
 70
     0
102
RTVSPropertyOp12
 70
     0
102
RTVSPropertyOp13
 70
     0
102
RTVSPropertyOp14
 70
     0
102
RTVSPropertyOp15
 70
     0
102
RTVSPropertyOp16
 70
     0
102
RTVSPropertyOp17
 70
     0
102
RTVSPropertyOp18
 70
     0
102
RTVSPropertyOp19
 70
     0
102
RTVSPropertyOp20
 70
     0
102
RTVSPropertyOp21
 70
     0
102
RTVSPropertyOp22
 70
     0
102
RTVSPropertyOp23
 70
     0
102
RTVSPropertyOp24
 70
     0
102
RTVSPropertyOp25
 70
     0
102
RTVSPropertyOp26
 70
     0
102
RTVSPropertyOp27
 70
     0
102
RTVSPropertyOp28
 70
     1
102
RTVSPropertyOp29
 70
     1
102
RTVSPropertyOp30
 70
     1
102
RTVSPropertyOp31
 70
     1
102
RTVSPropertyOp32
 70
     1
102
RTVSPropertyOp33
 70
     1
102
RTVSPropertyOp34
 70
     1
102
RTVSPropertyOp35
 70
     1
102
RTVSPropertyOp36
 70
     1
102
RTVSPropertyOp37
 70
     1
102
RTVSPropertyOp38
 70
     1
102
RTVSPropertyOp39
 70
     1
102
RTVSPropertyOp40
 70
     1
102
RTVSPropertyOp41
 70
     1
102
RTVSPropertyOp42
 70
     1
102
RTVSPropertyOp43
 70
     1
102
RTVSPropertyOp44
 70
     1
102
RTVSPropertyOp45
 70
     1
102
RTVSPropertyOp46
 70
     1
102
RTVSPropertyOp47
 70
     1
102
RTVSPropertyOp48
 70
     1
102
RTVSPropertyOp49
 70
     1
102
RTVSPropertyOp50
 70
     1
102
RTVSPropertyOp51
 70
     0
102
RTVSPropertyOp52
 70
     0
102
RTVSPropertyOp53
 70
     1
102
RTVSPropertyOp54
 70
     1
102
RTVSPropertyOp55
 70
     1
102
RTVSPropertyOp56
 70
     1
102
RTVSPropertyOp57
 70
     1
102
RTVSPost2010Prop28
280
     0
102
RTVSPost2010PropOp28
 70
     1
102
RTVSPost2010Prop29
280
     1
102
RTVSPost2010PropOp29
 70
     1
102
RTVSPost2010Prop30
280
     1
102
RTVSPost2010PropOp30
 70
     1
102
RTVSPost2010Prop31
280
     0
102
RTVSPost2010PropOp31
 70
     1
102
RTVSPost2010Prop32
280
     0
102
RTVSPost2010PropOp32
 70
     1
102
RTVSPost2010Prop33
280
     0
102
RTVSPost2010PropOp33
 70
     1
102
RTVSPost2010Prop34
280
     0
102
RTVSPost2010PropOp34
 70
     1
102
RTVSPost2010Prop35
280
     0
102
RTVSPost2010PropOp35
 70
     1
102
RTVSPost2010Prop36
280
     0
102
RTVSPost2010PropOp36
 70
     1
102
RTVSPost2010Prop37
 90
       50
102
RTVSPost2010PropOp37
 70
     1
102
RTVSPost2010Prop38
140
0.0
102
RTVSPost2010PropOp38
 70
     1
102
RTVSPost2010Prop39
140
1.0
102
RTVSPost2010PropOp39
 70
     1
102
RTVSPost2010Prop40
 90
        0
102
RTVSPost2010PropOp40
 70
     1
102
RTVSPost2010Prop41ColorIndex
 90
       18
102
RTVSPost2010Prop41ColorRGB
 90
        0
102
RTVSPost2010PropOp41
 70
     1
102
RTVSPost2010Prop42
 90
       50
102
RTVSPost2010PropOp42
 70
     1
102
RTVSPost2010Prop43
 90
        3
102
RTVSPost2010PropOp43
 70
     1
102
RTVSPost2010Prop44ColorIndex
 90
        5
102
RTVSPost2010Prop44ColorRGB
 90
      255
102
RTVSPost2010PropOp44
 70
     1
102
RTVSPost2010Prop45
280
     0
102
RTVSPost2010PropOp45
 70
     1
102
RTVSPost2010Prop46
 90
       50
102
RTVSPost2010PropOp46
 70
     1
102
RTVSPost2010Prop47
 90
       50
102
RTVSPost2010PropOp47
 70
     1
102
RTVSPost2010Prop48
 90
       50
102
RTVSPost2010PropOp48
 70
     1
102
RTVSPost2010Prop49
280
     0
102
RTVSPost2010PropOp49
 70
     1
102
RTVSPost2010Prop50
 90
       50
102
RTVSPost2010PropOp50
 70
     1
102
RTVSPost2010Prop51ColorIndex
 90
      256
102
RTVSPost2010Prop51ColorRGB
 90
-16777216
102
RTVSPost2010PropOp51
 70
     0
102
RTVSPost2010Prop52
140
1.0
102
RTVSPost2010PropOp52
 70
     0
102
RTVSPost2010Prop53
 90
        2
102
RTVSPost2010PropOp53
 70
     1
102
RTVSPost2010Prop54
  1
strokes_ogs.tif
102
RTVSPost2010PropOp54
 70
     1
102
RTVSPost2010Prop55
280
     0
102
RTVSPost2010PropOp55
 70
     1
102
RTVSPost2010Prop56
140
1.0
102
RTVSPost2010PropOp56
 70
     1
102
RTVSPost2010Prop57
140
1.0
102
RTVSPost2010PropOp57
 70
     1
  0
XRECORD
  5
653
102
{ACAD_REACTORS
330
652
102
}
330
652
100
AcDbXrecord
280
     1
102
RTVSPropertyOp0
 70
     1
102
RTVSPropertyOp1
 70
     1
102
RTVSPropertyOp2
 70
     1
102
RTVSPropertyOp3
 70
     1
102
RTVSPropertyOp4
 70
     1
102
RTVSPropertyOp5
 70
     1
102
RTVSPropertyOp6
 70
     1
102
RTVSPropertyOp7
 70
     1
102
RTVSPropertyOp8
 70
     1
102
RTVSPropertyOp9
 70
     1
102
RTVSPropertyOp10
 70
     1
102
RTVSPropertyOp11
 70
     1
102
RTVSPropertyOp12
 70
     1
102
RTVSPropertyOp13
 70
     1
102
RTVSPropertyOp14
 70
     1
102
RTVSPropertyOp15
 70
     1
102
RTVSPropertyOp16
 70
     1
102
RTVSPropertyOp17
 70
     1
102
RTVSPropertyOp18
 70
     1
102
RTVSPropertyOp19
 70
     1
102
RTVSPropertyOp20
 70
     1
102
RTVSPropertyOp21
 70
     1
102
RTVSPropertyOp22
 70
     1
102
RTVSPropertyOp23
 70
     1
102
RTVSPropertyOp24
 70
     1
102
RTVSPropertyOp25
 70
     1
102
RTVSPropertyOp26
 70
     1
102
RTVSPropertyOp27
 70
     1
102
RTVSPropertyOp28
 70
     1
102
RTVSPropertyOp29
 70
     1
102
RTVSPropertyOp30
 70
     1
102
RTVSPropertyOp31
 70
     1
102
RTVSPropertyOp32
 70
     1
102
RTVSPropertyOp33
 70
     1
102
RTVSPropertyOp34
 70
     1
102
RTVSPropertyOp35
 70
     1
102
RTVSPropertyOp36
 70
     1
102
RTVSPropertyOp37
 70
     1
102
RTVSPropertyOp38
 70
     1
102
RTVSPropertyOp39
 70
     1
102
RTVSPropertyOp40
 70
     1
102
RTVSPropertyOp41
 70
     1
102
RTVSPropertyOp42
 70
     1
102
RTVSPropertyOp43
 70
     1
102
RTVSPropertyOp44
 70
     1
102
RTVSPropertyOp45
 70
     1
102
RTVSPropertyOp46
 70
     1
102
RTVSPropertyOp47
 70
     1
102
RTVSPropertyOp48
 70
     1
102
RTVSPropertyOp49
 70
     1
102
RTVSPropertyOp50
 70
     1
102
RTVSPropertyOp51
 70
     0
102
RTVSPropertyOp52
 70
     0
102
RTVSPropertyOp53
 70
     1
102
RTVSPropertyOp54
 70
     1
102
RTVSPropertyOp55
 70
     1
102
RTVSPropertyOp56
 70
     1
102
RTVSPropertyOp57
 70
     1
102
RTVSPost2010Prop28
280
     0
102
RTVSPost2010PropOp28
 70
     1
102
RTVSPost2010Prop29
280
     1
102
RTVSPost2010PropOp29
 70
     1
102
RTVSPost2010Prop30
280
     1
102
RTVSPost2010PropOp30
 70
     1
102
RTVSPost2010Prop31
280
     0
102
RTVSPost2010PropOp31
 70
     1
102
RTVSPost2010Prop32
280
     0
102
RTVSPost2010PropOp32
 70
     1
102
RTVSPost2010Prop33
280
     0
102
RTVSPost2010PropOp33
 70
     1
102
RTVSPost2010Prop34
280
     0
102
RTVSPost2010PropOp34
 70
     1
102
RTVSPost2010Prop35
280
     0
102
RTVSPost2010PropOp35
 70
     1
102
RTVSPost2010Prop36
280
     0
102
RTVSPost2010PropOp36
 70
     1
102
RTVSPost2010Prop37
 90
       50
102
RTVSPost2010PropOp37
 70
     1
102
RTVSPost2010Prop38
140
0.0
102
RTVSPost2010PropOp38
 70
     1
102
RTVSPost2010Prop39
140
1.0
102
RTVSPost2010PropOp39
 70
     1
102
RTVSPost2010Prop40
 90
        0
102
RTVSPost2010PropOp40
 70
     1
102
RTVSPost2010Prop41ColorIndex
 90
       18
102
RTVSPost2010Prop41ColorRGB
 90
        0
102
RTVSPost2010PropOp41
 70
     1
102
RTVSPost2010Prop42
 90
       50
102
RTVSPost2010PropOp42
 70
     1
102
RTVSPost2010Prop43
 90
        3
102
RTVSPost2010PropOp43
 70
     1
102
RTVSPost2010Prop44ColorIndex
 90
        5
102
RTVSPost2010Prop44ColorRGB
 90
      255
102
RTVSPost2010PropOp44
 70
     1
102
RTVSPost2010Prop45
280
     0
102
RTVSPost2010PropOp45
 70
     1
102
RTVSPost2010Prop46
 90
       50
102
RTVSPost2010PropOp46
 70
     1
102
RTVSPost2010Prop47
 90
       50
102
RTVSPost2010PropOp47
 70
     1
102
RTVSPost2010Prop48
 90
       50
102
RTVSPost2010PropOp48
 70
     1
102
RTVSPost2010Prop49
280
     0
102
RTVSPost2010PropOp49
 70
     1
102
RTVSPost2010Prop50
 90
       50
102
RTVSPost2010PropOp50
 70
     1
102
RTVSPost2010Prop51ColorIndex
 90
      256
102
RTVSPost2010Prop51ColorRGB
 90
-16777216
102
RTVSPost2010PropOp51
 70
     0
102
RTVSPost2010Prop52
140
1.0
102
RTVSPost2010PropOp52
 70
     0
102
RTVSPost2010Prop53
 90
        2
102
RTVSPost2010PropOp53
 70
     1
102
RTVSPost2010Prop54
  1
strokes_ogs.tif
102
RTVSPost2010PropOp54
 70
     1
102
RTVSPost2010Prop55
280
     0
102
RTVSPost2010PropOp55
 70
     1
102
RTVSPost2010Prop56
140
1.0
102
RTVSPost2010PropOp56
 70
     1
102
RTVSPost2010Prop57
140
1.0
102
RTVSPost2010PropOp57
 70
     1
  0
XRECORD
  5
65B
102
{ACAD_REACTORS
330
65A
102
}
330
65A
100
AcDbXrecord
280
     1
102
RTVSPropertyOp0
 70
     0
102
RTVSPropertyOp1
 70
     0
102
RTVSPropertyOp2
 70
     0
102
RTVSPropertyOp3
 70
     0
102
RTVSPropertyOp4
 70
     0
102
RTVSPropertyOp5
 70
     0
102
RTVSPropertyOp6
 70
     0
102
RTVSPropertyOp7
 70
     0
102
RTVSPropertyOp8
 70
     0
102
RTVSPropertyOp9
 70
     0
102
RTVSPropertyOp10
 70
     0
102
RTVSPropertyOp11
 70
     0
102
RTVSPropertyOp12
 70
     0
102
RTVSPropertyOp13
 70
     0
102
RTVSPropertyOp14
 70
     0
102
RTVSPropertyOp15
 70
     0
102
RTVSPropertyOp16
 70
     0
102
RTVSPropertyOp17
 70
     0
102
RTVSPropertyOp18
 70
     0
102
RTVSPropertyOp19
 70
     0
102
RTVSPropertyOp20
 70
     0
102
RTVSPropertyOp21
 70
     0
102
RTVSPropertyOp22
 70
     0
102
RTVSPropertyOp23
 70
     0
102
RTVSPropertyOp24
 70
     0
102
RTVSPropertyOp25
 70
     0
102
RTVSPropertyOp26
 70
     0
102
RTVSPropertyOp27
 70
     0
102
RTVSPropertyOp28
 70
     1
102
RTVSPropertyOp29
 70
     1
102
RTVSPropertyOp30
 70
     1
102
RTVSPropertyOp31
 70
     1
102
RTVSPropertyOp32
 70
     1
102
RTVSPropertyOp33
 70
     1
102
RTVSPropertyOp34
 70
     1
102
RTVSPropertyOp35
 70
     1
102
RTVSPropertyOp36
 70
     1
102
RTVSPropertyOp37
 70
     1
102
RTVSPropertyOp38
 70
     1
102
RTVSPropertyOp39
 70
     1
102
RTVSPropertyOp40
 70
     1
102
RTVSPropertyOp41
 70
     1
102
RTVSPropertyOp42
 70
     1
102
RTVSPropertyOp43
 70
     1
102
RTVSPropertyOp44
 70
     1
102
RTVSPropertyOp45
 70
     1
102
RTVSPropertyOp46
 70
     1
102
RTVSPropertyOp47
 70
     1
102
RTVSPropertyOp48
 70
     1
102
RTVSPropertyOp49
 70
     1
102
RTVSPropertyOp50
 70
     1
102
RTVSPropertyOp51
 70
     0
102
RTVSPropertyOp52
 70
     0
102
RTVSPropertyOp53
 70
     1
102
RTVSPropertyOp54
 70
     1
102
RTVSPropertyOp55
 70
     1
102
RTVSPropertyOp56
 70
     1
102
RTVSPropertyOp57
 70
     1
102
RTVSPost2010Prop28
280
     0
102
RTVSPost2010PropOp28
 70
     1
102
RTVSPost2010Prop29
280
     1
102
RTVSPost2010PropOp29
 70
     1
102
RTVSPost2010Prop30
280
     1
102
RTVSPost2010PropOp30
 70
     1
102
RTVSPost2010Prop31
280
     0
102
RTVSPost2010PropOp31
 70
     1
102
RTVSPost2010Prop32
280
     0
102
RTVSPost2010PropOp32
 70
     1
102
RTVSPost2010Prop33
280
     0
102
RTVSPost2010PropOp33
 70
     1
102
RTVSPost2010Prop34
280
     0
102
RTVSPost2010PropOp34
 70
     1
102
RTVSPost2010Prop35
280
     0
102
RTVSPost2010PropOp35
 70
     1
102
RTVSPost2010Prop36
280
     0
102
RTVSPost2010PropOp36
 70
     1
102
RTVSPost2010Prop37
 90
       50
102
RTVSPost2010PropOp37
 70
     1
102
RTVSPost2010Prop38
140
0.0
102
RTVSPost2010PropOp38
 70
     1
102
RTVSPost2010Prop39
140
1.0
102
RTVSPost2010PropOp39
 70
     1
102
RTVSPost2010Prop40
 90
        0
102
RTVSPost2010PropOp40
 70
     1
102
RTVSPost2010Prop41ColorIndex
 90
       18
102
RTVSPost2010Prop41ColorRGB
 90
        0
102
RTVSPost2010PropOp41
 70
     1
102
RTVSPost2010Prop42
 90
       50
102
RTVSPost2010PropOp42
 70
     1
102
RTVSPost2010Prop43
 90
        3
102
RTVSPost2010PropOp43
 70
     1
102
RTVSPost2010Prop44ColorIndex
 90
        5
102
RTVSPost2010Prop44ColorRGB
 90
      255
102
RTVSPost2010PropOp44
 70
     1
102
RTVSPost2010Prop45
280
     0
102
RTVSPost2010PropOp45
 70
     1
102
RTVSPost2010Prop46
 90
       50
102
RTVSPost2010PropOp46
 70
     1
102
RTVSPost2010Prop47
 90
       50
102
RTVSPost2010PropOp47
 70
     1
102
RTVSPost2010Prop48
 90
       50
102
RTVSPost2010PropOp48
 70
     1
102
RTVSPost2010Prop49
280
     0
102
RTVSPost2010PropOp49
 70
     1
102
RTVSPost2010Prop50
 90
       50
102
RTVSPost2010PropOp50
 70
     1
102
RTVSPost2010Prop51ColorIndex
 90
      256
102
RTVSPost2010Prop51ColorRGB
 90
-16777216
102
RTVSPost2010PropOp51
 70
     0
102
RTVSPost2010Prop52
140
1.0
102
RTVSPost2010PropOp52
 70
     0
102
RTVSPost2010Prop53
 90
        2
102
RTVSPost2010PropOp53
 70
     1
102
RTVSPost2010Prop54
  1
strokes_ogs.tif
102
RTVSPost2010PropOp54
 70
     1
102
RTVSPost2010Prop55
280
     0
102
RTVSPost2010PropOp55
 70
     1
102
RTVSPost2010Prop56
140
1.0
102
RTVSPost2010PropOp56
 70
     1
102
RTVSPost2010Prop57
140
1.0
102
RTVSPost2010PropOp57
 70
     1
  0
XRECORD
  5
649
102
{ACAD_REACTORS
330
648
102
}
330
648
100
AcDbXrecord
280
     1
102
RTVSPropertyOp0
 70
     1
102
RTVSPropertyOp1
 70
     1
102
RTVSPropertyOp2
 70
     1
102
RTVSPropertyOp3
 70
     1
102
RTVSPropertyOp4
 70
     1
102
RTVSPropertyOp5
 70
     1
102
RTVSPropertyOp6
 70
     1
102
RTVSPropertyOp7
 70
     1
102
RTVSPropertyOp8
 70
     1
102
RTVSPropertyOp9
 70
     1
102
RTVSPropertyOp10
 70
     1
102
RTVSPropertyOp11
 70
     1
102
RTVSPropertyOp12
 70
     1
102
RTVSPropertyOp13
 70
     1
102
RTVSPropertyOp14
 70
     1
102
RTVSPropertyOp15
 70
     1
102
RTVSPropertyOp16
 70
     1
102
RTVSPropertyOp17
 70
     1
102
RTVSPropertyOp18
 70
     1
102
RTVSPropertyOp19
 70
     1
102
RTVSPropertyOp20
 70
     1
102
RTVSPropertyOp21
 70
     1
102
RTVSPropertyOp22
 70
     1
102
RTVSPropertyOp23
 70
     1
102
RTVSPropertyOp24
 70
     1
102
RTVSPropertyOp25
 70
     1
102
RTVSPropertyOp26
 70
     1
102
RTVSPropertyOp27
 70
     1
102
RTVSPropertyOp28
 70
     1
102
RTVSPropertyOp29
 70
     1
102
RTVSPropertyOp30
 70
     1
102
RTVSPropertyOp31
 70
     1
102
RTVSPropertyOp32
 70
     1
102
RTVSPropertyOp33
 70
     1
102
RTVSPropertyOp34
 70
     1
102
RTVSPropertyOp35
 70
     1
102
RTVSPropertyOp36
 70
     1
102
RTVSPropertyOp37
 70
     1
102
RTVSPropertyOp38
 70
     1
102
RTVSPropertyOp39
 70
     1
102
RTVSPropertyOp40
 70
     1
102
RTVSPropertyOp41
 70
     1
102
RTVSPropertyOp42
 70
     1
102
RTVSPropertyOp43
 70
     1
102
RTVSPropertyOp44
 70
     1
102
RTVSPropertyOp45
 70
     1
102
RTVSPropertyOp46
 70
     1
102
RTVSPropertyOp47
 70
     1
102
RTVSPropertyOp48
 70
     1
102
RTVSPropertyOp49
 70
     1
102
RTVSPropertyOp50
 70
     1
102
RTVSPropertyOp51
 70
     0
102
RTVSPropertyOp52
 70
     0
102
RTVSPropertyOp53
 70
     1
102
RTVSPropertyOp54
 70
     1
102
RTVSPropertyOp55
 70
     1
102
RTVSPropertyOp56
 70
     1
102
RTVSPropertyOp57
 70
     1
102
RTVSPost2010Prop28
280
     0
102
RTVSPost2010PropOp28
 70
     1
102
RTVSPost2010Prop29
280
     1
102
RTVSPost2010PropOp29
 70
     1
102
RTVSPost2010Prop30
280
     1
102
RTVSPost2010PropOp30
 70
     1
102
RTVSPost2010Prop31
280
     0
102
RTVSPost2010PropOp31
 70
     1
102
RTVSPost2010Prop32
280
     0
102
RTVSPost2010PropOp32
 70
     1
102
RTVSPost2010Prop33
280
     0
102
RTVSPost2010PropOp33
 70
     1
102
RTVSPost2010Prop34
280
     0
102
RTVSPost2010PropOp34
 70
     1
102
RTVSPost2010Prop35
280
     0
102
RTVSPost2010PropOp35
 70
     1
102
RTVSPost2010Prop36
280
     0
102
RTVSPost2010PropOp36
 70
     1
102
RTVSPost2010Prop37
 90
       50
102
RTVSPost2010PropOp37
 70
     1
102
RTVSPost2010Prop38
140
0.0
102
RTVSPost2010PropOp38
 70
     1
102
RTVSPost2010Prop39
140
1.0
102
RTVSPost2010PropOp39
 70
     1
102
RTVSPost2010Prop40
 90
        0
102
RTVSPost2010PropOp40
 70
     1
102
RTVSPost2010Prop41ColorIndex
 90
       18
102
RTVSPost2010Prop41ColorRGB
 90
        0
102
RTVSPost2010PropOp41
 70
     1
102
RTVSPost2010Prop42
 90
       50
102
RTVSPost2010PropOp42
 70
     1
102
RTVSPost2010Prop43
 90
        3
102
RTVSPost2010PropOp43
 70
     1
102
RTVSPost2010Prop44ColorIndex
 90
        5
102
RTVSPost2010Prop44ColorRGB
 90
      255
102
RTVSPost2010PropOp44
 70
     1
102
RTVSPost2010Prop45
280
     0
102
RTVSPost2010PropOp45
 70
     1
102
RTVSPost2010Prop46
 90
       50
102
RTVSPost2010PropOp46
 70
     1
102
RTVSPost2010Prop47
 90
       50
102
RTVSPost2010PropOp47
 70
     1
102
RTVSPost2010Prop48
 90
       50
102
RTVSPost2010PropOp48
 70
     1
102
RTVSPost2010Prop49
280
     0
102
RTVSPost2010PropOp49
 70
     1
102
RTVSPost2010Prop50
 90
       50
102
RTVSPost2010PropOp50
 70
     1
102
RTVSPost2010Prop51ColorIndex
 90
      256
102
RTVSPost2010Prop51ColorRGB
 90
-16777216
102
RTVSPost2010PropOp51
 70
     0
102
RTVSPost2010Prop52
140
1.0
102
RTVSPost2010PropOp52
 70
     0
102
RTVSPost2010Prop53
 90
        2
102
RTVSPost2010PropOp53
 70
     1
102
RTVSPost2010Prop54
  1
strokes_ogs.tif
102
RTVSPost2010PropOp54
 70
     1
102
RTVSPost2010Prop55
280
     0
102
RTVSPost2010PropOp55
 70
     1
102
RTVSPost2010Prop56
140
1.0
102
RTVSPost2010PropOp56
 70
     1
102
RTVSPost2010Prop57
140
1.0
102
RTVSPost2010PropOp57
 70
     1
  0
XRECORD
  5
667
102
{ACAD_REACTORS
330
666
102
}
330
666
100
AcDbXrecord
280
     1
102
RTVSPropertyOp0
 70
     1
102
RTVSPropertyOp1
 70
     1
102
RTVSPropertyOp2
 70
     1
102
RTVSPropertyOp3
 70
     1
102
RTVSPropertyOp4
 70
     1
102
RTVSPropertyOp5
 70
     1
102
RTVSPropertyOp6
 70
     1
102
RTVSPropertyOp7
 70
     1
102
RTVSPropertyOp8
 70
     1
102
RTVSPropertyOp9
 70
     1
102
RTVSPropertyOp10
 70
     1
102
RTVSPropertyOp11
 70
     1
102
RTVSPropertyOp12
 70
     1
102
RTVSPropertyOp13
 70
     1
102
RTVSPropertyOp14
 70
     1
102
RTVSPropertyOp15
 70
     1
102
RTVSPropertyOp16
 70
     1
102
RTVSPropertyOp17
 70
     1
102
RTVSPropertyOp18
 70
     1
102
RTVSPropertyOp19
 70
     1
102
RTVSPropertyOp20
 70
     1
102
RTVSPropertyOp21
 70
     1
102
RTVSPropertyOp22
 70
     1
102
RTVSPropertyOp23
 70
     1
102
RTVSPropertyOp24
 70
     1
102
RTVSPropertyOp25
 70
     1
102
RTVSPropertyOp26
 70
     1
102
RTVSPropertyOp27
 70
     1
102
RTVSPropertyOp28
 70
     1
102
RTVSPropertyOp29
 70
     1
102
RTVSPropertyOp30
 70
     1
102
RTVSPropertyOp31
 70
     1
102
RTVSPropertyOp32
 70
     1
102
RTVSPropertyOp33
 70
     1
102
RTVSPropertyOp34
 70
     1
102
RTVSPropertyOp35
 70
     1
102
RTVSPropertyOp36
 70
     1
102
RTVSPropertyOp37
 70
     1
102
RTVSPropertyOp38
 70
     1
102
RTVSPropertyOp39
 70
     1
102
RTVSPropertyOp40
 70
     1
102
RTVSPropertyOp41
 70
     1
102
RTVSPropertyOp42
 70
     1
102
RTVSPropertyOp43
 70
     1
102
RTVSPropertyOp44
 70
     1
102
RTVSPropertyOp45
 70
     1
102
RTVSPropertyOp46
 70
     1
102
RTVSPropertyOp47
 70
     1
102
RTVSPropertyOp48
 70
     1
102
RTVSPropertyOp49
 70
     1
102
RTVSPropertyOp50
 70
     1
102
RTVSPropertyOp51
 70
     0
102
RTVSPropertyOp52
 70
     0
102
RTVSPropertyOp53
 70
     1
102
RTVSPropertyOp54
 70
     1
102
RTVSPropertyOp55
 70
     1
102
RTVSPropertyOp56
 70
     1
102
RTVSPropertyOp57
 70
     1
102
RTVSPost2010Prop28
280
     0
102
RTVSPost2010PropOp28
 70
     1
102
RTVSPost2010Prop29
280
     1
102
RTVSPost2010PropOp29
 70
     1
102
RTVSPost2010Prop30
280
     1
102
RTVSPost2010PropOp30
 70
     1
102
RTVSPost2010Prop31
280
     0
102
RTVSPost2010PropOp31
 70
     1
102
RTVSPost2010Prop32
280
     0
102
RTVSPost2010PropOp32
 70
     1
102
RTVSPost2010Prop33
280
     0
102
RTVSPost2010PropOp33
 70
     1
102
RTVSPost2010Prop34
280
     0
102
RTVSPost2010PropOp34
 70
     1
102
RTVSPost2010Prop35
280
     0
102
RTVSPost2010PropOp35
 70
     1
102
RTVSPost2010Prop36
280
     0
102
RTVSPost2010PropOp36
 70
     1
102
RTVSPost2010Prop37
 90
       50
102
RTVSPost2010PropOp37
 70
     1
102
RTVSPost2010Prop38
140
0.0
102
RTVSPost2010PropOp38
 70
     1
102
RTVSPost2010Prop39
140
1.0
102
RTVSPost2010PropOp39
 70
     1
102
RTVSPost2010Prop40
 90
        0
102
RTVSPost2010PropOp40
 70
     1
102
RTVSPost2010Prop41ColorIndex
 90
       18
102
RTVSPost2010Prop41ColorRGB
 90
        0
102
RTVSPost2010PropOp41
 70
     1
102
RTVSPost2010Prop42
 90
       50
102
RTVSPost2010PropOp42
 70
     1
102
RTVSPost2010Prop43
 90
        3
102
RTVSPost2010PropOp43
 70
     1
102
RTVSPost2010Prop44ColorIndex
 90
        5
102
RTVSPost2010Prop44ColorRGB
 90
      255
102
RTVSPost2010PropOp44
 70
     1
102
RTVSPost2010Prop45
280
     0
102
RTVSPost2010PropOp45
 70
     1
102
RTVSPost2010Prop46
 90
       50
102
RTVSPost2010PropOp46
 70
     1
102
RTVSPost2010Prop47
 90
       50
102
RTVSPost2010PropOp47
 70
     1
102
RTVSPost2010Prop48
 90
       50
102
RTVSPost2010PropOp48
 70
     1
102
RTVSPost2010Prop49
280
     0
102
RTVSPost2010PropOp49
 70
     1
102
RTVSPost2010Prop50
 90
       50
102
RTVSPost2010PropOp50
 70
     1
102
RTVSPost2010Prop51ColorIndex
 90
      256
102
RTVSPost2010Prop51ColorRGB
 90
-16777216
102
RTVSPost2010PropOp51
 70
     0
102
RTVSPost2010Prop52
140
1.0
102
RTVSPost2010PropOp52
 70
     0
102
RTVSPost2010Prop53
 90
        2
102
RTVSPost2010PropOp53
 70
     1
102
RTVSPost2010Prop54
  1
strokes_ogs.tif
102
RTVSPost2010PropOp54
 70
     1
102
RTVSPost2010Prop55
280
     0
102
RTVSPost2010PropOp55
 70
     1
102
RTVSPost2010Prop56
140
1.0
102
RTVSPost2010PropOp56
 70
     1
102
RTVSPost2010Prop57
140
1.0
102
RTVSPost2010PropOp57
 70
     1
  0
XRECORD
  5
665
102
{ACAD_REACTORS
330
664
102
}
330
664
100
AcDbXrecord
280
     1
102
RTVSPropertyOp0
 70
     1
102
RTVSPropertyOp1
 70
     1
102
RTVSPropertyOp2
 70
     1
102
RTVSPropertyOp3
 70
     1
102
RTVSPropertyOp4
 70
     1
102
RTVSPropertyOp5
 70
     1
102
RTVSPropertyOp6
 70
     1
102
RTVSPropertyOp7
 70
     1
102
RTVSPropertyOp8
 70
     1
102
RTVSPropertyOp9
 70
     1
102
RTVSPropertyOp10
 70
     1
102
RTVSPropertyOp11
 70
     1
102
RTVSPropertyOp12
 70
     1
102
RTVSPropertyOp13
 70
     1
102
RTVSPropertyOp14
 70
     1
102
RTVSPropertyOp15
 70
     1
102
RTVSPropertyOp16
 70
     1
102
RTVSPropertyOp17
 70
     1
102
RTVSPropertyOp18
 70
     1
102
RTVSPropertyOp19
 70
     1
102
RTVSPropertyOp20
 70
     1
102
RTVSPropertyOp21
 70
     1
102
RTVSPropertyOp22
 70
     1
102
RTVSPropertyOp23
 70
     1
102
RTVSPropertyOp24
 70
     1
102
RTVSPropertyOp25
 70
     1
102
RTVSPropertyOp26
 70
     1
102
RTVSPropertyOp27
 70
     1
102
RTVSPropertyOp28
 70
     1
102
RTVSPropertyOp29
 70
     1
102
RTVSPropertyOp30
 70
     1
102
RTVSPropertyOp31
 70
     1
102
RTVSPropertyOp32
 70
     1
102
RTVSPropertyOp33
 70
     1
102
RTVSPropertyOp34
 70
     1
102
RTVSPropertyOp35
 70
     1
102
RTVSPropertyOp36
 70
     1
102
RTVSPropertyOp37
 70
     1
102
RTVSPropertyOp38
 70
     1
102
RTVSPropertyOp39
 70
     1
102
RTVSPropertyOp40
 70
     1
102
RTVSPropertyOp41
 70
     1
102
RTVSPropertyOp42
 70
     1
102
RTVSPropertyOp43
 70
     1
102
RTVSPropertyOp44
 70
     1
102
RTVSPropertyOp45
 70
     1
102
RTVSPropertyOp46
 70
     1
102
RTVSPropertyOp47
 70
     1
102
RTVSPropertyOp48
 70
     1
102
RTVSPropertyOp49
 70
     1
102
RTVSPropertyOp50
 70
     1
102
RTVSPropertyOp51
 70
     0
102
RTVSPropertyOp52
 70
     0
102
RTVSPropertyOp53
 70
     1
102
RTVSPropertyOp54
 70
     1
102
RTVSPropertyOp55
 70
     1
102
RTVSPropertyOp56
 70
     1
102
RTVSPropertyOp57
 70
     1
102
RTVSPost2010Prop28
280
     0
102
RTVSPost2010PropOp28
 70
     1
102
RTVSPost2010Prop29
280
     1
102
RTVSPost2010PropOp29
 70
     1
102
RTVSPost2010Prop30
280
     1
102
RTVSPost2010PropOp30
 70
     1
102
RTVSPost2010Prop31
280
     0
102
RTVSPost2010PropOp31
 70
     1
102
RTVSPost2010Prop32
280
     0
102
RTVSPost2010PropOp32
 70
     1
102
RTVSPost2010Prop33
280
     0
102
RTVSPost2010PropOp33
 70
     1
102
RTVSPost2010Prop34
280
     0
102
RTVSPost2010PropOp34
 70
     1
102
RTVSPost2010Prop35
280
     0
102
RTVSPost2010PropOp35
 70
     1
102
RTVSPost2010Prop36
280
     0
102
RTVSPost2010PropOp36
 70
     1
102
RTVSPost2010Prop37
 90
       50
102
RTVSPost2010PropOp37
 70
     1
102
RTVSPost2010Prop38
140
0.0
102
RTVSPost2010PropOp38
 70
     1
102
RTVSPost2010Prop39
140
1.0
102
RTVSPost2010PropOp39
 70
     1
102
RTVSPost2010Prop40
 90
        0
102
RTVSPost2010PropOp40
 70
     1
102
RTVSPost2010Prop41ColorIndex
 90
       18
102
RTVSPost2010Prop41ColorRGB
 90
        0
102
RTVSPost2010PropOp41
 70
     1
102
RTVSPost2010Prop42
 90
       50
102
RTVSPost2010PropOp42
 70
     1
102
RTVSPost2010Prop43
 90
        3
102
RTVSPost2010PropOp43
 70
     1
102
RTVSPost2010Prop44ColorIndex
 90
        5
102
RTVSPost2010Prop44ColorRGB
 90
      255
102
RTVSPost2010PropOp44
 70
     1
102
RTVSPost2010Prop45
280
     0
102
RTVSPost2010PropOp45
 70
     1
102
RTVSPost2010Prop46
 90
       50
102
RTVSPost2010PropOp46
 70
     1
102
RTVSPost2010Prop47
 90
       50
102
RTVSPost2010PropOp47
 70
     1
102
RTVSPost2010Prop48
 90
       50
102
RTVSPost2010PropOp48
 70
     1
102
RTVSPost2010Prop49
280
     0
102
RTVSPost2010PropOp49
 70
     1
102
RTVSPost2010Prop50
 90
       50
102
RTVSPost2010PropOp50
 70
     1
102
RTVSPost2010Prop51ColorIndex
 90
      256
102
RTVSPost2010Prop51ColorRGB
 90
-16777216
102
RTVSPost2010PropOp51
 70
     0
102
RTVSPost2010Prop52
140
1.0
102
RTVSPost2010PropOp52
 70
     0
102
RTVSPost2010Prop53
 90
        2
102
RTVSPost2010PropOp53
 70
     1
102
RTVSPost2010Prop54
  1
strokes_ogs.tif
102
RTVSPost2010PropOp54
 70
     1
102
RTVSPost2010Prop55
280
     0
102
RTVSPost2010PropOp55
 70
     1
102
RTVSPost2010Prop56
140
1.0
102
RTVSPost2010PropOp56
 70
     1
102
RTVSPost2010Prop57
140
1.0
102
RTVSPost2010PropOp57
 70
     1
  0
XRECORD
  5
65F
102
{ACAD_REACTORS
330
65E
102
}
330
65E
100
AcDbXrecord
280
     1
102
RTVSPropertyOp0
 70
     1
102
RTVSPropertyOp1
 70
     1
102
RTVSPropertyOp2
 70
     1
102
RTVSPropertyOp3
 70
     1
102
RTVSPropertyOp4
 70
     1
102
RTVSPropertyOp5
 70
     1
102
RTVSPropertyOp6
 70
     1
102
RTVSPropertyOp7
 70
     1
102
RTVSPropertyOp8
 70
     1
102
RTVSPropertyOp9
 70
     1
102
RTVSPropertyOp10
 70
     1
102
RTVSPropertyOp11
 70
     1
102
RTVSPropertyOp12
 70
     1
102
RTVSPropertyOp13
 70
     1
102
RTVSPropertyOp14
 70
     1
102
RTVSPropertyOp15
 70
     1
102
RTVSPropertyOp16
 70
     1
102
RTVSPropertyOp17
 70
     1
102
RTVSPropertyOp18
 70
     1
102
RTVSPropertyOp19
 70
     1
102
RTVSPropertyOp20
 70
     1
102
RTVSPropertyOp21
 70
     1
102
RTVSPropertyOp22
 70
     1
102
RTVSPropertyOp23
 70
     1
102
RTVSPropertyOp24
 70
     1
102
RTVSPropertyOp25
 70
     1
102
RTVSPropertyOp26
 70
     1
102
RTVSPropertyOp27
 70
     1
102
RTVSPropertyOp28
 70
     1
102
RTVSPropertyOp29
 70
     1
102
RTVSPropertyOp30
 70
     1
102
RTVSPropertyOp31
 70
     1
102
RTVSPropertyOp32
 70
     1
102
RTVSPropertyOp33
 70
     1
102
RTVSPropertyOp34
 70
     1
102
RTVSPropertyOp35
 70
     1
102
RTVSPropertyOp36
 70
     1
102
RTVSPropertyOp37
 70
     1
102
RTVSPropertyOp38
 70
     1
102
RTVSPropertyOp39
 70
     1
102
RTVSPropertyOp40
 70
     1
102
RTVSPropertyOp41
 70
     1
102
RTVSPropertyOp42
 70
     1
102
RTVSPropertyOp43
 70
     1
102
RTVSPropertyOp44
 70
     1
102
RTVSPropertyOp45
 70
     1
102
RTVSPropertyOp46
 70
     1
102
RTVSPropertyOp47
 70
     1
102
RTVSPropertyOp48
 70
     1
102
RTVSPropertyOp49
 70
     1
102
RTVSPropertyOp50
 70
     1
102
RTVSPropertyOp51
 70
     0
102
RTVSPropertyOp52
 70
     0
102
RTVSPropertyOp53
 70
     1
102
RTVSPropertyOp54
 70
     1
102
RTVSPropertyOp55
 70
     1
102
RTVSPropertyOp56
 70
     1
102
RTVSPropertyOp57
 70
     1
102
RTVSPost2010Prop28
280
     0
102
RTVSPost2010PropOp28
 70
     1
102
RTVSPost2010Prop29
280
     1
102
RTVSPost2010PropOp29
 70
     1
102
RTVSPost2010Prop30
280
     1
102
RTVSPost2010PropOp30
 70
     1
102
RTVSPost2010Prop31
280
     0
102
RTVSPost2010PropOp31
 70
     1
102
RTVSPost2010Prop32
280
     0
102
RTVSPost2010PropOp32
 70
     1
102
RTVSPost2010Prop33
280
     0
102
RTVSPost2010PropOp33
 70
     1
102
RTVSPost2010Prop34
280
     0
102
RTVSPost2010PropOp34
 70
     1
102
RTVSPost2010Prop35
280
     0
102
RTVSPost2010PropOp35
 70
     1
102
RTVSPost2010Prop36
280
     0
102
RTVSPost2010PropOp36
 70
     1
102
RTVSPost2010Prop37
 90
       50
102
RTVSPost2010PropOp37
 70
     1
102
RTVSPost2010Prop38
140
0.0
102
RTVSPost2010PropOp38
 70
     1
102
RTVSPost2010Prop39
140
1.0
102
RTVSPost2010PropOp39
 70
     1
102
RTVSPost2010Prop40
 90
        0
102
RTVSPost2010PropOp40
 70
     1
102
RTVSPost2010Prop41ColorIndex
 90
       18
102
RTVSPost2010Prop41ColorRGB
 90
        0
102
RTVSPost2010PropOp41
 70
     1
102
RTVSPost2010Prop42
 90
       50
102
RTVSPost2010PropOp42
 70
     1
102
RTVSPost2010Prop43
 90
        3
102
RTVSPost2010PropOp43
 70
     1
102
RTVSPost2010Prop44ColorIndex
 90
        5
102
RTVSPost2010Prop44ColorRGB
 90
      255
102
RTVSPost2010PropOp44
 70
     1
102
RTVSPost2010Prop45
280
     0
102
RTVSPost2010PropOp45
 70
     1
102
RTVSPost2010Prop46
 90
       50
102
RTVSPost2010PropOp46
 70
     1
102
RTVSPost2010Prop47
 90
       50
102
RTVSPost2010PropOp47
 70
     1
102
RTVSPost2010Prop48
 90
       50
102
RTVSPost2010PropOp48
 70
     1
102
RTVSPost2010Prop49
280
     0
102
RTVSPost2010PropOp49
 70
     1
102
RTVSPost2010Prop50
 90
       50
102
RTVSPost2010PropOp50
 70
     1
102
RTVSPost2010Prop51ColorIndex
 90
      256
102
RTVSPost2010Prop51ColorRGB
 90
-16777216
102
RTVSPost2010PropOp51
 70
     0
102
RTVSPost2010Prop52
140
1.0
102
RTVSPost2010PropOp52
 70
     0
102
RTVSPost2010Prop53
 90
        2
102
RTVSPost2010PropOp53
 70
     1
102
RTVSPost2010Prop54
  1
strokes_ogs.tif
102
RTVSPost2010PropOp54
 70
     1
102
RTVSPost2010Prop55
280
     0
102
RTVSPost2010PropOp55
 70
     1
102
RTVSPost2010Prop56
140
1.0
102
RTVSPost2010PropOp56
 70
     1
102
RTVSPost2010Prop57
140
1.0
102
RTVSPost2010PropOp57
 70
     1
  0
XRECORD
  5
661
102
{ACAD_REACTORS
330
660
102
}
330
660
100
AcDbXrecord
280
     1
102
RTVSPropertyOp0
 70
     1
102
RTVSPropertyOp1
 70
     1
102
RTVSPropertyOp2
 70
     1
102
RTVSPropertyOp3
 70
     1
102
RTVSPropertyOp4
 70
     1
102
RTVSPropertyOp5
 70
     1
102
RTVSPropertyOp6
 70
     1
102
RTVSPropertyOp7
 70
     1
102
RTVSPropertyOp8
 70
     1
102
RTVSPropertyOp9
 70
     1
102
RTVSPropertyOp10
 70
     1
102
RTVSPropertyOp11
 70
     1
102
RTVSPropertyOp12
 70
     1
102
RTVSPropertyOp13
 70
     1
102
RTVSPropertyOp14
 70
     1
102
RTVSPropertyOp15
 70
     1
102
RTVSPropertyOp16
 70
     1
102
RTVSPropertyOp17
 70
     1
102
RTVSPropertyOp18
 70
     1
102
RTVSPropertyOp19
 70
     1
102
RTVSPropertyOp20
 70
     1
102
RTVSPropertyOp21
 70
     1
102
RTVSPropertyOp22
 70
     1
102
RTVSPropertyOp23
 70
     1
102
RTVSPropertyOp24
 70
     1
102
RTVSPropertyOp25
 70
     1
102
RTVSPropertyOp26
 70
     1
102
RTVSPropertyOp27
 70
     1
102
RTVSPropertyOp28
 70
     1
102
RTVSPropertyOp29
 70
     1
102
RTVSPropertyOp30
 70
     1
102
RTVSPropertyOp31
 70
     1
102
RTVSPropertyOp32
 70
     1
102
RTVSPropertyOp33
 70
     1
102
RTVSPropertyOp34
 70
     1
102
RTVSPropertyOp35
 70
     1
102
RTVSPropertyOp36
 70
     1
102
RTVSPropertyOp37
 70
     1
102
RTVSPropertyOp38
 70
     1
102
RTVSPropertyOp39
 70
     1
102
RTVSPropertyOp40
 70
     1
102
RTVSPropertyOp41
 70
     1
102
RTVSPropertyOp42
 70
     1
102
RTVSPropertyOp43
 70
     1
102
RTVSPropertyOp44
 70
     1
102
RTVSPropertyOp45
 70
     1
102
RTVSPropertyOp46
 70
     1
102
RTVSPropertyOp47
 70
     1
102
RTVSPropertyOp48
 70
     1
102
RTVSPropertyOp49
 70
     1
102
RTVSPropertyOp50
 70
     1
102
RTVSPropertyOp51
 70
     0
102
RTVSPropertyOp52
 70
     0
102
RTVSPropertyOp53
 70
     1
102
RTVSPropertyOp54
 70
     1
102
RTVSPropertyOp55
 70
     1
102
RTVSPropertyOp56
 70
     1
102
RTVSPropertyOp57
 70
     1
102
RTVSPost2010Prop28
280
     0
102
RTVSPost2010PropOp28
 70
     1
102
RTVSPost2010Prop29
280
     1
102
RTVSPost2010PropOp29
 70
     1
102
RTVSPost2010Prop30
280
     1
102
RTVSPost2010PropOp30
 70
     1
102
RTVSPost2010Prop31
280
     0
102
RTVSPost2010PropOp31
 70
     1
102
RTVSPost2010Prop32
280
     0
102
RTVSPost2010PropOp32
 70
     1
102
RTVSPost2010Prop33
280
     0
102
RTVSPost2010PropOp33
 70
     1
102
RTVSPost2010Prop34
280
     0
102
RTVSPost2010PropOp34
 70
     1
102
RTVSPost2010Prop35
280
     0
102
RTVSPost2010PropOp35
 70
     1
102
RTVSPost2010Prop36
280
     0
102
RTVSPost2010PropOp36
 70
     1
102
RTVSPost2010Prop37
 90
       50
102
RTVSPost2010PropOp37
 70
     1
102
RTVSPost2010Prop38
140
0.0
102
RTVSPost2010PropOp38
 70
     1
102
RTVSPost2010Prop39
140
1.0
102
RTVSPost2010PropOp39
 70
     1
102
RTVSPost2010Prop40
 90
        0
102
RTVSPost2010PropOp40
 70
     1
102
RTVSPost2010Prop41ColorIndex
 90
       18
102
RTVSPost2010Prop41ColorRGB
 90
        0
102
RTVSPost2010PropOp41
 70
     1
102
RTVSPost2010Prop42
 90
       50
102
RTVSPost2010PropOp42
 70
     1
102
RTVSPost2010Prop43
 90
        3
102
RTVSPost2010PropOp43
 70
     1
102
RTVSPost2010Prop44ColorIndex
 90
        5
102
RTVSPost2010Prop44ColorRGB
 90
      255
102
RTVSPost2010PropOp44
 70
     1
102
RTVSPost2010Prop45
280
     0
102
RTVSPost2010PropOp45
 70
     1
102
RTVSPost2010Prop46
 90
       50
102
RTVSPost2010PropOp46
 70
     1
102
RTVSPost2010Prop47
 90
       50
102
RTVSPost2010PropOp47
 70
     1
102
RTVSPost2010Prop48
 90
       50
102
RTVSPost2010PropOp48
 70
     1
102
RTVSPost2010Prop49
280
     0
102
RTVSPost2010PropOp49
 70
     1
102
RTVSPost2010Prop50
 90
       50
102
RTVSPost2010PropOp50
 70
     1
102
RTVSPost2010Prop51ColorIndex
 90
      256
102
RTVSPost2010Prop51ColorRGB
 90
-16777216
102
RTVSPost2010PropOp51
 70
     0
102
RTVSPost2010Prop52
140
1.0
102
RTVSPost2010PropOp52
 70
     0
102
RTVSPost2010Prop53
 90
        2
102
RTVSPost2010PropOp53
 70
     1
102
RTVSPost2010Prop54
  1
strokes_ogs.tif
102
RTVSPost2010PropOp54
 70
     1
102
RTVSPost2010Prop55
280
     0
102
RTVSPost2010PropOp55
 70
     1
102
RTVSPost2010Prop56
140
1.0
102
RTVSPost2010PropOp56
 70
     1
102
RTVSPost2010Prop57
140
1.0
102
RTVSPost2010PropOp57
 70
     1
  0
XRECORD
  5
651
102
{ACAD_REACTORS
330
650
102
}
330
650
100
AcDbXrecord
280
     1
102
RTVSPropertyOp0
 70
     1
102
RTVSPropertyOp1
 70
     1
102
RTVSPropertyOp2
 70
     1
102
RTVSPropertyOp3
 70
     1
102
RTVSPropertyOp4
 70
     1
102
RTVSPropertyOp5
 70
     1
102
RTVSPropertyOp6
 70
     1
102
RTVSPropertyOp7
 70
     1
102
RTVSPropertyOp8
 70
     1
102
RTVSPropertyOp9
 70
     1
102
RTVSPropertyOp10
 70
     1
102
RTVSPropertyOp11
 70
     1
102
RTVSPropertyOp12
 70
     1
102
RTVSPropertyOp13
 70
     1
102
RTVSPropertyOp14
 70
     1
102
RTVSPropertyOp15
 70
     1
102
RTVSPropertyOp16
 70
     1
102
RTVSPropertyOp17
 70
     1
102
RTVSPropertyOp18
 70
     1
102
RTVSPropertyOp19
 70
     1
102
RTVSPropertyOp20
 70
     1
102
RTVSPropertyOp21
 70
     1
102
RTVSPropertyOp22
 70
     1
102
RTVSPropertyOp23
 70
     1
102
RTVSPropertyOp24
 70
     1
102
RTVSPropertyOp25
 70
     1
102
RTVSPropertyOp26
 70
     1
102
RTVSPropertyOp27
 70
     1
102
RTVSPropertyOp28
 70
     1
102
RTVSPropertyOp29
 70
     1
102
RTVSPropertyOp30
 70
     1
102
RTVSPropertyOp31
 70
     1
102
RTVSPropertyOp32
 70
     1
102
RTVSPropertyOp33
 70
     1
102
RTVSPropertyOp34
 70
     1
102
RTVSPropertyOp35
 70
     1
102
RTVSPropertyOp36
 70
     1
102
RTVSPropertyOp37
 70
     1
102
RTVSPropertyOp38
 70
     1
102
RTVSPropertyOp39
 70
     1
102
RTVSPropertyOp40
 70
     1
102
RTVSPropertyOp41
 70
     1
102
RTVSPropertyOp42
 70
     1
102
RTVSPropertyOp43
 70
     1
102
RTVSPropertyOp44
 70
     1
102
RTVSPropertyOp45
 70
     1
102
RTVSPropertyOp46
 70
     1
102
RTVSPropertyOp47
 70
     1
102
RTVSPropertyOp48
 70
     1
102
RTVSPropertyOp49
 70
     1
102
RTVSPropertyOp50
 70
     1
102
RTVSPropertyOp51
 70
     0
102
RTVSPropertyOp52
 70
     0
102
RTVSPropertyOp53
 70
     1
102
RTVSPropertyOp54
 70
     1
102
RTVSPropertyOp55
 70
     1
102
RTVSPropertyOp56
 70
     1
102
RTVSPropertyOp57
 70
     1
102
RTVSPost2010Prop28
280
     0
102
RTVSPost2010PropOp28
 70
     1
102
RTVSPost2010Prop29
280
     1
102
RTVSPost2010PropOp29
 70
     1
102
RTVSPost2010Prop30
280
     1
102
RTVSPost2010PropOp30
 70
     1
102
RTVSPost2010Prop31
280
     0
102
RTVSPost2010PropOp31
 70
     1
102
RTVSPost2010Prop32
280
     0
102
RTVSPost2010PropOp32
 70
     1
102
RTVSPost2010Prop33
280
     0
102
RTVSPost2010PropOp33
 70
     1
102
RTVSPost2010Prop34
280
     0
102
RTVSPost2010PropOp34
 70
     1
102
RTVSPost2010Prop35
280
     0
102
RTVSPost2010PropOp35
 70
     1
102
RTVSPost2010Prop36
280
     0
102
RTVSPost2010PropOp36
 70
     1
102
RTVSPost2010Prop37
 90
       50
102
RTVSPost2010PropOp37
 70
     1
102
RTVSPost2010Prop38
140
0.0
102
RTVSPost2010PropOp38
 70
     1
102
RTVSPost2010Prop39
140
1.0
102
RTVSPost2010PropOp39
 70
     1
102
RTVSPost2010Prop40
 90
        0
102
RTVSPost2010PropOp40
 70
     1
102
RTVSPost2010Prop41ColorIndex
 90
       18
102
RTVSPost2010Prop41ColorRGB
 90
        0
102
RTVSPost2010PropOp41
 70
     1
102
RTVSPost2010Prop42
 90
       50
102
RTVSPost2010PropOp42
 70
     1
102
RTVSPost2010Prop43
 90
        3
102
RTVSPost2010PropOp43
 70
     1
102
RTVSPost2010Prop44ColorIndex
 90
        5
102
RTVSPost2010Prop44ColorRGB
 90
      255
102
RTVSPost2010PropOp44
 70
     1
102
RTVSPost2010Prop45
280
     0
102
RTVSPost2010PropOp45
 70
     1
102
RTVSPost2010Prop46
 90
       50
102
RTVSPost2010PropOp46
 70
     1
102
RTVSPost2010Prop47
 90
       50
102
RTVSPost2010PropOp47
 70
     1
102
RTVSPost2010Prop48
 90
       50
102
RTVSPost2010PropOp48
 70
     1
102
RTVSPost2010Prop49
280
     0
102
RTVSPost2010PropOp49
 70
     1
102
RTVSPost2010Prop50
 90
       50
102
RTVSPost2010PropOp50
 70
     1
102
RTVSPost2010Prop51ColorIndex
 90
      256
102
RTVSPost2010Prop51ColorRGB
 90
-16777216
102
RTVSPost2010PropOp51
 70
     0
102
RTVSPost2010Prop52
140
1.0
102
RTVSPost2010PropOp52
 70
     0
102
RTVSPost2010Prop53
 90
        2
102
RTVSPost2010PropOp53
 70
     1
102
RTVSPost2010Prop54
  1
strokes_ogs.tif
102
RTVSPost2010PropOp54
 70
     1
102
RTVSPost2010Prop55
280
     0
102
RTVSPost2010PropOp55
 70
     1
102
RTVSPost2010Prop56
140
1.0
102
RTVSPost2010PropOp56
 70
     1
102
RTVSPost2010Prop57
140
1.0
102
RTVSPost2010PropOp57
 70
     1
  0
XRECORD
  5
643
102
{ACAD_REACTORS
330
642
102
}
330
642
100
AcDbXrecord
280
     1
102
RTVSPropertyOp0
 70
     1
102
RTVSPropertyOp1
 70
     1
102
RTVSPropertyOp2
 70
     1
102
RTVSPropertyOp3
 70
     1
102
RTVSPropertyOp4
 70
     1
102
RTVSPropertyOp5
 70
     1
102
RTVSPropertyOp6
 70
     1
102
RTVSPropertyOp7
 70
     1
102
RTVSPropertyOp8
 70
     1
102
RTVSPropertyOp9
 70
     1
102
RTVSPropertyOp10
 70
     1
102
RTVSPropertyOp11
 70
     1
102
RTVSPropertyOp12
 70
     1
102
RTVSPropertyOp13
 70
     1
102
RTVSPropertyOp14
 70
     1
102
RTVSPropertyOp15
 70
     1
102
RTVSPropertyOp16
 70
     1
102
RTVSPropertyOp17
 70
     1
102
RTVSPropertyOp18
 70
     1
102
RTVSPropertyOp19
 70
     1
102
RTVSPropertyOp20
 70
     1
102
RTVSPropertyOp21
 70
     1
102
RTVSPropertyOp22
 70
     1
102
RTVSPropertyOp23
 70
     1
102
RTVSPropertyOp24
 70
     1
102
RTVSPropertyOp25
 70
     1
102
RTVSPropertyOp26
 70
     1
102
RTVSPropertyOp27
 70
     1
102
RTVSPropertyOp28
 70
     1
102
RTVSPropertyOp29
 70
     1
102
RTVSPropertyOp30
 70
     1
102
RTVSPropertyOp31
 70
     1
102
RTVSPropertyOp32
 70
     1
102
RTVSPropertyOp33
 70
     1
102
RTVSPropertyOp34
 70
     1
102
RTVSPropertyOp35
 70
     1
102
RTVSPropertyOp36
 70
     1
102
RTVSPropertyOp37
 70
     1
102
RTVSPropertyOp38
 70
     1
102
RTVSPropertyOp39
 70
     1
102
RTVSPropertyOp40
 70
     1
102
RTVSPropertyOp41
 70
     1
102
RTVSPropertyOp42
 70
     1
102
RTVSPropertyOp43
 70
     1
102
RTVSPropertyOp44
 70
     1
102
RTVSPropertyOp45
 70
     1
102
RTVSPropertyOp46
 70
     1
102
RTVSPropertyOp47
 70
     1
102
RTVSPropertyOp48
 70
     1
102
RTVSPropertyOp49
 70
     1
102
RTVSPropertyOp50
 70
     1
102
RTVSPropertyOp51
 70
     0
102
RTVSPropertyOp52
 70
     0
102
RTVSPropertyOp53
 70
     1
102
RTVSPropertyOp54
 70
     1
102
RTVSPropertyOp55
 70
     1
102
RTVSPropertyOp56
 70
     1
102
RTVSPropertyOp57
 70
     1
102
RTVSPost2010Prop28
280
     0
102
RTVSPost2010PropOp28
 70
     1
102
RTVSPost2010Prop29
280
     1
102
RTVSPost2010PropOp29
 70
     1
102
RTVSPost2010Prop30
280
     1
102
RTVSPost2010PropOp30
 70
     1
102
RTVSPost2010Prop31
280
     0
102
RTVSPost2010PropOp31
 70
     1
102
RTVSPost2010Prop32
280
     0
102
RTVSPost2010PropOp32
 70
     1
102
RTVSPost2010Prop33
280
     0
102
RTVSPost2010PropOp33
 70
     1
102
RTVSPost2010Prop34
280
     0
102
RTVSPost2010PropOp34
 70
     1
102
RTVSPost2010Prop35
280
     0
102
RTVSPost2010PropOp35
 70
     1
102
RTVSPost2010Prop36
280
     0
102
RTVSPost2010PropOp36
 70
     1
102
RTVSPost2010Prop37
 90
       50
102
RTVSPost2010PropOp37
 70
     1
102
RTVSPost2010Prop38
140
0.0
102
RTVSPost2010PropOp38
 70
     1
102
RTVSPost2010Prop39
140
1.0
102
RTVSPost2010PropOp39
 70
     1
102
RTVSPost2010Prop40
 90
        0
102
RTVSPost2010PropOp40
 70
     1
102
RTVSPost2010Prop41ColorIndex
 90
       18
102
RTVSPost2010Prop41ColorRGB
 90
        0
102
RTVSPost2010PropOp41
 70
     1
102
RTVSPost2010Prop42
 90
       50
102
RTVSPost2010PropOp42
 70
     1
102
RTVSPost2010Prop43
 90
        3
102
RTVSPost2010PropOp43
 70
     1
102
RTVSPost2010Prop44ColorIndex
 90
        5
102
RTVSPost2010Prop44ColorRGB
 90
      255
102
RTVSPost2010PropOp44
 70
     1
102
RTVSPost2010Prop45
280
     0
102
RTVSPost2010PropOp45
 70
     1
102
RTVSPost2010Prop46
 90
       50
102
RTVSPost2010PropOp46
 70
     1
102
RTVSPost2010Prop47
 90
       50
102
RTVSPost2010PropOp47
 70
     1
102
RTVSPost2010Prop48
 90
       50
102
RTVSPost2010PropOp48
 70
     1
102
RTVSPost2010Prop49
280
     0
102
RTVSPost2010PropOp49
 70
     1
102
RTVSPost2010Prop50
 90
       50
102
RTVSPost2010PropOp50
 70
     1
102
RTVSPost2010Prop51ColorIndex
 90
      256
102
RTVSPost2010Prop51ColorRGB
 90
-16777216
102
RTVSPost2010PropOp51
 70
     0
102
RTVSPost2010Prop52
140
1.0
102
RTVSPost2010PropOp52
 70
     0
102
RTVSPost2010Prop53
 90
        2
102
RTVSPost2010PropOp53
 70
     1
102
RTVSPost2010Prop54
  1
strokes_ogs.tif
102
RTVSPost2010PropOp54
 70
     1
102
RTVSPost2010Prop55
280
     0
102
RTVSPost2010PropOp55
 70
     1
102
RTVSPost2010Prop56
140
1.0
102
RTVSPost2010PropOp56
 70
     1
102
RTVSPost2010Prop57
140
1.0
102
RTVSPost2010PropOp57
 70
     1
  0
XRECORD
  5
663
102
{ACAD_REACTORS
330
662
102
}
330
662
100
AcDbXrecord
280
     1
102
RTVSPropertyOp0
 70
     1
102
RTVSPropertyOp1
 70
     1
102
RTVSPropertyOp2
 70
     1
102
RTVSPropertyOp3
 70
     1
102
RTVSPropertyOp4
 70
     1
102
RTVSPropertyOp5
 70
     1
102
RTVSPropertyOp6
 70
     1
102
RTVSPropertyOp7
 70
     1
102
RTVSPropertyOp8
 70
     1
102
RTVSPropertyOp9
 70
     1
102
RTVSPropertyOp10
 70
     1
102
RTVSPropertyOp11
 70
     1
102
RTVSPropertyOp12
 70
     1
102
RTVSPropertyOp13
 70
     1
102
RTVSPropertyOp14
 70
     1
102
RTVSPropertyOp15
 70
     1
102
RTVSPropertyOp16
 70
     1
102
RTVSPropertyOp17
 70
     1
102
RTVSPropertyOp18
 70
     1
102
RTVSPropertyOp19
 70
     1
102
RTVSPropertyOp20
 70
     1
102
RTVSPropertyOp21
 70
     1
102
RTVSPropertyOp22
 70
     1
102
RTVSPropertyOp23
 70
     1
102
RTVSPropertyOp24
 70
     1
102
RTVSPropertyOp25
 70
     1
102
RTVSPropertyOp26
 70
     1
102
RTVSPropertyOp27
 70
     1
102
RTVSPropertyOp28
 70
     1
102
RTVSPropertyOp29
 70
     1
102
RTVSPropertyOp30
 70
     1
102
RTVSPropertyOp31
 70
     1
102
RTVSPropertyOp32
 70
     1
102
RTVSPropertyOp33
 70
     1
102
RTVSPropertyOp34
 70
     1
102
RTVSPropertyOp35
 70
     1
102
RTVSPropertyOp36
 70
     1
102
RTVSPropertyOp37
 70
     1
102
RTVSPropertyOp38
 70
     1
102
RTVSPropertyOp39
 70
     1
102
RTVSPropertyOp40
 70
     1
102
RTVSPropertyOp41
 70
     1
102
RTVSPropertyOp42
 70
     1
102
RTVSPropertyOp43
 70
     1
102
RTVSPropertyOp44
 70
     1
102
RTVSPropertyOp45
 70
     1
102
RTVSPropertyOp46
 70
     1
102
RTVSPropertyOp47
 70
     1
102
RTVSPropertyOp48
 70
     1
102
RTVSPropertyOp49
 70
     1
102
RTVSPropertyOp50
 70
     1
102
RTVSPropertyOp51
 70
     0
102
RTVSPropertyOp52
 70
     0
102
RTVSPropertyOp53
 70
     1
102
RTVSPropertyOp54
 70
     1
102
RTVSPropertyOp55
 70
     1
102
RTVSPropertyOp56
 70
     1
102
RTVSPropertyOp57
 70
     1
102
RTVSPost2010Prop28
280
     0
102
RTVSPost2010PropOp28
 70
     1
102
RTVSPost2010Prop29
280
     1
102
RTVSPost2010PropOp29
 70
     1
102
RTVSPost2010Prop30
280
     1
102
RTVSPost2010PropOp30
 70
     1
102
RTVSPost2010Prop31
280
     0
102
RTVSPost2010PropOp31
 70
     1
102
RTVSPost2010Prop32
280
     0
102
RTVSPost2010PropOp32
 70
     1
102
RTVSPost2010Prop33
280
     0
102
RTVSPost2010PropOp33
 70
     1
102
RTVSPost2010Prop34
280
     0
102
RTVSPost2010PropOp34
 70
     1
102
RTVSPost2010Prop35
280
     0
102
RTVSPost2010PropOp35
 70
     1
102
RTVSPost2010Prop36
280
     0
102
RTVSPost2010PropOp36
 70
     1
102
RTVSPost2010Prop37
 90
       50
102
RTVSPost2010PropOp37
 70
     1
102
RTVSPost2010Prop38
140
0.0
102
RTVSPost2010PropOp38
 70
     1
102
RTVSPost2010Prop39
140
1.0
102
RTVSPost2010PropOp39
 70
     1
102
RTVSPost2010Prop40
 90
        0
102
RTVSPost2010PropOp40
 70
     1
102
RTVSPost2010Prop41ColorIndex
 90
       18
102
RTVSPost2010Prop41ColorRGB
 90
        0
102
RTVSPost2010PropOp41
 70
     1
102
RTVSPost2010Prop42
 90
       50
102
RTVSPost2010PropOp42
 70
     1
102
RTVSPost2010Prop43
 90
        3
102
RTVSPost2010PropOp43
 70
     1
102
RTVSPost2010Prop44ColorIndex
 90
        5
102
RTVSPost2010Prop44ColorRGB
 90
      255
102
RTVSPost2010PropOp44
 70
     1
102
RTVSPost2010Prop45
280
     0
102
RTVSPost2010PropOp45
 70
     1
102
RTVSPost2010Prop46
 90
       50
102
RTVSPost2010PropOp46
 70
     1
102
RTVSPost2010Prop47
 90
       50
102
RTVSPost2010PropOp47
 70
     1
102
RTVSPost2010Prop48
 90
       50
102
RTVSPost2010PropOp48
 70
     1
102
RTVSPost2010Prop49
280
     0
102
RTVSPost2010PropOp49
 70
     1
102
RTVSPost2010Prop50
 90
       50
102
RTVSPost2010PropOp50
 70
     1
102
RTVSPost2010Prop51ColorIndex
 90
      256
102
RTVSPost2010Prop51ColorRGB
 90
-16777216
102
RTVSPost2010PropOp51
 70
     0
102
RTVSPost2010Prop52
140
1.0
102
RTVSPost2010PropOp52
 70
     0
102
RTVSPost2010Prop53
 90
        2
102
RTVSPost2010PropOp53
 70
     1
102
RTVSPost2010Prop54
  1
strokes_ogs.tif
102
RTVSPost2010PropOp54
 70
     1
102
RTVSPost2010Prop55
280
     0
102
RTVSPost2010PropOp55
 70
     1
102
RTVSPost2010Prop56
140
1.0
102
RTVSPost2010PropOp56
 70
     1
102
RTVSPost2010Prop57
140
1.0
102
RTVSPost2010PropOp57
 70
     1
  0
ENDSEC
  0
SECTION
  2
THUMBNAILIMAGE
 90
    16364
310
28000000B4000000550000000100080000000000C43B000000000000000000000001000000010000FFFFFF000000FF0000FFFF0000FF0000FFFF0000FF000000FF00FF000000000080808000C0C0C0000000FF007F7FFF000000A5005252A50000007F003F3F7F0000004C0026264C000000260013132600003FFF007F9FFF
310
000029A5005267A500001F7F003F4F7F0000134C00262F4C000009260013172600007FFF007FBFFF000052A500527CA500003F7F003F5F7F0000264C0026394C0000132600131C260000BFFF007FDFFF00007CA5005291A500005F7F003F6F7F0000394C0026424C00001C26001321260000FFFF007FFFFF0000A5A50052A5
310
A500007F7F003F7F7F00004C4C00264C4C00002626001326260000FFBF007FFFDF0000A57C0052A59100007F5F003F7F6F00004C3900264C420000261C001326210000FF7F007FFFBF0000A5520052A57C00007F3F003F7F5F00004C2600264C39000026130013261C0000FF3F007FFF9F0000A5290052A56700007F1F003F
310
7F4F00004C1300264C2F00002609001326170000FF00007FFF7F0000A5000052A55200007F00003F7F3F00004C0000264C260000260000132613003FFF00009FFF7F0029A5000067A552001F7F00004F7F3F00134C00002F4C260009260000172613007FFF0000BFFF7F0052A500007CA552003F7F00005F7F3F00264C0000
310
394C2600132600001C261300BFFF0000DFFF7F007CA5000091A552005F7F00006F7F3F00394C0000424C26001C26000021261300FFFF0000FFFF7F00A5A50000A5A552007F7F00007F7F3F004C4C00004C4C26002626000026261300FFBF0000FFDF7F00A57C0000A59152007F5F00007F6F3F004C3900004C422600261C00
310
0026211300FF7F0000FFBF7F00A5520000A57C52007F3F00007F5F3F004C2600004C39260026130000261C1300FF3F0000FF9F7F00A5290000A56752007F1F00007F4F3F004C1300004C2F26002609000026171300FF000000FF7F7F00A5000000A55252007F0000007F3F3F004C0000004C2626002600000026131300FF00
310
3F00FF7F9F00A5002900A55267007F001F007F3F4F004C0013004C262F002600090026131700FF007F00FF7FBF00A5005200A5527C007F003F007F3F5F004C0026004C2639002600130026131C00FF00BF00FF7FDF00A5007C00A55291007F005F007F3F6F004C0039004C26420026001C0026132100FF00FF00FF7FFF00A5
310
00A500A552A5007F007F007F3F7F004C004C004C264C002600260026132600BF00FF00DF7FFF007C00A5009152A5005F007F006F3F7F0039004C0042264C001C002600211326007F00FF00BF7FFF005200A5007C52A5003F007F005F3F7F0026004C0039264C00130026001C1326003F00FF009F7FFF002900A5006752A500
310
1F007F004F3F7F0013004C002F264C000900260017132600000000002D2D2D005B5B5B0089898900B7B7B700B3B3B30000000000000000000000000000000000000000000000000000000000000000000000000000000000000000000000000000000000000000000000000000000000000000000000000000000000000000
310
00000000000000000000000000000000000000000000000000000000000000000000000000000000000000000000000000000000000000000000000000000000000000000000000000000000000000000000000000000000000000000000000000000000000000000000000000000000000000000000000000000000000000
310
00000000000000000000000000000000000000000000000000000000000000000000000000000000000000000000000000000000000000000000000000000000000000000000000000000000000000000000000000000000000000000000000000000000000000000000000000000000000000000000000000000000000000
310
00000000000000000000000000000000000000000000000000000000000000000000000000000000000000000000000000000000000000000000000000000000000000000000000000000000000000000000000000000000000000000000000000000000000000000000000000000000000000000000000000000000000000
310
00000000000000000000000000000000000000000000000000000000000000000000000000000000000000000000000000000000000000000000000000000000000000000000000000000000000000000000000000000000000000000000000000000000000000000000000000000000000000000000000000000000000000
310
00000000000000000000000000000000000000000000000000000000000000000000000000000000000000000000000000000000000000000000000000000000000000000000000000000000000000000000000000000000000000000000000000000000000000000000000000000000000000000000000000000000000000
310
00000000000000000000000000000000000000000000000000000000000000000000000000000000000000000000000000000000000000000000000000000000000000000000000000000000000000000000000000000000000000000000000000000000000000000000000000000000000000000000000000000000000000
310
00000000000000000000000000000000000000000000000000000000000000000000000000000000000000000000000000000000000000000000000000000000000000000000000000000000000000000000000000000000000000000000000000000000000000000000000000000000000000000000000000000000000000
310
00000000000000000000000000000000000000000000000000000000000000000000000000000000000000000000000000000000000000000000000000000000000000000000000000000000000000000000000000000000000000000000000000000000000000000000000000000000000000000000000000000000000000
310
00000000000000000000000000000303030300000000000000000000000000000000000000000000000000000000000000000000000000000000000003030303000000000000000000000000000000000000000000000000000000000000000000000000000000000000000000000000000000000000000000000000000000
310
00000000000000000000000000000000000000000000000000000000000000000000000000000000000000000000000000000000000000000000000000000000000000030303030000000000000000000000000000000000000000000000000000000000000000000000000000000000000300010300000000000000000000
310
00000000000000000000000000000000000000000000000000000000000000000000000000000000000000000000000000000000000000000000000000000000000000000000000000000000000000000000000000000000000000000000000000000000000000000000000000000000000000000000000003030303000000
310
00000000000000000000000000000000000000000000000000000000000000000000000000000003000103000000000000000000000000000000000000000000000000000000000000000000000000000000000000000000000000000000000000000000000000000000000000000000000000000000000000000000000000
310
00000000000000000000000000000000000000000000000000000000000000000000000000000000000000000000030303030000000000000000000000000000000000000000000000000000000000000000000000000000000000000300010300000000000000000000000000000000000000000000000000000000000000
310
00000000000000000000000000000000000000000000000000000000000000000000000000000000000000000000000000000000000000000000000000000000000000000000000000000000000000000000000000000000000000000000000000000003030303000000000000000000000000000000000000020202020200
310
00000000000000000000000000000000000003000103000000000000000000000000000000000000000000000000000000000000000000000000000000000000000000000000000000000000000000000000000000000000000000000000000000000000000000000000000000000000000000000000000000000000000000
310
00000000000000000000000000000000000000000000000000030303030000000000000000000000000000000000000202020202000000000000000000000000000000000000000300010300000000000000000000000000000000000000000000000000000000000000000000000000000000000000000000000000000000
310
00000000000000000000000000000000000000000000000000000000000000000000000000000000000000000000000000000000000000000000000000000000000000000000030301030303030303030303000000000303030303030103030000000000000000000000000000000000000000000003030103030300030303
310
03000003030303030000000000000000000000000000000000000000000000000000000000000000000000000000000000000000000000000000000000000000000000000000000000000000000000000000000000000000000000000000000000000000000000000000000000000000000000000000000000000003000100
310
00000003030303030303030303010303030301000300000000000000000000000000000003030303030303030001000003030303030303030303030303000000000000000000000000000000000000000000000000000000000000000000000000000000000000000000000000000000000000000000000000000000000000
310
00000000000000000000000000000000000000000000000000000000000000000000000000000000000000000000000000030301030303030300000100030304040101010101030103030000000000000000000000000000000403000000000003030103030300000001000000030303030300000000000000000000000000
310
00000000000000000000000000000000000000000000000000000000000000000000000000000000000000000000000000000000000000000000000000000000000000000000000000000000000000000000000000000000000000000000000000000000000000030000000000000000010003010404030103030101030300
310
00000000000000000000000000000004010100000000030000000303000000010000000300000303000000000000000000000000000000000000000000000000000000000000000000000000000000000000000000000000000000000000000000000000000000000000000000000000000000000000000000000000000000
310
00000000000000000000000000000000000000000000000000000000000300000000000000000103030103000301000303010103000000000000000000000000000000000303000000000003030303030303030303030303030303030300000000000000000000000000000000000000000000000000000000000000000000
310
00000000000000000000000000000000000000000000000000000000000000000000000000000000000000000000000000000000000000000000000000000000000000000000000000000000000000000000030000000000000000010301030003030103030303010300000000000000000000000000000000030300000000
310
00030000000303000000010000000300000303000000000000000000000000000000000000000000000000000000000000000000000000000000000000000000000000000000000000000000000000000000000000000000000000000000000000000000000000000000000000000000000000000000000000000000000000
310
00000000000000000300000000000000000103010303030301030303030303030000000000000000000000000000000303000000000003000000030300000001000000030000030300000000000000000000000000000000000000000000000000000000000000000000000000000000000000000000000000000000000000
310
00000000000000000000000000000000000000000000000000000000000000000000000000000000000000000000000000000000000000000000000000030000000000000000010304030303030101030301030303000000000000000000000000000001040301010101010301010103030101010101010103010103030100
310
00000000000000000000000000000000000000000000000000000000000000000000000000000000000000000000000000000000000000000000000000000000000000000000000000000000000000000000000000000000000000000000000000000000000000000000000000000000000003000000000000000001030403
310
03030301000303000304030000000000000000000000000000000303000000000003000000000000000001000000000000030300000000000000000000000000000000000000000000000000000000000000000000000000000000000000000000000000000000000000000000000000000000000000000000000000000000
310
00000000000000000000000000000000000000000000000000000000000000000000000000000000030000000000000000010301030303030103030303030303000000000000000000000000000000030300000000000300000000000000000100000000000003030000000000000000000000000000000000000000000000
310
00000000000000000000000000000000000000000000000000000000000000000000000000000000000000000000000000000000000000000000000000000000000000000000000000000000000000000000000000000000000000000003000000000000000001030101030303010303030301030300000000000000000000
310
00000000000303030303030303000000000000000001000000000000030300000000000000000000000000000000000000000000000000000000000000000000000000000000000000000000000000000000000000000000000000000000000000000000000000000000000000000000000000000000000000000000000000
310
00000000000000000000000000000000000000030001000000000000010303010303030100030301010303000000000000000000000000000000030303030303030301030303010303030303030301030301030000000000000000000000000000000000000000000000000000000000000000000000000000000000000000
310
00000000000000000000000000000000000000000000000000000000000000000000000000000000000000000000000000000000000000000000000000000000000000000000000003030103030303030303030303040403010303040103030303000000000000000000000000000003010103030303030303030301030303
310
03030303010303010300000000000000000000000000000000000000000000000000000000000000000000000000000000000000000000000000000000000000000000000000000000000000000000000000000000000000000000000000000000000000000000000000000000000000000000000000000000000000000303
310
04030303030303030303030101010101010103030303030303000000000000000000000000030103010101030303030303030303030303030301030301030000000000000000000000000000000000000000000000000000000000000000000000000000000000000000000000000000000000000000000000000000000000
310
00000000000000000000000000000000000000000000000000000000000000000000000000000000000000000000000000000000000300000000030303030000000303010303000000000303030300000000000000000000000003030303030303030303000003000303030300030100000103000000000000000000000000
310
00000000000000000000000000000000000000000000000000000000000000000000000000000000000000000000000000000000000000000000000000000000000000000000000000000000000000000000000000000000000000000000000000000000000000000000000000000003030303000000000001000000000000
310
03000000000000000000000000000000000300030303030300000000000003000103000000000000000000000000000000000000000000000000000000000000000000000000000000000000000000000000000000000000000000000000000000000000000000000000000000000000000000000000000000000000000000
310
00000000000000000000000000000000000000000000000000000000000000000000000000030303030303030303010303030303030300000000000000000000000000000000030303030303030000000000000300010300000000000000000000000000000000000000000000000000000000000000000000000000000000
310
00000000000000000000000000000000000000000000000000000000000000000000000000000000000000000000000000000000000000000000000000000000000000000000000000000000000000000000000000000000000003030303000000000001000000000000000000000000000000000000000000000000000000
310
00000000000000000003000103000000000000000000000000000000000000000000000000000000000000000000000000000000000000000000000000000000000000000000000000000000000000000000000000000000000000000000000000000000000000000000000000000000000000000000000000000000000000
310
00000000000000000000000000000000030303030000000000000000000000000000000000000000000000000000000000000000000000000000000000000300010300000000000000000000000000000000000000000000000000000000000000000000000000000000000000000000000000000000000000000000000000
310
00000000000000000000000000000000000000000000000000000000000000000000000000000000000000000000000000000000000000000000000000000000000000000003030303000000000000000000000000000000000000000000000000000000000000000000000000000000000000030001030000000000000000
310
00000000000000000000000000000000000000000000000000000000000000000000000000000000000000000000000000000000000000000000000000000000000000000000000000000000000000000000000000000000000000000000000000000000000000000000000000000000000000000000000000000303030300
310
00000000000000000000000000000000000000000000000000000000000000000000000000000000000303030300000000000000000000000000000000000000000000000000000000000000000000000000000000000000000000000000000000000000000000000000000000000000000000000000000000000000000000
310
00000000000000000000000000000000000000000000000000000000000000000000000000000000000000000000000000000100000000000000000000000000000000000000000000000000000000000000000000000000000000000000000001000000000000000000000000000000000000000000000000000000000000
310
00000000000000000000000000000000000000000000000000000000000000000000000000000000000000000000000000000000000000000000000000000000000000000000000000000000000000000000000000000000000000000000000000000000000000000000000000000000000000000000000000000000000000
310
00000000000000000000000000000000000000000000000000000000000000000000000000000000000000000000000000000000000000000000000000000000000000000000000000000000000000000000000000000000000000000000000000000000000000000000000000000000000000000000000000000000000000
310
00000000000000000000000000000000000000000000000000000000000000000000000000000000000000000000000000000000000000000000000000000000000000000000000000000000000000000000000000000000000000000000000000000000000000000000000000000000000000000000000000000000000000
310
00000000000000000000000000000000000000000000000000000000000000000000000000000000000000000000000000000000000000000000000000000000000000000000000000000000000000000000000000000000000000000000000000000000000000000000000000000000000000000000000000000000000000
310
00000000000000000000000000000000000000000000000000000000000000000000000000000000000000000000000000000000000000000000000000000000000000000000000000000000000000000000000000000000000000000000000000000000000000000000000000000000000000000000000000000000000000
310
00000000000000000000000000000000000000000000000000000000000000000000000000000000000000000000000000000000000000000000000000000000000000000000000000000000000000000000000000000000000000000000000000000000000000000000000000000000000000000000000000000000000000
310
00000000000000000000000000000000000000000000000000000000000000000000000000000000000000000000000000000000000000000000000000000000000000000000000000000000000000000000000000000000000000000000000000000000000000000000000000000000000000000000000000000000000000
310
00000000000000000000000000000000000000000000000000000000000000000000000000000000000000000000000000000000000000000000000000000000000000000000000000000000000000000000000000000000000000000000000000000000000000000000000000000000000000000000000000000000000000
310
00000000000000000000000000000000000000000000000000000000000000000000000000000000000000000000000000000000000000000000000000000000000000000000000000000000000000000000000000000000000000000000000000000000000000000000000000000000000000000000000000000000000000
310
00000000000000000000000000000000000000000000000000000000000000000000000000000000000000000000000000000000000000000000000000000000000000000000000000000000000000000000000000000000000000000000000000000000000000000000000000000000000000000000000000000000000000
310
00000000000000000000000000000000000000000000000000000000000000000000000000000000000000000000000000000000000000000000000000000000000000000000000000000000000000000000000000000000000000000000000000000000000000000000000000000000000000000000000000000000000000
310
00000000000000000000000000000000000000000000000000000000000000000000000000000000000000000000000000000000000000000000000000000000000000000000000000000000000000000000000000000000000000000000000000000000000000000000000000000000000000000000000000000000000000
310
00000000000000000000000000000000000000000000000000000000000000000000000000000000000000000000000000000000000000000000000000000000000000000000000000000000000000000000000000000000000000000000000000000000000000000000000000000000000000000000000000000000000000
310
00000000000000000000000000000000000000000000000000000000000000000000000000000000000000000000000000000000000000000000000000000000000000000000000000000000000000000000000000000000000000000000000000000000000000000000000000000000000000000000000000000000000000
310
00000000000000000000000000000000000000000000000000000000000000000000000000000000000000000000000000000000000000000000000000000000000000000000000000000000000000000000000000000000000000000000000000000000000000000000000000000000000000000000000000000000000000
310
00000000000000000000000000000000000000000000000000000000000000000000000000000000000000000000000000000000000000000000000000000000000000000000000000000000000000000000000000000000000000000000000000000000000000000000000000000000000000000000000000000000000000
310
00000000000000000000000000000000000000000000000000000000000000000000000000000000000000000000000000000000000000000000000000000000000000000000000000000000000000000000000000000000000000000000000000000000000000000000000000000000000000000000000000000000000000
310
00000000000000000000000000000000000000000000000000000000000000000000000000000000000000000000000000000000000000000000000000000000000000000000000000000000000000000000000000000000000000000000000000000000000000000000000100000001000000000000000000000000000000
310
00000000000000000000000000000000000000000000000000000000000000000000000000000000000000000000000000000000000000000000000000000000000000000000000000000000000000000000000000000000000000000000000000000000000000000000000000000000000000000000000000000000000000
310
00000000000000000000000000000000000000000000000000000000000000030301030303030303030303030000000000000000000000000000000000000000000000000000000000000000000000000000000000000000000000000000000000000000000000000000000000000000000000000000000000000000000000
310
00000000000000000000000000000000000000000000000000000000000000000000000000000000000000000000000000000000000000000000000000000000000000000000000000000000000000000000000003010103010303030301030303030000000000000000000000000000000000000000000000000000000000
310
00000000000000000000000000000000000000000000000000000000000000000000000000000000000000000000000000000000000000000000000000000000000000000000000000000000000000000000000000000000000000000000000000000000000000000000000000000000000000000000000000000000000000
310
00000000000000000000030000000000010000000000000300000000000000000000000000000000000000000000000000000000000000000000000000000000000000000000000000000000000000000000000000000000000000000000000000000000000000000000000000000000000000000000000000000000000000
310
00000000000000000000000000000000000000000000000000000000000000000000000000000000000000000000000000000000000000000000000000000003000000000001000000000000030303030000000000000000000000000000000000000000000000000000000000000000000000000000000000000000000000
310
00000000000000000000000000000000000000000000000000000000000000000000000000000000000000000000000000000000000000000000000000000000000000000000000000000000000000000000000000000000000000000000000000000000000000000000000000000000000000010101010101010101010101
310
01010103030300000000000000000000000000000000000000000000000000000000000000000000000000000000000000000000000000000000000000000000000000000000000000000000000000000000000000000000000000000000000000000000000000000000000000000000000000000000000000000000000000
310
00000000000000000000000000000000000000000000000000000000000000000000000000000000000003000000000001000000000000030300000000000000000000000000000000000000000000000000000000000000000000000000000000000000000000000000000000000000000000000000000000000000000000
310
00000000000000000000000000000000000000000000000000000000000000000000000000000000000000000000000000000000000000000000000000000000000000000000000000000000000000000000000000000000000000000000000300000000000100000000000003000000000000000000000000000000000000
310
00000000000000000000000000000000000000000000000000000000000000000000000000000000000000000000000000000000000000000000000000000000000000000000000000000000000000000000000000000000000000000000000000000000000000000000000000000000000000000000000000000000000000
310
00000000000000000000030303030303030303030103030303030303030303030303030000000000000000000000000000000000000000000000000000000000000000000000000000000000000000000000000000000000000000000000000000000000000000000000000000000000000000000000000000000000000000
310
00000000000000000000000000000000000000000000000000000000000000000000000000000000000000000000000000000000000000000000000000000003000100000003030104040101030000000100000003010003000000000000000000000000000000000000000000000000000000000000000000000000000000
310
00000000000000000000000000000000000000000000000000000000000000000000000000000000000000000000000000000000000000000000000000000000000000000000000000000000000000000000000000000000000000000000000000000000000000000000000000000000000000000303010103010101030301
310
03010101030001000000010101030000000000000000000000000000000000000000000000000000000000000000000000000000000000000000000000000000000000000000000000000000000000000000000000000000000000000000000000000000000000000000000000000000000000000000000000000000000000
310
00000000000000000000000000000000000000000000000000000000000000000000000000000000000003000103010103000000010000030101030100000003010303000000000000000000000000000000000000000000000000000000000000000000000000000000000000000000000000000000000000000000000000
310
00000000000000000000000000000000000000000000000000000000000000000000000000000000000000000000000000000000000000000000000000000000000000000000000000000000000000000000000000000000000000000000000300000101030000000001000000030101010000000300000300000000000000
310
00000000000000000000000000000000000000000000000000000000000000000000000000000000000000000000000000000000000000000000000000000000000000000000000000000000000000000000000000000000000000000000000000000000000000000000000000000000000000000000000000000000000000
310
00000000000000000000000000000000000000000003030104010003030303030303030003040100000003030303000000000000000000000000000000000000000000000000000000000000000000000000000000000000000000000000000000000000000000000000000000000000000000000000000000000000000000
310
00000000000000000000000000000000000000000000000000000000000000000000000000000000000000000000000000000000000000000000000000000000000000000000000000000000010100000303030303030303000003010300000300000000000000000000000000000000000000000000000000000000000000
310
00000000000000000000000000000000000000000000000000000000000000000000000000000000000000000000000000000000000000000000000000000000000000000000000000000000000000000000000000000000000000000000000000000000000000000000000000000000000000000000000000000000000000
310
00030103000003030303030303030000030103010303000000000000000000000000000000000000000000000000000000000000000000000000000000000000000000000000000000000000000000000000000000000000000000000000000000000000000000000000000000000000000000000000000000000000000000
310
00000000000000000000000000000000000000000000000000000000000000000000000000000000000000000000000000000000000003010300000303030303030303000003010301030300000000000000000000000000000000000000000000000000000000000000000000000000000000000000000000000000000000
310
00000000000000000000000000000000000000000000000000000000000000000000000000000000000000000000000000000000000000000000000000000000000000000000000000000000000000000000000000000000000000000000000000000000000000000000000301010101030303010103030301010101010103
310
03000000000000000000000000000000000000000000000000000000000000000000000000000000000000000000000000000000000000000000000000000000000000000000000000000000000000000000000000000000000000000000000000000000000000000000000000000000000000000000000000000000000000
310
00000000000000000000000000000000000000000000000000000000000000000003010300000303030303030303000003010301030300000000000000000000000000000000000000000000000000000000000000000000000000000000000000000000000000000000000000000000000000000000000000000000000000
310
00000000000000000000000000000000000000000000000000000000000000000000000000000000000000000000000000000000000000000000000000000000000000000000000000000000000000000000000000000001010000030303030303000300000301030000030000000000000000000000000000000000000000
310
00000000000000000000000000000000000000000000000000000000000000000000000000000000000000000000000000000000000000000000000000000000000000000000000000000000000000000000000000000000000000000000000000000000000000000000000000000000000000000000000000000000000000
310
00000000000000000000000000030401000303030303030303000004010000000300000000000000000000000000000000000000000000000000000000000000000000000000000000000000000000000000000000000000000000000000000000000000000000000000000000000000000000000000000000000000000000
310
00000000000000000000000000000000000000000000000000000000000000000000000000000000000000000000000000000000000000000000000000000000030301040103000000000100000000030401000000030303030000000000000000000000000000000000000000000000000000000000000000000000000000
310
00000000000000000000000000000000000000000000000000000000000000000000000000000000000000000000000000000000000000000000000000000000000000000000000000000000000000000000000000000000000000000000000000000000000000000000000000000000000000000003000103010103000000
310
01000000030103010000000301000300000000000000000000000000000000000000000000000000000000000000000000000000000000000000000000000000000000000000000000000000000000000000000000000000000000000000000000000000000000000000000000000000000000000000000000000000000000
310
00000000000000000000000000000000000000000000000000000000000000000000000000000000000000030303010301010303000103030101030001000000010101010000000000000000000000000000000000000000000000000000000000000000000000000000000000000000000000000000000000000000000000
310
00000000000000000000000000000000000000000000000000000000000000000000000000000000000000000000000000000000000000000000000000000000000000000000000000000000000000000000000000000000000000000000000003030300000301010104040101030303030303030303030303000000000000
310
00000000000000000000000000000000000000000000000000000000000000000000000000000000000000000000000000000000000000000000000000000000000000000000000000000000000000000000000000000000000000000000000000000000000000000000000000000000000000000000000000000000000000
310
00000000000000000000000000000000000000000000030303030303030303030403030303030303030303030303030000000000000000000000000000000000000000000000000000000000000000000000000000000000000000000000000000000000000000000000000000000000000000000000000000000000000000
310
00000000000000000000000000000000000000000000000000000000000000000000000000000000000000000000000000000000000000000000000000000000000000000000000000000000000000000000000000000000000000000000000000000000000000000000000000000000000000000000000000000000000000
310
00000000000000000000000000000000000000000000000000000000000000000000000000000000000000000000000000000000000000000000000000000000000000000000000000000000000000000000000000000000000000000000000000000000000000000000000000000000000000000000000000000000000000
310
00000000000000000000000000000000000000000000000000000000000000000000000000000000000000000000000000000000000000000000000000000000000000000000000000000000000000000000000000000000000000000000000000000000000000000000000000000000000000000000000000000000000000
310
00000000000000000000000000000000000000000000000000000000000000000000000000000000000000000000000000000000000000000000000000000000000000000000000000000000000000000000000000000000000000000000000000000000000000000000000000000000000000000000000000000000000000
310
00000000000000000000000000000000000000000000000000000000000000000000000000000000000000000000000000000000000000000000000000000000000000000000000000000000000000000000000000000000000000000000000000000000000000000000000000000000000000000000000000000000000000
310
00000000000000000000000000000000000000000000000000000000000000000000000000000000000000000000000000000000000000000000000000000000000000000000000000000000000000000000000000000000000000000000000000000000000000000000000000000000000000000000000000000000000000
310
00000000000000000000000000000000000000000000000000000000000000000000000000000000000000000000000000000000000000000000000000000000000000000000000000000000000000000000000000000000000000000000000000000000000000000000000000000000000000000000000000000000000000
310
00000000000000000000000000000000000000000000000000000000000000000000000000000000000000000000000000000000000000000000000000000000000000000000000000000000000000000000000000000000000000000000000000000000000000000000000000000000000000000000000000000000000000
310
00000000000000000000000000000000000000000000000000000000000000000000000000000000000000000000000000000000000000000000000000000000000000000000000000000000000000000000000000000000000000000000000000000000000000000000000000000000000000000000000000000000000000
310
00000000000000000000000000000000000000000000000000000000000000000000000000000000000000000000000000000000000000000000000000000000000000000000000000000000000000000000000000000000000000000000000000000000000000000000000000000000000000000000000000000000000000
310
00000000000000000000000000000000000000000000000000000000000000000000000000000000000000000000000000000000000000000000000000000000000000000000000000000000000000000000000000000000000000000000000000000000000000000000000000000000000000000000000000000000000000
310
00000000000000000000000000000000000000000000000000000000000000000000000000000000000000000000000000000000000000000000000000000000000000000000000000000000000000000000000000000000000000000000000000000000000000000000000000000000000000000000000000000000000000
310
00000000000000000000000000000000000000000000000000000000000000000000000000000000000000000000000000000000000000000000000000000000000000000000000000000000000000000000000000000000000000000000000000000000000000000000000000000000000000000000000000000000000000
310
00000000000000000000000000000000000000000000000000000000000000000000000000000000000000000000000000000000000000000000000000000000000000000000000000000000000000000000000000000000000000000000000000000000000000000000000000000000000000000000000000000000000000
310
00000000000000000000000000000000000000000000000000000000000000000000000000000000000000000000000000000000000000000000000000000000000000000000000000000000000000000000000000000000000000000000000000000000000000000000000000000000000000000000000000000000000000
310
00000000000000000000000000000000000000000000000000000000000000000000000000000000000000000000000000000000000000000000000000000000000000000000000000000000000000000000000000000000000000000000000000000000000000000000000000000000000000000000000000000000000000
310
00000000000000000000000000000000000000000000000000000000000000000000000000000000000000000000000000000000000000000000000000000000000000000000000000000000000000000000000000000000000000000000000000000000000000000000000000000000000000000000000000000000000000
310
00000000000000000000000000000000000000000000000000000000000000000000000000000000000000000000000000000000000000000000000000000000000000000000000000000000000000000000000000000000000000000000000000000000000000000000000000000000000000000000000000000000000000
310
000000000000000000000000000000000000000000000000000000000000000000000000000000000000000000000000000000000000000000000000000000000000000000000000000000000000000000000000000000000000000000000000000000000000000000000000
  0
ENDSEC
  0
EOF
