  0
SECTION
  2
HEADER
  9
$ACADVER
  1
AC1009
  9
$DWGCODEPAGE
  3
ansi_932
  9
$INSBASE
 10
0.0
 20
0.0
 30
0.0
  9
$EXTMIN
 10
283.3091553747704
 20
10.71654926133954
 30
0.0
  9
$EXTMAX
 10
2025.377834579387
 20
7827.222674703602
 30
0.0
  9
$LIMMIN
 10
0.0
 20
0.0
  9
$LIMMAX
 10
816.5000000000001
 20
565.0
  9
$ORTHOMODE
 70
     1
  9
$REGENMODE
 70
     1
  9
$FILLMODE
 70
     1
  9
$QTEXTMODE
 70
     0
  9
$MIRRTEXT
 70
     1
  9
$DRAGMODE
 70
     2
  9
$LTSCALE
 40
5.0
  9
$OSMODE
 70
    37
  9
$ATTMODE
 70
     1
  9
$TEXTSIZE
 40
15.0
  9
$TRACEWID
 40
0.05
  9
$TEXTSTYLE
  7
KANJI
  9
$CLAYER
  8
2
  9
$CELTYPE
  6
BYLAYER
  9
$CECOLOR
 62
   256
  9
$DIMSCALE
 40
5.0
  9
$DIMASZ
 40
2.0
  9
$DIMEXO
 40
0.5
  9
$DIMDLI
 40
0.0
  9
$DIMRND
 40
0.0
  9
$DIMDLE
 40
0.0
  9
$DIMEXE
 40
1.0
  9
$DIMTP
 40
0.0
  9
$DIMTM
 40
0.0
  9
$DIMTXT
 40
3.0
  9
$DIMCEN
 40
0.09
  9
$DIMTSZ
 40
0.0
  9
$DIMTOL
 70
     0
  9
$DIMLIM
 70
     0
  9
$DIMTIH
 70
     0
  9
$DIMTOH
 70
     0
  9
$DIMSE1
 70
     0
  9
$DIMSE2
 70
     0
  9
$DIMTAD
 70
     0
  9
$DIMZIN
 70
     8
  9
$DIMBLK
  1

  9
$DIMASO
 70
     0
  9
$DIMSHO
 70
     0
  9
$DIMPOST
  1

  9
$DIMAPOST
  1

  9
$DIMALT
 70
     0
  9
$DIMALTD
 70
     2
  9
$DIMALTF
 40
25.4
  9
$DIMLFAC
 40
1.0
  9
$DIMTOFL
 70
     1
  9
$DIMTVP
 40
1.0
  9
$DIMTIX
 70
     1
  9
$DIMSOXD
 70
     1
  9
$DIMSAH
 70
     0
  9
$DIMBLK1
  1

  9
$DIMBLK2
  1

  9
$DIMSTYLE
  2
STANDARD
  9
$DIMCLRD
 70
   256
  9
$DIMCLRE
 70
   256
  9
$DIMCLRT
 70
   256
  9
$DIMTFAC
 40
1.0
  9
$DIMGAP
 40
0.09
  9
$LUNITS
 70
     2
  9
$LUPREC
 70
     3
  9
$SKETCHINC
 40
0.1
  9
$FILLETRAD
 40
3.0
  9
$AUNITS
 70
     0
  9
$AUPREC
 70
     3
  9
$MENU
  1
C:\R13\WIN\SUPPORT\ACADFULL
  9
$ELEVATION
 40
0.0
  9
$PELEVATION
 40
0.0
  9
$THICKNESS
 40
0.0
  9
$LIMCHECK
 70
     0
  9
$CHAMFERA
 40
0.0
  9
$CHAMFERB
 40
0.0
  9
$SKPOLY
 70
     0
  9
$TDCREATE
 40
2457661.529530856
  9
$TDUPDATE
 40
2458124.545260313
  9
$TDINDWG
 40
0.0986768519
  9
$TDUSRTIMER
 40
0.0986757407
  9
$USRTIMER
 70
     1
  9
$ANGBASE
 50
0.0
  9
$ANGDIR
 70
     0
  9
$PDMODE
 70
     0
  9
$PDSIZE
 40
0.0
  9
$PLINEWID
 40
0.0
  9
$COORDS
 70
     1
  9
$SPLFRAME
 70
     0
  9
$SPLINETYPE
 70
     6
  9
$SPLINESEGS
 70
     8
  9
$ATTDIA
 70
     0
  9
$ATTREQ
 70
     1
  9
$HANDLING
 70
     1
  9
$HANDSEED
  5
1FE6
  9
$SURFTAB1
 70
     6
  9
$SURFTAB2
 70
     6
  9
$SURFTYPE
 70
     6
  9
$SURFU
 70
     6
  9
$SURFV
 70
     6
  9
$UCSNAME
  2

  9
$UCSORG
 10
0.0
 20
0.0
 30
0.0
  9
$UCSXDIR
 10
1.0
 20
0.0
 30
0.0
  9
$UCSYDIR
 10
0.0
 20
1.0
 30
0.0
  9
$PUCSNAME
  2

  9
$PUCSORG
 10
0.0
 20
0.0
 30
0.0
  9
$PUCSXDIR
 10
1.0
 20
0.0
 30
0.0
  9
$PUCSYDIR
 10
0.0
 20
1.0
 30
0.0
  9
$USERI1
 70
     0
  9
$USERI2
 70
     0
  9
$USERI3
 70
     0
  9
$USERI4
 70
     0
  9
$USERI5
 70
     0
  9
$USERR1
 40
0.0
  9
$USERR2
 40
0.0
  9
$USERR3
 40
0.0
  9
$USERR4
 40
2448925.372986111
  9
$USERR5
 40
0.04166667
  9
$WORLDVIEW
 70
     1
  9
$SHADEDGE
 70
     3
  9
$SHADEDIF
 70
    70
  9
$TILEMODE
 70
     1
  9
$MAXACTVP
 70
    16
  9
$PLIMCHECK
 70
     0
  9
$PEXTMIN
 10
1000000000000000E+20
 20
1000000000000000E+20
 30
1000000000000000E+20
  9
$PEXTMAX
 10
-1000000000000000E+20
 20
-1000000000000000E+20
 30
-1000000000000000E+20
  9
$PLIMMIN
 10
0.0
 20
0.0
  9
$PLIMMAX
 10
12.0
 20
9.0
  9
$UNITMODE
 70
     0
  9
$VISRETAIN
 70
     0
  9
$PLINEGEN
 70
     0
  9
$PSLTSCALE
 70
     0
  0
ENDSEC
  0
SECTION
  2
TABLES
  0
TABLE
  2
VPORT
 70
     1
  0
VPORT
  2
*ACTIVE
 70
     0
 10
0.0
 20
0.0
 11
1.0
 21
1.0
 12
1807.983106730777
 22
737.3365921803932
 13
0.0
 23
0.0
 14
1.0
 24
1.0
 15
50.0
 25
50.0
 16
0.0
 26
0.0
 36
1.0
 17
0.0
 27
0.0
 37
0.0
 40
2000.743710801561
 41
1.82716049382716
 42
50.0
 43
0.0
 44
0.0
 50
0.0
 51
0.0
 71
     0
 72
  5000
 73
     1
 74
     0
 75
     0
 76
     0
 77
     0
 78
     0
  0
ENDTAB
  0
TABLE
  2
LTYPE
 70
     4
  0
LTYPE
  2
CONTINUOUS
 70
     0
  3
Solid line
 72
    65
 73
     0
 40
0.0
  0
LTYPE
  2
CENTER
 70
     0
  3
Center ____ _ ____ _ ____ _ ____ _ ____ _ ____
 72
    65
 73
     4
 40
2.0
 49
1.25
 49
-0.25
 49
0.25
 49
-0.25
  0
LTYPE
  2
DASHDOT
 70
     0
  3
__ . __ . __ . __ . __ . __ . __ . __ . __ . __
 72
    65
 73
     4
 40
1.0
 49
0.5
 49
-0.25
 49
0.0
 49
-0.25
  0
LTYPE
  2
DASHED
 70
     0
  3
Dashed __ __ __ __ __ __ __ __ __ __ __ __ __ _
 72
    65
 73
     2
 40
0.75
 49
0.5
 49
-0.25
  0
ENDTAB
  0
TABLE
  2
LAYER
 70
     9
  0
LAYER
  2
0
 70
     0
 62
     7
  6
CONTINUOUS
  0
LAYER
  2
1
 70
     0
 62
     9
  6
CONTINUOUS
  0
LAYER
  2
2
 70
     0
 62
     4
  6
CONTINUOUS
  0
LAYER
  2
4
 70
     0
 62
     3
  6
CONTINUOUS
  0
LAYER
  2
L-CENTER
 70
     0
 62
     1
  6
CENTER
  0
LAYER
  2
3
 70
     0
 62
     2
  6
CONTINUOUS
  0
LAYER
  2
DEFPOINTS
 70
     0
 62
     7
  6
CONTINUOUS
  0
LAYER
  2
5
 70
     0
 62
     6
  6
CONTINUOUS
  0
LAYER
  2
CENTER
 70
     0
 62
     1
  6
CENTER
  0
ENDTAB
  0
TABLE
  2
STYLE
 70
     2
  0
STYLE
  2
STANDARD
 70
     0
 40
0.0
 41
1.0
 50
0.0
 71
     0
 42
9.0
  3
TXT
  4

  0
STYLE
  2
KANJI
 70
     0
 40
0.0
 41
1.0
 50
0.0
 71
     0
 42
15.0
  3
TXT
  4
BIGFONT
  0
ENDTAB
  0
TABLE
  2
VIEW
 70
     0
  0
ENDTAB
  0
TABLE
  2
UCS
 70
     0
  0
ENDTAB
  0
TABLE
  2
APPID
 70
     5
  0
APPID
  2
ACAD
 70
     0
  0
APPID
  2
ACAD_PSEXT
 70
     0
  0
APPID
  2
ACAD_NAV_VCDISPLAY
 70
     0
  0
APPID
  2
ACAD_EXEMPT_FROM_CAD_STAND
 70
     0
  0
APPID
  2
ACAD_MLEADERVER
 70
     0
  0
ENDTAB
  0
TABLE
  2
DIMSTYLE
 70
     1
  0
DIMSTYLE
  2
STANDARD
 70
     0
  3

  4

  5

  6

  7

 40
1.0
 41
0.18
 42
0.0625
 43
0.38
 44
0.18
 45
0.0
 46
0.0
 47
0.0
 48
0.0
140
0.18
141
0.09
142
0.0
143
25.4
144
1.0
145
0.0
146
1.0
147
0.09
 71
     0
 72
     0
 73
     1
 74
     1
 75
     0
 76
     0
 77
     0
 78
     0
170
     0
171
     2
172
     0
173
     0
174
     0
175
     0
176
     0
177
     0
178
     0
  0
ENDTAB
  0
ENDSEC
  0
SECTION
  2
BLOCKS
  0
BLOCK
  8
0
  2
$MODEL_SPACE
 70
     0
 10
0.0
 20
0.0
 30
0.0
  3
$MODEL_SPACE
  1

  0
ENDBLK
  5
9
  8
0
  0
BLOCK
 67
     1
  8
0
  2
$PAPER_SPACE
 70
     0
 10
0.0
 20
0.0
 30
0.0
  3
$PAPER_SPACE
  1

  0
ENDBLK
  5
E
 67
     1
  8
0
  0
ENDSEC
  0
SECTION
  2
ENTITIES
  0
LINE
  5
32
  8
4
 10
683.0323553747717
 20
497.7165492613394
 30
0.0
 11
683.0323553747717
 21
436.7164662613387
 31
0.0
  0
LINE
  5
33
  8
4
 10
425.0323553747712
 20
593.7165492613403
 30
0.0
 11
425.0323553747712
 21
436.7164662613387
 31
0.0
  0
LINE
  5
34
  8
4
 10
444.0323553747708
 20
596.7165492613403
 30
0.0
 11
444.0323553747708
 21
408.7165492613386
 31
0.0
  0
LINE
  5
35
  8
4
 10
673.0323553747717
 20
597.2165492613394
 30
0.0
 11
673.0323553747717
 21
436.7164662613387
 31
0.0
  0
LINE
  5
36
  8
4
 10
652.0323553747712
 20
601.5053562886249
 30
0.0
 11
652.0323553747712
 21
408.7165492613386
 31
0.0
  0
LINE
  5
37
  8
4
 10
450.0323553747712
 20
601.5053562886246
 30
0.0
 11
450.0323553747712
 21
408.7165492613386
 31
0.0
  0
LINE
  5
38
  8
4
 10
416.0323553747712
 20
436.7164662613387
 30
0.0
 11
416.0323553747712
 21
497.7165492613394
 31
0.0
  0
LINE
  5
3D
  8
L-CENTER
 10
551.0323553747712
 20
14.23200426133928
 30
0.0
 11
551.0323553747712
 21
676.3532692613389
 31
0.0
  0
LINE
  5
44
  8
L-CENTER
 10
850.5072217258939
 20
402.7165492613395
 30
0.0
 11
408.498758701144
 21
402.7165492613395
 31
0.0
  0
LINE
  5
9B
  8
4
 10
697.5320653747713
 20
420.7164662613387
 30
0.0
 11
672.5320653747713
 21
420.7164662613387
 31
0.0
  0
LINE
  5
9C
  8
4
 10
696.5320653747713
 20
420.7164662613387
 30
0.0
 11
672.5320653747713
 21
420.7164662613387
 31
0.0
  0
LINE
  5
9D
  8
4
 10
697.5320653747713
 20
436.7164662613387
 30
0.0
 11
672.5320653747713
 21
436.7164662613387
 31
0.0
  0
LINE
  5
9E
  8
4
 10
699.0320653747713
 20
435.7164662613387
 30
0.0
 11
671.0320653747713
 21
435.7164662613387
 31
0.0
  0
LINE
  5
9F
  8
4
 10
699.0320653747713
 20
433.7164662613387
 30
0.0
 11
671.0320653747713
 21
433.7164662613387
 31
0.0
  0
ARC
  5
A0
  8
4
 10
673.5320653747713
 20
415.2164662613387
 30
0.0
 40
5.5
 50
0.0
 51
90.96750600000075
  0
CIRCLE
  5
A1
  8
L-CENTER
 10
551.0323553747712
 20
192.7165492613395
 30
0.0
 40
149.0
  0
LINE
  5
A2
  8
4
 10
697.0323553747712
 20
408.7165492613386
 30
0.0
 11
405.0323553747712
 21
408.7165492613386
 31
0.0
  0
LINE
  5
A3
  8
L-CENTER
 10
283.3091553747709
 20
340.7165492613391
 30
0.0
 11
818.7555553747716
 21
340.7165492613391
 31
0.0
  0
LINE
  5
A4
  8
4
 10
691.0323553747712
 20
62.71654926133954
 30
0.0
 11
674.4938803747714
 21
84.76632426133995
 31
0.0
  0
LINE
  5
A6
  8
4
 10
376.0323553747712
 20
22.71654926133954
 30
0.0
 11
726.0323553747712
 21
22.71654926133954
 31
0.0
  0
LINE
  5
A7
  8
4
 10
651.0123553747717
 20
62.71654926133954
 30
0.0
 11
723.0323553747712
 21
62.71654926133954
 31
0.0
  0
LINE
  5
A8
  8
L-CENTER
 10
372.5478253747706
 20
192.7165492613395
 30
0.0
 11
729.5169003747715
 21
192.7165492613395
 31
0.0
  0
CIRCLE
  5
AA
  8
4
 10
551.0323553747712
 20
192.7165492613395
 30
0.0
 40
162.5
  0
CIRCLE
  5
AB
  8
4
 10
551.0323553747712
 20
192.7165492613395
 30
0.0
 40
164.0
  0
CIRCLE
  5
AC
  8
4
 10
551.0323553747712
 20
192.7165492613395
 30
0.0
 40
124.0
  0
LINE
  5
B1
  8
4
 10
379.0323553747712
 20
62.71654926133954
 30
0.0
 11
451.0523553747707
 21
62.71654926133954
 31
0.0
  0
LINE
  5
B2
  8
4
 10
376.0323553747712
 20
59.71654926133954
 30
0.0
 11
376.0323553747712
 21
22.71654926133954
 31
0.0
  0
LINE
  5
B3
  8
L-CENTER
 10
411.0323553747712
 20
74.71654926133954
 30
0.0
 11
411.0323553747712
 21
10.71654926133954
 31
0.0
  0
LINE
  5
B4
  8
4
 10
411.0323553747712
 20
62.71654926133954
 30
0.0
 11
427.570830374771
 21
84.76632426133995
 31
0.0
  0
LINE
  5
B5
  8
4
 10
482.5323553747712
 20
53.28645926133879
 30
0.0
 11
488.5323553747712
 21
63.6787642613391
 31
0.0
  0
LINE
  5
B6
  8
4
 10
488.5323553747712
 20
63.6787642613391
 30
0.0
 11
482.5323553747712
 21
74.0710692613394
 31
0.0
  0
CIRCLE
  5
B7
  8
4
 10
476.5323553747708
 20
63.6787642613391
 30
0.0
 40
10.392305
  0
LINE
  5
B8
  8
4
 10
470.5323553747717
 20
74.0710692613394
 30
0.0
 11
464.5323553747712
 21
63.6787642613391
 31
0.0
  0
LINE
  5
B9
  8
L-CENTER
 10
487.5419181216055
 20
82.74787891853111
 30
0.0
 11
465.5227932039646
 21
44.60964894381527
 31
0.0
  0
LINE
  5
BA
  8
4
 10
464.5323553747712
 20
63.6787642613391
 30
0.0
 11
470.5323553747717
 21
53.28645926133879
 31
0.0
  0
LINE
  5
BB
  8
4
 10
470.5323553747717
 20
53.28645926133879
 30
0.0
 11
482.5323553747712
 21
53.28645926133879
 31
0.0
  0
LINE
  5
BC
  8
4
 10
482.5323553747712
 20
74.0710692613394
 30
0.0
 11
470.5323553747717
 21
74.0710692613394
 31
0.0
  0
LINE
  5
BF
  8
4
 10
637.5323553747712
 20
63.6787642613391
 30
0.0
 11
631.5323553747708
 21
74.0710692613394
 31
0.0
  0
LINE
  5
C0
  8
4
 10
619.5323553747712
 20
74.0710692613394
 30
0.0
 11
613.5323553747712
 21
63.6787642613391
 31
0.0
  0
LINE
  5
C1
  8
L-CENTER
 10
614.522792627937
 20
82.74787891853111
 30
0.0
 11
636.5419175455778
 21
44.60964894381527
 31
0.0
  0
CIRCLE
  5
C2
  8
4
 10
625.5323553747717
 20
63.6787642613391
 30
0.0
 40
10.392305
  0
LINE
  5
C3
  8
4
 10
619.5323553747712
 20
53.28645926133879
 30
0.0
 11
631.5323553747708
 21
53.28645926133879
 31
0.0
  0
LINE
  5
C4
  8
4
 10
613.5323553747712
 20
63.6787642613391
 30
0.0
 11
619.5323553747712
 21
53.28645926133879
 31
0.0
  0
LINE
  5
C5
  8
4
 10
631.5323553747708
 20
53.28645926133879
 30
0.0
 11
637.5323553747712
 21
63.6787642613391
 31
0.0
  0
LINE
  5
C6
  8
4
 10
631.5323553747708
 20
74.0710692613394
 30
0.0
 11
619.5323553747712
 21
74.0710692613394
 31
0.0
  0
LINE
  5
C7
  8
4
 10
400.0323553747712
 20
405.7165492613391
 30
0.0
 11
400.0323553747712
 21
275.7165492613391
 31
0.0
  0
LINE
  5
C8
  8
4
 10
405.0323553747712
 20
408.7165492613386
 30
0.0
 11
405.0323553747712
 21
272.7165492613395
 31
0.0
  0
LINE
  5
C9
  8
4
 10
396.0323553747712
 20
203.1088542613398
 30
0.0
 11
390.0323553747712
 21
192.7165492613395
 31
0.0
  0
LINE
  5
CA
  8
4
 10
414.0323553747708
 20
192.7165492613395
 30
0.0
 11
408.0323553747717
 21
203.1088542613398
 31
0.0
  0
CIRCLE
  5
CB
  8
4
 10
402.0323553747712
 20
192.7165492613395
 30
0.0
 40
10.392305
  0
LINE
  5
CC
  8
4
 10
408.0323553747717
 20
182.3242442613392
 30
0.0
 11
414.0323553747708
 21
192.7165492613395
 31
0.0
  0
LINE
  5
CD
  8
4
 10
396.0323553747712
 20
182.3242442613392
 30
0.0
 11
408.0323553747717
 21
182.3242442613392
 31
0.0
  0
LINE
  5
CE
  8
4
 10
390.0323553747712
 20
192.7165492613395
 30
0.0
 11
396.0323553747712
 21
182.3242442613392
 31
0.0
  0
LINE
  5
CF
  8
4
 10
408.0323553747717
 20
203.1088542613398
 30
0.0
 11
396.0323553747712
 21
203.1088542613398
 31
0.0
  0
LINE
  5
D0
  8
4
 10
400.0323553747712
 20
275.7165492613391
 30
0.0
 11
405.0323553747712
 21
275.7165492613391
 31
0.0
  0
LINE
  5
D1
  8
4
 10
405.0323553747712
 20
272.7165492613395
 30
0.0
 11
407.8681153747712
 21
272.7165492613395
 31
0.0
  0
LINE
  5
D3
  8
4
 10
399.0323553747708
 20
380.7165492613391
 30
0.0
 11
399.0323553747708
 21
300.7165492613391
 31
0.0
  0
LINE
  5
D4
  8
4
 10
399.0323553747708
 20
300.7165492613391
 30
0.0
 11
400.0323553747712
 21
300.7165492613391
 31
0.0
  0
ARC
  5
D6
  8
4
 10
405.5320653747713
 20
415.2164662613387
 30
0.0
 40
5.5
 50
0.0
 51
90.96750600000075
  0
LINE
  5
D7
  8
4
 10
431.0320653747713
 20
433.7164662613387
 30
0.0
 11
403.0320653747713
 21
433.7164662613387
 31
0.0
  0
LINE
  5
D8
  8
4
 10
431.0320653747713
 20
435.7164662613387
 30
0.0
 11
403.0320653747713
 21
435.7164662613387
 31
0.0
  0
LINE
  5
D9
  8
4
 10
429.5320653747713
 20
436.7164662613387
 30
0.0
 11
404.5320653747713
 21
436.7164662613387
 31
0.0
  0
LINE
  5
DA
  8
4
 10
428.5320653747713
 20
420.7164662613387
 30
0.0
 11
404.5320653747713
 21
420.7164662613387
 31
0.0
  0
LINE
  5
DB
  8
4
 10
429.5320653747713
 20
420.7164662613387
 30
0.0
 11
404.5320653747713
 21
420.7164662613387
 31
0.0
  0
LINE
  5
DD
  8
4
 10
400.0323553747712
 20
405.7165492613391
 30
0.0
 11
405.0323553747712
 21
405.7165492613391
 31
0.0
  0
LINE
  5
DE
  8
4
 10
399.0323553747708
 20
380.7165492613391
 30
0.0
 11
400.0323553747712
 21
380.7165492613391
 31
0.0
  0
LINE
  5
E0
  8
4
 10
403.0320643747709
 20
435.7164662613387
 30
0.0
 11
403.0320653747713
 21
433.7164662613387
 31
0.0
  0
LINE
  5
E1
  8
4
 10
404.5320653747713
 20
436.7164662613387
 30
0.0
 11
403.0320653747713
 21
435.7164662613387
 31
0.0
  0
LINE
  5
E2
  8
4
 10
404.5320653747713
 20
433.7164662613387
 30
0.0
 11
404.5320653747713
 21
420.7164662613387
 31
0.0
  0
LINE
  5
E3
  8
4
 10
423.0320653747713
 20
415.6033872613385
 30
0.0
 11
423.0320653747713
 21
408.7164662613387
 31
0.0
  0
LINE
  5
E4
  8
4
 10
411.0320653747713
 20
415.2164662613387
 30
0.0
 11
411.0320653747713
 21
408.7164662613387
 31
0.0
  0
ARC
  5
E6
  8
4
 10
420.0322103747712
 20
404.4673362613386
 30
0.0
 40
9.249130000000001
 50
71.07445699999852
 51
108.9255430000015
  0
ARC
  5
E7
  8
4
 10
414.0325003747712
 20
404.4673362613386
 30
0.0
 40
9.249130000000001
 50
71.07445699999852
 51
108.9255430000015
  0
ARC
  5
E8
  8
4
 10
428.5320653747713
 20
415.2164662613387
 30
0.0
 40
5.5
 50
90.0
 51
180.0
  0
LINE
  5
E9
  8
4
 10
415.0323553747712
 20
457.7165492613395
 30
0.0
 11
416.0323553747712
 21
457.7165492613395
 31
0.0
  0
LINE
  5
EA
  8
4
 10
415.0323553747712
 20
436.7164662613387
 30
0.0
 11
415.0323553747712
 21
457.7165492613395
 31
0.0
  0
LINE
  5
EB
  8
4
 10
431.0320653747713
 20
435.7164662613387
 30
0.0
 11
431.0320653747713
 21
433.7164662613387
 31
0.0
  0
LINE
  5
EC
  8
4
 10
431.0320653747713
 20
435.7164662613387
 30
0.0
 11
429.5320653747713
 21
436.7164662613387
 31
0.0
  0
LINE
  5
ED
  8
4
 10
429.5320653747713
 20
433.7164662613387
 30
0.0
 11
429.5320653747713
 21
420.7164662613387
 31
0.0
  0
LINE
  5
EE
  8
4
 10
482.5323553747712
 20
311.3620292613397
 30
0.0
 11
488.5323553747712
 21
321.75433426134
 31
0.0
  0
LINE
  5
EF
  8
4
 10
488.5323553747712
 20
321.75433426134
 30
0.0
 11
482.5323553747712
 21
332.1466392613403
 31
0.0
  0
CIRCLE
  5
F0
  8
4
 10
476.5323553747708
 20
321.75433426134
 30
0.0
 40
10.392305
  0
LINE
  5
F1
  8
L-CENTER
 10
487.5419181216055
 20
302.685219604148
 30
0.0
 11
465.5227932039646
 21
340.8234495788638
 31
0.0
  0
LINE
  5
F2
  8
4
 10
470.5323553747717
 20
332.1466392613403
 30
0.0
 11
464.5323553747712
 21
321.75433426134
 31
0.0
  0
LINE
  5
F3
  8
4
 10
464.5323553747712
 20
321.75433426134
 30
0.0
 11
470.5323553747717
 21
311.3620292613397
 31
0.0
  0
LINE
  5
F4
  8
4
 10
470.5323553747717
 20
311.3620292613397
 30
0.0
 11
482.5323553747712
 21
311.3620292613397
 31
0.0
  0
LINE
  5
F5
  8
4
 10
482.5323553747712
 20
332.1466392613403
 30
0.0
 11
470.5323553747717
 21
332.1466392613403
 31
0.0
  0
LINE
  5
F6
  8
4
 10
566.6208103747708
 20
183.7165492613386
 30
0.0
 11
566.6208103747708
 21
201.7165492613404
 31
0.0
  0
LINE
  5
F7
  8
4
 10
535.4439003747716
 20
201.7165492613404
 30
0.0
 11
535.4439003747716
 21
183.7165492613386
 31
0.0
  0
CIRCLE
  5
F8
  8
4
 10
551.0323553747712
 20
192.7165492613395
 30
0.0
 40
18.0
  0
CIRCLE
  5
F9
  8
4
 10
551.0323553747712
 20
192.7165492613395
 30
0.0
 40
20.0
  0
LINE
  5
FA
  8
4
 10
551.0323553747712
 20
174.71654926134
 30
0.0
 11
566.6208103747708
 21
183.7165492613386
 31
0.0
  0
LINE
  5
FB
  8
4
 10
535.4439003747716
 20
183.7165492613386
 30
0.0
 11
551.0323553747712
 21
174.71654926134
 31
0.0
  0
LINE
  5
FC
  8
4
 10
566.6208103747708
 20
201.7165492613404
 30
0.0
 11
551.0323553747712
 21
210.7165492613391
 31
0.0
  0
LINE
  5
FD
  8
4
 10
551.0323553747712
 20
210.7165492613391
 30
0.0
 11
535.4439003747716
 21
201.7165492613404
 31
0.0
  0
LINE
  5
FE
  8
L-CENTER
 10
614.5227925569745
 20
302.6852194812375
 30
0.0
 11
636.5419174746153
 21
340.8234494559533
 31
0.0
  0
LINE
  5
FF
  8
4
 10
619.5323553747712
 20
332.1466392613403
 30
0.0
 11
613.5323553747712
 21
321.75433426134
 31
0.0
  0
LINE
  5
100
  8
4
 10
637.5323553747712
 20
321.75433426134
 30
0.0
 11
631.5323553747708
 21
332.1466392613403
 31
0.0
  0
CIRCLE
  5
101
  8
4
 10
625.5323553747717
 20
321.75433426134
 30
0.0
 40
10.392305
  0
LINE
  5
102
  8
4
 10
619.5323553747712
 20
311.3620292613397
 30
0.0
 11
631.5323553747708
 21
311.3620292613397
 31
0.0
  0
LINE
  5
103
  8
4
 10
613.5323553747712
 20
321.75433426134
 30
0.0
 11
619.5323553747712
 21
311.3620292613397
 31
0.0
  0
LINE
  5
104
  8
4
 10
631.5323553747708
 20
311.3620292613397
 30
0.0
 11
637.5323553747712
 21
321.75433426134
 31
0.0
  0
LINE
  5
105
  8
4
 10
631.5323553747708
 20
332.1466392613403
 30
0.0
 11
619.5323553747712
 21
332.1466392613403
 31
0.0
  0
LINE
  5
106
  8
4
 10
673.0323553747717
 20
420.7164662613387
 30
0.0
 11
673.0323553747717
 21
408.7165492613386
 31
0.0
  0
LINE
  5
107
  8
4
 10
672.5320653747713
 20
433.7164662613387
 30
0.0
 11
672.5320653747713
 21
420.7164662613387
 31
0.0
  0
LINE
  5
108
  8
4
 10
672.5320653747713
 20
436.7164662613387
 30
0.0
 11
671.0320653747713
 21
435.7164662613387
 31
0.0
  0
LINE
  5
109
  8
4
 10
671.0320643747709
 20
435.7164662613387
 30
0.0
 11
671.0320653747713
 21
433.7164662613387
 31
0.0
  0
TEXT
  5
111
  8
3
 10
856.7128190823861
 20
30.19194411491083
 30
0.0
 40
15.0
  1
LE7-08
  7
KANJI
 72
     1
 11
897.9628190823861
 21
30.19194411491083
 31
0.0
  0
LINE
  5
112
  8
4
 10
726.0323553747712
 20
59.71654926133954
 30
0.0
 11
726.0323553747712
 21
22.71654926133954
 31
0.0
  0
LINE
  5
113
  8
4
 10
703.0323553747717
 20
62.71654926133954
 30
0.0
 11
703.0323553747717
 21
22.71654926133954
 31
0.0
  0
LINE
  5
116
  8
L-CENTER
 10
691.0323553747712
 20
74.71654926133954
 30
0.0
 11
691.0323553747712
 21
10.71654926133954
 31
0.0
  0
LINE
  5
11F
  8
4
 10
702.0323553747712
 20
405.7165492613391
 30
0.0
 11
702.0323553747712
 21
275.7165492613391
 31
0.0
  0
LINE
  5
120
  8
4
 10
697.0323553747712
 20
408.7165492613386
 30
0.0
 11
697.0323553747712
 21
272.7165492613395
 31
0.0
  0
LINE
  5
121
  8
4
 10
712.0323553747712
 20
192.7165492613395
 30
0.0
 11
706.0323553747712
 21
203.1088542613398
 31
0.0
  0
LINE
  5
122
  8
4
 10
694.0323553747708
 20
203.1088542613398
 30
0.0
 11
688.0323553747717
 21
192.7165492613395
 31
0.0
  0
CIRCLE
  5
123
  8
4
 10
700.0323553747712
 20
192.7165492613395
 30
0.0
 40
10.392305
  0
LINE
  5
124
  8
4
 10
694.0323553747708
 20
182.3242442613392
 30
0.0
 11
706.0323553747712
 21
182.3242442613392
 31
0.0
  0
LINE
  5
125
  8
4
 10
688.0323553747717
 20
192.7165492613395
 30
0.0
 11
694.0323553747708
 21
182.3242442613392
 31
0.0
  0
LINE
  5
126
  8
4
 10
706.0323553747712
 20
182.3242442613392
 30
0.0
 11
712.0323553747712
 21
192.7165492613395
 31
0.0
  0
LINE
  5
127
  8
4
 10
706.0323553747712
 20
203.1088542613398
 30
0.0
 11
694.0323553747708
 21
203.1088542613398
 31
0.0
  0
LINE
  5
128
  8
4
 10
697.0323553747712
 20
275.7165492613391
 30
0.0
 11
702.0323553747712
 21
275.7165492613391
 31
0.0
  0
LINE
  5
129
  8
4
 10
694.1965953747713
 20
272.7165492613395
 30
0.0
 11
697.0323553747712
 21
272.7165492613395
 31
0.0
  0
LINE
  5
12B
  8
4
 10
731.0323553747712
 20
359.71654926134
 30
0.0
 11
810.0323553747703
 21
359.71654926134
 31
0.0
  0
LINE
  5
12C
  8
4
 10
736.0323553747712
 20
363.2165492613391
 30
0.0
 11
811.0323553747712
 21
363.2165492613391
 31
0.0
  0
LINE
  5
12D
  8
4
 10
731.0323553747712
 20
321.7165492613404
 30
0.0
 11
810.0323553747726
 21
321.7165492613404
 31
0.0
  0
LINE
  5
12F
  8
4
 10
703.0323553747717
 20
380.7165492613391
 30
0.0
 11
703.0323553747717
 21
300.7165492613391
 31
0.0
  0
LINE
  5
130
  8
4
 10
703.0323553747717
 20
360.7165492613391
 30
0.0
 11
731.0323553747712
 21
360.7165492613391
 31
0.0
  0
LINE
  5
131
  8
4
 10
703.0323553747717
 20
320.7165492613391
 30
0.0
 11
731.0323553747712
 21
320.7165492613391
 31
0.0
  0
LINE
  5
132
  8
4
 10
702.0323553747712
 20
300.7165492613391
 30
0.0
 11
703.0323553747717
 21
300.7165492613391
 31
0.0
  0
LINE
  5
133
  8
4
 10
731.0323553747712
 20
360.7165492613391
 30
0.0
 11
731.0323553747712
 21
320.7165492613391
 31
0.0
  0
LINE
  5
134
  8
4
 10
736.0323553747712
 20
363.2165492613391
 30
0.0
 11
736.0323553747712
 21
359.71654926134
 31
0.0
  0
LINE
  5
135
  8
4
 10
679.0320653747713
 20
415.2164662613387
 30
0.0
 11
679.0320653747713
 21
408.7164662613387
 31
0.0
  0
LINE
  5
136
  8
4
 10
691.0320653747713
 20
415.6033872613385
 30
0.0
 11
691.0320653747713
 21
408.7164662613387
 31
0.0
  0
LINE
  5
137
  8
L-CENTER
 10
685.0323553747712
 20
441.6517441217203
 30
0.0
 11
685.0323553747712
 21
381.9882074008076
 31
0.0
  0
LINE
  5
138
  8
4
 10
697.0323553747712
 20
405.7165492613391
 30
0.0
 11
702.0323553747712
 21
405.7165492613391
 31
0.0
  0
ARC
  5
139
  8
4
 10
682.0325003747712
 20
404.4673362613386
 30
0.0
 40
9.249130000000001
 50
71.07445699999852
 51
108.9255430000015
  0
ARC
  5
13A
  8
4
 10
688.0322103747712
 20
404.4673362613386
 30
0.0
 40
9.249130000000001
 50
71.07445699999852
 51
108.9255430000015
  0
LINE
  5
13B
  8
4
 10
702.0323553747712
 20
380.7165492613391
 30
0.0
 11
703.0323553747717
 21
380.7165492613391
 31
0.0
  0
LINE
  5
13C
  8
4
 10
699.0320653747713
 20
435.7164662613387
 30
0.0
 11
697.5320653747713
 21
436.7164662613387
 31
0.0
  0
LINE
  5
13D
  8
4
 10
697.5320653747713
 20
433.7164662613387
 30
0.0
 11
697.5320653747713
 21
420.7164662613387
 31
0.0
  0
ARC
  5
13E
  8
4
 10
696.5320653747713
 20
415.2164662613387
 30
0.0
 40
5.5
 50
90.0
 51
180.0
  0
LINE
  5
13F
  8
4
 10
699.0320653747713
 20
435.7164662613387
 30
0.0
 11
699.0320653747713
 21
433.7164662613387
 31
0.0
  0
LINE
  5
142
  8
4
 10
811.0323553747712
 20
363.2165492613391
 30
0.0
 11
811.0323553747712
 21
322.7165492613391
 31
0.0
  0
POLYLINE
  5
147
  8
1
 62
     1
 66
     1
 10
0.0
 20
0.0
 30
0.0
  0
VERTEX
  5
1FAB
  8
1
 62
     1
 10
1952.625662223648
 20
7635.607542063791
 30
0.0
  0
VERTEX
  5
1FAC
  8
1
 62
     1
 10
1966.482068684199
 20
7627.607542063791
 30
0.0
  0
VERTEX
  5
1FAD
  8
1
 62
     1
 10
1966.482068684199
 20
7643.607542063791
 30
0.0
  0
VERTEX
  5
1FAE
  8
1
 62
     1
 10
1952.625662223648
 20
7635.607542063791
 30
0.0
  0
SEQEND
  5
1FE2
  8
1
 62
     1
  0
TEXT
  5
148
  8
1
 62
     1
 10
1964.105921384315
 20
7634.740010485596
 30
0.0
 40
6.000000000000001
  1
1
 50
90.0
  7
KANJI
 72
     4
 11
1961.105921384315
 21
7635.740010485596
 31
0.0
  0
LINE
  5
14D
  8
L-CENTER
 10
407.4007095784282
 20
1394.400185667567
 30
0.0
 11
850.5072217258912
 21
1394.400185667567
 31
0.0
  0
LINE
  5
15D
  8
4
 10
413.0323553747717
 20
1202.172944331615
 30
0.0
 11
413.0323553747717
 21
1218.627427003519
 31
0.0
  0
ARC
  5
15E
  8
4
 10
426.828099509949
 20
1210.400185667567
 30
0.0
 40
13.7957441351769
 50
156.5734024913727
 51
203.4265975086273
  0
LINE
  5
15F
  8
4
 10
421.0323553747717
 20
1221.36984078217
 30
0.0
 11
421.0323553747717
 21
1199.430530552964
 31
0.0
  0
LINE
  5
160
  8
4
 10
424.0323553747717
 20
1221.36984078217
 30
0.0
 11
424.0323553747717
 21
1199.430530552964
 31
0.0
  0
LINE
  5
161
  8
4
 10
424.0323553747717
 20
1588.900185667566
 30
0.0
 11
424.0323553747717
 21
1199.900185667567
 31
0.0
  0
LINE
  5
162
  8
4
 10
443.7323553747715
 20
1591.900185667566
 30
0.0
 11
443.7323553747715
 21
1196.900185667567
 31
0.0
  0
LINE
  5
163
  8
L-CENTER
 10
691.0323553747708
 20
1218.489156363014
 30
0.0
 11
691.0323553747708
 21
1170.31121497212
 31
0.0
  0
LINE
  5
164
  8
4
 10
726.0323553747708
 20
1264.400185667568
 30
0.0
 11
726.0323553747717
 21
1124.400185667567
 31
0.0
  0
LINE
  5
165
  8
4
 10
444.0323553747717
 20
1591.900185667566
 30
0.0
 11
444.0323553747712
 21
1196.900185667567
 31
0.0
  0
LINE
  5
166
  8
4
 10
450.0323553747717
 20
1596.400185667566
 30
0.0
 11
450.0323553747708
 21
1189.400185667568
 31
0.0
  0
LINE
  5
167
  8
L-CENTER
 10
551.0323553747712
 20
1624.859296478158
 30
0.0
 11
551.0323553747708
 21
981.2394891039523
 31
0.0
  0
LINE
  5
168
  8
4
 10
673.0323553747712
 20
1588.900185667568
 30
0.0
 11
673.0323553747708
 21
1199.900185667567
 31
0.0
  0
LINE
  5
169
  8
4
 10
652.0323553747712
 20
1596.400185667566
 30
0.0
 11
652.0323553747708
 21
1189.400185667568
 31
0.0
  0
LINE
  5
16A
  8
L-CENTER
 10
411.0323553747708
 20
1218.489156363014
 30
0.0
 11
411.0323553747708
 21
1170.31121497212
 31
0.0
  0
LINE
  5
16B
  8
4
 10
376.0323553747712
 20
1264.400185667567
 30
0.0
 11
376.0323553747712
 21
1124.400185667567
 31
0.0
  0
CIRCLE
  5
16C
  8
4
 10
685.0323553747708
 20
1104.400185667567
 30
0.0
 40
14.0
  0
LINE
  5
16D
  8
4
 10
388.5323553747708
 20
1024.100185667566
 30
0.0
 11
713.5323553747708
 21
1024.100185667566
 31
0.0
  0
LINE
  5
16E
  8
4
 10
388.5323553747708
 20
1006.400185667567
 30
0.0
 11
713.5323553747708
 21
1006.400185667567
 31
0.0
  0
LINE
  5
16F
  8
4
 10
388.5323553747708
 20
1024.400185667567
 30
0.0
 11
713.5323553747708
 21
1024.400185667567
 31
0.0
  0
LINE
  5
170
  8
4
 10
650.0323553747708
 20
1172.400185667567
 30
0.0
 11
694.0323553747708
 21
1172.400185667567
 31
0.0
  0
LINE
  5
171
  8
L-CENTER
 10
715.1213260702176
 20
1194.400185667567
 30
0.0
 11
666.9433846793239
 21
1194.400185667567
 31
0.0
  0
LINE
  5
172
  8
4
 10
387.0323553747708
 20
1027.400185667567
 30
0.0
 11
715.0323553747708
 21
1027.400185667567
 31
0.0
  0
LINE
  5
173
  8
4
 10
388.5323553747708
 20
1024.400185667567
 30
0.0
 11
713.5323553747712
 21
1024.400185667567
 31
0.0
  0
LINE
  5
174
  8
4
 10
408.0323553747708
 20
1036.400185667567
 30
0.0
 11
694.0323553747708
 21
1036.400185667568
 31
0.0
  0
LINE
  5
175
  8
L-CENTER
 10
283.3091553747705
 20
1104.400185667567
 30
0.0
 11
818.7555553747716
 21
1104.400185667567
 31
0.0
  0
LINE
  5
177
  8
4
 10
683.0323553747717
 20
497.7165492613394
 30
0.0
 11
673.0323553747717
 21
502.7165492613394
 31
0.0
  0
ARC
  5
17A
  8
4
 10
551.0323553747712
 20
-892.2834507386605
 30
0.0
 40
1500.0
 50
90.559979
 51
93.75351016407745
  0
LINE
  5
17B
  8
L-CENTER
 10
410.4315154946671
 20
562.0652235576763
 30
0.0
 11
465.323313252379
 21
562.0652235576763
 31
0.0
  0
LINE
  5
17C
  8
4
 10
428.0323553747712
 20
596.7165492613403
 30
0.0
 11
450.0323553747712
 21
596.7165492613403
 31
0.0
  0
LINE
  5
17E
  8
4
 10
425.0323553747712
 20
502.7165492613394
 30
0.0
 11
416.0323553747712
 21
497.7165492613394
 31
0.0
  0
LINE
  5
17F
  8
4
 10
422.0323553747712
 20
551.0955684430733
 30
0.0
 11
422.0323553747712
 21
573.0348786722789
 31
0.0
  0
LINE
  5
180
  8
4
 10
425.0323553747712
 20
551.0955684430733
 30
0.0
 11
425.0323553747712
 21
573.0348786722789
 31
0.0
  0
ARC
  5
181
  8
4
 10
417.9077342500505
 20
553.8379822217239
 30
0.0
 40
3.875378875279244
 50
134.9559267627464
 51
225.0440732372536
  0
LINE
  5
182
  8
4
 10
414.0323553747712
 20
570.2924648936282
 30
0.0
 11
414.0323553747712
 21
553.8379822217239
 31
0.0
  0
ARC
  5
183
  8
4
 10
427.8280995099485
 20
562.0652235576763
 30
0.0
 40
13.7957441351769
 50
156.5734024913707
 51
203.4265975086273
  0
ARC
  5
184
  8
4
 10
417.9077342500505
 20
570.2924648936282
 30
0.0
 40
3.875378875279264
 50
134.9559267627464
 51
225.0440732372536
  0
LINE
  5
185
  8
4
 10
415.169536285398
 20
551.0955684430733
 30
0.0
 11
425.0323553747712
 21
551.0955684430733
 31
0.0
  0
LINE
  5
186
  8
4
 10
415.169536285398
 20
556.5803960003745
 30
0.0
 11
422.0323553747712
 21
556.5803960003745
 31
0.0
  0
LINE
  5
187
  8
4
 10
425.0323553747712
 20
573.0348786722789
 30
0.0
 11
415.169536285398
 21
573.0348786722789
 31
0.0
  0
LINE
  5
188
  8
4
 10
415.169536285398
 20
567.5500511149776
 30
0.0
 11
422.0323553747712
 21
567.5500511149776
 31
0.0
  0
LINE
  5
18A
  8
4
 10
544.7823553747712
 20
659.466549261339
 30
0.0
 11
544.7823553747712
 21
608.7165492613385
 31
0.0
  0
LINE
  5
18B
  8
4
 10
557.2823553747712
 20
659.466549261339
 30
0.0
 11
557.2823553747712
 21
608.7165492613385
 31
0.0
  0
ARC
  5
18C
  8
4
 10
551.0323553747712
 20
-892.2834507386605
 30
0.0
 40
1500.0
 50
86.24648983592256
 51
89.440021
  0
LINE
  5
18D
  8
4
 10
557.2823553747712
 20
623.216549261339
 30
0.0
 11
570.0323553747712
 21
623.216549261339
 31
0.0
  0
LINE
  5
18E
  8
4
 10
557.2823553747712
 20
618.216549261339
 30
0.0
 11
574.0323553747708
 21
618.216549261339
 31
0.0
  0
ARC
  5
18F
  8
4
 10
561.5269753747707
 20
613.9915092613401
 30
0.0
 40
3.0
 50
10.00000000000503
 51
83.44823099999586
  0
LINE
  5
190
  8
4
 10
571.0323553747712
 20
605.716549261339
 30
0.0
 11
531.0323553747712
 21
605.716549261339
 31
0.0
  0
ARC
  5
191
  8
4
 10
551.0323553747712
 20
638.216549261339
 30
0.0
 40
42.5
 50
241.9275130000001
 51
298.0724869999995
  0
LINE
  5
192
  8
4
 10
532.0323553747712
 20
623.216549261339
 30
0.0
 11
544.7823553747712
 21
623.216549261339
 31
0.0
  0
LINE
  5
193
  8
4
 10
528.0323553747717
 20
618.216549261339
 30
0.0
 11
544.7823553747712
 21
618.216549261339
 31
0.0
  0
LINE
  5
194
  8
4
 10
540.1954303747716
 20
616.9719192613402
 30
0.0
 11
544.7823553747712
 21
617.4987292613391
 31
0.0
  0
ARC
  5
195
  8
4
 10
543.2823553747712
 20
608.7165492613385
 30
0.0
 40
1.5
 50
270.0
 51
0.0
  0
LINE
  5
196
  8
4
 10
527.0323553747712
 20
612.7165492613394
 30
0.0
 11
527.0323553747712
 21
609.4914992613385
 31
0.0
  0
LINE
  5
197
  8
4
 10
528.0323553747717
 20
618.216549261339
 30
0.0
 11
528.0323553747717
 21
614.2165492613403
 31
0.0
  0
LINE
  5
198
  8
4
 10
531.0323553747712
 20
605.716549261339
 30
0.0
 11
531.0323553747712
 21
602.7165492613394
 31
0.0
  0
ARC
  5
199
  8
4
 10
529.0323553747708
 20
602.7165492613394
 30
0.0
 40
2.0
 50
270.0
 51
0.0
  0
LINE
  5
19A
  8
4
 10
527.0323553747712
 20
612.7165492613394
 30
0.0
 11
537.0903153747718
 21
612.7165492613394
 31
0.0
  0
LINE
  5
19B
  8
4
 10
536.0323553747712
 20
605.716549261339
 30
0.0
 11
537.5833103747714
 21
614.5124542613385
 31
0.0
  0
ARC
  5
19C
  8
4
 10
540.5377353747717
 20
613.9915092613401
 30
0.0
 40
3.0
 50
96.55176900000414
 51
169.999999999995
  0
ARC
  5
19D
  8
4
 10
525.0323553747712
 20
609.4914992613385
 30
0.0
 40
2.0
 50
270.991853999994
 51
0.0
  0
LINE
  5
19E
  8
4
 10
530.0323553747712
 20
614.2165492613403
 30
0.0
 11
530.0323553747712
 21
612.7165492613394
 31
0.0
  0
LINE
  5
19F
  8
4
 10
528.0323553747717
 20
614.2165492613403
 30
0.0
 11
537.0903153747718
 21
614.2165492613403
 31
0.0
  0
LINE
  5
1A0
  8
4
 10
532.0323553747712
 20
623.216549261339
 30
0.0
 11
532.0323553747712
 21
618.216549261339
 31
0.0
  0
LINE
  5
1A1
  8
4
 10
557.2823553747712
 20
617.4987292613391
 30
0.0
 11
561.8692803747708
 21
616.9719192613402
 31
0.0
  0
ARC
  5
1A2
  8
4
 10
558.7823553747712
 20
608.7165492613385
 30
0.0
 40
1.5
 50
180.0
 51
270.0
  0
LINE
  5
1A3
  8
4
 10
575.0323553747712
 20
612.7165492613394
 30
0.0
 11
575.0323553747712
 21
609.4914992613385
 31
0.0
  0
LINE
  5
1A4
  8
4
 10
574.0323553747708
 20
618.216549261339
 30
0.0
 11
574.0323553747708
 21
614.2165492613403
 31
0.0
  0
LINE
  5
1A5
  8
4
 10
571.0323553747712
 20
605.716549261339
 30
0.0
 11
571.0323553747712
 21
602.7165492613394
 31
0.0
  0
ARC
  5
1A6
  8
4
 10
573.0323553747717
 20
602.7165492613394
 30
0.0
 40
2.0
 50
180.0
 51
270.0
  0
LINE
  5
1A7
  8
4
 10
564.7980653747713
 20
612.7165492613394
 30
0.0
 11
575.0323553747712
 21
612.7165492613394
 31
0.0
  0
LINE
  5
1A8
  8
4
 10
566.0323553747712
 20
605.716549261339
 30
0.0
 11
564.481400374771
 21
614.5124542613385
 31
0.0
  0
ARC
  5
1A9
  8
4
 10
577.0323553747712
 20
609.4914992613385
 30
0.0
 40
2.0
 50
180.0
 51
269.008146000006
  0
LINE
  5
1AA
  8
4
 10
572.0323553747712
 20
614.2165492613403
 30
0.0
 11
572.0323553747712
 21
612.7165492613394
 31
0.0
  0
LINE
  5
1AB
  8
4
 10
564.7980653747713
 20
614.2165492613403
 30
0.0
 11
574.0323553747708
 21
614.2165492613403
 31
0.0
  0
LINE
  5
1AC
  8
4
 10
570.0323553747712
 20
623.216549261339
 30
0.0
 11
570.0323553747712
 21
618.216549261339
 31
0.0
  0
LINE
  5
1AD
  8
4
 10
652.0323553747712
 20
600.2165492613394
 30
0.0
 11
670.0323553747717
 21
600.2165492613394
 31
0.0
  0
ARC
  5
1AE
  8
4
 10
551.0323553747712
 20
659.466549261339
 30
0.0
 40
6.25
 50
0.0
 51
180.0
  0
LINE
  5
1B3
  8
4
 10
487.5020107773871
 20
1002.753220127305
 30
0.0
 11
531.0323553747708
 21
998.4001856675657
 31
0.0
  0
LINE
  5
1B4
  8
4
 10
450.0323553747708
 20
1189.400185667659
 30
0.0
 11
652.0323553747708
 21
1189.400185667567
 31
0.0
  0
LINE
  5
1B5
  8
4
 10
405.0323553747712
 20
1097.189083116639
 30
0.0
 11
405.0323553747708
 21
1039.400185667567
 31
0.0
  0
LINE
  5
1B6
  8
4
 10
400.0323553747717
 20
1169.400185667567
 30
0.0
 11
400.0323553747708
 21
1039.400185667567
 31
0.0
  0
LINE
  5
1B7
  8
4
 10
387.0323553747708
 20
1061.400185667567
 30
0.0
 11
387.0323553747708
 21
1027.400185667567
 31
0.0
  0
ARC
  5
1B8
  8
4
 10
410.2595967107227
 20
999.2755645428458
 30
0.0
 40
3.875378875279264
 50
224.955926762744
 51
315.044073237256
  0
LINE
  5
1B9
  8
4
 10
410.2595967107227
 20
995.4001856675666
 30
0.0
 11
393.8051140388184
 21
995.4001856675666
 31
0.0
  0
LINE
  5
1BA
  8
4
 10
391.0627002601677
 20
1006.400185667567
 30
0.0
 11
413.0020104893733
 21
1006.400185667567
 31
0.0
  0
LINE
  5
1BB
  8
4
 10
391.0627002601677
 20
1003.400185667567
 30
0.0
 11
413.0020104893733
 21
1003.400185667567
 31
0.0
  0
ARC
  5
1BD
  8
4
 10
402.0323553747708
 20
1009.195929802744
 30
0.0
 40
13.7957441351769
 50
246.5734024913693
 51
293.4265975086262
  0
ARC
  5
1BE
  8
4
 10
393.8051140388184
 20
999.2755645428458
 30
0.0
 40
3.875378875279244
 50
224.955926762744
 51
315.0440732372554
  0
LINE
  5
1BF
  8
4
 10
388.5323553747708
 20
1006.400185667567
 30
0.0
 11
388.5323553747708
 21
1027.400185667566
 31
0.0
  0
LINE
  5
1C0
  8
4
 10
388.5323553747708
 20
1027.400185667567
 30
0.0
 11
388.5323553747708
 21
1024.400185667567
 31
0.0
  0
LINE
  5
1C1
  8
4
 10
407.517182932072
 20
996.5373665781933
 30
0.0
 11
407.517182932072
 21
1003.400185667567
 31
0.0
  0
LINE
  5
1C2
  8
4
 10
396.547527817469
 20
996.5373665781933
 30
0.0
 11
396.547527817469
 21
1003.400185667567
 31
0.0
  0
LINE
  5
1C3
  8
4
 10
391.0627002601677
 20
996.5373665781933
 30
0.0
 11
391.0627002601677
 21
1006.400185667567
 31
0.0
  0
ARC
  5
1C4
  8
4
 10
408.0323553747712
 20
1039.400185667567
 30
0.0
 40
3.0
 50
180.0
 51
270.0
  0
LINE
  5
1C5
  8
4
 10
405.0323553747712
 20
1039.400185667567
 30
0.0
 11
400.0323553747712
 21
1039.400185667567
 31
0.0
  0
LINE
  5
1C6
  8
4
 10
413.0020104893733
 20
1006.400185667567
 30
0.0
 11
413.0020104893733
 21
996.5373665781933
 31
0.0
  0
ARC
  5
1C7
  8
4
 10
484.7595969987365
 20
999.2755645428458
 30
0.0
 40
3.875378875279264
 50
224.955926762744
 51
315.044073237256
  0
LINE
  5
1C8
  8
4
 10
465.5627005481815
 20
1006.400185667567
 30
0.0
 11
487.5020107773871
 21
1006.400185667567
 31
0.0
  0
LINE
  5
1C9
  8
4
 10
465.5627005481815
 20
1003.400185667567
 30
0.0
 11
487.5020107773871
 21
1003.400185667567
 31
0.0
  0
ARC
  5
1CA
  8
4
 10
468.3051143268322
 20
999.2755645428458
 30
0.0
 40
3.875378875279244
 50
224.955926762744
 51
315.0440732372554
  0
ARC
  5
1CB
  8
4
 10
476.5323556627845
 20
1009.195929802744
 30
0.0
 40
13.7957441351769
 50
246.5734024913737
 51
293.4265975086262
  0
LINE
  5
1CD
  8
4
 10
484.7595969987365
 20
995.4001856675666
 30
0.0
 11
468.3051143268322
 21
995.4001856675666
 31
0.0
  0
LINE
  5
1CE
  8
4
 10
465.5627005481815
 20
996.5373665781933
 30
0.0
 11
465.5627005481815
 21
1006.400185667567
 31
0.0
  0
LINE
  5
1CF
  8
4
 10
451.0323553747708
 20
1006.400185667567
 30
0.0
 11
465.5627005481815
 21
1004.947151150226
 31
0.0
  0
LINE
  5
1D0
  8
4
 10
471.0475281054828
 20
996.5373665781933
 30
0.0
 11
471.0475281054828
 21
1003.400185667567
 31
0.0
  0
LINE
  5
1D1
  8
4
 10
482.0171832200858
 20
996.5373665781933
 30
0.0
 11
482.0171832200858
 21
1003.400185667567
 31
0.0
  0
LINE
  5
1D2
  8
4
 10
487.5020107773871
 20
1006.400185667567
 30
0.0
 11
487.5020107773871
 21
996.5373665781933
 31
0.0
  0
LINE
  5
1D4
  8
4
 10
444.0323553747708
 20
1196.900185667567
 30
0.0
 11
450.0323553747712
 21
1196.900185667567
 31
0.0
  0
LINE
  5
1D5
  8
4
 10
408.0323553747717
 20
1172.400185667568
 30
0.0
 11
452.0323553747708
 21
1172.400185667567
 31
0.0
  0
LINE
  5
1D6
  8
4
 10
399.0323553747708
 20
1144.400185667567
 30
0.0
 11
399.0323553747708
 21
1064.400185667567
 31
0.0
  0
LINE
  5
1D7
  8
4
 10
405.0323553747717
 20
1169.400185667568
 30
0.0
 11
405.0323553747712
 21
1111.611288218496
 31
0.0
  0
CIRCLE
  5
1D8
  8
4
 10
417.0323553747708
 20
1104.400185667567
 30
0.0
 40
14.0
  0
LINE
  5
1D9
  8
4
 10
390.0323553747708
 20
1064.400185667567
 30
0.0
 11
400.0323553747712
 21
1064.400185667567
 31
0.0
  0
LINE
  5
1DA
  8
4
 10
399.0323553747708
 20
1064.400185667567
 30
0.0
 11
400.0323553747708
 21
1064.400185667567
 31
0.0
  0
LINE
  5
1DD
  8
L-CENTER
 10
417.0323553747708
 20
1128.861610667567
 30
0.0
 11
417.0323553747708
 21
1079.938760667567
 31
0.0
  0
LINE
  5
1DE
  8
L-CENTER
 10
386.9433846793239
 20
1194.400185667567
 30
0.0
 11
435.1213260702176
 21
1194.400185667567
 31
0.0
  0
ARC
  5
1DF
  8
4
 10
411.0323553747712
 20
1194.400185667567
 30
0.0
 40
11.0
 50
79.52431830360838
 51
27.21328109718123
  0
ARC
  5
1E0
  8
4
 10
408.0323553747717
 20
1169.400185667568
 30
0.0
 40
3.0
 50
90.0
 51
180.0
  0
LINE
  5
1E1
  8
4
 10
399.0323553747708
 20
1144.400185667567
 30
0.0
 11
400.0323553747708
 21
1144.400185667567
 31
0.0
  0
LINE
  5
1E2
  8
4
 10
405.0323553747712
 20
1169.400185667567
 30
0.0
 11
400.0323553747717
 21
1169.400185667567
 31
0.0
  0
LINE
  5
1E3
  8
4
 10
427.0323553747717
 20
1196.900185667567
 30
0.0
 11
443.7323553747715
 21
1196.900185667567
 31
0.0
  0
ARC
  5
1E4
  8
4
 10
416.9077342500509
 20
1202.172944331615
 30
0.0
 40
3.875378875279264
 50
134.9559267627559
 51
225.0440732372441
  0
LINE
  5
1E5
  8
4
 10
424.0323553747717
 20
1199.430530552964
 30
0.0
 11
414.1695362853984
 21
1199.430530552964
 31
0.0
  0
LINE
  5
1E6
  8
4
 10
414.1695362853984
 20
1204.915358110265
 30
0.0
 11
421.0323553747717
 21
1204.915358110265
 31
0.0
  0
ARC
  5
1E7
  8
4
 10
427.0323553747717
 20
1199.900185667567
 30
0.0
 40
3.0
 50
180.0
 51
270.0
  0
LINE
  5
1E8
  8
4
 10
452.0323553747708
 20
1189.400185667658
 30
0.0
 11
452.0323553747708
 21
1147.56869648434
 31
0.0
  0
LINE
  5
1E9
  8
4
 10
614.5626999721549
 20
1002.753220127305
 30
0.0
 11
571.0323553747708
 21
998.4001856675657
 31
0.0
  0
LINE
  5
1EA
  8
4
 10
533.0323553747717
 20
994.4001856675666
 30
0.0
 11
569.0323553747708
 21
994.4001856675666
 31
0.0
  0
ARC
  5
1EB
  8
4
 10
551.0323553747708
 20
1187.400185667566
 30
0.0
 40
200.0
 50
264.8363930000001
 51
275.163607
  0
LINE
  5
1EC
  8
4
 10
569.0323553747708
 20
992.4001856675657
 30
0.0
 11
533.0323553747717
 21
992.4001856675657
 31
0.0
  0
LINE
  5
1ED
  8
4
 10
571.0323553747708
 20
996.4001856675666
 30
0.0
 11
531.0323553747708
 21
996.4001856675666
 31
0.0
  0
LINE
  5
1EE
  8
4
 10
571.0323553747708
 20
998.4001856675657
 30
0.0
 11
531.0323553747708
 21
998.4001856675657
 31
0.0
  0
LINE
  5
1EF
  8
4
 10
533.0323553747717
 20
988.2118306675654
 30
0.0
 11
533.0323553747717
 21
996.4001856675666
 31
0.0
  0
LINE
  5
1F0
  8
4
 10
542.0323553747698
 20
987.6027906675661
 30
0.0
 11
542.0323553747698
 21
992.4001856675657
 31
0.0
  0
LINE
  5
1F1
  8
4
 10
560.0323553747717
 20
987.6027906675661
 30
0.0
 11
560.0323553747717
 21
992.4001856675657
 31
0.0
  0
LINE
  5
1F2
  8
4
 10
531.0323553747708
 20
996.4001856675666
 30
0.0
 11
531.0323553747708
 21
998.4001856675657
 31
0.0
  0
LINE
  5
1F3
  8
4
 10
569.0323553747708
 20
988.2118306675654
 30
0.0
 11
569.0323553747708
 21
996.4001856675666
 31
0.0
  0
LINE
  5
1F4
  8
4
 10
571.0323553747708
 20
996.4001856675666
 30
0.0
 11
571.0323553747708
 21
998.4001856675657
 31
0.0
  0
LINE
  5
1F5
  8
4
 10
651.0323553747708
 20
1006.400185667567
 30
0.0
 11
636.5020102013605
 21
1004.947151150226
 31
0.0
  0
ARC
  5
1F6
  8
4
 10
633.7595964227098
 20
999.2755645428458
 30
0.0
 40
3.875378875279244
 50
224.955926762744
 51
315.0440732372548
  0
ARC
  5
1F7
  8
4
 10
625.5323550867574
 20
1009.195929802744
 30
0.0
 40
13.7957441351769
 50
246.5734024913737
 51
293.4265975086262
  0
ARC
  5
1F8
  8
4
 10
617.3051137508055
 20
999.2755645428458
 30
0.0
 40
3.875378875279264
 50
224.955926762744
 51
315.044073237256
  0
LINE
  5
1FA
  8
4
 10
617.3051137508055
 20
995.4001856675666
 30
0.0
 11
633.7595964227098
 21
995.4001856675666
 31
0.0
  0
LINE
  5
1FB
  8
4
 10
636.5020102013605
 20
1003.400185667567
 30
0.0
 11
614.5626999721549
 21
1003.400185667567
 31
0.0
  0
LINE
  5
1FC
  8
4
 10
636.5020102013605
 20
1006.400185667567
 30
0.0
 11
614.5626999721549
 21
1006.400185667567
 31
0.0
  0
LINE
  5
1FD
  8
4
 10
614.5626999721549
 20
1006.400185667567
 30
0.0
 11
614.5626999721549
 21
996.5373665781933
 31
0.0
  0
LINE
  5
1FE
  8
4
 10
620.0475275294561
 20
996.5373665781933
 30
0.0
 11
620.0475275294561
 21
1003.400185667567
 31
0.0
  0
LINE
  5
1FF
  8
4
 10
636.5020102013605
 20
996.5373665781933
 30
0.0
 11
636.5020102013605
 21
1006.400185667567
 31
0.0
  0
LINE
  5
200
  8
4
 10
631.0171826440592
 20
996.5373665781933
 30
0.0
 11
631.0171826440592
 21
1003.400185667567
 31
0.0
  0
LINE
  5
201
  8
4
 10
650.0323553747708
 20
1189.400185667568
 30
0.0
 11
650.0323553747703
 21
1147.56869648434
 31
0.0
  0
LINE
  5
202
  8
4
 10
652.0323553747708
 20
1196.900185667567
 30
0.0
 11
670.0323553747708
 21
1196.900185667567
 31
0.0
  0
LINE
  5
207
  8
4
 10
697.0323553747708
 20
1097.189083116639
 30
0.0
 11
697.0323553747708
 21
1039.400185667568
 31
0.0
  0
LINE
  5
208
  8
4
 10
702.0323553747708
 20
1169.400185667567
 30
0.0
 11
702.0323553747708
 21
1039.400185667567
 31
0.0
  0
LINE
  5
209
  8
4
 10
715.0323553747708
 20
1061.400185667567
 30
0.0
 11
715.0323553747712
 21
1027.400185667567
 31
0.0
  0
ARC
  5
20A
  8
4
 10
708.2595967107236
 20
999.2755645428458
 30
0.0
 40
3.875378875279244
 50
224.955926762744
 51
315.0440732372548
  0
ARC
  5
20B
  8
4
 10
700.0323553747712
 20
1009.195929802744
 30
0.0
 40
13.7957441351769
 50
246.5734024913737
 51
293.4265975086304
  0
ARC
  5
20C
  8
4
 10
691.8051140388193
 20
999.2755645428458
 30
0.0
 40
3.875378875279264
 50
224.955926762744
 51
315.0440732372572
  0
LINE
  5
20E
  8
4
 10
691.8051140388193
 20
995.4001856675666
 30
0.0
 11
708.2595967107236
 21
995.4001856675666
 31
0.0
  0
LINE
  5
20F
  8
4
 10
711.0020104893742
 20
1003.400185667567
 30
0.0
 11
689.0627002601686
 21
1003.400185667567
 31
0.0
  0
LINE
  5
210
  8
4
 10
711.0020104893742
 20
1006.400185667567
 30
0.0
 11
689.0627002601686
 21
1006.400185667567
 31
0.0
  0
LINE
  5
211
  8
4
 10
688.0323553747717
 20
1006.400185667567
 30
0.0
 11
713.5323553747708
 21
1006.400185667567
 31
0.0
  0
LINE
  5
212
  8
4
 10
697.0323553747708
 20
1039.400185667567
 30
0.0
 11
702.0323553747708
 21
1039.400185667567
 31
0.0
  0
LINE
  5
213
  8
4
 10
689.0627002601686
 20
1006.400185667567
 30
0.0
 11
689.0627002601686
 21
996.5373665781933
 31
0.0
  0
LINE
  5
214
  8
4
 10
694.5475278174699
 20
996.5373665781933
 30
0.0
 11
694.5475278174699
 21
1003.400185667567
 31
0.0
  0
ARC
  5
215
  8
4
 10
694.0323553747708
 20
1039.400185667567
 30
0.0
 40
3.0
 50
270.0
 51
0.0
  0
LINE
  5
216
  8
4
 10
711.0020104893742
 20
996.5373665781933
 30
0.0
 11
711.0020104893742
 21
1006.400185667567
 31
0.0
  0
LINE
  5
217
  8
4
 10
705.517182932073
 20
996.5373665781933
 30
0.0
 11
705.517182932073
 21
1003.400185667567
 31
0.0
  0
LINE
  5
218
  8
4
 10
713.5323553747708
 20
1006.400185667567
 30
0.0
 11
713.5323553747708
 21
1027.400185667566
 31
0.0
  0
LINE
  5
219
  8
4
 10
713.5323553747712
 20
1027.400185667567
 30
0.0
 11
713.5323553747712
 21
1024.400185667567
 31
0.0
  0
LINE
  5
21A
  8
4
 10
732.0323553747712
 20
1123.400185667567
 30
0.0
 11
810.0323553747712
 21
1123.400185667567
 31
0.0
  0
LINE
  5
21B
  8
4
 10
732.0323553747712
 20
1085.400185667567
 30
0.0
 11
810.0323553747712
 21
1085.400185667567
 31
0.0
  0
LINE
  5
21C
  8
4
 10
741.0323553747712
 20
1109.400185667567
 30
0.0
 11
811.0323553747712
 21
1109.400185667567
 31
0.0
  0
LINE
  5
21D
  8
4
 10
741.0323553747712
 20
1099.400185667567
 30
0.0
 11
811.0323553747712
 21
1099.400185667567
 31
0.0
  0
LINE
  5
21E
  8
4
 10
703.0323553747717
 20
1144.400185667567
 30
0.0
 11
703.0323553747717
 21
1064.400185667567
 31
0.0
  0
LINE
  5
21F
  8
4
 10
697.0323553747708
 20
1169.400185667567
 30
0.0
 11
697.0323553747708
 21
1111.611288218496
 31
0.0
  0
LINE
  5
220
  8
4
 10
703.0323553747712
 20
1084.400185667567
 30
0.0
 11
731.0323553747712
 21
1084.400185667567
 31
0.0
  0
LINE
  5
221
  8
4
 10
703.0323553747712
 20
1124.400185667567
 30
0.0
 11
731.0323553747712
 21
1124.400185667567
 31
0.0
  0
LINE
  5
222
  8
4
 10
702.0323553747708
 20
1064.400185667567
 30
0.0
 11
703.0323553747717
 21
1064.400185667567
 31
0.0
  0
LINE
  5
223
  8
4
 10
702.0323553747708
 20
1064.400185667567
 30
0.0
 11
712.0323553747708
 21
1064.400185667567
 31
0.0
  0
LINE
  5
224
  8
L-CENTER
 10
685.0323553747708
 20
1128.861610667567
 30
0.0
 11
685.0323553747708
 21
1079.938760667567
 31
0.0
  0
ARC
  5
225
  8
4
 10
741.0323553747712
 20
1104.400185667567
 30
0.0
 40
5.0
 50
180.0
 51
270.0
  0
ARC
  5
226
  8
4
 10
741.0323553747712
 20
1104.400185667567
 30
0.0
 40
5.0
 50
90.0
 51
180.0
  0
LINE
  5
227
  8
4
 10
731.0323553747712
 20
1124.400185667567
 30
0.0
 11
731.0323553747712
 21
1084.400185667567
 31
0.0
  0
ARC
  5
228
  8
4
 10
732.0323553747712
 20
1084.400185667567
 30
0.0
 40
1.0
 50
90.0
 51
180.0
  0
ARC
  5
229
  8
4
 10
732.0323553747712
 20
1124.400185667567
 30
0.0
 40
1.0
 50
180.0
 51
270.0
  0
LINE
  5
22A
  8
4
 10
736.0323553747712
 20
1104.400185667567
 30
0.0
 11
736.0323553747712
 21
1104.400185667567
 31
0.0
  0
ARC
  5
22B
  8
4
 10
694.0323553747708
 20
1169.400185667567
 30
0.0
 40
3.0
 50
0.0
 51
90.0
  0
LINE
  5
22C
  8
4
 10
697.0323553747708
 20
1169.400185667567
 30
0.0
 11
702.0323553747708
 21
1169.400185667567
 31
0.0
  0
LINE
  5
22D
  8
4
 10
702.0323553747708
 20
1144.400185667567
 30
0.0
 11
703.0323553747717
 21
1144.400185667567
 31
0.0
  0
CIRCLE
  5
22E
  8
4
 10
691.0323553747712
 20
1194.400185667567
 30
0.0
 40
11.0
  0
LINE
  5
22F
  8
4
 10
811.0323553747712
 20
1122.400185667567
 30
0.0
 11
811.0323553747712
 21
1086.400185667567
 31
0.0
  0
LINE
  5
230
  8
4
 10
810.0323553747712
 20
1099.400185667567
 30
0.0
 11
810.0323553747712
 21
1085.400185667567
 31
0.0
  0
LINE
  5
231
  8
4
 10
811.0323553747712
 20
1086.400185667567
 30
0.0
 11
810.0323553747712
 21
1085.400185667567
 31
0.0
  0
LINE
  5
232
  8
4
 10
810.0323553747712
 20
1123.400185667567
 30
0.0
 11
810.0323553747712
 21
1109.400185667567
 31
0.0
  0
LINE
  5
233
  8
4
 10
810.0323553747712
 20
1123.400185667567
 30
0.0
 11
811.0323553747712
 21
1122.400185667567
 31
0.0
  0
LINE
  5
234
  8
4
 10
673.0323553747708
 20
1269.400185667568
 30
0.0
 11
721.0323553747708
 21
1269.400185667568
 31
0.0
  0
LINE
  5
235
  8
4
 10
673.0323553747708
 20
1295.554031821412
 30
0.0
 11
682.3913344540802
 21
1299.153639159608
 31
0.0
  0
LINE
  5
236
  8
4
 10
673.0323553747708
 20
1493.246339513721
 30
0.0
 11
682.3913344540802
 21
1489.646732175525
 31
0.0
  0
LINE
  5
237
  8
L-CENTER
 10
715.1213260702181
 20
1544.400185667566
 30
0.0
 11
666.9433846793244
 21
1544.400185667566
 31
0.0
  0
LINE
  5
238
  8
4
 10
652.0323553747712
 20
1594.400185667568
 30
0.0
 11
721.0323553747712
 21
1594.400185667568
 31
0.0
  0
LINE
  5
239
  8
4
 10
376.0323553747712
 20
1589.400185667566
 30
0.0
 11
376.0323553747708
 21
1449.400185667568
 31
0.0
  0
LINE
  5
23A
  8
L-CENTER
 10
411.0323553747712
 20
1568.489156363014
 30
0.0
 11
411.0323553747712
 21
1520.31121497212
 31
0.0
  0
LINE
  5
23B
  8
L-CENTER
 10
516.5350175305967
 20
1504.400185667566
 30
0.0
 11
585.5296932189458
 21
1504.400185667566
 31
0.0
  0
LINE
  5
23C
  8
L-CENTER
 10
516.5350175305966
 20
1284.400185667567
 30
0.0
 11
585.5296932189453
 21
1284.400185667567
 31
0.0
  0
LINE
  5
23E
  8
4
 10
415.0323553747717
 20
1475.430530552964
 30
0.0
 11
415.0323553747717
 21
1313.36984078217
 31
0.0
  0
LINE
  5
23F
  8
4
 10
414.0323553747717
 20
1449.400185667567
 30
0.0
 11
414.0323553747717
 21
1339.400185667567
 31
0.0
  0
LINE
  5
241
  8
4
 10
424.0323553747717
 20
1313.36984078217
 30
0.0
 11
424.0323553747717
 21
1291.430530552964
 31
0.0
  0
LINE
  5
242
  8
4
 10
421.0323553747717
 20
1313.36984078217
 30
0.0
 11
421.0323553747717
 21
1291.430530552964
 31
0.0
  0
ARC
  5
243
  8
4
 10
426.828099509949
 20
1302.400185667567
 30
0.0
 40
13.7957441351769
 50
156.5734024913727
 51
203.4265975086273
  0
LINE
  5
244
  8
4
 10
413.0323553747717
 20
1294.172944331615
 30
0.0
 11
413.0323553747717
 21
1310.62742700352
 31
0.0
  0
LINE
  5
245
  8
4
 10
381.0323553747712
 20
1269.400185667567
 30
0.0
 11
424.0323553747717
 21
1269.400185667567
 31
0.0
  0
ARC
  5
246
  8
4
 10
381.0323553747712
 20
1264.400185667567
 30
0.0
 40
5.0
 50
90.0
 51
180.0
  0
LINE
  5
247
  8
4
 10
414.1695362853984
 20
1215.885013224869
 30
0.0
 11
421.0323553747717
 21
1215.885013224869
 31
0.0
  0
LINE
  5
248
  8
4
 10
414.1695362853984
 20
1221.36984078217
 30
0.0
 11
424.0323553747717
 21
1221.36984078217
 31
0.0
  0
ARC
  5
249
  8
4
 10
416.9077342500509
 20
1218.627427003519
 30
0.0
 40
3.875378875279244
 50
134.9559267627559
 51
225.0440732372441
  0
LINE
  5
24A
  8
4
 10
414.1695362853984
 20
1296.915358110266
 30
0.0
 11
421.0323553747717
 21
1296.915358110266
 31
0.0
  0
LINE
  5
24B
  8
4
 10
424.0323553747717
 20
1291.430530552964
 30
0.0
 11
414.1695362853984
 21
1291.430530552964
 31
0.0
  0
ARC
  5
24C
  8
4
 10
416.9077342500509
 20
1294.172944331615
 30
0.0
 40
3.875378875279264
 50
134.9559267627375
 51
225.0440732372483
  0
ARC
  5
24F
  8
4
 10
416.9077342500509
 20
1310.62742700352
 30
0.0
 40
3.875378875279244
 50
134.9559267627517
 51
225.0440732372626
  0
LINE
  5
250
  8
4
 10
414.1695362853984
 20
1313.36984078217
 30
0.0
 11
424.0323553747717
 21
1313.36984078217
 31
0.0
  0
LINE
  5
251
  8
4
 10
414.1695362853984
 20
1307.885013224869
 30
0.0
 11
421.0323553747717
 21
1307.885013224869
 31
0.0
  0
LINE
  5
252
  8
4
 10
414.0323553747717
 20
1339.400185667567
 30
0.0
 11
415.0323553747721
 21
1339.400185667567
 31
0.0
  0
LINE
  5
254
  8
4
 10
421.0323553747717
 20
1475.430530552964
 30
0.0
 11
421.0323553747717
 21
1497.369840782169
 31
0.0
  0
LINE
  5
255
  8
4
 10
424.0323553747717
 20
1475.430530552964
 30
0.0
 11
424.0323553747717
 21
1497.369840782169
 31
0.0
  0
ARC
  5
256
  8
4
 10
416.9077342500509
 20
1478.172944331614
 30
0.0
 40
3.875378875279244
 50
134.9559267627375
 51
225.0440732372483
  0
LINE
  5
258
  8
4
 10
381.0323553747708
 20
1444.400185667568
 30
0.0
 11
414.0323553747717
 21
1444.400185667567
 31
0.0
  0
ARC
  5
259
  8
4
 10
381.0323553747708
 20
1449.400185667568
 30
0.0
 40
5.0
 50
180.0
 51
270.0
  0
LINE
  5
25B
  8
4
 10
414.1695362853984
 20
1475.430530552964
 30
0.0
 11
424.0323553747717
 21
1475.430530552964
 31
0.0
  0
LINE
  5
25C
  8
4
 10
414.0323553747717
 20
1449.400185667567
 30
0.0
 11
415.0323553747721
 21
1449.400185667567
 31
0.0
  0
LINE
  5
25D
  8
L-CENTER
 10
386.9433846793244
 20
1544.400185667567
 30
0.0
 11
435.1213260702181
 21
1544.400185667566
 31
0.0
  0
CIRCLE
  5
25E
  8
4
 10
411.0323553747712
 20
1544.400185667566
 30
0.0
 40
11.0
  0
LINE
  5
25F
  8
4
 10
413.0323553747717
 20
1494.627427003518
 30
0.0
 11
413.0323553747717
 21
1478.172944331614
 31
0.0
  0
ARC
  5
260
  8
4
 10
426.828099509949
 20
1486.400185667567
 30
0.0
 40
13.7957441351769
 50
156.5734024913727
 51
203.4265975086273
  0
ARC
  5
261
  8
4
 10
416.9077342500509
 20
1494.627427003518
 30
0.0
 40
3.875378875279264
 50
134.9559267627411
 51
225.0440732372483
  0
LINE
  5
262
  8
4
 10
414.1695362853984
 20
1480.915358110265
 30
0.0
 11
421.0323553747717
 21
1480.915358110265
 31
0.0
  0
LINE
  5
263
  8
4
 10
424.0323553747717
 20
1497.369840782169
 30
0.0
 11
414.1695362853984
 21
1497.369840782169
 31
0.0
  0
LINE
  5
264
  8
4
 10
414.1695362853984
 20
1491.885013224869
 30
0.0
 11
421.0323553747717
 21
1491.885013224869
 31
0.0
  0
POLYLINE
  5
265
  8
4
 66
     1
 10
0.0
 20
0.0
 30
0.0
 70
     1
  0
VERTEX
  5
1FAF
  8
4
 10
551.0323553747712
 20
1417.400185667567
 30
0.0
  0
VERTEX
  5
1FB0
  8
4
 10
531.1137710877288
 20
1405.900185667567
 30
0.0
  0
VERTEX
  5
1FB1
  8
4
 10
531.1137710877288
 20
1382.900185667567
 30
0.0
  0
VERTEX
  5
1FB2
  8
4
 10
551.0323553747712
 20
1371.400185667567
 30
0.0
  0
VERTEX
  5
1FB3
  8
4
 10
570.9509396618132
 20
1382.900185667567
 30
0.0
  0
VERTEX
  5
1FB4
  8
4
 10
570.9509396618132
 20
1405.900185667567
 30
0.0
  0
SEQEND
  5
1FE3
  8
4
  0
CIRCLE
  5
266
  8
4
 10
551.0323553747712
 20
1394.400185667567
 30
0.0
 40
23.0
  0
CIRCLE
  5
267
  8
4
 10
551.0323553747712
 20
1394.400185667567
 30
0.0
 40
25.0
  0
ARC
  5
268
  8
4
 10
551.0323553747712
 20
1284.400185667567
 30
0.0
 40
20.0
 50
288.209956864283
 51
71.79004313571733
  0
LINE
  5
269
  8
4
 10
557.2823553747712
 20
1260.650185667567
 30
0.0
 11
557.2823553747712
 21
1308.150185667567
 31
0.0
  0
LINE
  5
26A
  8
4
 10
544.7823553747712
 20
1260.650185667567
 30
0.0
 11
544.7823553747712
 21
1308.150185667567
 31
0.0
  0
ARC
  5
26B
  8
4
 10
551.0323553747712
 20
1284.400185667567
 30
0.0
 40
20.0
 50
108.2099568642827
 51
251.7900431357167
  0
ARC
  5
26C
  8
4
 10
551.0323553747712
 20
1284.400185667567
 30
0.0
 40
13.5
 50
297.5784679781241
 51
62.42153202187714
  0
ARC
  5
26D
  8
4
 10
551.0323553747712
 20
1284.400185667567
 30
0.0
 40
15.0
 50
294.6243183521654
 51
65.37568164783693
  0
ARC
  5
26E
  8
4
 10
551.0323553747712
 20
1260.650185667567
 30
0.0
 40
6.25
 50
180.0
 51
0.0
  0
ARC
  5
26F
  8
4
 10
551.0323553747712
 20
1284.400185667567
 30
0.0
 40
15.0
 50
114.6243183521631
 51
245.3756816478342
  0
ARC
  5
270
  8
4
 10
551.0323553747712
 20
1284.400185667567
 30
0.0
 40
13.5
 50
117.5784679781229
 51
242.4215320218759
  0
ARC
  5
271
  8
4
 10
551.0323553747712
 20
1308.150185667567
 30
0.0
 40
6.25
 50
0.0
 51
180.0
  0
ARC
  5
272
  8
4
 10
551.0323553747712
 20
1480.650185667567
 30
0.0
 40
6.25
 50
180.0
 51
0.0
  0
ARC
  5
273
  8
4
 10
551.0323553747712
 20
1504.400185667566
 30
0.0
 40
13.5
 50
297.5784679781259
 51
62.42153202187799
  0
ARC
  5
274
  8
4
 10
551.0323553747712
 20
1504.400185667566
 30
0.0
 40
15.0
 50
294.6243183521673
 51
65.37568164783768
  0
ARC
  5
275
  8
4
 10
551.0323553747712
 20
1504.400185667566
 30
0.0
 40
20.0
 50
288.209956864283
 51
71.79004313571784
  0
ARC
  5
276
  8
4
 10
551.0323553747712
 20
1504.400185667566
 30
0.0
 40
20.0
 50
108.2099568642822
 51
251.7900431357167
  0
LINE
  5
277
  8
4
 10
557.2823553747712
 20
1480.650185667567
 30
0.0
 11
557.2823553747712
 21
1528.150185667566
 31
0.0
  0
LINE
  5
278
  8
4
 10
544.7823553747712
 20
1480.650185667567
 30
0.0
 11
544.7823553747712
 21
1528.150185667566
 31
0.0
  0
ARC
  5
279
  8
4
 10
551.0323553747712
 20
1504.400185667566
 30
0.0
 40
15.0
 50
114.6243183521615
 51
245.3756816478369
  0
ARC
  5
27A
  8
4
 10
551.0323553747712
 20
1504.400185667566
 30
0.0
 40
13.5
 50
117.578467978119
 51
242.4215320218763
  0
ARC
  5
27B
  8
4
 10
551.0323553747712
 20
1528.150185667566
 30
0.0
 40
6.25
 50
0.0
 51
180.0
  0
ARC
  5
27C
  8
4
 10
523.0095967107236
 20
1624.824806792288
 30
0.0
 40
3.875378875279244
 50
44.955926762744
 51
135.044073237256
  0
LINE
  5
27D
  8
4
 10
525.7520104893742
 20
1617.700185667567
 30
0.0
 11
503.8127002601686
 21
1617.700185667567
 31
0.0
  0
LINE
  5
27E
  8
4
 10
525.7520104893742
 20
1620.700185667567
 30
0.0
 11
503.8127002601686
 21
1620.700185667567
 31
0.0
  0
LINE
  5
27F
  8
4
 10
466.0323553747712
 20
1599.700185667567
 30
0.0
 11
636.0323553747712
 21
1599.700185667567
 31
0.0
  0
LINE
  5
280
  8
4
 10
468.0323553747712
 20
1617.700185667567
 30
0.0
 11
634.0323553747712
 21
1617.700185667567
 31
0.0
  0
LINE
  5
281
  8
4
 10
453.0323553747717
 20
1599.400185667566
 30
0.0
 11
649.0323553747712
 21
1599.400185667566
 31
0.0
  0
LINE
  5
283
  8
4
 10
444.0323553747717
 20
1591.900185667566
 30
0.0
 11
450.0323553747717
 21
1591.900185667566
 31
0.0
  0
LINE
  5
284
  8
4
 10
381.0323553747712
 20
1594.400185667566
 30
0.0
 11
450.0323553747717
 21
1594.400185667566
 31
0.0
  0
ARC
  5
285
  8
4
 10
381.0323553747712
 20
1589.400185667566
 30
0.0
 40
5.0
 50
90.0
 51
180.0
  0
LINE
  5
286
  8
4
 10
427.0323553747717
 20
1591.900185667566
 30
0.0
 11
443.7323553747715
 21
1591.900185667566
 31
0.0
  0
LINE
  5
287
  8
4
 10
414.1695362853984
 20
1583.885013224869
 30
0.0
 11
421.0323553747717
 21
1583.885013224869
 31
0.0
  0
LINE
  5
288
  8
4
 10
424.0323553747717
 20
1589.36984078217
 30
0.0
 11
414.1695362853984
 21
1589.36984078217
 31
0.0
  0
LINE
  5
289
  8
4
 10
414.1695362853984
 20
1572.915358110265
 30
0.0
 11
421.0323553747717
 21
1572.915358110265
 31
0.0
  0
LINE
  5
28A
  8
4
 10
414.1695362853984
 20
1567.430530552964
 30
0.0
 11
424.0323553747717
 21
1567.430530552964
 31
0.0
  0
ARC
  5
28B
  8
4
 10
416.9077342500509
 20
1586.627427003519
 30
0.0
 40
3.875378875279264
 50
134.9559267627559
 51
225.0440732372441
  0
ARC
  5
28C
  8
4
 10
426.828099509949
 20
1578.400185667567
 30
0.0
 40
13.7957441351769
 50
156.5734024913727
 51
203.4265975086273
  0
LINE
  5
28D
  8
4
 10
413.0323553747717
 20
1586.627427003519
 30
0.0
 11
413.0323553747717
 21
1570.172944331615
 31
0.0
  0
ARC
  5
28E
  8
4
 10
416.9077342500509
 20
1570.172944331615
 30
0.0
 40
3.875378875279244
 50
134.9559267627559
 51
225.0440732372548
  0
LINE
  5
28F
  8
4
 10
424.0323553747717
 20
1567.430530552964
 30
0.0
 11
424.0323553747717
 21
1589.36984078217
 31
0.0
  0
LINE
  5
290
  8
4
 10
421.0323553747717
 20
1567.430530552964
 30
0.0
 11
421.0323553747717
 21
1589.36984078217
 31
0.0
  0
ARC
  5
291
  8
4
 10
427.0323553747717
 20
1588.900185667566
 30
0.0
 40
3.0
 50
90.0
 51
180.0
  0
ARC
  5
292
  8
4
 10
486.7595967107236
 20
1624.824806792288
 30
0.0
 40
3.875378875279244
 50
44.955926762744
 51
135.044073237256
  0
LINE
  5
293
  8
4
 10
470.3051140388193
 20
1628.700185667567
 30
0.0
 11
486.7595967107236
 21
1628.700185667567
 31
0.0
  0
LINE
  5
294
  8
4
 10
489.5020104893742
 20
1620.700185667567
 30
0.0
 11
467.5627002601686
 21
1620.700185667567
 31
0.0
  0
LINE
  5
295
  8
4
 10
489.5020104893742
 20
1617.700185667567
 30
0.0
 11
467.5627002601686
 21
1617.700185667567
 31
0.0
  0
LINE
  5
297
  8
4
 10
466.0323553747712
 20
1615.700185667567
 30
0.0
 11
466.0323553747712
 21
1599.400185667566
 31
0.0
  0
ARC
  5
298
  8
4
 10
468.0323553747712
 20
1615.700185667567
 30
0.0
 40
2.0
 50
90.0
 51
180.0
  0
ARC
  5
299
  8
4
 10
470.3051140388193
 20
1624.824806792288
 30
0.0
 40
3.875378875279264
 50
44.955926762744
 51
135.044073237256
  0
ARC
  5
29A
  8
4
 10
478.5323553747712
 20
1614.90444153239
 30
0.0
 40
13.7957441351769
 50
66.57340249137434
 51
113.4265975086294
  0
LINE
  5
29B
  8
4
 10
484.017182932073
 20
1627.56300475694
 30
0.0
 11
484.017182932073
 21
1620.700185667567
 31
0.0
  0
LINE
  5
29C
  8
4
 10
467.5627002601686
 20
1617.700185667567
 30
0.0
 11
467.5627002601686
 21
1627.56300475694
 31
0.0
  0
LINE
  5
29D
  8
4
 10
473.0475278174699
 20
1627.56300475694
 30
0.0
 11
473.0475278174699
 21
1620.700185667567
 31
0.0
  0
ARC
  5
29F
  8
4
 10
506.5551140388193
 20
1624.824806792288
 30
0.0
 40
3.875378875279264
 50
44.955926762744
 51
135.044073237256
  0
LINE
  5
2A0
  8
4
 10
489.5020104893742
 20
1627.56300475694
 30
0.0
 11
489.5020104893742
 21
1617.700185667567
 31
0.0
  0
LINE
  5
2A1
  8
4
 10
503.8127002601686
 20
1617.700185667567
 30
0.0
 11
503.8127002601686
 21
1627.56300475694
 31
0.0
  0
ARC
  5
2A2
  8
4
 10
514.7823553747712
 20
1614.90444153239
 30
0.0
 40
13.7957441351769
 50
66.57340249137455
 51
113.4265975086292
  0
LINE
  5
2A3
  8
4
 10
506.5551140388193
 20
1628.700185667567
 30
0.0
 11
523.0095967107236
 21
1628.700185667567
 31
0.0
  0
LINE
  5
2A4
  8
4
 10
509.2975278174699
 20
1627.56300475694
 30
0.0
 11
509.2975278174699
 21
1620.700185667567
 31
0.0
  0
LINE
  5
2A5
  8
4
 10
520.267182932073
 20
1627.56300475694
 30
0.0
 11
520.267182932073
 21
1620.700185667567
 31
0.0
  0
LINE
  5
2A6
  8
4
 10
525.7520104893742
 20
1627.56300475694
 30
0.0
 11
525.7520104893742
 21
1617.700185667567
 31
0.0
  0
LINE
  5
2A8
  8
4
 10
595.5095967107231
 20
1628.700185667567
 30
0.0
 11
579.0551140388188
 21
1628.700185667567
 31
0.0
  0
ARC
  5
2A9
  8
4
 10
587.2823553747712
 20
1614.90444153239
 30
0.0
 40
13.7957441351769
 50
66.57340249137077
 51
113.4265975086254
  0
LINE
  5
2AA
  8
4
 10
576.3127002601682
 20
1620.700185667567
 30
0.0
 11
598.2520104893738
 21
1620.700185667567
 31
0.0
  0
LINE
  5
2AB
  8
4
 10
576.3127002601682
 20
1617.700185667567
 30
0.0
 11
598.2520104893738
 21
1617.700185667567
 31
0.0
  0
ARC
  5
2AC
  8
4
 10
579.0551140388188
 20
1624.824806792288
 30
0.0
 40
3.875378875279244
 50
44.955926762744
 51
135.044073237256
  0
LINE
  5
2AD
  8
4
 10
576.3127002601682
 20
1627.56300475694
 30
0.0
 11
576.3127002601682
 21
1617.700185667567
 31
0.0
  0
LINE
  5
2AE
  8
4
 10
581.7975278174695
 20
1627.56300475694
 30
0.0
 11
581.7975278174695
 21
1620.700185667567
 31
0.0
  0
ARC
  5
2AF
  8
4
 10
595.5095967107231
 20
1624.824806792288
 30
0.0
 40
3.875378875279264
 50
44.95592676274281
 51
135.044073237256
  0
LINE
  5
2B0
  8
4
 10
598.2520104893738
 20
1617.700185667567
 30
0.0
 11
598.2520104893738
 21
1627.56300475694
 31
0.0
  0
LINE
  5
2B1
  8
4
 10
592.7671829320725
 20
1627.56300475694
 30
0.0
 11
592.7671829320725
 21
1620.700185667567
 31
0.0
  0
LINE
  5
2B3
  8
4
 10
636.0323553747712
 20
1615.700185667567
 30
0.0
 11
636.0323553747712
 21
1599.400185667566
 31
0.0
  0
ARC
  5
2B4
  8
4
 10
623.5323553747712
 20
1614.90444153239
 30
0.0
 40
13.7957441351769
 50
66.57340249137077
 51
113.4265975086254
  0
LINE
  5
2B5
  8
4
 10
631.7595967107231
 20
1628.700185667567
 30
0.0
 11
615.3051140388188
 21
1628.700185667567
 31
0.0
  0
LINE
  5
2B6
  8
4
 10
612.5627002601682
 20
1617.700185667567
 30
0.0
 11
634.5020104893738
 21
1617.700185667567
 31
0.0
  0
LINE
  5
2B7
  8
4
 10
612.5627002601682
 20
1620.700185667567
 30
0.0
 11
634.5020104893738
 21
1620.700185667567
 31
0.0
  0
ARC
  5
2B8
  8
4
 10
615.3051140388188
 20
1624.824806792288
 30
0.0
 40
3.875378875279244
 50
44.955926762744
 51
135.044073237256
  0
LINE
  5
2B9
  8
4
 10
618.0475278174695
 20
1627.56300475694
 30
0.0
 11
618.0475278174695
 21
1620.700185667567
 31
0.0
  0
LINE
  5
2BA
  8
4
 10
612.5627002601682
 20
1627.56300475694
 30
0.0
 11
612.5627002601682
 21
1617.700185667567
 31
0.0
  0
ARC
  5
2BB
  8
4
 10
631.7595967107231
 20
1624.824806792288
 30
0.0
 40
3.875378875279264
 50
44.95592676274281
 51
135.044073237256
  0
LINE
  5
2BC
  8
4
 10
629.0171829320725
 20
1627.56300475694
 30
0.0
 11
629.0171829320725
 21
1620.700185667567
 31
0.0
  0
LINE
  5
2BD
  8
4
 10
634.5020104893738
 20
1617.700185667567
 30
0.0
 11
634.5020104893738
 21
1627.56300475694
 31
0.0
  0
ARC
  5
2BE
  8
4
 10
634.0323553747712
 20
1615.700185667567
 30
0.0
 40
2.0
 50
0.0
 51
90.0
  0
LINE
  5
2BF
  8
4
 10
652.0323553747712
 20
1591.900185667568
 30
0.0
 11
670.0323553747712
 21
1591.900185667568
 31
0.0
  0
LINE
  5
2C0
  8
4
 10
726.0323553747712
 20
1589.400185667568
 30
0.0
 11
726.0323553747712
 21
1449.400185667567
 31
0.0
  0
LINE
  5
2C1
  8
L-CENTER
 10
691.0323553747712
 20
1568.489156363013
 30
0.0
 11
691.0323553747712
 21
1520.31121497212
 31
0.0
  0
LINE
  5
2C2
  8
4
 10
683.0323553747712
 20
1488.713386569322
 30
0.0
 11
683.0323553747708
 21
1300.086984765811
 31
0.0
  0
ARC
  5
2C3
  8
4
 10
682.0323553747712
 20
1300.086984765811
 30
0.0
 40
1.0
 50
291.0375110254237
 51
0.0
  0
ARC
  5
2C4
  8
4
 10
721.0323553747712
 20
1264.400185667567
 30
0.0
 40
5.0
 50
0.0
 51
90.0
  0
LINE
  5
2C5
  8
4
 10
684.0323553747714
 20
1444.400185667567
 30
0.0
 11
721.0323553747712
 21
1444.400185667567
 31
0.0
  0
ARC
  5
2C6
  8
4
 10
721.0323553747712
 20
1449.400185667567
 30
0.0
 40
5.0
 50
270.0
 51
0.0
  0
ARC
  5
2C7
  8
4
 10
682.0323553747712
 20
1488.713386569322
 30
0.0
 40
1.0
 50
0.0
 51
68.96248897457632
  0
CIRCLE
  5
2C8
  8
4
 10
691.0323553747712
 20
1544.400185667566
 30
0.0
 40
11.0
  0
ARC
  5
2C9
  8
4
 10
721.0323553747712
 20
1589.400185667568
 30
0.0
 40
5.0
 50
0.0
 51
90.0
  0
ARC
  5
2CE
  8
4
 10
2287.445553747822
 20
402.7165492613395
 30
0.0
 40
1000.0
 50
169.4005390000001
 51
190.5994609999998
  0
ARC
  5
2CF
  8
4
 10
697.445553747822
 20
402.7165492613395
 30
0.0
 40
1000.0
 50
349.400539
 51
10.59946099999995
  0
CIRCLE
  5
2D0
  8
4
 10
1492.445553747822
 20
402.7165492613395
 30
0.0
 40
197.5
  0
CIRCLE
  5
2D1
  8
4
 10
1492.445553747822
 20
402.7165492613395
 30
0.0
 40
165.0
  0
ARC
  5
2D2
  8
4
 10
992.445553747822
 20
402.7165492613395
 30
0.0
 40
600.0
 50
351.6709509999999
 51
8.329049000000015
  0
ARC
  5
2D3
  8
4
 10
992.445553747822
 20
402.7165492613395
 30
0.0
 40
595.0
 50
352.035204
 51
7.964795999999989
  0
ARC
  5
2D4
  8
4
 10
1992.445553747822
 20
402.7165492613395
 30
0.0
 40
600.0
 50
171.670951
 51
188.329049
  0
ARC
  5
2D5
  8
4
 10
1992.445553747822
 20
402.7165492613395
 30
0.0
 40
595.0
 50
172.035204
 51
187.964796
  0
LINE
  5
2D6
  8
L-CENTER
 10
1492.445553747822
 20
631.759360399853
 30
0.0
 11
1492.445553747822
 21
25.25416925677507
 31
0.0
  0
LINE
  5
2D9
  8
L-CENTER
 10
1273.381008747822
 20
402.7165492613395
 30
0.0
 11
1711.510098747822
 21
402.7165492613395
 31
0.0
  0
LINE
  5
2DA
  8
4
 10
1542.445553747822
 20
117.7165492613395
 30
0.0
 11
1556.445553747822
 21
117.7165492613395
 31
0.0
  0
LINE
  5
2DB
  8
4
 10
1545.445553747822
 20
62.71654926133954
 30
0.0
 11
1689.445553747822
 21
62.71654926133954
 31
0.0
  0
LINE
  5
2DC
  8
4
 10
1542.445553747822
 20
22.71654926133954
 30
0.0
 11
1692.445553747822
 21
22.71654926133954
 31
0.0
  0
ARC
  5
2DD
  8
4
 10
1492.445553747822
 20
1197.716549261339
 30
0.0
 40
1000.0
 50
259.400539
 51
280.599461
  0
ARC
  5
2DE
  8
4
 10
1492.445553747822
 20
902.7165492613394
 30
0.0
 40
600.0
 50
261.670951
 51
278.3290490000001
  0
ARC
  5
2DF
  8
4
 10
1492.445553747822
 20
902.7165492613394
 30
0.0
 40
595.0
 50
262.035204
 51
277.964796
  0
LINE
  5
2E2
  8
L-CENTER
 10
1079.770065426913
 20
192.7165492613395
 30
0.0
 11
1730.346393627926
 21
192.7165492613395
 31
0.0
  0
LINE
  5
3BC
  8
L-CENTER
 10
1124.438078747823
 20
340.7165492613391
 30
0.0
 11
1280.453028747821
 21
340.7165492613391
 31
0.0
  0
ARC
  5
3BD
  8
4
 10
1202.445553747822
 20
-191.2834507386614
 30
0.0
 40
600.0
 50
84.45569999999998
 51
95.78466800000001
  0
LINE
  5
3BF
  8
4
 10
1220.445553747822
 20
62.71654926133954
 30
0.0
 11
1364.445553747822
 21
62.71654926133954
 31
0.0
  0
ARC
  5
3C0
  8
4
 10
1202.445553747822
 20
872.7165492613394
 30
0.0
 40
600.0
 50
264.2153319999999
 51
275.784668
  0
LINE
  5
3C1
  8
4
 10
1217.445553747822
 20
22.71654926133954
 30
0.0
 11
1367.445553747822
 21
22.71654926133954
 31
0.0
  0
CIRCLE
  5
3C2
  8
4
 10
1202.445553747822
 20
340.7165492613391
 30
0.0
 40
65.0
  0
CIRCLE
  5
3C3
  8
4
 10
1202.445553747822
 20
340.7165492613391
 30
0.0
 40
40.0
  0
LINE
  5
3C4
  8
4
 10
1104.445553747822
 20
92.71654926133954
 30
0.0
 11
1096.445553747822
 21
172.7165492613395
 31
0.0
  0
LINE
  5
3C5
  8
4
 10
1162.445553747822
 20
274.0513692613391
 30
0.0
 11
1162.445553747822
 21
31.71654926133863
 31
0.0
  0
LINE
  5
3C6
  8
4
 10
1122.445553747822
 20
355.2165492613395
 30
0.0
 11
1122.445553747822
 21
30.21654926133954
 31
0.0
  0
LINE
  5
3C7
  8
L-CENTER
 10
1202.445553747822
 20
443.3835159000665
 30
0.0
 11
1202.445553747822
 21
262.7090742613397
 31
0.0
  0
LINE
  5
3C9
  8
4
 10
1125.445553747822
 20
356.7165492613404
 30
0.0
 11
1125.445553747822
 21
28.71654926133863
 31
0.0
  0
ARC
  5
3D2
  8
4
 10
1172.445553747822
 20
32.71654926133954
 30
0.0
 40
10.0
 50
90.0
 51
180.0
  0
LINE
  5
3D3
  8
4
 10
1125.445553747822
 20
28.71654926133863
 30
0.0
 11
1159.445553747822
 21
28.71654926133863
 31
0.0
  0
LINE
  5
3D5
  8
4
 10
1106.445553747822
 20
30.21654926133954
 30
0.0
 11
1125.445553747822
 21
30.21654926133954
 31
0.0
  0
LINE
  5
3D6
  8
4
 10
1104.445553747822
 20
51.67876426133864
 30
0.0
 11
1104.445553747822
 21
75.67876426133955
 31
0.0
  0
LINE
  5
3D7
  8
4
 10
1093.445553747822
 20
54.67876426134046
 30
0.0
 11
1093.445553747822
 21
72.67876426134
 31
0.0
  0
LINE
  5
3D8
  8
4
 10
1101.445553747822
 20
51.67876426133864
 30
0.0
 11
1101.445553747822
 21
75.67876426133955
 31
0.0
  0
ARC
  5
3D9
  8
4
 10
1111.445553747822
 20
63.6787642613391
 30
0.0
 40
18.0
 50
160.5287790000007
 51
199.4712209999993
  0
LINE
  5
3DA
  8
4
 10
1095.177603747822
 20
51.67876426133864
 30
0.0
 11
1104.445553747822
 21
51.67876426133864
 31
0.0
  0
LINE
  5
3DB
  8
4
 10
1094.474988747821
 20
57.67876426134001
 30
0.0
 11
1101.445553747822
 21
57.67876426134001
 31
0.0
  0
LINE
  5
3DC
  8
4
 10
1093.445553747822
 20
54.67876426134046
 30
0.0
 11
1095.177603747822
 21
51.67876426133864
 31
0.0
  0
ARC
  5
3DD
  8
4
 10
1098.029553747822
 20
54.67876426134046
 30
0.0
 40
4.584
 50
139.1220210000001
 51
180.0
  0
LINE
  5
3DE
  8
4
 10
1104.445553747822
 20
353.2165492613395
 30
0.0
 11
1104.445553747822
 21
32.21654926133954
 31
0.0
  0
LINE
  5
3DF
  8
4
 10
1095.177603747822
 20
75.67876426133955
 30
0.0
 11
1104.445553747822
 21
75.67876426133955
 31
0.0
  0
LINE
  5
3E0
  8
4
 10
1094.474988747821
 20
69.67876426134046
 30
0.0
 11
1101.445553747822
 21
69.67876426134046
 31
0.0
  0
ARC
  5
3E1
  8
4
 10
1098.029553747822
 20
72.67876426134
 30
0.0
 40
4.584
 50
180.0
 51
220.8779789999999
  0
LINE
  5
3E2
  8
4
 10
1093.445553747822
 20
72.67876426134
 30
0.0
 11
1095.177603747822
 21
75.67876426133955
 31
0.0
  0
LINE
  5
3E3
  8
4
 10
1217.445553747822
 20
59.71654926133999
 30
0.0
 11
1217.445553747822
 21
22.71654926133954
 31
0.0
  0
LINE
  5
3E4
  8
4
 10
1172.445553747822
 20
42.71654926133954
 30
0.0
 11
1207.445553747822
 21
42.71654926133954
 31
0.0
  0
ARC
  5
3E5
  8
4
 10
1220.445553747822
 20
59.71654926133999
 30
0.0
 40
3.0
 50
90.0
 51
180.0
  0
ARC
  5
3E6
  8
4
 10
1207.445553747822
 20
32.71654926133954
 30
0.0
 40
10.0
 50
0.0
 51
90.0
  0
LINE
  5
3F4
  8
4
 10
1104.445553747822
 20
292.7165492613395
 30
0.0
 11
1096.445553747822
 21
212.7165492613395
 31
0.0
  0
ARC
  5
3F5
  8
4
 10
1734.445553747822
 20
340.7165492613391
 30
0.0
 40
600.0
 50
174.215332
 51
185.784668
  0
LINE
  5
3F6
  8
4
 10
1090.445553747822
 20
174.71654926134
 30
0.0
 11
1090.445553747822
 21
210.7165492613391
 31
0.0
  0
ARC
  5
3F7
  8
4
 10
1285.445553747822
 20
192.7165492613395
 30
0.0
 40
200.0
 50
174.8363929999999
 51
185.1636070000001
  0
LINE
  5
3F8
  8
4
 10
1104.445553747822
 20
204.71654926134
 30
0.0
 11
1104.445553747822
 21
180.7165492613391
 31
0.0
  0
LINE
  5
3F9
  8
4
 10
1093.445553747822
 20
201.7165492613404
 30
0.0
 11
1093.445553747822
 21
183.7165492613386
 31
0.0
  0
LINE
  5
3FA
  8
4
 10
1101.445553747822
 20
204.71654926134
 30
0.0
 11
1101.445553747822
 21
180.7165492613391
 31
0.0
  0
ARC
  5
3FB
  8
4
 10
1111.445553747822
 20
192.7165492613395
 30
0.0
 40
18.0
 50
160.5287790000007
 51
199.4712209999993
  0
LINE
  5
3FC
  8
4
 10
1092.445553747822
 20
210.7165492613391
 30
0.0
 11
1092.445553747822
 21
174.71654926134
 31
0.0
  0
LINE
  5
3FD
  8
4
 10
1095.177603747822
 20
180.7165492613391
 30
0.0
 11
1104.445553747822
 21
180.7165492613391
 31
0.0
  0
LINE
  5
3FE
  8
4
 10
1085.648158747822
 20
183.7165492613386
 30
0.0
 11
1090.445553747822
 21
183.7165492613386
 31
0.0
  0
LINE
  5
3FF
  8
4
 10
1086.257198747821
 20
174.71654926134
 30
0.0
 11
1094.445553747822
 21
174.71654926134
 31
0.0
  0
LINE
  5
400
  8
4
 10
1094.474988747821
 20
186.7165492613404
 30
0.0
 11
1101.445553747822
 21
186.7165492613404
 31
0.0
  0
ARC
  5
401
  8
4
 10
1098.029553747822
 20
183.7165492613386
 30
0.0
 40
4.584
 50
139.1220210000001
 51
180.0
  0
LINE
  5
402
  8
4
 10
1093.445553747822
 20
183.7165492613386
 30
0.0
 11
1095.177603747822
 21
180.7165492613391
 31
0.0
  0
LINE
  5
403
  8
4
 10
1094.445553747822
 20
172.7165492613395
 30
0.0
 11
1096.445553747822
 21
172.7165492613395
 31
0.0
  0
LINE
  5
404
  8
4
 10
1096.445553747822
 20
172.7165492613395
 30
0.0
 11
1096.445553747822
 21
180.7165492613391
 31
0.0
  0
LINE
  5
405
  8
4
 10
1094.445553747822
 20
172.7165492613395
 30
0.0
 11
1094.445553747822
 21
181.9844992613404
 31
0.0
  0
LINE
  5
406
  8
4
 10
1095.177603747822
 20
204.71654926134
 30
0.0
 11
1104.445553747822
 21
204.71654926134
 31
0.0
  0
LINE
  5
407
  8
4
 10
1094.445553747822
 20
212.7165492613395
 30
0.0
 11
1096.445553747822
 21
212.7165492613395
 31
0.0
  0
LINE
  5
408
  8
4
 10
1086.257198747821
 20
210.7165492613391
 30
0.0
 11
1094.445553747822
 21
210.7165492613391
 31
0.0
  0
LINE
  5
409
  8
4
 10
1085.648158747822
 20
201.7165492613404
 30
0.0
 11
1090.445553747822
 21
201.7165492613404
 31
0.0
  0
LINE
  5
40A
  8
4
 10
1094.474988747821
 20
198.7165492613386
 30
0.0
 11
1101.445553747822
 21
198.7165492613386
 31
0.0
  0
LINE
  5
40B
  8
4
 10
1093.445553747822
 20
201.7165492613404
 30
0.0
 11
1095.177603747822
 21
204.71654926134
 31
0.0
  0
ARC
  5
40C
  8
4
 10
1098.029553747822
 20
201.7165492613404
 30
0.0
 40
4.584
 50
180.0
 51
220.8779789999999
  0
LINE
  5
40D
  8
4
 10
1096.445553747822
 20
204.71654926134
 30
0.0
 11
1096.445553747822
 21
212.7165492613395
 31
0.0
  0
LINE
  5
40E
  8
4
 10
1094.445553747822
 20
203.4485992613387
 30
0.0
 11
1094.445553747822
 21
212.7165492613395
 31
0.0
  0
ARC
  5
40F
  8
4
 10
1142.475463747822
 20
280.7464592613397
 30
0.0
 40
5.0
 50
185.7846679999987
 51
264.2153319999961
  0
LINE
  5
410
  8
4
 10
1106.445553747822
 20
355.2165492613395
 30
0.0
 11
1125.445553747822
 21
355.2165492613395
 31
0.0
  0
LINE
  5
412
  8
4
 10
1104.445553747822
 20
333.7543342613404
 30
0.0
 11
1104.445553747822
 21
309.7543342613395
 31
0.0
  0
LINE
  5
413
  8
4
 10
1093.445553747822
 20
330.7543342613386
 30
0.0
 11
1093.445553747822
 21
312.7543342613391
 31
0.0
  0
LINE
  5
414
  8
4
 10
1101.445553747822
 20
333.7543342613404
 30
0.0
 11
1101.445553747822
 21
309.7543342613395
 31
0.0
  0
ARC
  5
415
  8
4
 10
1098.029553747822
 20
330.7543342613386
 30
0.0
 40
4.584
 50
180.0
 51
220.8779789999999
  0
LINE
  5
416
  8
4
 10
1095.177603747822
 20
309.7543342613395
 30
0.0
 11
1104.445553747822
 21
309.7543342613395
 31
0.0
  0
LINE
  5
417
  8
4
 10
1094.474988747821
 20
327.7543342613391
 30
0.0
 11
1101.445553747822
 21
327.7543342613391
 31
0.0
  0
LINE
  5
418
  8
4
 10
1094.474988747821
 20
315.7543342613386
 30
0.0
 11
1101.445553747822
 21
315.7543342613386
 31
0.0
  0
ARC
  5
419
  8
4
 10
1111.445553747822
 20
321.75433426134
 30
0.0
 40
18.0
 50
160.5287790000007
 51
199.4712209999993
  0
ARC
  5
41A
  8
4
 10
1098.029553747822
 20
312.7543342613391
 30
0.0
 40
4.584
 50
139.1220210000001
 51
180.0
  0
LINE
  5
41B
  8
4
 10
1093.445553747822
 20
312.7543342613391
 30
0.0
 11
1095.177603747822
 21
309.7543342613395
 31
0.0
  0
LINE
  5
41C
  8
4
 10
1095.177603747822
 20
333.7543342613404
 30
0.0
 11
1104.445553747822
 21
333.7543342613404
 31
0.0
  0
LINE
  5
41D
  8
4
 10
1093.445553747822
 20
330.7543342613386
 30
0.0
 11
1095.177603747822
 21
333.7543342613404
 31
0.0
  0
LINE
  5
41E
  8
4
 10
1125.445553747822
 20
356.7165492613404
 30
0.0
 11
1134.586403747821
 21
356.7165492613404
 31
0.0
  0
ARC
  5
41F
  8
4
 10
1142.475463747822
 20
400.6866392613384
 30
0.0
 40
5.0
 50
95.78466800000396
 51
174.2153320000013
  0
LINE
  5
420
  8
4
 10
1197.445553747822
 20
355.2165492613395
 30
0.0
 11
1207.445553747822
 21
355.2165492613395
 31
0.0
  0
LINE
  5
421
  8
4
 10
1197.445553747822
 20
363.2165492613391
 30
0.0
 11
1207.445553747822
 21
363.2165492613391
 31
0.0
  0
ARC
  5
422
  8
4
 10
1202.445553747822
 20
340.7165492613391
 30
0.0
 40
19.0
 50
105.257523
 51
74.74247699999998
  0
LINE
  5
423
  8
4
 10
1197.445553747822
 20
363.2165492613391
 30
0.0
 11
1197.445553747822
 21
355.2165492613395
 31
0.0
  0
LINE
  5
424
  8
4
 10
1207.445553747822
 20
363.2165492613391
 30
0.0
 11
1207.445553747822
 21
355.2165492613395
 31
0.0
  0
LINE
  5
425
  8
4
 10
1216.445263747822
 20
433.7164662613387
 30
0.0
 11
1188.445263747822
 21
433.7164662613387
 31
0.0
  0
LINE
  5
426
  8
4
 10
1216.445263747822
 20
435.7164662613387
 30
0.0
 11
1188.445263747822
 21
435.7164662613387
 31
0.0
  0
LINE
  5
427
  8
4
 10
1214.945263747822
 20
436.7164662613387
 30
0.0
 11
1189.945263747822
 21
436.7164662613387
 31
0.0
  0
LINE
  5
428
  8
4
 10
1213.945263747822
 20
420.7164662613387
 30
0.0
 11
1189.945263747822
 21
420.7164662613387
 31
0.0
  0
LINE
  5
429
  8
4
 10
1214.945263747822
 20
420.7164662613387
 30
0.0
 11
1189.945263747822
 21
420.7164662613387
 31
0.0
  0
ARC
  5
42A
  8
4
 10
1199.445698747822
 20
404.4673362613386
 30
0.0
 40
9.249130000000001
 50
71.07445699999852
 51
108.9255430000015
  0
LINE
  5
42B
  8
4
 10
1196.445263747822
 20
415.2164662613387
 30
0.0
 11
1196.445263747822
 21
408.7164662613387
 31
0.0
  0
LINE
  5
42C
  8
4
 10
1188.445262747822
 20
435.7164662613387
 30
0.0
 11
1188.445263747822
 21
433.7164662613387
 31
0.0
  0
LINE
  5
42D
  8
4
 10
1189.945263747822
 20
436.7164662613387
 30
0.0
 11
1188.445263747822
 21
435.7164662613387
 31
0.0
  0
ARC
  5
42E
  8
4
 10
1190.945263747822
 20
415.2164662613387
 30
0.0
 40
5.5
 50
0.0
 51
90.96750600000075
  0
LINE
  5
42F
  8
4
 10
1189.945263747822
 20
433.7164662613387
 30
0.0
 11
1189.945263747822
 21
420.7164662613387
 31
0.0
  0
LINE
  5
430
  8
4
 10
1208.445263747822
 20
415.6033872613385
 30
0.0
 11
1208.445263747822
 21
408.7164662613387
 31
0.0
  0
ARC
  5
431
  8
4
 10
1205.445408747822
 20
404.4673362613386
 30
0.0
 40
9.249130000000001
 50
71.07445699999852
 51
108.9255430000015
  0
LINE
  5
432
  8
4
 10
1216.445263747822
 20
435.7164662613387
 30
0.0
 11
1216.445263747822
 21
433.7164662613387
 31
0.0
  0
LINE
  5
433
  8
4
 10
1216.445263747822
 20
435.7164662613387
 30
0.0
 11
1214.945263747822
 21
436.7164662613387
 31
0.0
  0
ARC
  5
434
  8
4
 10
1213.945263747822
 20
415.2164662613387
 30
0.0
 40
5.5
 50
90.0
 51
180.0
  0
LINE
  5
435
  8
4
 10
1214.945263747822
 20
433.7164662613387
 30
0.0
 11
1214.945263747822
 21
420.7164662613387
 31
0.0
  0
LINE
  5
436
  8
4
 10
1542.445553747822
 20
22.71654926133954
 30
0.0
 11
1542.445553747822
 21
117.7165492613395
 31
0.0
  0
LINE
  5
437
  8
4
 10
1367.445553747822
 20
117.7165492613395
 30
0.0
 11
1367.445553747822
 21
22.71654926133954
 31
0.0
  0
LINE
  5
438
  8
4
 10
1353.445553747822
 20
117.7165492613395
 30
0.0
 11
1353.445553747822
 21
77.71654926133954
 31
0.0
  0
LINE
  5
439
  8
4
 10
1262.445553747822
 20
273.3424292613396
 30
0.0
 11
1262.445553747822
 21
72.71654926133954
 31
0.0
  0
LINE
  5
43A
  8
4
 10
1376.445553747822
 20
32.71654926133954
 30
0.0
 11
1533.445553747822
 21
32.71654926133954
 31
0.0
  0
LINE
  5
43D
  8
L-CENTER
 10
1292.445553747822
 20
74.71654926133954
 30
0.0
 11
1292.445553747822
 21
10.71654926133954
 31
0.0
  0
ARC
  5
43E
  8
4
 10
1272.445553747822
 20
72.71654926133954
 30
0.0
 40
10.0
 50
180.0
 51
270.0
  0
ARC
  5
43F
  8
4
 10
1338.445553747822
 20
77.71654926133954
 30
0.0
 40
15.0
 50
270.0
 51
0.0
  0
ARC
  5
440
  8
4
 10
1376.445553747822
 20
23.71654926133863
 30
0.0
 40
9.0
 50
90.0
 51
180.0
  0
ARC
  5
441
  8
4
 10
1364.445553747822
 20
59.71654926133999
 30
0.0
 40
3.0
 50
0.0
 51
90.0
  0
LINE
  5
446
  8
L-CENTER
 10
1470.725771597401
 20
57.71654926133954
 30
0.0
 11
1514.165335898243
 21
57.71654926133954
 31
0.0
  0
CIRCLE
  5
447
  8
2
 10
1492.445553747822
 20
57.71654926133954
 30
0.0
 40
10.0
  0
ARC
  5
448
  8
4
 10
1492.445553747822
 20
57.71654926133954
 30
0.0
 40
12.0
 50
0.0
 51
180.0
  0
LINE
  5
449
  8
2
 10
1492.445553747822
 20
66.56184926133994
 30
0.0
 11
1484.785298747823
 21
62.1391992613386
 31
0.0
  0
LINE
  5
44A
  8
2
 10
1484.785298747823
 20
53.29389926134047
 30
0.0
 11
1492.445553747822
 21
48.87124926133913
 31
0.0
  0
LINE
  5
44B
  8
4
 10
1480.445553747822
 20
57.71654926133954
 30
0.0
 11
1480.445553747822
 21
32.71654926133954
 31
0.0
  0
LINE
  5
44C
  8
2
 10
1484.785298747823
 20
62.1391992613386
 30
0.0
 11
1484.785298747823
 21
53.29389926134047
 31
0.0
  0
LINE
  5
44D
  8
2
 10
1492.445553747822
 20
66.56184926133994
 30
0.0
 11
1500.105808747821
 21
62.1391992613386
 31
0.0
  0
LINE
  5
44E
  8
2
 10
1500.105808747821
 20
53.29389926134047
 30
0.0
 11
1492.445553747822
 21
48.87124926133913
 31
0.0
  0
LINE
  5
44F
  8
4
 10
1504.445553747822
 20
57.71654926133954
 30
0.0
 11
1504.445553747822
 21
32.71654926133954
 31
0.0
  0
LINE
  5
450
  8
2
 10
1500.105808747821
 20
62.1391992613386
 30
0.0
 11
1500.105808747821
 21
53.29389926134047
 31
0.0
  0
ARC
  5
451
  8
4
 10
1545.445553747822
 20
59.71654926133999
 30
0.0
 40
3.0
 50
90.0
 51
180.0
  0
ARC
  5
452
  8
4
 10
1533.445553747822
 20
23.71654926133863
 30
0.0
 40
9.0
 50
0.0
 51
90.0
  0
ARC
  5
453
  8
4
 10
1387.529238747822
 20
324.1274092613404
 30
0.0
 40
10.0
 50
7.402257000000415
 51
80.18466499999838
  0
ARC
  5
454
  8
4
 10
670.4455537478216
 20
340.7165492613391
 30
0.0
 40
600.0
 50
354.215332
 51
5.784668000000035
  0
ARC
  5
455
  8
4
 10
1265.445553747822
 20
273.3424292613396
 30
0.0
 40
3.0
 50
112.2555749999994
 51
180.0
  0
ARC
  5
456
  8
4
 10
1262.415643747822
 20
280.7464592613397
 30
0.0
 40
5.0
 50
292.2555750000001
 51
354.2153320000013
  0
ARC
  5
457
  8
4
 10
1309.423158747822
 20
219.6941542613391
 30
0.0
 40
5.0
 50
190.5994609999968
 51
259.4005389999978
  0
LINE
  5
458
  8
4
 10
1353.445553747822
 20
117.7165492613395
 30
0.0
 11
1367.445553747822
 21
117.7165492613395
 31
0.0
  0
ARC
  5
459
  8
4
 10
1262.830148747822
 20
430.7926692613402
 30
0.0
 40
25.0
 50
264.4556999999998
 51
358.4303959999999
  0
ARC
  5
45A
  8
4
 10
1262.415643747822
 20
400.6866392613384
 30
0.0
 40
5.0
 50
5.784667999998709
 51
84.21533199999604
  0
LINE
  5
45B
  8
4
 10
1389.233973747822
 20
333.9810292613394
 30
0.0
 11
1345.912308747821
 21
341.4759242613392
 31
0.0
  0
ARC
  5
45C
  8
4
 10
1345.230413747822
 20
337.5344742613394
 30
0.0
 40
4.0
 50
80.1846649999958
 51
203.8822049999991
  0
LINE
  5
45D
  8
4
 10
1423.710033747822
 20
299.5049692613399
 30
0.0
 11
1431.204928747822
 21
256.183304261339
 31
0.0
  0
ARC
  5
45E
  8
4
 10
1427.263478747822
 20
255.5014092613388
 30
0.0
 40
4.0
 50
246.1177950000002
 51
9.815334999997756
  0
ARC
  5
45F
  8
4
 10
1406.689688747822
 20
316.9606842613385
 30
0.0
 40
8.0
 50
188.3290489999994
 51
261.6709509999974
  0
ARC
  5
460
  8
4
 10
1411.108113747822
 20
321.3791092613397
 30
0.0
 40
8.0
 50
187.9647959999994
 51
262.0352040000007
  0
ARC
  5
461
  8
4
 10
1413.856413747822
 20
297.8002342613391
 30
0.0
 40
10.0
 50
9.81533499999895
 51
82.59774299999958
  0
LINE
  5
47C
  8
4
 10
1697.745553747822
 20
277.7165492613395
 30
0.0
 11
1697.745553747822
 21
107.7165492613395
 31
0.0
  0
LINE
  5
47D
  8
4
 10
1556.445553747822
 20
117.7165492613395
 30
0.0
 11
1556.445553747822
 21
77.71654926133954
 31
0.0
  0
LINE
  5
47E
  8
4
 10
1682.445553747822
 20
230.1622092613403
 30
0.0
 11
1682.445553747822
 21
67.71654926133954
 31
0.0
  0
LINE
  5
47F
  8
4
 10
1715.745553747822
 20
109.7165492613395
 30
0.0
 11
1715.745553747822
 21
275.7165492613395
 31
0.0
  0
LINE
  5
480
  8
4
 10
1697.445553747822
 20
277.7165492613395
 30
0.0
 11
1697.445553747822
 21
107.7165492613395
 31
0.0
  0
LINE
  5
481
  8
4
 10
1685.445553747822
 20
107.7165492613395
 30
0.0
 11
1713.745553747822
 21
107.7165492613395
 31
0.0
  0
ARC
  5
48D
  8
4
 10
1571.445553747822
 20
77.71654926133954
 30
0.0
 40
15.0
 50
180.0
 51
270.0
  0
LINE
  5
48E
  8
4
 10
1692.445553747822
 20
22.71654926133954
 30
0.0
 11
1692.445553747822
 21
59.71654926133999
 31
0.0
  0
LINE
  5
48F
  8
L-CENTER
 10
1642.445553747822
 20
74.71654926133954
 30
0.0
 11
1642.445553747822
 21
10.71654926133954
 31
0.0
  0
ARC
  5
492
  8
4
 10
1687.445553747822
 20
67.71654926133954
 30
0.0
 40
5.0
 50
180.0
 51
270.0
  0
ARC
  5
493
  8
4
 10
1689.445553747822
 20
59.71654926133999
 30
0.0
 40
3.0
 50
0.0
 51
90.0
  0
ARC
  5
494
  8
4
 10
1685.445553747822
 20
104.71654926134
 30
0.0
 40
3.0
 50
90.0
 51
180.0
  0
ARC
  5
495
  8
4
 10
1713.745553747822
 20
109.7165492613395
 30
0.0
 40
2.0
 50
270.0
 51
0.0
  0
LINE
  5
498
  8
4
 10
1692.998163747822
 20
277.7165492613395
 30
0.0
 11
1713.745553747822
 21
277.7165492613395
 31
0.0
  0
LINE
  5
499
  8
4
 10
1561.181073747822
 20
299.5049692613399
 30
0.0
 11
1553.686178747822
 21
256.183304261339
 31
0.0
  0
ARC
  5
49A
  8
4
 10
1557.627628747822
 20
255.5014092613388
 30
0.0
 40
4.0
 50
170.1846650000023
 51
293.8822049999998
  0
ARC
  5
49B
  8
4
 10
1675.467948747822
 20
219.6941542613391
 30
0.0
 40
5.0
 50
280.5994610000022
 51
349.4005390000032
  0
ARC
  5
49C
  8
4
 10
1692.998163747822
 20
280.7165492613391
 30
0.0
 40
3.0
 50
173.0135220000009
 51
270.0
  0
LINE
  5
49D
  8
4
 10
1595.657133747822
 20
333.9810292613394
 30
0.0
 11
1638.978798747823
 21
341.4759242613392
 31
0.0
  0
ARC
  5
49E
  8
4
 10
1578.201418747822
 20
316.9606842613385
 30
0.0
 40
8.0
 50
278.3290490000026
 51
351.6709510000006
  0
ARC
  5
49F
  8
4
 10
1571.034693747823
 20
297.8002342613391
 30
0.0
 40
10.0
 50
97.40225700000043
 51
170.1846650000011
  0
ARC
  5
4A0
  8
4
 10
1573.782993747822
 20
321.3791092613397
 30
0.0
 40
8.0
 50
277.9647959999993
 51
352.0352040000006
  0
ARC
  5
4A1
  8
4
 10
1597.361868747822
 20
324.1274092613404
 30
0.0
 40
10.0
 50
99.81533500000165
 51
172.5977429999996
  0
ARC
  5
4A2
  8
4
 10
1639.660693747822
 20
337.5344742613394
 30
0.0
 40
4.0
 50
336.1177950000009
 51
99.81533500000421
  0
LINE
  5
4A3
  8
4
 10
1726.745553747822
 20
184.4893079253876
 30
0.0
 11
1726.745553747822
 21
200.9437905972919
 31
0.0
  0
ARC
  5
4A4
  8
4
 10
1712.949809612644
 20
192.7165492613395
 30
0.0
 40
13.7957441351769
 50
336.5734024913729
 51
23.42659750862713
  0
LINE
  5
4A5
  8
4
 10
1718.745553747822
 20
203.6862043759426
 30
0.0
 11
1718.745553747822
 21
181.746894146737
 31
0.0
  0
LINE
  5
4A6
  8
4
 10
1715.745553747822
 20
203.6862043759426
 30
0.0
 11
1715.745553747822
 21
181.746894146737
 31
0.0
  0
LINE
  5
4A7
  8
4
 10
1725.608372837195
 20
118.9600523723644
 30
0.0
 11
1715.745553747822
 21
118.9600523723644
 31
0.0
  0
LINE
  5
4A8
  8
4
 10
1725.608372837195
 20
124.4448799296657
 30
0.0
 11
1718.745553747822
 21
124.4448799296657
 31
0.0
  0
LINE
  5
4A9
  8
4
 10
1715.745553747822
 20
140.89936260157
 30
0.0
 11
1725.608372837195
 21
140.89936260157
 31
0.0
  0
LINE
  5
4AA
  8
4
 10
1725.608372837195
 20
135.4145350442687
 30
0.0
 11
1718.745553747822
 21
135.4145350442687
 31
0.0
  0
LINE
  5
4AB
  8
4
 10
1718.745553747822
 20
118.9600523723644
 30
0.0
 11
1718.745553747822
 21
140.89936260157
 31
0.0
  0
LINE
  5
4AC
  8
4
 10
1715.745553747822
 20
118.9600523723644
 30
0.0
 11
1715.745553747822
 21
140.89936260157
 31
0.0
  0
ARC
  5
4AD
  8
4
 10
1722.870174872543
 20
121.7024661510151
 30
0.0
 40
3.875378875279244
 50
314.955926762744
 51
45.04407323725601
  0
LINE
  5
4AE
  8
4
 10
1726.745553747822
 20
138.1569488229194
 30
0.0
 11
1726.745553747822
 21
121.7024661510151
 31
0.0
  0
ARC
  5
4AF
  8
4
 10
1712.949809612644
 20
129.9297074869675
 30
0.0
 40
13.7957441351769
 50
336.5734024913729
 51
23.42659750862713
  0
ARC
  5
4B0
  8
4
 10
1722.870174872543
 20
138.1569488229194
 30
0.0
 40
3.875378875279264
 50
314.955926762744
 51
45.04407323725601
  0
LINE
  5
4B1
  8
4
 10
1715.745553747822
 20
181.746894146737
 30
0.0
 11
1725.608372837195
 21
181.746894146737
 31
0.0
  0
LINE
  5
4B2
  8
4
 10
1725.608372837195
 20
187.2317217040383
 30
0.0
 11
1718.745553747822
 21
187.2317217040383
 31
0.0
  0
ARC
  5
4B3
  8
4
 10
1722.870174872543
 20
184.4893079253876
 30
0.0
 40
3.875378875279264
 50
314.955926762744
 51
45.04407323725601
  0
LINE
  5
4B4
  8
4
 10
1725.608372837195
 20
203.6862043759426
 30
0.0
 11
1715.745553747822
 21
203.6862043759426
 31
0.0
  0
LINE
  5
4B5
  8
4
 10
1725.608372837195
 20
198.2013768186413
 30
0.0
 11
1718.745553747822
 21
198.2013768186413
 31
0.0
  0
ARC
  5
4B6
  8
4
 10
1722.870174872543
 20
200.9437905972919
 30
0.0
 40
3.875378875279244
 50
314.955926762744
 51
45.04407323725601
  0
LINE
  5
4B7
  8
4
 10
1725.608372837195
 20
266.4730461503146
 30
0.0
 11
1715.745553747822
 21
266.4730461503146
 31
0.0
  0
LINE
  5
4B8
  8
4
 10
1725.608372837195
 20
260.9882185930134
 30
0.0
 11
1718.745553747822
 21
260.9882185930134
 31
0.0
  0
LINE
  5
4B9
  8
4
 10
1715.745553747822
 20
244.533735921109
 30
0.0
 11
1725.608372837195
 21
244.533735921109
 31
0.0
  0
LINE
  5
4BA
  8
4
 10
1725.608372837195
 20
250.0185634784103
 30
0.0
 11
1718.745553747822
 21
250.0185634784103
 31
0.0
  0
LINE
  5
4BB
  8
4
 10
1718.745553747822
 20
266.4730461503146
 30
0.0
 11
1718.745553747822
 21
244.533735921109
 31
0.0
  0
LINE
  5
4BC
  8
4
 10
1715.745553747822
 20
266.4730461503146
 30
0.0
 11
1715.745553747822
 21
244.533735921109
 31
0.0
  0
ARC
  5
4BD
  8
4
 10
1713.745553747822
 20
275.7165492613395
 30
0.0
 40
2.0
 50
0.0
 51
90.0
  0
ARC
  5
4BE
  8
4
 10
1722.870174872543
 20
263.730632371664
 30
0.0
 40
3.875378875279244
 50
314.955926762744
 51
45.04407323725601
  0
LINE
  5
4BF
  8
4
 10
1726.745553747822
 20
247.2761496997597
 30
0.0
 11
1726.745553747822
 21
263.730632371664
 31
0.0
  0
ARC
  5
4C0
  8
4
 10
1712.949809612644
 20
255.5033910357116
 30
0.0
 40
13.7957441351769
 50
336.5734024913729
 51
23.42659750862713
  0
ARC
  5
4C1
  8
4
 10
1722.870174872543
 20
247.2761496997597
 30
0.0
 40
3.875378875279264
 50
314.955926762744
 51
45.04407323725601
  0
LINE
  5
4C2
  8
4
 10
1546.445553747821
 20
545.716549261339
 30
0.0
 11
1541.889700870307
 21
517.716549261339
 31
0.0
  0
LINE
  5
4C3
  8
4
 10
1437.445553747822
 20
557.7165492613385
 30
0.0
 11
1547.445553747822
 21
557.7165492613385
 31
0.0
  0
LINE
  5
4C4
  8
4
 10
1437.445553747822
 20
511.7165492613394
 30
0.0
 11
1547.445553747822
 21
511.716549261339
 31
0.0
  0
LINE
  5
4C5
  8
4
 10
1522.445553747821
 20
551.716549261339
 30
0.0
 11
1546.445553747821
 21
551.716549261339
 31
0.0
  0
ARC
  5
4C7
  8
4
 10
1492.445553747822
 20
-392.2834507386605
 30
0.0
 40
1000.0
 50
79.40053900000001
 51
100.599461
  0
ARC
  5
4C8
  8
4
 10
1492.445553747822
 20
-97.28345073866046
 30
0.0
 40
600.0
 50
81.67095099999997
 51
98.32904900000003
  0
ARC
  5
4C9
  8
4
 10
1492.445553747822
 20
-97.28345073866046
 30
0.0
 40
595.0
 50
82.03520400000001
 51
97.96479599999999
  0
TEXT
  5
4CE
  8
1
 62
     1
 10
2023.001687279502
 20
7818.355143125407
 30
0.0
 40
6.000000000000001
  1
1
 50
90.0
  7
KANJI
 72
     4
 11
2020.001687279502
 21
7819.355143125407
 31
0.0
  0
POLYLINE
  5
4CF
  8
1
 62
     1
 66
     1
 10
0.0
 20
0.0
 30
0.0
  0
VERTEX
  5
1FB5
  8
1
 62
     1
 10
2011.521428118836
 20
7819.222674703602
 30
0.0
  0
VERTEX
  5
1FB6
  8
1
 62
     1
 10
2025.377834579387
 20
7811.222674703602
 30
0.0
  0
VERTEX
  5
1FB7
  8
1
 62
     1
 10
2025.377834579387
 20
7827.222674703602
 30
0.0
  0
VERTEX
  5
1FB8
  8
1
 62
     1
 10
2011.521428118836
 20
7819.222674703602
 30
0.0
  0
SEQEND
  5
1FE4
  8
1
 62
     1
  0
LINE
  5
4D9
  8
4
 10
1382.445553747822
 20
618.216549261339
 30
0.0
 11
1393.282478747822
 21
616.9719192613402
 31
0.0
  0
LINE
  5
4DA
  8
4
 10
1402.445553747822
 20
605.716549261339
 30
0.0
 11
1362.445553747822
 21
605.716549261339
 31
0.0
  0
LINE
  5
4DB
  8
L-CENTER
 10
1340.383663747822
 20
635.716549261339
 30
0.0
 11
1424.507443747822
 21
635.716549261339
 31
0.0
  0
LINE
  5
4DC
  8
4
 10
1370.696273747822
 20
616.7165492613403
 30
0.0
 11
1394.194833747822
 21
616.7165492613403
 31
0.0
  0
ARC
  5
4DD
  8
4
 10
1387.529238747822
 20
481.3056892613386
 30
0.0
 40
10.0
 50
279.8153350000015
 51
352.5977429999996
  0
CIRCLE
  5
4DE
  8
4
 10
1382.445553747822
 20
635.716549261339
 30
0.0
 40
17.5
  0
ARC
  5
4DF
  8
4
 10
1382.445553747822
 20
635.716549261339
 30
0.0
 40
30.0
 50
304.5871149999994
 51
235.412885
  0
LINE
  5
4E0
  8
L-CENTER
 10
1382.445553747822
 20
676.3532692613389
 30
0.0
 11
1382.445553747822
 21
593.654659261339
 31
0.0
  0
ARC
  5
4E1
  8
4
 10
1309.423158747822
 20
585.7389442613398
 30
0.0
 40
5.0
 50
100.599461000002
 51
169.4005390000032
  0
LINE
  5
4E2
  8
4
 10
1389.233973747822
 20
471.4520692613396
 30
0.0
 11
1345.912308747821
 21
463.9571742613399
 31
0.0
  0
ARC
  5
4E3
  8
4
 10
1345.230413747822
 20
467.8986242613397
 30
0.0
 40
4.0
 50
156.1177950000009
 51
279.8153350000042
  0
LINE
  5
4E4
  8
4
 10
1371.608628747822
 20
616.9719192613402
 30
0.0
 11
1382.445553747822
 21
618.216549261339
 31
0.0
  0
LINE
  5
4E5
  8
4
 10
1362.445553747822
 20
605.716549261339
 30
0.0
 11
1362.445553747822
 21
601.8593942613384
 31
0.0
  0
ARC
  5
4E6
  8
4
 10
1359.445553747822
 20
601.8593942613384
 30
0.0
 40
3.0
 50
277.6199890000009
 51
0.0
  0
LINE
  5
4E7
  8
4
 10
1367.445553747822
 20
605.716549261339
 30
0.0
 11
1368.996508747822
 21
614.5124542613385
 31
0.0
  0
ARC
  5
4E8
  8
4
 10
1362.577503747822
 20
606.9023092613397
 30
0.0
 40
5.0
 50
350.0000000000003
 51
55.41288500000426
  0
ARC
  5
4E9
  8
4
 10
1371.950933747823
 20
613.9915092613401
 30
0.0
 40
3.0
 50
96.55176900000414
 51
169.9999999999946
  0
LINE
  5
4EB
  8
4
 10
1468.445553747821
 20
551.7165492613385
 30
0.0
 11
1492.445553747821
 21
551.7165492613385
 31
0.0
  0
LINE
  5
4EC
  8
4
 10
1468.445553747821
 20
517.716549261339
 30
0.0
 11
1492.445553747821
 21
517.716549261339
 31
0.0
  0
LINE
  5
4ED
  8
4
 10
1468.445553747822
 20
612.7165492613394
 30
0.0
 11
1516.445553747822
 21
612.7165492613394
 31
0.0
  0
ARC
  5
4EE
  8
4
 10
1418.445553747821
 20
545.70256256334
 30
0.0
 40
4.0
 50
0.0
 51
117.363062351958
  0
LINE
  5
4EF
  8
4
 10
1432.445553747822
 20
552.7165492613385
 30
0.0
 11
1432.445553747822
 21
516.7165492613394
 31
0.0
  0
LINE
  5
4F0
  8
4
 10
1444.445553747821
 20
551.7165492613385
 30
0.0
 11
1444.445553747821
 21
523.7165492613385
 31
0.0
  0
LINE
  5
4F1
  8
4
 10
1468.445553747821
 20
551.7165492613385
 30
0.0
 11
1468.445553747821
 21
517.716549261339
 31
0.0
  0
LINE
  5
4F2
  8
4
 10
1438.445553747821
 20
551.7165492613385
 30
0.0
 11
1438.445553747821
 21
517.716549261339
 31
0.0
  0
ARC
  5
4F3
  8
4
 10
1412.445553747821
 20
507.4478945709734
 30
0.0
 40
10.0
 50
277.5359093422798
 51
0.0
  0
ARC
  5
4F4
  8
4
 10
1406.689688747822
 20
488.4724142613404
 30
0.0
 40
8.0
 50
98.32904900000263
 51
171.6709510000006
  0
ARC
  5
4F5
  8
4
 10
1411.108113747822
 20
484.0539892613392
 30
0.0
 40
8.0
 50
97.96479599999941
 51
172.0352040000006
  0
LINE
  5
4F6
  8
4
 10
1422.44555374782
 20
545.70256256334
 30
0.0
 11
1422.445553747821
 21
507.4478945709734
 31
0.0
  0
LINE
  5
4F7
  8
4
 10
1444.445553747821
 20
523.716549261339
 30
0.0
 11
1462.445553747821
 21
523.7165492613385
 31
0.0
  0
LINE
  5
4F8
  8
4
 10
1438.445553747821
 20
517.716549261339
 30
0.0
 11
1462.445553747821
 21
517.7165492613394
 31
0.0
  0
ARC
  5
4F9
  8
4
 10
1437.445553747822
 20
516.7165492613394
 30
0.0
 40
5.0
 50
180.0
 51
270.0
  0
LINE
  5
4FA
  8
4
 10
1462.445553747821
 20
523.7165492613385
 30
0.0
 11
1462.445553747821
 21
517.716549261339
 31
0.0
  0
LINE
  5
4FB
  8
4
 10
1402.445553747822
 20
605.716549261339
 30
0.0
 11
1402.445553747822
 21
605.2986242613397
 31
0.0
  0
ARC
  5
4FC
  8
4
 10
1403.945553747822
 20
605.2986242613397
 30
0.0
 40
1.5
 50
180.0
 51
275.069695
  0
LINE
  5
4FD
  8
4
 10
1397.445553747822
 20
605.716549261339
 30
0.0
 11
1395.894598747822
 21
614.5124542613385
 31
0.0
  0
ARC
  5
4FE
  8
4
 10
1402.313603747822
 20
606.9023092613397
 30
0.0
 40
5.0
 50
124.5871149999957
 51
189.9999999999997
  0
ARC
  5
4FF
  8
4
 10
1392.940173747822
 20
613.9915092613401
 30
0.0
 40
3.0
 50
10.00000000000544
 51
83.44823099999586
  0
ARC
  5
500
  8
4
 10
1437.445553747822
 20
552.7165492613385
 30
0.0
 40
5.0
 50
90.0
 51
180.0
  0
LINE
  5
501
  8
4
 10
1438.445553747821
 20
551.7165492613385
 30
0.0
 11
1444.445553747821
 21
551.7165492613385
 31
0.0
  0
LINE
  5
502
  8
4
 10
1468.445553747822
 20
612.7165492613394
 30
0.0
 11
1468.445553747822
 21
610.3530742613398
 31
0.0
  0
ARC
  5
503
  8
4
 10
1465.445553747822
 20
610.3530742613398
 30
0.0
 40
3.0
 50
271.5425449999942
 51
0.0
  0
LINE
  5
504
  8
4
 10
1522.445553747821
 20
551.716549261339
 30
0.0
 11
1522.445553747823
 21
537.7165492613385
 31
0.0
  0
LINE
  5
505
  8
4
 10
1492.445553747822
 20
551.7165492613385
 30
0.0
 11
1492.445553747822
 21
545.716549261339
 31
0.0
  0
LINE
  5
506
  8
4
 10
1498.44555374782
 20
531.7165492613385
 30
0.0
 11
1516.445553747821
 21
531.716549261339
 31
0.0
  0
LINE
  5
507
  8
4
 10
1498.445553747821
 20
537.716549261339
 30
0.0
 11
1516.445553747822
 21
537.716549261339
 31
0.0
  0
LINE
  5
508
  8
4
 10
1474.445553747821
 20
531.7165492613385
 30
0.0
 11
1492.445553747821
 21
531.7165492613385
 31
0.0
  0
LINE
  5
509
  8
4
 10
1474.445553747821
 20
537.7165492613385
 30
0.0
 11
1492.445553747821
 21
537.7165492613385
 31
0.0
  0
LINE
  5
50A
  8
4
 10
1474.44555374782
 20
523.716549261339
 30
0.0
 11
1492.445553747821
 21
523.716549261339
 31
0.0
  0
LINE
  5
50B
  8
4
 10
1474.445553747821
 20
545.7165492613385
 30
0.0
 11
1492.445553747821
 21
545.7165492613385
 31
0.0
  0
LINE
  5
50C
  8
4
 10
1474.445553747821
 20
531.7165492613385
 30
0.0
 11
1474.445553747821
 21
523.7165492613385
 31
0.0
  0
LINE
  5
50D
  8
4
 10
1474.445553747821
 20
545.716549261339
 30
0.0
 11
1474.445553747821
 21
537.7165492613385
 31
0.0
  0
LINE
  5
50E
  8
4
 10
1498.445553747822
 20
537.7165492613385
 30
0.0
 11
1498.44555374782
 21
531.7165492613385
 31
0.0
  0
LINE
  5
50F
  8
4
 10
1492.445553747821
 20
537.7165492613385
 30
0.0
 11
1492.445553747821
 21
531.7165492613385
 31
0.0
  0
LINE
  5
510
  8
4
 10
1492.445553747822
 20
523.7165492613385
 30
0.0
 11
1492.445553747821
 21
517.716549261339
 31
0.0
  0
LINE
  5
511
  8
4
 10
1522.445553747823
 20
537.7165492613385
 30
0.0
 11
1528.445553747824
 21
537.7165492613385
 31
0.0
  0
LINE
  5
512
  8
4
 10
1516.445553747821
 20
537.716549261339
 30
0.0
 11
1516.445553747821
 21
531.7165492613385
 31
0.0
  0
LINE
  5
513
  8
4
 10
1540.366649879551
 20
545.716549261339
 30
0.0
 11
1535.810797002038
 21
517.7165492613385
 31
0.0
  0
LINE
  5
514
  8
4
 10
1535.810797002038
 20
517.716549261339
 30
0.0
 11
1541.889700870307
 21
517.716549261339
 31
0.0
  0
LINE
  5
515
  8
4
 10
1528.445553747821
 20
545.716549261339
 30
0.0
 11
1528.445553747823
 21
537.7165492613385
 31
0.0
  0
LINE
  5
516
  8
4
 10
1528.445553747822
 20
545.716549261339
 30
0.0
 11
1540.366649879551
 21
545.716549261339
 31
0.0
  0
LINE
  5
517
  8
4
 10
1469.445553747822
 20
623.216549261339
 30
0.0
 11
1515.445553747822
 21
623.216549261339
 31
0.0
  0
LINE
  5
518
  8
4
 10
1469.445553747822
 20
618.216549261339
 30
0.0
 11
1515.445553747822
 21
618.216549261339
 31
0.0
  0
LINE
  5
519
  8
4
 10
1469.445553747822
 20
614.2165492613403
 30
0.0
 11
1515.445553747822
 21
614.2165492613403
 31
0.0
  0
LINE
  5
51A
  8
4
 10
1480.945553747822
 20
623.216549261339
 30
0.0
 11
1480.945553747822
 21
618.216549261339
 31
0.0
  0
LINE
  5
51B
  8
4
 10
1469.445553747822
 20
623.216549261339
 30
0.0
 11
1469.445553747822
 21
614.2165492613403
 31
0.0
  0
LINE
  5
51C
  8
4
 10
1471.445553747822
 20
614.2165492613403
 30
0.0
 11
1471.445553747822
 21
612.7165492613394
 31
0.0
  0
LINE
  5
51D
  8
4
 10
1503.945553747822
 20
623.216549261339
 30
0.0
 11
1503.945553747822
 21
618.216549261339
 31
0.0
  0
LINE
  5
51E
  8
4
 10
1516.445553747822
 20
612.7165492613394
 30
0.0
 11
1516.445553747822
 21
610.3530742613398
 31
0.0
  0
ARC
  5
51F
  8
4
 10
1519.445553747822
 20
610.3530742613398
 30
0.0
 40
3.0
 50
180.0
 51
268.4574550000058
  0
LINE
  5
520
  8
4
 10
1515.445553747822
 20
623.216549261339
 30
0.0
 11
1515.445553747822
 21
614.2165492613403
 31
0.0
  0
LINE
  5
521
  8
4
 10
1513.445553747822
 20
614.2165492613403
 30
0.0
 11
1513.445553747822
 21
612.7165492613394
 31
0.0
  0
LINE
  5
526
  8
L-CENTER
 10
1602.445553747822
 20
677.7784392613389
 30
0.0
 11
1602.445553747822
 21
593.654659261339
 31
0.0
  0
CIRCLE
  5
527
  8
4
 10
1602.445553747822
 20
635.716549261339
 30
0.0
 40
17.5
  0
ARC
  5
528
  8
4
 10
1602.445553747822
 20
635.716549261339
 30
0.0
 40
30.0
 50
304.5871149999994
 51
235.412885
  0
ARC
  5
529
  8
4
 10
1625.445553747822
 20
601.8593942613384
 30
0.0
 40
3.0
 50
180.0
 51
262.3800109999991
  0
LINE
  5
52A
  8
4
 10
1595.657133747822
 20
471.4520692613396
 30
0.0
 11
1638.978798747823
 21
463.9571742613399
 31
0.0
  0
ARC
  5
52B
  8
4
 10
1566.445553747822
 20
545.7025625633405
 30
0.0
 40
4.0
 50
62.63693764804201
 51
180.0
  0
LINE
  5
52C
  8
4
 10
1552.445553747822
 20
552.7165492613385
 30
0.0
 11
1552.445553747822
 21
516.716549261339
 31
0.0
  0
LINE
  5
52D
  8
4
 10
1546.445553747822
 20
551.716549261339
 30
0.0
 11
1546.445553747822
 21
545.7165492613385
 31
0.0
  0
ARC
  5
52E
  8
4
 10
1578.201418747822
 20
488.4724142613404
 30
0.0
 40
8.0
 50
8.3290489999994
 51
81.67095099999736
  0
ARC
  5
52F
  8
4
 10
1572.445553747822
 20
507.4478945709739
 30
0.0
 40
10.0
 50
180.0
 51
262.4640906577202
  0
ARC
  5
530
  8
4
 10
1573.782993747822
 20
484.0539892613392
 30
0.0
 40
8.0
 50
7.964795999999392
 51
82.0352040000006
  0
LINE
  5
531
  8
4
 10
1562.445553747821
 20
545.7025625633405
 30
0.0
 11
1562.445553747822
 21
507.4478945709739
 31
0.0
  0
ARC
  5
532
  8
4
 10
1547.445553747822
 20
516.716549261339
 30
0.0
 40
5.0
 50
270.0
 51
0.0
  0
ARC
  5
533
  8
4
 10
1597.361868747822
 20
481.3056892613386
 30
0.0
 40
10.0
 50
187.4022570000004
 51
260.1846649999985
  0
LINE
  5
534
  8
4
 10
1582.445553747822
 20
605.716549261339
 30
0.0
 11
1622.445553747822
 21
605.716549261339
 31
0.0
  0
ARC
  5
535
  8
4
 10
1547.445553747822
 20
552.7165492613385
 30
0.0
 40
5.0
 50
0.0
 51
90.0
  0
LINE
  5
536
  8
4
 10
1582.445553747822
 20
605.716549261339
 30
0.0
 11
1582.445553747822
 21
605.2986242613397
 31
0.0
  0
ARC
  5
537
  8
4
 10
1580.945553747822
 20
605.2986242613397
 30
0.0
 40
1.5
 50
264.930305
 51
0.0
  0
LINE
  5
538
  8
4
 10
1613.282478747822
 20
616.9719192613402
 30
0.0
 11
1602.445553747822
 21
618.216549261339
 31
0.0
  0
LINE
  5
539
  8
4
 10
1614.194833747822
 20
616.7165492613403
 30
0.0
 11
1590.696273747822
 21
616.7165492613403
 31
0.0
  0
LINE
  5
53A
  8
4
 10
1587.445553747822
 20
605.716549261339
 30
0.0
 11
1588.996508747822
 21
614.5124542613385
 31
0.0
  0
ARC
  5
53B
  8
4
 10
1582.577503747822
 20
606.9023092613397
 30
0.0
 40
5.0
 50
350.0000000000003
 51
55.41288500000426
  0
ARC
  5
53C
  8
4
 10
1591.950933747823
 20
613.9915092613401
 30
0.0
 40
3.0
 50
96.55176900000414
 51
169.9999999999946
  0
LINE
  5
53D
  8
4
 10
1602.445553747822
 20
618.216549261339
 30
0.0
 11
1591.608628747822
 21
616.9719192613402
 31
0.0
  0
LINE
  5
53E
  8
4
 10
1622.445553747822
 20
605.716549261339
 30
0.0
 11
1622.445553747822
 21
601.8593942613384
 31
0.0
  0
LINE
  5
53F
  8
4
 10
1617.445553747822
 20
605.716549261339
 30
0.0
 11
1615.894598747822
 21
614.5124542613385
 31
0.0
  0
ARC
  5
540
  8
4
 10
1622.313603747822
 20
606.9023092613397
 30
0.0
 40
5.0
 50
124.5871149999957
 51
189.9999999999997
  0
ARC
  5
541
  8
4
 10
1612.940173747822
 20
613.9915092613401
 30
0.0
 40
3.0
 50
10.00000000000544
 51
83.44823099999586
  0
ARC
  5
542
  8
4
 10
1639.660693747822
 20
467.8986242613397
 30
0.0
 40
4.0
 50
260.1846649999958
 51
23.88220499999908
  0
ARC
  5
543
  8
4
 10
1675.467948747822
 20
585.7389442613398
 30
0.0
 40
5.0
 50
10.59946099999684
 51
79.40053899999803
  0
LINE
  5
545
  8
L-CENTER
 10
1644.507443747822
 20
635.716549261339
 30
0.0
 11
1560.383663747822
 21
635.716549261339
 31
0.0
  0
TEXT
  5
5BD
  8
L-CENTER
 10
885.0734153056803
 20
129.2418388088457
 30
0.0
 40
17.49999997229166
  1

  7
KANJI
  0
LINE
  5
1EA7
  8
4
 10
679.0323553747708
 20
62.71654926133954
 30
0.0
 11
679.0323553747708
 21
22.71654926133954
 31
0.0
  0
LINE
  5
1EC2
  8
4
 10
811.0323553747712
 20
322.7165492613391
 30
0.0
 11
810.0323553747712
 21
321.7165492613391
 31
0.0
  0
LINE
  5
1EC3
  8
4
 10
810.0323553747712
 20
359.7165492613391
 30
0.0
 11
810.0323553747712
 21
321.7165492613404
 31
0.0
  0
LINE
  5
1EC4
  8
4
 10
810.0323553747712
 20
359.7165492613391
 30
0.0
 11
811.0323553747712
 21
358.7165492613391
 31
0.0
  0
LINE
  5
1EC5
  8
L-CENTER
 10
417.0323553747712
 20
441.6517441217203
 30
0.0
 11
417.0323553747712
 21
381.9882074008076
 31
0.0
  0
CIRCLE
  5
1EC9
  8
4
 10
1492.445553747822
 20
57.71654926133954
 30
0.0
 40
11.0
  0
ARC
  5
1ECD
  8
4
 10
379.0323553747712
 20
59.71654926133954
 30
0.0
 40
3.0
 50
90.0
 51
180.0
  0
ARC
  5
1ECE
  8
4
 10
723.0323553747712
 20
59.71654926133954
 30
0.0
 40
3.0
 50
0.0
 51
90.0
  0
POLYLINE
  5
1ECF
  8
2
 66
     1
 10
0.0
 20
0.0
 30
0.0
  0
VERTEX
  5
1FB9
  8
2
 10
664.5344907322415
 20
62.71654926139968
 30
0.0
  0
VERTEX
  5
1FBA
  8
2
 10
664.8502356502127
 20
61.72138490816714
 30
0.0
  0
VERTEX
  5
1FBB
  8
2
 10
665.1655172491206
 20
60.72663892227575
 30
0.0
  0
VERTEX
  5
1FBC
  8
2
 10
665.4738939099698
 20
59.73253343849268
 30
0.0
  0
VERTEX
  5
1FBD
  8
2
 10
665.7689240137659
 20
58.73929059158501
 30
0.0
  0
VERTEX
  5
1FBE
  8
2
 10
666.0441659415139
 20
57.74713251631987
 30
0.0
  0
VERTEX
  5
1FBF
  8
2
 10
666.2931780742192
 20
56.75628134746442
 30
0.0
  0
VERTEX
  5
1FC0
  8
2
 10
666.5095187928872
 20
55.76695921978578
 30
0.0
  0
VERTEX
  5
1FC1
  8
2
 10
666.6867464785229
 20
54.77938826805101
 30
0.0
  0
VERTEX
  5
1FC2
  8
2
 10
666.8184195121318
 20
53.79379062702731
 30
0.0
  0
VERTEX
  5
1FC3
  8
2
 10
666.8980962747187
 20
52.81038843148176
 30
0.0
  0
VERTEX
  5
1FC4
  8
2
 10
666.9193351472892
 20
51.8294038161815
 30
0.0
  0
VERTEX
  5
1FC5
  8
2
 10
666.8756945108486
 20
50.85105891589368
 30
0.0
  0
VERTEX
  5
1FC6
  8
2
 10
666.7617486070839
 20
49.87553961994504
 30
0.0
  0
VERTEX
  5
1FC7
  8
2
 10
666.581084909583
 20
48.90271022970767
 30
0.0
  0
VERTEX
  5
1FC8
  8
2
 10
666.3420054528782
 20
47.93226683319477
 30
0.0
  0
VERTEX
  5
1FC9
  8
2
 10
666.0528534888666
 20
46.96390404780301
 30
0.0
  0
VERTEX
  5
1FCA
  8
2
 10
665.721972269446
 20
45.99731649092903
 30
0.0
  0
VERTEX
  5
1FCB
  8
2
 10
665.357705046514
 20
45.03219877996948
 30
0.0
  0
VERTEX
  5
1FCC
  8
2
 10
664.9683950719676
 20
44.06824553232104
 30
0.0
  0
VERTEX
  5
1FCD
  8
2
 10
664.5623855977046
 20
43.10515136538032
 30
0.0
  0
VERTEX
  5
1FCE
  8
2
 10
664.1480198756226
 20
42.14261089654403
 30
0.0
  0
VERTEX
  5
1FCF
  8
2
 10
663.7336411576186
 20
41.1803187432088
 30
0.0
  0
VERTEX
  5
1FD0
  8
2
 10
663.3275926955909
 20
40.21796952277128
 30
0.0
  0
VERTEX
  5
1FD1
  8
2
 10
662.9382177414361
 20
39.25525785262812
 30
0.0
  0
VERTEX
  5
1FD2
  8
2
 10
662.5738595470522
 20
38.291878350176
 30
0.0
  0
VERTEX
  5
1FD3
  8
2
 10
662.2428613643365
 20
37.32752563281155
 30
0.0
  0
VERTEX
  5
1FD4
  8
2
 10
661.9535664451864
 20
36.36189431793144
 30
0.0
  0
VERTEX
  5
1FD5
  8
2
 10
661.7143180414995
 20
35.39467902293231
 30
0.0
  0
VERTEX
  5
1FD6
  8
2
 10
661.5334594051734
 20
34.42557436521084
 30
0.0
  0
VERTEX
  5
1FD7
  8
2
 10
661.4193337881055
 20
33.45427496216366
 30
0.0
  0
VERTEX
  5
1FD8
  8
2
 10
661.3789566603505
 20
32.48055366759677
 30
0.0
  0
VERTEX
  5
1FD9
  8
2
 10
661.4101840320969
 20
31.50472303485731
 30
0.0
  0
VERTEX
  5
1FDA
  8
2
 10
661.507009143165
 20
30.52732322191392
 30
0.0
  0
VERTEX
  5
1FDB
  8
2
 10
661.6634116457728
 20
29.54889518735253
 30
0.0
  0
VERTEX
  5
1FDC
  8
2
 10
661.8733711921388
 20
28.56997988975913
 30
0.0
  0
VERTEX
  5
1FDD
  8
2
 10
662.1308674344814
 20
27.59111828771964
 30
0.0
  0
VERTEX
  5
1FDE
  8
2
 10
662.4298800250187
 20
26.61285133982004
 30
0.0
  0
VERTEX
  5
1FDF
  8
2
 10
662.7643886159694
 20
25.63572000464627
 30
0.0
  0
VERTEX
  5
1FE0
  8
2
 10
663.1283728595517
 20
24.6602652407843
 30
0.0
  0
VERTEX
  5
1FE1
  8
2
 10
663.9206869134845
 20
22.71654926133954
 30
0.0
  0
SEQEND
  5
1FE5
  8
2
  0
LINE
  5
1ED7
  8
L-CENTER
 10
1089.844713867718
 20
321.75433426134
 30
0.0
 11
1144.73651162543
 21
321.75433426134
 31
0.0
  0
LINE
  5
1ED8
  8
L-CENTER
 10
1730.346393627926
 20
255.5033910357116
 30
0.0
 11
1675.454595870214
 21
255.5033910357116
 31
0.0
  0
LINE
  5
1ED9
  8
L-CENTER
 10
1730.346393627926
 20
129.9297074869675
 30
0.0
 11
1675.454595870214
 21
129.9297074869675
 31
0.0
  0
LINE
  5
1EDB
  8
L-CENTER
 10
1089.844713867718
 20
63.6787642613391
 30
0.0
 11
1144.73651162543
 21
63.6787642613391
 31
0.0
  0
LINE
  5
1EEE
  8
L-CENTER
 10
409.4315154946676
 20
1578.400185667567
 30
0.0
 11
464.3233132523794
 21
1578.400185667567
 31
0.0
  0
LINE
  5
1EEF
  8
L-CENTER
 10
409.4315154946676
 20
1486.400185667567
 30
0.0
 11
464.3233132523794
 21
1486.400185667567
 31
0.0
  0
LINE
  5
1EF0
  8
L-CENTER
 10
409.4315154946676
 20
1210.400185667566
 30
0.0
 11
464.3233132523794
 21
1210.400185667566
 31
0.0
  0
LINE
  5
1EF1
  8
L-CENTER
 10
409.4315154946676
 20
1302.400185667567
 30
0.0
 11
464.3233132523794
 21
1302.400185667567
 31
0.0
  0
LINE
  5
1EF2
  8
L-CENTER
 10
478.5323553747712
 20
1632.301025547672
 30
0.0
 11
478.5323553747712
 21
1577.409227789959
 31
0.0
  0
LINE
  5
1EF3
  8
L-CENTER
 10
514.7823553747712
 20
1632.301025547672
 30
0.0
 11
514.7823553747712
 21
1577.409227789959
 31
0.0
  0
LINE
  5
1EF4
  8
L-CENTER
 10
623.5323553747712
 20
1632.301025547672
 30
0.0
 11
623.5323553747712
 21
1577.409227789959
 31
0.0
  0
LINE
  5
1EF5
  8
L-CENTER
 10
587.2823553747712
 20
1632.301025547672
 30
0.0
 11
587.2823553747712
 21
1577.409227789959
 31
0.0
  0
LINE
  5
1EF6
  8
L-CENTER
 10
402.0323553747708
 20
991.7993457874622
 30
0.0
 11
402.0323553747708
 21
1046.691143545174
 31
0.0
  0
LINE
  5
1EF7
  8
L-CENTER
 10
476.5323556627845
 20
991.7993457874622
 30
0.0
 11
476.5323556627845
 21
1046.691143545174
 31
0.0
  0
LINE
  5
1EF8
  8
L-CENTER
 10
700.0323553747708
 20
991.7993457874622
 30
0.0
 11
700.0323553747708
 21
1046.691143545174
 31
0.0
  0
LINE
  5
1EF9
  8
L-CENTER
 10
625.532355086757
 20
991.7993457874622
 30
0.0
 11
625.532355086757
 21
1046.691143545174
 31
0.0
  0
ARC
  5
1EFE
  8
4
 10
453.0323553747717
 20
1596.400185667566
 30
0.0
 40
3.0
 50
90.0
 51
180.0
  0
ARC
  5
1EFF
  8
4
 10
649.0323553747712
 20
1596.400185667566
 30
0.0
 40
3.0
 50
0.0
 51
90.0
  0
ARC
  5
1F00
  8
4
 10
670.0323553747712
 20
1588.900185667568
 30
0.0
 40
3.0
 50
0.0
 51
90.0
  0
ARC
  5
1F01
  8
4
 10
670.0323553747708
 20
1199.900185667567
 30
0.0
 40
3.0
 50
270.0
 51
0.0
  0
ARC
  5
1F02
  8
4
 10
712.0323553747708
 20
1061.400185667567
 30
0.0
 40
3.0
 50
0.0
 51
90.0
  0
ARC
  5
1F03
  8
4
 10
390.0323553747708
 20
1061.400185667567
 30
0.0
 40
3.0
 50
90.0
 51
180.0
  0
ARC
  5
1F04
  8
4
 10
428.0323553747712
 20
593.7165492613403
 30
0.0
 40
3.0
 50
90.0
 51
180.0
  0
ARC
  5
1F05
  8
4
 10
670.0323553747717
 20
597.2165492613394
 30
0.0
 40
3.0
 50
0.0
 51
90.0
  0
ARC
  5
1F06
  8
4
 10
649.0323553747712
 20
601.5053562886249
 30
0.0
 40
3.0
 50
0.0
 51
86.24648983592316
  0
ARC
  5
1F07
  8
4
 10
453.0323553747712
 20
601.5053562886246
 30
0.0
 40
3.0
 50
93.75351016407359
 51
180.0
  0
ARC
  5
1F08
  8
4
 10
1106.445553747822
 20
353.2165492613395
 30
0.0
 40
2.0
 50
90.0
 51
180.0
  0
ARC
  5
1F09
  8
4
 10
1106.445553747822
 20
32.21654926133954
 30
0.0
 40
2.0
 50
180.0
 51
270.0
  0
ARC
  5
1F0A
  8
4
 10
1159.445553747822
 20
31.71654926133863
 30
0.0
 40
3.0
 50
270.0
 51
0.0
  0
ARC
  5
1F10
  8
4
 10
733.032355374771
 20
1394.400185667567
 30
0.0
 40
12.0
 50
90.0
 51
270.0000000000005
  0
LINE
  5
1F11
  8
4
 10
840.032355374771
 20
1435.900185667567
 30
0.0
 11
712.032355374771
 21
1435.900185667567
 31
0.0
  0
LINE
  5
1F12
  8
4
 10
840.0323553747712
 20
1352.900185667567
 30
0.0
 11
712.0323553747712
 21
1352.900185667567
 31
0.0
  0
LINE
  5
1F13
  8
4
 10
841.0323553747712
 20
1353.900185667567
 30
0.0
 11
841.032355374771
 21
1434.900185667567
 31
0.0
  0
LINE
  5
1F14
  8
4
 10
733.0323553747711
 20
1382.400185667567
 30
0.0
 11
841.0323553747711
 21
1382.400185667567
 31
0.0
  0
LINE
  5
1F15
  8
4
 10
840.0323553747712
 20
1352.900185667567
 30
0.0
 11
840.0323553747711
 21
1382.400185667567
 31
0.0
  0
LINE
  5
1F16
  8
4
 10
840.0323553747712
 20
1352.900185667567
 30
0.0
 11
841.0323553747712
 21
1353.900185667567
 31
0.0
  0
LINE
  5
1F17
  8
4
 10
733.032355374771
 20
1406.400185667567
 30
0.0
 11
841.032355374771
 21
1406.400185667567
 31
0.0
  0
LINE
  5
1F18
  8
4
 10
840.032355374771
 20
1406.400185667567
 30
0.0
 11
840.032355374771
 21
1435.900185667567
 31
0.0
  0
LINE
  5
1F19
  8
4
 10
841.032355374771
 20
1434.900185667567
 30
0.0
 11
840.032355374771
 21
1435.900185667567
 31
0.0
  0
LINE
  5
1F1A
  8
4
 10
711.0323553747712
 20
1351.900185667567
 30
0.0
 11
711.032355374771
 21
1436.900185667567
 31
0.0
  0
LINE
  5
1F1B
  8
4
 10
684.0323553747714
 20
1449.400185667567
 30
0.0
 11
684.0323553747717
 21
1339.400185667567
 31
0.0
  0
LINE
  5
1F1C
  8
4
 10
684.0323553747717
 20
1351.900185667567
 30
0.0
 11
711.0323553747712
 21
1351.900185667567
 31
0.0
  0
ARC
  5
1F1D
  8
4
 10
712.0323553747712
 20
1351.900185667567
 30
0.0
 40
1.0
 50
90.0
 51
180.0
  0
LINE
  5
1F1E
  8
4
 10
684.0323553747717
 20
1339.400185667567
 30
0.0
 11
683.0323553747712
 21
1339.400185667567
 31
0.0
  0
LINE
  5
1F1F
  8
4
 10
684.0323553747714
 20
1436.900185667567
 30
0.0
 11
711.032355374771
 21
1436.900185667567
 31
0.0
  0
ARC
  5
1F20
  8
4
 10
712.032355374771
 20
1436.900185667567
 30
0.0
 40
1.0
 50
180.0
 51
270.0
  0
LINE
  5
1F21
  8
4
 10
684.0323553747714
 20
1449.400185667567
 30
0.0
 11
683.032355374771
 21
1449.400185667567
 31
0.0
  0
LINE
  5
1F23
  8
4
 10
840.0323553747703
 20
444.2165492613404
 30
0.0
 11
711.0323553747712
 21
444.2165492613404
 31
0.0
  0
LINE
  5
1F24
  8
4
 10
840.0323553747703
 20
361.2165492613386
 30
0.0
 11
811.0323553747712
 21
361.2165492613386
 31
0.0
  0
LINE
  5
1F25
  8
4
 10
841.0323553747712
 20
454.2165492613404
 30
0.0
 11
721.0323553747712
 21
454.2165492613404
 31
0.0
  0
LINE
  5
1F26
  8
4
 10
841.0323553747712
 20
454.2165492613404
 30
0.0
 11
841.0323553747712
 21
362.2165492613395
 31
0.0
  0
LINE
  5
1F27
  8
4
 10
711.0323553747712
 20
445.2165492613395
 30
0.0
 11
711.0323553747712
 21
360.7165492613391
 31
0.0
  0
LINE
  5
1F29
  8
4
 10
711.0323553747712
 20
445.2165492613395
 30
0.0
 11
684.0323553747717
 21
445.2165492613395
 31
0.0
  0
LINE
  5
1F2A
  8
4
 10
721.0323553747712
 20
454.2165492613404
 30
0.0
 11
721.0323553747712
 21
444.2165492613404
 31
0.0
  0
LINE
  5
1F2B
  8
4
 10
684.0323553747717
 20
457.7165492613395
 30
0.0
 11
683.0323553747717
 21
457.7165492613395
 31
0.0
  0
LINE
  5
1F2C
  8
4
 10
684.0323553747717
 20
436.7164662613387
 30
0.0
 11
684.0323553747717
 21
457.7165492613395
 31
0.0
  0
LINE
  5
1F2D
  8
4
 10
840.0323553747712
 20
361.2165492613395
 30
0.0
 11
841.0323553747712
 21
362.2165492613395
 31
0.0
  0
LINE
  5
1F2E
  8
4
 10
840.0323553747712
 20
361.2165492613386
 30
0.0
 11
840.0323553747712
 21
444.2165492613395
 31
0.0
  0
LINE
  5
1F2F
  8
4
 10
841.0323553747712
 20
443.2165492613395
 30
0.0
 11
840.0323553747712
 21
444.2165492613395
 31
0.0
  0
LINE
  5
1F31
  8
4
 10
736.0323553747712
 20
361.2165492613386
 30
0.0
 11
711.0323553747712
 21
361.2165492613386
 31
0.0
  0
CIRCLE
  5
1F5A
  8
4
 10
1492.445553747822
 20
402.7165492613395
 30
0.0
 40
55.0
  0
ARC
  5
1F5B
  8
4
 10
1492.445553747822
 20
402.7165492613394
 30
0.0
 40
41.5
 50
106.8074712234167
 51
73.1925289999998
  0
LINE
  5
1F5C
  8
4
 10
1504.445553747822
 20
436.2165492613408
 30
0.0
 11
1504.445553747822
 21
452.2165492613399
 31
0.0
  0
LINE
  5
1F5D
  8
4
 10
1480.445553747822
 20
436.2165492613408
 30
0.0
 11
1480.445553747822
 21
452.2165492613399
 31
0.0
  0
LINE
  5
1F5E
  8
4
 10
1480.445553747822
 20
436.2165492613408
 30
0.0
 11
1504.445553747822
 21
436.2165492613408
 31
0.0
  0
LINE
  5
1F5F
  8
4
 10
1480.445553747822
 20
452.2165492613399
 30
0.0
 11
1504.445553747822
 21
452.2165492613399
 31
0.0
  0
LINE
  5
1F6D
  8
4
 10
371.0323553747712
 20
359.71654926134
 30
0.0
 11
292.0323553747721
 21
359.71654926134
 31
0.0
  0
LINE
  5
1F6E
  8
4
 10
366.0323553747712
 20
363.2165492613391
 30
0.0
 11
291.0323553747712
 21
363.2165492613391
 31
0.0
  0
LINE
  5
1F6F
  8
4
 10
371.0323553747712
 20
321.7165492613404
 30
0.0
 11
292.0323553747698
 21
321.7165492613404
 31
0.0
  0
LINE
  5
1F70
  8
4
 10
399.0323553747708
 20
360.7165492613391
 30
0.0
 11
371.0323553747712
 21
360.7165492613391
 31
0.0
  0
LINE
  5
1F71
  8
4
 10
399.0323553747708
 20
320.7165492613391
 30
0.0
 11
371.0323553747712
 21
320.7165492613391
 31
0.0
  0
LINE
  5
1F72
  8
4
 10
371.0323553747712
 20
360.7165492613391
 30
0.0
 11
371.0323553747712
 21
320.7165492613391
 31
0.0
  0
LINE
  5
1F73
  8
4
 10
366.0323553747712
 20
363.2165492613391
 30
0.0
 11
366.0323553747712
 21
359.71654926134
 31
0.0
  0
LINE
  5
1F74
  8
4
 10
291.0323553747712
 20
363.2165492613391
 30
0.0
 11
291.0323553747712
 21
322.7165492613391
 31
0.0
  0
LINE
  5
1F75
  8
4
 10
291.0323553747712
 20
322.7165492613391
 30
0.0
 11
292.0323553747712
 21
321.7165492613391
 31
0.0
  0
LINE
  5
1F76
  8
4
 10
292.0323553747712
 20
359.7165492613391
 30
0.0
 11
292.0323553747712
 21
321.7165492613404
 31
0.0
  0
LINE
  5
1F77
  8
4
 10
292.0323553747712
 20
359.7165492613391
 30
0.0
 11
291.0323553747712
 21
358.7165492613391
 31
0.0
  0
LINE
  5
1F89
  8
4
 10
370.0323553747705
 20
1123.400185667567
 30
0.0
 11
292.0323553747705
 21
1123.400185667567
 31
0.0
  0
LINE
  5
1F8A
  8
4
 10
370.0323553747704
 20
1085.400185667567
 30
0.0
 11
292.0323553747704
 21
1085.400185667567
 31
0.0
  0
LINE
  5
1F8B
  8
4
 10
361.0323553747704
 20
1109.400185667567
 30
0.0
 11
291.0323553747704
 21
1109.400185667567
 31
0.0
  0
LINE
  5
1F8C
  8
4
 10
361.0323553747704
 20
1099.400185667567
 30
0.0
 11
291.0323553747704
 21
1099.400185667567
 31
0.0
  0
LINE
  5
1F8D
  8
4
 10
399.0323553747704
 20
1084.400185667567
 30
0.0
 11
371.0323553747704
 21
1084.400185667567
 31
0.0
  0
LINE
  5
1F8E
  8
4
 10
399.0323553747705
 20
1124.400185667567
 30
0.0
 11
371.0323553747705
 21
1124.400185667567
 31
0.0
  0
ARC
  5
1F8F
  8
4
 10
361.0323553747704
 20
1104.400185667567
 30
0.0
 40
5.0
 50
270.0
 51
0.0
  0
ARC
  5
1F90
  8
4
 10
361.0323553747704
 20
1104.400185667567
 30
0.0
 40
5.0
 50
0.0
 51
90.0
  0
LINE
  5
1F91
  8
4
 10
371.0323553747705
 20
1124.400185667567
 30
0.0
 11
371.0323553747704
 21
1084.400185667567
 31
0.0
  0
ARC
  5
1F92
  8
4
 10
370.0323553747704
 20
1084.400185667567
 30
0.0
 40
1.0
 50
0.0
 51
90.0
  0
ARC
  5
1F93
  8
4
 10
370.0323553747705
 20
1124.400185667567
 30
0.0
 40
1.0
 50
270.0
 51
0.0
  0
LINE
  5
1F94
  8
4
 10
366.0323553747704
 20
1104.400185667567
 30
0.0
 11
366.0323553747704
 21
1104.400185667567
 31
0.0
  0
LINE
  5
1F95
  8
4
 10
291.0323553747705
 20
1122.400185667568
 30
0.0
 11
291.0323553747704
 21
1086.400185667568
 31
0.0
  0
LINE
  5
1F96
  8
4
 10
292.0323553747704
 20
1099.400185667567
 30
0.0
 11
292.0323553747704
 21
1085.400185667567
 31
0.0
  0
LINE
  5
1F97
  8
4
 10
291.0323553747704
 20
1086.400185667567
 30
0.0
 11
292.0323553747704
 21
1085.400185667567
 31
0.0
  0
LINE
  5
1F98
  8
4
 10
292.0323553747705
 20
1123.400185667567
 30
0.0
 11
292.0323553747704
 21
1109.400185667567
 31
0.0
  0
LINE
  5
1F99
  8
4
 10
292.0323553747705
 20
1123.400185667567
 30
0.0
 11
291.0323553747705
 21
1122.400185667567
 31
0.0
  0
ENDSEC
  0
EOF
