  0
SECTION
  2
HEADER
  9
$ACADVER
  1
AC1015
  9
$ACADMAINTVER
 70
     6
  9
$DWGCODEPAGE
  3
ANSI_932
  9
$INSBASE
 10
0.0
 20
0.0
 30
0.0
  9
$EXTMIN
 10
174.7770240660116
 20
20.59676511714963
 30
0.0
  9
$EXTMAX
 10
2025.377834579387
 20
7827.222674703602
 30
0.0
  9
$LIMMIN
 10
0.0
 20
0.0
  9
$LIMMAX
 10
816.5000000000001
 20
565.0
  9
$ORTHOMODE
 70
     1
  9
$REGENMODE
 70
     1
  9
$FILLMODE
 70
     1
  9
$QTEXTMODE
 70
     0
  9
$MIRRTEXT
 70
     1
  9
$LTSCALE
 40
5.0
  9
$ATTMODE
 70
     1
  9
$TEXTSIZE
 40
15.0
  9
$TRACEWID
 40
0.05
  9
$TEXTSTYLE
  7
KANJI
  9
$CLAYER
  8
2
  9
$CELTYPE
  6
BYLAYER
  9
$CECOLOR
 62
   256
  9
$CELTSCALE
 40
1.0
  9
$DISPSILH
 70
     0
  9
$DIMSCALE
 40
5.0
  9
$DIMASZ
 40
2.0
  9
$DIMEXO
 40
0.5
  9
$DIMDLI
 40
0.0
  9
$DIMRND
 40
0.0
  9
$DIMDLE
 40
0.0
  9
$DIMEXE
 40
1.0
  9
$DIMTP
 40
0.0
  9
$DIMTM
 40
0.0
  9
$DIMTXT
 40
3.0
  9
$DIMCEN
 40
0.09
  9
$DIMTSZ
 40
0.0
  9
$DIMTOL
 70
     0
  9
$DIMLIM
 70
     0
  9
$DIMTIH
 70
     0
  9
$DIMTOH
 70
     0
  9
$DIMSE1
 70
     0
  9
$DIMSE2
 70
     0
  9
$DIMTAD
 70
     0
  9
$DIMZIN
 70
     8
  9
$DIMBLK
  1

  9
$DIMASO
 70
     0
  9
$DIMSHO
 70
     0
  9
$DIMPOST
  1

  9
$DIMAPOST
  1

  9
$DIMALT
 70
     0
  9
$DIMALTD
 70
     2
  9
$DIMALTF
 40
25.4
  9
$DIMLFAC
 40
1.0
  9
$DIMTOFL
 70
     1
  9
$DIMTVP
 40
1.0
  9
$DIMTIX
 70
     1
  9
$DIMSOXD
 70
     1
  9
$DIMSAH
 70
     0
  9
$DIMBLK1
  1

  9
$DIMBLK2
  1

  9
$DIMSTYLE
  2
STANDARD
  9
$DIMCLRD
 70
   256
  9
$DIMCLRE
 70
   256
  9
$DIMCLRT
 70
   256
  9
$DIMTFAC
 40
1.0
  9
$DIMGAP
 40
0.09
  9
$DIMJUST
 70
     0
  9
$DIMSD1
 70
     0
  9
$DIMSD2
 70
     0
  9
$DIMTOLJ
 70
     1
  9
$DIMTZIN
 70
     0
  9
$DIMALTZ
 70
     0
  9
$DIMALTTZ
 70
     0
  9
$DIMUPT
 70
     0
  9
$DIMDEC
 70
     1
  9
$DIMTDEC
 70
     4
  9
$DIMALTU
 70
     2
  9
$DIMALTTD
 70
     2
  9
$DIMTXSTY
  7
STANDARD
  9
$DIMAUNIT
 70
     0
  9
$DIMADEC
 70
     0
  9
$DIMALTRND
 40
0.0
  9
$DIMAZIN
 70
     0
  9
$DIMDSEP
 70
    46
  9
$DIMATFIT
 70
     3
  9
$DIMFRAC
 70
     0
  9
$DIMLDRBLK
  1

  9
$DIMLUNIT
 70
     2
  9
$DIMLWD
 70
    -2
  9
$DIMLWE
 70
    -2
  9
$DIMTMOVE
 70
     0
  9
$LUNITS
 70
     2
  9
$LUPREC
 70
     3
  9
$SKETCHINC
 40
0.1
  9
$FILLETRAD
 40
3.0
  9
$AUNITS
 70
     0
  9
$AUPREC
 70
     3
  9
$MENU
  1
C:\R13\WIN\SUPPORT\ACADFULL
  9
$ELEVATION
 40
0.0
  9
$PELEVATION
 40
0.0
  9
$THICKNESS
 40
0.0
  9
$LIMCHECK
 70
     0
  9
$CHAMFERA
 40
0.0
  9
$CHAMFERB
 40
0.0
  9
$CHAMFERC
 40
0.0
  9
$CHAMFERD
 40
0.0
  9
$SKPOLY
 70
     0
  9
$TDCREATE
 40
2457661.529530856
  9
$TDUCREATE
 40
2457661.154530856
  9
$TDUPDATE
 40
2458124.543554422
  9
$TDUUPDATE
 40
2458124.168554422
  9
$TDINDWG
 40
0.0940390856
  9
$TDUSRTIMER
 40
0.0940379977
  9
$USRTIMER
 70
     1
  9
$ANGBASE
 50
0.0
  9
$ANGDIR
 70
     0
  9
$PDMODE
 70
     0
  9
$PDSIZE
 40
0.0
  9
$PLINEWID
 40
0.0
  9
$SPLFRAME
 70
     0
  9
$SPLINETYPE
 70
     6
  9
$SPLINESEGS
 70
     8
  9
$HANDSEED
  5
1FE5
  9
$SURFTAB1
 70
     6
  9
$SURFTAB2
 70
     6
  9
$SURFTYPE
 70
     6
  9
$SURFU
 70
     6
  9
$SURFV
 70
     6
  9
$UCSBASE
  2

  9
$UCSNAME
  2

  9
$UCSORG
 10
0.0
 20
0.0
 30
0.0
  9
$UCSXDIR
 10
1.0
 20
0.0
 30
0.0
  9
$UCSYDIR
 10
0.0
 20
1.0
 30
0.0
  9
$UCSORTHOREF
  2

  9
$UCSORTHOVIEW
 70
     0
  9
$UCSORGTOP
 10
0.0
 20
0.0
 30
0.0
  9
$UCSORGBOTTOM
 10
0.0
 20
0.0
 30
0.0
  9
$UCSORGLEFT
 10
0.0
 20
0.0
 30
0.0
  9
$UCSORGRIGHT
 10
0.0
 20
0.0
 30
0.0
  9
$UCSORGFRONT
 10
0.0
 20
0.0
 30
0.0
  9
$UCSORGBACK
 10
0.0
 20
0.0
 30
0.0
  9
$PUCSBASE
  2

  9
$PUCSNAME
  2

  9
$PUCSORG
 10
0.0
 20
0.0
 30
0.0
  9
$PUCSXDIR
 10
1.0
 20
0.0
 30
0.0
  9
$PUCSYDIR
 10
0.0
 20
1.0
 30
0.0
  9
$PUCSORTHOREF
  2

  9
$PUCSORTHOVIEW
 70
     0
  9
$PUCSORGTOP
 10
0.0
 20
0.0
 30
0.0
  9
$PUCSORGBOTTOM
 10
0.0
 20
0.0
 30
0.0
  9
$PUCSORGLEFT
 10
0.0
 20
0.0
 30
0.0
  9
$PUCSORGRIGHT
 10
0.0
 20
0.0
 30
0.0
  9
$PUCSORGFRONT
 10
0.0
 20
0.0
 30
0.0
  9
$PUCSORGBACK
 10
0.0
 20
0.0
 30
0.0
  9
$USERI1
 70
     0
  9
$USERI2
 70
     0
  9
$USERI3
 70
     0
  9
$USERI4
 70
     0
  9
$USERI5
 70
     0
  9
$USERR1
 40
0.0
  9
$USERR2
 40
0.0
  9
$USERR3
 40
0.0
  9
$USERR4
 40
2448925.372986111
  9
$USERR5
 40
0.04166667
  9
$WORLDVIEW
 70
     1
  9
$SHADEDGE
 70
     3
  9
$SHADEDIF
 70
    70
  9
$TILEMODE
 70
     1
  9
$MAXACTVP
 70
    16
  9
$PINSBASE
 10
0.0
 20
0.0
 30
0.0
  9
$PLIMCHECK
 70
     0
  9
$PEXTMIN
 10
1000000000000000E+20
 20
1000000000000000E+20
 30
1000000000000000E+20
  9
$PEXTMAX
 10
-1000000000000000E+20
 20
-1000000000000000E+20
 30
-1000000000000000E+20
  9
$PLIMMIN
 10
0.0
 20
0.0
  9
$PLIMMAX
 10
12.0
 20
9.0
  9
$UNITMODE
 70
     0
  9
$VISRETAIN
 70
     0
  9
$PLINEGEN
 70
     0
  9
$PSLTSCALE
 70
     0
  9
$TREEDEPTH
 70
  3020
  9
$CMLSTYLE
  2
STANDARD
  9
$CMLJUST
 70
     0
  9
$CMLSCALE
 40
1.0
  9
$PROXYGRAPHICS
 70
     1
  9
$MEASUREMENT
 70
     0
  9
$CELWEIGHT
370
    -1
  9
$ENDCAPS
280
     0
  9
$JOINSTYLE
280
     0
  9
$LWDISPLAY
290
     0
  9
$INSUNITS
 70
     0
  9
$HYPERLINKBASE
  1

  9
$STYLESHEET
  1

  9
$XEDIT
290
     1
  9
$CEPSNTYPE
380
     0
  9
$PSTYLEMODE
290
     1
  9
$FINGERPRINTGUID
  2
{8C2C3B4A-CEE2-44BD-BB9A-1B47B6591380}
  9
$VERSIONGUID
  2
{861AEE12-BE66-4493-B0D4-1A1FDC083E12}
  9
$EXTNAMES
290
     1
  9
$PSVPSCALE
 40
0.0
  9
$OLESTARTUP
290
     0
  0
ENDSEC
  0
SECTION
  2
CLASSES
  0
CLASS
  1
LWPOLYLINE
  2
AcDbPolyline
  3
AutoCAD 2000
 90
        0
280
     0
281
     1
  0
CLASS
  1
HATCH
  2
AcDbHatch
  3
AutoCAD 2000
 90
        0
280
     0
281
     1
  0
CLASS
  1
XRECORD
  2
AcDbXrecord
  3
AutoCAD 2000
 90
        0
280
     0
281
     0
  0
CLASS
  1
ACDBDICTIONARYWDFLT
  2
AcDbDictionaryWithDefault
  3
ObjectDBX Classes
 90
        0
280
     0
281
     0
  0
CLASS
  1
ACDBPLACEHOLDER
  2
AcDbPlaceHolder
  3
ObjectDBX Classes
 90
        0
280
     0
281
     0
  0
CLASS
  1
LAYOUT
  2
AcDbLayout
  3
ObjectDBX Classes
 90
        0
280
     0
281
     0
  0
CLASS
  1
DICTIONARYVAR
  2
AcDbDictionaryVar
  3
ObjectDBX Classes
 90
        0
280
     0
281
     0
  0
CLASS
  1
DUMMY
  2
AcDbLongTransaction
  3
DUMMY
 90
        0
280
     0
281
     0
  0
CLASS
  1
LWPOLYLINE
  2
AcDbPolyline
  3
AutoCAD 2000
 90
        0
280
     0
281
     1
  0
CLASS
  1
HATCH
  2
AcDbHatch
  3
AutoCAD 2000
 90
        0
280
     0
281
     1
  0
CLASS
  1
XRECORD
  2
AcDbXrecord
  3
AutoCAD 2000
 90
        0
280
     0
281
     0
  0
CLASS
  1
DUMMY
  2
AcDbLongTransaction
  3
DUMMY
 90
        0
280
     0
281
     0
  0
CLASS
  1
LWPOLYLINE
  2
AcDbPolyline
  3
AutoCAD 2000
 90
        0
280
     0
281
     1
  0
CLASS
  1
HATCH
  2
AcDbHatch
  3
AutoCAD 2000
 90
        0
280
     0
281
     1
  0
CLASS
  1
XRECORD
  2
AcDbXrecord
  3
AutoCAD 2000
 90
        0
280
     0
281
     0
  0
CLASS
  1
DUMMY
  2
AcDbLongTransaction
  3
DUMMY
 90
        0
280
     0
281
     0
  0
CLASS
  1
LWPOLYLINE
  2
AcDbPolyline
  3
AutoCAD 2000
 90
        0
280
     0
281
     1
  0
CLASS
  1
HATCH
  2
AcDbHatch
  3
AutoCAD 2000
 90
        0
280
     0
281
     1
  0
CLASS
  1
XRECORD
  2
AcDbXrecord
  3
AutoCAD 2000
 90
        0
280
     0
281
     0
  0
CLASS
  1
VISUALSTYLE
  2
AcDbVisualStyle
  3
ObjectDBX Classes
 90
     4095
280
     0
281
     0
  0
CLASS
  1
SCALE
  2
AcDbScale
  3
ObjectDBX Classes
 90
     1153
280
     0
281
     0
  0
CLASS
  1
MATERIAL
  2
AcDbMaterial
  3
ObjectDBX Classes
 90
     1153
280
     0
281
     0
  0
CLASS
  1
TABLESTYLE
  2
AcDbTableStyle
  3
ObjectDBX Classes
 90
     4095
280
     0
281
     0
  0
CLASS
  1
MLEADERSTYLE
  2
AcDbMLeaderStyle
  3
ACDB_MLEADERSTYLE_CLASS
 90
     4095
280
     0
281
     0
  0
CLASS
  1
SORTENTSTABLE
  2
AcDbSortentsTable
  3
ObjectDBX Classes
 90
        0
280
     0
281
     0
  0
ENDSEC
  0
SECTION
  2
TABLES
  0
TABLE
  2
VPORT
  5
19
102
{ACAD_XDICTIONARY
360
1FAB
102
}
330
0
100
AcDbSymbolTable
 70
     2
  0
VPORT
  5
5F8
330
19
100
AcDbSymbolTableRecord
100
AcDbViewportTableRecord
  2
*ACTIVE
 70
     0
 10
0.0
 20
0.0
 11
1.0
 21
1.0
 12
1668.34322918275
 22
826.3759421751856
 13
0.0
 23
0.0
 14
1.0
 24
1.0
 15
50.0
 25
50.0
 16
0.0
 26
0.0
 36
1.0
 17
0.0
 27
0.0
 37
0.0
 40
2000.743710801561
 41
1.82716049382716
 42
50.0
 43
0.0
 44
0.0
 50
0.0
 51
0.0
 71
     0
 72
  5000
 73
     1
 74
     0
 75
     0
 76
     0
 77
     0
 78
     0
281
     0
 65
     1
110
0.0
120
0.0
130
0.0
111
1.0
121
0.0
131
0.0
112
0.0
122
1.0
132
0.0
 79
     0
146
0.0
  0
ENDTAB
  0
TABLE
  2
LTYPE
  5
14
330
0
100
AcDbSymbolTable
 70
     4
  0
LTYPE
  5
15
330
14
100
AcDbSymbolTableRecord
100
AcDbLinetypeTableRecord
  2
BYBLOCK
 70
     0
  3

 72
    65
 73
     0
 40
0.0
  0
LTYPE
  5
16
330
14
100
AcDbSymbolTableRecord
100
AcDbLinetypeTableRecord
  2
BYLAYER
 70
     0
  3

 72
    65
 73
     0
 40
0.0
  0
LTYPE
  5
8
330
14
100
AcDbSymbolTableRecord
100
AcDbLinetypeTableRecord
  2
CONTINUOUS
 70
     0
  3
Solid line
 72
    65
 73
     0
 40
0.0
  0
LTYPE
  5
3F
330
14
100
AcDbSymbolTableRecord
100
AcDbLinetypeTableRecord
  2
CENTER
 70
     0
  3
Center ____ _ ____ _ ____ _ ____ _ ____ _ ____
 72
    65
 73
     4
 40
2.0
 49
1.25
 74
     0
 49
-0.25
 74
     0
 49
0.25
 74
     0
 49
-0.25
 74
     0
  0
LTYPE
  5
2F1
330
14
100
AcDbSymbolTableRecord
100
AcDbLinetypeTableRecord
  2
DASHDOT
 70
     0
  3
__ . __ . __ . __ . __ . __ . __ . __ . __ . __
 72
    65
 73
     4
 40
1.0
 49
0.5
 74
     0
 49
-0.25
 74
     0
 49
0.0
 74
     0
 49
-0.25
 74
     0
  0
LTYPE
  5
114
330
14
100
AcDbSymbolTableRecord
100
AcDbLinetypeTableRecord
  2
DASHED
 70
     0
  3
Dashed __ __ __ __ __ __ __ __ __ __ __ __ __ _
 72
    65
 73
     2
 40
0.75
 49
0.5
 74
     0
 49
-0.25
 74
     0
  0
ENDTAB
  0
TABLE
  2
LAYER
  5
10
330
0
100
AcDbSymbolTable
 70
     9
  0
LAYER
  5
4
330
10
100
AcDbSymbolTableRecord
100
AcDbLayerTableRecord
  2
0
 70
     0
 62
     7
  6
CONTINUOUS
370
    -3
390
5
  0
LAYER
  5
2A
330
10
100
AcDbSymbolTableRecord
100
AcDbLayerTableRecord
  2
1
 70
     0
 62
     9
  6
CONTINUOUS
370
    -3
390
5
  0
LAYER
  5
27
330
10
100
AcDbSymbolTableRecord
100
AcDbLayerTableRecord
  2
2
 70
     0
 62
     4
  6
CONTINUOUS
370
    -3
390
5
  0
LAYER
  5
22
330
10
100
AcDbSymbolTableRecord
100
AcDbLayerTableRecord
  2
4
 70
     0
 62
     3
  6
CONTINUOUS
370
    -3
390
5
  0
LAYER
  5
3E
330
10
100
AcDbSymbolTableRecord
100
AcDbLayerTableRecord
  2
L-CENTER
 70
     0
 62
     1
  6
CENTER
370
    -3
390
5
  0
LAYER
  5
5BF
330
10
100
AcDbSymbolTableRecord
100
AcDbLayerTableRecord
  2
3
 70
     0
 62
     2
  6
CONTINUOUS
370
    -3
390
5
  0
LAYER
  5
641
330
10
100
AcDbSymbolTableRecord
100
AcDbLayerTableRecord
  2
Defpoints
 70
     0
 62
     7
  6
CONTINUOUS
290
     0
370
    -3
390
5
  0
LAYER
  5
651
102
{ACAD_XDICTIONARY
360
652
102
}
330
10
100
AcDbSymbolTableRecord
100
AcDbLayerTableRecord
  2
5
 70
     0
 62
     6
  6
CONTINUOUS
370
    -3
390
5
  0
LAYER
  5
657
102
{ACAD_XDICTIONARY
360
658
102
}
330
10
100
AcDbSymbolTableRecord
100
AcDbLayerTableRecord
  2
CENTER
 70
     0
 62
     1
  6
CENTER
370
    -3
390
5
  0
ENDTAB
  0
TABLE
  2
STYLE
  5
11
330
0
100
AcDbSymbolTable
 70
     2
  0
STYLE
  5
12
330
11
100
AcDbSymbolTableRecord
100
AcDbTextStyleTableRecord
  2
STANDARD
 70
     0
 40
0.0
 41
1.0
 50
0.0
 71
     0
 42
9.0
  3
TXT
  4

  0
STYLE
  5
23
330
11
100
AcDbSymbolTableRecord
100
AcDbTextStyleTableRecord
  2
KANJI
 70
     0
 40
0.0
 41
1.0
 50
0.0
 71
     0
 42
15.0
  3
TXT
  4
BIGFONT
  0
ENDTAB
  0
TABLE
  2
VIEW
  5
17
330
0
100
AcDbSymbolTable
 70
     0
  0
ENDTAB
  0
TABLE
  2
UCS
  5
18
330
0
100
AcDbSymbolTable
 70
     0
  0
ENDTAB
  0
TABLE
  2
APPID
  5
1B
330
0
100
AcDbSymbolTable
 70
     5
  0
APPID
  5
1C
330
1B
100
AcDbSymbolTableRecord
100
AcDbRegAppTableRecord
  2
ACAD
 70
     0
  0
APPID
  5
63E
330
1B
100
AcDbSymbolTableRecord
100
AcDbRegAppTableRecord
  2
ACAD_PSEXT
 70
     0
  0
APPID
  5
65C
330
1B
100
AcDbSymbolTableRecord
100
AcDbRegAppTableRecord
  2
ACAD_NAV_VCDISPLAY
 70
     0
  0
APPID
  5
65D
330
1B
100
AcDbSymbolTableRecord
100
AcDbRegAppTableRecord
  2
ACAD_EXEMPT_FROM_CAD_STANDARDS
 70
     0
  0
APPID
  5
65E
330
1B
100
AcDbSymbolTableRecord
100
AcDbRegAppTableRecord
  2
ACAD_MLEADERVER
 70
     0
  0
ENDTAB
  0
TABLE
  2
DIMSTYLE
  5
1D
330
0
100
AcDbSymbolTable
 70
     1
100
AcDbDimStyleTable
  0
DIMSTYLE
105
25
330
1D
100
AcDbSymbolTableRecord
100
AcDbDimStyleTableRecord
  2
STANDARD
 70
     0
178
     0
340
12
  0
ENDTAB
  0
TABLE
  2
BLOCK_RECORD
  5
1
330
0
100
AcDbSymbolTable
 70
     0
  0
BLOCK_RECORD
  5
2
102
{ACAD_XDICTIONARY
360
1ECA
102
}
330
1
100
AcDbSymbolTableRecord
100
AcDbBlockTableRecord
  2
*MODEL_SPACE
340
A
  0
BLOCK_RECORD
  5
C
330
1
100
AcDbSymbolTableRecord
100
AcDbBlockTableRecord
  2
*PAPER_SPACE
340
F
  0
ENDTAB
  0
ENDSEC
  0
SECTION
  2
BLOCKS
  0
BLOCK
  5
3
330
2
100
AcDbEntity
  8
0
100
AcDbBlockBegin
  2
*MODEL_SPACE
 70
     0
 10
0.0
 20
0.0
 30
0.0
  3
*MODEL_SPACE
  1

  0
ENDBLK
  5
9
330
2
100
AcDbEntity
  8
0
100
AcDbBlockEnd
  0
BLOCK
  5
D
330
C
100
AcDbEntity
 67
     1
  8
0
100
AcDbBlockBegin
  2
*PAPER_SPACE
 70
     0
 10
0.0
 20
0.0
 30
0.0
  3
*PAPER_SPACE
  1

  0
ENDBLK
  5
E
330
C
100
AcDbEntity
 67
     1
  8
0
100
AcDbBlockEnd
  0
ENDSEC
  0
SECTION
  2
ENTITIES
  0
LINE
  5
32
330
2
100
AcDbEntity
  8
4
100
AcDbLine
 10
683.0323553747717
 20
507.5967651171495
 30
0.0
 11
683.0323553747717
 21
446.5966821171488
 31
0.0
  0
LINE
  5
33
330
2
100
AcDbEntity
  8
4
100
AcDbLine
 10
425.0323553747712
 20
603.5967651171504
 30
0.0
 11
425.0323553747712
 21
446.5966821171488
 31
0.0
  0
LINE
  5
34
330
2
100
AcDbEntity
  8
4
100
AcDbLine
 10
444.0323553747708
 20
606.5967651171504
 30
0.0
 11
444.0323553747708
 21
418.5967651171487
 31
0.0
  0
LINE
  5
35
330
2
100
AcDbEntity
  8
4
100
AcDbLine
 10
673.0323553747717
 20
607.0967651171495
 30
0.0
 11
673.0323553747717
 21
446.5966821171488
 31
0.0
  0
LINE
  5
36
330
2
100
AcDbEntity
  8
4
100
AcDbLine
 10
652.0323553747712
 20
611.385572144435
 30
0.0
 11
652.0323553747712
 21
418.5967651171487
 31
0.0
  0
LINE
  5
37
330
2
100
AcDbEntity
  8
4
100
AcDbLine
 10
450.0323553747712
 20
611.3855721444347
 30
0.0
 11
450.0323553747712
 21
418.5967651171487
 31
0.0
  0
LINE
  5
38
330
2
100
AcDbEntity
  8
4
100
AcDbLine
 10
416.0323553747712
 20
446.5966821171488
 30
0.0
 11
416.0323553747712
 21
507.5967651171495
 31
0.0
  0
LINE
  5
3D
330
2
100
AcDbEntity
  8
L-CENTER
 48
5.0
100
AcDbLine
 10
551.0323553747712
 20
24.11222011714938
 30
0.0
 11
551.0323553747712
 21
686.233485117149
 31
0.0
  0
LINE
  5
41
330
2
100
AcDbEntity
  8
4
100
AcDbLine
 10
262.0323553747721
 20
454.0967651171505
 30
0.0
 11
391.0323553747712
 21
454.0967651171505
 31
0.0
  0
LINE
  5
42
330
2
100
AcDbEntity
  8
4
100
AcDbLine
 10
262.0323553747721
 20
371.0967651171487
 30
0.0
 11
291.0323553747712
 21
371.0967651171487
 31
0.0
  0
LINE
  5
43
330
2
100
AcDbEntity
  8
4
100
AcDbLine
 10
261.0323553747712
 20
464.0967651171505
 30
0.0
 11
381.0323553747712
 21
464.0967651171505
 31
0.0
  0
LINE
  5
44
330
2
100
AcDbEntity
  8
L-CENTER
 48
5.0
100
AcDbLine
 10
850.5072217258939
 20
412.5967651171496
 30
0.0
 11
251.5574890236485
 21
412.5967651171496
 31
0.0
  0
LINE
  5
60
330
2
100
AcDbEntity
  8
4
100
AcDbLine
 10
200.2559990660124
 20
365.0967651171496
 30
0.0
 11
210.2559990660124
 21
365.0967651171496
 31
0.0
  0
LINE
  5
61
330
2
100
AcDbEntity
  8
4
100
AcDbLine
 10
200.2559990660124
 20
373.0967651171492
 30
0.0
 11
210.2559990660124
 21
373.0967651171492
 31
0.0
  0
LINE
  5
62
330
2
100
AcDbEntity
  8
L-CENTER
 48
5.0
100
AcDbLine
 10
174.7770240660114
 20
350.5967651171492
 30
0.0
 11
235.7349740660133
 21
350.5967651171492
 31
0.0
  0
ARC
  5
63
330
2
100
AcDbEntity
  8
4
100
AcDbCircle
 10
205.2559990660124
 20
350.5967651171492
 30
0.0
 40
19.0
100
AcDbArc
 50
105.2575232904564
 51
74.74247699999972
  0
LINE
  5
64
330
2
100
AcDbEntity
  8
L-CENTER
 48
5.0
100
AcDbLine
 10
205.2559990660124
 20
381.0757401171501
 30
0.0
 11
205.2559990660124
 21
320.1177901171483
 31
0.0
  0
LINE
  5
66
330
2
100
AcDbEntity
  8
4
100
AcDbLine
 10
200.2559990660124
 20
373.0967651171492
 30
0.0
 11
200.2559990660124
 21
365.0967651171496
 31
0.0
  0
LINE
  5
68
330
2
100
AcDbEntity
  8
4
100
AcDbLine
 10
210.2559990660124
 20
373.0967651171492
 30
0.0
 11
210.2559990660124
 21
365.0967651171496
 31
0.0
  0
LINE
  5
6E
330
2
100
AcDbEntity
  8
4
100
AcDbLine
 10
261.0323553747712
 20
464.0967651171505
 30
0.0
 11
261.0323553747712
 21
372.0967651171496
 31
0.0
  0
LINE
  5
9B
330
2
100
AcDbEntity
  8
4
100
AcDbLine
 10
697.5320653747713
 20
430.5966821171488
 30
0.0
 11
672.5320653747713
 21
430.5966821171488
 31
0.0
  0
LINE
  5
9C
330
2
100
AcDbEntity
  8
4
100
AcDbLine
 10
696.5320653747713
 20
430.5966821171488
 30
0.0
 11
672.5320653747713
 21
430.5966821171488
 31
0.0
  0
LINE
  5
9D
330
2
100
AcDbEntity
  8
4
100
AcDbLine
 10
697.5320653747713
 20
446.5966821171488
 30
0.0
 11
672.5320653747713
 21
446.5966821171488
 31
0.0
  0
LINE
  5
9E
330
2
100
AcDbEntity
  8
4
100
AcDbLine
 10
699.0320653747713
 20
445.5966821171488
 30
0.0
 11
671.0320653747713
 21
445.5966821171488
 31
0.0
  0
LINE
  5
9F
330
2
100
AcDbEntity
  8
4
100
AcDbLine
 10
699.0320653747713
 20
443.5966821171488
 30
0.0
 11
671.0320653747713
 21
443.5966821171488
 31
0.0
  0
ARC
  5
A0
330
2
100
AcDbEntity
  8
4
100
AcDbCircle
 10
673.5320653747713
 20
425.0966821171488
 30
0.0
 40
5.5
100
AcDbArc
 50
0.0
 51
90.96750600000075
  0
CIRCLE
  5
A1
330
2
100
AcDbEntity
  8
L-CENTER
 48
5.0
100
AcDbCircle
 10
551.0323553747712
 20
202.5967651171496
 30
0.0
 40
149.0
  0
LINE
  5
A2
330
2
100
AcDbEntity
  8
4
100
AcDbLine
 10
697.0323553747712
 20
418.5967651171487
 30
0.0
 11
405.0323553747712
 21
418.5967651171487
 31
0.0
  0
LINE
  5
A3
330
2
100
AcDbEntity
  8
L-CENTER
 48
5.0
100
AcDbLine
 10
283.3091553747709
 20
350.5967651171492
 30
0.0
 11
707.6497455198695
 21
350.5967651171492
 31
0.0
  0
LINE
  5
A4
330
2
100
AcDbEntity
  8
4
100
AcDbLine
 10
691.0323553747712
 20
72.59676511714963
 30
0.0
 11
674.4938803747714
 21
94.64654011715004
 31
0.0
  0
LINE
  5
A6
330
2
100
AcDbEntity
  8
4
100
AcDbLine
 10
376.0323553747712
 20
32.59676511714963
 30
0.0
 11
726.0323553747712
 21
32.59676511714963
 31
0.0
  0
LINE
  5
A7
330
2
100
AcDbEntity
  8
4
100
AcDbLine
 10
651.0123553747717
 20
72.59676511714963
 30
0.0
 11
723.0323553747712
 21
72.59676511714963
 31
0.0
  0
LINE
  5
A8
330
2
100
AcDbEntity
  8
L-CENTER
 48
5.0
100
AcDbLine
 10
372.5478253747706
 20
202.5967651171496
 30
0.0
 11
729.5169003747715
 21
202.5967651171496
 31
0.0
  0
CIRCLE
  5
AA
330
2
100
AcDbEntity
  8
4
100
AcDbCircle
 10
551.0323553747712
 20
202.5967651171496
 30
0.0
 40
162.5
  0
CIRCLE
  5
AB
330
2
100
AcDbEntity
  8
4
100
AcDbCircle
 10
551.0323553747712
 20
202.5967651171496
 30
0.0
 40
164.0
  0
CIRCLE
  5
AC
330
2
100
AcDbEntity
  8
4
100
AcDbCircle
 10
551.0323553747712
 20
202.5967651171496
 30
0.0
 40
124.0
  0
LINE
  5
B1
330
2
100
AcDbEntity
  8
4
100
AcDbLine
 10
379.0323553747712
 20
72.59676511714963
 30
0.0
 11
451.0523553747707
 21
72.59676511714963
 31
0.0
  0
LINE
  5
B2
330
2
100
AcDbEntity
  8
4
100
AcDbLine
 10
376.0323553747712
 20
69.59676511714963
 30
0.0
 11
376.0323553747712
 21
32.59676511714963
 31
0.0
  0
LINE
  5
B3
330
2
100
AcDbEntity
  8
L-CENTER
 48
5.0
100
AcDbLine
 10
411.0323553747712
 20
84.59676511714963
 30
0.0
 11
411.0323553747712
 21
20.59676511714963
 31
0.0
  0
LINE
  5
B4
330
2
100
AcDbEntity
  8
4
100
AcDbLine
 10
411.0323553747712
 20
72.59676511714963
 30
0.0
 11
427.570830374771
 21
94.64654011715004
 31
0.0
  0
LINE
  5
B5
330
2
100
AcDbEntity
  8
4
100
AcDbLine
 10
482.5323553747712
 20
63.16667511714888
 30
0.0
 11
488.5323553747712
 21
73.55898011714919
 31
0.0
  0
LINE
  5
B6
330
2
100
AcDbEntity
  8
4
100
AcDbLine
 10
488.5323553747712
 20
73.55898011714919
 30
0.0
 11
482.5323553747712
 21
83.9512851171495
 31
0.0
  0
CIRCLE
  5
B7
330
2
100
AcDbEntity
  8
4
100
AcDbCircle
 10
476.5323553747708
 20
73.55898011714919
 30
0.0
 40
10.392305
  0
LINE
  5
B8
330
2
100
AcDbEntity
  8
4
100
AcDbLine
 10
470.5323553747717
 20
83.9512851171495
 30
0.0
 11
464.5323553747712
 21
73.55898011714919
 31
0.0
  0
LINE
  5
B9
330
2
100
AcDbEntity
  8
L-CENTER
 48
5.0
100
AcDbLine
 10
487.5419181216055
 20
92.6280947743412
 30
0.0
 11
465.5227932039646
 21
54.48986479962537
 31
0.0
  0
LINE
  5
BA
330
2
100
AcDbEntity
  8
4
100
AcDbLine
 10
464.5323553747712
 20
73.55898011714919
 30
0.0
 11
470.5323553747717
 21
63.16667511714888
 31
0.0
  0
LINE
  5
BB
330
2
100
AcDbEntity
  8
4
100
AcDbLine
 10
470.5323553747717
 20
63.16667511714888
 30
0.0
 11
482.5323553747712
 21
63.16667511714888
 31
0.0
  0
LINE
  5
BC
330
2
100
AcDbEntity
  8
4
100
AcDbLine
 10
482.5323553747712
 20
83.9512851171495
 30
0.0
 11
470.5323553747717
 21
83.9512851171495
 31
0.0
  0
LINE
  5
BF
330
2
100
AcDbEntity
  8
4
100
AcDbLine
 10
637.5323553747712
 20
73.55898011714919
 30
0.0
 11
631.5323553747708
 21
83.9512851171495
 31
0.0
  0
LINE
  5
C0
330
2
100
AcDbEntity
  8
4
100
AcDbLine
 10
619.5323553747712
 20
83.9512851171495
 30
0.0
 11
613.5323553747712
 21
73.55898011714919
 31
0.0
  0
LINE
  5
C1
330
2
100
AcDbEntity
  8
L-CENTER
 48
5.0
100
AcDbLine
 10
614.522792627937
 20
92.6280947743412
 30
0.0
 11
636.5419175455778
 21
54.48986479962537
 31
0.0
  0
CIRCLE
  5
C2
330
2
100
AcDbEntity
  8
4
100
AcDbCircle
 10
625.5323553747717
 20
73.55898011714919
 30
0.0
 40
10.392305
  0
LINE
  5
C3
330
2
100
AcDbEntity
  8
4
100
AcDbLine
 10
619.5323553747712
 20
63.16667511714888
 30
0.0
 11
631.5323553747708
 21
63.16667511714888
 31
0.0
  0
LINE
  5
C4
330
2
100
AcDbEntity
  8
4
100
AcDbLine
 10
613.5323553747712
 20
73.55898011714919
 30
0.0
 11
619.5323553747712
 21
63.16667511714888
 31
0.0
  0
LINE
  5
C5
330
2
100
AcDbEntity
  8
4
100
AcDbLine
 10
631.5323553747708
 20
63.16667511714888
 30
0.0
 11
637.5323553747712
 21
73.55898011714919
 31
0.0
  0
LINE
  5
C6
330
2
100
AcDbEntity
  8
4
100
AcDbLine
 10
631.5323553747708
 20
83.9512851171495
 30
0.0
 11
619.5323553747712
 21
83.9512851171495
 31
0.0
  0
LINE
  5
C7
330
2
100
AcDbEntity
  8
4
100
AcDbLine
 10
400.0323553747712
 20
415.5967651171492
 30
0.0
 11
400.0323553747712
 21
285.5967651171492
 31
0.0
  0
LINE
  5
C8
330
2
100
AcDbEntity
  8
4
100
AcDbLine
 10
405.0323553747712
 20
418.5967651171487
 30
0.0
 11
405.0323553747712
 21
282.5967651171496
 31
0.0
  0
LINE
  5
C9
330
2
100
AcDbEntity
  8
4
100
AcDbLine
 10
396.0323553747712
 20
212.9890701171499
 30
0.0
 11
390.0323553747712
 21
202.5967651171496
 31
0.0
  0
LINE
  5
CA
330
2
100
AcDbEntity
  8
4
100
AcDbLine
 10
414.0323553747708
 20
202.5967651171496
 30
0.0
 11
408.0323553747717
 21
212.9890701171499
 31
0.0
  0
CIRCLE
  5
CB
330
2
100
AcDbEntity
  8
4
100
AcDbCircle
 10
402.0323553747712
 20
202.5967651171496
 30
0.0
 40
10.392305
  0
LINE
  5
CC
330
2
100
AcDbEntity
  8
4
100
AcDbLine
 10
408.0323553747717
 20
192.2044601171493
 30
0.0
 11
414.0323553747708
 21
202.5967651171496
 31
0.0
  0
LINE
  5
CD
330
2
100
AcDbEntity
  8
4
100
AcDbLine
 10
396.0323553747712
 20
192.2044601171493
 30
0.0
 11
408.0323553747717
 21
192.2044601171493
 31
0.0
  0
LINE
  5
CE
330
2
100
AcDbEntity
  8
4
100
AcDbLine
 10
390.0323553747712
 20
202.5967651171496
 30
0.0
 11
396.0323553747712
 21
192.2044601171493
 31
0.0
  0
LINE
  5
CF
330
2
100
AcDbEntity
  8
4
100
AcDbLine
 10
408.0323553747717
 20
212.9890701171499
 30
0.0
 11
396.0323553747712
 21
212.9890701171499
 31
0.0
  0
LINE
  5
D0
330
2
100
AcDbEntity
  8
4
100
AcDbLine
 10
400.0323553747712
 20
285.5967651171492
 30
0.0
 11
405.0323553747712
 21
285.5967651171492
 31
0.0
  0
LINE
  5
D1
330
2
100
AcDbEntity
  8
4
100
AcDbLine
 10
405.0323553747712
 20
282.5967651171496
 30
0.0
 11
407.8681153747712
 21
282.5967651171496
 31
0.0
  0
LINE
  5
D2
330
2
100
AcDbEntity
  8
4
100
AcDbLine
 10
391.0323553747712
 20
455.0967651171496
 30
0.0
 11
391.0323553747712
 21
370.5967651171492
 31
0.0
  0
LINE
  5
D3
330
2
100
AcDbEntity
  8
4
100
AcDbLine
 10
399.0323553747708
 20
390.5967651171492
 30
0.0
 11
399.0323553747708
 21
310.5967651171492
 31
0.0
  0
LINE
  5
D4
330
2
100
AcDbEntity
  8
4
100
AcDbLine
 10
399.0323553747708
 20
310.5967651171492
 30
0.0
 11
400.0323553747712
 21
310.5967651171492
 31
0.0
  0
ARC
  5
D6
330
2
100
AcDbEntity
  8
4
100
AcDbCircle
 10
405.5320653747713
 20
425.0966821171488
 30
0.0
 40
5.5
100
AcDbArc
 50
0.0
 51
90.96750600000075
  0
LINE
  5
D7
330
2
100
AcDbEntity
  8
4
100
AcDbLine
 10
431.0320653747713
 20
443.5966821171488
 30
0.0
 11
403.0320653747713
 21
443.5966821171488
 31
0.0
  0
LINE
  5
D8
330
2
100
AcDbEntity
  8
4
100
AcDbLine
 10
431.0320653747713
 20
445.5966821171488
 30
0.0
 11
403.0320653747713
 21
445.5966821171488
 31
0.0
  0
LINE
  5
D9
330
2
100
AcDbEntity
  8
4
100
AcDbLine
 10
429.5320653747713
 20
446.5966821171488
 30
0.0
 11
404.5320653747713
 21
446.5966821171488
 31
0.0
  0
LINE
  5
DA
330
2
100
AcDbEntity
  8
4
100
AcDbLine
 10
428.5320653747713
 20
430.5966821171488
 30
0.0
 11
404.5320653747713
 21
430.5966821171488
 31
0.0
  0
LINE
  5
DB
330
2
100
AcDbEntity
  8
4
100
AcDbLine
 10
429.5320653747713
 20
430.5966821171488
 30
0.0
 11
404.5320653747713
 21
430.5966821171488
 31
0.0
  0
LINE
  5
DC
330
2
100
AcDbEntity
  8
4
100
AcDbLine
 10
391.0323553747712
 20
455.0967651171496
 30
0.0
 11
415.0323553747712
 21
455.0967651171496
 31
0.0
  0
LINE
  5
DD
330
2
100
AcDbEntity
  8
4
100
AcDbLine
 10
400.0323553747712
 20
415.5967651171492
 30
0.0
 11
405.0323553747712
 21
415.5967651171492
 31
0.0
  0
LINE
  5
DE
330
2
100
AcDbEntity
  8
4
100
AcDbLine
 10
399.0323553747708
 20
390.5967651171492
 30
0.0
 11
400.0323553747712
 21
390.5967651171492
 31
0.0
  0
LINE
  5
DF
330
2
100
AcDbEntity
  8
4
100
AcDbLine
 10
381.0323553747712
 20
464.0967651171505
 30
0.0
 11
381.0323553747712
 21
454.0967651171505
 31
0.0
  0
LINE
  5
E0
330
2
100
AcDbEntity
  8
4
100
AcDbLine
 10
403.0320643747709
 20
445.5966821171488
 30
0.0
 11
403.0320653747713
 21
443.5966821171488
 31
0.0
  0
LINE
  5
E1
330
2
100
AcDbEntity
  8
4
100
AcDbLine
 10
404.5320653747713
 20
446.5966821171488
 30
0.0
 11
403.0320653747713
 21
445.5966821171488
 31
0.0
  0
LINE
  5
E2
330
2
100
AcDbEntity
  8
4
100
AcDbLine
 10
404.5320653747713
 20
443.5966821171488
 30
0.0
 11
404.5320653747713
 21
430.5966821171488
 31
0.0
  0
LINE
  5
E3
330
2
100
AcDbEntity
  8
4
100
AcDbLine
 10
423.0320653747713
 20
425.4836031171486
 30
0.0
 11
423.0320653747713
 21
418.5966821171488
 31
0.0
  0
LINE
  5
E4
330
2
100
AcDbEntity
  8
4
100
AcDbLine
 10
411.0320653747713
 20
425.0966821171488
 30
0.0
 11
411.0320653747713
 21
418.5966821171488
 31
0.0
  0
ARC
  5
E6
330
2
100
AcDbEntity
  8
4
100
AcDbCircle
 10
420.0322103747712
 20
414.3475521171487
 30
0.0
 40
9.249130000000001
100
AcDbArc
 50
71.07445699999852
 51
108.9255430000015
  0
ARC
  5
E7
330
2
100
AcDbEntity
  8
4
100
AcDbCircle
 10
414.0325003747712
 20
414.3475521171487
 30
0.0
 40
9.249130000000001
100
AcDbArc
 50
71.07445699999852
 51
108.9255430000015
  0
ARC
  5
E8
330
2
100
AcDbEntity
  8
4
100
AcDbCircle
 10
428.5320653747713
 20
425.0966821171488
 30
0.0
 40
5.5
100
AcDbArc
 50
90.0
 51
180.0
  0
LINE
  5
E9
330
2
100
AcDbEntity
  8
4
100
AcDbLine
 10
415.0323553747712
 20
467.5967651171496
 30
0.0
 11
416.0323553747712
 21
467.5967651171496
 31
0.0
  0
LINE
  5
EA
330
2
100
AcDbEntity
  8
4
100
AcDbLine
 10
415.0323553747712
 20
446.5966821171488
 30
0.0
 11
415.0323553747712
 21
467.5967651171496
 31
0.0
  0
LINE
  5
EB
330
2
100
AcDbEntity
  8
4
100
AcDbLine
 10
431.0320653747713
 20
445.5966821171488
 30
0.0
 11
431.0320653747713
 21
443.5966821171488
 31
0.0
  0
LINE
  5
EC
330
2
100
AcDbEntity
  8
4
100
AcDbLine
 10
431.0320653747713
 20
445.5966821171488
 30
0.0
 11
429.5320653747713
 21
446.5966821171488
 31
0.0
  0
LINE
  5
ED
330
2
100
AcDbEntity
  8
4
100
AcDbLine
 10
429.5320653747713
 20
443.5966821171488
 30
0.0
 11
429.5320653747713
 21
430.5966821171488
 31
0.0
  0
LINE
  5
EE
330
2
100
AcDbEntity
  8
4
100
AcDbLine
 10
482.5323553747712
 20
321.2422451171498
 30
0.0
 11
488.5323553747712
 21
331.6345501171501
 31
0.0
  0
LINE
  5
EF
330
2
100
AcDbEntity
  8
4
100
AcDbLine
 10
488.5323553747712
 20
331.6345501171501
 30
0.0
 11
482.5323553747712
 21
342.0268551171504
 31
0.0
  0
CIRCLE
  5
F0
330
2
100
AcDbEntity
  8
4
100
AcDbCircle
 10
476.5323553747708
 20
331.6345501171501
 30
0.0
 40
10.392305
  0
LINE
  5
F1
330
2
100
AcDbEntity
  8
L-CENTER
 48
5.0
100
AcDbLine
 10
487.5419181216055
 20
312.5654354599581
 30
0.0
 11
465.5227932039646
 21
350.7036654346739
 31
0.0
  0
LINE
  5
F2
330
2
100
AcDbEntity
  8
4
100
AcDbLine
 10
470.5323553747717
 20
342.0268551171504
 30
0.0
 11
464.5323553747712
 21
331.6345501171501
 31
0.0
  0
LINE
  5
F3
330
2
100
AcDbEntity
  8
4
100
AcDbLine
 10
464.5323553747712
 20
331.6345501171501
 30
0.0
 11
470.5323553747717
 21
321.2422451171498
 31
0.0
  0
LINE
  5
F4
330
2
100
AcDbEntity
  8
4
100
AcDbLine
 10
470.5323553747717
 20
321.2422451171498
 30
0.0
 11
482.5323553747712
 21
321.2422451171498
 31
0.0
  0
LINE
  5
F5
330
2
100
AcDbEntity
  8
4
100
AcDbLine
 10
482.5323553747712
 20
342.0268551171504
 30
0.0
 11
470.5323553747717
 21
342.0268551171504
 31
0.0
  0
LINE
  5
F6
330
2
100
AcDbEntity
  8
4
100
AcDbLine
 10
566.6208103747708
 20
193.5967651171487
 30
0.0
 11
566.6208103747708
 21
211.5967651171505
 31
0.0
  0
LINE
  5
F7
330
2
100
AcDbEntity
  8
4
100
AcDbLine
 10
535.4439003747716
 20
211.5967651171505
 30
0.0
 11
535.4439003747716
 21
193.5967651171487
 31
0.0
  0
CIRCLE
  5
F8
330
2
100
AcDbEntity
  8
4
100
AcDbCircle
 10
551.0323553747712
 20
202.5967651171496
 30
0.0
 40
18.0
  0
CIRCLE
  5
F9
330
2
100
AcDbEntity
  8
4
100
AcDbCircle
 10
551.0323553747712
 20
202.5967651171496
 30
0.0
 40
20.0
  0
LINE
  5
FA
330
2
100
AcDbEntity
  8
4
100
AcDbLine
 10
551.0323553747712
 20
184.5967651171501
 30
0.0
 11
566.6208103747708
 21
193.5967651171487
 31
0.0
  0
LINE
  5
FB
330
2
100
AcDbEntity
  8
4
100
AcDbLine
 10
535.4439003747716
 20
193.5967651171487
 30
0.0
 11
551.0323553747712
 21
184.5967651171501
 31
0.0
  0
LINE
  5
FC
330
2
100
AcDbEntity
  8
4
100
AcDbLine
 10
566.6208103747708
 20
211.5967651171505
 30
0.0
 11
551.0323553747712
 21
220.5967651171492
 31
0.0
  0
LINE
  5
FD
330
2
100
AcDbEntity
  8
4
100
AcDbLine
 10
551.0323553747712
 20
220.5967651171492
 30
0.0
 11
535.4439003747716
 21
211.5967651171505
 31
0.0
  0
LINE
  5
FE
330
2
100
AcDbEntity
  8
L-CENTER
 48
5.0
100
AcDbLine
 10
614.5227925569745
 20
312.5654353370476
 30
0.0
 11
636.5419174746153
 21
350.7036653117634
 31
0.0
  0
LINE
  5
FF
330
2
100
AcDbEntity
  8
4
100
AcDbLine
 10
619.5323553747712
 20
342.0268551171504
 30
0.0
 11
613.5323553747712
 21
331.6345501171501
 31
0.0
  0
LINE
  5
100
330
2
100
AcDbEntity
  8
4
100
AcDbLine
 10
637.5323553747712
 20
331.6345501171501
 30
0.0
 11
631.5323553747708
 21
342.0268551171504
 31
0.0
  0
CIRCLE
  5
101
330
2
100
AcDbEntity
  8
4
100
AcDbCircle
 10
625.5323553747717
 20
331.6345501171501
 30
0.0
 40
10.392305
  0
LINE
  5
102
330
2
100
AcDbEntity
  8
4
100
AcDbLine
 10
619.5323553747712
 20
321.2422451171498
 30
0.0
 11
631.5323553747708
 21
321.2422451171498
 31
0.0
  0
LINE
  5
103
330
2
100
AcDbEntity
  8
4
100
AcDbLine
 10
613.5323553747712
 20
331.6345501171501
 30
0.0
 11
619.5323553747712
 21
321.2422451171498
 31
0.0
  0
LINE
  5
104
330
2
100
AcDbEntity
  8
4
100
AcDbLine
 10
631.5323553747708
 20
321.2422451171498
 30
0.0
 11
637.5323553747712
 21
331.6345501171501
 31
0.0
  0
LINE
  5
105
330
2
100
AcDbEntity
  8
4
100
AcDbLine
 10
631.5323553747708
 20
342.0268551171504
 30
0.0
 11
619.5323553747712
 21
342.0268551171504
 31
0.0
  0
LINE
  5
106
330
2
100
AcDbEntity
  8
4
100
AcDbLine
 10
673.0323553747717
 20
430.5966821171488
 30
0.0
 11
673.0323553747717
 21
418.5967651171487
 31
0.0
  0
LINE
  5
107
330
2
100
AcDbEntity
  8
4
100
AcDbLine
 10
672.5320653747713
 20
443.5966821171488
 30
0.0
 11
672.5320653747713
 21
430.5966821171488
 31
0.0
  0
LINE
  5
108
330
2
100
AcDbEntity
  8
4
100
AcDbLine
 10
672.5320653747713
 20
446.5966821171488
 30
0.0
 11
671.0320653747713
 21
445.5966821171488
 31
0.0
  0
LINE
  5
109
330
2
100
AcDbEntity
  8
4
100
AcDbLine
 10
671.0320643747709
 20
445.5966821171488
 30
0.0
 11
671.0320653747713
 21
443.5966821171488
 31
0.0
  0
TEXT
  5
111
330
2
100
AcDbEntity
  8
3
100
AcDbText
 10
866.3614673790756
 20
37.65999789654859
 30
0.0
 40
15.0
  1
LE7-07
  7
KANJI
 72
     1
 11
907.6114673790756
 21
37.65999789654859
 31
0.0
100
AcDbText
  0
LINE
  5
112
330
2
100
AcDbEntity
  8
4
100
AcDbLine
 10
726.0323553747712
 20
69.59676511714963
 30
0.0
 11
726.0323553747712
 21
32.59676511714963
 31
0.0
  0
LINE
  5
113
330
2
100
AcDbEntity
  8
4
 48
5.0
100
AcDbLine
 10
703.0323553747717
 20
72.59676511714963
 30
0.0
 11
703.0323553747717
 21
32.59676511714963
 31
0.0
  0
LINE
  5
116
330
2
100
AcDbEntity
  8
L-CENTER
 48
5.0
100
AcDbLine
 10
691.0323553747712
 20
84.59676511714963
 30
0.0
 11
691.0323553747712
 21
20.59676511714963
 31
0.0
  0
LINE
  5
11F
330
2
100
AcDbEntity
  8
4
100
AcDbLine
 10
702.0323553747712
 20
415.5967651171492
 30
0.0
 11
702.0323553747712
 21
285.5967651171492
 31
0.0
  0
LINE
  5
120
330
2
100
AcDbEntity
  8
4
100
AcDbLine
 10
697.0323553747712
 20
418.5967651171487
 30
0.0
 11
697.0323553747712
 21
282.5967651171496
 31
0.0
  0
LINE
  5
121
330
2
100
AcDbEntity
  8
4
100
AcDbLine
 10
712.0323553747712
 20
202.5967651171496
 30
0.0
 11
706.0323553747712
 21
212.9890701171499
 31
0.0
  0
LINE
  5
122
330
2
100
AcDbEntity
  8
4
100
AcDbLine
 10
694.0323553747708
 20
212.9890701171499
 30
0.0
 11
688.0323553747717
 21
202.5967651171496
 31
0.0
  0
CIRCLE
  5
123
330
2
100
AcDbEntity
  8
4
100
AcDbCircle
 10
700.0323553747712
 20
202.5967651171496
 30
0.0
 40
10.392305
  0
LINE
  5
124
330
2
100
AcDbEntity
  8
4
100
AcDbLine
 10
694.0323553747708
 20
192.2044601171493
 30
0.0
 11
706.0323553747712
 21
192.2044601171493
 31
0.0
  0
LINE
  5
125
330
2
100
AcDbEntity
  8
4
100
AcDbLine
 10
688.0323553747717
 20
202.5967651171496
 30
0.0
 11
694.0323553747708
 21
192.2044601171493
 31
0.0
  0
LINE
  5
126
330
2
100
AcDbEntity
  8
4
100
AcDbLine
 10
706.0323553747712
 20
192.2044601171493
 30
0.0
 11
712.0323553747712
 21
202.5967651171496
 31
0.0
  0
LINE
  5
127
330
2
100
AcDbEntity
  8
4
100
AcDbLine
 10
706.0323553747712
 20
212.9890701171499
 30
0.0
 11
694.0323553747708
 21
212.9890701171499
 31
0.0
  0
LINE
  5
128
330
2
100
AcDbEntity
  8
4
100
AcDbLine
 10
697.0323553747712
 20
285.5967651171492
 30
0.0
 11
702.0323553747712
 21
285.5967651171492
 31
0.0
  0
LINE
  5
129
330
2
100
AcDbEntity
  8
4
100
AcDbLine
 10
694.1965953747713
 20
282.5967651171496
 30
0.0
 11
697.0323553747712
 21
282.5967651171496
 31
0.0
  0
LINE
  5
12F
330
2
100
AcDbEntity
  8
4
100
AcDbLine
 10
703.0323553747717
 20
390.5967651171492
 30
0.0
 11
703.0323553747717
 21
310.5967651171492
 31
0.0
  0
LINE
  5
132
330
2
100
AcDbEntity
  8
4
100
AcDbLine
 10
702.0323553747712
 20
310.5967651171492
 30
0.0
 11
703.0323553747717
 21
310.5967651171492
 31
0.0
  0
LINE
  5
135
330
2
100
AcDbEntity
  8
4
100
AcDbLine
 10
679.0320653747713
 20
425.0966821171488
 30
0.0
 11
679.0320653747713
 21
418.5966821171488
 31
0.0
  0
LINE
  5
136
330
2
100
AcDbEntity
  8
4
100
AcDbLine
 10
691.0320653747713
 20
425.4836031171486
 30
0.0
 11
691.0320653747713
 21
418.5966821171488
 31
0.0
  0
LINE
  5
137
330
2
100
AcDbEntity
  8
L-CENTER
 48
5.0
100
AcDbLine
 10
685.0323553747712
 20
451.5319599775304
 30
0.0
 11
685.0323553747712
 21
391.8684232566177
 31
0.0
  0
LINE
  5
138
330
2
100
AcDbEntity
  8
4
100
AcDbLine
 10
697.0323553747712
 20
415.5967651171492
 30
0.0
 11
702.0323553747712
 21
415.5967651171492
 31
0.0
  0
ARC
  5
139
330
2
100
AcDbEntity
  8
4
100
AcDbCircle
 10
682.0325003747712
 20
414.3475521171487
 30
0.0
 40
9.249130000000001
100
AcDbArc
 50
71.07445699999852
 51
108.9255430000015
  0
ARC
  5
13A
330
2
100
AcDbEntity
  8
4
100
AcDbCircle
 10
688.0322103747712
 20
414.3475521171487
 30
0.0
 40
9.249130000000001
100
AcDbArc
 50
71.07445699999852
 51
108.9255430000015
  0
LINE
  5
13B
330
2
100
AcDbEntity
  8
4
100
AcDbLine
 10
702.0323553747712
 20
390.5967651171492
 30
0.0
 11
703.0323553747717
 21
390.5967651171492
 31
0.0
  0
LINE
  5
13C
330
2
100
AcDbEntity
  8
4
100
AcDbLine
 10
699.0320653747713
 20
445.5966821171488
 30
0.0
 11
697.5320653747713
 21
446.5966821171488
 31
0.0
  0
LINE
  5
13D
330
2
100
AcDbEntity
  8
4
100
AcDbLine
 10
697.5320653747713
 20
443.5966821171488
 30
0.0
 11
697.5320653747713
 21
430.5966821171488
 31
0.0
  0
ARC
  5
13E
330
2
100
AcDbEntity
  8
4
100
AcDbCircle
 10
696.5320653747713
 20
425.0966821171488
 30
0.0
 40
5.5
100
AcDbArc
 50
90.0
 51
180.0
  0
LINE
  5
13F
330
2
100
AcDbEntity
  8
4
100
AcDbLine
 10
699.0320653747713
 20
445.5966821171488
 30
0.0
 11
699.0320653747713
 21
443.5966821171488
 31
0.0
  0
LWPOLYLINE
  5
147
330
2
100
AcDbEntity
  8
1
 62
     1
100
AcDbPolyline
 90
        4
 70
     0
 43
0.0
 10
1952.625662223648
 20
7635.607542063791
 10
1966.482068684199
 20
7627.607542063791
 10
1966.482068684199
 20
7643.607542063791
 10
1952.625662223648
 20
7635.607542063791
  0
TEXT
  5
148
330
2
100
AcDbEntity
  8
1
 62
     1
100
AcDbText
 10
1964.105921384315
 20
7634.740010485596
 30
0.0
 40
6.000000000000001
  1
1
 50
90.0
  7
KANJI
 72
     4
 11
1961.105921384315
 21
7635.740010485596
 31
0.0
100
AcDbText
  0
ARC
  5
14A
330
2
100
AcDbEntity
  8
4
100
AcDbCircle
 10
369.0323553747712
 20
1404.280401523377
 30
0.0
 40
12.0
100
AcDbArc
 50
270.0
 51
90.0
  0
LINE
  5
14B
330
2
100
AcDbEntity
  8
4
100
AcDbLine
 10
262.0323553747712
 20
1445.780401523377
 30
0.0
 11
390.0323553747712
 21
1445.780401523377
 31
0.0
  0
LINE
  5
14C
330
2
100
AcDbEntity
  8
4
100
AcDbLine
 10
262.0323553747712
 20
1362.780401523377
 30
0.0
 11
390.0323553747712
 21
1362.780401523377
 31
0.0
  0
LINE
  5
14D
330
2
100
AcDbEntity
  8
L-CENTER
 48
5.0
100
AcDbLine
 10
251.5574890236456
 20
1404.280401523377
 30
0.0
 11
850.5072217258912
 21
1404.280401523377
 31
0.0
  0
LINE
  5
156
330
2
100
AcDbEntity
  8
4
100
AcDbLine
 10
261.0323553747712
 20
1363.780401523377
 30
0.0
 11
261.0323553747712
 21
1444.780401523377
 31
0.0
  0
LINE
  5
157
330
2
100
AcDbEntity
  8
4
100
AcDbLine
 10
369.0323553747712
 20
1392.280401523377
 30
0.0
 11
261.0323553747712
 21
1392.280401523377
 31
0.0
  0
LINE
  5
158
330
2
100
AcDbEntity
  8
4
100
AcDbLine
 10
262.0323553747712
 20
1362.780401523377
 30
0.0
 11
262.0323553747712
 21
1392.280401523377
 31
0.0
  0
LINE
  5
159
330
2
100
AcDbEntity
  8
4
100
AcDbLine
 10
262.0323553747712
 20
1362.780401523377
 30
0.0
 11
261.0323553747712
 21
1363.780401523377
 31
0.0
  0
LINE
  5
15A
330
2
100
AcDbEntity
  8
4
100
AcDbLine
 10
369.0323553747712
 20
1416.280401523377
 30
0.0
 11
261.0323553747712
 21
1416.280401523377
 31
0.0
  0
LINE
  5
15B
330
2
100
AcDbEntity
  8
4
100
AcDbLine
 10
262.0323553747712
 20
1416.280401523377
 30
0.0
 11
262.0323553747712
 21
1445.780401523377
 31
0.0
  0
LINE
  5
15C
330
2
100
AcDbEntity
  8
4
100
AcDbLine
 10
261.0323553747712
 20
1444.780401523377
 30
0.0
 11
262.0323553747712
 21
1445.780401523377
 31
0.0
  0
LINE
  5
15D
330
2
100
AcDbEntity
  8
4
100
AcDbLine
 10
413.0323553747717
 20
1212.053160187425
 30
0.0
 11
413.0323553747717
 21
1228.507642859329
 31
0.0
  0
ARC
  5
15E
330
2
100
AcDbEntity
  8
4
100
AcDbCircle
 10
426.828099509949
 20
1220.280401523377
 30
0.0
 40
13.7957441351769
100
AcDbArc
 50
156.5734024913727
 51
203.4265975086273
  0
LINE
  5
15F
330
2
100
AcDbEntity
  8
4
100
AcDbLine
 10
421.0323553747717
 20
1231.25005663798
 30
0.0
 11
421.0323553747717
 21
1209.310746408774
 31
0.0
  0
LINE
  5
160
330
2
100
AcDbEntity
  8
4
100
AcDbLine
 10
424.0323553747717
 20
1231.25005663798
 30
0.0
 11
424.0323553747717
 21
1209.310746408774
 31
0.0
  0
LINE
  5
161
330
2
100
AcDbEntity
  8
4
100
AcDbLine
 10
424.0323553747717
 20
1598.780401523376
 30
0.0
 11
424.0323553747717
 21
1209.780401523377
 31
0.0
  0
LINE
  5
162
330
2
100
AcDbEntity
  8
4
100
AcDbLine
 10
443.7323553747715
 20
1601.780401523376
 30
0.0
 11
443.7323553747715
 21
1206.780401523377
 31
0.0
  0
LINE
  5
163
330
2
100
AcDbEntity
  8
L-CENTER
 48
5.0
100
AcDbLine
 10
691.0323553747708
 20
1228.369372218824
 30
0.0
 11
691.0323553747708
 21
1180.19143082793
 31
0.0
  0
LINE
  5
164
330
2
100
AcDbEntity
  8
4
100
AcDbLine
 10
726.0323553747708
 20
1274.280401523378
 30
0.0
 11
726.0323553747717
 21
1134.280401523377
 31
0.0
  0
LINE
  5
165
330
2
100
AcDbEntity
  8
4
100
AcDbLine
 10
444.0323553747717
 20
1601.780401523376
 30
0.0
 11
444.0323553747712
 21
1206.780401523377
 31
0.0
  0
LINE
  5
166
330
2
100
AcDbEntity
  8
4
100
AcDbLine
 10
450.0323553747717
 20
1606.280401523376
 30
0.0
 11
450.0323553747708
 21
1199.280401523378
 31
0.0
  0
LINE
  5
167
330
2
100
AcDbEntity
  8
L-CENTER
 48
5.0
100
AcDbLine
 10
551.0323553747712
 20
1634.739512333968
 30
0.0
 11
551.0323553747708
 21
991.1197049597624
 31
0.0
  0
LINE
  5
168
330
2
100
AcDbEntity
  8
4
100
AcDbLine
 10
673.0323553747712
 20
1598.780401523378
 30
0.0
 11
673.0323553747708
 21
1209.780401523377
 31
0.0
  0
LINE
  5
169
330
2
100
AcDbEntity
  8
4
100
AcDbLine
 10
652.0323553747712
 20
1606.280401523376
 30
0.0
 11
652.0323553747708
 21
1199.280401523378
 31
0.0
  0
LINE
  5
16A
330
2
100
AcDbEntity
  8
L-CENTER
 48
5.0
100
AcDbLine
 10
411.0323553747708
 20
1228.369372218824
 30
0.0
 11
411.0323553747708
 21
1180.19143082793
 31
0.0
  0
LINE
  5
16B
330
2
100
AcDbEntity
  8
4
100
AcDbLine
 10
376.0323553747712
 20
1274.280401523377
 30
0.0
 11
376.0323553747712
 21
1134.280401523377
 31
0.0
  0
CIRCLE
  5
16C
330
2
100
AcDbEntity
  8
4
100
AcDbCircle
 10
685.0323553747708
 20
1114.280401523377
 30
0.0
 40
14.0
  0
LINE
  5
16D
330
2
100
AcDbEntity
  8
4
100
AcDbLine
 10
388.5323553747708
 20
1033.980401523376
 30
0.0
 11
713.5323553747708
 21
1033.980401523376
 31
0.0
  0
LINE
  5
16E
330
2
100
AcDbEntity
  8
4
100
AcDbLine
 10
388.5323553747708
 20
1016.280401523377
 30
0.0
 11
713.5323553747708
 21
1016.280401523377
 31
0.0
  0
LINE
  5
16F
330
2
100
AcDbEntity
  8
4
100
AcDbLine
 10
388.5323553747708
 20
1034.280401523377
 30
0.0
 11
713.5323553747708
 21
1034.280401523377
 31
0.0
  0
LINE
  5
170
330
2
100
AcDbEntity
  8
4
100
AcDbLine
 10
650.0323553747708
 20
1182.280401523377
 30
0.0
 11
694.0323553747708
 21
1182.280401523377
 31
0.0
  0
LINE
  5
171
330
2
100
AcDbEntity
  8
L-CENTER
 48
5.0
100
AcDbLine
 10
715.1213260702176
 20
1204.280401523377
 30
0.0
 11
666.9433846793239
 21
1204.280401523377
 31
0.0
  0
LINE
  5
172
330
2
100
AcDbEntity
  8
4
100
AcDbLine
 10
387.0323553747708
 20
1037.280401523377
 30
0.0
 11
715.0323553747708
 21
1037.280401523377
 31
0.0
  0
LINE
  5
173
330
2
100
AcDbEntity
  8
4
100
AcDbLine
 10
388.5323553747708
 20
1034.280401523377
 30
0.0
 11
713.5323553747712
 21
1034.280401523377
 31
0.0
  0
LINE
  5
174
330
2
100
AcDbEntity
  8
4
100
AcDbLine
 10
408.0323553747708
 20
1046.280401523377
 30
0.0
 11
694.0323553747708
 21
1046.280401523378
 31
0.0
  0
LINE
  5
175
330
2
100
AcDbEntity
  8
L-CENTER
 48
5.0
100
AcDbLine
 10
283.3091553747705
 20
1114.280401523377
 30
0.0
 11
707.6497455198695
 21
1114.280401523377
 31
0.0
  0
LINE
  5
177
330
2
100
AcDbEntity
  8
4
100
AcDbLine
 10
683.0323553747717
 20
507.5967651171495
 30
0.0
 11
673.0323553747717
 21
512.5967651171495
 31
0.0
  0
ARC
  5
17A
330
2
100
AcDbEntity
  8
4
100
AcDbCircle
 10
551.0323553747712
 20
-882.4032348828504
 30
0.0
 40
1500.0
100
AcDbArc
 50
90.559979
 51
93.75351016407745
  0
LINE
  5
17B
330
2
100
AcDbEntity
  8
L-CENTER
 48
5.0
100
AcDbLine
 10
410.4315154946671
 20
571.9454394134864
 30
0.0
 11
465.323313252379
 21
571.9454394134864
 31
0.0
  0
LINE
  5
17C
330
2
100
AcDbEntity
  8
4
100
AcDbLine
 10
428.0323553747712
 20
606.5967651171504
 30
0.0
 11
450.0323553747712
 21
606.5967651171504
 31
0.0
  0
LINE
  5
17E
330
2
100
AcDbEntity
  8
4
100
AcDbLine
 10
425.0323553747712
 20
512.5967651171495
 30
0.0
 11
416.0323553747712
 21
507.5967651171495
 31
0.0
  0
LINE
  5
17F
330
2
100
AcDbEntity
  8
4
100
AcDbLine
 10
422.0323553747712
 20
560.9757842988834
 30
0.0
 11
422.0323553747712
 21
582.915094528089
 31
0.0
  0
LINE
  5
180
330
2
100
AcDbEntity
  8
4
100
AcDbLine
 10
425.0323553747712
 20
560.9757842988834
 30
0.0
 11
425.0323553747712
 21
582.915094528089
 31
0.0
  0
ARC
  5
181
330
2
100
AcDbEntity
  8
4
100
AcDbCircle
 10
417.9077342500505
 20
563.718198077534
 30
0.0
 40
3.875378875279244
100
AcDbArc
 50
134.9559267627464
 51
225.0440732372536
  0
LINE
  5
182
330
2
100
AcDbEntity
  8
4
100
AcDbLine
 10
414.0323553747712
 20
580.1726807494383
 30
0.0
 11
414.0323553747712
 21
563.718198077534
 31
0.0
  0
ARC
  5
183
330
2
100
AcDbEntity
  8
4
100
AcDbCircle
 10
427.8280995099485
 20
571.9454394134864
 30
0.0
 40
13.7957441351769
100
AcDbArc
 50
156.5734024913707
 51
203.4265975086273
  0
ARC
  5
184
330
2
100
AcDbEntity
  8
4
100
AcDbCircle
 10
417.9077342500505
 20
580.1726807494383
 30
0.0
 40
3.875378875279264
100
AcDbArc
 50
134.9559267627464
 51
225.0440732372536
  0
LINE
  5
185
330
2
100
AcDbEntity
  8
4
100
AcDbLine
 10
415.169536285398
 20
560.9757842988834
 30
0.0
 11
425.0323553747712
 21
560.9757842988834
 31
0.0
  0
LINE
  5
186
330
2
100
AcDbEntity
  8
4
100
AcDbLine
 10
415.169536285398
 20
566.4606118561846
 30
0.0
 11
422.0323553747712
 21
566.4606118561846
 31
0.0
  0
LINE
  5
187
330
2
100
AcDbEntity
  8
4
100
AcDbLine
 10
425.0323553747712
 20
582.915094528089
 30
0.0
 11
415.169536285398
 21
582.915094528089
 31
0.0
  0
LINE
  5
188
330
2
100
AcDbEntity
  8
4
100
AcDbLine
 10
415.169536285398
 20
577.4302669707877
 30
0.0
 11
422.0323553747712
 21
577.4302669707877
 31
0.0
  0
LINE
  5
18A
330
2
100
AcDbEntity
  8
4
100
AcDbLine
 10
544.7823553747712
 20
669.3467651171491
 30
0.0
 11
544.7823553747712
 21
618.5967651171486
 31
0.0
  0
LINE
  5
18B
330
2
100
AcDbEntity
  8
4
100
AcDbLine
 10
557.2823553747712
 20
669.3467651171491
 30
0.0
 11
557.2823553747712
 21
618.5967651171486
 31
0.0
  0
ARC
  5
18C
330
2
100
AcDbEntity
  8
4
100
AcDbCircle
 10
551.0323553747712
 20
-882.4032348828504
 30
0.0
 40
1500.0
100
AcDbArc
 50
86.24648983592256
 51
89.440021
  0
LINE
  5
18D
330
2
100
AcDbEntity
  8
4
100
AcDbLine
 10
557.2823553747712
 20
633.0967651171491
 30
0.0
 11
570.0323553747712
 21
633.0967651171491
 31
0.0
  0
LINE
  5
18E
330
2
100
AcDbEntity
  8
4
100
AcDbLine
 10
557.2823553747712
 20
628.0967651171491
 30
0.0
 11
574.0323553747708
 21
628.0967651171491
 31
0.0
  0
ARC
  5
18F
330
2
100
AcDbEntity
  8
4
100
AcDbCircle
 10
561.5269753747707
 20
623.8717251171502
 30
0.0
 40
3.0
100
AcDbArc
 50
10.00000000000503
 51
83.44823099999586
  0
LINE
  5
190
330
2
100
AcDbEntity
  8
4
100
AcDbLine
 10
571.0323553747712
 20
615.5967651171491
 30
0.0
 11
531.0323553747712
 21
615.5967651171491
 31
0.0
  0
ARC
  5
191
330
2
100
AcDbEntity
  8
4
100
AcDbCircle
 10
551.0323553747712
 20
648.0967651171491
 30
0.0
 40
42.5
100
AcDbArc
 50
241.9275130000001
 51
298.0724869999995
  0
LINE
  5
192
330
2
100
AcDbEntity
  8
4
100
AcDbLine
 10
532.0323553747712
 20
633.0967651171491
 30
0.0
 11
544.7823553747712
 21
633.0967651171491
 31
0.0
  0
LINE
  5
193
330
2
100
AcDbEntity
  8
4
100
AcDbLine
 10
528.0323553747717
 20
628.0967651171491
 30
0.0
 11
544.7823553747712
 21
628.0967651171491
 31
0.0
  0
LINE
  5
194
330
2
100
AcDbEntity
  8
4
100
AcDbLine
 10
540.1954303747716
 20
626.8521351171503
 30
0.0
 11
544.7823553747712
 21
627.3789451171492
 31
0.0
  0
ARC
  5
195
330
2
100
AcDbEntity
  8
4
100
AcDbCircle
 10
543.2823553747712
 20
618.5967651171486
 30
0.0
 40
1.5
100
AcDbArc
 50
270.0
 51
0.0
  0
LINE
  5
196
330
2
100
AcDbEntity
  8
4
100
AcDbLine
 10
527.0323553747712
 20
622.5967651171495
 30
0.0
 11
527.0323553747712
 21
619.3717151171486
 31
0.0
  0
LINE
  5
197
330
2
100
AcDbEntity
  8
4
100
AcDbLine
 10
528.0323553747717
 20
628.0967651171491
 30
0.0
 11
528.0323553747717
 21
624.0967651171504
 31
0.0
  0
LINE
  5
198
330
2
100
AcDbEntity
  8
4
100
AcDbLine
 10
531.0323553747712
 20
615.5967651171491
 30
0.0
 11
531.0323553747712
 21
612.5967651171495
 31
0.0
  0
ARC
  5
199
330
2
100
AcDbEntity
  8
4
100
AcDbCircle
 10
529.0323553747708
 20
612.5967651171495
 30
0.0
 40
2.0
100
AcDbArc
 50
270.0
 51
0.0
  0
LINE
  5
19A
330
2
100
AcDbEntity
  8
4
100
AcDbLine
 10
527.0323553747712
 20
622.5967651171495
 30
0.0
 11
537.0903153747718
 21
622.5967651171495
 31
0.0
  0
LINE
  5
19B
330
2
100
AcDbEntity
  8
4
100
AcDbLine
 10
536.0323553747712
 20
615.5967651171491
 30
0.0
 11
537.5833103747714
 21
624.3926701171486
 31
0.0
  0
ARC
  5
19C
330
2
100
AcDbEntity
  8
4
100
AcDbCircle
 10
540.5377353747717
 20
623.8717251171502
 30
0.0
 40
3.0
100
AcDbArc
 50
96.55176900000414
 51
169.999999999995
  0
ARC
  5
19D
330
2
100
AcDbEntity
  8
4
100
AcDbCircle
 10
525.0323553747712
 20
619.3717151171486
 30
0.0
 40
2.0
100
AcDbArc
 50
270.991853999994
 51
0.0
  0
LINE
  5
19E
330
2
100
AcDbEntity
  8
4
100
AcDbLine
 10
530.0323553747712
 20
624.0967651171504
 30
0.0
 11
530.0323553747712
 21
622.5967651171495
 31
0.0
  0
LINE
  5
19F
330
2
100
AcDbEntity
  8
4
100
AcDbLine
 10
528.0323553747717
 20
624.0967651171504
 30
0.0
 11
537.0903153747718
 21
624.0967651171504
 31
0.0
  0
LINE
  5
1A0
330
2
100
AcDbEntity
  8
4
100
AcDbLine
 10
532.0323553747712
 20
633.0967651171491
 30
0.0
 11
532.0323553747712
 21
628.0967651171491
 31
0.0
  0
LINE
  5
1A1
330
2
100
AcDbEntity
  8
4
100
AcDbLine
 10
557.2823553747712
 20
627.3789451171492
 30
0.0
 11
561.8692803747708
 21
626.8521351171503
 31
0.0
  0
ARC
  5
1A2
330
2
100
AcDbEntity
  8
4
100
AcDbCircle
 10
558.7823553747712
 20
618.5967651171486
 30
0.0
 40
1.5
100
AcDbArc
 50
180.0
 51
270.0
  0
LINE
  5
1A3
330
2
100
AcDbEntity
  8
4
100
AcDbLine
 10
575.0323553747712
 20
622.5967651171495
 30
0.0
 11
575.0323553747712
 21
619.3717151171486
 31
0.0
  0
LINE
  5
1A4
330
2
100
AcDbEntity
  8
4
100
AcDbLine
 10
574.0323553747708
 20
628.0967651171491
 30
0.0
 11
574.0323553747708
 21
624.0967651171504
 31
0.0
  0
LINE
  5
1A5
330
2
100
AcDbEntity
  8
4
100
AcDbLine
 10
571.0323553747712
 20
615.5967651171491
 30
0.0
 11
571.0323553747712
 21
612.5967651171495
 31
0.0
  0
ARC
  5
1A6
330
2
100
AcDbEntity
  8
4
100
AcDbCircle
 10
573.0323553747717
 20
612.5967651171495
 30
0.0
 40
2.0
100
AcDbArc
 50
180.0
 51
270.0
  0
LINE
  5
1A7
330
2
100
AcDbEntity
  8
4
100
AcDbLine
 10
564.7980653747713
 20
622.5967651171495
 30
0.0
 11
575.0323553747712
 21
622.5967651171495
 31
0.0
  0
LINE
  5
1A8
330
2
100
AcDbEntity
  8
4
100
AcDbLine
 10
566.0323553747712
 20
615.5967651171491
 30
0.0
 11
564.481400374771
 21
624.3926701171486
 31
0.0
  0
ARC
  5
1A9
330
2
100
AcDbEntity
  8
4
100
AcDbCircle
 10
577.0323553747712
 20
619.3717151171486
 30
0.0
 40
2.0
100
AcDbArc
 50
180.0
 51
269.008146000006
  0
LINE
  5
1AA
330
2
100
AcDbEntity
  8
4
100
AcDbLine
 10
572.0323553747712
 20
624.0967651171504
 30
0.0
 11
572.0323553747712
 21
622.5967651171495
 31
0.0
  0
LINE
  5
1AB
330
2
100
AcDbEntity
  8
4
100
AcDbLine
 10
564.7980653747713
 20
624.0967651171504
 30
0.0
 11
574.0323553747708
 21
624.0967651171504
 31
0.0
  0
LINE
  5
1AC
330
2
100
AcDbEntity
  8
4
100
AcDbLine
 10
570.0323553747712
 20
633.0967651171491
 30
0.0
 11
570.0323553747712
 21
628.0967651171491
 31
0.0
  0
LINE
  5
1AD
330
2
100
AcDbEntity
  8
4
100
AcDbLine
 10
652.0323553747712
 20
610.0967651171495
 30
0.0
 11
670.0323553747717
 21
610.0967651171495
 31
0.0
  0
ARC
  5
1AE
330
2
100
AcDbEntity
  8
4
100
AcDbCircle
 10
551.0323553747712
 20
669.3467651171491
 30
0.0
 40
6.25
100
AcDbArc
 50
0.0
 51
180.0
  0
LINE
  5
1B3
330
2
100
AcDbEntity
  8
4
100
AcDbLine
 10
487.5020107773871
 20
1012.633435983115
 30
0.0
 11
531.0323553747708
 21
1008.280401523376
 31
0.0
  0
LINE
  5
1B4
330
2
100
AcDbEntity
  8
4
100
AcDbLine
 10
450.0323553747708
 20
1199.280401523469
 30
0.0
 11
652.0323553747708
 21
1199.280401523377
 31
0.0
  0
LINE
  5
1B5
330
2
100
AcDbEntity
  8
4
100
AcDbLine
 10
405.0323553747712
 20
1107.069298972449
 30
0.0
 11
405.0323553747708
 21
1049.280401523377
 31
0.0
  0
LINE
  5
1B6
330
2
100
AcDbEntity
  8
4
100
AcDbLine
 10
400.0323553747717
 20
1179.280401523377
 30
0.0
 11
400.0323553747708
 21
1049.280401523377
 31
0.0
  0
LINE
  5
1B7
330
2
100
AcDbEntity
  8
4
100
AcDbLine
 10
387.0323553747708
 20
1071.280401523377
 30
0.0
 11
387.0323553747708
 21
1037.280401523377
 31
0.0
  0
ARC
  5
1B8
330
2
100
AcDbEntity
  8
4
100
AcDbCircle
 10
410.2595967107227
 20
1009.155780398656
 30
0.0
 40
3.875378875279264
100
AcDbArc
 50
224.955926762744
 51
315.044073237256
  0
LINE
  5
1B9
330
2
100
AcDbEntity
  8
4
100
AcDbLine
 10
410.2595967107227
 20
1005.280401523377
 30
0.0
 11
393.8051140388184
 21
1005.280401523377
 31
0.0
  0
LINE
  5
1BA
330
2
100
AcDbEntity
  8
4
100
AcDbLine
 10
391.0627002601677
 20
1016.280401523377
 30
0.0
 11
413.0020104893733
 21
1016.280401523377
 31
0.0
  0
LINE
  5
1BB
330
2
100
AcDbEntity
  8
4
100
AcDbLine
 10
391.0627002601677
 20
1013.280401523377
 30
0.0
 11
413.0020104893733
 21
1013.280401523377
 31
0.0
  0
ARC
  5
1BD
330
2
100
AcDbEntity
  8
4
100
AcDbCircle
 10
402.0323553747708
 20
1019.076145658554
 30
0.0
 40
13.7957441351769
100
AcDbArc
 50
246.5734024913693
 51
293.4265975086262
  0
ARC
  5
1BE
330
2
100
AcDbEntity
  8
4
100
AcDbCircle
 10
393.8051140388184
 20
1009.155780398656
 30
0.0
 40
3.875378875279244
100
AcDbArc
 50
224.955926762744
 51
315.0440732372554
  0
LINE
  5
1BF
330
2
100
AcDbEntity
  8
4
100
AcDbLine
 10
388.5323553747708
 20
1016.280401523377
 30
0.0
 11
388.5323553747708
 21
1037.280401523376
 31
0.0
  0
LINE
  5
1C0
330
2
100
AcDbEntity
  8
4
100
AcDbLine
 10
388.5323553747708
 20
1037.280401523377
 30
0.0
 11
388.5323553747708
 21
1034.280401523377
 31
0.0
  0
LINE
  5
1C1
330
2
100
AcDbEntity
  8
4
100
AcDbLine
 10
407.517182932072
 20
1006.417582434003
 30
0.0
 11
407.517182932072
 21
1013.280401523377
 31
0.0
  0
LINE
  5
1C2
330
2
100
AcDbEntity
  8
4
100
AcDbLine
 10
396.547527817469
 20
1006.417582434003
 30
0.0
 11
396.547527817469
 21
1013.280401523377
 31
0.0
  0
LINE
  5
1C3
330
2
100
AcDbEntity
  8
4
100
AcDbLine
 10
391.0627002601677
 20
1006.417582434003
 30
0.0
 11
391.0627002601677
 21
1016.280401523377
 31
0.0
  0
ARC
  5
1C4
330
2
100
AcDbEntity
  8
4
100
AcDbCircle
 10
408.0323553747712
 20
1049.280401523377
 30
0.0
 40
3.0
100
AcDbArc
 50
180.0
 51
270.0
  0
LINE
  5
1C5
330
2
100
AcDbEntity
  8
4
100
AcDbLine
 10
405.0323553747712
 20
1049.280401523377
 30
0.0
 11
400.0323553747712
 21
1049.280401523377
 31
0.0
  0
LINE
  5
1C6
330
2
100
AcDbEntity
  8
4
100
AcDbLine
 10
413.0020104893733
 20
1016.280401523377
 30
0.0
 11
413.0020104893733
 21
1006.417582434003
 31
0.0
  0
ARC
  5
1C7
330
2
100
AcDbEntity
  8
4
100
AcDbCircle
 10
484.7595969987365
 20
1009.155780398656
 30
0.0
 40
3.875378875279264
100
AcDbArc
 50
224.955926762744
 51
315.044073237256
  0
LINE
  5
1C8
330
2
100
AcDbEntity
  8
4
100
AcDbLine
 10
465.5627005481815
 20
1016.280401523377
 30
0.0
 11
487.5020107773871
 21
1016.280401523377
 31
0.0
  0
LINE
  5
1C9
330
2
100
AcDbEntity
  8
4
100
AcDbLine
 10
465.5627005481815
 20
1013.280401523377
 30
0.0
 11
487.5020107773871
 21
1013.280401523377
 31
0.0
  0
ARC
  5
1CA
330
2
100
AcDbEntity
  8
4
100
AcDbCircle
 10
468.3051143268322
 20
1009.155780398656
 30
0.0
 40
3.875378875279244
100
AcDbArc
 50
224.955926762744
 51
315.0440732372554
  0
ARC
  5
1CB
330
2
100
AcDbEntity
  8
4
100
AcDbCircle
 10
476.5323556627845
 20
1019.076145658554
 30
0.0
 40
13.7957441351769
100
AcDbArc
 50
246.5734024913737
 51
293.4265975086262
  0
LINE
  5
1CD
330
2
100
AcDbEntity
  8
4
100
AcDbLine
 10
484.7595969987365
 20
1005.280401523377
 30
0.0
 11
468.3051143268322
 21
1005.280401523377
 31
0.0
  0
LINE
  5
1CE
330
2
100
AcDbEntity
  8
4
100
AcDbLine
 10
465.5627005481815
 20
1006.417582434003
 30
0.0
 11
465.5627005481815
 21
1016.280401523377
 31
0.0
  0
LINE
  5
1CF
330
2
100
AcDbEntity
  8
4
100
AcDbLine
 10
451.0323553747708
 20
1016.280401523377
 30
0.0
 11
465.5627005481815
 21
1014.827367006036
 31
0.0
  0
LINE
  5
1D0
330
2
100
AcDbEntity
  8
4
100
AcDbLine
 10
471.0475281054828
 20
1006.417582434003
 30
0.0
 11
471.0475281054828
 21
1013.280401523377
 31
0.0
  0
LINE
  5
1D1
330
2
100
AcDbEntity
  8
4
100
AcDbLine
 10
482.0171832200858
 20
1006.417582434003
 30
0.0
 11
482.0171832200858
 21
1013.280401523377
 31
0.0
  0
LINE
  5
1D2
330
2
100
AcDbEntity
  8
4
100
AcDbLine
 10
487.5020107773871
 20
1016.280401523377
 30
0.0
 11
487.5020107773871
 21
1006.417582434003
 31
0.0
  0
LINE
  5
1D4
330
2
100
AcDbEntity
  8
4
100
AcDbLine
 10
444.0323553747708
 20
1206.780401523377
 30
0.0
 11
450.0323553747712
 21
1206.780401523377
 31
0.0
  0
LINE
  5
1D5
330
2
100
AcDbEntity
  8
4
100
AcDbLine
 10
408.0323553747717
 20
1182.280401523378
 30
0.0
 11
452.0323553747708
 21
1182.280401523377
 31
0.0
  0
LINE
  5
1D6
330
2
100
AcDbEntity
  8
4
100
AcDbLine
 10
399.0323553747708
 20
1154.280401523377
 30
0.0
 11
399.0323553747708
 21
1074.280401523377
 31
0.0
  0
LINE
  5
1D7
330
2
100
AcDbEntity
  8
4
100
AcDbLine
 10
405.0323553747717
 20
1179.280401523378
 30
0.0
 11
405.0323553747712
 21
1121.491504074306
 31
0.0
  0
CIRCLE
  5
1D8
330
2
100
AcDbEntity
  8
4
100
AcDbCircle
 10
417.0323553747708
 20
1114.280401523377
 30
0.0
 40
14.0
  0
LINE
  5
1D9
330
2
100
AcDbEntity
  8
4
100
AcDbLine
 10
390.0323553747708
 20
1074.280401523377
 30
0.0
 11
400.0323553747712
 21
1074.280401523377
 31
0.0
  0
LINE
  5
1DA
330
2
100
AcDbEntity
  8
4
100
AcDbLine
 10
399.0323553747708
 20
1074.280401523377
 30
0.0
 11
400.0323553747708
 21
1074.280401523377
 31
0.0
  0
LINE
  5
1DD
330
2
100
AcDbEntity
  8
L-CENTER
 48
5.0
100
AcDbLine
 10
417.0323553747708
 20
1138.741826523377
 30
0.0
 11
417.0323553747708
 21
1089.818976523377
 31
0.0
  0
LINE
  5
1DE
330
2
100
AcDbEntity
  8
L-CENTER
 48
5.0
100
AcDbLine
 10
386.9433846793239
 20
1204.280401523377
 30
0.0
 11
435.1213260702176
 21
1204.280401523377
 31
0.0
  0
ARC
  5
1DF
330
2
100
AcDbEntity
  8
4
100
AcDbCircle
 10
411.0323553747712
 20
1204.280401523377
 30
0.0
 40
11.0
100
AcDbArc
 50
79.52431830360838
 51
27.21328109718123
  0
ARC
  5
1E0
330
2
100
AcDbEntity
  8
4
100
AcDbCircle
 10
408.0323553747717
 20
1179.280401523378
 30
0.0
 40
3.0
100
AcDbArc
 50
90.0
 51
180.0
  0
LINE
  5
1E1
330
2
100
AcDbEntity
  8
4
100
AcDbLine
 10
399.0323553747708
 20
1154.280401523377
 30
0.0
 11
400.0323553747708
 21
1154.280401523377
 31
0.0
  0
LINE
  5
1E2
330
2
100
AcDbEntity
  8
4
100
AcDbLine
 10
405.0323553747712
 20
1179.280401523377
 30
0.0
 11
400.0323553747717
 21
1179.280401523377
 31
0.0
  0
LINE
  5
1E3
330
2
100
AcDbEntity
  8
4
100
AcDbLine
 10
427.0323553747717
 20
1206.780401523377
 30
0.0
 11
443.7323553747715
 21
1206.780401523377
 31
0.0
  0
ARC
  5
1E4
330
2
100
AcDbEntity
  8
4
100
AcDbCircle
 10
416.9077342500509
 20
1212.053160187425
 30
0.0
 40
3.875378875279264
100
AcDbArc
 50
134.9559267627559
 51
225.0440732372441
  0
LINE
  5
1E5
330
2
100
AcDbEntity
  8
4
100
AcDbLine
 10
424.0323553747717
 20
1209.310746408774
 30
0.0
 11
414.1695362853984
 21
1209.310746408774
 31
0.0
  0
LINE
  5
1E6
330
2
100
AcDbEntity
  8
4
100
AcDbLine
 10
414.1695362853984
 20
1214.795573966075
 30
0.0
 11
421.0323553747717
 21
1214.795573966075
 31
0.0
  0
ARC
  5
1E7
330
2
100
AcDbEntity
  8
4
100
AcDbCircle
 10
427.0323553747717
 20
1209.780401523377
 30
0.0
 40
3.0
100
AcDbArc
 50
180.0
 51
270.0
  0
LINE
  5
1E8
330
2
100
AcDbEntity
  8
4
100
AcDbLine
 10
452.0323553747708
 20
1199.280401523468
 30
0.0
 11
452.0323553747708
 21
1157.44891234015
 31
0.0
  0
LINE
  5
1E9
330
2
100
AcDbEntity
  8
4
100
AcDbLine
 10
614.5626999721549
 20
1012.633435983115
 30
0.0
 11
571.0323553747708
 21
1008.280401523376
 31
0.0
  0
LINE
  5
1EA
330
2
100
AcDbEntity
  8
4
100
AcDbLine
 10
533.0323553747717
 20
1004.280401523377
 30
0.0
 11
569.0323553747708
 21
1004.280401523377
 31
0.0
  0
ARC
  5
1EB
330
2
100
AcDbEntity
  8
4
100
AcDbCircle
 10
551.0323553747708
 20
1197.280401523376
 30
0.0
 40
200.0
100
AcDbArc
 50
264.8363930000001
 51
275.163607
  0
LINE
  5
1EC
330
2
100
AcDbEntity
  8
4
100
AcDbLine
 10
569.0323553747708
 20
1002.280401523376
 30
0.0
 11
533.0323553747717
 21
1002.280401523376
 31
0.0
  0
LINE
  5
1ED
330
2
100
AcDbEntity
  8
4
100
AcDbLine
 10
571.0323553747708
 20
1006.280401523377
 30
0.0
 11
531.0323553747708
 21
1006.280401523377
 31
0.0
  0
LINE
  5
1EE
330
2
100
AcDbEntity
  8
4
100
AcDbLine
 10
571.0323553747708
 20
1008.280401523376
 30
0.0
 11
531.0323553747708
 21
1008.280401523376
 31
0.0
  0
LINE
  5
1EF
330
2
100
AcDbEntity
  8
4
100
AcDbLine
 10
533.0323553747717
 20
998.0920465233755
 30
0.0
 11
533.0323553747717
 21
1006.280401523377
 31
0.0
  0
LINE
  5
1F0
330
2
100
AcDbEntity
  8
4
100
AcDbLine
 10
542.0323553747698
 20
997.4830065233762
 30
0.0
 11
542.0323553747698
 21
1002.280401523376
 31
0.0
  0
LINE
  5
1F1
330
2
100
AcDbEntity
  8
4
100
AcDbLine
 10
560.0323553747717
 20
997.4830065233762
 30
0.0
 11
560.0323553747717
 21
1002.280401523376
 31
0.0
  0
LINE
  5
1F2
330
2
100
AcDbEntity
  8
4
100
AcDbLine
 10
531.0323553747708
 20
1006.280401523377
 30
0.0
 11
531.0323553747708
 21
1008.280401523376
 31
0.0
  0
LINE
  5
1F3
330
2
100
AcDbEntity
  8
4
100
AcDbLine
 10
569.0323553747708
 20
998.0920465233755
 30
0.0
 11
569.0323553747708
 21
1006.280401523377
 31
0.0
  0
LINE
  5
1F4
330
2
100
AcDbEntity
  8
4
100
AcDbLine
 10
571.0323553747708
 20
1006.280401523377
 30
0.0
 11
571.0323553747708
 21
1008.280401523376
 31
0.0
  0
LINE
  5
1F5
330
2
100
AcDbEntity
  8
4
100
AcDbLine
 10
651.0323553747708
 20
1016.280401523377
 30
0.0
 11
636.5020102013605
 21
1014.827367006036
 31
0.0
  0
ARC
  5
1F6
330
2
100
AcDbEntity
  8
4
100
AcDbCircle
 10
633.7595964227098
 20
1009.155780398656
 30
0.0
 40
3.875378875279244
100
AcDbArc
 50
224.955926762744
 51
315.0440732372548
  0
ARC
  5
1F7
330
2
100
AcDbEntity
  8
4
100
AcDbCircle
 10
625.5323550867574
 20
1019.076145658554
 30
0.0
 40
13.7957441351769
100
AcDbArc
 50
246.5734024913737
 51
293.4265975086262
  0
ARC
  5
1F8
330
2
100
AcDbEntity
  8
4
100
AcDbCircle
 10
617.3051137508055
 20
1009.155780398656
 30
0.0
 40
3.875378875279264
100
AcDbArc
 50
224.955926762744
 51
315.044073237256
  0
LINE
  5
1FA
330
2
100
AcDbEntity
  8
4
100
AcDbLine
 10
617.3051137508055
 20
1005.280401523377
 30
0.0
 11
633.7595964227098
 21
1005.280401523377
 31
0.0
  0
LINE
  5
1FB
330
2
100
AcDbEntity
  8
4
100
AcDbLine
 10
636.5020102013605
 20
1013.280401523377
 30
0.0
 11
614.5626999721549
 21
1013.280401523377
 31
0.0
  0
LINE
  5
1FC
330
2
100
AcDbEntity
  8
4
100
AcDbLine
 10
636.5020102013605
 20
1016.280401523377
 30
0.0
 11
614.5626999721549
 21
1016.280401523377
 31
0.0
  0
LINE
  5
1FD
330
2
100
AcDbEntity
  8
4
100
AcDbLine
 10
614.5626999721549
 20
1016.280401523377
 30
0.0
 11
614.5626999721549
 21
1006.417582434003
 31
0.0
  0
LINE
  5
1FE
330
2
100
AcDbEntity
  8
4
100
AcDbLine
 10
620.0475275294561
 20
1006.417582434003
 30
0.0
 11
620.0475275294561
 21
1013.280401523377
 31
0.0
  0
LINE
  5
1FF
330
2
100
AcDbEntity
  8
4
100
AcDbLine
 10
636.5020102013605
 20
1006.417582434003
 30
0.0
 11
636.5020102013605
 21
1016.280401523377
 31
0.0
  0
LINE
  5
200
330
2
100
AcDbEntity
  8
4
100
AcDbLine
 10
631.0171826440592
 20
1006.417582434003
 30
0.0
 11
631.0171826440592
 21
1013.280401523377
 31
0.0
  0
LINE
  5
201
330
2
100
AcDbEntity
  8
4
100
AcDbLine
 10
650.0323553747708
 20
1199.280401523378
 30
0.0
 11
650.0323553747703
 21
1157.44891234015
 31
0.0
  0
LINE
  5
202
330
2
100
AcDbEntity
  8
4
100
AcDbLine
 10
652.0323553747708
 20
1206.780401523377
 30
0.0
 11
670.0323553747708
 21
1206.780401523377
 31
0.0
  0
LINE
  5
207
330
2
100
AcDbEntity
  8
4
100
AcDbLine
 10
697.0323553747708
 20
1107.069298972449
 30
0.0
 11
697.0323553747708
 21
1049.280401523378
 31
0.0
  0
LINE
  5
208
330
2
100
AcDbEntity
  8
4
100
AcDbLine
 10
702.0323553747708
 20
1179.280401523377
 30
0.0
 11
702.0323553747708
 21
1049.280401523377
 31
0.0
  0
LINE
  5
209
330
2
100
AcDbEntity
  8
4
100
AcDbLine
 10
715.0323553747708
 20
1071.280401523377
 30
0.0
 11
715.0323553747712
 21
1037.280401523377
 31
0.0
  0
ARC
  5
20A
330
2
100
AcDbEntity
  8
4
100
AcDbCircle
 10
708.2595967107236
 20
1009.155780398656
 30
0.0
 40
3.875378875279244
100
AcDbArc
 50
224.955926762744
 51
315.0440732372548
  0
ARC
  5
20B
330
2
100
AcDbEntity
  8
4
100
AcDbCircle
 10
700.0323553747712
 20
1019.076145658554
 30
0.0
 40
13.7957441351769
100
AcDbArc
 50
246.5734024913737
 51
293.4265975086304
  0
ARC
  5
20C
330
2
100
AcDbEntity
  8
4
100
AcDbCircle
 10
691.8051140388193
 20
1009.155780398656
 30
0.0
 40
3.875378875279264
100
AcDbArc
 50
224.955926762744
 51
315.0440732372572
  0
LINE
  5
20E
330
2
100
AcDbEntity
  8
4
100
AcDbLine
 10
691.8051140388193
 20
1005.280401523377
 30
0.0
 11
708.2595967107236
 21
1005.280401523377
 31
0.0
  0
LINE
  5
20F
330
2
100
AcDbEntity
  8
4
100
AcDbLine
 10
711.0020104893742
 20
1013.280401523377
 30
0.0
 11
689.0627002601686
 21
1013.280401523377
 31
0.0
  0
LINE
  5
210
330
2
100
AcDbEntity
  8
4
100
AcDbLine
 10
711.0020104893742
 20
1016.280401523377
 30
0.0
 11
689.0627002601686
 21
1016.280401523377
 31
0.0
  0
LINE
  5
211
330
2
100
AcDbEntity
  8
4
100
AcDbLine
 10
688.0323553747717
 20
1016.280401523377
 30
0.0
 11
713.5323553747708
 21
1016.280401523377
 31
0.0
  0
LINE
  5
212
330
2
100
AcDbEntity
  8
4
100
AcDbLine
 10
697.0323553747708
 20
1049.280401523377
 30
0.0
 11
702.0323553747708
 21
1049.280401523377
 31
0.0
  0
LINE
  5
213
330
2
100
AcDbEntity
  8
4
100
AcDbLine
 10
689.0627002601686
 20
1016.280401523377
 30
0.0
 11
689.0627002601686
 21
1006.417582434003
 31
0.0
  0
LINE
  5
214
330
2
100
AcDbEntity
  8
4
100
AcDbLine
 10
694.5475278174699
 20
1006.417582434003
 30
0.0
 11
694.5475278174699
 21
1013.280401523377
 31
0.0
  0
ARC
  5
215
330
2
100
AcDbEntity
  8
4
100
AcDbCircle
 10
694.0323553747708
 20
1049.280401523378
 30
0.0
 40
3.0
100
AcDbArc
 50
270.0
 51
0.0
  0
LINE
  5
216
330
2
100
AcDbEntity
  8
4
100
AcDbLine
 10
711.0020104893742
 20
1006.417582434003
 30
0.0
 11
711.0020104893742
 21
1016.280401523377
 31
0.0
  0
LINE
  5
217
330
2
100
AcDbEntity
  8
4
100
AcDbLine
 10
705.517182932073
 20
1006.417582434003
 30
0.0
 11
705.517182932073
 21
1013.280401523377
 31
0.0
  0
LINE
  5
218
330
2
100
AcDbEntity
  8
4
100
AcDbLine
 10
713.5323553747708
 20
1016.280401523377
 30
0.0
 11
713.5323553747708
 21
1037.280401523376
 31
0.0
  0
LINE
  5
219
330
2
100
AcDbEntity
  8
4
100
AcDbLine
 10
713.5323553747712
 20
1037.280401523377
 30
0.0
 11
713.5323553747712
 21
1034.280401523377
 31
0.0
  0
LINE
  5
21E
330
2
100
AcDbEntity
  8
4
100
AcDbLine
 10
703.0323553747717
 20
1154.280401523377
 30
0.0
 11
703.0323553747717
 21
1074.280401523377
 31
0.0
  0
LINE
  5
21F
330
2
100
AcDbEntity
  8
4
100
AcDbLine
 10
697.0323553747708
 20
1179.280401523377
 30
0.0
 11
697.0323553747708
 21
1121.491504074306
 31
0.0
  0
LINE
  5
222
330
2
100
AcDbEntity
  8
4
100
AcDbLine
 10
702.0323553747708
 20
1074.280401523377
 30
0.0
 11
703.0323553747717
 21
1074.280401523377
 31
0.0
  0
LINE
  5
223
330
2
100
AcDbEntity
  8
4
100
AcDbLine
 10
702.0323553747708
 20
1074.280401523377
 30
0.0
 11
712.0323553747708
 21
1074.280401523377
 31
0.0
  0
LINE
  5
224
330
2
100
AcDbEntity
  8
L-CENTER
 48
5.0
100
AcDbLine
 10
685.0323553747708
 20
1138.741826523377
 30
0.0
 11
685.0323553747708
 21
1089.818976523377
 31
0.0
  0
ARC
  5
22B
330
2
100
AcDbEntity
  8
4
100
AcDbCircle
 10
694.0323553747708
 20
1179.280401523377
 30
0.0
 40
3.0
100
AcDbArc
 50
0.0
 51
90.0
  0
LINE
  5
22C
330
2
100
AcDbEntity
  8
4
100
AcDbLine
 10
697.0323553747708
 20
1179.280401523377
 30
0.0
 11
702.0323553747708
 21
1179.280401523377
 31
0.0
  0
LINE
  5
22D
330
2
100
AcDbEntity
  8
4
100
AcDbLine
 10
702.0323553747708
 20
1154.280401523377
 30
0.0
 11
703.0323553747717
 21
1154.280401523377
 31
0.0
  0
CIRCLE
  5
22E
330
2
100
AcDbEntity
  8
4
100
AcDbCircle
 10
691.0323553747712
 20
1204.280401523377
 30
0.0
 40
11.0
  0
LINE
  5
234
330
2
100
AcDbEntity
  8
4
100
AcDbLine
 10
673.0323553747708
 20
1279.280401523378
 30
0.0
 11
721.0323553747708
 21
1279.280401523378
 31
0.0
  0
LINE
  5
235
330
2
100
AcDbEntity
  8
4
100
AcDbLine
 10
673.0323553747708
 20
1305.434247677222
 30
0.0
 11
682.3913344540802
 21
1309.033855015418
 31
0.0
  0
LINE
  5
236
330
2
100
AcDbEntity
  8
4
100
AcDbLine
 10
673.0323553747708
 20
1503.126555369531
 30
0.0
 11
682.3913344540802
 21
1499.526948031335
 31
0.0
  0
LINE
  5
237
330
2
100
AcDbEntity
  8
L-CENTER
 48
5.0
100
AcDbLine
 10
715.1213260702181
 20
1554.280401523376
 30
0.0
 11
666.9433846793244
 21
1554.280401523376
 31
0.0
  0
LINE
  5
238
330
2
100
AcDbEntity
  8
4
100
AcDbLine
 10
652.0323553747712
 20
1604.280401523378
 30
0.0
 11
721.0323553747712
 21
1604.280401523378
 31
0.0
  0
LINE
  5
239
330
2
100
AcDbEntity
  8
4
100
AcDbLine
 10
376.0323553747712
 20
1599.280401523376
 30
0.0
 11
376.0323553747708
 21
1459.280401523378
 31
0.0
  0
LINE
  5
23A
330
2
100
AcDbEntity
  8
L-CENTER
 48
5.0
100
AcDbLine
 10
411.0323553747712
 20
1578.369372218824
 30
0.0
 11
411.0323553747712
 21
1530.19143082793
 31
0.0
  0
LINE
  5
23B
330
2
100
AcDbEntity
  8
L-CENTER
 48
5.0
100
AcDbLine
 10
516.5350175305967
 20
1514.280401523376
 30
0.0
 11
585.5296932189458
 21
1514.280401523376
 31
0.0
  0
LINE
  5
23C
330
2
100
AcDbEntity
  8
L-CENTER
 48
5.0
100
AcDbLine
 10
516.5350175305966
 20
1294.280401523377
 30
0.0
 11
585.5296932189453
 21
1294.280401523377
 31
0.0
  0
LINE
  5
23D
330
2
100
AcDbEntity
  8
4
100
AcDbLine
 10
391.0323553747712
 20
1361.780401523377
 30
0.0
 11
391.0323553747712
 21
1446.780401523377
 31
0.0
  0
LINE
  5
23E
330
2
100
AcDbEntity
  8
4
100
AcDbLine
 10
415.0323553747717
 20
1485.310746408774
 30
0.0
 11
415.0323553747717
 21
1323.25005663798
 31
0.0
  0
LINE
  5
23F
330
2
100
AcDbEntity
  8
4
100
AcDbLine
 10
414.0323553747717
 20
1459.280401523377
 30
0.0
 11
414.0323553747717
 21
1349.280401523377
 31
0.0
  0
LINE
  5
241
330
2
100
AcDbEntity
  8
4
100
AcDbLine
 10
424.0323553747717
 20
1323.25005663798
 30
0.0
 11
424.0323553747717
 21
1301.310746408774
 31
0.0
  0
LINE
  5
242
330
2
100
AcDbEntity
  8
4
100
AcDbLine
 10
421.0323553747717
 20
1323.25005663798
 30
0.0
 11
421.0323553747717
 21
1301.310746408774
 31
0.0
  0
ARC
  5
243
330
2
100
AcDbEntity
  8
4
100
AcDbCircle
 10
426.828099509949
 20
1312.280401523378
 30
0.0
 40
13.7957441351769
100
AcDbArc
 50
156.5734024913727
 51
203.4265975086273
  0
LINE
  5
244
330
2
100
AcDbEntity
  8
4
100
AcDbLine
 10
413.0323553747717
 20
1304.053160187425
 30
0.0
 11
413.0323553747717
 21
1320.50764285933
 31
0.0
  0
LINE
  5
245
330
2
100
AcDbEntity
  8
4
100
AcDbLine
 10
381.0323553747712
 20
1279.280401523377
 30
0.0
 11
424.0323553747717
 21
1279.280401523377
 31
0.0
  0
ARC
  5
246
330
2
100
AcDbEntity
  8
4
100
AcDbCircle
 10
381.0323553747712
 20
1274.280401523377
 30
0.0
 40
5.0
100
AcDbArc
 50
90.0
 51
180.0
  0
LINE
  5
247
330
2
100
AcDbEntity
  8
4
100
AcDbLine
 10
414.1695362853984
 20
1225.765229080679
 30
0.0
 11
421.0323553747717
 21
1225.765229080679
 31
0.0
  0
LINE
  5
248
330
2
100
AcDbEntity
  8
4
100
AcDbLine
 10
414.1695362853984
 20
1231.25005663798
 30
0.0
 11
424.0323553747717
 21
1231.25005663798
 31
0.0
  0
ARC
  5
249
330
2
100
AcDbEntity
  8
4
100
AcDbCircle
 10
416.9077342500509
 20
1228.507642859329
 30
0.0
 40
3.875378875279244
100
AcDbArc
 50
134.9559267627559
 51
225.0440732372441
  0
LINE
  5
24A
330
2
100
AcDbEntity
  8
4
100
AcDbLine
 10
414.1695362853984
 20
1306.795573966076
 30
0.0
 11
421.0323553747717
 21
1306.795573966076
 31
0.0
  0
LINE
  5
24B
330
2
100
AcDbEntity
  8
4
100
AcDbLine
 10
424.0323553747717
 20
1301.310746408774
 30
0.0
 11
414.1695362853984
 21
1301.310746408774
 31
0.0
  0
ARC
  5
24C
330
2
100
AcDbEntity
  8
4
100
AcDbCircle
 10
416.9077342500509
 20
1304.053160187425
 30
0.0
 40
3.875378875279264
100
AcDbArc
 50
134.9559267627375
 51
225.0440732372483
  0
LINE
  5
24D
330
2
100
AcDbEntity
  8
4
100
AcDbLine
 10
414.0323553747721
 20
1361.780401523377
 30
0.0
 11
391.0323553747712
 21
1361.780401523377
 31
0.0
  0
ARC
  5
24E
330
2
100
AcDbEntity
  8
4
100
AcDbCircle
 10
390.0323553747712
 20
1361.780401523377
 30
0.0
 40
1.0
100
AcDbArc
 50
0.0
 51
90.0
  0
ARC
  5
24F
330
2
100
AcDbEntity
  8
4
100
AcDbCircle
 10
416.9077342500509
 20
1320.50764285933
 30
0.0
 40
3.875378875279244
100
AcDbArc
 50
134.9559267627517
 51
225.0440732372626
  0
LINE
  5
250
330
2
100
AcDbEntity
  8
4
100
AcDbLine
 10
414.1695362853984
 20
1323.25005663798
 30
0.0
 11
424.0323553747717
 21
1323.25005663798
 31
0.0
  0
LINE
  5
251
330
2
100
AcDbEntity
  8
4
100
AcDbLine
 10
414.1695362853984
 20
1317.765229080679
 30
0.0
 11
421.0323553747717
 21
1317.765229080679
 31
0.0
  0
LINE
  5
252
330
2
100
AcDbEntity
  8
4
100
AcDbLine
 10
414.0323553747717
 20
1349.280401523377
 30
0.0
 11
415.0323553747721
 21
1349.280401523377
 31
0.0
  0
LINE
  5
254
330
2
100
AcDbEntity
  8
4
100
AcDbLine
 10
421.0323553747717
 20
1485.310746408774
 30
0.0
 11
421.0323553747717
 21
1507.250056637979
 31
0.0
  0
LINE
  5
255
330
2
100
AcDbEntity
  8
4
100
AcDbLine
 10
424.0323553747717
 20
1485.310746408774
 30
0.0
 11
424.0323553747717
 21
1507.250056637979
 31
0.0
  0
ARC
  5
256
330
2
100
AcDbEntity
  8
4
100
AcDbCircle
 10
416.9077342500509
 20
1488.053160187424
 30
0.0
 40
3.875378875279244
100
AcDbArc
 50
134.9559267627375
 51
225.0440732372483
  0
LINE
  5
257
330
2
100
AcDbEntity
  8
4
100
AcDbLine
 10
414.0323553747721
 20
1446.780401523377
 30
0.0
 11
391.0323553747712
 21
1446.780401523377
 31
0.0
  0
LINE
  5
258
330
2
100
AcDbEntity
  8
4
100
AcDbLine
 10
381.0323553747708
 20
1454.280401523378
 30
0.0
 11
414.0323553747717
 21
1454.280401523378
 31
0.0
  0
ARC
  5
259
330
2
100
AcDbEntity
  8
4
100
AcDbCircle
 10
381.0323553747708
 20
1459.280401523378
 30
0.0
 40
5.0
100
AcDbArc
 50
180.0
 51
270.0
  0
ARC
  5
25A
330
2
100
AcDbEntity
  8
4
100
AcDbCircle
 10
390.0323553747712
 20
1446.780401523377
 30
0.0
 40
1.0
100
AcDbArc
 50
270.0
 51
0.0
  0
LINE
  5
25B
330
2
100
AcDbEntity
  8
4
100
AcDbLine
 10
414.1695362853984
 20
1485.310746408774
 30
0.0
 11
424.0323553747717
 21
1485.310746408774
 31
0.0
  0
LINE
  5
25C
330
2
100
AcDbEntity
  8
4
100
AcDbLine
 10
414.0323553747717
 20
1459.280401523377
 30
0.0
 11
415.0323553747721
 21
1459.280401523377
 31
0.0
  0
LINE
  5
25D
330
2
100
AcDbEntity
  8
L-CENTER
 48
5.0
100
AcDbLine
 10
386.9433846793244
 20
1554.280401523377
 30
0.0
 11
435.1213260702181
 21
1554.280401523376
 31
0.0
  0
CIRCLE
  5
25E
330
2
100
AcDbEntity
  8
4
100
AcDbCircle
 10
411.0323553747712
 20
1554.280401523376
 30
0.0
 40
11.0
  0
LINE
  5
25F
330
2
100
AcDbEntity
  8
4
100
AcDbLine
 10
413.0323553747717
 20
1504.507642859328
 30
0.0
 11
413.0323553747717
 21
1488.053160187424
 31
0.0
  0
ARC
  5
260
330
2
100
AcDbEntity
  8
4
100
AcDbCircle
 10
426.828099509949
 20
1496.280401523377
 30
0.0
 40
13.7957441351769
100
AcDbArc
 50
156.5734024913727
 51
203.4265975086273
  0
ARC
  5
261
330
2
100
AcDbEntity
  8
4
100
AcDbCircle
 10
416.9077342500509
 20
1504.507642859328
 30
0.0
 40
3.875378875279264
100
AcDbArc
 50
134.9559267627411
 51
225.0440732372483
  0
LINE
  5
262
330
2
100
AcDbEntity
  8
4
100
AcDbLine
 10
414.1695362853984
 20
1490.795573966075
 30
0.0
 11
421.0323553747717
 21
1490.795573966075
 31
0.0
  0
LINE
  5
263
330
2
100
AcDbEntity
  8
4
100
AcDbLine
 10
424.0323553747717
 20
1507.250056637979
 30
0.0
 11
414.1695362853984
 21
1507.250056637979
 31
0.0
  0
LINE
  5
264
330
2
100
AcDbEntity
  8
4
100
AcDbLine
 10
414.1695362853984
 20
1501.765229080679
 30
0.0
 11
421.0323553747717
 21
1501.765229080679
 31
0.0
  0
LWPOLYLINE
  5
265
330
2
100
AcDbEntity
  8
4
100
AcDbPolyline
 90
        6
 70
     1
 43
0.0
 10
551.0323553747712
 20
1427.280401523377
 10
531.1137710877288
 20
1415.780401523377
 10
531.1137710877288
 20
1392.780401523377
 10
551.0323553747712
 20
1381.280401523377
 10
570.9509396618132
 20
1392.780401523377
 10
570.9509396618132
 20
1415.780401523377
  0
CIRCLE
  5
266
330
2
100
AcDbEntity
  8
4
100
AcDbCircle
 10
551.0323553747712
 20
1404.280401523377
 30
0.0
 40
23.0
  0
CIRCLE
  5
267
330
2
100
AcDbEntity
  8
4
100
AcDbCircle
 10
551.0323553747712
 20
1404.280401523377
 30
0.0
 40
25.0
  0
ARC
  5
268
330
2
100
AcDbEntity
  8
4
100
AcDbCircle
 10
551.0323553747712
 20
1294.280401523377
 30
0.0
 40
20.0
100
AcDbArc
 50
288.209956864283
 51
71.79004313571733
  0
LINE
  5
269
330
2
100
AcDbEntity
  8
4
100
AcDbLine
 10
557.2823553747712
 20
1270.530401523377
 30
0.0
 11
557.2823553747712
 21
1318.030401523377
 31
0.0
  0
LINE
  5
26A
330
2
100
AcDbEntity
  8
4
100
AcDbLine
 10
544.7823553747712
 20
1270.530401523377
 30
0.0
 11
544.7823553747712
 21
1318.030401523377
 31
0.0
  0
ARC
  5
26B
330
2
100
AcDbEntity
  8
4
100
AcDbCircle
 10
551.0323553747712
 20
1294.280401523377
 30
0.0
 40
20.0
100
AcDbArc
 50
108.2099568642827
 51
251.7900431357167
  0
ARC
  5
26C
330
2
100
AcDbEntity
  8
4
100
AcDbCircle
 10
551.0323553747712
 20
1294.280401523377
 30
0.0
 40
13.5
100
AcDbArc
 50
297.5784679781241
 51
62.42153202187714
  0
ARC
  5
26D
330
2
100
AcDbEntity
  8
4
100
AcDbCircle
 10
551.0323553747712
 20
1294.280401523377
 30
0.0
 40
15.0
100
AcDbArc
 50
294.6243183521654
 51
65.37568164783693
  0
ARC
  5
26E
330
2
100
AcDbEntity
  8
4
100
AcDbCircle
 10
551.0323553747712
 20
1270.530401523377
 30
0.0
 40
6.25
100
AcDbArc
 50
180.0
 51
0.0
  0
ARC
  5
26F
330
2
100
AcDbEntity
  8
4
100
AcDbCircle
 10
551.0323553747712
 20
1294.280401523377
 30
0.0
 40
15.0
100
AcDbArc
 50
114.6243183521631
 51
245.3756816478342
  0
ARC
  5
270
330
2
100
AcDbEntity
  8
4
100
AcDbCircle
 10
551.0323553747712
 20
1294.280401523377
 30
0.0
 40
13.5
100
AcDbArc
 50
117.5784679781229
 51
242.4215320218759
  0
ARC
  5
271
330
2
100
AcDbEntity
  8
4
100
AcDbCircle
 10
551.0323553747712
 20
1318.030401523377
 30
0.0
 40
6.25
100
AcDbArc
 50
0.0
 51
180.0
  0
ARC
  5
272
330
2
100
AcDbEntity
  8
4
100
AcDbCircle
 10
551.0323553747712
 20
1490.530401523377
 30
0.0
 40
6.25
100
AcDbArc
 50
180.0
 51
0.0
  0
ARC
  5
273
330
2
100
AcDbEntity
  8
4
100
AcDbCircle
 10
551.0323553747712
 20
1514.280401523376
 30
0.0
 40
13.5
100
AcDbArc
 50
297.5784679781259
 51
62.42153202187799
  0
ARC
  5
274
330
2
100
AcDbEntity
  8
4
100
AcDbCircle
 10
551.0323553747712
 20
1514.280401523376
 30
0.0
 40
15.0
100
AcDbArc
 50
294.6243183521673
 51
65.37568164783768
  0
ARC
  5
275
330
2
100
AcDbEntity
  8
4
100
AcDbCircle
 10
551.0323553747712
 20
1514.280401523376
 30
0.0
 40
20.0
100
AcDbArc
 50
288.209956864283
 51
71.79004313571784
  0
ARC
  5
276
330
2
100
AcDbEntity
  8
4
100
AcDbCircle
 10
551.0323553747712
 20
1514.280401523376
 30
0.0
 40
20.0
100
AcDbArc
 50
108.2099568642822
 51
251.7900431357167
  0
LINE
  5
277
330
2
100
AcDbEntity
  8
4
100
AcDbLine
 10
557.2823553747712
 20
1490.530401523377
 30
0.0
 11
557.2823553747712
 21
1538.030401523376
 31
0.0
  0
LINE
  5
278
330
2
100
AcDbEntity
  8
4
100
AcDbLine
 10
544.7823553747712
 20
1490.530401523377
 30
0.0
 11
544.7823553747712
 21
1538.030401523376
 31
0.0
  0
ARC
  5
279
330
2
100
AcDbEntity
  8
4
100
AcDbCircle
 10
551.0323553747712
 20
1514.280401523376
 30
0.0
 40
15.0
100
AcDbArc
 50
114.6243183521615
 51
245.3756816478369
  0
ARC
  5
27A
330
2
100
AcDbEntity
  8
4
100
AcDbCircle
 10
551.0323553747712
 20
1514.280401523376
 30
0.0
 40
13.5
100
AcDbArc
 50
117.578467978119
 51
242.4215320218763
  0
ARC
  5
27B
330
2
100
AcDbEntity
  8
4
100
AcDbCircle
 10
551.0323553747712
 20
1538.030401523376
 30
0.0
 40
6.25
100
AcDbArc
 50
0.0
 51
180.0
  0
ARC
  5
27C
330
2
100
AcDbEntity
  8
4
100
AcDbCircle
 10
523.0095967107236
 20
1634.705022648098
 30
0.0
 40
3.875378875279244
100
AcDbArc
 50
44.955926762744
 51
135.044073237256
  0
LINE
  5
27D
330
2
100
AcDbEntity
  8
4
100
AcDbLine
 10
525.7520104893742
 20
1627.580401523378
 30
0.0
 11
503.8127002601686
 21
1627.580401523378
 31
0.0
  0
LINE
  5
27E
330
2
100
AcDbEntity
  8
4
100
AcDbLine
 10
525.7520104893742
 20
1630.580401523378
 30
0.0
 11
503.8127002601686
 21
1630.580401523378
 31
0.0
  0
LINE
  5
27F
330
2
100
AcDbEntity
  8
4
100
AcDbLine
 10
466.0323553747712
 20
1609.580401523377
 30
0.0
 11
636.0323553747712
 21
1609.580401523378
 31
0.0
  0
LINE
  5
280
330
2
100
AcDbEntity
  8
4
100
AcDbLine
 10
468.0323553747712
 20
1627.580401523378
 30
0.0
 11
634.0323553747712
 21
1627.580401523378
 31
0.0
  0
LINE
  5
281
330
2
100
AcDbEntity
  8
4
100
AcDbLine
 10
453.0323553747717
 20
1609.280401523376
 30
0.0
 11
649.0323553747712
 21
1609.280401523376
 31
0.0
  0
LINE
  5
283
330
2
100
AcDbEntity
  8
4
100
AcDbLine
 10
444.0323553747717
 20
1601.780401523376
 30
0.0
 11
450.0323553747717
 21
1601.780401523376
 31
0.0
  0
LINE
  5
284
330
2
100
AcDbEntity
  8
4
100
AcDbLine
 10
381.0323553747712
 20
1604.280401523376
 30
0.0
 11
450.0323553747717
 21
1604.280401523376
 31
0.0
  0
ARC
  5
285
330
2
100
AcDbEntity
  8
4
100
AcDbCircle
 10
381.0323553747712
 20
1599.280401523376
 30
0.0
 40
5.0
100
AcDbArc
 50
90.0
 51
180.0
  0
LINE
  5
286
330
2
100
AcDbEntity
  8
4
100
AcDbLine
 10
427.0323553747717
 20
1601.780401523376
 30
0.0
 11
443.7323553747715
 21
1601.780401523376
 31
0.0
  0
LINE
  5
287
330
2
100
AcDbEntity
  8
4
100
AcDbLine
 10
414.1695362853984
 20
1593.765229080679
 30
0.0
 11
421.0323553747717
 21
1593.765229080679
 31
0.0
  0
LINE
  5
288
330
2
100
AcDbEntity
  8
4
100
AcDbLine
 10
424.0323553747717
 20
1599.25005663798
 30
0.0
 11
414.1695362853984
 21
1599.25005663798
 31
0.0
  0
LINE
  5
289
330
2
100
AcDbEntity
  8
4
100
AcDbLine
 10
414.1695362853984
 20
1582.795573966075
 30
0.0
 11
421.0323553747717
 21
1582.795573966075
 31
0.0
  0
LINE
  5
28A
330
2
100
AcDbEntity
  8
4
100
AcDbLine
 10
414.1695362853984
 20
1577.310746408774
 30
0.0
 11
424.0323553747717
 21
1577.310746408774
 31
0.0
  0
ARC
  5
28B
330
2
100
AcDbEntity
  8
4
100
AcDbCircle
 10
416.9077342500509
 20
1596.507642859329
 30
0.0
 40
3.875378875279264
100
AcDbArc
 50
134.9559267627559
 51
225.0440732372441
  0
ARC
  5
28C
330
2
100
AcDbEntity
  8
4
100
AcDbCircle
 10
426.828099509949
 20
1588.280401523377
 30
0.0
 40
13.7957441351769
100
AcDbArc
 50
156.5734024913727
 51
203.4265975086273
  0
LINE
  5
28D
330
2
100
AcDbEntity
  8
4
100
AcDbLine
 10
413.0323553747717
 20
1596.507642859329
 30
0.0
 11
413.0323553747717
 21
1580.053160187425
 31
0.0
  0
ARC
  5
28E
330
2
100
AcDbEntity
  8
4
100
AcDbCircle
 10
416.9077342500509
 20
1580.053160187425
 30
0.0
 40
3.875378875279244
100
AcDbArc
 50
134.9559267627559
 51
225.0440732372548
  0
LINE
  5
28F
330
2
100
AcDbEntity
  8
4
100
AcDbLine
 10
424.0323553747717
 20
1577.310746408774
 30
0.0
 11
424.0323553747717
 21
1599.25005663798
 31
0.0
  0
LINE
  5
290
330
2
100
AcDbEntity
  8
4
100
AcDbLine
 10
421.0323553747717
 20
1577.310746408774
 30
0.0
 11
421.0323553747717
 21
1599.25005663798
 31
0.0
  0
ARC
  5
291
330
2
100
AcDbEntity
  8
4
100
AcDbCircle
 10
427.0323553747717
 20
1598.780401523376
 30
0.0
 40
3.0
100
AcDbArc
 50
90.0
 51
180.0
  0
ARC
  5
292
330
2
100
AcDbEntity
  8
4
100
AcDbCircle
 10
486.7595967107236
 20
1634.705022648098
 30
0.0
 40
3.875378875279244
100
AcDbArc
 50
44.955926762744
 51
135.044073237256
  0
LINE
  5
293
330
2
100
AcDbEntity
  8
4
100
AcDbLine
 10
470.3051140388193
 20
1638.580401523378
 30
0.0
 11
486.7595967107236
 21
1638.580401523378
 31
0.0
  0
LINE
  5
294
330
2
100
AcDbEntity
  8
4
100
AcDbLine
 10
489.5020104893742
 20
1630.580401523378
 30
0.0
 11
467.5627002601686
 21
1630.580401523378
 31
0.0
  0
LINE
  5
295
330
2
100
AcDbEntity
  8
4
100
AcDbLine
 10
489.5020104893742
 20
1627.580401523378
 30
0.0
 11
467.5627002601686
 21
1627.580401523378
 31
0.0
  0
LINE
  5
297
330
2
100
AcDbEntity
  8
4
100
AcDbLine
 10
466.0323553747712
 20
1625.580401523378
 30
0.0
 11
466.0323553747712
 21
1609.280401523376
 31
0.0
  0
ARC
  5
298
330
2
100
AcDbEntity
  8
4
100
AcDbCircle
 10
468.0323553747712
 20
1625.580401523378
 30
0.0
 40
2.0
100
AcDbArc
 50
90.0
 51
180.0
  0
ARC
  5
299
330
2
100
AcDbEntity
  8
4
100
AcDbCircle
 10
470.3051140388193
 20
1634.705022648098
 30
0.0
 40
3.875378875279264
100
AcDbArc
 50
44.955926762744
 51
135.044073237256
  0
ARC
  5
29A
330
2
100
AcDbEntity
  8
4
100
AcDbCircle
 10
478.5323553747712
 20
1624.7846573882
 30
0.0
 40
13.7957441351769
100
AcDbArc
 50
66.57340249137434
 51
113.4265975086294
  0
LINE
  5
29B
330
2
100
AcDbEntity
  8
4
100
AcDbLine
 10
484.017182932073
 20
1637.44322061275
 30
0.0
 11
484.017182932073
 21
1630.580401523378
 31
0.0
  0
LINE
  5
29C
330
2
100
AcDbEntity
  8
4
100
AcDbLine
 10
467.5627002601686
 20
1627.580401523378
 30
0.0
 11
467.5627002601686
 21
1637.44322061275
 31
0.0
  0
LINE
  5
29D
330
2
100
AcDbEntity
  8
4
100
AcDbLine
 10
473.0475278174699
 20
1637.44322061275
 30
0.0
 11
473.0475278174699
 21
1630.580401523378
 31
0.0
  0
ARC
  5
29F
330
2
100
AcDbEntity
  8
4
100
AcDbCircle
 10
506.5551140388193
 20
1634.705022648098
 30
0.0
 40
3.875378875279264
100
AcDbArc
 50
44.955926762744
 51
135.044073237256
  0
LINE
  5
2A0
330
2
100
AcDbEntity
  8
4
100
AcDbLine
 10
489.5020104893742
 20
1637.44322061275
 30
0.0
 11
489.5020104893742
 21
1627.580401523378
 31
0.0
  0
LINE
  5
2A1
330
2
100
AcDbEntity
  8
4
100
AcDbLine
 10
503.8127002601686
 20
1627.580401523378
 30
0.0
 11
503.8127002601686
 21
1637.44322061275
 31
0.0
  0
ARC
  5
2A2
330
2
100
AcDbEntity
  8
4
100
AcDbCircle
 10
514.7823553747712
 20
1624.7846573882
 30
0.0
 40
13.7957441351769
100
AcDbArc
 50
66.57340249137455
 51
113.4265975086292
  0
LINE
  5
2A3
330
2
100
AcDbEntity
  8
4
100
AcDbLine
 10
506.5551140388193
 20
1638.580401523378
 30
0.0
 11
523.0095967107236
 21
1638.580401523378
 31
0.0
  0
LINE
  5
2A4
330
2
100
AcDbEntity
  8
4
100
AcDbLine
 10
509.2975278174699
 20
1637.44322061275
 30
0.0
 11
509.2975278174699
 21
1630.580401523378
 31
0.0
  0
LINE
  5
2A5
330
2
100
AcDbEntity
  8
4
100
AcDbLine
 10
520.267182932073
 20
1637.44322061275
 30
0.0
 11
520.267182932073
 21
1630.580401523378
 31
0.0
  0
LINE
  5
2A6
330
2
100
AcDbEntity
  8
4
100
AcDbLine
 10
525.7520104893742
 20
1637.44322061275
 30
0.0
 11
525.7520104893742
 21
1627.580401523378
 31
0.0
  0
LINE
  5
2A8
330
2
100
AcDbEntity
  8
4
100
AcDbLine
 10
595.5095967107231
 20
1638.580401523378
 30
0.0
 11
579.0551140388188
 21
1638.580401523378
 31
0.0
  0
ARC
  5
2A9
330
2
100
AcDbEntity
  8
4
100
AcDbCircle
 10
587.2823553747712
 20
1624.7846573882
 30
0.0
 40
13.7957441351769
100
AcDbArc
 50
66.57340249137077
 51
113.4265975086254
  0
LINE
  5
2AA
330
2
100
AcDbEntity
  8
4
100
AcDbLine
 10
576.3127002601682
 20
1630.580401523378
 30
0.0
 11
598.2520104893738
 21
1630.580401523378
 31
0.0
  0
LINE
  5
2AB
330
2
100
AcDbEntity
  8
4
100
AcDbLine
 10
576.3127002601682
 20
1627.580401523378
 30
0.0
 11
598.2520104893738
 21
1627.580401523378
 31
0.0
  0
ARC
  5
2AC
330
2
100
AcDbEntity
  8
4
100
AcDbCircle
 10
579.0551140388188
 20
1634.705022648098
 30
0.0
 40
3.875378875279244
100
AcDbArc
 50
44.955926762744
 51
135.044073237256
  0
LINE
  5
2AD
330
2
100
AcDbEntity
  8
4
100
AcDbLine
 10
576.3127002601682
 20
1637.44322061275
 30
0.0
 11
576.3127002601682
 21
1627.580401523378
 31
0.0
  0
LINE
  5
2AE
330
2
100
AcDbEntity
  8
4
100
AcDbLine
 10
581.7975278174695
 20
1637.44322061275
 30
0.0
 11
581.7975278174695
 21
1630.580401523378
 31
0.0
  0
ARC
  5
2AF
330
2
100
AcDbEntity
  8
4
100
AcDbCircle
 10
595.5095967107231
 20
1634.705022648098
 30
0.0
 40
3.875378875279264
100
AcDbArc
 50
44.95592676274281
 51
135.044073237256
  0
LINE
  5
2B0
330
2
100
AcDbEntity
  8
4
100
AcDbLine
 10
598.2520104893738
 20
1627.580401523378
 30
0.0
 11
598.2520104893738
 21
1637.44322061275
 31
0.0
  0
LINE
  5
2B1
330
2
100
AcDbEntity
  8
4
100
AcDbLine
 10
592.7671829320725
 20
1637.44322061275
 30
0.0
 11
592.7671829320725
 21
1630.580401523378
 31
0.0
  0
LINE
  5
2B3
330
2
100
AcDbEntity
  8
4
100
AcDbLine
 10
636.0323553747712
 20
1625.580401523378
 30
0.0
 11
636.0323553747712
 21
1609.280401523376
 31
0.0
  0
ARC
  5
2B4
330
2
100
AcDbEntity
  8
4
100
AcDbCircle
 10
623.5323553747712
 20
1624.7846573882
 30
0.0
 40
13.7957441351769
100
AcDbArc
 50
66.57340249137077
 51
113.4265975086254
  0
LINE
  5
2B5
330
2
100
AcDbEntity
  8
4
100
AcDbLine
 10
631.7595967107231
 20
1638.580401523378
 30
0.0
 11
615.3051140388188
 21
1638.580401523378
 31
0.0
  0
LINE
  5
2B6
330
2
100
AcDbEntity
  8
4
100
AcDbLine
 10
612.5627002601682
 20
1627.580401523378
 30
0.0
 11
634.5020104893738
 21
1627.580401523378
 31
0.0
  0
LINE
  5
2B7
330
2
100
AcDbEntity
  8
4
100
AcDbLine
 10
612.5627002601682
 20
1630.580401523378
 30
0.0
 11
634.5020104893738
 21
1630.580401523378
 31
0.0
  0
ARC
  5
2B8
330
2
100
AcDbEntity
  8
4
100
AcDbCircle
 10
615.3051140388188
 20
1634.705022648098
 30
0.0
 40
3.875378875279244
100
AcDbArc
 50
44.955926762744
 51
135.044073237256
  0
LINE
  5
2B9
330
2
100
AcDbEntity
  8
4
100
AcDbLine
 10
618.0475278174695
 20
1637.44322061275
 30
0.0
 11
618.0475278174695
 21
1630.580401523378
 31
0.0
  0
LINE
  5
2BA
330
2
100
AcDbEntity
  8
4
100
AcDbLine
 10
612.5627002601682
 20
1637.44322061275
 30
0.0
 11
612.5627002601682
 21
1627.580401523378
 31
0.0
  0
ARC
  5
2BB
330
2
100
AcDbEntity
  8
4
100
AcDbCircle
 10
631.7595967107231
 20
1634.705022648098
 30
0.0
 40
3.875378875279264
100
AcDbArc
 50
44.95592676274281
 51
135.044073237256
  0
LINE
  5
2BC
330
2
100
AcDbEntity
  8
4
100
AcDbLine
 10
629.0171829320725
 20
1637.44322061275
 30
0.0
 11
629.0171829320725
 21
1630.580401523378
 31
0.0
  0
LINE
  5
2BD
330
2
100
AcDbEntity
  8
4
100
AcDbLine
 10
634.5020104893738
 20
1627.580401523378
 30
0.0
 11
634.5020104893738
 21
1637.44322061275
 31
0.0
  0
ARC
  5
2BE
330
2
100
AcDbEntity
  8
4
100
AcDbCircle
 10
634.0323553747712
 20
1625.580401523378
 30
0.0
 40
2.0
100
AcDbArc
 50
0.0
 51
90.0
  0
LINE
  5
2BF
330
2
100
AcDbEntity
  8
4
100
AcDbLine
 10
652.0323553747712
 20
1601.780401523378
 30
0.0
 11
670.0323553747712
 21
1601.780401523378
 31
0.0
  0
LINE
  5
2C0
330
2
100
AcDbEntity
  8
4
100
AcDbLine
 10
726.0323553747712
 20
1599.280401523378
 30
0.0
 11
726.0323553747712
 21
1459.280401523377
 31
0.0
  0
LINE
  5
2C1
330
2
100
AcDbEntity
  8
L-CENTER
 48
5.0
100
AcDbLine
 10
691.0323553747712
 20
1578.369372218823
 30
0.0
 11
691.0323553747712
 21
1530.19143082793
 31
0.0
  0
LINE
  5
2C2
330
2
100
AcDbEntity
  8
4
100
AcDbLine
 10
683.0323553747712
 20
1498.593602425132
 30
0.0
 11
683.0323553747708
 21
1309.967200621621
 31
0.0
  0
ARC
  5
2C3
330
2
100
AcDbEntity
  8
4
100
AcDbCircle
 10
682.0323553747712
 20
1309.967200621621
 30
0.0
 40
1.0
100
AcDbArc
 50
291.0375110254237
 51
0.0
  0
ARC
  5
2C4
330
2
100
AcDbEntity
  8
4
100
AcDbCircle
 10
721.0323553747712
 20
1274.280401523378
 30
0.0
 40
5.0
100
AcDbArc
 50
0.0
 51
90.0
  0
LINE
  5
2C5
330
2
100
AcDbEntity
  8
4
100
AcDbLine
 10
684.0323553747714
 20
1454.280401523377
 30
0.0
 11
721.0323553747712
 21
1454.280401523377
 31
0.0
  0
ARC
  5
2C6
330
2
100
AcDbEntity
  8
4
100
AcDbCircle
 10
721.0323553747712
 20
1459.280401523377
 30
0.0
 40
5.0
100
AcDbArc
 50
270.0
 51
0.0
  0
ARC
  5
2C7
330
2
100
AcDbEntity
  8
4
100
AcDbCircle
 10
682.0323553747712
 20
1498.593602425132
 30
0.0
 40
1.0
100
AcDbArc
 50
0.0
 51
68.96248897457632
  0
CIRCLE
  5
2C8
330
2
100
AcDbEntity
  8
4
100
AcDbCircle
 10
691.0323553747712
 20
1554.280401523376
 30
0.0
 40
11.0
  0
ARC
  5
2C9
330
2
100
AcDbEntity
  8
4
100
AcDbCircle
 10
721.0323553747712
 20
1599.280401523378
 30
0.0
 40
5.0
100
AcDbArc
 50
0.0
 51
90.0
  0
ARC
  5
2CE
330
2
100
AcDbEntity
  8
4
100
AcDbCircle
 10
2287.445553747822
 20
412.5967651171496
 30
0.0
 40
1000.0
100
AcDbArc
 50
169.4005390000001
 51
190.5994609999998
  0
ARC
  5
2CF
330
2
100
AcDbEntity
  8
4
100
AcDbCircle
 10
697.445553747822
 20
412.5967651171496
 30
0.0
 40
1000.0
100
AcDbArc
 50
349.400539
 51
10.59946099999995
  0
CIRCLE
  5
2D0
330
2
100
AcDbEntity
  8
4
100
AcDbCircle
 10
1492.445553747822
 20
412.5967651171496
 30
0.0
 40
197.5
  0
CIRCLE
  5
2D1
330
2
100
AcDbEntity
  8
4
100
AcDbCircle
 10
1492.445553747822
 20
412.5967651171496
 30
0.0
 40
165.0
  0
ARC
  5
2D2
330
2
100
AcDbEntity
  8
4
100
AcDbCircle
 10
992.445553747822
 20
412.5967651171496
 30
0.0
 40
600.0
100
AcDbArc
 50
351.6709509999999
 51
8.329049000000015
  0
ARC
  5
2D3
330
2
100
AcDbEntity
  8
4
100
AcDbCircle
 10
992.445553747822
 20
412.5967651171496
 30
0.0
 40
595.0
100
AcDbArc
 50
352.035204
 51
7.964795999999989
  0
ARC
  5
2D4
330
2
100
AcDbEntity
  8
4
100
AcDbCircle
 10
1992.445553747822
 20
412.5967651171496
 30
0.0
 40
600.0
100
AcDbArc
 50
171.670951
 51
188.329049
  0
ARC
  5
2D5
330
2
100
AcDbEntity
  8
4
100
AcDbCircle
 10
1992.445553747822
 20
412.5967651171496
 30
0.0
 40
595.0
100
AcDbArc
 50
172.035204
 51
187.964796
  0
LINE
  5
2D6
330
2
100
AcDbEntity
  8
L-CENTER
 48
5.0
100
AcDbLine
 10
1492.445553747822
 20
641.6395762556631
 30
0.0
 11
1492.445553747822
 21
35.13438511258516
 31
0.0
  0
LINE
  5
2D9
330
2
100
AcDbEntity
  8
L-CENTER
 48
5.0
100
AcDbLine
 10
1273.381008747822
 20
412.5967651171496
 30
0.0
 11
1711.510098747822
 21
412.5967651171496
 31
0.0
  0
LINE
  5
2DA
330
2
100
AcDbEntity
  8
4
100
AcDbLine
 10
1542.445553747822
 20
127.5967651171496
 30
0.0
 11
1556.445553747822
 21
127.5967651171496
 31
0.0
  0
LINE
  5
2DB
330
2
100
AcDbEntity
  8
4
100
AcDbLine
 10
1545.445553747822
 20
72.59676511714963
 30
0.0
 11
1689.445553747822
 21
72.59676511714963
 31
0.0
  0
LINE
  5
2DC
330
2
100
AcDbEntity
  8
4
100
AcDbLine
 10
1542.445553747822
 20
32.59676511714963
 30
0.0
 11
1692.445553747822
 21
32.59676511714963
 31
0.0
  0
ARC
  5
2DD
330
2
100
AcDbEntity
  8
4
100
AcDbCircle
 10
1492.445553747822
 20
1207.59676511715
 30
0.0
 40
1000.0
100
AcDbArc
 50
259.400539
 51
280.599461
  0
ARC
  5
2DE
330
2
100
AcDbEntity
  8
4
100
AcDbCircle
 10
1492.445553747822
 20
912.5967651171495
 30
0.0
 40
600.0
100
AcDbArc
 50
261.670951
 51
278.3290490000001
  0
ARC
  5
2DF
330
2
100
AcDbEntity
  8
4
100
AcDbCircle
 10
1492.445553747822
 20
912.5967651171495
 30
0.0
 40
595.0
100
AcDbArc
 50
262.035204
 51
277.964796
  0
LINE
  5
2E2
330
2
100
AcDbEntity
  8
L-CENTER
 48
5.0
100
AcDbLine
 10
1079.770065426913
 20
202.5967651171496
 30
0.0
 11
1730.346393627926
 21
202.5967651171496
 31
0.0
  0
LINE
  5
3BC
330
2
100
AcDbEntity
  8
L-CENTER
 48
5.0
100
AcDbLine
 10
1124.438078747823
 20
350.5967651171492
 30
0.0
 11
1280.453028747821
 21
350.5967651171492
 31
0.0
  0
ARC
  5
3BD
330
2
100
AcDbEntity
  8
4
100
AcDbCircle
 10
1202.445553747822
 20
-181.4032348828513
 30
0.0
 40
600.0
100
AcDbArc
 50
84.45569999999998
 51
95.78466800000001
  0
LINE
  5
3BF
330
2
100
AcDbEntity
  8
4
100
AcDbLine
 10
1220.445553747822
 20
72.59676511714963
 30
0.0
 11
1364.445553747822
 21
72.59676511714963
 31
0.0
  0
ARC
  5
3C0
330
2
100
AcDbEntity
  8
4
100
AcDbCircle
 10
1202.445553747822
 20
882.5967651171495
 30
0.0
 40
600.0
100
AcDbArc
 50
264.2153319999999
 51
275.784668
  0
LINE
  5
3C1
330
2
100
AcDbEntity
  8
4
100
AcDbLine
 10
1217.445553747822
 20
32.59676511714963
 30
0.0
 11
1367.445553747822
 21
32.59676511714963
 31
0.0
  0
CIRCLE
  5
3C2
330
2
100
AcDbEntity
  8
4
100
AcDbCircle
 10
1202.445553747822
 20
350.5967651171492
 30
0.0
 40
65.0
  0
CIRCLE
  5
3C3
330
2
100
AcDbEntity
  8
4
100
AcDbCircle
 10
1202.445553747822
 20
350.5967651171492
 30
0.0
 40
40.0
  0
LINE
  5
3C4
330
2
100
AcDbEntity
  8
4
100
AcDbLine
 10
1104.445553747822
 20
102.5967651171496
 30
0.0
 11
1096.445553747822
 21
182.5967651171496
 31
0.0
  0
LINE
  5
3C5
330
2
100
AcDbEntity
  8
4
100
AcDbLine
 10
1162.445553747822
 20
283.9315851171492
 30
0.0
 11
1162.445553747822
 21
41.59676511714872
 31
0.0
  0
LINE
  5
3C6
330
2
100
AcDbEntity
  8
4
100
AcDbLine
 10
1122.445553747822
 20
365.0967651171496
 30
0.0
 11
1122.445553747822
 21
40.09676511714963
 31
0.0
  0
LINE
  5
3C7
330
2
100
AcDbEntity
  8
L-CENTER
 48
5.0
100
AcDbLine
 10
1202.445553747822
 20
453.2637317558766
 30
0.0
 11
1202.445553747822
 21
272.5892901171497
 31
0.0
  0
LINE
  5
3C9
330
2
100
AcDbEntity
  8
4
100
AcDbLine
 10
1125.445553747822
 20
366.5967651171505
 30
0.0
 11
1125.445553747822
 21
38.59676511714872
 31
0.0
  0
ARC
  5
3D2
330
2
100
AcDbEntity
  8
4
100
AcDbCircle
 10
1172.445553747822
 20
42.59676511714963
 30
0.0
 40
10.0
100
AcDbArc
 50
90.0
 51
180.0
  0
LINE
  5
3D3
330
2
100
AcDbEntity
  8
4
100
AcDbLine
 10
1125.445553747822
 20
38.59676511714872
 30
0.0
 11
1159.445553747822
 21
38.59676511714872
 31
0.0
  0
LINE
  5
3D5
330
2
100
AcDbEntity
  8
4
100
AcDbLine
 10
1106.445553747822
 20
40.09676511714963
 30
0.0
 11
1125.445553747822
 21
40.09676511714963
 31
0.0
  0
LINE
  5
3D6
330
2
100
AcDbEntity
  8
4
100
AcDbLine
 10
1104.445553747822
 20
61.55898011714874
 30
0.0
 11
1104.445553747822
 21
85.55898011714964
 31
0.0
  0
LINE
  5
3D7
330
2
100
AcDbEntity
  8
4
100
AcDbLine
 10
1093.445553747822
 20
64.55898011715055
 30
0.0
 11
1093.445553747822
 21
82.5589801171501
 31
0.0
  0
LINE
  5
3D8
330
2
100
AcDbEntity
  8
4
100
AcDbLine
 10
1101.445553747822
 20
61.55898011714874
 30
0.0
 11
1101.445553747822
 21
85.55898011714964
 31
0.0
  0
ARC
  5
3D9
330
2
100
AcDbEntity
  8
4
100
AcDbCircle
 10
1111.445553747822
 20
73.55898011714919
 30
0.0
 40
18.0
100
AcDbArc
 50
160.5287790000007
 51
199.4712209999993
  0
LINE
  5
3DA
330
2
100
AcDbEntity
  8
4
100
AcDbLine
 10
1095.177603747822
 20
61.55898011714874
 30
0.0
 11
1104.445553747822
 21
61.55898011714874
 31
0.0
  0
LINE
  5
3DB
330
2
100
AcDbEntity
  8
4
100
AcDbLine
 10
1094.474988747821
 20
67.5589801171501
 30
0.0
 11
1101.445553747822
 21
67.5589801171501
 31
0.0
  0
LINE
  5
3DC
330
2
100
AcDbEntity
  8
4
100
AcDbLine
 10
1093.445553747822
 20
64.55898011715055
 30
0.0
 11
1095.177603747822
 21
61.55898011714874
 31
0.0
  0
ARC
  5
3DD
330
2
100
AcDbEntity
  8
4
100
AcDbCircle
 10
1098.029553747822
 20
64.55898011715055
 30
0.0
 40
4.584
100
AcDbArc
 50
139.1220210000001
 51
180.0
  0
LINE
  5
3DE
330
2
100
AcDbEntity
  8
4
100
AcDbLine
 10
1104.445553747822
 20
363.0967651171496
 30
0.0
 11
1104.445553747822
 21
42.09676511714963
 31
0.0
  0
LINE
  5
3DF
330
2
100
AcDbEntity
  8
4
100
AcDbLine
 10
1095.177603747822
 20
85.55898011714964
 30
0.0
 11
1104.445553747822
 21
85.55898011714964
 31
0.0
  0
LINE
  5
3E0
330
2
100
AcDbEntity
  8
4
100
AcDbLine
 10
1094.474988747821
 20
79.55898011715055
 30
0.0
 11
1101.445553747822
 21
79.55898011715055
 31
0.0
  0
ARC
  5
3E1
330
2
100
AcDbEntity
  8
4
100
AcDbCircle
 10
1098.029553747822
 20
82.5589801171501
 30
0.0
 40
4.584
100
AcDbArc
 50
180.0
 51
220.8779789999999
  0
LINE
  5
3E2
330
2
100
AcDbEntity
  8
4
100
AcDbLine
 10
1093.445553747822
 20
82.5589801171501
 30
0.0
 11
1095.177603747822
 21
85.55898011714964
 31
0.0
  0
LINE
  5
3E3
330
2
100
AcDbEntity
  8
4
100
AcDbLine
 10
1217.445553747822
 20
69.59676511715008
 30
0.0
 11
1217.445553747822
 21
32.59676511714963
 31
0.0
  0
LINE
  5
3E4
330
2
100
AcDbEntity
  8
4
100
AcDbLine
 10
1172.445553747822
 20
52.59676511714963
 30
0.0
 11
1207.445553747822
 21
52.59676511714963
 31
0.0
  0
ARC
  5
3E5
330
2
100
AcDbEntity
  8
4
100
AcDbCircle
 10
1220.445553747822
 20
69.59676511715008
 30
0.0
 40
3.0
100
AcDbArc
 50
90.0
 51
180.0
  0
ARC
  5
3E6
330
2
100
AcDbEntity
  8
4
100
AcDbCircle
 10
1207.445553747822
 20
42.59676511714963
 30
0.0
 40
10.0
100
AcDbArc
 50
0.0
 51
90.0
  0
LINE
  5
3F4
330
2
100
AcDbEntity
  8
4
100
AcDbLine
 10
1104.445553747822
 20
302.5967651171496
 30
0.0
 11
1096.445553747822
 21
222.5967651171496
 31
0.0
  0
ARC
  5
3F5
330
2
100
AcDbEntity
  8
4
100
AcDbCircle
 10
1734.445553747822
 20
350.5967651171492
 30
0.0
 40
600.0
100
AcDbArc
 50
174.215332
 51
185.784668
  0
LINE
  5
3F6
330
2
100
AcDbEntity
  8
4
100
AcDbLine
 10
1090.445553747822
 20
184.5967651171501
 30
0.0
 11
1090.445553747822
 21
220.5967651171492
 31
0.0
  0
ARC
  5
3F7
330
2
100
AcDbEntity
  8
4
100
AcDbCircle
 10
1285.445553747822
 20
202.5967651171496
 30
0.0
 40
200.0
100
AcDbArc
 50
174.8363929999999
 51
185.1636070000001
  0
LINE
  5
3F8
330
2
100
AcDbEntity
  8
4
100
AcDbLine
 10
1104.445553747822
 20
214.5967651171501
 30
0.0
 11
1104.445553747822
 21
190.5967651171492
 31
0.0
  0
LINE
  5
3F9
330
2
100
AcDbEntity
  8
4
100
AcDbLine
 10
1093.445553747822
 20
211.5967651171505
 30
0.0
 11
1093.445553747822
 21
193.5967651171487
 31
0.0
  0
LINE
  5
3FA
330
2
100
AcDbEntity
  8
4
100
AcDbLine
 10
1101.445553747822
 20
214.5967651171501
 30
0.0
 11
1101.445553747822
 21
190.5967651171492
 31
0.0
  0
ARC
  5
3FB
330
2
100
AcDbEntity
  8
4
100
AcDbCircle
 10
1111.445553747822
 20
202.5967651171496
 30
0.0
 40
18.0
100
AcDbArc
 50
160.5287790000007
 51
199.4712209999993
  0
LINE
  5
3FC
330
2
100
AcDbEntity
  8
4
100
AcDbLine
 10
1092.445553747822
 20
220.5967651171492
 30
0.0
 11
1092.445553747822
 21
184.5967651171501
 31
0.0
  0
LINE
  5
3FD
330
2
100
AcDbEntity
  8
4
100
AcDbLine
 10
1095.177603747822
 20
190.5967651171492
 30
0.0
 11
1104.445553747822
 21
190.5967651171492
 31
0.0
  0
LINE
  5
3FE
330
2
100
AcDbEntity
  8
4
100
AcDbLine
 10
1085.648158747822
 20
193.5967651171487
 30
0.0
 11
1090.445553747822
 21
193.5967651171487
 31
0.0
  0
LINE
  5
3FF
330
2
100
AcDbEntity
  8
4
100
AcDbLine
 10
1086.257198747821
 20
184.5967651171501
 30
0.0
 11
1094.445553747822
 21
184.5967651171501
 31
0.0
  0
LINE
  5
400
330
2
100
AcDbEntity
  8
4
100
AcDbLine
 10
1094.474988747821
 20
196.5967651171505
 30
0.0
 11
1101.445553747822
 21
196.5967651171505
 31
0.0
  0
ARC
  5
401
330
2
100
AcDbEntity
  8
4
100
AcDbCircle
 10
1098.029553747822
 20
193.5967651171487
 30
0.0
 40
4.584
100
AcDbArc
 50
139.1220210000001
 51
180.0
  0
LINE
  5
402
330
2
100
AcDbEntity
  8
4
100
AcDbLine
 10
1093.445553747822
 20
193.5967651171487
 30
0.0
 11
1095.177603747822
 21
190.5967651171492
 31
0.0
  0
LINE
  5
403
330
2
100
AcDbEntity
  8
4
100
AcDbLine
 10
1094.445553747822
 20
182.5967651171496
 30
0.0
 11
1096.445553747822
 21
182.5967651171496
 31
0.0
  0
LINE
  5
404
330
2
100
AcDbEntity
  8
4
100
AcDbLine
 10
1096.445553747822
 20
182.5967651171496
 30
0.0
 11
1096.445553747822
 21
190.5967651171492
 31
0.0
  0
LINE
  5
405
330
2
100
AcDbEntity
  8
4
100
AcDbLine
 10
1094.445553747822
 20
182.5967651171496
 30
0.0
 11
1094.445553747822
 21
191.8647151171505
 31
0.0
  0
LINE
  5
406
330
2
100
AcDbEntity
  8
4
100
AcDbLine
 10
1095.177603747822
 20
214.5967651171501
 30
0.0
 11
1104.445553747822
 21
214.5967651171501
 31
0.0
  0
LINE
  5
407
330
2
100
AcDbEntity
  8
4
100
AcDbLine
 10
1094.445553747822
 20
222.5967651171496
 30
0.0
 11
1096.445553747822
 21
222.5967651171496
 31
0.0
  0
LINE
  5
408
330
2
100
AcDbEntity
  8
4
100
AcDbLine
 10
1086.257198747821
 20
220.5967651171492
 30
0.0
 11
1094.445553747822
 21
220.5967651171492
 31
0.0
  0
LINE
  5
409
330
2
100
AcDbEntity
  8
4
100
AcDbLine
 10
1085.648158747822
 20
211.5967651171505
 30
0.0
 11
1090.445553747822
 21
211.5967651171505
 31
0.0
  0
LINE
  5
40A
330
2
100
AcDbEntity
  8
4
100
AcDbLine
 10
1094.474988747821
 20
208.5967651171487
 30
0.0
 11
1101.445553747822
 21
208.5967651171487
 31
0.0
  0
LINE
  5
40B
330
2
100
AcDbEntity
  8
4
100
AcDbLine
 10
1093.445553747822
 20
211.5967651171505
 30
0.0
 11
1095.177603747822
 21
214.5967651171501
 31
0.0
  0
ARC
  5
40C
330
2
100
AcDbEntity
  8
4
100
AcDbCircle
 10
1098.029553747822
 20
211.5967651171505
 30
0.0
 40
4.584
100
AcDbArc
 50
180.0
 51
220.8779789999999
  0
LINE
  5
40D
330
2
100
AcDbEntity
  8
4
100
AcDbLine
 10
1096.445553747822
 20
214.5967651171501
 30
0.0
 11
1096.445553747822
 21
222.5967651171496
 31
0.0
  0
LINE
  5
40E
330
2
100
AcDbEntity
  8
4
100
AcDbLine
 10
1094.445553747822
 20
213.3288151171488
 30
0.0
 11
1094.445553747822
 21
222.5967651171496
 31
0.0
  0
ARC
  5
40F
330
2
100
AcDbEntity
  8
4
100
AcDbCircle
 10
1142.475463747822
 20
290.6266751171498
 30
0.0
 40
5.0
100
AcDbArc
 50
185.7846679999987
 51
264.2153319999961
  0
LINE
  5
410
330
2
100
AcDbEntity
  8
4
100
AcDbLine
 10
1106.445553747822
 20
365.0967651171496
 30
0.0
 11
1125.445553747822
 21
365.0967651171496
 31
0.0
  0
LINE
  5
412
330
2
100
AcDbEntity
  8
4
100
AcDbLine
 10
1104.445553747822
 20
343.6345501171505
 30
0.0
 11
1104.445553747822
 21
319.6345501171496
 31
0.0
  0
LINE
  5
413
330
2
100
AcDbEntity
  8
4
100
AcDbLine
 10
1093.445553747822
 20
340.6345501171487
 30
0.0
 11
1093.445553747822
 21
322.6345501171492
 31
0.0
  0
LINE
  5
414
330
2
100
AcDbEntity
  8
4
100
AcDbLine
 10
1101.445553747822
 20
343.6345501171505
 30
0.0
 11
1101.445553747822
 21
319.6345501171496
 31
0.0
  0
ARC
  5
415
330
2
100
AcDbEntity
  8
4
100
AcDbCircle
 10
1098.029553747822
 20
340.6345501171487
 30
0.0
 40
4.584
100
AcDbArc
 50
180.0
 51
220.8779789999999
  0
LINE
  5
416
330
2
100
AcDbEntity
  8
4
100
AcDbLine
 10
1095.177603747822
 20
319.6345501171496
 30
0.0
 11
1104.445553747822
 21
319.6345501171496
 31
0.0
  0
LINE
  5
417
330
2
100
AcDbEntity
  8
4
100
AcDbLine
 10
1094.474988747821
 20
337.6345501171492
 30
0.0
 11
1101.445553747822
 21
337.6345501171492
 31
0.0
  0
LINE
  5
418
330
2
100
AcDbEntity
  8
4
100
AcDbLine
 10
1094.474988747821
 20
325.6345501171487
 30
0.0
 11
1101.445553747822
 21
325.6345501171487
 31
0.0
  0
ARC
  5
419
330
2
100
AcDbEntity
  8
4
100
AcDbCircle
 10
1111.445553747822
 20
331.6345501171501
 30
0.0
 40
18.0
100
AcDbArc
 50
160.5287790000007
 51
199.4712209999993
  0
ARC
  5
41A
330
2
100
AcDbEntity
  8
4
100
AcDbCircle
 10
1098.029553747822
 20
322.6345501171492
 30
0.0
 40
4.584
100
AcDbArc
 50
139.1220210000001
 51
180.0
  0
LINE
  5
41B
330
2
100
AcDbEntity
  8
4
100
AcDbLine
 10
1093.445553747822
 20
322.6345501171492
 30
0.0
 11
1095.177603747822
 21
319.6345501171496
 31
0.0
  0
LINE
  5
41C
330
2
100
AcDbEntity
  8
4
100
AcDbLine
 10
1095.177603747822
 20
343.6345501171505
 30
0.0
 11
1104.445553747822
 21
343.6345501171505
 31
0.0
  0
LINE
  5
41D
330
2
100
AcDbEntity
  8
4
100
AcDbLine
 10
1093.445553747822
 20
340.6345501171487
 30
0.0
 11
1095.177603747822
 21
343.6345501171505
 31
0.0
  0
LINE
  5
41E
330
2
100
AcDbEntity
  8
4
100
AcDbLine
 10
1125.445553747822
 20
366.5967651171505
 30
0.0
 11
1134.586403747821
 21
366.5967651171505
 31
0.0
  0
ARC
  5
41F
330
2
100
AcDbEntity
  8
4
100
AcDbCircle
 10
1142.475463747822
 20
410.5668551171485
 30
0.0
 40
5.0
100
AcDbArc
 50
95.78466800000396
 51
174.2153320000013
  0
LINE
  5
425
330
2
100
AcDbEntity
  8
4
100
AcDbLine
 10
1216.445263747822
 20
443.5966821171488
 30
0.0
 11
1188.445263747822
 21
443.5966821171488
 31
0.0
  0
LINE
  5
426
330
2
100
AcDbEntity
  8
4
100
AcDbLine
 10
1216.445263747822
 20
445.5966821171488
 30
0.0
 11
1188.445263747822
 21
445.5966821171488
 31
0.0
  0
LINE
  5
427
330
2
100
AcDbEntity
  8
4
100
AcDbLine
 10
1214.945263747822
 20
446.5966821171488
 30
0.0
 11
1189.945263747822
 21
446.5966821171488
 31
0.0
  0
LINE
  5
428
330
2
100
AcDbEntity
  8
4
100
AcDbLine
 10
1213.945263747822
 20
430.5966821171488
 30
0.0
 11
1189.945263747822
 21
430.5966821171488
 31
0.0
  0
LINE
  5
429
330
2
100
AcDbEntity
  8
4
100
AcDbLine
 10
1214.945263747822
 20
430.5966821171488
 30
0.0
 11
1189.945263747822
 21
430.5966821171488
 31
0.0
  0
ARC
  5
42A
330
2
100
AcDbEntity
  8
4
100
AcDbCircle
 10
1199.445698747822
 20
414.3475521171487
 30
0.0
 40
9.249130000000001
100
AcDbArc
 50
71.07445699999852
 51
108.9255430000015
  0
LINE
  5
42B
330
2
100
AcDbEntity
  8
4
100
AcDbLine
 10
1196.445263747822
 20
425.0966821171488
 30
0.0
 11
1196.445263747822
 21
418.5966821171488
 31
0.0
  0
LINE
  5
42C
330
2
100
AcDbEntity
  8
4
100
AcDbLine
 10
1188.445262747822
 20
445.5966821171488
 30
0.0
 11
1188.445263747822
 21
443.5966821171488
 31
0.0
  0
LINE
  5
42D
330
2
100
AcDbEntity
  8
4
100
AcDbLine
 10
1189.945263747822
 20
446.5966821171488
 30
0.0
 11
1188.445263747822
 21
445.5966821171488
 31
0.0
  0
ARC
  5
42E
330
2
100
AcDbEntity
  8
4
100
AcDbCircle
 10
1190.945263747822
 20
425.0966821171488
 30
0.0
 40
5.5
100
AcDbArc
 50
0.0
 51
90.96750600000075
  0
LINE
  5
42F
330
2
100
AcDbEntity
  8
4
100
AcDbLine
 10
1189.945263747822
 20
443.5966821171488
 30
0.0
 11
1189.945263747822
 21
430.5966821171488
 31
0.0
  0
LINE
  5
430
330
2
100
AcDbEntity
  8
4
100
AcDbLine
 10
1208.445263747822
 20
425.4836031171486
 30
0.0
 11
1208.445263747822
 21
418.5966821171488
 31
0.0
  0
ARC
  5
431
330
2
100
AcDbEntity
  8
4
100
AcDbCircle
 10
1205.445408747822
 20
414.3475521171487
 30
0.0
 40
9.249130000000001
100
AcDbArc
 50
71.07445699999852
 51
108.9255430000015
  0
LINE
  5
432
330
2
100
AcDbEntity
  8
4
100
AcDbLine
 10
1216.445263747822
 20
445.5966821171488
 30
0.0
 11
1216.445263747822
 21
443.5966821171488
 31
0.0
  0
LINE
  5
433
330
2
100
AcDbEntity
  8
4
100
AcDbLine
 10
1216.445263747822
 20
445.5966821171488
 30
0.0
 11
1214.945263747822
 21
446.5966821171488
 31
0.0
  0
ARC
  5
434
330
2
100
AcDbEntity
  8
4
100
AcDbCircle
 10
1213.945263747822
 20
425.0966821171488
 30
0.0
 40
5.5
100
AcDbArc
 50
90.0
 51
180.0
  0
LINE
  5
435
330
2
100
AcDbEntity
  8
4
100
AcDbLine
 10
1214.945263747822
 20
443.5966821171488
 30
0.0
 11
1214.945263747822
 21
430.5966821171488
 31
0.0
  0
LINE
  5
436
330
2
100
AcDbEntity
  8
4
100
AcDbLine
 10
1542.445553747822
 20
32.59676511714963
 30
0.0
 11
1542.445553747822
 21
127.5967651171496
 31
0.0
  0
LINE
  5
437
330
2
100
AcDbEntity
  8
4
100
AcDbLine
 10
1367.445553747822
 20
127.5967651171496
 30
0.0
 11
1367.445553747822
 21
32.59676511714963
 31
0.0
  0
LINE
  5
438
330
2
100
AcDbEntity
  8
4
100
AcDbLine
 10
1353.445553747822
 20
127.5967651171496
 30
0.0
 11
1353.445553747822
 21
87.59676511714963
 31
0.0
  0
LINE
  5
439
330
2
100
AcDbEntity
  8
4
100
AcDbLine
 10
1262.445553747822
 20
283.2226451171497
 30
0.0
 11
1262.445553747822
 21
82.59676511714963
 31
0.0
  0
LINE
  5
43A
330
2
100
AcDbEntity
  8
4
100
AcDbLine
 10
1376.445553747822
 20
42.59676511714963
 30
0.0
 11
1533.445553747822
 21
42.59676511714963
 31
0.0
  0
LINE
  5
43D
330
2
100
AcDbEntity
  8
L-CENTER
 48
5.0
100
AcDbLine
 10
1292.445553747822
 20
84.59676511714963
 30
0.0
 11
1292.445553747822
 21
20.59676511714963
 31
0.0
  0
ARC
  5
43E
330
2
100
AcDbEntity
  8
4
100
AcDbCircle
 10
1272.445553747822
 20
82.59676511714963
 30
0.0
 40
10.0
100
AcDbArc
 50
180.0
 51
270.0
  0
ARC
  5
43F
330
2
100
AcDbEntity
  8
4
100
AcDbCircle
 10
1338.445553747822
 20
87.59676511714963
 30
0.0
 40
15.0
100
AcDbArc
 50
270.0
 51
0.0
  0
ARC
  5
440
330
2
100
AcDbEntity
  8
4
100
AcDbCircle
 10
1376.445553747822
 20
33.59676511714872
 30
0.0
 40
9.0
100
AcDbArc
 50
90.0
 51
180.0
  0
ARC
  5
441
330
2
100
AcDbEntity
  8
4
100
AcDbCircle
 10
1364.445553747822
 20
69.59676511715008
 30
0.0
 40
3.0
100
AcDbArc
 50
0.0
 51
90.0
  0
LINE
  5
446
330
2
100
AcDbEntity
  8
L-CENTER
 48
5.0
100
AcDbLine
 10
1470.725771597401
 20
67.59676511714963
 30
0.0
 11
1514.165335898243
 21
67.59676511714963
 31
0.0
  0
CIRCLE
  5
447
330
2
100
AcDbEntity
  8
2
100
AcDbCircle
 10
1492.445553747822
 20
67.59676511714963
 30
0.0
 40
10.0
  0
ARC
  5
448
330
2
100
AcDbEntity
  8
4
100
AcDbCircle
 10
1492.445553747822
 20
67.59676511714963
 30
0.0
 40
12.0
100
AcDbArc
 50
0.0
 51
180.0
  0
LINE
  5
449
330
2
100
AcDbEntity
  8
2
100
AcDbLine
 10
1492.445553747822
 20
76.44206511715004
 30
0.0
 11
1484.785298747823
 21
72.0194151171487
 31
0.0
  0
LINE
  5
44A
330
2
100
AcDbEntity
  8
2
100
AcDbLine
 10
1484.785298747823
 20
63.17411511715056
 30
0.0
 11
1492.445553747822
 21
58.75146511714922
 31
0.0
  0
LINE
  5
44B
330
2
100
AcDbEntity
  8
4
100
AcDbLine
 10
1480.445553747822
 20
67.59676511714963
 30
0.0
 11
1480.445553747822
 21
42.59676511714963
 31
0.0
  0
LINE
  5
44C
330
2
100
AcDbEntity
  8
2
100
AcDbLine
 10
1484.785298747823
 20
72.0194151171487
 30
0.0
 11
1484.785298747823
 21
63.17411511715056
 31
0.0
  0
LINE
  5
44D
330
2
100
AcDbEntity
  8
2
100
AcDbLine
 10
1492.445553747822
 20
76.44206511715004
 30
0.0
 11
1500.105808747821
 21
72.0194151171487
 31
0.0
  0
LINE
  5
44E
330
2
100
AcDbEntity
  8
2
100
AcDbLine
 10
1500.105808747821
 20
63.17411511715056
 30
0.0
 11
1492.445553747822
 21
58.75146511714922
 31
0.0
  0
LINE
  5
44F
330
2
100
AcDbEntity
  8
4
100
AcDbLine
 10
1504.445553747822
 20
67.59676511714963
 30
0.0
 11
1504.445553747822
 21
42.59676511714963
 31
0.0
  0
LINE
  5
450
330
2
100
AcDbEntity
  8
2
100
AcDbLine
 10
1500.105808747821
 20
72.0194151171487
 30
0.0
 11
1500.105808747821
 21
63.17411511715056
 31
0.0
  0
ARC
  5
451
330
2
100
AcDbEntity
  8
4
100
AcDbCircle
 10
1545.445553747822
 20
69.59676511715008
 30
0.0
 40
3.0
100
AcDbArc
 50
90.0
 51
180.0
  0
ARC
  5
452
330
2
100
AcDbEntity
  8
4
100
AcDbCircle
 10
1533.445553747822
 20
33.59676511714872
 30
0.0
 40
9.0
100
AcDbArc
 50
0.0
 51
90.0
  0
ARC
  5
453
330
2
100
AcDbEntity
  8
4
100
AcDbCircle
 10
1387.529238747822
 20
334.0076251171505
 30
0.0
 40
10.0
100
AcDbArc
 50
7.402257000000415
 51
80.18466499999838
  0
ARC
  5
454
330
2
100
AcDbEntity
  8
4
100
AcDbCircle
 10
670.4455537478216
 20
350.5967651171492
 30
0.0
 40
600.0
100
AcDbArc
 50
354.215332
 51
5.784668000000035
  0
ARC
  5
455
330
2
100
AcDbEntity
  8
4
100
AcDbCircle
 10
1265.445553747822
 20
283.2226451171497
 30
0.0
 40
3.0
100
AcDbArc
 50
112.2555749999994
 51
180.0
  0
ARC
  5
456
330
2
100
AcDbEntity
  8
4
100
AcDbCircle
 10
1262.415643747822
 20
290.6266751171498
 30
0.0
 40
5.0
100
AcDbArc
 50
292.2555750000001
 51
354.2153320000013
  0
ARC
  5
457
330
2
100
AcDbEntity
  8
4
100
AcDbCircle
 10
1309.423158747822
 20
229.5743701171492
 30
0.0
 40
5.0
100
AcDbArc
 50
190.5994609999968
 51
259.4005389999978
  0
LINE
  5
458
330
2
100
AcDbEntity
  8
4
100
AcDbLine
 10
1353.445553747822
 20
127.5967651171496
 30
0.0
 11
1367.445553747822
 21
127.5967651171496
 31
0.0
  0
ARC
  5
459
330
2
100
AcDbEntity
  8
4
100
AcDbCircle
 10
1262.830148747822
 20
440.6728851171503
 30
0.0
 40
25.0
100
AcDbArc
 50
264.4556999999998
 51
358.4303959999999
  0
ARC
  5
45A
330
2
100
AcDbEntity
  8
4
100
AcDbCircle
 10
1262.415643747822
 20
410.5668551171485
 30
0.0
 40
5.0
100
AcDbArc
 50
5.784667999998709
 51
84.21533199999604
  0
LINE
  5
45B
330
2
100
AcDbEntity
  8
4
100
AcDbLine
 10
1389.233973747822
 20
343.8612451171495
 30
0.0
 11
1345.912308747821
 21
351.3561401171493
 31
0.0
  0
ARC
  5
45C
330
2
100
AcDbEntity
  8
4
100
AcDbCircle
 10
1345.230413747822
 20
347.4146901171495
 30
0.0
 40
4.0
100
AcDbArc
 50
80.1846649999958
 51
203.8822049999991
  0
LINE
  5
45D
330
2
100
AcDbEntity
  8
4
100
AcDbLine
 10
1423.710033747822
 20
309.3851851171499
 30
0.0
 11
1431.204928747822
 21
266.0635201171491
 31
0.0
  0
ARC
  5
45E
330
2
100
AcDbEntity
  8
4
100
AcDbCircle
 10
1427.263478747822
 20
265.3816251171489
 30
0.0
 40
4.0
100
AcDbArc
 50
246.1177950000002
 51
9.815334999997756
  0
ARC
  5
45F
330
2
100
AcDbEntity
  8
4
100
AcDbCircle
 10
1406.689688747822
 20
326.8409001171486
 30
0.0
 40
8.0
100
AcDbArc
 50
188.3290489999994
 51
261.6709509999974
  0
ARC
  5
460
330
2
100
AcDbEntity
  8
4
100
AcDbCircle
 10
1411.108113747822
 20
331.2593251171498
 30
0.0
 40
8.0
100
AcDbArc
 50
187.9647959999994
 51
262.0352040000007
  0
ARC
  5
461
330
2
100
AcDbEntity
  8
4
100
AcDbCircle
 10
1413.856413747822
 20
307.6804501171492
 30
0.0
 40
10.0
100
AcDbArc
 50
9.81533499999895
 51
82.59774299999958
  0
LINE
  5
47C
330
2
100
AcDbEntity
  8
4
100
AcDbLine
 10
1697.745553747822
 20
287.5967651171496
 30
0.0
 11
1697.745553747822
 21
117.5967651171496
 31
0.0
  0
LINE
  5
47D
330
2
100
AcDbEntity
  8
4
100
AcDbLine
 10
1556.445553747822
 20
127.5967651171496
 30
0.0
 11
1556.445553747822
 21
87.59676511714963
 31
0.0
  0
LINE
  5
47E
330
2
100
AcDbEntity
  8
4
100
AcDbLine
 10
1682.445553747822
 20
240.0424251171504
 30
0.0
 11
1682.445553747822
 21
77.59676511714963
 31
0.0
  0
LINE
  5
47F
330
2
100
AcDbEntity
  8
4
100
AcDbLine
 10
1715.745553747822
 20
119.5967651171496
 30
0.0
 11
1715.745553747822
 21
285.5967651171496
 31
0.0
  0
LINE
  5
480
330
2
100
AcDbEntity
  8
4
100
AcDbLine
 10
1697.445553747822
 20
287.5967651171496
 30
0.0
 11
1697.445553747822
 21
117.5967651171496
 31
0.0
  0
LINE
  5
481
330
2
100
AcDbEntity
  8
4
100
AcDbLine
 10
1685.445553747822
 20
117.5967651171496
 30
0.0
 11
1713.745553747822
 21
117.5967651171496
 31
0.0
  0
ARC
  5
48D
330
2
100
AcDbEntity
  8
4
100
AcDbCircle
 10
1571.445553747822
 20
87.59676511714963
 30
0.0
 40
15.0
100
AcDbArc
 50
180.0
 51
270.0
  0
LINE
  5
48E
330
2
100
AcDbEntity
  8
4
100
AcDbLine
 10
1692.445553747822
 20
32.59676511714963
 30
0.0
 11
1692.445553747822
 21
69.59676511715008
 31
0.0
  0
LINE
  5
48F
330
2
100
AcDbEntity
  8
L-CENTER
 48
5.0
100
AcDbLine
 10
1642.445553747822
 20
84.59676511714963
 30
0.0
 11
1642.445553747822
 21
20.59676511714963
 31
0.0
  0
ARC
  5
492
330
2
100
AcDbEntity
  8
4
100
AcDbCircle
 10
1687.445553747822
 20
77.59676511714963
 30
0.0
 40
5.0
100
AcDbArc
 50
180.0
 51
270.0
  0
ARC
  5
493
330
2
100
AcDbEntity
  8
4
100
AcDbCircle
 10
1689.445553747822
 20
69.59676511715008
 30
0.0
 40
3.0
100
AcDbArc
 50
0.0
 51
90.0
  0
ARC
  5
494
330
2
100
AcDbEntity
  8
4
100
AcDbCircle
 10
1685.445553747822
 20
114.5967651171501
 30
0.0
 40
3.0
100
AcDbArc
 50
90.0
 51
180.0
  0
ARC
  5
495
330
2
100
AcDbEntity
  8
4
100
AcDbCircle
 10
1713.745553747822
 20
119.5967651171496
 30
0.0
 40
2.0
100
AcDbArc
 50
270.0
 51
0.0
  0
LINE
  5
498
330
2
100
AcDbEntity
  8
4
100
AcDbLine
 10
1692.998163747822
 20
287.5967651171496
 30
0.0
 11
1713.745553747822
 21
287.5967651171496
 31
0.0
  0
LINE
  5
499
330
2
100
AcDbEntity
  8
4
100
AcDbLine
 10
1561.181073747822
 20
309.3851851171499
 30
0.0
 11
1553.686178747822
 21
266.0635201171491
 31
0.0
  0
ARC
  5
49A
330
2
100
AcDbEntity
  8
4
100
AcDbCircle
 10
1557.627628747822
 20
265.3816251171489
 30
0.0
 40
4.0
100
AcDbArc
 50
170.1846650000023
 51
293.8822049999998
  0
ARC
  5
49B
330
2
100
AcDbEntity
  8
4
100
AcDbCircle
 10
1675.467948747822
 20
229.5743701171492
 30
0.0
 40
5.0
100
AcDbArc
 50
280.5994610000022
 51
349.4005390000032
  0
ARC
  5
49C
330
2
100
AcDbEntity
  8
4
100
AcDbCircle
 10
1692.998163747822
 20
290.5967651171492
 30
0.0
 40
3.0
100
AcDbArc
 50
173.0135220000009
 51
270.0
  0
LINE
  5
49D
330
2
100
AcDbEntity
  8
4
100
AcDbLine
 10
1595.657133747822
 20
343.8612451171495
 30
0.0
 11
1638.978798747823
 21
351.3561401171493
 31
0.0
  0
ARC
  5
49E
330
2
100
AcDbEntity
  8
4
100
AcDbCircle
 10
1578.201418747822
 20
326.8409001171486
 30
0.0
 40
8.0
100
AcDbArc
 50
278.3290490000026
 51
351.6709510000006
  0
ARC
  5
49F
330
2
100
AcDbEntity
  8
4
100
AcDbCircle
 10
1571.034693747823
 20
307.6804501171492
 30
0.0
 40
10.0
100
AcDbArc
 50
97.40225700000043
 51
170.1846650000011
  0
ARC
  5
4A0
330
2
100
AcDbEntity
  8
4
100
AcDbCircle
 10
1573.782993747822
 20
331.2593251171498
 30
0.0
 40
8.0
100
AcDbArc
 50
277.9647959999993
 51
352.0352040000006
  0
ARC
  5
4A1
330
2
100
AcDbEntity
  8
4
100
AcDbCircle
 10
1597.361868747822
 20
334.0076251171505
 30
0.0
 40
10.0
100
AcDbArc
 50
99.81533500000165
 51
172.5977429999996
  0
ARC
  5
4A2
330
2
100
AcDbEntity
  8
4
100
AcDbCircle
 10
1639.660693747822
 20
347.4146901171495
 30
0.0
 40
4.0
100
AcDbArc
 50
336.1177950000009
 51
99.81533500000421
  0
LINE
  5
4A3
330
2
100
AcDbEntity
  8
4
100
AcDbLine
 10
1726.745553747822
 20
194.3695237811977
 30
0.0
 11
1726.745553747822
 21
210.824006453102
 31
0.0
  0
ARC
  5
4A4
330
2
100
AcDbEntity
  8
4
100
AcDbCircle
 10
1712.949809612644
 20
202.5967651171496
 30
0.0
 40
13.7957441351769
100
AcDbArc
 50
336.5734024913729
 51
23.42659750862713
  0
LINE
  5
4A5
330
2
100
AcDbEntity
  8
4
100
AcDbLine
 10
1718.745553747822
 20
213.5664202317527
 30
0.0
 11
1718.745553747822
 21
191.6271100025471
 31
0.0
  0
LINE
  5
4A6
330
2
100
AcDbEntity
  8
4
100
AcDbLine
 10
1715.745553747822
 20
213.5664202317527
 30
0.0
 11
1715.745553747822
 21
191.6271100025471
 31
0.0
  0
LINE
  5
4A7
330
2
100
AcDbEntity
  8
4
100
AcDbLine
 10
1725.608372837195
 20
128.8402682281745
 30
0.0
 11
1715.745553747822
 21
128.8402682281745
 31
0.0
  0
LINE
  5
4A8
330
2
100
AcDbEntity
  8
4
100
AcDbLine
 10
1725.608372837195
 20
134.3250957854758
 30
0.0
 11
1718.745553747822
 21
134.3250957854758
 31
0.0
  0
LINE
  5
4A9
330
2
100
AcDbEntity
  8
4
100
AcDbLine
 10
1715.745553747822
 20
150.7795784573801
 30
0.0
 11
1725.608372837195
 21
150.7795784573801
 31
0.0
  0
LINE
  5
4AA
330
2
100
AcDbEntity
  8
4
100
AcDbLine
 10
1725.608372837195
 20
145.2947509000788
 30
0.0
 11
1718.745553747822
 21
145.2947509000788
 31
0.0
  0
LINE
  5
4AB
330
2
100
AcDbEntity
  8
4
100
AcDbLine
 10
1718.745553747822
 20
128.8402682281745
 30
0.0
 11
1718.745553747822
 21
150.7795784573801
 31
0.0
  0
LINE
  5
4AC
330
2
100
AcDbEntity
  8
4
100
AcDbLine
 10
1715.745553747822
 20
128.8402682281745
 30
0.0
 11
1715.745553747822
 21
150.7795784573801
 31
0.0
  0
ARC
  5
4AD
330
2
100
AcDbEntity
  8
4
100
AcDbCircle
 10
1722.870174872543
 20
131.5826820068252
 30
0.0
 40
3.875378875279244
100
AcDbArc
 50
314.955926762744
 51
45.04407323725601
  0
LINE
  5
4AE
330
2
100
AcDbEntity
  8
4
100
AcDbLine
 10
1726.745553747822
 20
148.0371646787295
 30
0.0
 11
1726.745553747822
 21
131.5826820068252
 31
0.0
  0
ARC
  5
4AF
330
2
100
AcDbEntity
  8
4
100
AcDbCircle
 10
1712.949809612644
 20
139.8099233427776
 30
0.0
 40
13.7957441351769
100
AcDbArc
 50
336.5734024913729
 51
23.42659750862713
  0
ARC
  5
4B0
330
2
100
AcDbEntity
  8
4
100
AcDbCircle
 10
1722.870174872543
 20
148.0371646787295
 30
0.0
 40
3.875378875279264
100
AcDbArc
 50
314.955926762744
 51
45.04407323725601
  0
LINE
  5
4B1
330
2
100
AcDbEntity
  8
4
100
AcDbLine
 10
1715.745553747822
 20
191.6271100025471
 30
0.0
 11
1725.608372837195
 21
191.6271100025471
 31
0.0
  0
LINE
  5
4B2
330
2
100
AcDbEntity
  8
4
100
AcDbLine
 10
1725.608372837195
 20
197.1119375598483
 30
0.0
 11
1718.745553747822
 21
197.1119375598483
 31
0.0
  0
ARC
  5
4B3
330
2
100
AcDbEntity
  8
4
100
AcDbCircle
 10
1722.870174872543
 20
194.3695237811977
 30
0.0
 40
3.875378875279264
100
AcDbArc
 50
314.955926762744
 51
45.04407323725601
  0
LINE
  5
4B4
330
2
100
AcDbEntity
  8
4
100
AcDbLine
 10
1725.608372837195
 20
213.5664202317527
 30
0.0
 11
1715.745553747822
 21
213.5664202317527
 31
0.0
  0
LINE
  5
4B5
330
2
100
AcDbEntity
  8
4
100
AcDbLine
 10
1725.608372837195
 20
208.0815926744514
 30
0.0
 11
1718.745553747822
 21
208.0815926744514
 31
0.0
  0
ARC
  5
4B6
330
2
100
AcDbEntity
  8
4
100
AcDbCircle
 10
1722.870174872543
 20
210.824006453102
 30
0.0
 40
3.875378875279244
100
AcDbArc
 50
314.955926762744
 51
45.04407323725601
  0
LINE
  5
4B7
330
2
100
AcDbEntity
  8
4
100
AcDbLine
 10
1725.608372837195
 20
276.3532620061247
 30
0.0
 11
1715.745553747822
 21
276.3532620061247
 31
0.0
  0
LINE
  5
4B8
330
2
100
AcDbEntity
  8
4
100
AcDbLine
 10
1725.608372837195
 20
270.8684344488235
 30
0.0
 11
1718.745553747822
 21
270.8684344488235
 31
0.0
  0
LINE
  5
4B9
330
2
100
AcDbEntity
  8
4
100
AcDbLine
 10
1715.745553747822
 20
254.4139517769191
 30
0.0
 11
1725.608372837195
 21
254.4139517769191
 31
0.0
  0
LINE
  5
4BA
330
2
100
AcDbEntity
  8
4
100
AcDbLine
 10
1725.608372837195
 20
259.8987793342204
 30
0.0
 11
1718.745553747822
 21
259.8987793342204
 31
0.0
  0
LINE
  5
4BB
330
2
100
AcDbEntity
  8
4
100
AcDbLine
 10
1718.745553747822
 20
276.3532620061247
 30
0.0
 11
1718.745553747822
 21
254.4139517769191
 31
0.0
  0
LINE
  5
4BC
330
2
100
AcDbEntity
  8
4
100
AcDbLine
 10
1715.745553747822
 20
276.3532620061247
 30
0.0
 11
1715.745553747822
 21
254.4139517769191
 31
0.0
  0
ARC
  5
4BD
330
2
100
AcDbEntity
  8
4
100
AcDbCircle
 10
1713.745553747822
 20
285.5967651171496
 30
0.0
 40
2.0
100
AcDbArc
 50
0.0
 51
90.0
  0
ARC
  5
4BE
330
2
100
AcDbEntity
  8
4
100
AcDbCircle
 10
1722.870174872543
 20
273.6108482274741
 30
0.0
 40
3.875378875279244
100
AcDbArc
 50
314.955926762744
 51
45.04407323725601
  0
LINE
  5
4BF
330
2
100
AcDbEntity
  8
4
100
AcDbLine
 10
1726.745553747822
 20
257.1563655555698
 30
0.0
 11
1726.745553747822
 21
273.6108482274741
 31
0.0
  0
ARC
  5
4C0
330
2
100
AcDbEntity
  8
4
100
AcDbCircle
 10
1712.949809612644
 20
265.3836068915217
 30
0.0
 40
13.7957441351769
100
AcDbArc
 50
336.5734024913729
 51
23.42659750862713
  0
ARC
  5
4C1
330
2
100
AcDbEntity
  8
4
100
AcDbCircle
 10
1722.870174872543
 20
257.1563655555698
 30
0.0
 40
3.875378875279264
100
AcDbArc
 50
314.955926762744
 51
45.04407323725601
  0
LINE
  5
4C2
330
2
100
AcDbEntity
  8
4
100
AcDbLine
 10
1546.445553747821
 20
555.5967651171491
 30
0.0
 11
1541.889700870307
 21
527.5967651171491
 31
0.0
  0
LINE
  5
4C3
330
2
100
AcDbEntity
  8
4
100
AcDbLine
 10
1437.445553747822
 20
567.5967651171486
 30
0.0
 11
1547.445553747822
 21
567.5967651171486
 31
0.0
  0
LINE
  5
4C4
330
2
100
AcDbEntity
  8
4
100
AcDbLine
 10
1437.445553747822
 20
521.5967651171495
 30
0.0
 11
1547.445553747822
 21
521.5967651171491
 31
0.0
  0
LINE
  5
4C5
330
2
100
AcDbEntity
  8
4
100
AcDbLine
 10
1522.445553747821
 20
561.5967651171491
 30
0.0
 11
1546.445553747821
 21
561.5967651171491
 31
0.0
  0
ARC
  5
4C7
330
2
100
AcDbEntity
  8
4
100
AcDbCircle
 10
1492.445553747822
 20
-382.4032348828504
 30
0.0
 40
1000.0
100
AcDbArc
 50
79.40053900000001
 51
100.599461
  0
ARC
  5
4C8
330
2
100
AcDbEntity
  8
4
100
AcDbCircle
 10
1492.445553747822
 20
-87.40323488285037
 30
0.0
 40
600.0
100
AcDbArc
 50
81.67095099999997
 51
98.32904900000003
  0
ARC
  5
4C9
330
2
100
AcDbEntity
  8
4
100
AcDbCircle
 10
1492.445553747822
 20
-87.40323488285037
 30
0.0
 40
595.0
100
AcDbArc
 50
82.03520400000001
 51
97.96479599999999
  0
TEXT
  5
4CE
330
2
100
AcDbEntity
  8
1
 62
     1
100
AcDbText
 10
2023.001687279502
 20
7818.355143125407
 30
0.0
 40
6.000000000000001
  1
1
 50
90.0
  7
KANJI
 72
     4
 11
2020.001687279502
 21
7819.355143125407
 31
0.0
100
AcDbText
  0
LWPOLYLINE
  5
4CF
330
2
100
AcDbEntity
  8
1
 62
     1
100
AcDbPolyline
 90
        4
 70
     0
 43
0.0
 10
2011.521428118836
 20
7819.222674703602
 10
2025.377834579387
 20
7811.222674703602
 10
2025.377834579387
 20
7827.222674703602
 10
2011.521428118836
 20
7819.222674703602
  0
LINE
  5
4D9
330
2
100
AcDbEntity
  8
4
100
AcDbLine
 10
1382.445553747822
 20
628.0967651171491
 30
0.0
 11
1393.282478747822
 21
626.8521351171503
 31
0.0
  0
LINE
  5
4DA
330
2
100
AcDbEntity
  8
4
100
AcDbLine
 10
1402.445553747822
 20
615.5967651171491
 30
0.0
 11
1362.445553747822
 21
615.5967651171491
 31
0.0
  0
LINE
  5
4DB
330
2
100
AcDbEntity
  8
L-CENTER
 48
5.0
100
AcDbLine
 10
1340.383663747822
 20
645.5967651171491
 30
0.0
 11
1424.507443747822
 21
645.5967651171491
 31
0.0
  0
LINE
  5
4DC
330
2
100
AcDbEntity
  8
4
100
AcDbLine
 10
1370.696273747822
 20
626.5967651171504
 30
0.0
 11
1394.194833747822
 21
626.5967651171504
 31
0.0
  0
ARC
  5
4DD
330
2
100
AcDbEntity
  8
4
100
AcDbCircle
 10
1387.529238747822
 20
491.1859051171486
 30
0.0
 40
10.0
100
AcDbArc
 50
279.8153350000015
 51
352.5977429999996
  0
CIRCLE
  5
4DE
330
2
100
AcDbEntity
  8
4
100
AcDbCircle
 10
1382.445553747822
 20
645.5967651171491
 30
0.0
 40
17.5
  0
ARC
  5
4DF
330
2
100
AcDbEntity
  8
4
100
AcDbCircle
 10
1382.445553747822
 20
645.5967651171491
 30
0.0
 40
30.0
100
AcDbArc
 50
304.5871149999994
 51
235.412885
  0
LINE
  5
4E0
330
2
100
AcDbEntity
  8
L-CENTER
 48
5.0
100
AcDbLine
 10
1382.445553747822
 20
686.233485117149
 30
0.0
 11
1382.445553747822
 21
603.5348751171491
 31
0.0
  0
ARC
  5
4E1
330
2
100
AcDbEntity
  8
4
100
AcDbCircle
 10
1309.423158747822
 20
595.6191601171499
 30
0.0
 40
5.0
100
AcDbArc
 50
100.599461000002
 51
169.4005390000032
  0
LINE
  5
4E2
330
2
100
AcDbEntity
  8
4
100
AcDbLine
 10
1389.233973747822
 20
481.3322851171497
 30
0.0
 11
1345.912308747821
 21
473.83739011715
 31
0.0
  0
ARC
  5
4E3
330
2
100
AcDbEntity
  8
4
100
AcDbCircle
 10
1345.230413747822
 20
477.7788401171498
 30
0.0
 40
4.0
100
AcDbArc
 50
156.1177950000009
 51
279.8153350000042
  0
LINE
  5
4E4
330
2
100
AcDbEntity
  8
4
100
AcDbLine
 10
1371.608628747822
 20
626.8521351171503
 30
0.0
 11
1382.445553747822
 21
628.0967651171491
 31
0.0
  0
LINE
  5
4E5
330
2
100
AcDbEntity
  8
4
100
AcDbLine
 10
1362.445553747822
 20
615.5967651171491
 30
0.0
 11
1362.445553747822
 21
611.7396101171485
 31
0.0
  0
ARC
  5
4E6
330
2
100
AcDbEntity
  8
4
100
AcDbCircle
 10
1359.445553747822
 20
611.7396101171485
 30
0.0
 40
3.0
100
AcDbArc
 50
277.6199890000009
 51
0.0
  0
LINE
  5
4E7
330
2
100
AcDbEntity
  8
4
100
AcDbLine
 10
1367.445553747822
 20
615.5967651171491
 30
0.0
 11
1368.996508747822
 21
624.3926701171486
 31
0.0
  0
ARC
  5
4E8
330
2
100
AcDbEntity
  8
4
100
AcDbCircle
 10
1362.577503747822
 20
616.7825251171498
 30
0.0
 40
5.0
100
AcDbArc
 50
350.0000000000003
 51
55.41288500000426
  0
ARC
  5
4E9
330
2
100
AcDbEntity
  8
4
100
AcDbCircle
 10
1371.950933747823
 20
623.8717251171502
 30
0.0
 40
3.0
100
AcDbArc
 50
96.55176900000414
 51
169.9999999999946
  0
LINE
  5
4EB
330
2
100
AcDbEntity
  8
4
100
AcDbLine
 10
1468.445553747821
 20
561.5967651171486
 30
0.0
 11
1492.445553747821
 21
561.5967651171486
 31
0.0
  0
LINE
  5
4EC
330
2
100
AcDbEntity
  8
4
100
AcDbLine
 10
1468.445553747821
 20
527.5967651171491
 30
0.0
 11
1492.445553747821
 21
527.5967651171491
 31
0.0
  0
LINE
  5
4ED
330
2
100
AcDbEntity
  8
4
100
AcDbLine
 10
1468.445553747822
 20
622.5967651171495
 30
0.0
 11
1516.445553747822
 21
622.5967651171495
 31
0.0
  0
ARC
  5
4EE
330
2
100
AcDbEntity
  8
4
100
AcDbCircle
 10
1418.445553747821
 20
555.5827784191501
 30
0.0
 40
4.0
100
AcDbArc
 50
0.0
 51
117.363062351958
  0
LINE
  5
4EF
330
2
100
AcDbEntity
  8
4
100
AcDbLine
 10
1432.445553747822
 20
562.5967651171486
 30
0.0
 11
1432.445553747822
 21
526.5967651171495
 31
0.0
  0
LINE
  5
4F0
330
2
100
AcDbEntity
  8
4
100
AcDbLine
 10
1444.445553747821
 20
561.5967651171486
 30
0.0
 11
1444.445553747821
 21
533.5967651171486
 31
0.0
  0
LINE
  5
4F1
330
2
100
AcDbEntity
  8
4
100
AcDbLine
 10
1468.445553747821
 20
561.5967651171486
 30
0.0
 11
1468.445553747821
 21
527.5967651171491
 31
0.0
  0
LINE
  5
4F2
330
2
100
AcDbEntity
  8
4
100
AcDbLine
 10
1438.445553747821
 20
561.5967651171486
 30
0.0
 11
1438.445553747821
 21
527.5967651171491
 31
0.0
  0
ARC
  5
4F3
330
2
100
AcDbEntity
  8
4
100
AcDbCircle
 10
1412.445553747821
 20
517.3281104267835
 30
0.0
 40
10.0
100
AcDbArc
 50
277.5359093422798
 51
0.0
  0
ARC
  5
4F4
330
2
100
AcDbEntity
  8
4
100
AcDbCircle
 10
1406.689688747822
 20
498.3526301171505
 30
0.0
 40
8.0
100
AcDbArc
 50
98.32904900000263
 51
171.6709510000006
  0
ARC
  5
4F5
330
2
100
AcDbEntity
  8
4
100
AcDbCircle
 10
1411.108113747822
 20
493.9342051171493
 30
0.0
 40
8.0
100
AcDbArc
 50
97.96479599999941
 51
172.0352040000006
  0
LINE
  5
4F6
330
2
100
AcDbEntity
  8
4
100
AcDbLine
 10
1422.44555374782
 20
555.5827784191501
 30
0.0
 11
1422.445553747821
 21
517.3281104267835
 31
0.0
  0
LINE
  5
4F7
330
2
100
AcDbEntity
  8
4
100
AcDbLine
 10
1444.445553747821
 20
533.5967651171491
 30
0.0
 11
1462.445553747821
 21
533.5967651171486
 31
0.0
  0
LINE
  5
4F8
330
2
100
AcDbEntity
  8
4
100
AcDbLine
 10
1438.445553747821
 20
527.5967651171491
 30
0.0
 11
1462.445553747821
 21
527.5967651171495
 31
0.0
  0
ARC
  5
4F9
330
2
100
AcDbEntity
  8
4
100
AcDbCircle
 10
1437.445553747822
 20
526.5967651171495
 30
0.0
 40
5.0
100
AcDbArc
 50
180.0
 51
270.0
  0
LINE
  5
4FA
330
2
100
AcDbEntity
  8
4
100
AcDbLine
 10
1462.445553747821
 20
533.5967651171486
 30
0.0
 11
1462.445553747821
 21
527.5967651171491
 31
0.0
  0
LINE
  5
4FB
330
2
100
AcDbEntity
  8
4
100
AcDbLine
 10
1402.445553747822
 20
615.5967651171491
 30
0.0
 11
1402.445553747822
 21
615.1788401171498
 31
0.0
  0
ARC
  5
4FC
330
2
100
AcDbEntity
  8
4
100
AcDbCircle
 10
1403.945553747822
 20
615.1788401171498
 30
0.0
 40
1.5
100
AcDbArc
 50
180.0
 51
275.069695
  0
LINE
  5
4FD
330
2
100
AcDbEntity
  8
4
100
AcDbLine
 10
1397.445553747822
 20
615.5967651171491
 30
0.0
 11
1395.894598747822
 21
624.3926701171486
 31
0.0
  0
ARC
  5
4FE
330
2
100
AcDbEntity
  8
4
100
AcDbCircle
 10
1402.313603747822
 20
616.7825251171498
 30
0.0
 40
5.0
100
AcDbArc
 50
124.5871149999957
 51
189.9999999999997
  0
ARC
  5
4FF
330
2
100
AcDbEntity
  8
4
100
AcDbCircle
 10
1392.940173747822
 20
623.8717251171502
 30
0.0
 40
3.0
100
AcDbArc
 50
10.00000000000544
 51
83.44823099999586
  0
ARC
  5
500
330
2
100
AcDbEntity
  8
4
100
AcDbCircle
 10
1437.445553747822
 20
562.5967651171486
 30
0.0
 40
5.0
100
AcDbArc
 50
90.0
 51
180.0
  0
LINE
  5
501
330
2
100
AcDbEntity
  8
4
100
AcDbLine
 10
1438.445553747821
 20
561.5967651171486
 30
0.0
 11
1444.445553747821
 21
561.5967651171486
 31
0.0
  0
LINE
  5
502
330
2
100
AcDbEntity
  8
4
100
AcDbLine
 10
1468.445553747822
 20
622.5967651171495
 30
0.0
 11
1468.445553747822
 21
620.2332901171499
 31
0.0
  0
ARC
  5
503
330
2
100
AcDbEntity
  8
4
100
AcDbCircle
 10
1465.445553747822
 20
620.2332901171499
 30
0.0
 40
3.0
100
AcDbArc
 50
271.5425449999942
 51
0.0
  0
LINE
  5
504
330
2
100
AcDbEntity
  8
4
100
AcDbLine
 10
1522.445553747821
 20
561.5967651171491
 30
0.0
 11
1522.445553747823
 21
547.5967651171486
 31
0.0
  0
LINE
  5
505
330
2
100
AcDbEntity
  8
4
100
AcDbLine
 10
1492.445553747822
 20
561.5967651171486
 30
0.0
 11
1492.445553747822
 21
555.5967651171491
 31
0.0
  0
LINE
  5
506
330
2
100
AcDbEntity
  8
4
100
AcDbLine
 10
1498.44555374782
 20
541.5967651171486
 30
0.0
 11
1516.445553747821
 21
541.5967651171491
 31
0.0
  0
LINE
  5
507
330
2
100
AcDbEntity
  8
4
100
AcDbLine
 10
1498.445553747821
 20
547.5967651171491
 30
0.0
 11
1516.445553747822
 21
547.5967651171491
 31
0.0
  0
LINE
  5
508
330
2
100
AcDbEntity
  8
4
100
AcDbLine
 10
1474.445553747821
 20
541.5967651171486
 30
0.0
 11
1492.445553747821
 21
541.5967651171486
 31
0.0
  0
LINE
  5
509
330
2
100
AcDbEntity
  8
4
100
AcDbLine
 10
1474.445553747821
 20
547.5967651171486
 30
0.0
 11
1492.445553747821
 21
547.5967651171486
 31
0.0
  0
LINE
  5
50A
330
2
100
AcDbEntity
  8
4
100
AcDbLine
 10
1474.44555374782
 20
533.5967651171491
 30
0.0
 11
1492.445553747821
 21
533.5967651171491
 31
0.0
  0
LINE
  5
50B
330
2
100
AcDbEntity
  8
4
100
AcDbLine
 10
1474.445553747821
 20
555.5967651171486
 30
0.0
 11
1492.445553747821
 21
555.5967651171486
 31
0.0
  0
LINE
  5
50C
330
2
100
AcDbEntity
  8
4
100
AcDbLine
 10
1474.445553747821
 20
541.5967651171486
 30
0.0
 11
1474.445553747821
 21
533.5967651171486
 31
0.0
  0
LINE
  5
50D
330
2
100
AcDbEntity
  8
4
100
AcDbLine
 10
1474.445553747821
 20
555.5967651171491
 30
0.0
 11
1474.445553747821
 21
547.5967651171486
 31
0.0
  0
LINE
  5
50E
330
2
100
AcDbEntity
  8
4
100
AcDbLine
 10
1498.445553747822
 20
547.5967651171486
 30
0.0
 11
1498.44555374782
 21
541.5967651171486
 31
0.0
  0
LINE
  5
50F
330
2
100
AcDbEntity
  8
4
100
AcDbLine
 10
1492.445553747821
 20
547.5967651171486
 30
0.0
 11
1492.445553747821
 21
541.5967651171486
 31
0.0
  0
LINE
  5
510
330
2
100
AcDbEntity
  8
4
100
AcDbLine
 10
1492.445553747822
 20
533.5967651171486
 30
0.0
 11
1492.445553747821
 21
527.5967651171491
 31
0.0
  0
LINE
  5
511
330
2
100
AcDbEntity
  8
4
100
AcDbLine
 10
1522.445553747823
 20
547.5967651171486
 30
0.0
 11
1528.445553747824
 21
547.5967651171486
 31
0.0
  0
LINE
  5
512
330
2
100
AcDbEntity
  8
4
100
AcDbLine
 10
1516.445553747821
 20
547.5967651171491
 30
0.0
 11
1516.445553747821
 21
541.5967651171486
 31
0.0
  0
LINE
  5
513
330
2
100
AcDbEntity
  8
4
100
AcDbLine
 10
1540.366649879551
 20
555.5967651171491
 30
0.0
 11
1535.810797002038
 21
527.5967651171486
 31
0.0
  0
LINE
  5
514
330
2
100
AcDbEntity
  8
4
100
AcDbLine
 10
1535.810797002038
 20
527.5967651171491
 30
0.0
 11
1541.889700870307
 21
527.5967651171491
 31
0.0
  0
LINE
  5
515
330
2
100
AcDbEntity
  8
4
100
AcDbLine
 10
1528.445553747821
 20
555.5967651171491
 30
0.0
 11
1528.445553747823
 21
547.5967651171486
 31
0.0
  0
LINE
  5
516
330
2
100
AcDbEntity
  8
4
100
AcDbLine
 10
1528.445553747822
 20
555.5967651171491
 30
0.0
 11
1540.366649879551
 21
555.5967651171491
 31
0.0
  0
LINE
  5
517
330
2
100
AcDbEntity
  8
4
100
AcDbLine
 10
1469.445553747822
 20
633.0967651171491
 30
0.0
 11
1515.445553747822
 21
633.0967651171491
 31
0.0
  0
LINE
  5
518
330
2
100
AcDbEntity
  8
4
100
AcDbLine
 10
1469.445553747822
 20
628.0967651171491
 30
0.0
 11
1515.445553747822
 21
628.0967651171491
 31
0.0
  0
LINE
  5
519
330
2
100
AcDbEntity
  8
4
100
AcDbLine
 10
1469.445553747822
 20
624.0967651171504
 30
0.0
 11
1515.445553747822
 21
624.0967651171504
 31
0.0
  0
LINE
  5
51A
330
2
100
AcDbEntity
  8
4
100
AcDbLine
 10
1480.945553747822
 20
633.0967651171491
 30
0.0
 11
1480.945553747822
 21
628.0967651171491
 31
0.0
  0
LINE
  5
51B
330
2
100
AcDbEntity
  8
4
100
AcDbLine
 10
1469.445553747822
 20
633.0967651171491
 30
0.0
 11
1469.445553747822
 21
624.0967651171504
 31
0.0
  0
LINE
  5
51C
330
2
100
AcDbEntity
  8
4
100
AcDbLine
 10
1471.445553747822
 20
624.0967651171504
 30
0.0
 11
1471.445553747822
 21
622.5967651171495
 31
0.0
  0
LINE
  5
51D
330
2
100
AcDbEntity
  8
4
100
AcDbLine
 10
1503.945553747822
 20
633.0967651171491
 30
0.0
 11
1503.945553747822
 21
628.0967651171491
 31
0.0
  0
LINE
  5
51E
330
2
100
AcDbEntity
  8
4
100
AcDbLine
 10
1516.445553747822
 20
622.5967651171495
 30
0.0
 11
1516.445553747822
 21
620.2332901171499
 31
0.0
  0
ARC
  5
51F
330
2
100
AcDbEntity
  8
4
100
AcDbCircle
 10
1519.445553747822
 20
620.2332901171499
 30
0.0
 40
3.0
100
AcDbArc
 50
180.0
 51
268.4574550000058
  0
LINE
  5
520
330
2
100
AcDbEntity
  8
4
100
AcDbLine
 10
1515.445553747822
 20
633.0967651171491
 30
0.0
 11
1515.445553747822
 21
624.0967651171504
 31
0.0
  0
LINE
  5
521
330
2
100
AcDbEntity
  8
4
100
AcDbLine
 10
1513.445553747822
 20
624.0967651171504
 30
0.0
 11
1513.445553747822
 21
622.5967651171495
 31
0.0
  0
LINE
  5
526
330
2
100
AcDbEntity
  8
L-CENTER
 48
5.0
100
AcDbLine
 10
1602.445553747822
 20
687.658655117149
 30
0.0
 11
1602.445553747822
 21
603.5348751171491
 31
0.0
  0
CIRCLE
  5
527
330
2
100
AcDbEntity
  8
4
100
AcDbCircle
 10
1602.445553747822
 20
645.5967651171491
 30
0.0
 40
17.5
  0
ARC
  5
528
330
2
100
AcDbEntity
  8
4
100
AcDbCircle
 10
1602.445553747822
 20
645.5967651171491
 30
0.0
 40
30.0
100
AcDbArc
 50
304.5871149999994
 51
235.412885
  0
ARC
  5
529
330
2
100
AcDbEntity
  8
4
100
AcDbCircle
 10
1625.445553747822
 20
611.7396101171485
 30
0.0
 40
3.0
100
AcDbArc
 50
180.0
 51
262.3800109999991
  0
LINE
  5
52A
330
2
100
AcDbEntity
  8
4
100
AcDbLine
 10
1595.657133747822
 20
481.3322851171497
 30
0.0
 11
1638.978798747823
 21
473.83739011715
 31
0.0
  0
ARC
  5
52B
330
2
100
AcDbEntity
  8
4
100
AcDbCircle
 10
1566.445553747822
 20
555.5827784191506
 30
0.0
 40
4.0
100
AcDbArc
 50
62.63693764804201
 51
180.0
  0
LINE
  5
52C
330
2
100
AcDbEntity
  8
4
100
AcDbLine
 10
1552.445553747822
 20
562.5967651171486
 30
0.0
 11
1552.445553747822
 21
526.5967651171491
 31
0.0
  0
LINE
  5
52D
330
2
100
AcDbEntity
  8
4
100
AcDbLine
 10
1546.445553747822
 20
561.5967651171491
 30
0.0
 11
1546.445553747822
 21
555.5967651171486
 31
0.0
  0
ARC
  5
52E
330
2
100
AcDbEntity
  8
4
100
AcDbCircle
 10
1578.201418747822
 20
498.3526301171505
 30
0.0
 40
8.0
100
AcDbArc
 50
8.3290489999994
 51
81.67095099999736
  0
ARC
  5
52F
330
2
100
AcDbEntity
  8
4
100
AcDbCircle
 10
1572.445553747822
 20
517.328110426784
 30
0.0
 40
10.0
100
AcDbArc
 50
180.0
 51
262.4640906577202
  0
ARC
  5
530
330
2
100
AcDbEntity
  8
4
100
AcDbCircle
 10
1573.782993747822
 20
493.9342051171493
 30
0.0
 40
8.0
100
AcDbArc
 50
7.964795999999392
 51
82.0352040000006
  0
LINE
  5
531
330
2
100
AcDbEntity
  8
4
100
AcDbLine
 10
1562.445553747821
 20
555.5827784191506
 30
0.0
 11
1562.445553747822
 21
517.328110426784
 31
0.0
  0
ARC
  5
532
330
2
100
AcDbEntity
  8
4
100
AcDbCircle
 10
1547.445553747822
 20
526.5967651171491
 30
0.0
 40
5.0
100
AcDbArc
 50
270.0
 51
0.0
  0
ARC
  5
533
330
2
100
AcDbEntity
  8
4
100
AcDbCircle
 10
1597.361868747822
 20
491.1859051171486
 30
0.0
 40
10.0
100
AcDbArc
 50
187.4022570000004
 51
260.1846649999985
  0
LINE
  5
534
330
2
100
AcDbEntity
  8
4
100
AcDbLine
 10
1582.445553747822
 20
615.5967651171491
 30
0.0
 11
1622.445553747822
 21
615.5967651171491
 31
0.0
  0
ARC
  5
535
330
2
100
AcDbEntity
  8
4
100
AcDbCircle
 10
1547.445553747822
 20
562.5967651171486
 30
0.0
 40
5.0
100
AcDbArc
 50
0.0
 51
90.0
  0
LINE
  5
536
330
2
100
AcDbEntity
  8
4
100
AcDbLine
 10
1582.445553747822
 20
615.5967651171491
 30
0.0
 11
1582.445553747822
 21
615.1788401171498
 31
0.0
  0
ARC
  5
537
330
2
100
AcDbEntity
  8
4
100
AcDbCircle
 10
1580.945553747822
 20
615.1788401171498
 30
0.0
 40
1.5
100
AcDbArc
 50
264.930305
 51
0.0
  0
LINE
  5
538
330
2
100
AcDbEntity
  8
4
100
AcDbLine
 10
1613.282478747822
 20
626.8521351171503
 30
0.0
 11
1602.445553747822
 21
628.0967651171491
 31
0.0
  0
LINE
  5
539
330
2
100
AcDbEntity
  8
4
100
AcDbLine
 10
1614.194833747822
 20
626.5967651171504
 30
0.0
 11
1590.696273747822
 21
626.5967651171504
 31
0.0
  0
LINE
  5
53A
330
2
100
AcDbEntity
  8
4
100
AcDbLine
 10
1587.445553747822
 20
615.5967651171491
 30
0.0
 11
1588.996508747822
 21
624.3926701171486
 31
0.0
  0
ARC
  5
53B
330
2
100
AcDbEntity
  8
4
100
AcDbCircle
 10
1582.577503747822
 20
616.7825251171498
 30
0.0
 40
5.0
100
AcDbArc
 50
350.0000000000003
 51
55.41288500000426
  0
ARC
  5
53C
330
2
100
AcDbEntity
  8
4
100
AcDbCircle
 10
1591.950933747823
 20
623.8717251171502
 30
0.0
 40
3.0
100
AcDbArc
 50
96.55176900000414
 51
169.9999999999946
  0
LINE
  5
53D
330
2
100
AcDbEntity
  8
4
100
AcDbLine
 10
1602.445553747822
 20
628.0967651171491
 30
0.0
 11
1591.608628747822
 21
626.8521351171503
 31
0.0
  0
LINE
  5
53E
330
2
100
AcDbEntity
  8
4
100
AcDbLine
 10
1622.445553747822
 20
615.5967651171491
 30
0.0
 11
1622.445553747822
 21
611.7396101171485
 31
0.0
  0
LINE
  5
53F
330
2
100
AcDbEntity
  8
4
100
AcDbLine
 10
1617.445553747822
 20
615.5967651171491
 30
0.0
 11
1615.894598747822
 21
624.3926701171486
 31
0.0
  0
ARC
  5
540
330
2
100
AcDbEntity
  8
4
100
AcDbCircle
 10
1622.313603747822
 20
616.7825251171498
 30
0.0
 40
5.0
100
AcDbArc
 50
124.5871149999957
 51
189.9999999999997
  0
ARC
  5
541
330
2
100
AcDbEntity
  8
4
100
AcDbCircle
 10
1612.940173747822
 20
623.8717251171502
 30
0.0
 40
3.0
100
AcDbArc
 50
10.00000000000544
 51
83.44823099999586
  0
ARC
  5
542
330
2
100
AcDbEntity
  8
4
100
AcDbCircle
 10
1639.660693747822
 20
477.7788401171498
 30
0.0
 40
4.0
100
AcDbArc
 50
260.1846649999958
 51
23.88220499999908
  0
ARC
  5
543
330
2
100
AcDbEntity
  8
4
100
AcDbCircle
 10
1675.467948747822
 20
595.6191601171499
 30
0.0
 40
5.0
100
AcDbArc
 50
10.59946099999684
 51
79.40053899999803
  0
LINE
  5
545
330
2
100
AcDbEntity
  8
L-CENTER
 48
5.0
100
AcDbLine
 10
1644.507443747822
 20
645.5967651171491
 30
0.0
 11
1560.383663747822
 21
645.5967651171491
 31
0.0
  0
TEXT
  5
5BD
330
2
100
AcDbEntity
  8
L-CENTER
100
AcDbText
 10
885.0734153056803
 20
129.2418388088457
 30
0.0
 40
17.49999997229166
  1

  7
KANJI
100
AcDbText
  0
LINE
  5
1EA7
330
2
100
AcDbEntity
  8
4
 48
5.0
100
AcDbLine
 10
679.0323553747708
 20
72.59676511714963
 30
0.0
 11
679.0323553747708
 21
32.59676511714963
 31
0.0
  0
LINE
  5
1EBF
330
2
100
AcDbEntity
  8
4
100
AcDbLine
 10
262.0323553747712
 20
371.0967651171496
 30
0.0
 11
261.0323553747712
 21
372.0967651171496
 31
0.0
  0
LINE
  5
1EC0
330
2
100
AcDbEntity
  8
4
100
AcDbLine
 10
262.0323553747712
 20
371.0967651171487
 30
0.0
 11
262.0323553747712
 21
454.0967651171496
 31
0.0
  0
LINE
  5
1EC1
330
2
100
AcDbEntity
  8
4
100
AcDbLine
 10
261.0323553747712
 20
453.0967651171496
 30
0.0
 11
262.0323553747712
 21
454.0967651171496
 31
0.0
  0
LINE
  5
1EC5
330
2
100
AcDbEntity
  8
L-CENTER
 48
5.0
100
AcDbLine
 10
417.0323553747712
 20
451.5319599775304
 30
0.0
 11
417.0323553747712
 21
391.8684232566177
 31
0.0
  0
CIRCLE
  5
1EC9
330
2
100
AcDbEntity
  8
4
100
AcDbCircle
 10
1492.445553747822
 20
67.59676511714963
 30
0.0
 40
11.0
  0
ARC
  5
1ECD
330
2
100
AcDbEntity
  8
4
100
AcDbCircle
 10
379.0323553747712
 20
69.59676511714963
 30
0.0
 40
3.0
100
AcDbArc
 50
90.0
 51
180.0
  0
ARC
  5
1ECE
330
2
100
AcDbEntity
  8
4
100
AcDbCircle
 10
723.0323553747712
 20
69.59676511714963
 30
0.0
 40
3.0
100
AcDbArc
 50
0.0
 51
90.0
  0
SPLINE
  5
1ECF
330
2
100
AcDbEntity
  8
2
100
AcDbSpline
210
0.0
220
0.0
230
1.0
 70
     8
 71
     3
 72
    10
 73
     6
 74
     0
 42
0.000000001
 43
0.0
 40
5.189765276570789
 40
5.189765276570789
 40
5.189765276570789
 40
5.189765276570789
 40
17.60560505195809
 40
35.76236308633528
 40
46.72534651391584
 40
46.72534651391584
 40
46.72534651391584
 40
46.72534651391584
 10
664.5344907322415
 20
72.59676511720977
 30
0.0
 10
665.8165614934322
 20
68.53072001590988
 30
0.0
 10
669.3420362022478
 20
58.53064131897941
 30
0.0
 10
659.0842140386573
 20
45.54653171033112
 30
0.0
 10
662.4360138859372
 20
36.09185719024231
 30
0.0
 10
663.9206869134845
 20
32.59676511714963
 30
0.0
  0
LINE
  5
1ED7
330
2
100
AcDbEntity
  8
L-CENTER
 48
5.0
100
AcDbLine
 10
1089.844713867718
 20
331.6345501171501
 30
0.0
 11
1144.73651162543
 21
331.6345501171501
 31
0.0
  0
LINE
  5
1ED8
330
2
100
AcDbEntity
  8
L-CENTER
 48
5.0
100
AcDbLine
 10
1730.346393627926
 20
265.3836068915217
 30
0.0
 11
1675.454595870214
 21
265.3836068915217
 31
0.0
  0
LINE
  5
1ED9
330
2
100
AcDbEntity
  8
L-CENTER
 48
5.0
100
AcDbLine
 10
1730.346393627926
 20
139.8099233427776
 30
0.0
 11
1675.454595870214
 21
139.8099233427776
 31
0.0
  0
LINE
  5
1EDB
330
2
100
AcDbEntity
  8
L-CENTER
 48
5.0
100
AcDbLine
 10
1089.844713867718
 20
73.55898011714919
 30
0.0
 11
1144.73651162543
 21
73.55898011714919
 31
0.0
  0
LINE
  5
1EEE
330
2
100
AcDbEntity
  8
L-CENTER
 48
5.0
100
AcDbLine
 10
409.4315154946676
 20
1588.280401523377
 30
0.0
 11
464.3233132523794
 21
1588.280401523377
 31
0.0
  0
LINE
  5
1EEF
330
2
100
AcDbEntity
  8
L-CENTER
 48
5.0
100
AcDbLine
 10
409.4315154946676
 20
1496.280401523377
 30
0.0
 11
464.3233132523794
 21
1496.280401523377
 31
0.0
  0
LINE
  5
1EF0
330
2
100
AcDbEntity
  8
L-CENTER
 48
5.0
100
AcDbLine
 10
409.4315154946676
 20
1220.280401523376
 30
0.0
 11
464.3233132523794
 21
1220.280401523376
 31
0.0
  0
LINE
  5
1EF1
330
2
100
AcDbEntity
  8
L-CENTER
 48
5.0
100
AcDbLine
 10
409.4315154946676
 20
1312.280401523377
 30
0.0
 11
464.3233132523794
 21
1312.280401523377
 31
0.0
  0
LINE
  5
1EF2
330
2
100
AcDbEntity
  8
L-CENTER
 48
5.0
100
AcDbLine
 10
478.5323553747712
 20
1642.181241403482
 30
0.0
 11
478.5323553747712
 21
1587.28944364577
 31
0.0
  0
LINE
  5
1EF3
330
2
100
AcDbEntity
  8
L-CENTER
 48
5.0
100
AcDbLine
 10
514.7823553747712
 20
1642.181241403482
 30
0.0
 11
514.7823553747712
 21
1587.28944364577
 31
0.0
  0
LINE
  5
1EF4
330
2
100
AcDbEntity
  8
L-CENTER
 48
5.0
100
AcDbLine
 10
623.5323553747712
 20
1642.181241403482
 30
0.0
 11
623.5323553747712
 21
1587.28944364577
 31
0.0
  0
LINE
  5
1EF5
330
2
100
AcDbEntity
  8
L-CENTER
 48
5.0
100
AcDbLine
 10
587.2823553747712
 20
1642.181241403482
 30
0.0
 11
587.2823553747712
 21
1587.28944364577
 31
0.0
  0
LINE
  5
1EF6
330
2
100
AcDbEntity
  8
L-CENTER
 48
5.0
100
AcDbLine
 10
402.0323553747708
 20
1001.679561643272
 30
0.0
 11
402.0323553747708
 21
1056.571359400984
 31
0.0
  0
LINE
  5
1EF7
330
2
100
AcDbEntity
  8
L-CENTER
 48
5.0
100
AcDbLine
 10
476.5323556627845
 20
1001.679561643272
 30
0.0
 11
476.5323556627845
 21
1056.571359400984
 31
0.0
  0
LINE
  5
1EF8
330
2
100
AcDbEntity
  8
L-CENTER
 48
5.0
100
AcDbLine
 10
700.0323553747708
 20
1001.679561643272
 30
0.0
 11
700.0323553747708
 21
1056.571359400984
 31
0.0
  0
LINE
  5
1EF9
330
2
100
AcDbEntity
  8
L-CENTER
 48
5.0
100
AcDbLine
 10
625.532355086757
 20
1001.679561643272
 30
0.0
 11
625.532355086757
 21
1056.571359400984
 31
0.0
  0
ARC
  5
1EFE
330
2
100
AcDbEntity
  8
4
100
AcDbCircle
 10
453.0323553747717
 20
1606.280401523376
 30
0.0
 40
3.0
100
AcDbArc
 50
90.0
 51
180.0
  0
ARC
  5
1EFF
330
2
100
AcDbEntity
  8
4
100
AcDbCircle
 10
649.0323553747712
 20
1606.280401523376
 30
0.0
 40
3.0
100
AcDbArc
 50
0.0
 51
90.0
  0
ARC
  5
1F00
330
2
100
AcDbEntity
  8
4
100
AcDbCircle
 10
670.0323553747712
 20
1598.780401523378
 30
0.0
 40
3.0
100
AcDbArc
 50
0.0
 51
90.0
  0
ARC
  5
1F01
330
2
100
AcDbEntity
  8
4
100
AcDbCircle
 10
670.0323553747708
 20
1209.780401523377
 30
0.0
 40
3.0
100
AcDbArc
 50
270.0
 51
0.0
  0
ARC
  5
1F02
330
2
100
AcDbEntity
  8
4
100
AcDbCircle
 10
712.0323553747708
 20
1071.280401523377
 30
0.0
 40
3.0
100
AcDbArc
 50
0.0
 51
90.0
  0
ARC
  5
1F03
330
2
100
AcDbEntity
  8
4
100
AcDbCircle
 10
390.0323553747708
 20
1071.280401523377
 30
0.0
 40
3.0
100
AcDbArc
 50
90.0
 51
180.0
  0
ARC
  5
1F04
330
2
100
AcDbEntity
  8
4
100
AcDbCircle
 10
428.0323553747712
 20
603.5967651171504
 30
0.0
 40
3.0
100
AcDbArc
 50
90.0
 51
180.0
  0
ARC
  5
1F05
330
2
100
AcDbEntity
  8
4
100
AcDbCircle
 10
670.0323553747717
 20
607.0967651171495
 30
0.0
 40
3.0
100
AcDbArc
 50
0.0
 51
90.0
  0
ARC
  5
1F06
330
2
100
AcDbEntity
  8
4
100
AcDbCircle
 10
649.0323553747712
 20
611.385572144435
 30
0.0
 40
3.0
100
AcDbArc
 50
0.0
 51
86.24648983592316
  0
ARC
  5
1F07
330
2
100
AcDbEntity
  8
4
100
AcDbCircle
 10
453.0323553747712
 20
611.3855721444347
 30
0.0
 40
3.0
100
AcDbArc
 50
93.75351016407359
 51
180.0
  0
ARC
  5
1F08
330
2
100
AcDbEntity
  8
4
100
AcDbCircle
 10
1106.445553747822
 20
363.0967651171496
 30
0.0
 40
2.0
100
AcDbArc
 50
90.0
 51
180.0
  0
ARC
  5
1F09
330
2
100
AcDbEntity
  8
4
100
AcDbCircle
 10
1106.445553747822
 20
42.09676511714963
 30
0.0
 40
2.0
100
AcDbArc
 50
180.0
 51
270.0
  0
ARC
  5
1F0A
330
2
100
AcDbEntity
  8
4
100
AcDbCircle
 10
1159.445553747822
 20
41.59676511714872
 30
0.0
 40
3.0
100
AcDbArc
 50
270.0
 51
0.0
  0
ARC
  5
1F10
330
2
100
AcDbEntity
  8
4
100
AcDbCircle
 10
733.032355374771
 20
1404.280401523377
 30
0.0
 40
12.0
100
AcDbArc
 50
90.0
 51
270.0000000000005
  0
LINE
  5
1F11
330
2
100
AcDbEntity
  8
4
100
AcDbLine
 10
840.032355374771
 20
1445.780401523378
 30
0.0
 11
712.032355374771
 21
1445.780401523377
 31
0.0
  0
LINE
  5
1F12
330
2
100
AcDbEntity
  8
4
100
AcDbLine
 10
840.0323553747712
 20
1362.780401523378
 30
0.0
 11
712.0323553747712
 21
1362.780401523377
 31
0.0
  0
LINE
  5
1F13
330
2
100
AcDbEntity
  8
4
100
AcDbLine
 10
841.0323553747712
 20
1363.780401523378
 30
0.0
 11
841.032355374771
 21
1444.780401523378
 31
0.0
  0
LINE
  5
1F14
330
2
100
AcDbEntity
  8
4
100
AcDbLine
 10
733.0323553747711
 20
1392.280401523377
 30
0.0
 11
841.0323553747711
 21
1392.280401523378
 31
0.0
  0
LINE
  5
1F15
330
2
100
AcDbEntity
  8
4
100
AcDbLine
 10
840.0323553747712
 20
1362.780401523378
 30
0.0
 11
840.0323553747711
 21
1392.280401523378
 31
0.0
  0
LINE
  5
1F16
330
2
100
AcDbEntity
  8
4
100
AcDbLine
 10
840.0323553747712
 20
1362.780401523378
 30
0.0
 11
841.0323553747712
 21
1363.780401523378
 31
0.0
  0
LINE
  5
1F17
330
2
100
AcDbEntity
  8
4
100
AcDbLine
 10
733.032355374771
 20
1416.280401523377
 30
0.0
 11
841.032355374771
 21
1416.280401523378
 31
0.0
  0
LINE
  5
1F18
330
2
100
AcDbEntity
  8
4
100
AcDbLine
 10
840.032355374771
 20
1416.280401523378
 30
0.0
 11
840.032355374771
 21
1445.780401523378
 31
0.0
  0
LINE
  5
1F19
330
2
100
AcDbEntity
  8
4
100
AcDbLine
 10
841.032355374771
 20
1444.780401523378
 30
0.0
 11
840.032355374771
 21
1445.780401523378
 31
0.0
  0
LINE
  5
1F1A
330
2
100
AcDbEntity
  8
4
100
AcDbLine
 10
711.0323553747712
 20
1361.780401523377
 30
0.0
 11
711.032355374771
 21
1446.780401523377
 31
0.0
  0
LINE
  5
1F1B
330
2
100
AcDbEntity
  8
4
100
AcDbLine
 10
684.0323553747714
 20
1459.280401523377
 30
0.0
 11
684.0323553747717
 21
1349.280401523377
 31
0.0
  0
LINE
  5
1F1C
330
2
100
AcDbEntity
  8
4
100
AcDbLine
 10
684.0323553747717
 20
1361.780401523377
 30
0.0
 11
711.0323553747712
 21
1361.780401523377
 31
0.0
  0
ARC
  5
1F1D
330
2
100
AcDbEntity
  8
4
100
AcDbCircle
 10
712.0323553747712
 20
1361.780401523377
 30
0.0
 40
1.0
100
AcDbArc
 50
90.0
 51
180.0
  0
LINE
  5
1F1E
330
2
100
AcDbEntity
  8
4
100
AcDbLine
 10
684.0323553747717
 20
1349.280401523377
 30
0.0
 11
683.0323553747712
 21
1349.280401523377
 31
0.0
  0
LINE
  5
1F1F
330
2
100
AcDbEntity
  8
4
100
AcDbLine
 10
684.0323553747714
 20
1446.780401523377
 30
0.0
 11
711.032355374771
 21
1446.780401523377
 31
0.0
  0
ARC
  5
1F20
330
2
100
AcDbEntity
  8
4
100
AcDbCircle
 10
712.032355374771
 20
1446.780401523377
 30
0.0
 40
1.0
100
AcDbArc
 50
180.0
 51
270.0
  0
LINE
  5
1F21
330
2
100
AcDbEntity
  8
4
100
AcDbLine
 10
684.0323553747714
 20
1459.280401523377
 30
0.0
 11
683.032355374771
 21
1459.280401523377
 31
0.0
  0
LINE
  5
1F23
330
2
100
AcDbEntity
  8
4
100
AcDbLine
 10
840.0323553747703
 20
454.0967651171505
 30
0.0
 11
711.0323553747712
 21
454.0967651171505
 31
0.0
  0
LINE
  5
1F24
330
2
100
AcDbEntity
  8
4
100
AcDbLine
 10
840.0323553747703
 20
371.0967651171487
 30
0.0
 11
711.0323553747712
 21
371.0967651171487
 31
0.0
  0
LINE
  5
1F25
330
2
100
AcDbEntity
  8
4
100
AcDbLine
 10
841.0323553747712
 20
464.0967651171505
 30
0.0
 11
721.0323553747712
 21
464.0967651171505
 31
0.0
  0
LINE
  5
1F26
330
2
100
AcDbEntity
  8
4
100
AcDbLine
 10
841.0323553747712
 20
464.0967651171505
 30
0.0
 11
841.0323553747712
 21
372.0967651171496
 31
0.0
  0
LINE
  5
1F27
330
2
100
AcDbEntity
  8
4
100
AcDbLine
 10
711.0323553747712
 20
455.0967651171496
 30
0.0
 11
711.0323553747712
 21
370.0967651171496
 31
0.0
  0
LINE
  5
1F29
330
2
100
AcDbEntity
  8
4
100
AcDbLine
 10
711.0323553747712
 20
455.0967651171496
 30
0.0
 11
684.0323553747717
 21
455.0967651171496
 31
0.0
  0
LINE
  5
1F2A
330
2
100
AcDbEntity
  8
4
100
AcDbLine
 10
721.0323553747712
 20
464.0967651171505
 30
0.0
 11
721.0323553747712
 21
454.0967651171505
 31
0.0
  0
LINE
  5
1F2B
330
2
100
AcDbEntity
  8
4
100
AcDbLine
 10
684.0323553747717
 20
467.5967651171496
 30
0.0
 11
683.0323553747717
 21
467.5967651171496
 31
0.0
  0
LINE
  5
1F2C
330
2
100
AcDbEntity
  8
4
100
AcDbLine
 10
684.0323553747717
 20
446.5966821171488
 30
0.0
 11
684.0323553747717
 21
467.5967651171496
 31
0.0
  0
LINE
  5
1F2D
330
2
100
AcDbEntity
  8
4
100
AcDbLine
 10
840.0323553747712
 20
371.0967651171496
 30
0.0
 11
841.0323553747712
 21
372.0967651171496
 31
0.0
  0
LINE
  5
1F2E
330
2
100
AcDbEntity
  8
4
100
AcDbLine
 10
840.0323553747712
 20
371.0967651171487
 30
0.0
 11
840.0323553747712
 21
454.0967651171496
 31
0.0
  0
LINE
  5
1F2F
330
2
100
AcDbEntity
  8
4
100
AcDbLine
 10
841.0323553747712
 20
453.0967651171496
 30
0.0
 11
840.0323553747712
 21
454.0967651171496
 31
0.0
  0
CIRCLE
  5
1F5A
330
2
100
AcDbEntity
  8
4
100
AcDbCircle
 10
1492.445553747822
 20
412.5967651171496
 30
0.0
 40
55.0
  0
ARC
  5
1F5B
330
2
100
AcDbEntity
  8
4
100
AcDbCircle
 10
1492.445553747822
 20
412.5967651171495
 30
0.0
 40
41.5
100
AcDbArc
 50
106.8074712234167
 51
73.1925289999998
  0
LINE
  5
1F5C
330
2
100
AcDbEntity
  8
4
100
AcDbLine
 10
1504.445553747822
 20
446.0967651171509
 30
0.0
 11
1504.445553747822
 21
462.09676511715
 31
0.0
  0
LINE
  5
1F5D
330
2
100
AcDbEntity
  8
4
100
AcDbLine
 10
1480.445553747822
 20
446.0967651171509
 30
0.0
 11
1480.445553747822
 21
462.09676511715
 31
0.0
  0
LINE
  5
1F5E
330
2
100
AcDbEntity
  8
4
100
AcDbLine
 10
1480.445553747822
 20
446.0967651171509
 30
0.0
 11
1504.445553747822
 21
446.0967651171509
 31
0.0
  0
LINE
  5
1F5F
330
2
100
AcDbEntity
  8
4
100
AcDbLine
 10
1480.445553747822
 20
462.09676511715
 30
0.0
 11
1504.445553747822
 21
462.09676511715
 31
0.0
  0
LINE
  5
1F6D
330
2
100
AcDbEntity
  8
4
100
AcDbLine
 10
371.0323553747712
 20
369.5967651171501
 30
0.0
 11
292.0323553747721
 21
369.5967651171501
 31
0.0
  0
LINE
  5
1F6E
330
2
100
AcDbEntity
  8
4
100
AcDbLine
 10
366.0323553747712
 20
373.0967651171492
 30
0.0
 11
291.0323553747712
 21
373.0967651171492
 31
0.0
  0
LINE
  5
1F6F
330
2
100
AcDbEntity
  8
4
100
AcDbLine
 10
371.0323553747712
 20
331.5967651171505
 30
0.0
 11
292.0323553747698
 21
331.5967651171505
 31
0.0
  0
LINE
  5
1F70
330
2
100
AcDbEntity
  8
4
100
AcDbLine
 10
399.0323553747708
 20
370.5967651171492
 30
0.0
 11
371.0323553747712
 21
370.5967651171492
 31
0.0
  0
LINE
  5
1F71
330
2
100
AcDbEntity
  8
4
100
AcDbLine
 10
399.0323553747708
 20
330.5967651171492
 30
0.0
 11
371.0323553747712
 21
330.5967651171492
 31
0.0
  0
LINE
  5
1F72
330
2
100
AcDbEntity
  8
4
100
AcDbLine
 10
371.0323553747712
 20
370.5967651171492
 30
0.0
 11
371.0323553747712
 21
330.5967651171492
 31
0.0
  0
LINE
  5
1F73
330
2
100
AcDbEntity
  8
4
100
AcDbLine
 10
366.0323553747712
 20
373.0967651171492
 30
0.0
 11
366.0323553747712
 21
369.5967651171501
 31
0.0
  0
LINE
  5
1F74
330
2
100
AcDbEntity
  8
4
100
AcDbLine
 10
291.0323553747712
 20
373.0967651171492
 30
0.0
 11
291.0323553747712
 21
332.5967651171492
 31
0.0
  0
LINE
  5
1F75
330
2
100
AcDbEntity
  8
4
100
AcDbLine
 10
291.0323553747712
 20
332.5967651171492
 30
0.0
 11
292.0323553747712
 21
331.5967651171492
 31
0.0
  0
LINE
  5
1F76
330
2
100
AcDbEntity
  8
4
100
AcDbLine
 10
292.0323553747712
 20
369.5967651171492
 30
0.0
 11
292.0323553747712
 21
331.5967651171505
 31
0.0
  0
LINE
  5
1F77
330
2
100
AcDbEntity
  8
4
100
AcDbLine
 10
292.0323553747712
 20
369.5967651171492
 30
0.0
 11
291.0323553747712
 21
368.5967651171492
 31
0.0
  0
LINE
  5
1F79
330
2
100
AcDbEntity
  8
4
100
AcDbLine
 10
366.0323553747712
 20
371.0967651171487
 30
0.0
 11
391.0323553747712
 21
371.0967651171487
 31
0.0
  0
LINE
  5
1F89
330
2
100
AcDbEntity
  8
4
100
AcDbLine
 10
370.0323553747705
 20
1133.280401523377
 30
0.0
 11
292.0323553747705
 21
1133.280401523378
 31
0.0
  0
LINE
  5
1F8A
330
2
100
AcDbEntity
  8
4
100
AcDbLine
 10
370.0323553747704
 20
1095.280401523377
 30
0.0
 11
292.0323553747704
 21
1095.280401523378
 31
0.0
  0
LINE
  5
1F8B
330
2
100
AcDbEntity
  8
4
100
AcDbLine
 10
361.0323553747704
 20
1119.280401523377
 30
0.0
 11
291.0323553747704
 21
1119.280401523378
 31
0.0
  0
LINE
  5
1F8C
330
2
100
AcDbEntity
  8
4
100
AcDbLine
 10
361.0323553747704
 20
1109.280401523377
 30
0.0
 11
291.0323553747704
 21
1109.280401523378
 31
0.0
  0
LINE
  5
1F8D
330
2
100
AcDbEntity
  8
4
100
AcDbLine
 10
399.0323553747704
 20
1094.280401523377
 30
0.0
 11
371.0323553747704
 21
1094.280401523377
 31
0.0
  0
LINE
  5
1F8E
330
2
100
AcDbEntity
  8
4
100
AcDbLine
 10
399.0323553747705
 20
1134.280401523377
 30
0.0
 11
371.0323553747705
 21
1134.280401523377
 31
0.0
  0
ARC
  5
1F8F
330
2
100
AcDbEntity
  8
4
100
AcDbCircle
 10
361.0323553747704
 20
1114.280401523377
 30
0.0
 40
5.0
100
AcDbArc
 50
270.0
 51
0.0
  0
ARC
  5
1F90
330
2
100
AcDbEntity
  8
4
100
AcDbCircle
 10
361.0323553747704
 20
1114.280401523377
 30
0.0
 40
5.0
100
AcDbArc
 50
0.0
 51
90.0
  0
LINE
  5
1F91
330
2
100
AcDbEntity
  8
4
100
AcDbLine
 10
371.0323553747705
 20
1134.280401523377
 30
0.0
 11
371.0323553747704
 21
1094.280401523377
 31
0.0
  0
ARC
  5
1F92
330
2
100
AcDbEntity
  8
4
100
AcDbCircle
 10
370.0323553747704
 20
1094.280401523377
 30
0.0
 40
1.0
100
AcDbArc
 50
0.0
 51
90.0
  0
ARC
  5
1F93
330
2
100
AcDbEntity
  8
4
100
AcDbCircle
 10
370.0323553747705
 20
1134.280401523377
 30
0.0
 40
1.0
100
AcDbArc
 50
270.0
 51
0.0
  0
LINE
  5
1F94
330
2
100
AcDbEntity
  8
4
100
AcDbLine
 10
366.0323553747704
 20
1114.280401523377
 30
0.0
 11
366.0323553747704
 21
1114.280401523377
 31
0.0
  0
LINE
  5
1F95
330
2
100
AcDbEntity
  8
4
100
AcDbLine
 10
291.0323553747705
 20
1132.280401523378
 30
0.0
 11
291.0323553747704
 21
1096.280401523378
 31
0.0
  0
LINE
  5
1F96
330
2
100
AcDbEntity
  8
4
100
AcDbLine
 10
292.0323553747704
 20
1109.280401523378
 30
0.0
 11
292.0323553747704
 21
1095.280401523378
 31
0.0
  0
LINE
  5
1F97
330
2
100
AcDbEntity
  8
4
100
AcDbLine
 10
291.0323553747704
 20
1096.280401523378
 30
0.0
 11
292.0323553747704
 21
1095.280401523378
 31
0.0
  0
LINE
  5
1F98
330
2
100
AcDbEntity
  8
4
100
AcDbLine
 10
292.0323553747705
 20
1133.280401523378
 30
0.0
 11
292.0323553747704
 21
1119.280401523378
 31
0.0
  0
LINE
  5
1F99
330
2
100
AcDbEntity
  8
4
100
AcDbLine
 10
292.0323553747705
 20
1133.280401523378
 30
0.0
 11
291.0323553747705
 21
1132.280401523378
 31
0.0
  0
LINE
  5
1F9D
330
2
100
AcDbEntity
  8
4
100
AcDbLine
 10
711.0323553747712
 20
370.0967651171496
 30
0.0
 11
703.0323553747717
 21
370.0967651171496
 31
0.0
  0
LINE
  5
1F9E
330
2
100
AcDbEntity
  8
4
100
AcDbLine
 10
703.0323553747717
 20
1129.280401523376
 30
0.0
 11
721.0323553747712
 21
1129.280401523376
 31
0.0
  0
ARC
  5
1F9F
330
2
100
AcDbEntity
  8
4
100
AcDbCircle
 10
721.0323553747712
 20
1134.280401523376
 30
0.0
 40
5.0
100
AcDbArc
 50
270.0
 51
0.0
  0
ENDSEC
  0
SECTION
  2
OBJECTS
  0
DICTIONARY
  5
7
330
0
100
AcDbDictionary
281
     1
  3
ACAD_COLOR
350
642
  3
ACAD_GROUP
350
1F
  3
ACAD_LAYOUT
350
B
  3
ACAD_MATERIAL
350
634
  3
ACAD_MLEADERSTYLE
350
638
  3
ACAD_MLINESTYLE
350
20
  3
ACAD_PLOTSETTINGS
350
21
  3
ACAD_PLOTSTYLENAME
350
6
  3
ACAD_SCALELIST
350
612
  3
ACAD_TABLESTYLE
350
63A
  3
ACAD_VISUALSTYLE
350
5F9
  3
ACDBHEADERROUNDTRIPXREC
350
1FA7
  3
AcDbVariableDictionary
350
549
  3
DWGPROPS
350
1FAA
  0
DICTIONARY
  5
1FAB
330
19
100
AcDbDictionary
280
     1
281
     1
  3
ACAD_XREC_ROUNDTRIP
360
1FAC
  0
DICTIONARY
  5
652
330
651
100
AcDbDictionary
280
     1
281
     1
  3
ADSK_XREC_LAYER_RECONCILED
360
653
  0
DICTIONARY
  5
658
330
657
100
AcDbDictionary
280
     1
281
     1
  3
ADSK_XREC_LAYER_RECONCILED
360
659
  0
DICTIONARY
  5
1ECA
330
2
100
AcDbDictionary
280
     1
281
     1
  3
ACAD_SORTENTS
360
1ECB
  0
DICTIONARY
  5
642
102
{ACAD_REACTORS
330
7
102
}
330
7
100
AcDbDictionary
281
     1
  0
DICTIONARY
  5
1F
102
{ACAD_REACTORS
330
7
102
}
330
7
100
AcDbDictionary
281
     1
  0
DICTIONARY
  5
B
102
{ACAD_REACTORS
330
7
102
}
330
7
100
AcDbDictionary
281
     1
  3
Model
350
A
  3
ﾚｲｱｳﾄ1
350
F
  0
DICTIONARY
  5
634
102
{ACAD_REACTORS
330
7
102
}
330
7
100
AcDbDictionary
281
     1
  3
ByBlock
350
636
  3
ByLayer
350
635
  3
Global
350
637
  0
DICTIONARY
  5
638
102
{ACAD_REACTORS
330
7
102
}
330
7
100
AcDbDictionary
281
     1
  3
Standard
350
664
  0
DICTIONARY
  5
20
102
{ACAD_REACTORS
330
7
102
}
330
7
100
AcDbDictionary
281
     1
  3
STANDARD
350
24
  0
DICTIONARY
  5
21
102
{ACAD_REACTORS
330
7
102
}
330
7
100
AcDbDictionary
281
     1
  0
ACDBDICTIONARYWDFLT
  5
6
102
{ACAD_REACTORS
330
7
102
}
330
7
100
AcDbDictionary
281
     1
  3
Normal
350
5
100
AcDbDictionaryWithDefault
340
5
  0
DICTIONARY
  5
612
102
{ACAD_REACTORS
330
7
102
}
330
7
100
AcDbDictionary
281
     1
  3
A0
350
613
  3
A1
350
614
  3
A2
350
615
  3
A3
350
616
  3
A4
350
617
  3
A5
350
618
  3
A6
350
619
  3
A7
350
61A
  3
A8
350
61B
  3
A9
350
61C
  3
B0
350
61D
  3
B1
350
61E
  3
B2
350
61F
  3
B3
350
620
  3
B4
350
621
  3
B5
350
622
  3
B6
350
623
  3
B7
350
624
  3
B8
350
625
  3
B9
350
626
  3
C0
350
627
  3
C1
350
628
  3
C2
350
629
  3
C3
350
62A
  3
C4
350
62B
  3
C5
350
62C
  3
C6
350
62D
  3
C7
350
62E
  3
C8
350
62F
  3
C9
350
630
  3
D0
350
631
  3
D1
350
632
  3
D2
350
633
  0
DICTIONARY
  5
63A
102
{ACAD_REACTORS
330
7
102
}
330
7
100
AcDbDictionary
281
     1
  3
Standard
350
663
  0
DICTIONARY
  5
5F9
102
{ACAD_REACTORS
330
7
102
}
330
7
100
AcDbDictionary
281
     1
  3
2dWireframe
350
5FE
  3
Basic
350
601
  3
Brighten
350
605
  3
ColorChange
350
609
  3
Conceptual
350
603
  3
Dim
350
604
  3
EdgeColorOff
350
60C
  3
Facepattern
350
608
  3
Flat
350
5FA
  3
FlatWithEdges
350
5FB
  3
Gouraud
350
5FC
  3
GouraudWithEdges
350
5FD
  3
Hidden
350
600
  3
JitterOff
350
60A
  3
Linepattern
350
607
  3
OverhangOff
350
60B
  3
Realistic
350
602
  3
Shaded
350
611
  3
Shaded with edges
350
610
  3
Shades of Gray
350
60D
  3
Sketchy
350
60E
  3
Thicken
350
606
  3
Wireframe
350
5FF
  3
X-Ray
350
60F
  0
DICTIONARY
  5
1FA7
102
{ACAD_REACTORS
330
7
102
}
330
7
100
AcDbDictionary
281
     1
  3
COLORDICT
350
1FA8
  3
MATERIALDICT
350
1FA9
  0
DICTIONARY
  5
549
102
{ACAD_REACTORS
330
7
102
}
330
7
100
AcDbDictionary
281
     1
  3
CANNOSCALE
350
639
  3
CTABLESTYLE
350
1F0B
  3
DIMASSOC
350
54B
  3
HIDETEXT
350
54A
  3
MSLTSCALE
350
63B
  3
XCLIPFRAME
350
63F
  0
XRECORD
  5
1FAA
102
{ACAD_REACTORS
330
7
102
}
330
7
100
AcDbXrecord
280
     1
  1
DWGPROPS COOKIE
  2

  3

  4

  6

  7

  8
sg-d03
  9

300
=
301
=
302
=
303
=
304
=
305
=
306
=
307
=
308
=
309
=
 40
0.0
 41
2457661.154530856
 42
2458124.168554422
  1

 90
        0
  0
XRECORD
  5
1FAC
102
{ACAD_REACTORS
330
1FAB
102
}
330
1FAB
100
AcDbXrecord
280
     1
102
VTR_0.000_0.000_1.000_1.000_GRIDDISPLAY
 70
     3
102
VTR_0.000_0.000_1.000_1.000_GRIDMAJOR
 70
     5
102
VTR_0.000_0.000_1.000_1.000_DEFAULTLIGHTING
280
     1
102
VTR_0.000_0.000_1.000_1.000_DEFAULTLIGHTINGTYPE
 70
     1
102
VTR_0.000_0.000_1.000_1.000_BRIGHTNESS
141
0.0
102
VTR_0.000_0.000_1.000_1.000_CONTRAST
142
0.0
  0
XRECORD
  5
653
102
{ACAD_REACTORS
330
652
102
}
330
652
100
AcDbXrecord
280
     1
290
     1
  0
XRECORD
  5
659
102
{ACAD_REACTORS
330
658
102
}
330
658
100
AcDbXrecord
280
     1
290
     1
  0
SORTENTSTABLE
  5
1ECB
102
{ACAD_REACTORS
330
1ECA
102
}
330
1ECA
100
AcDbSortentsTable
330
2
331
0
  5
DE
331
43
  5
44
331
44
  5
46
331
0
  5
47
331
0
  5
48
331
0
  5
49
331
0
  5
4A
331
0
  5
54
331
0
  5
55
331
0
  5
56
331
0
  5
57
331
0
  5
58
331
0
  5
59
331
0
  5
5A
331
0
  5
5B
331
0
  5
5C
331
0
  5
5D
331
0
  5
5E
331
0
  5
5F
331
0
  5
60
331
0
  5
61
331
60
  5
62
331
61
  5
63
331
62
  5
64
331
63
  5
65
331
64
  5
66
331
0
  5
67
331
66
  5
68
331
0
  5
69
331
68
  5
6A
331
0
  5
6B
331
0
  5
6C
331
0
  5
6D
331
0
  5
6E
331
0
  5
6F
331
6E
  5
70
331
0
  5
71
331
0
  5
72
331
0
  5
73
331
0
  5
74
331
0
  5
75
331
0
  5
76
331
0
  5
77
331
0
  5
78
331
0
  5
79
331
0
  5
7A
331
0
  5
7B
331
0
  5
7C
331
0
  5
7D
331
0
  5
7E
331
0
  5
7F
331
0
  5
80
331
0
  5
81
331
0
  5
82
331
0
  5
83
331
0
  5
84
331
0
  5
85
331
0
  5
86
331
0
  5
87
331
0
  5
88
331
0
  5
89
331
0
  5
8A
331
0
  5
8B
331
0
  5
8C
331
0
  5
8D
331
0
  5
8E
331
0
  5
8F
331
0
  5
90
331
0
  5
91
331
0
  5
92
331
0
  5
93
331
0
  5
94
331
0
  5
95
331
0
  5
9B
331
0
  5
9C
331
9B
  5
9D
331
9C
  5
9E
331
9D
  5
9F
331
9E
  5
A0
331
9F
  5
A1
331
A0
  5
A2
331
A1
  5
A3
331
A2
  5
A4
331
A3
  5
A6
331
A4
  5
A9
331
0
  5
AA
331
A6
  5
AB
331
A7
  5
AC
331
A8
  5
AD
331
0
  5
AE
331
AA
  5
AF
331
AB
  5
B0
331
AC
  5
B1
331
0
  5
B2
331
0
  5
B3
331
0
  5
B6
331
0
  5
B7
331
B1
  5
B8
331
B2
  5
B9
331
B3
  5
BA
331
B4
  5
BB
331
B5
  5
BC
331
B6
  5
BD
331
B7
  5
BE
331
B8
  5
BF
331
B9
  5
C0
331
BA
  5
C1
331
BB
  5
C2
331
BC
  5
C3
331
0
  5
C4
331
0
  5
C5
331
BF
  5
C6
331
C0
  5
C7
331
C1
  5
C8
331
C2
  5
C9
331
C3
  5
CA
331
C4
  5
CB
331
C5
  5
CC
331
C6
  5
CD
331
C7
  5
CE
331
C8
  5
CF
331
C9
  5
D0
331
CA
  5
D1
331
CB
  5
D2
331
CC
  5
D3
331
CD
  5
D4
331
CE
  5
D5
331
CF
  5
D6
331
D0
  5
D7
331
D1
  5
D8
331
D2
  5
DB
331
D3
  5
DC
331
D4
  5
DD
331
D6
  5
DF
331
D7
  5
E0
331
D8
  5
E1
331
D9
  5
E2
331
DA
  5
E3
331
DB
  5
E4
331
DC
  5
E5
331
DD
  5
E6
331
DE
  5
E7
331
DF
  5
E8
331
E0
  5
EA
331
E1
  5
EB
331
E2
  5
EC
331
E3
  5
ED
331
E4
  5
EE
331
E6
  5
EF
331
E7
  5
F0
331
E8
  5
F1
331
E9
  5
F2
331
EA
  5
F3
331
EB
  5
F4
331
EC
  5
F5
331
ED
  5
F6
331
EE
  5
F7
331
EF
  5
F8
331
F0
  5
F9
331
F1
  5
FA
331
F2
  5
FB
331
F3
  5
FC
331
F4
  5
FD
331
F5
  5
FE
331
F6
  5
FF
331
F7
  5
100
331
F8
  5
101
331
F9
  5
102
331
FA
  5
103
331
FB
  5
104
331
FC
  5
105
331
FD
  5
106
331
FE
  5
107
331
FF
  5
108
331
100
  5
109
331
101
  5
10A
331
102
  5
10B
331
103
  5
10C
331
104
  5
10D
331
105
  5
10E
331
106
  5
10F
331
107
  5
110
331
108
  5
111
331
109
  5
112
331
0
  5
113
331
0
  5
116
331
0
  5
117
331
0
  5
118
331
0
  5
119
331
0
  5
11A
331
0
  5
11B
331
111
  5
11C
331
112
  5
11D
331
113
  5
11E
331
116
  5
11F
331
0
  5
120
331
0
  5
121
331
0
  5
122
331
0
  5
123
331
0
  5
124
331
0
  5
125
331
0
  5
126
331
11F
  5
128
331
120
  5
129
331
121
  5
12A
331
122
  5
12B
331
123
  5
12C
331
124
  5
12D
331
125
  5
12F
331
126
  5
130
331
127
  5
131
331
128
  5
133
331
129
  5
134
331
12F
  5
138
331
132
  5
13B
331
135
  5
140
331
136
  5
141
331
137
  5
142
331
138
  5
143
331
139
  5
146
331
13A
  5
149
331
13B
  5
14A
331
13C
  5
14B
331
13D
  5
14C
331
13E
  5
14D
331
13F
  5
14E
331
147
  5
152
331
148
  5
153
331
0
  5
155
331
14A
  5
156
331
14B
  5
158
331
14C
  5
15A
331
14D
  5
15B
331
0
  5
15C
331
0
  5
15D
331
0
  5
15E
331
0
  5
15F
331
0
  5
160
331
156
  5
161
331
157
  5
162
331
158
  5
163
331
159
  5
164
331
15A
  5
165
331
15B
  5
166
331
15C
  5
167
331
15D
  5
168
331
15E
  5
169
331
15F
  5
16A
331
160
  5
16B
331
161
  5
16C
331
162
  5
16D
331
163
  5
16E
331
164
  5
16F
331
165
  5
170
331
166
  5
171
331
167
  5
172
331
168
  5
173
331
169
  5
174
331
16A
  5
175
331
16B
  5
176
331
16C
  5
177
331
16D
  5
178
331
16E
  5
179
331
16F
  5
17B
331
170
  5
17E
331
171
  5
17F
331
172
  5
180
331
173
  5
181
331
174
  5
182
331
175
  5
183
331
177
  5
184
331
17A
  5
185
331
17B
  5
186
331
17C
  5
187
331
0
  5
188
331
17E
  5
189
331
17F
  5
18A
331
180
  5
18B
331
181
  5
18C
331
182
  5
18D
331
183
  5
18E
331
184
  5
18F
331
185
  5
190
331
186
  5
191
331
187
  5
192
331
188
  5
193
331
0
  5
194
331
18A
  5
195
331
18B
  5
196
331
18C
  5
197
331
18D
  5
198
331
18E
  5
199
331
18F
  5
19A
331
190
  5
19B
331
191
  5
19C
331
192
  5
19D
331
193
  5
19E
331
194
  5
19F
331
195
  5
1A0
331
196
  5
1A1
331
197
  5
1A2
331
198
  5
1A3
331
199
  5
1A4
331
19A
  5
1A5
331
19B
  5
1A6
331
19C
  5
1A7
331
19D
  5
1A8
331
19E
  5
1A9
331
19F
  5
1AA
331
1A0
  5
1AB
331
1A1
  5
1AC
331
1A2
  5
1AD
331
1A3
  5
1AE
331
1A4
  5
1AF
331
1A5
  5
1B0
331
1A6
  5
1B1
331
1A7
  5
1B2
331
1A8
  5
1B3
331
1A9
  5
1B4
331
1AA
  5
1B5
331
1AB
  5
1B7
331
1AC
  5
1B8
331
1AD
  5
1B9
331
1AE
  5
1BA
331
0
  5
1BB
331
0
  5
1BC
331
0
  5
1BD
331
1B3
  5
1BE
331
1B4
  5
1BF
331
1B5
  5
1C1
331
1B6
  5
1C2
331
1B7
  5
1C3
331
1B8
  5
1C4
331
1B9
  5
1C5
331
1BA
  5
1C6
331
1BB
  5
1C7
331
1BD
  5
1C8
331
1BE
  5
1C9
331
1BF
  5
1CA
331
1C0
  5
1CB
331
1C1
  5
1CC
331
1C2
  5
1CD
331
1C3
  5
1CE
331
1C4
  5
1CF
331
1C5
  5
1D1
331
1C6
  5
1D2
331
1C7
  5
1D3
331
1C8
  5
1D4
331
1C9
  5
1D5
331
1CA
  5
1D6
331
1CB
  5
1D8
331
1CD
  5
1D9
331
1CE
  5
1DA
331
1CF
  5
1DB
331
1D0
  5
1DC
331
1D1
  5
1DD
331
1D2
  5
1DE
331
1D4
  5
1DF
331
1D5
  5
1E0
331
1D6
  5
1E1
331
1D7
  5
1E2
331
1D8
  5
1E3
331
1D9
  5
1E4
331
1DA
  5
1E5
331
1DD
  5
1E8
331
1DE
  5
1E9
331
1DF
  5
1EA
331
1E0
  5
1EB
331
1E1
  5
1EC
331
1E2
  5
1ED
331
1E3
  5
1EE
331
1E4
  5
1EF
331
1E5
  5
1F0
331
1E6
  5
1F1
331
1E7
  5
1F2
331
1E8
  5
1F3
331
1E9
  5
1F4
331
1EA
  5
1F5
331
1EB
  5
1F6
331
1EC
  5
1F7
331
1ED
  5
1F8
331
1EE
  5
1F9
331
1EF
  5
1FA
331
1F0
  5
1FB
331
1F1
  5
1FC
331
1F2
  5
1FE
331
1F3
  5
1FF
331
1F4
  5
200
331
1F5
  5
201
331
1F6
  5
202
331
1F7
  5
203
331
1F8
  5
204
331
1FA
  5
205
331
1FB
  5
206
331
1FC
  5
20A
331
1FD
  5
20B
331
1FE
  5
20C
331
1FF
  5
20D
331
200
  5
20E
331
201
  5
20F
331
202
  5
210
331
0
  5
212
331
207
  5
213
331
208
  5
214
331
209
  5
215
331
20A
  5
216
331
20B
  5
217
331
20C
  5
218
331
20E
  5
219
331
20F
  5
21A
331
210
  5
21B
331
211
  5
21C
331
212
  5
21D
331
213
  5
21E
331
214
  5
21F
331
215
  5
220
331
216
  5
221
331
217
  5
222
331
218
  5
223
331
219
  5
224
331
21E
  5
229
331
21F
  5
22A
331
222
  5
22D
331
223
  5
22E
331
224
  5
22F
331
22B
  5
236
331
22C
  5
237
331
22D
  5
238
331
22E
  5
239
331
234
  5
23F
331
235
  5
240
331
236
  5
241
331
237
  5
242
331
238
  5
243
331
239
  5
245
331
23A
  5
246
331
23B
  5
247
331
23C
  5
248
331
23D
  5
249
331
23E
  5
24A
331
23F
  5
24B
331
241
  5
24C
331
242
  5
24D
331
243
  5
24E
331
244
  5
24F
331
245
  5
250
331
246
  5
251
331
247
  5
252
331
248
  5
253
331
249
  5
254
331
24A
  5
255
331
24B
  5
256
331
24C
  5
258
331
24D
  5
259
331
24E
  5
25A
331
24F
  5
25B
331
250
  5
25C
331
251
  5
25D
331
252
  5
25E
331
254
  5
25F
331
255
  5
260
331
256
  5
261
331
257
  5
262
331
258
  5
263
331
259
  5
264
331
25A
  5
265
331
25B
  5
266
331
25C
  5
267
331
25D
  5
268
331
25E
  5
269
331
25F
  5
26A
331
260
  5
26B
331
261
  5
26C
331
262
  5
26D
331
263
  5
26E
331
264
  5
26F
331
265
  5
270
331
266
  5
271
331
267
  5
272
331
268
  5
273
331
269
  5
274
331
26A
  5
275
331
26B
  5
276
331
26C
  5
277
331
26D
  5
278
331
26E
  5
279
331
26F
  5
27A
331
270
  5
27B
331
271
  5
27C
331
272
  5
27D
331
273
  5
27E
331
274
  5
27F
331
275
  5
280
331
276
  5
281
331
277
  5
282
331
278
  5
283
331
279
  5
284
331
27A
  5
285
331
27B
  5
287
331
27C
  5
288
331
27D
  5
289
331
27E
  5
28A
331
27F
  5
28B
331
280
  5
28C
331
281
  5
28D
331
283
  5
28E
331
284
  5
28F
331
285
  5
290
331
286
  5
291
331
287
  5
292
331
288
  5
293
331
289
  5
294
331
28A
  5
295
331
28B
  5
296
331
28C
  5
297
331
28D
  5
298
331
28E
  5
299
331
28F
  5
29B
331
290
  5
29C
331
291
  5
29D
331
292
  5
29E
331
293
  5
29F
331
294
  5
2A0
331
295
  5
2A1
331
297
  5
2A3
331
298
  5
2A4
331
299
  5
2A5
331
29A
  5
2A6
331
29B
  5
2A7
331
29C
  5
2A8
331
29D
  5
2A9
331
29F
  5
2AA
331
2A0
  5
2AC
331
2A1
  5
2AD
331
2A2
  5
2AE
331
2A3
  5
2AF
331
2A4
  5
2B0
331
2A5
  5
2B1
331
2A6
  5
2B2
331
2A8
  5
2B3
331
2A9
  5
2B4
331
2AA
  5
2B5
331
2AB
  5
2B7
331
2AC
  5
2B8
331
2AD
  5
2B9
331
2AE
  5
2BA
331
2AF
  5
2BB
331
2B0
  5
2BC
331
2B1
  5
2BD
331
2B3
  5
2BE
331
2B4
  5
2BF
331
2B5
  5
2C0
331
2B6
  5
2C1
331
2B7
  5
2C2
331
2B8
  5
2C3
331
2B9
  5
2C4
331
2BA
  5
2C5
331
2BB
  5
2C6
331
2BC
  5
2C7
331
2BD
  5
2C8
331
2BE
  5
2C9
331
2BF
  5
2CA
331
2C0
  5
2CB
331
2C1
  5
2CC
331
2C2
  5
2CD
331
2C3
  5
2CF
331
2C4
  5
2D0
331
2C5
  5
2D1
331
2C6
  5
2D2
331
2C7
  5
2D3
331
2C8
  5
2D4
331
2C9
  5
2D5
331
0
  5
2D6
331
0
  5
2D7
331
0
  5
2D8
331
2CE
  5
2D9
331
2CF
  5
2DA
331
2D0
  5
2DB
331
2D1
  5
2DC
331
2D2
  5
2DD
331
2D3
  5
2DE
331
2D4
  5
2DF
331
2D5
  5
2E0
331
2D6
  5
2E1
331
0
  5
2E2
331
0
  5
2E3
331
2D9
  5
2E4
331
2DA
  5
2E5
331
2DB
  5
2E6
331
2DC
  5
2E7
331
2DD
  5
3C0
331
2DE
  5
3C1
331
2DF
  5
3C2
331
0
  5
3C3
331
0
  5
3C4
331
2E2
  5
3C5
331
0
  5
3C6
331
3BC
  5
3C7
331
3BD
  5
3C8
331
0
  5
3C9
331
3BF
  5
3CA
331
3C0
  5
3CB
331
3C1
  5
3CD
331
3C2
  5
3CE
331
3C3
  5
3CF
331
3C4
  5
3D0
331
3C5
  5
3D1
331
3C6
  5
3D2
331
3C7
  5
3D3
331
3C9
  5
3D4
331
0
  5
3D5
331
0
  5
3D6
331
0
  5
3D7
331
0
  5
3D9
331
0
  5
3DA
331
0
  5
3DB
331
0
  5
3DC
331
0
  5
3DD
331
3D2
  5
3DE
331
3D3
  5
3DF
331
3D5
  5
3E0
331
3D6
  5
3E1
331
3D7
  5
3E2
331
3D8
  5
3E3
331
3D9
  5
3E4
331
3DA
  5
3E5
331
3DB
  5
3E6
331
3DC
  5
3E7
331
3DD
  5
3E8
331
3DE
  5
3E9
331
3DF
  5
3EA
331
3E0
  5
3EB
331
3E1
  5
3EC
331
3E2
  5
3ED
331
3E3
  5
3EE
331
3E4
  5
3EF
331
3E5
  5
3F0
331
3E6
  5
3F1
331
0
  5
3F2
331
0
  5
3F3
331
0
  5
3F4
331
0
  5
3F5
331
0
  5
3F6
331
0
  5
3F7
331
0
  5
3F8
331
0
  5
3F9
331
0
  5
3FA
331
0
  5
3FB
331
0
  5
3FC
331
0
  5
3FD
331
0
  5
3FE
331
3F4
  5
3FF
331
3F5
  5
400
331
3F6
  5
401
331
3F7
  5
402
331
3F8
  5
403
331
3F9
  5
404
331
3FA
  5
405
331
3FB
  5
406
331
3FC
  5
407
331
3FD
  5
408
331
3FE
  5
409
331
3FF
  5
40A
331
400
  5
40B
331
401
  5
40C
331
402
  5
40D
331
403
  5
40E
331
404
  5
40F
331
405
  5
410
331
406
  5
411
331
407
  5
412
331
408
  5
413
331
409
  5
414
331
40A
  5
416
331
40B
  5
417
331
40C
  5
418
331
40D
  5
419
331
40E
  5
41A
331
40F
  5
41B
331
410
  5
41C
331
412
  5
41D
331
413
  5
41E
331
414
  5
41F
331
415
  5
420
331
416
  5
421
331
417
  5
422
331
418
  5
423
331
419
  5
424
331
41A
  5
425
331
41B
  5
426
331
41C
  5
427
331
41D
  5
428
331
41E
  5
429
331
41F
  5
42A
331
425
  5
430
331
426
  5
431
331
427
  5
432
331
428
  5
433
331
429
  5
434
331
42A
  5
435
331
42B
  5
436
331
42C
  5
437
331
42D
  5
438
331
42E
  5
439
331
42F
  5
43A
331
430
  5
43B
331
431
  5
43C
331
432
  5
43D
331
433
  5
43E
331
434
  5
43F
331
435
  5
440
331
436
  5
441
331
437
  5
442
331
438
  5
443
331
439
  5
444
331
43A
  5
445
331
0
  5
446
331
0
  5
447
331
43D
  5
448
331
43E
  5
449
331
43F
  5
44A
331
440
  5
44B
331
441
  5
44C
331
0
  5
44D
331
0
  5
44E
331
0
  5
44F
331
0
  5
450
331
446
  5
451
331
447
  5
452
331
448
  5
454
331
449
  5
455
331
44A
  5
456
331
44B
  5
457
331
44C
  5
458
331
44D
  5
459
331
44E
  5
45A
331
44F
  5
45B
331
450
  5
45C
331
451
  5
45D
331
452
  5
45E
331
453
  5
45F
331
454
  5
460
331
455
  5
461
331
456
  5
462
331
457
  5
463
331
458
  5
464
331
459
  5
465
331
45A
  5
466
331
45B
  5
481
331
45C
  5
482
331
45D
  5
483
331
45E
  5
484
331
45F
  5
485
331
460
  5
486
331
461
  5
487
331
47C
  5
488
331
47D
  5
489
331
47E
  5
48A
331
47F
  5
48B
331
480
  5
48C
331
481
  5
48D
331
0
  5
48E
331
0
  5
48F
331
0
  5
490
331
0
  5
491
331
0
  5
492
331
0
  5
493
331
0
  5
494
331
0
  5
495
331
0
  5
496
331
0
  5
497
331
0
  5
498
331
48D
  5
499
331
48E
  5
49A
331
48F
  5
49D
331
0
  5
49E
331
0
  5
49F
331
492
  5
4A0
331
493
  5
4A1
331
494
  5
4A2
331
495
  5
4A3
331
498
  5
4A4
331
499
  5
4A5
331
49A
  5
4A6
331
49B
  5
4A7
331
49C
  5
4A8
331
49D
  5
4A9
331
49E
  5
4AA
331
49F
  5
4AB
331
4A0
  5
4AC
331
4A1
  5
4AD
331
4A2
  5
4AE
331
4A3
  5
4AF
331
4A4
  5
4B0
331
4A5
  5
4B1
331
4A6
  5
4B2
331
4A7
  5
4B3
331
4A8
  5
4B4
331
4A9
  5
4B5
331
4AA
  5
4B6
331
4AB
  5
4B7
331
4AC
  5
4B8
331
4AD
  5
4B9
331
4AE
  5
4BA
331
4AF
  5
4BB
331
4B0
  5
4BC
331
4B1
  5
4BD
331
4B2
  5
4BE
331
4B3
  5
4BF
331
4B4
  5
4C0
331
4B5
  5
4C1
331
4B6
  5
4C2
331
4B7
  5
4C3
331
4B8
  5
4C4
331
4B9
  5
4C5
331
4BA
  5
4C6
331
4BB
  5
4C7
331
4BC
  5
4C8
331
4BD
  5
4C9
331
4BE
  5
4CA
331
4BF
  5
4CB
331
4C0
  5
4CC
331
4C1
  5
4CD
331
4C2
  5
4CE
331
4C3
  5
4CF
331
4C4
  5
4D0
331
4C5
  5
4D1
331
0
  5
4D2
331
4C7
  5
4D3
331
4C8
  5
4D4
331
4C9
  5
4D5
331
0
  5
4D6
331
0
  5
4D7
331
0
  5
4D8
331
0
  5
4D9
331
4CE
  5
4DA
331
4CF
  5
4DB
331
0
  5
4DC
331
0
  5
4DD
331
0
  5
4DE
331
0
  5
4DF
331
0
  5
4E0
331
0
  5
4E1
331
0
  5
4E2
331
0
  5
4E3
331
0
  5
4E4
331
4D9
  5
4E5
331
4DA
  5
4E6
331
4DB
  5
4E7
331
4DC
  5
4E8
331
4DD
  5
4E9
331
4DE
  5
4EA
331
4DF
  5
4EB
331
4E0
  5
4EC
331
4E1
  5
4ED
331
4E2
  5
4EE
331
4E3
  5
4EF
331
4E4
  5
4F0
331
4E5
  5
4F1
331
4E6
  5
4F2
331
4E7
  5
4F3
331
4E8
  5
4F4
331
4E9
  5
4F5
331
0
  5
4F6
331
4EB
  5
4F7
331
4EC
  5
4F8
331
4ED
  5
4F9
331
4EE
  5
4FA
331
4EF
  5
4FB
331
4F0
  5
4FC
331
4F1
  5
4FD
331
4F2
  5
4FE
331
4F3
  5
4FF
331
4F4
  5
500
331
4F5
  5
501
331
4F6
  5
502
331
4F7
  5
503
331
4F8
  5
504
331
4F9
  5
505
331
4FA
  5
506
331
4FB
  5
507
331
4FC
  5
508
331
4FD
  5
509
331
4FE
  5
50A
331
4FF
  5
50B
331
500
  5
50C
331
501
  5
50D
331
502
  5
50E
331
503
  5
50F
331
504
  5
510
331
505
  5
511
331
506
  5
512
331
507
  5
513
331
508
  5
514
331
509
  5
515
331
50A
  5
516
331
50B
  5
517
331
50C
  5
518
331
50D
  5
519
331
50E
  5
51A
331
50F
  5
51B
331
510
  5
51C
331
511
  5
51D
331
512
  5
51E
331
513
  5
51F
331
514
  5
520
331
515
  5
521
331
516
  5
522
331
517
  5
523
331
518
  5
524
331
519
  5
525
331
51A
  5
526
331
51B
  5
527
331
51C
  5
528
331
51D
  5
529
331
51E
  5
52A
331
51F
  5
52B
331
520
  5
52C
331
521
  5
52D
331
0
  5
52E
331
0
  5
52F
331
0
  5
530
331
0
  5
531
331
526
  5
532
331
527
  5
533
331
528
  5
534
331
529
  5
535
331
52A
  5
536
331
52B
  5
537
331
52C
  5
538
331
52D
  5
539
331
52E
  5
53A
331
52F
  5
53B
331
530
  5
53C
331
531
  5
53D
331
532
  5
53E
331
533
  5
53F
331
534
  5
540
331
535
  5
541
331
536
  5
542
331
537
  5
543
331
538
  5
544
331
539
  5
545
331
53A
  5
546
331
53B
  5
547
331
53C
  5
548
331
53D
  5
5B1
331
53E
  5
5B2
331
53F
  5
5B3
331
540
  5
5B4
331
541
  5
5B5
331
542
  5
129E
331
543
  5
12A0
331
0
  5
12A1
331
545
  5
12A2
331
0
  5
12A3
331
0
  5
12A4
331
0
  5
12A5
331
5BD
  5
12A6
331
0
  5
12A7
331
0
  5
12A8
331
0
  5
12A9
331
0
  5
12AA
331
0
  5
12AB
331
0
  5
12B1
331
0
  5
12B2
331
0
  5
12B3
331
0
  5
12B4
331
0
  5
12B5
331
0
  5
12B6
331
0
  5
12B9
331
0
  5
12BA
331
0
  5
12BB
331
0
  5
12BC
331
0
  5
12BD
331
0
  5
12BE
331
0
  5
12BF
331
0
  5
12C0
331
0
  5
12C1
331
0
  5
12C2
331
0
  5
12C3
331
0
  5
12C4
331
0
  5
12C5
331
0
  5
12C6
331
0
  5
12C7
331
0
  5
12C8
331
0
  5
12C9
331
0
  5
12CA
331
0
  5
12CB
331
0
  5
12CC
331
0
  5
12CD
331
0
  5
12CE
331
0
  5
12CF
331
0
  5
12D0
331
0
  5
12D1
331
0
  5
12D2
331
0
  5
12D3
331
0
  5
12D4
331
0
  5
12D5
331
0
  5
12D6
331
0
  5
12D7
331
0
  5
12D8
331
0
  5
12D9
331
0
  5
12DA
331
0
  5
12DB
331
0
  5
12DC
331
0
  5
12DD
331
0
  5
12DE
331
0
  5
12DF
331
0
  5
12E0
331
0
  5
12E1
331
0
  5
12E2
331
0
  5
12E3
331
0
  5
12E4
331
0
  5
12E5
331
0
  5
12E6
331
0
  5
12E7
331
0
  5
12E8
331
0
  5
12E9
331
0
  5
12EA
331
0
  5
12EB
331
0
  5
12EC
331
0
  5
12ED
331
0
  5
12EE
331
0
  5
12EF
331
0
  5
12F0
331
0
  5
12F1
331
0
  5
12F2
331
0
  5
12F3
331
0
  5
12F4
331
0
  5
12F5
331
0
  5
12F6
331
0
  5
12F7
331
0
  5
12F8
331
0
  5
12F9
331
0
  5
12FA
331
0
  5
12FB
331
0
  5
12FC
331
0
  5
12FD
331
0
  5
12FE
331
0
  5
12FF
331
0
  5
1300
331
0
  5
1301
331
0
  5
1302
331
0
  5
1303
331
0
  5
1304
331
0
  5
1305
331
0
  5
1306
331
0
  5
1307
331
0
  5
1308
331
0
  5
1309
331
0
  5
130A
331
0
  5
130B
331
0
  5
130C
331
0
  5
130D
331
0
  5
130E
331
0
  5
130F
331
0
  5
1310
331
0
  5
1311
331
0
  5
1312
331
0
  5
1313
331
0
  5
1314
331
0
  5
1315
331
0
  5
1316
331
0
  5
1317
331
0
  5
1318
331
0
  5
1319
331
0
  5
131A
331
0
  5
131B
331
0
  5
131C
331
0
  5
131D
331
0
  5
131E
331
0
  5
131F
331
0
  5
1320
331
0
  5
1321
331
0
  5
1322
331
0
  5
1323
331
0
  5
1324
331
0
  5
1325
331
0
  5
1326
331
0
  5
1327
331
0
  5
1328
331
0
  5
1329
331
0
  5
132A
331
0
  5
132B
331
0
  5
132C
331
0
  5
132D
331
0
  5
132E
331
0
  5
132F
331
0
  5
1330
331
0
  5
1331
331
0
  5
1332
331
0
  5
1333
331
0
  5
1334
331
0
  5
1335
331
0
  5
1336
331
0
  5
1337
331
0
  5
1338
331
0
  5
1339
331
0
  5
133A
331
0
  5
133B
331
0
  5
133C
331
0
  5
133D
331
0
  5
133E
331
0
  5
133F
331
0
  5
1340
331
0
  5
1341
331
0
  5
1342
331
0
  5
1343
331
0
  5
1344
331
0
  5
1345
331
0
  5
1346
331
0
  5
1347
331
0
  5
1348
331
0
  5
1349
331
0
  5
134A
331
0
  5
134B
331
0
  5
134C
331
0
  5
134D
331
0
  5
134E
331
0
  5
134F
331
0
  5
1350
331
0
  5
1351
331
0
  5
1352
331
0
  5
1353
331
0
  5
1354
331
0
  5
1355
331
0
  5
1356
331
0
  5
1357
331
0
  5
1358
331
0
  5
1359
331
0
  5
135A
331
0
  5
135B
331
0
  5
135C
331
0
  5
135D
331
0
  5
135E
331
0
  5
135F
331
0
  5
1360
331
0
  5
1361
331
0
  5
1362
331
0
  5
1363
331
0
  5
1364
331
0
  5
1365
331
0
  5
1366
331
0
  5
1367
331
0
  5
1368
331
0
  5
1369
331
0
  5
136A
331
0
  5
136B
331
0
  5
1378
331
0
  5
1379
331
0
  5
137A
331
0
  5
137B
331
0
  5
137C
331
0
  5
137D
331
0
  5
137E
331
0
  5
137F
331
0
  5
1380
331
0
  5
1381
331
0
  5
1382
331
0
  5
1383
331
0
  5
1384
331
0
  5
1385
331
0
  5
1386
331
0
  5
1387
331
0
  5
1388
331
0
  5
1389
331
0
  5
138A
331
0
  5
138B
331
0
  5
138C
331
0
  5
138D
331
0
  5
138E
331
0
  5
138F
331
0
  5
1390
331
0
  5
1391
331
0
  5
1392
331
0
  5
1393
331
0
  5
1394
331
0
  5
1395
331
0
  5
1396
331
0
  5
1397
331
0
  5
1398
331
0
  5
1399
331
0
  5
139C
331
0
  5
139D
331
0
  5
13A0
331
0
  5
13A1
331
0
  5
13A2
331
0
  5
13A3
331
0
  5
13A4
331
0
  5
13A5
331
0
  5
13A6
331
0
  5
13A7
331
0
  5
13A8
331
0
  5
13A9
331
0
  5
13AA
331
0
  5
13AB
331
0
  5
13AC
331
0
  5
13AD
331
0
  5
13BA
331
0
  5
13BB
331
0
  5
13BC
331
0
  5
13BD
331
0
  5
13BE
331
0
  5
13BF
331
0
  5
13C0
331
0
  5
13C1
331
0
  5
13C2
331
0
  5
13C3
331
0
  5
13C4
331
0
  5
13C5
331
0
  5
13C6
331
0
  5
13C7
331
0
  5
13C8
331
0
  5
13C9
331
0
  5
13CA
331
0
  5
13CB
331
0
  5
13CC
331
0
  5
13CD
331
0
  5
13CE
331
0
  5
13CF
331
0
  5
13D0
331
0
  5
13D1
331
0
  5
13D2
331
0
  5
13D3
331
0
  5
13D4
331
0
  5
13D5
331
0
  5
13D6
331
0
  5
13D7
331
0
  5
13D8
331
0
  5
13D9
331
0
  5
13DA
331
0
  5
13DB
331
0
  5
13DC
331
0
  5
13DD
331
0
  5
13DE
331
0
  5
13DF
331
0
  5
13E0
331
0
  5
13E1
331
0
  5
13E2
331
0
  5
13E3
331
0
  5
13E4
331
0
  5
13E5
331
0
  5
13E6
331
0
  5
13E7
331
0
  5
13E8
331
0
  5
13E9
331
0
  5
13EA
331
0
  5
13EB
331
0
  5
13EC
331
0
  5
13ED
331
0
  5
13EE
331
0
  5
13EF
331
0
  5
13F0
331
0
  5
13F1
331
0
  5
13F2
331
0
  5
13F3
331
0
  5
13F4
331
0
  5
13F5
331
0
  5
13F6
331
0
  5
13F7
331
0
  5
13F8
331
0
  5
13F9
331
0
  5
13FA
331
0
  5
13FB
331
0
  5
13FC
331
0
  5
13FD
331
0
  5
13FE
331
0
  5
13FF
331
0
  5
1400
331
0
  5
1401
331
0
  5
1402
331
0
  5
1403
331
0
  5
1404
331
0
  5
1405
331
0
  5
1406
331
0
  5
1407
331
0
  5
1408
331
0
  5
1409
331
0
  5
140A
331
0
  5
140B
331
0
  5
140C
331
0
  5
140D
331
0
  5
140E
331
0
  5
140F
331
0
  5
1410
331
0
  5
1411
331
0
  5
1412
331
0
  5
1413
331
0
  5
1EA7
331
0
  5
1EA8
331
0
  5
1EA9
331
0
  5
1EAA
331
0
  5
1EAB
331
0
  5
1EAC
331
0
  5
1EAD
331
0
  5
1EAE
331
0
  5
1EAF
331
0
  5
1EB0
331
0
  5
1EB1
331
0
  5
1EB2
331
1EA7
  5
1EB3
331
0
  5
1EB4
331
0
  5
1EB5
331
0
  5
1EB6
331
0
  5
1EBB
331
0
  5
1EBE
331
0
  5
1EBF
331
0
  5
1EC0
331
0
  5
1EC1
331
0
  5
1EC4
331
0
  5
1EC5
331
0
  5
1EC6
331
0
  5
1EC7
331
0
  5
1EC8
331
0
  5
1EC9
331
0
  5
1ECC
331
1EBF
  5
1ED0
331
1EC0
  5
1ED1
331
1EC1
  5
1ED2
331
1EC5
  5
1EDB
331
1EC9
  5
453
331
0
  5
1EDC
331
1ECD
  5
1EDD
331
1ECE
  5
1EDF
331
1ECF
  5
1EEE
331
0
  5
1EEF
331
0
  5
1EF0
331
1ED7
  5
1EF1
331
1ED8
  5
1EF2
331
1ED9
  5
1EF3
331
1EDB
  5
1EF4
331
1EEE
  5
1EF5
331
1EEF
  5
1EF6
331
1EF0
  5
1EF7
331
1EF1
  5
1EF8
331
1EF2
  5
1EF9
331
1EF3
  5
1EFE
331
1EF4
  5
1EFF
331
1EF5
  5
1F00
331
1EF6
  5
1F01
331
1EF7
  5
1F02
331
1EF8
  5
1F03
331
1EF9
  5
1F04
331
1EFE
  5
1F05
331
1EFF
  5
1F06
331
1F00
  5
1F07
331
1F01
  5
1F08
331
1F02
  5
1F09
331
1F03
  5
1F0A
331
1F04
  5
1F0C
331
1F05
  5
1F0D
331
1F06
  5
1F10
331
1F07
  5
1F11
331
1F08
  5
1F12
331
1F09
  5
1F13
331
1F0A
  5
1F14
331
0
  5
1F15
331
0
  5
1F16
331
1F10
  5
1F17
331
1F11
  5
1F18
331
1F12
  5
1F19
331
1F13
  5
1F1A
331
1F14
  5
1F1B
331
1F15
  5
1F1C
331
1F16
  5
1F1D
331
1F17
  5
1F1E
331
1F18
  5
1F1F
331
1F19
  5
1F20
331
1F1A
  5
1F21
331
1F1B
  5
1F23
331
1F1C
  5
1F24
331
1F1D
  5
1F25
331
1F1E
  5
1F26
331
1F1F
  5
1F27
331
1F20
  5
1F28
331
1F21
  5
1F2A
331
1F23
  5
1F2B
331
1F24
  5
1F2C
331
1F25
  5
1F2E
331
1F26
  5
1F2F
331
1F27
  5
1F30
331
1F29
  5
1F32
331
1F2A
  5
1F33
331
1F2B
  5
1F34
331
1F2C
  5
1F35
331
1F2D
  5
1F36
331
1F2E
  5
1F37
331
1F2F
  5
1F39
331
0
  5
1F47
331
0
  5
1F48
331
0
  5
1F49
331
0
  5
1F4A
331
0
  5
1F4B
331
0
  5
1F4C
331
0
  5
1F4D
331
0
  5
1F4E
331
0
  5
1F4F
331
0
  5
1F50
331
0
  5
1F51
331
0
  5
1F52
331
0
  5
1F53
331
0
  5
1F54
331
0
  5
1F55
331
0
  5
1F56
331
0
  5
1F57
331
0
  5
1F58
331
0
  5
1F5A
331
0
  5
1F5B
331
0
  5
1F5C
331
0
  5
1F5D
331
0
  5
1F5E
331
0
  5
1F5F
331
0
  5
1F60
331
1F5A
  5
1F61
331
1F5B
  5
1F62
331
1F5C
  5
1F63
331
1F5D
  5
1F64
331
1F5E
  5
1F65
331
1F5F
  5
1F66
331
1F6D
  5
1F6E
331
1F6E
  5
1F6F
331
1F6F
  5
1F70
331
1F70
  5
1F71
331
1F71
  5
1F72
331
1F72
  5
1F73
331
1F73
  5
1F74
331
1F74
  5
1F75
331
1F75
  5
1F76
331
1F76
  5
1F77
331
1F77
  5
1F78
331
1F79
  5
43
  0
LAYOUT
  5
A
102
{ACAD_REACTORS
330
B
102
}
330
B
100
AcDbPlotSettings
  1

  2
Bullzip PDF Printer.pc3
  4
A3
  6

 40
0.2
 41
0.0
 42
0.0
 43
0.0
 44
420.2
 45
297.1
 46
25.0
 47
12.0
 48
99.99999976666686
 49
0.0
140
2009.999995391667
141
1362.499996820833
142
1.0
143
5.0
 70
 11936
 72
     1
 73
     0
 74
     4
  7
monochrome.ctb
 75
     0
147
0.2
148
-99.99999976666686
149
0.0
100
AcDbLayout
  1
Model
 70
     0
 71
     0
 10
0.0
 20
0.0
 11
12.0
 21
9.0
 12
0.0
 22
0.0
 32
0.0
 14
174.7770240660116
 24
20.59676511714963
 34
0.0
 15
2025.377834579387
 25
7827.222674703602
 35
0.0
146
0.0
 13
0.0
 23
0.0
 33
0.0
 16
1.0
 26
0.0
 36
0.0
 17
0.0
 27
1.0
 37
0.0
 76
     0
330
2
331
5F8
1001
ACAD_PSEXT
1000
Bullzip PDF Printer.pc3
1000
Bullzip PDF Printer
1000
BULLZIP
1000
Bullzip PDF Printer 10.1.0.1871
1070
     0
  0
LAYOUT
  5
F
102
{ACAD_REACTORS
330
B
102
}
330
B
100
AcDbPlotSettings
  1

  2
SR-LP8300F
  4

  6

 40
0.0
 41
0.0
 42
0.0
 43
0.0
 44
0.0
 45
0.0
 46
0.0
 47
0.0
 48
0.0
 49
0.0
140
0.0
141
0.0
142
1.0
143
1.0
 70
   688
 72
     0
 73
     0
 74
     5
  7
monochrome.ctb
 75
    16
147
1.0
148
0.0
149
0.0
100
AcDbLayout
  1
ﾚｲｱｳﾄ1
 70
     0
 71
     1
 10
0.0
 20
0.0
 11
12.0
 21
9.0
 12
0.0
 22
0.0
 32
0.0
 14
1000000000000000E+20
 24
1000000000000000E+20
 34
1000000000000000E+20
 15
-1000000000000000E+20
 25
-1000000000000000E+20
 35
-1000000000000000E+20
146
0.0
 13
0.0
 23
0.0
 33
0.0
 16
1.0
 26
0.0
 36
0.0
 17
0.0
 27
1.0
 37
0.0
 76
     0
330
C
  0
MATERIAL
  5
636
102
{ACAD_REACTORS
330
634
102
}
102
{ACAD_XDICTIONARY
360
1FDF
102
}
330
634
100
AcDbMaterial
  1
ByBlock
  0
MATERIAL
  5
635
102
{ACAD_REACTORS
330
634
102
}
102
{ACAD_XDICTIONARY
360
1FDD
102
}
330
634
100
AcDbMaterial
  1
ByLayer
  0
MATERIAL
  5
637
102
{ACAD_REACTORS
330
634
102
}
102
{ACAD_XDICTIONARY
360
1FE1
102
}
330
634
100
AcDbMaterial
  1
Global
1001
ACAD
1070
    -1
1070
     3
1070
     0
1000

1071
        0
  0
MLEADERSTYLE
  5
664
102
{ACAD_REACTORS
330
638
102
}
102
{ACAD_XDICTIONARY
360
1FE3
102
}
330
638
100
AcDbMLeaderStyle
170
     2
171
     1
172
     0
 90
        2
 40
0.0
 41
0.0
173
     1
 91
-1056964608
340
15
 92
       -2
290
     1
 42
0.09
291
     1
 43
0.36
  3
Standard
341
0
 44
0.18
300

342
12
174
     1
178
     6
175
     1
176
     0
 93
-1056964608
 45
0.18
292
     0
297
     0
 46
0.18
343
0
 94
-1056964608
 47
1.0
 49
1.0
140
1.0
293
     1
141
0.0
294
     1
177
     0
142
1.0
295
     0
296
     0
143
0.125
1001
ACAD_MLEADERVER
1070
     2
  0
MLINESTYLE
  5
24
102
{ACAD_REACTORS
330
20
102
}
330
20
100
AcDbMlineStyle
  2
STANDARD
 70
     0
  3

 62
     0
 51
90.0
 52
90.0
 71
     2
 49
0.5
 62
   256
  6
BYLAYER
 49
-0.5
 62
   256
  6
BYLAYER
  0
ACDBPLACEHOLDER
  5
5
102
{ACAD_REACTORS
330
6
102
}
330
6
  0
SCALE
  5
613
102
{ACAD_REACTORS
330
612
102
}
330
612
100
AcDbScale
 70
     0
300
1:1
140
1.0
141
1.0
290
     1
  0
SCALE
  5
614
102
{ACAD_REACTORS
330
612
102
}
330
612
100
AcDbScale
 70
     0
300
1:2
140
1.0
141
2.0
290
     0
  0
SCALE
  5
615
102
{ACAD_REACTORS
330
612
102
}
330
612
100
AcDbScale
 70
     0
300
1:4
140
1.0
141
4.0
290
     0
  0
SCALE
  5
616
102
{ACAD_REACTORS
330
612
102
}
330
612
100
AcDbScale
 70
     0
300
1:5
140
1.0
141
5.0
290
     0
  0
SCALE
  5
617
102
{ACAD_REACTORS
330
612
102
}
330
612
100
AcDbScale
 70
     0
300
1:8
140
1.0
141
8.0
290
     0
  0
SCALE
  5
618
102
{ACAD_REACTORS
330
612
102
}
330
612
100
AcDbScale
 70
     0
300
1:10
140
1.0
141
10.0
290
     0
  0
SCALE
  5
619
102
{ACAD_REACTORS
330
612
102
}
330
612
100
AcDbScale
 70
     0
300
1:16
140
1.0
141
16.0
290
     0
  0
SCALE
  5
61A
102
{ACAD_REACTORS
330
612
102
}
330
612
100
AcDbScale
 70
     0
300
1:20
140
1.0
141
20.0
290
     0
  0
SCALE
  5
61B
102
{ACAD_REACTORS
330
612
102
}
330
612
100
AcDbScale
 70
     0
300
1:30
140
1.0
141
30.0
290
     0
  0
SCALE
  5
61C
102
{ACAD_REACTORS
330
612
102
}
330
612
100
AcDbScale
 70
     0
300
1:40
140
1.0
141
40.0
290
     0
  0
SCALE
  5
61D
102
{ACAD_REACTORS
330
612
102
}
330
612
100
AcDbScale
 70
     0
300
1:50
140
1.0
141
50.0
290
     0
  0
SCALE
  5
61E
102
{ACAD_REACTORS
330
612
102
}
330
612
100
AcDbScale
 70
     0
300
1:100
140
1.0
141
100.0
290
     0
  0
SCALE
  5
61F
102
{ACAD_REACTORS
330
612
102
}
330
612
100
AcDbScale
 70
     0
300
2:1
140
2.0
141
1.0
290
     0
  0
SCALE
  5
620
102
{ACAD_REACTORS
330
612
102
}
330
612
100
AcDbScale
 70
     0
300
4:1
140
4.0
141
1.0
290
     0
  0
SCALE
  5
621
102
{ACAD_REACTORS
330
612
102
}
330
612
100
AcDbScale
 70
     0
300
8:1
140
8.0
141
1.0
290
     0
  0
SCALE
  5
622
102
{ACAD_REACTORS
330
612
102
}
330
612
100
AcDbScale
 70
     0
300
10:1
140
10.0
141
1.0
290
     0
  0
SCALE
  5
623
102
{ACAD_REACTORS
330
612
102
}
330
612
100
AcDbScale
 70
     0
300
100:1
140
100.0
141
1.0
290
     0
  0
SCALE
  5
624
102
{ACAD_REACTORS
330
612
102
}
330
612
100
AcDbScale
 70
     0
300
1/128" = 1'-0"
140
0.0078125
141
12.0
290
     0
  0
SCALE
  5
625
102
{ACAD_REACTORS
330
612
102
}
330
612
100
AcDbScale
 70
     0
300
1/64" = 1'-0"
140
0.015625
141
12.0
290
     0
  0
SCALE
  5
626
102
{ACAD_REACTORS
330
612
102
}
330
612
100
AcDbScale
 70
     0
300
1/32" = 1'-0"
140
0.03125
141
12.0
290
     0
  0
SCALE
  5
627
102
{ACAD_REACTORS
330
612
102
}
330
612
100
AcDbScale
 70
     0
300
1/16" = 1'-0"
140
0.0625
141
12.0
290
     0
  0
SCALE
  5
628
102
{ACAD_REACTORS
330
612
102
}
330
612
100
AcDbScale
 70
     0
300
3/32" = 1'-0"
140
0.09375
141
12.0
290
     0
  0
SCALE
  5
629
102
{ACAD_REACTORS
330
612
102
}
330
612
100
AcDbScale
 70
     0
300
1/8" = 1'-0"
140
0.125
141
12.0
290
     0
  0
SCALE
  5
62A
102
{ACAD_REACTORS
330
612
102
}
330
612
100
AcDbScale
 70
     0
300
3/16" = 1'-0"
140
0.1875
141
12.0
290
     0
  0
SCALE
  5
62B
102
{ACAD_REACTORS
330
612
102
}
330
612
100
AcDbScale
 70
     0
300
1/4" = 1'-0"
140
0.25
141
12.0
290
     0
  0
SCALE
  5
62C
102
{ACAD_REACTORS
330
612
102
}
330
612
100
AcDbScale
 70
     0
300
3/8" = 1'-0"
140
0.375
141
12.0
290
     0
  0
SCALE
  5
62D
102
{ACAD_REACTORS
330
612
102
}
330
612
100
AcDbScale
 70
     0
300
1/2" = 1'-0"
140
0.5
141
12.0
290
     0
  0
SCALE
  5
62E
102
{ACAD_REACTORS
330
612
102
}
330
612
100
AcDbScale
 70
     0
300
3/4" = 1'-0"
140
0.75
141
12.0
290
     0
  0
SCALE
  5
62F
102
{ACAD_REACTORS
330
612
102
}
330
612
100
AcDbScale
 70
     0
300
1" = 1'-0"
140
1.0
141
12.0
290
     0
  0
SCALE
  5
630
102
{ACAD_REACTORS
330
612
102
}
330
612
100
AcDbScale
 70
     0
300
1-1/2" = 1'-0"
140
1.5
141
12.0
290
     0
  0
SCALE
  5
631
102
{ACAD_REACTORS
330
612
102
}
330
612
100
AcDbScale
 70
     0
300
3" = 1'-0"
140
3.0
141
12.0
290
     0
  0
SCALE
  5
632
102
{ACAD_REACTORS
330
612
102
}
330
612
100
AcDbScale
 70
     0
300
6" = 1'-0"
140
6.0
141
12.0
290
     0
  0
SCALE
  5
633
102
{ACAD_REACTORS
330
612
102
}
330
612
100
AcDbScale
 70
     0
300
1'-0" = 1'-0"
140
12.0
141
12.0
290
     0
  0
TABLESTYLE
  5
663
102
{ACAD_REACTORS
330
63A
102
}
330
63A
100
AcDbTableStyle
  3
Standard
 70
     0
 71
     0
 40
0.06
 41
0.06
280
     0
281
     0
  7
STANDARD
140
0.18
170
     2
 62
     0
 63
   257
283
     0
274
    -2
284
     1
 64
     0
275
    -2
285
     1
 65
     0
276
    -2
286
     1
 66
     0
277
    -2
287
     1
 67
     0
278
    -2
288
     1
 68
     0
279
    -2
289
     1
 69
     0
  7
STANDARD
140
0.25
170
     5
 62
     0
 63
   257
283
     0
274
    -2
284
     1
 64
     0
275
    -2
285
     1
 65
     0
276
    -2
286
     1
 66
     0
277
    -2
287
     1
 67
     0
278
    -2
288
     1
 68
     0
279
    -2
289
     1
 69
     0
  7
STANDARD
140
0.18
170
     5
 62
     0
 63
   257
283
     0
274
    -2
284
     1
 64
     0
275
    -2
285
     1
 65
     0
276
    -2
286
     1
 66
     0
277
    -2
287
     1
 67
     0
278
    -2
288
     1
 68
     0
279
    -2
289
     1
 69
     0
  0
VISUALSTYLE
  5
5FE
102
{ACAD_REACTORS
330
5F9
102
}
102
{ACAD_XDICTIONARY
360
1FB5
102
}
330
5F9
100
AcDbVisualStyle
  2
2dWireframe
 70
     4
 71
     0
 72
     2
 73
     0
 90
        0
 40
0.6
 41
30.0
 62
     5
 63
     7
 74
     1
 91
        4
 64
     7
 65
   257
 75
     1
175
     1
 42
1.0
 92
        0
 66
   257
 43
1.0
 76
     1
 77
     6
 78
     2
 67
     7
 79
     5
170
     0
171
     0
290
     0
174
     0
 93
        1
 44
0.0
173
     0
291
     0
 45
0.0
1001
ACAD
1000
AcDbSavedByObjectVersion
1070
     0
  0
VISUALSTYLE
  5
601
102
{ACAD_REACTORS
330
5F9
102
}
102
{ACAD_XDICTIONARY
360
1FBB
102
}
330
5F9
100
AcDbVisualStyle
  2
Basic
 70
     7
 71
     1
 72
     0
 73
     1
 90
        0
 40
0.6
 41
30.0
 62
     5
 63
     7
 74
     0
 91
        4
 64
     7
 65
   257
 75
     1
175
     1
 42
1.0
 92
        8
 66
     7
 43
1.0
 76
     1
 77
     6
 78
     2
 67
     7
 79
     5
170
     0
171
     0
290
     0
174
     0
 93
        1
 44
0.0
173
     0
291
     1
 45
0.0
1001
ACAD
1000
AcDbSavedByObjectVersion
1070
     0
  0
VISUALSTYLE
  5
605
102
{ACAD_REACTORS
330
5F9
102
}
102
{ACAD_XDICTIONARY
360
1FC3
102
}
330
5F9
100
AcDbVisualStyle
  2
Brighten
 70
    12
 71
     2
 72
     2
 73
     0
 90
        0
 40
0.6
 41
30.0
 62
     5
 63
     7
 74
     1
 91
        4
 64
     7
 65
   257
 75
     1
175
     1
 42
1.0
 92
        8
 66
     7
 43
1.0
 76
     1
 77
     6
 78
     2
 67
     7
 79
     5
170
     0
171
     0
290
     0
174
     0
 93
        1
 44
50.0
173
     0
291
     1
 45
0.0
1001
ACAD
1000
AcDbSavedByObjectVersion
1070
     0
  0
VISUALSTYLE
  5
609
102
{ACAD_REACTORS
330
5F9
102
}
102
{ACAD_XDICTIONARY
360
1FCB
102
}
330
5F9
100
AcDbVisualStyle
  2
ColorChange
 70
    16
 71
     2
 72
     2
 73
     3
 90
        0
 40
0.6
 41
30.0
 62
     5
 63
     8
 74
     1
 91
        4
 64
     7
 65
   257
 75
     1
175
     1
 42
1.0
 92
        8
 66
     8
 43
1.0
 76
     1
 77
     6
 78
     2
 67
     7
 79
     5
170
     0
171
     0
290
     0
174
     0
 93
        1
 44
0.0
173
     0
291
     1
 45
0.0
1001
ACAD
1000
AcDbSavedByObjectVersion
1070
     0
  0
VISUALSTYLE
  5
603
102
{ACAD_REACTORS
330
5F9
102
}
102
{ACAD_XDICTIONARY
360
1FBF
102
}
330
5F9
100
AcDbVisualStyle
  2
Conceptual
 70
     9
 71
     3
 72
     2
 73
     0
 90
        0
 40
0.6
 41
30.0
 62
     5
 63
     7
 74
     2
 91
        2
 64
     7
 65
   257
 75
     1
175
     1
 42
40.0
 92
        8
 66
     7
 43
1.0
 76
     1
 77
     6
 78
     2
 67
     7
 79
     3
170
     0
171
     0
290
     0
174
     0
 93
        1
 44
0.0
173
     0
291
     0
 45
0.0
1001
ACAD
1000
AcDbSavedByObjectVersion
1070
     0
  0
VISUALSTYLE
  5
604
102
{ACAD_REACTORS
330
5F9
102
}
102
{ACAD_XDICTIONARY
360
1FC1
102
}
330
5F9
100
AcDbVisualStyle
  2
Dim
 70
    11
 71
     2
 72
     2
 73
     0
 90
        0
 40
0.6
 41
30.0
 62
     5
 63
     7
 74
     1
 91
        4
 64
     7
 65
   257
 75
     1
175
     1
 42
1.0
 92
        8
 66
     7
 43
1.0
 76
     1
 77
     6
 78
     2
 67
     7
 79
     5
170
     0
171
     0
290
     0
174
     0
 93
        1
 44
-50.0
173
     0
291
     1
 45
0.0
1001
ACAD
1000
AcDbSavedByObjectVersion
1070
     0
  0
VISUALSTYLE
  5
60C
102
{ACAD_REACTORS
330
5F9
102
}
102
{ACAD_XDICTIONARY
360
1FD1
102
}
330
5F9
100
AcDbVisualStyle
  2
EdgeColorOff
 70
    22
 71
     2
 72
     2
 73
     0
 90
        0
 40
0.6
 41
30.0
 62
     5
 63
     7
 74
     1
 91
        4
 64
     7
 65
   257
 75
     1
175
     1
 42
1.0
 92
        8
 66
     7
 43
1.0
 76
     1
 77
     6
 78
     2
 67
     7
 79
     5
170
     0
171
     0
290
     0
174
     0
 93
        1
 44
0.0
173
     0
291
     1
 45
0.0
1001
ACAD
1000
AcDbSavedByObjectVersion
1070
     0
  0
VISUALSTYLE
  5
608
102
{ACAD_REACTORS
330
5F9
102
}
102
{ACAD_XDICTIONARY
360
1FC9
102
}
330
5F9
100
AcDbVisualStyle
  2
Facepattern
 70
    15
 71
     2
 72
     2
 73
     0
 90
        0
 40
0.6
 41
30.0
 62
     5
 63
     7
 74
     1
 91
        4
 64
     7
 65
   257
 75
     1
175
     1
 42
1.0
 92
        8
 66
     7
 43
1.0
 76
     1
 77
     6
 78
     2
 67
     7
 79
     5
170
     0
171
     0
290
     0
174
     0
 93
        1
 44
0.0
173
     0
291
     1
 45
0.0
1001
ACAD
1000
AcDbSavedByObjectVersion
1070
     0
  0
VISUALSTYLE
  5
5FA
102
{ACAD_REACTORS
330
5F9
102
}
102
{ACAD_XDICTIONARY
360
1FAD
102
}
330
5F9
100
AcDbVisualStyle
  2
Flat
 70
     0
 71
     2
 72
     1
 73
     1
 90
        2
 40
0.6
 41
30.0
 62
     5
 63
     7
 74
     0
 91
        4
 64
     7
 65
   257
 75
     1
175
     1
 42
1.0
 92
        8
 66
     7
 43
1.0
 76
     1
 77
     6
 78
     2
 67
     7
 79
     5
170
     0
171
     0
290
     0
174
     0
 93
       13
 44
0.0
173
     0
291
     1
 45
0.0
1001
ACAD
1000
AcDbSavedByObjectVersion
1070
     0
  0
VISUALSTYLE
  5
5FB
102
{ACAD_REACTORS
330
5F9
102
}
102
{ACAD_XDICTIONARY
360
1FAF
102
}
330
5F9
100
AcDbVisualStyle
  2
FlatWithEdges
 70
     1
 71
     2
 72
     1
 73
     1
 90
        2
 40
0.6
 41
30.0
 62
     5
 63
     7
 74
     1
 91
        4
 64
     7
 65
   257
 75
     1
175
     1
 42
1.0
 92
        0
 66
   257
 43
1.0
 76
     1
 77
     6
 78
     2
 67
     7
 79
     5
170
     0
171
     0
290
     0
174
     0
 93
       13
 44
0.0
173
     0
291
     1
 45
0.0
1001
ACAD
1000
AcDbSavedByObjectVersion
1070
     0
  0
VISUALSTYLE
  5
5FC
102
{ACAD_REACTORS
330
5F9
102
}
102
{ACAD_XDICTIONARY
360
1FB1
102
}
330
5F9
100
AcDbVisualStyle
  2
Gouraud
 70
     2
 71
     2
 72
     2
 73
     1
 90
        2
 40
0.6
 41
30.0
 62
     5
 63
     7
 74
     0
 91
        4
 64
     7
 65
   257
 75
     1
175
     1
 42
1.0
 92
        0
 66
     7
 43
1.0
 76
     1
 77
     6
 78
     2
 67
     7
 79
     5
170
     0
171
     0
290
     0
174
     0
 93
       13
 44
0.0
173
     0
291
     1
 45
0.0
1001
ACAD
1000
AcDbSavedByObjectVersion
1070
     0
  0
VISUALSTYLE
  5
5FD
102
{ACAD_REACTORS
330
5F9
102
}
102
{ACAD_XDICTIONARY
360
1FB3
102
}
330
5F9
100
AcDbVisualStyle
  2
GouraudWithEdges
 70
     3
 71
     2
 72
     2
 73
     1
 90
        2
 40
0.6
 41
30.0
 62
     5
 63
     7
 74
     1
 91
        4
 64
     7
 65
   257
 75
     1
175
     1
 42
1.0
 92
        0
 66
   257
 43
1.0
 76
     1
 77
     6
 78
     2
 67
     7
 79
     5
170
     0
171
     0
290
     0
174
     0
 93
       13
 44
0.0
173
     0
291
     1
 45
0.0
1001
ACAD
1000
AcDbSavedByObjectVersion
1070
     0
  0
VISUALSTYLE
  5
600
102
{ACAD_REACTORS
330
5F9
102
}
102
{ACAD_XDICTIONARY
360
1FB9
102
}
330
5F9
100
AcDbVisualStyle
  2
Hidden
 70
     6
 71
     1
 72
     2
 73
     2
 90
        0
 40
0.6
 41
30.0
 62
     5
 63
     7
 74
     2
 91
        2
 64
     7
 65
   257
 75
     2
175
     1
 42
40.0
 92
        0
 66
   257
 43
1.0
 76
     1
 77
     6
 78
     2
 67
     7
 79
     3
170
     0
171
     0
290
     0
174
     0
 93
        1
 44
0.0
173
     0
291
     0
 45
0.0
1001
ACAD
1000
AcDbSavedByObjectVersion
1070
     0
  0
VISUALSTYLE
  5
60A
102
{ACAD_REACTORS
330
5F9
102
}
102
{ACAD_XDICTIONARY
360
1FCD
102
}
330
5F9
100
AcDbVisualStyle
  2
JitterOff
 70
    20
 71
     2
 72
     2
 73
     0
 90
        0
 40
0.6
 41
30.0
 62
     5
 63
     7
 74
     1
 91
        4
 64
     7
 65
   257
 75
     1
175
     1
 42
1.0
 92
       10
 66
     7
 43
1.0
 76
     1
 77
     6
 78
     2
 67
     7
 79
     5
170
     0
171
     0
290
     0
174
     0
 93
        1
 44
0.0
173
     0
291
     1
 45
0.0
1001
ACAD
1000
AcDbSavedByObjectVersion
1070
     0
  0
VISUALSTYLE
  5
607
102
{ACAD_REACTORS
330
5F9
102
}
102
{ACAD_XDICTIONARY
360
1FC7
102
}
330
5F9
100
AcDbVisualStyle
  2
Linepattern
 70
    14
 71
     2
 72
     2
 73
     0
 90
        0
 40
0.6
 41
30.0
 62
     5
 63
     7
 74
     1
 91
        4
 64
     7
 65
   257
 75
     7
175
     7
 42
1.0
 92
        8
 66
     7
 43
1.0
 76
     1
 77
     6
 78
     2
 67
     7
 79
     5
170
     0
171
     0
290
     0
174
     0
 93
        1
 44
0.0
173
     0
291
     1
 45
0.0
1001
ACAD
1000
AcDbSavedByObjectVersion
1070
     0
  0
VISUALSTYLE
  5
60B
102
{ACAD_REACTORS
330
5F9
102
}
102
{ACAD_XDICTIONARY
360
1FCF
102
}
330
5F9
100
AcDbVisualStyle
  2
OverhangOff
 70
    21
 71
     2
 72
     2
 73
     0
 90
        0
 40
0.6
 41
30.0
 62
     5
 63
     7
 74
     1
 91
        4
 64
     7
 65
   257
 75
     1
175
     1
 42
1.0
 92
        9
 66
     7
 43
1.0
 76
     1
 77
     6
 78
     2
 67
     7
 79
     5
170
     0
171
     0
290
     0
174
     0
 93
        1
 44
0.0
173
     0
291
     1
 45
0.0
1001
ACAD
1000
AcDbSavedByObjectVersion
1070
     0
  0
VISUALSTYLE
  5
602
102
{ACAD_REACTORS
330
5F9
102
}
102
{ACAD_XDICTIONARY
360
1FBD
102
}
330
5F9
100
AcDbVisualStyle
  2
Realistic
 70
     8
 71
     2
 72
     3
 73
     0
 90
        2
 40
0.6
 41
30.0
 62
     5
 63
     7
 74
     0
 91
        0
 64
     7
 65
   257
 75
     1
175
     1
 42
1.0
 92
        8
 66
   257
 43
1.0
 76
     1
 77
     6
 78
     2
 67
     7
 79
     3
170
     0
171
     0
290
     0
174
     0
 93
       13
 44
0.0
173
     0
291
     0
 45
0.0
1001
ACAD
1000
AcDbSavedByObjectVersion
1070
     0
  0
VISUALSTYLE
  5
611
102
{ACAD_REACTORS
330
5F9
102
}
102
{ACAD_XDICTIONARY
360
1FDB
102
}
330
5F9
100
AcDbVisualStyle
  2
Shaded
 70
    27
 71
     2
 72
     2
 73
     1
 90
        2
 40
0.6
 41
30.0
 62
     5
 63
     7
 74
     0
 91
        4
 64
     7
 65
   257
 75
     1
175
     1
 42
1.0
 92
        8
 66
   257
 43
1.0
 76
     1
 77
     6
 78
     2
 67
   251
 79
     3
170
     0
171
     0
290
     0
174
     0
 93
        5
 44
0.0
173
     0
291
     0
 45
0.0
1001
ACAD
1000
AcDbSavedByObjectVersion
1070
     0
  0
VISUALSTYLE
  5
610
102
{ACAD_REACTORS
330
5F9
102
}
102
{ACAD_XDICTIONARY
360
1FD9
102
}
330
5F9
100
AcDbVisualStyle
  2
Shaded with edges
 70
    26
 71
     2
 72
     2
 73
     1
 90
        2
 40
0.6
 41
30.0
 62
     5
 63
     7
 74
     1
 91
       10
 64
     7
 65
   257
 75
     2
175
     1
 42
1.0
 92
        8
 66
   257
 43
1.0
 76
     1
 77
     6
 78
     2
 67
     7
 79
     3
170
     0
171
     0
290
     0
174
     0
 93
        5
 44
0.0
173
     0
291
     0
 45
0.0
1001
ACAD
1000
AcDbSavedByObjectVersion
1070
     0
  0
VISUALSTYLE
  5
60D
102
{ACAD_REACTORS
330
5F9
102
}
102
{ACAD_XDICTIONARY
360
1FD3
102
}
330
5F9
100
AcDbVisualStyle
  2
Shades of Gray
 70
    23
 71
     2
 72
     2
 73
     3
 90
        0
 40
0.6
 41
30.0
 62
     5
 63
     7
 74
     2
 91
        2
 64
     7
 65
     7
 75
     1
175
     1
 42
40.0
 92
        8
 66
     7
 43
1.0
 76
     1
 77
     6
 78
     2
 67
     7
 79
     3
170
     0
171
     0
290
     0
174
     0
 93
        1
 44
0.0
173
     0
291
     0
 45
0.0
1001
ACAD
1000
AcDbSavedByObjectVersion
1070
     0
  0
VISUALSTYLE
  5
60E
102
{ACAD_REACTORS
330
5F9
102
}
102
{ACAD_XDICTIONARY
360
1FD5
102
}
330
5F9
100
AcDbVisualStyle
  2
Sketchy
 70
    24
 71
     1
 72
     2
 73
     2
 90
        0
 40
0.6
 41
30.0
 62
     5
 63
     7
 74
     2
 91
        2
 64
     7
 65
     7
 75
     1
175
     1
 42
40.0
 92
       11
 66
     7
 43
1.0
 76
     1
 77
     6
 78
     2
 67
     7
 79
     6
170
     0
171
     0
290
     0
174
     0
 93
        1
 44
0.0
173
     0
291
     0
 45
0.0
1001
ACAD
1000
AcDbSavedByObjectVersion
1070
     0
  0
VISUALSTYLE
  5
606
102
{ACAD_REACTORS
330
5F9
102
}
102
{ACAD_XDICTIONARY
360
1FC5
102
}
330
5F9
100
AcDbVisualStyle
  2
Thicken
 70
    13
 71
     2
 72
     2
 73
     0
 90
        0
 40
0.6
 41
30.0
 62
     5
 63
     7
 74
     1
 91
        4
 64
     7
 65
   257
 75
     1
175
     1
 42
1.0
 92
       12
 66
     7
 43
1.0
 76
     1
 77
     6
 78
     2
 67
     7
 79
     5
170
     0
171
     0
290
     0
174
     0
 93
        1
 44
0.0
173
     0
291
     1
 45
0.0
1001
ACAD
1000
AcDbSavedByObjectVersion
1070
     0
  0
VISUALSTYLE
  5
5FF
102
{ACAD_REACTORS
330
5F9
102
}
102
{ACAD_XDICTIONARY
360
1FB7
102
}
330
5F9
100
AcDbVisualStyle
  2
Wireframe
 70
     5
 71
     0
 72
     2
 73
     0
 90
        0
 40
0.6
 41
30.0
 62
     5
 63
     7
 74
     1
 91
        4
 64
     7
 65
   257
 75
     1
175
     1
 42
1.0
 92
        0
 66
   257
 43
1.0
 76
     1
 77
     6
 78
     2
 67
     7
 79
     5
170
     0
171
     0
290
     0
174
     0
 93
        1
 44
0.0
173
     0
291
     0
 45
0.0
1001
ACAD
1000
AcDbSavedByObjectVersion
1070
     0
  0
VISUALSTYLE
  5
60F
102
{ACAD_REACTORS
330
5F9
102
}
102
{ACAD_XDICTIONARY
360
1FD7
102
}
330
5F9
100
AcDbVisualStyle
  2
X-Ray
 70
    25
 71
     2
 72
     2
 73
     1
 90
        1
 40
0.5
 41
30.0
 62
     5
 63
     7
 74
     1
 91
        0
 64
     7
 65
   257
 75
     1
175
     1
 42
1.0
 92
        8
 66
     7
 43
1.0
 76
     1
 77
     6
 78
     2
 67
     7
 79
     3
170
     0
171
     0
290
     0
174
     0
 93
       13
 44
0.0
173
     0
291
     0
 45
0.0
1001
ACAD
1000
AcDbSavedByObjectVersion
1070
     0
  0
XRECORD
  5
1FA8
102
{ACAD_REACTORS
330
1FA7
102
}
330
1FA7
100
AcDbXrecord
280
     1
340
642
  0
XRECORD
  5
1FA9
102
{ACAD_REACTORS
330
1FA7
102
}
330
1FA7
100
AcDbXrecord
280
     1
340
634
  0
DICTIONARYVAR
  5
639
102
{ACAD_REACTORS
330
549
102
}
330
549
100
DictionaryVariables
280
     0
  1
1:1
  0
DICTIONARYVAR
  5
1F0B
102
{ACAD_REACTORS
330
549
102
}
330
549
100
DictionaryVariables
280
     0
  1
Standard
  0
DICTIONARYVAR
  5
54B
102
{ACAD_REACTORS
330
549
102
}
330
549
100
DictionaryVariables
280
     0
  1
0
  0
DICTIONARYVAR
  5
54A
102
{ACAD_REACTORS
330
549
102
}
330
549
100
DictionaryVariables
280
     0
  1
1
  0
DICTIONARYVAR
  5
63B
102
{ACAD_REACTORS
330
549
102
}
330
549
100
DictionaryVariables
280
     0
  1
0
  0
DICTIONARYVAR
  5
63F
102
{ACAD_REACTORS
330
549
102
}
330
549
100
DictionaryVariables
280
     0
  1
0
  0
DICTIONARY
  5
1FDF
330
636
100
AcDbDictionary
280
     1
281
     1
  3
ACAD_XREC_ROUNDTRIP
360
1FE0
  0
DICTIONARY
  5
1FDD
330
635
100
AcDbDictionary
280
     1
281
     1
  3
ACAD_XREC_ROUNDTRIP
360
1FDE
  0
DICTIONARY
  5
1FE1
330
637
100
AcDbDictionary
280
     1
281
     1
  3
ACAD_XREC_ROUNDTRIP
360
1FE2
  0
DICTIONARY
  5
1FE3
330
664
100
AcDbDictionary
280
     1
281
     1
  3
ACAD_XREC_ROUNDTRIP
360
1FE4
  0
DICTIONARY
  5
1FB5
330
5FE
100
AcDbDictionary
280
     1
281
     1
  3
ACAD_XREC_ROUNDTRIP
360
1FB6
  0
DICTIONARY
  5
1FBB
330
601
100
AcDbDictionary
280
     1
281
     1
  3
ACAD_XREC_ROUNDTRIP
360
1FBC
  0
DICTIONARY
  5
1FC3
330
605
100
AcDbDictionary
280
     1
281
     1
  3
ACAD_XREC_ROUNDTRIP
360
1FC4
  0
DICTIONARY
  5
1FCB
330
609
100
AcDbDictionary
280
     1
281
     1
  3
ACAD_XREC_ROUNDTRIP
360
1FCC
  0
DICTIONARY
  5
1FBF
330
603
100
AcDbDictionary
280
     1
281
     1
  3
ACAD_XREC_ROUNDTRIP
360
1FC0
  0
DICTIONARY
  5
1FC1
330
604
100
AcDbDictionary
280
     1
281
     1
  3
ACAD_XREC_ROUNDTRIP
360
1FC2
  0
DICTIONARY
  5
1FD1
330
60C
100
AcDbDictionary
280
     1
281
     1
  3
ACAD_XREC_ROUNDTRIP
360
1FD2
  0
DICTIONARY
  5
1FC9
330
608
100
AcDbDictionary
280
     1
281
     1
  3
ACAD_XREC_ROUNDTRIP
360
1FCA
  0
DICTIONARY
  5
1FAD
330
5FA
100
AcDbDictionary
280
     1
281
     1
  3
ACAD_XREC_ROUNDTRIP
360
1FAE
  0
DICTIONARY
  5
1FAF
330
5FB
100
AcDbDictionary
280
     1
281
     1
  3
ACAD_XREC_ROUNDTRIP
360
1FB0
  0
DICTIONARY
  5
1FB1
330
5FC
100
AcDbDictionary
280
     1
281
     1
  3
ACAD_XREC_ROUNDTRIP
360
1FB2
  0
DICTIONARY
  5
1FB3
330
5FD
100
AcDbDictionary
280
     1
281
     1
  3
ACAD_XREC_ROUNDTRIP
360
1FB4
  0
DICTIONARY
  5
1FB9
330
600
100
AcDbDictionary
280
     1
281
     1
  3
ACAD_XREC_ROUNDTRIP
360
1FBA
  0
DICTIONARY
  5
1FCD
330
60A
100
AcDbDictionary
280
     1
281
     1
  3
ACAD_XREC_ROUNDTRIP
360
1FCE
  0
DICTIONARY
  5
1FC7
330
607
100
AcDbDictionary
280
     1
281
     1
  3
ACAD_XREC_ROUNDTRIP
360
1FC8
  0
DICTIONARY
  5
1FCF
330
60B
100
AcDbDictionary
280
     1
281
     1
  3
ACAD_XREC_ROUNDTRIP
360
1FD0
  0
DICTIONARY
  5
1FBD
330
602
100
AcDbDictionary
280
     1
281
     1
  3
ACAD_XREC_ROUNDTRIP
360
1FBE
  0
DICTIONARY
  5
1FDB
330
611
100
AcDbDictionary
280
     1
281
     1
  3
ACAD_XREC_ROUNDTRIP
360
1FDC
  0
DICTIONARY
  5
1FD9
330
610
100
AcDbDictionary
280
     1
281
     1
  3
ACAD_XREC_ROUNDTRIP
360
1FDA
  0
DICTIONARY
  5
1FD3
330
60D
100
AcDbDictionary
280
     1
281
     1
  3
ACAD_XREC_ROUNDTRIP
360
1FD4
  0
DICTIONARY
  5
1FD5
330
60E
100
AcDbDictionary
280
     1
281
     1
  3
ACAD_XREC_ROUNDTRIP
360
1FD6
  0
DICTIONARY
  5
1FC5
330
606
100
AcDbDictionary
280
     1
281
     1
  3
ACAD_XREC_ROUNDTRIP
360
1FC6
  0
DICTIONARY
  5
1FB7
330
5FF
100
AcDbDictionary
280
     1
281
     1
  3
ACAD_XREC_ROUNDTRIP
360
1FB8
  0
DICTIONARY
  5
1FD7
330
60F
100
AcDbDictionary
280
     1
281
     1
  3
ACAD_XREC_ROUNDTRIP
360
1FD8
  0
XRECORD
  5
1FE0
102
{ACAD_REACTORS
330
1FDF
102
}
330
1FDF
100
AcDbXrecord
280
     1
102
MATERIAL
148
0.0
149
0.0
149
0.0
 93
        0
 94
      127
282
     0
 72
     1
 77
     1
171
     1
175
     1
179
     1
273
     0
  0
XRECORD
  5
1FDE
102
{ACAD_REACTORS
330
1FDD
102
}
330
1FDD
100
AcDbXrecord
280
     1
102
MATERIAL
148
0.0
149
0.0
149
0.0
 93
        0
 94
      127
282
     0
 72
     1
 77
     1
171
     1
175
     1
179
     1
273
     0
  0
XRECORD
  5
1FE2
102
{ACAD_REACTORS
330
1FE1
102
}
330
1FE1
100
AcDbXrecord
280
     1
102
MATERIAL
148
0.0
149
0.0
149
0.0
 93
        0
 94
      127
282
     0
 72
     1
 77
     1
171
     1
175
     1
179
     1
273
     0
  0
XRECORD
  5
1FE4
102
{ACAD_REACTORS
330
1FE3
102
}
330
1FE3
100
AcDbXrecord
280
     1
102
ACAD_ROUNDTRIP_2012_MLEADER_STYLE
298
     1
  0
XRECORD
  5
1FB6
102
{ACAD_REACTORS
330
1FB5
102
}
330
1FB5
100
AcDbXrecord
280
     1
102
RTVSPropertyOp0
 70
     1
102
RTVSPropertyOp1
 70
     1
102
RTVSPropertyOp2
 70
     1
102
RTVSPropertyOp3
 70
     1
102
RTVSPropertyOp4
 70
     1
102
RTVSPropertyOp5
 70
     1
102
RTVSPropertyOp6
 70
     1
102
RTVSPropertyOp7
 70
     1
102
RTVSPropertyOp8
 70
     1
102
RTVSPropertyOp9
 70
     1
102
RTVSPropertyOp10
 70
     1
102
RTVSPropertyOp11
 70
     1
102
RTVSPropertyOp12
 70
     1
102
RTVSPropertyOp13
 70
     1
102
RTVSPropertyOp14
 70
     1
102
RTVSPropertyOp15
 70
     1
102
RTVSPropertyOp16
 70
     1
102
RTVSPropertyOp17
 70
     1
102
RTVSPropertyOp18
 70
     1
102
RTVSPropertyOp19
 70
     1
102
RTVSPropertyOp20
 70
     1
102
RTVSPropertyOp21
 70
     1
102
RTVSPropertyOp22
 70
     1
102
RTVSPropertyOp23
 70
     1
102
RTVSPropertyOp24
 70
     1
102
RTVSPropertyOp25
 70
     1
102
RTVSPropertyOp26
 70
     1
102
RTVSPropertyOp27
 70
     1
102
RTVSPropertyOp28
 70
     1
102
RTVSPropertyOp29
 70
     1
102
RTVSPropertyOp30
 70
     1
102
RTVSPropertyOp31
 70
     1
102
RTVSPropertyOp32
 70
     1
102
RTVSPropertyOp33
 70
     1
102
RTVSPropertyOp34
 70
     1
102
RTVSPropertyOp35
 70
     1
102
RTVSPropertyOp36
 70
     1
102
RTVSPropertyOp37
 70
     1
102
RTVSPropertyOp38
 70
     1
102
RTVSPropertyOp39
 70
     1
102
RTVSPropertyOp40
 70
     1
102
RTVSPropertyOp41
 70
     1
102
RTVSPropertyOp42
 70
     1
102
RTVSPropertyOp43
 70
     1
102
RTVSPropertyOp44
 70
     1
102
RTVSPropertyOp45
 70
     1
102
RTVSPropertyOp46
 70
     1
102
RTVSPropertyOp47
 70
     1
102
RTVSPropertyOp48
 70
     1
102
RTVSPropertyOp49
 70
     1
102
RTVSPropertyOp50
 70
     1
102
RTVSPropertyOp51
 70
     0
102
RTVSPropertyOp52
 70
     0
102
RTVSPropertyOp53
 70
     1
102
RTVSPropertyOp54
 70
     1
102
RTVSPropertyOp55
 70
     1
102
RTVSPropertyOp56
 70
     1
102
RTVSPropertyOp57
 70
     1
102
RTVSPost2010Prop28
280
     1
102
RTVSPost2010PropOp28
 70
     1
102
RTVSPost2010Prop29
280
     1
102
RTVSPost2010PropOp29
 70
     1
102
RTVSPost2010Prop30
280
     0
102
RTVSPost2010PropOp30
 70
     1
102
RTVSPost2010Prop31
280
     0
102
RTVSPost2010PropOp31
 70
     1
102
RTVSPost2010Prop32
280
     0
102
RTVSPost2010PropOp32
 70
     1
102
RTVSPost2010Prop33
280
     0
102
RTVSPost2010PropOp33
 70
     1
102
RTVSPost2010Prop34
280
     0
102
RTVSPost2010PropOp34
 70
     1
102
RTVSPost2010Prop35
280
     0
102
RTVSPost2010PropOp35
 70
     1
102
RTVSPost2010Prop36
280
     0
102
RTVSPost2010PropOp36
 70
     1
102
RTVSPost2010Prop37
 90
       50
102
RTVSPost2010PropOp37
 70
     1
102
RTVSPost2010Prop38
140
0.0
102
RTVSPost2010PropOp38
 70
     1
102
RTVSPost2010Prop39
140
1.0
102
RTVSPost2010PropOp39
 70
     1
102
RTVSPost2010Prop40
 90
        0
102
RTVSPost2010PropOp40
 70
     1
102
RTVSPost2010Prop41ColorIndex
 90
       18
102
RTVSPost2010Prop41ColorRGB
 90
        0
102
RTVSPost2010PropOp41
 70
     1
102
RTVSPost2010Prop42
 90
       50
102
RTVSPost2010PropOp42
 70
     1
102
RTVSPost2010Prop43
 90
        3
102
RTVSPost2010PropOp43
 70
     1
102
RTVSPost2010Prop44ColorIndex
 90
        5
102
RTVSPost2010Prop44ColorRGB
 90
      255
102
RTVSPost2010PropOp44
 70
     1
102
RTVSPost2010Prop45
280
     0
102
RTVSPost2010PropOp45
 70
     1
102
RTVSPost2010Prop46
 90
       50
102
RTVSPost2010PropOp46
 70
     1
102
RTVSPost2010Prop47
 90
       50
102
RTVSPost2010PropOp47
 70
     1
102
RTVSPost2010Prop48
 90
       50
102
RTVSPost2010PropOp48
 70
     1
102
RTVSPost2010Prop49
280
     0
102
RTVSPost2010PropOp49
 70
     1
102
RTVSPost2010Prop50
 90
       50
102
RTVSPost2010PropOp50
 70
     1
102
RTVSPost2010Prop51ColorIndex
 90
      256
102
RTVSPost2010Prop51ColorRGB
 90
-16777216
102
RTVSPost2010PropOp51
 70
     0
102
RTVSPost2010Prop52
140
1.0
102
RTVSPost2010PropOp52
 70
     0
102
RTVSPost2010Prop53
 90
        2
102
RTVSPost2010PropOp53
 70
     1
102
RTVSPost2010Prop54
  1
strokes_ogs.tif
102
RTVSPost2010PropOp54
 70
     1
102
RTVSPost2010Prop55
280
     0
102
RTVSPost2010PropOp55
 70
     1
102
RTVSPost2010Prop56
140
1.0
102
RTVSPost2010PropOp56
 70
     1
102
RTVSPost2010Prop57
140
1.0
102
RTVSPost2010PropOp57
 70
     1
  0
XRECORD
  5
1FBC
102
{ACAD_REACTORS
330
1FBB
102
}
330
1FBB
100
AcDbXrecord
280
     1
102
RTVSPropertyOp0
 70
     1
102
RTVSPropertyOp1
 70
     1
102
RTVSPropertyOp2
 70
     1
102
RTVSPropertyOp3
 70
     1
102
RTVSPropertyOp4
 70
     1
102
RTVSPropertyOp5
 70
     1
102
RTVSPropertyOp6
 70
     1
102
RTVSPropertyOp7
 70
     1
102
RTVSPropertyOp8
 70
     1
102
RTVSPropertyOp9
 70
     1
102
RTVSPropertyOp10
 70
     1
102
RTVSPropertyOp11
 70
     1
102
RTVSPropertyOp12
 70
     1
102
RTVSPropertyOp13
 70
     1
102
RTVSPropertyOp14
 70
     1
102
RTVSPropertyOp15
 70
     1
102
RTVSPropertyOp16
 70
     1
102
RTVSPropertyOp17
 70
     1
102
RTVSPropertyOp18
 70
     1
102
RTVSPropertyOp19
 70
     1
102
RTVSPropertyOp20
 70
     1
102
RTVSPropertyOp21
 70
     1
102
RTVSPropertyOp22
 70
     1
102
RTVSPropertyOp23
 70
     1
102
RTVSPropertyOp24
 70
     1
102
RTVSPropertyOp25
 70
     1
102
RTVSPropertyOp26
 70
     1
102
RTVSPropertyOp27
 70
     1
102
RTVSPropertyOp28
 70
     1
102
RTVSPropertyOp29
 70
     1
102
RTVSPropertyOp30
 70
     1
102
RTVSPropertyOp31
 70
     1
102
RTVSPropertyOp32
 70
     1
102
RTVSPropertyOp33
 70
     1
102
RTVSPropertyOp34
 70
     1
102
RTVSPropertyOp35
 70
     1
102
RTVSPropertyOp36
 70
     1
102
RTVSPropertyOp37
 70
     1
102
RTVSPropertyOp38
 70
     1
102
RTVSPropertyOp39
 70
     1
102
RTVSPropertyOp40
 70
     1
102
RTVSPropertyOp41
 70
     1
102
RTVSPropertyOp42
 70
     1
102
RTVSPropertyOp43
 70
     1
102
RTVSPropertyOp44
 70
     1
102
RTVSPropertyOp45
 70
     1
102
RTVSPropertyOp46
 70
     1
102
RTVSPropertyOp47
 70
     1
102
RTVSPropertyOp48
 70
     1
102
RTVSPropertyOp49
 70
     1
102
RTVSPropertyOp50
 70
     1
102
RTVSPropertyOp51
 70
     0
102
RTVSPropertyOp52
 70
     0
102
RTVSPropertyOp53
 70
     1
102
RTVSPropertyOp54
 70
     1
102
RTVSPropertyOp55
 70
     1
102
RTVSPropertyOp56
 70
     1
102
RTVSPropertyOp57
 70
     1
102
RTVSPost2010Prop28
280
     0
102
RTVSPost2010PropOp28
 70
     1
102
RTVSPost2010Prop29
280
     1
102
RTVSPost2010PropOp29
 70
     1
102
RTVSPost2010Prop30
280
     1
102
RTVSPost2010PropOp30
 70
     1
102
RTVSPost2010Prop31
280
     0
102
RTVSPost2010PropOp31
 70
     1
102
RTVSPost2010Prop32
280
     0
102
RTVSPost2010PropOp32
 70
     1
102
RTVSPost2010Prop33
280
     0
102
RTVSPost2010PropOp33
 70
     1
102
RTVSPost2010Prop34
280
     0
102
RTVSPost2010PropOp34
 70
     1
102
RTVSPost2010Prop35
280
     0
102
RTVSPost2010PropOp35
 70
     1
102
RTVSPost2010Prop36
280
     0
102
RTVSPost2010PropOp36
 70
     1
102
RTVSPost2010Prop37
 90
       50
102
RTVSPost2010PropOp37
 70
     1
102
RTVSPost2010Prop38
140
0.0
102
RTVSPost2010PropOp38
 70
     1
102
RTVSPost2010Prop39
140
1.0
102
RTVSPost2010PropOp39
 70
     1
102
RTVSPost2010Prop40
 90
        0
102
RTVSPost2010PropOp40
 70
     1
102
RTVSPost2010Prop41ColorIndex
 90
       18
102
RTVSPost2010Prop41ColorRGB
 90
        0
102
RTVSPost2010PropOp41
 70
     1
102
RTVSPost2010Prop42
 90
       50
102
RTVSPost2010PropOp42
 70
     1
102
RTVSPost2010Prop43
 90
        3
102
RTVSPost2010PropOp43
 70
     1
102
RTVSPost2010Prop44ColorIndex
 90
        5
102
RTVSPost2010Prop44ColorRGB
 90
      255
102
RTVSPost2010PropOp44
 70
     1
102
RTVSPost2010Prop45
280
     0
102
RTVSPost2010PropOp45
 70
     1
102
RTVSPost2010Prop46
 90
       50
102
RTVSPost2010PropOp46
 70
     1
102
RTVSPost2010Prop47
 90
       50
102
RTVSPost2010PropOp47
 70
     1
102
RTVSPost2010Prop48
 90
       50
102
RTVSPost2010PropOp48
 70
     1
102
RTVSPost2010Prop49
280
     0
102
RTVSPost2010PropOp49
 70
     1
102
RTVSPost2010Prop50
 90
       50
102
RTVSPost2010PropOp50
 70
     1
102
RTVSPost2010Prop51ColorIndex
 90
      256
102
RTVSPost2010Prop51ColorRGB
 90
-16777216
102
RTVSPost2010PropOp51
 70
     0
102
RTVSPost2010Prop52
140
1.0
102
RTVSPost2010PropOp52
 70
     0
102
RTVSPost2010Prop53
 90
        2
102
RTVSPost2010PropOp53
 70
     1
102
RTVSPost2010Prop54
  1
strokes_ogs.tif
102
RTVSPost2010PropOp54
 70
     1
102
RTVSPost2010Prop55
280
     0
102
RTVSPost2010PropOp55
 70
     1
102
RTVSPost2010Prop56
140
1.0
102
RTVSPost2010PropOp56
 70
     1
102
RTVSPost2010Prop57
140
1.0
102
RTVSPost2010PropOp57
 70
     1
  0
XRECORD
  5
1FC4
102
{ACAD_REACTORS
330
1FC3
102
}
330
1FC3
100
AcDbXrecord
280
     1
102
RTVSPropertyOp0
 70
     1
102
RTVSPropertyOp1
 70
     1
102
RTVSPropertyOp2
 70
     1
102
RTVSPropertyOp3
 70
     1
102
RTVSPropertyOp4
 70
     1
102
RTVSPropertyOp5
 70
     1
102
RTVSPropertyOp6
 70
     1
102
RTVSPropertyOp7
 70
     1
102
RTVSPropertyOp8
 70
     1
102
RTVSPropertyOp9
 70
     1
102
RTVSPropertyOp10
 70
     1
102
RTVSPropertyOp11
 70
     1
102
RTVSPropertyOp12
 70
     1
102
RTVSPropertyOp13
 70
     1
102
RTVSPropertyOp14
 70
     1
102
RTVSPropertyOp15
 70
     1
102
RTVSPropertyOp16
 70
     1
102
RTVSPropertyOp17
 70
     1
102
RTVSPropertyOp18
 70
     1
102
RTVSPropertyOp19
 70
     1
102
RTVSPropertyOp20
 70
     1
102
RTVSPropertyOp21
 70
     1
102
RTVSPropertyOp22
 70
     1
102
RTVSPropertyOp23
 70
     1
102
RTVSPropertyOp24
 70
     1
102
RTVSPropertyOp25
 70
     1
102
RTVSPropertyOp26
 70
     1
102
RTVSPropertyOp27
 70
     1
102
RTVSPropertyOp28
 70
     1
102
RTVSPropertyOp29
 70
     1
102
RTVSPropertyOp30
 70
     1
102
RTVSPropertyOp31
 70
     1
102
RTVSPropertyOp32
 70
     1
102
RTVSPropertyOp33
 70
     1
102
RTVSPropertyOp34
 70
     1
102
RTVSPropertyOp35
 70
     1
102
RTVSPropertyOp36
 70
     1
102
RTVSPropertyOp37
 70
     1
102
RTVSPropertyOp38
 70
     1
102
RTVSPropertyOp39
 70
     1
102
RTVSPropertyOp40
 70
     1
102
RTVSPropertyOp41
 70
     1
102
RTVSPropertyOp42
 70
     1
102
RTVSPropertyOp43
 70
     1
102
RTVSPropertyOp44
 70
     1
102
RTVSPropertyOp45
 70
     1
102
RTVSPropertyOp46
 70
     1
102
RTVSPropertyOp47
 70
     1
102
RTVSPropertyOp48
 70
     1
102
RTVSPropertyOp49
 70
     1
102
RTVSPropertyOp50
 70
     1
102
RTVSPropertyOp51
 70
     0
102
RTVSPropertyOp52
 70
     0
102
RTVSPropertyOp53
 70
     1
102
RTVSPropertyOp54
 70
     1
102
RTVSPropertyOp55
 70
     1
102
RTVSPropertyOp56
 70
     1
102
RTVSPropertyOp57
 70
     1
102
RTVSPost2010Prop28
280
     0
102
RTVSPost2010PropOp28
 70
     1
102
RTVSPost2010Prop29
280
     1
102
RTVSPost2010PropOp29
 70
     1
102
RTVSPost2010Prop30
280
     1
102
RTVSPost2010PropOp30
 70
     1
102
RTVSPost2010Prop31
280
     0
102
RTVSPost2010PropOp31
 70
     1
102
RTVSPost2010Prop32
280
     0
102
RTVSPost2010PropOp32
 70
     1
102
RTVSPost2010Prop33
280
     0
102
RTVSPost2010PropOp33
 70
     1
102
RTVSPost2010Prop34
280
     0
102
RTVSPost2010PropOp34
 70
     1
102
RTVSPost2010Prop35
280
     0
102
RTVSPost2010PropOp35
 70
     1
102
RTVSPost2010Prop36
280
     0
102
RTVSPost2010PropOp36
 70
     1
102
RTVSPost2010Prop37
 90
       50
102
RTVSPost2010PropOp37
 70
     1
102
RTVSPost2010Prop38
140
0.0
102
RTVSPost2010PropOp38
 70
     1
102
RTVSPost2010Prop39
140
1.0
102
RTVSPost2010PropOp39
 70
     1
102
RTVSPost2010Prop40
 90
        0
102
RTVSPost2010PropOp40
 70
     1
102
RTVSPost2010Prop41ColorIndex
 90
       18
102
RTVSPost2010Prop41ColorRGB
 90
        0
102
RTVSPost2010PropOp41
 70
     1
102
RTVSPost2010Prop42
 90
       50
102
RTVSPost2010PropOp42
 70
     1
102
RTVSPost2010Prop43
 90
        3
102
RTVSPost2010PropOp43
 70
     1
102
RTVSPost2010Prop44ColorIndex
 90
        5
102
RTVSPost2010Prop44ColorRGB
 90
      255
102
RTVSPost2010PropOp44
 70
     1
102
RTVSPost2010Prop45
280
     0
102
RTVSPost2010PropOp45
 70
     1
102
RTVSPost2010Prop46
 90
       50
102
RTVSPost2010PropOp46
 70
     1
102
RTVSPost2010Prop47
 90
       50
102
RTVSPost2010PropOp47
 70
     1
102
RTVSPost2010Prop48
 90
       50
102
RTVSPost2010PropOp48
 70
     1
102
RTVSPost2010Prop49
280
     0
102
RTVSPost2010PropOp49
 70
     1
102
RTVSPost2010Prop50
 90
       50
102
RTVSPost2010PropOp50
 70
     1
102
RTVSPost2010Prop51ColorIndex
 90
      256
102
RTVSPost2010Prop51ColorRGB
 90
-16777216
102
RTVSPost2010PropOp51
 70
     0
102
RTVSPost2010Prop52
140
1.0
102
RTVSPost2010PropOp52
 70
     0
102
RTVSPost2010Prop53
 90
        2
102
RTVSPost2010PropOp53
 70
     1
102
RTVSPost2010Prop54
  1
strokes_ogs.tif
102
RTVSPost2010PropOp54
 70
     1
102
RTVSPost2010Prop55
280
     0
102
RTVSPost2010PropOp55
 70
     1
102
RTVSPost2010Prop56
140
1.0
102
RTVSPost2010PropOp56
 70
     1
102
RTVSPost2010Prop57
140
1.0
102
RTVSPost2010PropOp57
 70
     1
  0
XRECORD
  5
1FCC
102
{ACAD_REACTORS
330
1FCB
102
}
330
1FCB
100
AcDbXrecord
280
     1
102
RTVSPropertyOp0
 70
     1
102
RTVSPropertyOp1
 70
     1
102
RTVSPropertyOp2
 70
     1
102
RTVSPropertyOp3
 70
     1
102
RTVSPropertyOp4
 70
     1
102
RTVSPropertyOp5
 70
     1
102
RTVSPropertyOp6
 70
     1
102
RTVSPropertyOp7
 70
     1
102
RTVSPropertyOp8
 70
     1
102
RTVSPropertyOp9
 70
     1
102
RTVSPropertyOp10
 70
     1
102
RTVSPropertyOp11
 70
     1
102
RTVSPropertyOp12
 70
     1
102
RTVSPropertyOp13
 70
     1
102
RTVSPropertyOp14
 70
     1
102
RTVSPropertyOp15
 70
     1
102
RTVSPropertyOp16
 70
     1
102
RTVSPropertyOp17
 70
     1
102
RTVSPropertyOp18
 70
     1
102
RTVSPropertyOp19
 70
     1
102
RTVSPropertyOp20
 70
     1
102
RTVSPropertyOp21
 70
     1
102
RTVSPropertyOp22
 70
     1
102
RTVSPropertyOp23
 70
     1
102
RTVSPropertyOp24
 70
     1
102
RTVSPropertyOp25
 70
     1
102
RTVSPropertyOp26
 70
     1
102
RTVSPropertyOp27
 70
     1
102
RTVSPropertyOp28
 70
     1
102
RTVSPropertyOp29
 70
     1
102
RTVSPropertyOp30
 70
     1
102
RTVSPropertyOp31
 70
     1
102
RTVSPropertyOp32
 70
     1
102
RTVSPropertyOp33
 70
     1
102
RTVSPropertyOp34
 70
     1
102
RTVSPropertyOp35
 70
     1
102
RTVSPropertyOp36
 70
     1
102
RTVSPropertyOp37
 70
     1
102
RTVSPropertyOp38
 70
     1
102
RTVSPropertyOp39
 70
     1
102
RTVSPropertyOp40
 70
     1
102
RTVSPropertyOp41
 70
     1
102
RTVSPropertyOp42
 70
     1
102
RTVSPropertyOp43
 70
     1
102
RTVSPropertyOp44
 70
     1
102
RTVSPropertyOp45
 70
     1
102
RTVSPropertyOp46
 70
     1
102
RTVSPropertyOp47
 70
     1
102
RTVSPropertyOp48
 70
     1
102
RTVSPropertyOp49
 70
     1
102
RTVSPropertyOp50
 70
     1
102
RTVSPropertyOp51
 70
     0
102
RTVSPropertyOp52
 70
     0
102
RTVSPropertyOp53
 70
     1
102
RTVSPropertyOp54
 70
     1
102
RTVSPropertyOp55
 70
     1
102
RTVSPropertyOp56
 70
     1
102
RTVSPropertyOp57
 70
     1
102
RTVSPost2010Prop28
280
     0
102
RTVSPost2010PropOp28
 70
     1
102
RTVSPost2010Prop29
280
     1
102
RTVSPost2010PropOp29
 70
     1
102
RTVSPost2010Prop30
280
     1
102
RTVSPost2010PropOp30
 70
     1
102
RTVSPost2010Prop31
280
     0
102
RTVSPost2010PropOp31
 70
     1
102
RTVSPost2010Prop32
280
     0
102
RTVSPost2010PropOp32
 70
     1
102
RTVSPost2010Prop33
280
     0
102
RTVSPost2010PropOp33
 70
     1
102
RTVSPost2010Prop34
280
     0
102
RTVSPost2010PropOp34
 70
     1
102
RTVSPost2010Prop35
280
     0
102
RTVSPost2010PropOp35
 70
     1
102
RTVSPost2010Prop36
280
     0
102
RTVSPost2010PropOp36
 70
     1
102
RTVSPost2010Prop37
 90
       50
102
RTVSPost2010PropOp37
 70
     1
102
RTVSPost2010Prop38
140
0.0
102
RTVSPost2010PropOp38
 70
     1
102
RTVSPost2010Prop39
140
1.0
102
RTVSPost2010PropOp39
 70
     1
102
RTVSPost2010Prop40
 90
        0
102
RTVSPost2010PropOp40
 70
     1
102
RTVSPost2010Prop41ColorIndex
 90
       18
102
RTVSPost2010Prop41ColorRGB
 90
        0
102
RTVSPost2010PropOp41
 70
     1
102
RTVSPost2010Prop42
 90
       50
102
RTVSPost2010PropOp42
 70
     1
102
RTVSPost2010Prop43
 90
        3
102
RTVSPost2010PropOp43
 70
     1
102
RTVSPost2010Prop44ColorIndex
 90
        5
102
RTVSPost2010Prop44ColorRGB
 90
      255
102
RTVSPost2010PropOp44
 70
     1
102
RTVSPost2010Prop45
280
     0
102
RTVSPost2010PropOp45
 70
     1
102
RTVSPost2010Prop46
 90
       50
102
RTVSPost2010PropOp46
 70
     1
102
RTVSPost2010Prop47
 90
       50
102
RTVSPost2010PropOp47
 70
     1
102
RTVSPost2010Prop48
 90
       50
102
RTVSPost2010PropOp48
 70
     1
102
RTVSPost2010Prop49
280
     0
102
RTVSPost2010PropOp49
 70
     1
102
RTVSPost2010Prop50
 90
       50
102
RTVSPost2010PropOp50
 70
     1
102
RTVSPost2010Prop51ColorIndex
 90
      256
102
RTVSPost2010Prop51ColorRGB
 90
-16777216
102
RTVSPost2010PropOp51
 70
     0
102
RTVSPost2010Prop52
140
1.0
102
RTVSPost2010PropOp52
 70
     0
102
RTVSPost2010Prop53
 90
        2
102
RTVSPost2010PropOp53
 70
     1
102
RTVSPost2010Prop54
  1
strokes_ogs.tif
102
RTVSPost2010PropOp54
 70
     1
102
RTVSPost2010Prop55
280
     0
102
RTVSPost2010PropOp55
 70
     1
102
RTVSPost2010Prop56
140
1.0
102
RTVSPost2010PropOp56
 70
     1
102
RTVSPost2010Prop57
140
1.0
102
RTVSPost2010PropOp57
 70
     1
  0
XRECORD
  5
1FC0
102
{ACAD_REACTORS
330
1FBF
102
}
330
1FBF
100
AcDbXrecord
280
     1
102
RTVSPropertyOp0
 70
     1
102
RTVSPropertyOp1
 70
     1
102
RTVSPropertyOp2
 70
     1
102
RTVSPropertyOp3
 70
     1
102
RTVSPropertyOp4
 70
     1
102
RTVSPropertyOp5
 70
     1
102
RTVSPropertyOp6
 70
     1
102
RTVSPropertyOp7
 70
     1
102
RTVSPropertyOp8
 70
     1
102
RTVSPropertyOp9
 70
     1
102
RTVSPropertyOp10
 70
     1
102
RTVSPropertyOp11
 70
     1
102
RTVSPropertyOp12
 70
     1
102
RTVSPropertyOp13
 70
     1
102
RTVSPropertyOp14
 70
     1
102
RTVSPropertyOp15
 70
     1
102
RTVSPropertyOp16
 70
     1
102
RTVSPropertyOp17
 70
     1
102
RTVSPropertyOp18
 70
     1
102
RTVSPropertyOp19
 70
     1
102
RTVSPropertyOp20
 70
     1
102
RTVSPropertyOp21
 70
     1
102
RTVSPropertyOp22
 70
     1
102
RTVSPropertyOp23
 70
     1
102
RTVSPropertyOp24
 70
     1
102
RTVSPropertyOp25
 70
     1
102
RTVSPropertyOp26
 70
     1
102
RTVSPropertyOp27
 70
     1
102
RTVSPropertyOp28
 70
     1
102
RTVSPropertyOp29
 70
     1
102
RTVSPropertyOp30
 70
     1
102
RTVSPropertyOp31
 70
     1
102
RTVSPropertyOp32
 70
     1
102
RTVSPropertyOp33
 70
     1
102
RTVSPropertyOp34
 70
     1
102
RTVSPropertyOp35
 70
     1
102
RTVSPropertyOp36
 70
     1
102
RTVSPropertyOp37
 70
     1
102
RTVSPropertyOp38
 70
     1
102
RTVSPropertyOp39
 70
     1
102
RTVSPropertyOp40
 70
     1
102
RTVSPropertyOp41
 70
     1
102
RTVSPropertyOp42
 70
     1
102
RTVSPropertyOp43
 70
     1
102
RTVSPropertyOp44
 70
     1
102
RTVSPropertyOp45
 70
     1
102
RTVSPropertyOp46
 70
     1
102
RTVSPropertyOp47
 70
     1
102
RTVSPropertyOp48
 70
     1
102
RTVSPropertyOp49
 70
     1
102
RTVSPropertyOp50
 70
     1
102
RTVSPropertyOp51
 70
     0
102
RTVSPropertyOp52
 70
     0
102
RTVSPropertyOp53
 70
     1
102
RTVSPropertyOp54
 70
     1
102
RTVSPropertyOp55
 70
     1
102
RTVSPropertyOp56
 70
     1
102
RTVSPropertyOp57
 70
     1
102
RTVSPost2010Prop28
280
     0
102
RTVSPost2010PropOp28
 70
     1
102
RTVSPost2010Prop29
280
     1
102
RTVSPost2010PropOp29
 70
     1
102
RTVSPost2010Prop30
280
     1
102
RTVSPost2010PropOp30
 70
     1
102
RTVSPost2010Prop31
280
     0
102
RTVSPost2010PropOp31
 70
     1
102
RTVSPost2010Prop32
280
     0
102
RTVSPost2010PropOp32
 70
     1
102
RTVSPost2010Prop33
280
     0
102
RTVSPost2010PropOp33
 70
     1
102
RTVSPost2010Prop34
280
     0
102
RTVSPost2010PropOp34
 70
     1
102
RTVSPost2010Prop35
280
     0
102
RTVSPost2010PropOp35
 70
     1
102
RTVSPost2010Prop36
280
     0
102
RTVSPost2010PropOp36
 70
     1
102
RTVSPost2010Prop37
 90
       50
102
RTVSPost2010PropOp37
 70
     1
102
RTVSPost2010Prop38
140
0.0
102
RTVSPost2010PropOp38
 70
     1
102
RTVSPost2010Prop39
140
1.0
102
RTVSPost2010PropOp39
 70
     1
102
RTVSPost2010Prop40
 90
        0
102
RTVSPost2010PropOp40
 70
     1
102
RTVSPost2010Prop41ColorIndex
 90
       18
102
RTVSPost2010Prop41ColorRGB
 90
        0
102
RTVSPost2010PropOp41
 70
     1
102
RTVSPost2010Prop42
 90
       50
102
RTVSPost2010PropOp42
 70
     1
102
RTVSPost2010Prop43
 90
        3
102
RTVSPost2010PropOp43
 70
     1
102
RTVSPost2010Prop44ColorIndex
 90
        5
102
RTVSPost2010Prop44ColorRGB
 90
      255
102
RTVSPost2010PropOp44
 70
     1
102
RTVSPost2010Prop45
280
     0
102
RTVSPost2010PropOp45
 70
     1
102
RTVSPost2010Prop46
 90
       50
102
RTVSPost2010PropOp46
 70
     1
102
RTVSPost2010Prop47
 90
       50
102
RTVSPost2010PropOp47
 70
     1
102
RTVSPost2010Prop48
 90
       50
102
RTVSPost2010PropOp48
 70
     1
102
RTVSPost2010Prop49
280
     0
102
RTVSPost2010PropOp49
 70
     1
102
RTVSPost2010Prop50
 90
       50
102
RTVSPost2010PropOp50
 70
     1
102
RTVSPost2010Prop51ColorIndex
 90
      256
102
RTVSPost2010Prop51ColorRGB
 90
-16777216
102
RTVSPost2010PropOp51
 70
     0
102
RTVSPost2010Prop52
140
1.0
102
RTVSPost2010PropOp52
 70
     0
102
RTVSPost2010Prop53
 90
        2
102
RTVSPost2010PropOp53
 70
     1
102
RTVSPost2010Prop54
  1
strokes_ogs.tif
102
RTVSPost2010PropOp54
 70
     1
102
RTVSPost2010Prop55
280
     0
102
RTVSPost2010PropOp55
 70
     1
102
RTVSPost2010Prop56
140
1.0
102
RTVSPost2010PropOp56
 70
     1
102
RTVSPost2010Prop57
140
1.0
102
RTVSPost2010PropOp57
 70
     1
  0
XRECORD
  5
1FC2
102
{ACAD_REACTORS
330
1FC1
102
}
330
1FC1
100
AcDbXrecord
280
     1
102
RTVSPropertyOp0
 70
     1
102
RTVSPropertyOp1
 70
     1
102
RTVSPropertyOp2
 70
     1
102
RTVSPropertyOp3
 70
     1
102
RTVSPropertyOp4
 70
     1
102
RTVSPropertyOp5
 70
     1
102
RTVSPropertyOp6
 70
     1
102
RTVSPropertyOp7
 70
     1
102
RTVSPropertyOp8
 70
     1
102
RTVSPropertyOp9
 70
     1
102
RTVSPropertyOp10
 70
     1
102
RTVSPropertyOp11
 70
     1
102
RTVSPropertyOp12
 70
     1
102
RTVSPropertyOp13
 70
     1
102
RTVSPropertyOp14
 70
     1
102
RTVSPropertyOp15
 70
     1
102
RTVSPropertyOp16
 70
     1
102
RTVSPropertyOp17
 70
     1
102
RTVSPropertyOp18
 70
     1
102
RTVSPropertyOp19
 70
     1
102
RTVSPropertyOp20
 70
     1
102
RTVSPropertyOp21
 70
     1
102
RTVSPropertyOp22
 70
     1
102
RTVSPropertyOp23
 70
     1
102
RTVSPropertyOp24
 70
     1
102
RTVSPropertyOp25
 70
     1
102
RTVSPropertyOp26
 70
     1
102
RTVSPropertyOp27
 70
     1
102
RTVSPropertyOp28
 70
     1
102
RTVSPropertyOp29
 70
     1
102
RTVSPropertyOp30
 70
     1
102
RTVSPropertyOp31
 70
     1
102
RTVSPropertyOp32
 70
     1
102
RTVSPropertyOp33
 70
     1
102
RTVSPropertyOp34
 70
     1
102
RTVSPropertyOp35
 70
     1
102
RTVSPropertyOp36
 70
     1
102
RTVSPropertyOp37
 70
     1
102
RTVSPropertyOp38
 70
     1
102
RTVSPropertyOp39
 70
     1
102
RTVSPropertyOp40
 70
     1
102
RTVSPropertyOp41
 70
     1
102
RTVSPropertyOp42
 70
     1
102
RTVSPropertyOp43
 70
     1
102
RTVSPropertyOp44
 70
     1
102
RTVSPropertyOp45
 70
     1
102
RTVSPropertyOp46
 70
     1
102
RTVSPropertyOp47
 70
     1
102
RTVSPropertyOp48
 70
     1
102
RTVSPropertyOp49
 70
     1
102
RTVSPropertyOp50
 70
     1
102
RTVSPropertyOp51
 70
     0
102
RTVSPropertyOp52
 70
     0
102
RTVSPropertyOp53
 70
     1
102
RTVSPropertyOp54
 70
     1
102
RTVSPropertyOp55
 70
     1
102
RTVSPropertyOp56
 70
     1
102
RTVSPropertyOp57
 70
     1
102
RTVSPost2010Prop28
280
     0
102
RTVSPost2010PropOp28
 70
     1
102
RTVSPost2010Prop29
280
     1
102
RTVSPost2010PropOp29
 70
     1
102
RTVSPost2010Prop30
280
     1
102
RTVSPost2010PropOp30
 70
     1
102
RTVSPost2010Prop31
280
     0
102
RTVSPost2010PropOp31
 70
     1
102
RTVSPost2010Prop32
280
     0
102
RTVSPost2010PropOp32
 70
     1
102
RTVSPost2010Prop33
280
     0
102
RTVSPost2010PropOp33
 70
     1
102
RTVSPost2010Prop34
280
     0
102
RTVSPost2010PropOp34
 70
     1
102
RTVSPost2010Prop35
280
     0
102
RTVSPost2010PropOp35
 70
     1
102
RTVSPost2010Prop36
280
     0
102
RTVSPost2010PropOp36
 70
     1
102
RTVSPost2010Prop37
 90
       50
102
RTVSPost2010PropOp37
 70
     1
102
RTVSPost2010Prop38
140
0.0
102
RTVSPost2010PropOp38
 70
     1
102
RTVSPost2010Prop39
140
1.0
102
RTVSPost2010PropOp39
 70
     1
102
RTVSPost2010Prop40
 90
        0
102
RTVSPost2010PropOp40
 70
     1
102
RTVSPost2010Prop41ColorIndex
 90
       18
102
RTVSPost2010Prop41ColorRGB
 90
        0
102
RTVSPost2010PropOp41
 70
     1
102
RTVSPost2010Prop42
 90
       50
102
RTVSPost2010PropOp42
 70
     1
102
RTVSPost2010Prop43
 90
        3
102
RTVSPost2010PropOp43
 70
     1
102
RTVSPost2010Prop44ColorIndex
 90
        5
102
RTVSPost2010Prop44ColorRGB
 90
      255
102
RTVSPost2010PropOp44
 70
     1
102
RTVSPost2010Prop45
280
     0
102
RTVSPost2010PropOp45
 70
     1
102
RTVSPost2010Prop46
 90
       50
102
RTVSPost2010PropOp46
 70
     1
102
RTVSPost2010Prop47
 90
       50
102
RTVSPost2010PropOp47
 70
     1
102
RTVSPost2010Prop48
 90
       50
102
RTVSPost2010PropOp48
 70
     1
102
RTVSPost2010Prop49
280
     0
102
RTVSPost2010PropOp49
 70
     1
102
RTVSPost2010Prop50
 90
       50
102
RTVSPost2010PropOp50
 70
     1
102
RTVSPost2010Prop51ColorIndex
 90
      256
102
RTVSPost2010Prop51ColorRGB
 90
-16777216
102
RTVSPost2010PropOp51
 70
     0
102
RTVSPost2010Prop52
140
1.0
102
RTVSPost2010PropOp52
 70
     0
102
RTVSPost2010Prop53
 90
        2
102
RTVSPost2010PropOp53
 70
     1
102
RTVSPost2010Prop54
  1
strokes_ogs.tif
102
RTVSPost2010PropOp54
 70
     1
102
RTVSPost2010Prop55
280
     0
102
RTVSPost2010PropOp55
 70
     1
102
RTVSPost2010Prop56
140
1.0
102
RTVSPost2010PropOp56
 70
     1
102
RTVSPost2010Prop57
140
1.0
102
RTVSPost2010PropOp57
 70
     1
  0
XRECORD
  5
1FD2
102
{ACAD_REACTORS
330
1FD1
102
}
330
1FD1
100
AcDbXrecord
280
     1
102
RTVSPropertyOp0
 70
     0
102
RTVSPropertyOp1
 70
     0
102
RTVSPropertyOp2
 70
     0
102
RTVSPropertyOp3
 70
     0
102
RTVSPropertyOp4
 70
     0
102
RTVSPropertyOp5
 70
     0
102
RTVSPropertyOp6
 70
     0
102
RTVSPropertyOp7
 70
     0
102
RTVSPropertyOp8
 70
     0
102
RTVSPropertyOp9
 70
     0
102
RTVSPropertyOp10
 70
     0
102
RTVSPropertyOp11
 70
     0
102
RTVSPropertyOp12
 70
     0
102
RTVSPropertyOp13
 70
     0
102
RTVSPropertyOp14
 70
     0
102
RTVSPropertyOp15
 70
     0
102
RTVSPropertyOp16
 70
     0
102
RTVSPropertyOp17
 70
     0
102
RTVSPropertyOp18
 70
     0
102
RTVSPropertyOp19
 70
     0
102
RTVSPropertyOp20
 70
     0
102
RTVSPropertyOp21
 70
     0
102
RTVSPropertyOp22
 70
     0
102
RTVSPropertyOp23
 70
     0
102
RTVSPropertyOp24
 70
     0
102
RTVSPropertyOp25
 70
     0
102
RTVSPropertyOp26
 70
     0
102
RTVSPropertyOp27
 70
     0
102
RTVSPropertyOp28
 70
     1
102
RTVSPropertyOp29
 70
     1
102
RTVSPropertyOp30
 70
     1
102
RTVSPropertyOp31
 70
     1
102
RTVSPropertyOp32
 70
     1
102
RTVSPropertyOp33
 70
     1
102
RTVSPropertyOp34
 70
     1
102
RTVSPropertyOp35
 70
     1
102
RTVSPropertyOp36
 70
     1
102
RTVSPropertyOp37
 70
     1
102
RTVSPropertyOp38
 70
     1
102
RTVSPropertyOp39
 70
     1
102
RTVSPropertyOp40
 70
     1
102
RTVSPropertyOp41
 70
     1
102
RTVSPropertyOp42
 70
     1
102
RTVSPropertyOp43
 70
     1
102
RTVSPropertyOp44
 70
     1
102
RTVSPropertyOp45
 70
     1
102
RTVSPropertyOp46
 70
     1
102
RTVSPropertyOp47
 70
     1
102
RTVSPropertyOp48
 70
     1
102
RTVSPropertyOp49
 70
     1
102
RTVSPropertyOp50
 70
     1
102
RTVSPropertyOp51
 70
     0
102
RTVSPropertyOp52
 70
     0
102
RTVSPropertyOp53
 70
     1
102
RTVSPropertyOp54
 70
     1
102
RTVSPropertyOp55
 70
     1
102
RTVSPropertyOp56
 70
     1
102
RTVSPropertyOp57
 70
     1
102
RTVSPost2010Prop28
280
     0
102
RTVSPost2010PropOp28
 70
     1
102
RTVSPost2010Prop29
280
     1
102
RTVSPost2010PropOp29
 70
     1
102
RTVSPost2010Prop30
280
     1
102
RTVSPost2010PropOp30
 70
     1
102
RTVSPost2010Prop31
280
     0
102
RTVSPost2010PropOp31
 70
     1
102
RTVSPost2010Prop32
280
     0
102
RTVSPost2010PropOp32
 70
     1
102
RTVSPost2010Prop33
280
     0
102
RTVSPost2010PropOp33
 70
     1
102
RTVSPost2010Prop34
280
     0
102
RTVSPost2010PropOp34
 70
     1
102
RTVSPost2010Prop35
280
     0
102
RTVSPost2010PropOp35
 70
     1
102
RTVSPost2010Prop36
280
     0
102
RTVSPost2010PropOp36
 70
     1
102
RTVSPost2010Prop37
 90
       50
102
RTVSPost2010PropOp37
 70
     1
102
RTVSPost2010Prop38
140
0.0
102
RTVSPost2010PropOp38
 70
     1
102
RTVSPost2010Prop39
140
1.0
102
RTVSPost2010PropOp39
 70
     1
102
RTVSPost2010Prop40
 90
        0
102
RTVSPost2010PropOp40
 70
     1
102
RTVSPost2010Prop41ColorIndex
 90
       18
102
RTVSPost2010Prop41ColorRGB
 90
        0
102
RTVSPost2010PropOp41
 70
     1
102
RTVSPost2010Prop42
 90
       50
102
RTVSPost2010PropOp42
 70
     1
102
RTVSPost2010Prop43
 90
        3
102
RTVSPost2010PropOp43
 70
     1
102
RTVSPost2010Prop44ColorIndex
 90
        5
102
RTVSPost2010Prop44ColorRGB
 90
      255
102
RTVSPost2010PropOp44
 70
     1
102
RTVSPost2010Prop45
280
     0
102
RTVSPost2010PropOp45
 70
     1
102
RTVSPost2010Prop46
 90
       50
102
RTVSPost2010PropOp46
 70
     1
102
RTVSPost2010Prop47
 90
       50
102
RTVSPost2010PropOp47
 70
     1
102
RTVSPost2010Prop48
 90
       50
102
RTVSPost2010PropOp48
 70
     1
102
RTVSPost2010Prop49
280
     0
102
RTVSPost2010PropOp49
 70
     1
102
RTVSPost2010Prop50
 90
       50
102
RTVSPost2010PropOp50
 70
     1
102
RTVSPost2010Prop51ColorIndex
 90
      256
102
RTVSPost2010Prop51ColorRGB
 90
-16777216
102
RTVSPost2010PropOp51
 70
     0
102
RTVSPost2010Prop52
140
1.0
102
RTVSPost2010PropOp52
 70
     0
102
RTVSPost2010Prop53
 90
        2
102
RTVSPost2010PropOp53
 70
     1
102
RTVSPost2010Prop54
  1
strokes_ogs.tif
102
RTVSPost2010PropOp54
 70
     1
102
RTVSPost2010Prop55
280
     0
102
RTVSPost2010PropOp55
 70
     1
102
RTVSPost2010Prop56
140
1.0
102
RTVSPost2010PropOp56
 70
     1
102
RTVSPost2010Prop57
140
1.0
102
RTVSPost2010PropOp57
 70
     1
  0
XRECORD
  5
1FCA
102
{ACAD_REACTORS
330
1FC9
102
}
330
1FC9
100
AcDbXrecord
280
     1
102
RTVSPropertyOp0
 70
     1
102
RTVSPropertyOp1
 70
     1
102
RTVSPropertyOp2
 70
     1
102
RTVSPropertyOp3
 70
     1
102
RTVSPropertyOp4
 70
     1
102
RTVSPropertyOp5
 70
     1
102
RTVSPropertyOp6
 70
     1
102
RTVSPropertyOp7
 70
     1
102
RTVSPropertyOp8
 70
     1
102
RTVSPropertyOp9
 70
     1
102
RTVSPropertyOp10
 70
     1
102
RTVSPropertyOp11
 70
     1
102
RTVSPropertyOp12
 70
     1
102
RTVSPropertyOp13
 70
     1
102
RTVSPropertyOp14
 70
     1
102
RTVSPropertyOp15
 70
     1
102
RTVSPropertyOp16
 70
     1
102
RTVSPropertyOp17
 70
     1
102
RTVSPropertyOp18
 70
     1
102
RTVSPropertyOp19
 70
     1
102
RTVSPropertyOp20
 70
     1
102
RTVSPropertyOp21
 70
     1
102
RTVSPropertyOp22
 70
     1
102
RTVSPropertyOp23
 70
     1
102
RTVSPropertyOp24
 70
     1
102
RTVSPropertyOp25
 70
     1
102
RTVSPropertyOp26
 70
     1
102
RTVSPropertyOp27
 70
     1
102
RTVSPropertyOp28
 70
     1
102
RTVSPropertyOp29
 70
     1
102
RTVSPropertyOp30
 70
     1
102
RTVSPropertyOp31
 70
     1
102
RTVSPropertyOp32
 70
     1
102
RTVSPropertyOp33
 70
     1
102
RTVSPropertyOp34
 70
     1
102
RTVSPropertyOp35
 70
     1
102
RTVSPropertyOp36
 70
     1
102
RTVSPropertyOp37
 70
     1
102
RTVSPropertyOp38
 70
     1
102
RTVSPropertyOp39
 70
     1
102
RTVSPropertyOp40
 70
     1
102
RTVSPropertyOp41
 70
     1
102
RTVSPropertyOp42
 70
     1
102
RTVSPropertyOp43
 70
     1
102
RTVSPropertyOp44
 70
     1
102
RTVSPropertyOp45
 70
     1
102
RTVSPropertyOp46
 70
     1
102
RTVSPropertyOp47
 70
     1
102
RTVSPropertyOp48
 70
     1
102
RTVSPropertyOp49
 70
     1
102
RTVSPropertyOp50
 70
     1
102
RTVSPropertyOp51
 70
     0
102
RTVSPropertyOp52
 70
     0
102
RTVSPropertyOp53
 70
     1
102
RTVSPropertyOp54
 70
     1
102
RTVSPropertyOp55
 70
     1
102
RTVSPropertyOp56
 70
     1
102
RTVSPropertyOp57
 70
     1
102
RTVSPost2010Prop28
280
     0
102
RTVSPost2010PropOp28
 70
     1
102
RTVSPost2010Prop29
280
     1
102
RTVSPost2010PropOp29
 70
     1
102
RTVSPost2010Prop30
280
     1
102
RTVSPost2010PropOp30
 70
     1
102
RTVSPost2010Prop31
280
     0
102
RTVSPost2010PropOp31
 70
     1
102
RTVSPost2010Prop32
280
     0
102
RTVSPost2010PropOp32
 70
     1
102
RTVSPost2010Prop33
280
     0
102
RTVSPost2010PropOp33
 70
     1
102
RTVSPost2010Prop34
280
     0
102
RTVSPost2010PropOp34
 70
     1
102
RTVSPost2010Prop35
280
     0
102
RTVSPost2010PropOp35
 70
     1
102
RTVSPost2010Prop36
280
     0
102
RTVSPost2010PropOp36
 70
     1
102
RTVSPost2010Prop37
 90
       50
102
RTVSPost2010PropOp37
 70
     1
102
RTVSPost2010Prop38
140
0.0
102
RTVSPost2010PropOp38
 70
     1
102
RTVSPost2010Prop39
140
1.0
102
RTVSPost2010PropOp39
 70
     1
102
RTVSPost2010Prop40
 90
        0
102
RTVSPost2010PropOp40
 70
     1
102
RTVSPost2010Prop41ColorIndex
 90
       18
102
RTVSPost2010Prop41ColorRGB
 90
        0
102
RTVSPost2010PropOp41
 70
     1
102
RTVSPost2010Prop42
 90
       50
102
RTVSPost2010PropOp42
 70
     1
102
RTVSPost2010Prop43
 90
        3
102
RTVSPost2010PropOp43
 70
     1
102
RTVSPost2010Prop44ColorIndex
 90
        5
102
RTVSPost2010Prop44ColorRGB
 90
      255
102
RTVSPost2010PropOp44
 70
     1
102
RTVSPost2010Prop45
280
     0
102
RTVSPost2010PropOp45
 70
     1
102
RTVSPost2010Prop46
 90
       50
102
RTVSPost2010PropOp46
 70
     1
102
RTVSPost2010Prop47
 90
       50
102
RTVSPost2010PropOp47
 70
     1
102
RTVSPost2010Prop48
 90
       50
102
RTVSPost2010PropOp48
 70
     1
102
RTVSPost2010Prop49
280
     0
102
RTVSPost2010PropOp49
 70
     1
102
RTVSPost2010Prop50
 90
       50
102
RTVSPost2010PropOp50
 70
     1
102
RTVSPost2010Prop51ColorIndex
 90
      256
102
RTVSPost2010Prop51ColorRGB
 90
-16777216
102
RTVSPost2010PropOp51
 70
     0
102
RTVSPost2010Prop52
140
1.0
102
RTVSPost2010PropOp52
 70
     0
102
RTVSPost2010Prop53
 90
        2
102
RTVSPost2010PropOp53
 70
     1
102
RTVSPost2010Prop54
  1
strokes_ogs.tif
102
RTVSPost2010PropOp54
 70
     1
102
RTVSPost2010Prop55
280
     0
102
RTVSPost2010PropOp55
 70
     1
102
RTVSPost2010Prop56
140
1.0
102
RTVSPost2010PropOp56
 70
     1
102
RTVSPost2010Prop57
140
1.0
102
RTVSPost2010PropOp57
 70
     1
  0
XRECORD
  5
1FAE
102
{ACAD_REACTORS
330
1FAD
102
}
330
1FAD
100
AcDbXrecord
280
     1
102
RTVSPropertyOp0
 70
     1
102
RTVSPropertyOp1
 70
     1
102
RTVSPropertyOp2
 70
     1
102
RTVSPropertyOp3
 70
     1
102
RTVSPropertyOp4
 70
     1
102
RTVSPropertyOp5
 70
     1
102
RTVSPropertyOp6
 70
     1
102
RTVSPropertyOp7
 70
     1
102
RTVSPropertyOp8
 70
     1
102
RTVSPropertyOp9
 70
     1
102
RTVSPropertyOp10
 70
     1
102
RTVSPropertyOp11
 70
     1
102
RTVSPropertyOp12
 70
     1
102
RTVSPropertyOp13
 70
     1
102
RTVSPropertyOp14
 70
     1
102
RTVSPropertyOp15
 70
     1
102
RTVSPropertyOp16
 70
     1
102
RTVSPropertyOp17
 70
     1
102
RTVSPropertyOp18
 70
     1
102
RTVSPropertyOp19
 70
     1
102
RTVSPropertyOp20
 70
     1
102
RTVSPropertyOp21
 70
     1
102
RTVSPropertyOp22
 70
     1
102
RTVSPropertyOp23
 70
     1
102
RTVSPropertyOp24
 70
     1
102
RTVSPropertyOp25
 70
     1
102
RTVSPropertyOp26
 70
     1
102
RTVSPropertyOp27
 70
     1
102
RTVSPropertyOp28
 70
     1
102
RTVSPropertyOp29
 70
     1
102
RTVSPropertyOp30
 70
     1
102
RTVSPropertyOp31
 70
     1
102
RTVSPropertyOp32
 70
     1
102
RTVSPropertyOp33
 70
     1
102
RTVSPropertyOp34
 70
     1
102
RTVSPropertyOp35
 70
     1
102
RTVSPropertyOp36
 70
     1
102
RTVSPropertyOp37
 70
     1
102
RTVSPropertyOp38
 70
     1
102
RTVSPropertyOp39
 70
     1
102
RTVSPropertyOp40
 70
     1
102
RTVSPropertyOp41
 70
     1
102
RTVSPropertyOp42
 70
     1
102
RTVSPropertyOp43
 70
     1
102
RTVSPropertyOp44
 70
     1
102
RTVSPropertyOp45
 70
     1
102
RTVSPropertyOp46
 70
     1
102
RTVSPropertyOp47
 70
     1
102
RTVSPropertyOp48
 70
     1
102
RTVSPropertyOp49
 70
     1
102
RTVSPropertyOp50
 70
     1
102
RTVSPropertyOp51
 70
     0
102
RTVSPropertyOp52
 70
     0
102
RTVSPropertyOp53
 70
     1
102
RTVSPropertyOp54
 70
     1
102
RTVSPropertyOp55
 70
     1
102
RTVSPropertyOp56
 70
     1
102
RTVSPropertyOp57
 70
     1
102
RTVSPost2010Prop28
280
     0
102
RTVSPost2010PropOp28
 70
     1
102
RTVSPost2010Prop29
280
     1
102
RTVSPost2010PropOp29
 70
     1
102
RTVSPost2010Prop30
280
     1
102
RTVSPost2010PropOp30
 70
     1
102
RTVSPost2010Prop31
280
     0
102
RTVSPost2010PropOp31
 70
     1
102
RTVSPost2010Prop32
280
     0
102
RTVSPost2010PropOp32
 70
     1
102
RTVSPost2010Prop33
280
     0
102
RTVSPost2010PropOp33
 70
     1
102
RTVSPost2010Prop34
280
     0
102
RTVSPost2010PropOp34
 70
     1
102
RTVSPost2010Prop35
280
     0
102
RTVSPost2010PropOp35
 70
     1
102
RTVSPost2010Prop36
280
     0
102
RTVSPost2010PropOp36
 70
     1
102
RTVSPost2010Prop37
 90
       50
102
RTVSPost2010PropOp37
 70
     1
102
RTVSPost2010Prop38
140
0.0
102
RTVSPost2010PropOp38
 70
     1
102
RTVSPost2010Prop39
140
1.0
102
RTVSPost2010PropOp39
 70
     1
102
RTVSPost2010Prop40
 90
        0
102
RTVSPost2010PropOp40
 70
     1
102
RTVSPost2010Prop41ColorIndex
 90
       18
102
RTVSPost2010Prop41ColorRGB
 90
        0
102
RTVSPost2010PropOp41
 70
     1
102
RTVSPost2010Prop42
 90
       50
102
RTVSPost2010PropOp42
 70
     1
102
RTVSPost2010Prop43
 90
        3
102
RTVSPost2010PropOp43
 70
     1
102
RTVSPost2010Prop44ColorIndex
 90
        5
102
RTVSPost2010Prop44ColorRGB
 90
      255
102
RTVSPost2010PropOp44
 70
     1
102
RTVSPost2010Prop45
280
     0
102
RTVSPost2010PropOp45
 70
     1
102
RTVSPost2010Prop46
 90
       50
102
RTVSPost2010PropOp46
 70
     1
102
RTVSPost2010Prop47
 90
       50
102
RTVSPost2010PropOp47
 70
     1
102
RTVSPost2010Prop48
 90
       50
102
RTVSPost2010PropOp48
 70
     1
102
RTVSPost2010Prop49
280
     0
102
RTVSPost2010PropOp49
 70
     1
102
RTVSPost2010Prop50
 90
       50
102
RTVSPost2010PropOp50
 70
     1
102
RTVSPost2010Prop51ColorIndex
 90
      256
102
RTVSPost2010Prop51ColorRGB
 90
-16777216
102
RTVSPost2010PropOp51
 70
     0
102
RTVSPost2010Prop52
140
1.0
102
RTVSPost2010PropOp52
 70
     0
102
RTVSPost2010Prop53
 90
        2
102
RTVSPost2010PropOp53
 70
     1
102
RTVSPost2010Prop54
  1
strokes_ogs.tif
102
RTVSPost2010PropOp54
 70
     1
102
RTVSPost2010Prop55
280
     0
102
RTVSPost2010PropOp55
 70
     1
102
RTVSPost2010Prop56
140
1.0
102
RTVSPost2010PropOp56
 70
     1
102
RTVSPost2010Prop57
140
1.0
102
RTVSPost2010PropOp57
 70
     1
  0
XRECORD
  5
1FB0
102
{ACAD_REACTORS
330
1FAF
102
}
330
1FAF
100
AcDbXrecord
280
     1
102
RTVSPropertyOp0
 70
     1
102
RTVSPropertyOp1
 70
     1
102
RTVSPropertyOp2
 70
     1
102
RTVSPropertyOp3
 70
     1
102
RTVSPropertyOp4
 70
     1
102
RTVSPropertyOp5
 70
     1
102
RTVSPropertyOp6
 70
     1
102
RTVSPropertyOp7
 70
     1
102
RTVSPropertyOp8
 70
     1
102
RTVSPropertyOp9
 70
     1
102
RTVSPropertyOp10
 70
     1
102
RTVSPropertyOp11
 70
     1
102
RTVSPropertyOp12
 70
     1
102
RTVSPropertyOp13
 70
     1
102
RTVSPropertyOp14
 70
     1
102
RTVSPropertyOp15
 70
     1
102
RTVSPropertyOp16
 70
     1
102
RTVSPropertyOp17
 70
     1
102
RTVSPropertyOp18
 70
     1
102
RTVSPropertyOp19
 70
     1
102
RTVSPropertyOp20
 70
     1
102
RTVSPropertyOp21
 70
     1
102
RTVSPropertyOp22
 70
     1
102
RTVSPropertyOp23
 70
     1
102
RTVSPropertyOp24
 70
     1
102
RTVSPropertyOp25
 70
     1
102
RTVSPropertyOp26
 70
     1
102
RTVSPropertyOp27
 70
     1
102
RTVSPropertyOp28
 70
     1
102
RTVSPropertyOp29
 70
     1
102
RTVSPropertyOp30
 70
     1
102
RTVSPropertyOp31
 70
     1
102
RTVSPropertyOp32
 70
     1
102
RTVSPropertyOp33
 70
     1
102
RTVSPropertyOp34
 70
     1
102
RTVSPropertyOp35
 70
     1
102
RTVSPropertyOp36
 70
     1
102
RTVSPropertyOp37
 70
     1
102
RTVSPropertyOp38
 70
     1
102
RTVSPropertyOp39
 70
     1
102
RTVSPropertyOp40
 70
     1
102
RTVSPropertyOp41
 70
     1
102
RTVSPropertyOp42
 70
     1
102
RTVSPropertyOp43
 70
     1
102
RTVSPropertyOp44
 70
     1
102
RTVSPropertyOp45
 70
     1
102
RTVSPropertyOp46
 70
     1
102
RTVSPropertyOp47
 70
     1
102
RTVSPropertyOp48
 70
     1
102
RTVSPropertyOp49
 70
     1
102
RTVSPropertyOp50
 70
     1
102
RTVSPropertyOp51
 70
     0
102
RTVSPropertyOp52
 70
     0
102
RTVSPropertyOp53
 70
     1
102
RTVSPropertyOp54
 70
     1
102
RTVSPropertyOp55
 70
     1
102
RTVSPropertyOp56
 70
     1
102
RTVSPropertyOp57
 70
     1
102
RTVSPost2010Prop28
280
     0
102
RTVSPost2010PropOp28
 70
     1
102
RTVSPost2010Prop29
280
     1
102
RTVSPost2010PropOp29
 70
     1
102
RTVSPost2010Prop30
280
     1
102
RTVSPost2010PropOp30
 70
     1
102
RTVSPost2010Prop31
280
     0
102
RTVSPost2010PropOp31
 70
     1
102
RTVSPost2010Prop32
280
     0
102
RTVSPost2010PropOp32
 70
     1
102
RTVSPost2010Prop33
280
     0
102
RTVSPost2010PropOp33
 70
     1
102
RTVSPost2010Prop34
280
     0
102
RTVSPost2010PropOp34
 70
     1
102
RTVSPost2010Prop35
280
     0
102
RTVSPost2010PropOp35
 70
     1
102
RTVSPost2010Prop36
280
     0
102
RTVSPost2010PropOp36
 70
     1
102
RTVSPost2010Prop37
 90
       50
102
RTVSPost2010PropOp37
 70
     1
102
RTVSPost2010Prop38
140
0.0
102
RTVSPost2010PropOp38
 70
     1
102
RTVSPost2010Prop39
140
1.0
102
RTVSPost2010PropOp39
 70
     1
102
RTVSPost2010Prop40
 90
        0
102
RTVSPost2010PropOp40
 70
     1
102
RTVSPost2010Prop41ColorIndex
 90
       18
102
RTVSPost2010Prop41ColorRGB
 90
        0
102
RTVSPost2010PropOp41
 70
     1
102
RTVSPost2010Prop42
 90
       50
102
RTVSPost2010PropOp42
 70
     1
102
RTVSPost2010Prop43
 90
        3
102
RTVSPost2010PropOp43
 70
     1
102
RTVSPost2010Prop44ColorIndex
 90
        5
102
RTVSPost2010Prop44ColorRGB
 90
      255
102
RTVSPost2010PropOp44
 70
     1
102
RTVSPost2010Prop45
280
     0
102
RTVSPost2010PropOp45
 70
     1
102
RTVSPost2010Prop46
 90
       50
102
RTVSPost2010PropOp46
 70
     1
102
RTVSPost2010Prop47
 90
       50
102
RTVSPost2010PropOp47
 70
     1
102
RTVSPost2010Prop48
 90
       50
102
RTVSPost2010PropOp48
 70
     1
102
RTVSPost2010Prop49
280
     0
102
RTVSPost2010PropOp49
 70
     1
102
RTVSPost2010Prop50
 90
       50
102
RTVSPost2010PropOp50
 70
     1
102
RTVSPost2010Prop51ColorIndex
 90
      256
102
RTVSPost2010Prop51ColorRGB
 90
-16777216
102
RTVSPost2010PropOp51
 70
     0
102
RTVSPost2010Prop52
140
1.0
102
RTVSPost2010PropOp52
 70
     0
102
RTVSPost2010Prop53
 90
        2
102
RTVSPost2010PropOp53
 70
     1
102
RTVSPost2010Prop54
  1
strokes_ogs.tif
102
RTVSPost2010PropOp54
 70
     1
102
RTVSPost2010Prop55
280
     0
102
RTVSPost2010PropOp55
 70
     1
102
RTVSPost2010Prop56
140
1.0
102
RTVSPost2010PropOp56
 70
     1
102
RTVSPost2010Prop57
140
1.0
102
RTVSPost2010PropOp57
 70
     1
  0
XRECORD
  5
1FB2
102
{ACAD_REACTORS
330
1FB1
102
}
330
1FB1
100
AcDbXrecord
280
     1
102
RTVSPropertyOp0
 70
     1
102
RTVSPropertyOp1
 70
     1
102
RTVSPropertyOp2
 70
     1
102
RTVSPropertyOp3
 70
     1
102
RTVSPropertyOp4
 70
     1
102
RTVSPropertyOp5
 70
     1
102
RTVSPropertyOp6
 70
     1
102
RTVSPropertyOp7
 70
     1
102
RTVSPropertyOp8
 70
     1
102
RTVSPropertyOp9
 70
     1
102
RTVSPropertyOp10
 70
     1
102
RTVSPropertyOp11
 70
     1
102
RTVSPropertyOp12
 70
     1
102
RTVSPropertyOp13
 70
     1
102
RTVSPropertyOp14
 70
     1
102
RTVSPropertyOp15
 70
     1
102
RTVSPropertyOp16
 70
     1
102
RTVSPropertyOp17
 70
     1
102
RTVSPropertyOp18
 70
     1
102
RTVSPropertyOp19
 70
     1
102
RTVSPropertyOp20
 70
     1
102
RTVSPropertyOp21
 70
     1
102
RTVSPropertyOp22
 70
     1
102
RTVSPropertyOp23
 70
     1
102
RTVSPropertyOp24
 70
     1
102
RTVSPropertyOp25
 70
     1
102
RTVSPropertyOp26
 70
     1
102
RTVSPropertyOp27
 70
     1
102
RTVSPropertyOp28
 70
     1
102
RTVSPropertyOp29
 70
     1
102
RTVSPropertyOp30
 70
     1
102
RTVSPropertyOp31
 70
     1
102
RTVSPropertyOp32
 70
     1
102
RTVSPropertyOp33
 70
     1
102
RTVSPropertyOp34
 70
     1
102
RTVSPropertyOp35
 70
     1
102
RTVSPropertyOp36
 70
     1
102
RTVSPropertyOp37
 70
     1
102
RTVSPropertyOp38
 70
     1
102
RTVSPropertyOp39
 70
     1
102
RTVSPropertyOp40
 70
     1
102
RTVSPropertyOp41
 70
     1
102
RTVSPropertyOp42
 70
     1
102
RTVSPropertyOp43
 70
     1
102
RTVSPropertyOp44
 70
     1
102
RTVSPropertyOp45
 70
     1
102
RTVSPropertyOp46
 70
     1
102
RTVSPropertyOp47
 70
     1
102
RTVSPropertyOp48
 70
     1
102
RTVSPropertyOp49
 70
     1
102
RTVSPropertyOp50
 70
     1
102
RTVSPropertyOp51
 70
     0
102
RTVSPropertyOp52
 70
     0
102
RTVSPropertyOp53
 70
     1
102
RTVSPropertyOp54
 70
     1
102
RTVSPropertyOp55
 70
     1
102
RTVSPropertyOp56
 70
     1
102
RTVSPropertyOp57
 70
     1
102
RTVSPost2010Prop28
280
     0
102
RTVSPost2010PropOp28
 70
     1
102
RTVSPost2010Prop29
280
     1
102
RTVSPost2010PropOp29
 70
     1
102
RTVSPost2010Prop30
280
     1
102
RTVSPost2010PropOp30
 70
     1
102
RTVSPost2010Prop31
280
     0
102
RTVSPost2010PropOp31
 70
     1
102
RTVSPost2010Prop32
280
     0
102
RTVSPost2010PropOp32
 70
     1
102
RTVSPost2010Prop33
280
     0
102
RTVSPost2010PropOp33
 70
     1
102
RTVSPost2010Prop34
280
     0
102
RTVSPost2010PropOp34
 70
     1
102
RTVSPost2010Prop35
280
     0
102
RTVSPost2010PropOp35
 70
     1
102
RTVSPost2010Prop36
280
     0
102
RTVSPost2010PropOp36
 70
     1
102
RTVSPost2010Prop37
 90
       50
102
RTVSPost2010PropOp37
 70
     1
102
RTVSPost2010Prop38
140
0.0
102
RTVSPost2010PropOp38
 70
     1
102
RTVSPost2010Prop39
140
1.0
102
RTVSPost2010PropOp39
 70
     1
102
RTVSPost2010Prop40
 90
        0
102
RTVSPost2010PropOp40
 70
     1
102
RTVSPost2010Prop41ColorIndex
 90
       18
102
RTVSPost2010Prop41ColorRGB
 90
        0
102
RTVSPost2010PropOp41
 70
     1
102
RTVSPost2010Prop42
 90
       50
102
RTVSPost2010PropOp42
 70
     1
102
RTVSPost2010Prop43
 90
        3
102
RTVSPost2010PropOp43
 70
     1
102
RTVSPost2010Prop44ColorIndex
 90
        5
102
RTVSPost2010Prop44ColorRGB
 90
      255
102
RTVSPost2010PropOp44
 70
     1
102
RTVSPost2010Prop45
280
     0
102
RTVSPost2010PropOp45
 70
     1
102
RTVSPost2010Prop46
 90
       50
102
RTVSPost2010PropOp46
 70
     1
102
RTVSPost2010Prop47
 90
       50
102
RTVSPost2010PropOp47
 70
     1
102
RTVSPost2010Prop48
 90
       50
102
RTVSPost2010PropOp48
 70
     1
102
RTVSPost2010Prop49
280
     0
102
RTVSPost2010PropOp49
 70
     1
102
RTVSPost2010Prop50
 90
       50
102
RTVSPost2010PropOp50
 70
     1
102
RTVSPost2010Prop51ColorIndex
 90
      256
102
RTVSPost2010Prop51ColorRGB
 90
-16777216
102
RTVSPost2010PropOp51
 70
     0
102
RTVSPost2010Prop52
140
1.0
102
RTVSPost2010PropOp52
 70
     0
102
RTVSPost2010Prop53
 90
        2
102
RTVSPost2010PropOp53
 70
     1
102
RTVSPost2010Prop54
  1
strokes_ogs.tif
102
RTVSPost2010PropOp54
 70
     1
102
RTVSPost2010Prop55
280
     0
102
RTVSPost2010PropOp55
 70
     1
102
RTVSPost2010Prop56
140
1.0
102
RTVSPost2010PropOp56
 70
     1
102
RTVSPost2010Prop57
140
1.0
102
RTVSPost2010PropOp57
 70
     1
  0
XRECORD
  5
1FB4
102
{ACAD_REACTORS
330
1FB3
102
}
330
1FB3
100
AcDbXrecord
280
     1
102
RTVSPropertyOp0
 70
     1
102
RTVSPropertyOp1
 70
     1
102
RTVSPropertyOp2
 70
     1
102
RTVSPropertyOp3
 70
     1
102
RTVSPropertyOp4
 70
     1
102
RTVSPropertyOp5
 70
     1
102
RTVSPropertyOp6
 70
     1
102
RTVSPropertyOp7
 70
     1
102
RTVSPropertyOp8
 70
     1
102
RTVSPropertyOp9
 70
     1
102
RTVSPropertyOp10
 70
     1
102
RTVSPropertyOp11
 70
     1
102
RTVSPropertyOp12
 70
     1
102
RTVSPropertyOp13
 70
     1
102
RTVSPropertyOp14
 70
     1
102
RTVSPropertyOp15
 70
     1
102
RTVSPropertyOp16
 70
     1
102
RTVSPropertyOp17
 70
     1
102
RTVSPropertyOp18
 70
     1
102
RTVSPropertyOp19
 70
     1
102
RTVSPropertyOp20
 70
     1
102
RTVSPropertyOp21
 70
     1
102
RTVSPropertyOp22
 70
     1
102
RTVSPropertyOp23
 70
     1
102
RTVSPropertyOp24
 70
     1
102
RTVSPropertyOp25
 70
     1
102
RTVSPropertyOp26
 70
     1
102
RTVSPropertyOp27
 70
     1
102
RTVSPropertyOp28
 70
     1
102
RTVSPropertyOp29
 70
     1
102
RTVSPropertyOp30
 70
     1
102
RTVSPropertyOp31
 70
     1
102
RTVSPropertyOp32
 70
     1
102
RTVSPropertyOp33
 70
     1
102
RTVSPropertyOp34
 70
     1
102
RTVSPropertyOp35
 70
     1
102
RTVSPropertyOp36
 70
     1
102
RTVSPropertyOp37
 70
     1
102
RTVSPropertyOp38
 70
     1
102
RTVSPropertyOp39
 70
     1
102
RTVSPropertyOp40
 70
     1
102
RTVSPropertyOp41
 70
     1
102
RTVSPropertyOp42
 70
     1
102
RTVSPropertyOp43
 70
     1
102
RTVSPropertyOp44
 70
     1
102
RTVSPropertyOp45
 70
     1
102
RTVSPropertyOp46
 70
     1
102
RTVSPropertyOp47
 70
     1
102
RTVSPropertyOp48
 70
     1
102
RTVSPropertyOp49
 70
     1
102
RTVSPropertyOp50
 70
     1
102
RTVSPropertyOp51
 70
     0
102
RTVSPropertyOp52
 70
     0
102
RTVSPropertyOp53
 70
     1
102
RTVSPropertyOp54
 70
     1
102
RTVSPropertyOp55
 70
     1
102
RTVSPropertyOp56
 70
     1
102
RTVSPropertyOp57
 70
     1
102
RTVSPost2010Prop28
280
     0
102
RTVSPost2010PropOp28
 70
     1
102
RTVSPost2010Prop29
280
     1
102
RTVSPost2010PropOp29
 70
     1
102
RTVSPost2010Prop30
280
     1
102
RTVSPost2010PropOp30
 70
     1
102
RTVSPost2010Prop31
280
     0
102
RTVSPost2010PropOp31
 70
     1
102
RTVSPost2010Prop32
280
     0
102
RTVSPost2010PropOp32
 70
     1
102
RTVSPost2010Prop33
280
     0
102
RTVSPost2010PropOp33
 70
     1
102
RTVSPost2010Prop34
280
     0
102
RTVSPost2010PropOp34
 70
     1
102
RTVSPost2010Prop35
280
     0
102
RTVSPost2010PropOp35
 70
     1
102
RTVSPost2010Prop36
280
     0
102
RTVSPost2010PropOp36
 70
     1
102
RTVSPost2010Prop37
 90
       50
102
RTVSPost2010PropOp37
 70
     1
102
RTVSPost2010Prop38
140
0.0
102
RTVSPost2010PropOp38
 70
     1
102
RTVSPost2010Prop39
140
1.0
102
RTVSPost2010PropOp39
 70
     1
102
RTVSPost2010Prop40
 90
        0
102
RTVSPost2010PropOp40
 70
     1
102
RTVSPost2010Prop41ColorIndex
 90
       18
102
RTVSPost2010Prop41ColorRGB
 90
        0
102
RTVSPost2010PropOp41
 70
     1
102
RTVSPost2010Prop42
 90
       50
102
RTVSPost2010PropOp42
 70
     1
102
RTVSPost2010Prop43
 90
        3
102
RTVSPost2010PropOp43
 70
     1
102
RTVSPost2010Prop44ColorIndex
 90
        5
102
RTVSPost2010Prop44ColorRGB
 90
      255
102
RTVSPost2010PropOp44
 70
     1
102
RTVSPost2010Prop45
280
     0
102
RTVSPost2010PropOp45
 70
     1
102
RTVSPost2010Prop46
 90
       50
102
RTVSPost2010PropOp46
 70
     1
102
RTVSPost2010Prop47
 90
       50
102
RTVSPost2010PropOp47
 70
     1
102
RTVSPost2010Prop48
 90
       50
102
RTVSPost2010PropOp48
 70
     1
102
RTVSPost2010Prop49
280
     0
102
RTVSPost2010PropOp49
 70
     1
102
RTVSPost2010Prop50
 90
       50
102
RTVSPost2010PropOp50
 70
     1
102
RTVSPost2010Prop51ColorIndex
 90
      256
102
RTVSPost2010Prop51ColorRGB
 90
-16777216
102
RTVSPost2010PropOp51
 70
     0
102
RTVSPost2010Prop52
140
1.0
102
RTVSPost2010PropOp52
 70
     0
102
RTVSPost2010Prop53
 90
        2
102
RTVSPost2010PropOp53
 70
     1
102
RTVSPost2010Prop54
  1
strokes_ogs.tif
102
RTVSPost2010PropOp54
 70
     1
102
RTVSPost2010Prop55
280
     0
102
RTVSPost2010PropOp55
 70
     1
102
RTVSPost2010Prop56
140
1.0
102
RTVSPost2010PropOp56
 70
     1
102
RTVSPost2010Prop57
140
1.0
102
RTVSPost2010PropOp57
 70
     1
  0
XRECORD
  5
1FBA
102
{ACAD_REACTORS
330
1FB9
102
}
330
1FB9
100
AcDbXrecord
280
     1
102
RTVSPropertyOp0
 70
     1
102
RTVSPropertyOp1
 70
     1
102
RTVSPropertyOp2
 70
     1
102
RTVSPropertyOp3
 70
     1
102
RTVSPropertyOp4
 70
     1
102
RTVSPropertyOp5
 70
     1
102
RTVSPropertyOp6
 70
     1
102
RTVSPropertyOp7
 70
     1
102
RTVSPropertyOp8
 70
     1
102
RTVSPropertyOp9
 70
     1
102
RTVSPropertyOp10
 70
     1
102
RTVSPropertyOp11
 70
     1
102
RTVSPropertyOp12
 70
     1
102
RTVSPropertyOp13
 70
     1
102
RTVSPropertyOp14
 70
     1
102
RTVSPropertyOp15
 70
     1
102
RTVSPropertyOp16
 70
     1
102
RTVSPropertyOp17
 70
     1
102
RTVSPropertyOp18
 70
     1
102
RTVSPropertyOp19
 70
     1
102
RTVSPropertyOp20
 70
     1
102
RTVSPropertyOp21
 70
     1
102
RTVSPropertyOp22
 70
     1
102
RTVSPropertyOp23
 70
     1
102
RTVSPropertyOp24
 70
     1
102
RTVSPropertyOp25
 70
     1
102
RTVSPropertyOp26
 70
     1
102
RTVSPropertyOp27
 70
     1
102
RTVSPropertyOp28
 70
     1
102
RTVSPropertyOp29
 70
     1
102
RTVSPropertyOp30
 70
     1
102
RTVSPropertyOp31
 70
     1
102
RTVSPropertyOp32
 70
     1
102
RTVSPropertyOp33
 70
     1
102
RTVSPropertyOp34
 70
     1
102
RTVSPropertyOp35
 70
     1
102
RTVSPropertyOp36
 70
     1
102
RTVSPropertyOp37
 70
     1
102
RTVSPropertyOp38
 70
     1
102
RTVSPropertyOp39
 70
     1
102
RTVSPropertyOp40
 70
     1
102
RTVSPropertyOp41
 70
     1
102
RTVSPropertyOp42
 70
     1
102
RTVSPropertyOp43
 70
     1
102
RTVSPropertyOp44
 70
     1
102
RTVSPropertyOp45
 70
     1
102
RTVSPropertyOp46
 70
     1
102
RTVSPropertyOp47
 70
     1
102
RTVSPropertyOp48
 70
     1
102
RTVSPropertyOp49
 70
     1
102
RTVSPropertyOp50
 70
     1
102
RTVSPropertyOp51
 70
     0
102
RTVSPropertyOp52
 70
     0
102
RTVSPropertyOp53
 70
     1
102
RTVSPropertyOp54
 70
     1
102
RTVSPropertyOp55
 70
     1
102
RTVSPropertyOp56
 70
     1
102
RTVSPropertyOp57
 70
     1
102
RTVSPost2010Prop28
280
     0
102
RTVSPost2010PropOp28
 70
     1
102
RTVSPost2010Prop29
280
     1
102
RTVSPost2010PropOp29
 70
     1
102
RTVSPost2010Prop30
280
     1
102
RTVSPost2010PropOp30
 70
     1
102
RTVSPost2010Prop31
280
     0
102
RTVSPost2010PropOp31
 70
     1
102
RTVSPost2010Prop32
280
     0
102
RTVSPost2010PropOp32
 70
     1
102
RTVSPost2010Prop33
280
     0
102
RTVSPost2010PropOp33
 70
     1
102
RTVSPost2010Prop34
280
     0
102
RTVSPost2010PropOp34
 70
     1
102
RTVSPost2010Prop35
280
     0
102
RTVSPost2010PropOp35
 70
     1
102
RTVSPost2010Prop36
280
     0
102
RTVSPost2010PropOp36
 70
     1
102
RTVSPost2010Prop37
 90
       50
102
RTVSPost2010PropOp37
 70
     1
102
RTVSPost2010Prop38
140
0.0
102
RTVSPost2010PropOp38
 70
     1
102
RTVSPost2010Prop39
140
1.0
102
RTVSPost2010PropOp39
 70
     1
102
RTVSPost2010Prop40
 90
        0
102
RTVSPost2010PropOp40
 70
     1
102
RTVSPost2010Prop41ColorIndex
 90
       18
102
RTVSPost2010Prop41ColorRGB
 90
        0
102
RTVSPost2010PropOp41
 70
     1
102
RTVSPost2010Prop42
 90
       50
102
RTVSPost2010PropOp42
 70
     1
102
RTVSPost2010Prop43
 90
        3
102
RTVSPost2010PropOp43
 70
     1
102
RTVSPost2010Prop44ColorIndex
 90
        5
102
RTVSPost2010Prop44ColorRGB
 90
      255
102
RTVSPost2010PropOp44
 70
     1
102
RTVSPost2010Prop45
280
     0
102
RTVSPost2010PropOp45
 70
     1
102
RTVSPost2010Prop46
 90
       50
102
RTVSPost2010PropOp46
 70
     1
102
RTVSPost2010Prop47
 90
       50
102
RTVSPost2010PropOp47
 70
     1
102
RTVSPost2010Prop48
 90
       50
102
RTVSPost2010PropOp48
 70
     1
102
RTVSPost2010Prop49
280
     0
102
RTVSPost2010PropOp49
 70
     1
102
RTVSPost2010Prop50
 90
       50
102
RTVSPost2010PropOp50
 70
     1
102
RTVSPost2010Prop51ColorIndex
 90
      256
102
RTVSPost2010Prop51ColorRGB
 90
-16777216
102
RTVSPost2010PropOp51
 70
     0
102
RTVSPost2010Prop52
140
1.0
102
RTVSPost2010PropOp52
 70
     0
102
RTVSPost2010Prop53
 90
        2
102
RTVSPost2010PropOp53
 70
     1
102
RTVSPost2010Prop54
  1
strokes_ogs.tif
102
RTVSPost2010PropOp54
 70
     1
102
RTVSPost2010Prop55
280
     0
102
RTVSPost2010PropOp55
 70
     1
102
RTVSPost2010Prop56
140
1.0
102
RTVSPost2010PropOp56
 70
     1
102
RTVSPost2010Prop57
140
1.0
102
RTVSPost2010PropOp57
 70
     1
  0
XRECORD
  5
1FCE
102
{ACAD_REACTORS
330
1FCD
102
}
330
1FCD
100
AcDbXrecord
280
     1
102
RTVSPropertyOp0
 70
     0
102
RTVSPropertyOp1
 70
     0
102
RTVSPropertyOp2
 70
     0
102
RTVSPropertyOp3
 70
     0
102
RTVSPropertyOp4
 70
     0
102
RTVSPropertyOp5
 70
     0
102
RTVSPropertyOp6
 70
     0
102
RTVSPropertyOp7
 70
     0
102
RTVSPropertyOp8
 70
     0
102
RTVSPropertyOp9
 70
     0
102
RTVSPropertyOp10
 70
     0
102
RTVSPropertyOp11
 70
     0
102
RTVSPropertyOp12
 70
     0
102
RTVSPropertyOp13
 70
     0
102
RTVSPropertyOp14
 70
     0
102
RTVSPropertyOp15
 70
     0
102
RTVSPropertyOp16
 70
     0
102
RTVSPropertyOp17
 70
     0
102
RTVSPropertyOp18
 70
     0
102
RTVSPropertyOp19
 70
     0
102
RTVSPropertyOp20
 70
     0
102
RTVSPropertyOp21
 70
     0
102
RTVSPropertyOp22
 70
     0
102
RTVSPropertyOp23
 70
     0
102
RTVSPropertyOp24
 70
     0
102
RTVSPropertyOp25
 70
     0
102
RTVSPropertyOp26
 70
     0
102
RTVSPropertyOp27
 70
     0
102
RTVSPropertyOp28
 70
     1
102
RTVSPropertyOp29
 70
     1
102
RTVSPropertyOp30
 70
     1
102
RTVSPropertyOp31
 70
     1
102
RTVSPropertyOp32
 70
     1
102
RTVSPropertyOp33
 70
     1
102
RTVSPropertyOp34
 70
     1
102
RTVSPropertyOp35
 70
     1
102
RTVSPropertyOp36
 70
     1
102
RTVSPropertyOp37
 70
     1
102
RTVSPropertyOp38
 70
     1
102
RTVSPropertyOp39
 70
     1
102
RTVSPropertyOp40
 70
     1
102
RTVSPropertyOp41
 70
     1
102
RTVSPropertyOp42
 70
     1
102
RTVSPropertyOp43
 70
     1
102
RTVSPropertyOp44
 70
     1
102
RTVSPropertyOp45
 70
     1
102
RTVSPropertyOp46
 70
     1
102
RTVSPropertyOp47
 70
     1
102
RTVSPropertyOp48
 70
     1
102
RTVSPropertyOp49
 70
     1
102
RTVSPropertyOp50
 70
     1
102
RTVSPropertyOp51
 70
     0
102
RTVSPropertyOp52
 70
     0
102
RTVSPropertyOp53
 70
     1
102
RTVSPropertyOp54
 70
     1
102
RTVSPropertyOp55
 70
     1
102
RTVSPropertyOp56
 70
     1
102
RTVSPropertyOp57
 70
     1
102
RTVSPost2010Prop28
280
     0
102
RTVSPost2010PropOp28
 70
     1
102
RTVSPost2010Prop29
280
     1
102
RTVSPost2010PropOp29
 70
     1
102
RTVSPost2010Prop30
280
     1
102
RTVSPost2010PropOp30
 70
     1
102
RTVSPost2010Prop31
280
     0
102
RTVSPost2010PropOp31
 70
     1
102
RTVSPost2010Prop32
280
     0
102
RTVSPost2010PropOp32
 70
     1
102
RTVSPost2010Prop33
280
     0
102
RTVSPost2010PropOp33
 70
     1
102
RTVSPost2010Prop34
280
     0
102
RTVSPost2010PropOp34
 70
     1
102
RTVSPost2010Prop35
280
     0
102
RTVSPost2010PropOp35
 70
     1
102
RTVSPost2010Prop36
280
     0
102
RTVSPost2010PropOp36
 70
     1
102
RTVSPost2010Prop37
 90
       50
102
RTVSPost2010PropOp37
 70
     1
102
RTVSPost2010Prop38
140
0.0
102
RTVSPost2010PropOp38
 70
     1
102
RTVSPost2010Prop39
140
1.0
102
RTVSPost2010PropOp39
 70
     1
102
RTVSPost2010Prop40
 90
        0
102
RTVSPost2010PropOp40
 70
     1
102
RTVSPost2010Prop41ColorIndex
 90
       18
102
RTVSPost2010Prop41ColorRGB
 90
        0
102
RTVSPost2010PropOp41
 70
     1
102
RTVSPost2010Prop42
 90
       50
102
RTVSPost2010PropOp42
 70
     1
102
RTVSPost2010Prop43
 90
        3
102
RTVSPost2010PropOp43
 70
     1
102
RTVSPost2010Prop44ColorIndex
 90
        5
102
RTVSPost2010Prop44ColorRGB
 90
      255
102
RTVSPost2010PropOp44
 70
     1
102
RTVSPost2010Prop45
280
     0
102
RTVSPost2010PropOp45
 70
     1
102
RTVSPost2010Prop46
 90
       50
102
RTVSPost2010PropOp46
 70
     1
102
RTVSPost2010Prop47
 90
       50
102
RTVSPost2010PropOp47
 70
     1
102
RTVSPost2010Prop48
 90
       50
102
RTVSPost2010PropOp48
 70
     1
102
RTVSPost2010Prop49
280
     0
102
RTVSPost2010PropOp49
 70
     1
102
RTVSPost2010Prop50
 90
       50
102
RTVSPost2010PropOp50
 70
     1
102
RTVSPost2010Prop51ColorIndex
 90
      256
102
RTVSPost2010Prop51ColorRGB
 90
-16777216
102
RTVSPost2010PropOp51
 70
     0
102
RTVSPost2010Prop52
140
1.0
102
RTVSPost2010PropOp52
 70
     0
102
RTVSPost2010Prop53
 90
        2
102
RTVSPost2010PropOp53
 70
     1
102
RTVSPost2010Prop54
  1
strokes_ogs.tif
102
RTVSPost2010PropOp54
 70
     1
102
RTVSPost2010Prop55
280
     0
102
RTVSPost2010PropOp55
 70
     1
102
RTVSPost2010Prop56
140
1.0
102
RTVSPost2010PropOp56
 70
     1
102
RTVSPost2010Prop57
140
1.0
102
RTVSPost2010PropOp57
 70
     1
  0
XRECORD
  5
1FC8
102
{ACAD_REACTORS
330
1FC7
102
}
330
1FC7
100
AcDbXrecord
280
     1
102
RTVSPropertyOp0
 70
     1
102
RTVSPropertyOp1
 70
     1
102
RTVSPropertyOp2
 70
     1
102
RTVSPropertyOp3
 70
     1
102
RTVSPropertyOp4
 70
     1
102
RTVSPropertyOp5
 70
     1
102
RTVSPropertyOp6
 70
     1
102
RTVSPropertyOp7
 70
     1
102
RTVSPropertyOp8
 70
     1
102
RTVSPropertyOp9
 70
     1
102
RTVSPropertyOp10
 70
     1
102
RTVSPropertyOp11
 70
     1
102
RTVSPropertyOp12
 70
     1
102
RTVSPropertyOp13
 70
     1
102
RTVSPropertyOp14
 70
     1
102
RTVSPropertyOp15
 70
     1
102
RTVSPropertyOp16
 70
     1
102
RTVSPropertyOp17
 70
     1
102
RTVSPropertyOp18
 70
     1
102
RTVSPropertyOp19
 70
     1
102
RTVSPropertyOp20
 70
     1
102
RTVSPropertyOp21
 70
     1
102
RTVSPropertyOp22
 70
     1
102
RTVSPropertyOp23
 70
     1
102
RTVSPropertyOp24
 70
     1
102
RTVSPropertyOp25
 70
     1
102
RTVSPropertyOp26
 70
     1
102
RTVSPropertyOp27
 70
     1
102
RTVSPropertyOp28
 70
     1
102
RTVSPropertyOp29
 70
     1
102
RTVSPropertyOp30
 70
     1
102
RTVSPropertyOp31
 70
     1
102
RTVSPropertyOp32
 70
     1
102
RTVSPropertyOp33
 70
     1
102
RTVSPropertyOp34
 70
     1
102
RTVSPropertyOp35
 70
     1
102
RTVSPropertyOp36
 70
     1
102
RTVSPropertyOp37
 70
     1
102
RTVSPropertyOp38
 70
     1
102
RTVSPropertyOp39
 70
     1
102
RTVSPropertyOp40
 70
     1
102
RTVSPropertyOp41
 70
     1
102
RTVSPropertyOp42
 70
     1
102
RTVSPropertyOp43
 70
     1
102
RTVSPropertyOp44
 70
     1
102
RTVSPropertyOp45
 70
     1
102
RTVSPropertyOp46
 70
     1
102
RTVSPropertyOp47
 70
     1
102
RTVSPropertyOp48
 70
     1
102
RTVSPropertyOp49
 70
     1
102
RTVSPropertyOp50
 70
     1
102
RTVSPropertyOp51
 70
     0
102
RTVSPropertyOp52
 70
     0
102
RTVSPropertyOp53
 70
     1
102
RTVSPropertyOp54
 70
     1
102
RTVSPropertyOp55
 70
     1
102
RTVSPropertyOp56
 70
     1
102
RTVSPropertyOp57
 70
     1
102
RTVSPost2010Prop28
280
     0
102
RTVSPost2010PropOp28
 70
     1
102
RTVSPost2010Prop29
280
     1
102
RTVSPost2010PropOp29
 70
     1
102
RTVSPost2010Prop30
280
     1
102
RTVSPost2010PropOp30
 70
     1
102
RTVSPost2010Prop31
280
     0
102
RTVSPost2010PropOp31
 70
     1
102
RTVSPost2010Prop32
280
     0
102
RTVSPost2010PropOp32
 70
     1
102
RTVSPost2010Prop33
280
     0
102
RTVSPost2010PropOp33
 70
     1
102
RTVSPost2010Prop34
280
     0
102
RTVSPost2010PropOp34
 70
     1
102
RTVSPost2010Prop35
280
     0
102
RTVSPost2010PropOp35
 70
     1
102
RTVSPost2010Prop36
280
     0
102
RTVSPost2010PropOp36
 70
     1
102
RTVSPost2010Prop37
 90
       50
102
RTVSPost2010PropOp37
 70
     1
102
RTVSPost2010Prop38
140
0.0
102
RTVSPost2010PropOp38
 70
     1
102
RTVSPost2010Prop39
140
1.0
102
RTVSPost2010PropOp39
 70
     1
102
RTVSPost2010Prop40
 90
        0
102
RTVSPost2010PropOp40
 70
     1
102
RTVSPost2010Prop41ColorIndex
 90
       18
102
RTVSPost2010Prop41ColorRGB
 90
        0
102
RTVSPost2010PropOp41
 70
     1
102
RTVSPost2010Prop42
 90
       50
102
RTVSPost2010PropOp42
 70
     1
102
RTVSPost2010Prop43
 90
        3
102
RTVSPost2010PropOp43
 70
     1
102
RTVSPost2010Prop44ColorIndex
 90
        5
102
RTVSPost2010Prop44ColorRGB
 90
      255
102
RTVSPost2010PropOp44
 70
     1
102
RTVSPost2010Prop45
280
     0
102
RTVSPost2010PropOp45
 70
     1
102
RTVSPost2010Prop46
 90
       50
102
RTVSPost2010PropOp46
 70
     1
102
RTVSPost2010Prop47
 90
       50
102
RTVSPost2010PropOp47
 70
     1
102
RTVSPost2010Prop48
 90
       50
102
RTVSPost2010PropOp48
 70
     1
102
RTVSPost2010Prop49
280
     0
102
RTVSPost2010PropOp49
 70
     1
102
RTVSPost2010Prop50
 90
       50
102
RTVSPost2010PropOp50
 70
     1
102
RTVSPost2010Prop51ColorIndex
 90
      256
102
RTVSPost2010Prop51ColorRGB
 90
-16777216
102
RTVSPost2010PropOp51
 70
     0
102
RTVSPost2010Prop52
140
1.0
102
RTVSPost2010PropOp52
 70
     0
102
RTVSPost2010Prop53
 90
        2
102
RTVSPost2010PropOp53
 70
     1
102
RTVSPost2010Prop54
  1
strokes_ogs.tif
102
RTVSPost2010PropOp54
 70
     1
102
RTVSPost2010Prop55
280
     0
102
RTVSPost2010PropOp55
 70
     1
102
RTVSPost2010Prop56
140
1.0
102
RTVSPost2010PropOp56
 70
     1
102
RTVSPost2010Prop57
140
1.0
102
RTVSPost2010PropOp57
 70
     1
  0
XRECORD
  5
1FD0
102
{ACAD_REACTORS
330
1FCF
102
}
330
1FCF
100
AcDbXrecord
280
     1
102
RTVSPropertyOp0
 70
     0
102
RTVSPropertyOp1
 70
     0
102
RTVSPropertyOp2
 70
     0
102
RTVSPropertyOp3
 70
     0
102
RTVSPropertyOp4
 70
     0
102
RTVSPropertyOp5
 70
     0
102
RTVSPropertyOp6
 70
     0
102
RTVSPropertyOp7
 70
     0
102
RTVSPropertyOp8
 70
     0
102
RTVSPropertyOp9
 70
     0
102
RTVSPropertyOp10
 70
     0
102
RTVSPropertyOp11
 70
     0
102
RTVSPropertyOp12
 70
     0
102
RTVSPropertyOp13
 70
     0
102
RTVSPropertyOp14
 70
     0
102
RTVSPropertyOp15
 70
     0
102
RTVSPropertyOp16
 70
     0
102
RTVSPropertyOp17
 70
     0
102
RTVSPropertyOp18
 70
     0
102
RTVSPropertyOp19
 70
     0
102
RTVSPropertyOp20
 70
     0
102
RTVSPropertyOp21
 70
     0
102
RTVSPropertyOp22
 70
     0
102
RTVSPropertyOp23
 70
     0
102
RTVSPropertyOp24
 70
     0
102
RTVSPropertyOp25
 70
     0
102
RTVSPropertyOp26
 70
     0
102
RTVSPropertyOp27
 70
     0
102
RTVSPropertyOp28
 70
     1
102
RTVSPropertyOp29
 70
     1
102
RTVSPropertyOp30
 70
     1
102
RTVSPropertyOp31
 70
     1
102
RTVSPropertyOp32
 70
     1
102
RTVSPropertyOp33
 70
     1
102
RTVSPropertyOp34
 70
     1
102
RTVSPropertyOp35
 70
     1
102
RTVSPropertyOp36
 70
     1
102
RTVSPropertyOp37
 70
     1
102
RTVSPropertyOp38
 70
     1
102
RTVSPropertyOp39
 70
     1
102
RTVSPropertyOp40
 70
     1
102
RTVSPropertyOp41
 70
     1
102
RTVSPropertyOp42
 70
     1
102
RTVSPropertyOp43
 70
     1
102
RTVSPropertyOp44
 70
     1
102
RTVSPropertyOp45
 70
     1
102
RTVSPropertyOp46
 70
     1
102
RTVSPropertyOp47
 70
     1
102
RTVSPropertyOp48
 70
     1
102
RTVSPropertyOp49
 70
     1
102
RTVSPropertyOp50
 70
     1
102
RTVSPropertyOp51
 70
     0
102
RTVSPropertyOp52
 70
     0
102
RTVSPropertyOp53
 70
     1
102
RTVSPropertyOp54
 70
     1
102
RTVSPropertyOp55
 70
     1
102
RTVSPropertyOp56
 70
     1
102
RTVSPropertyOp57
 70
     1
102
RTVSPost2010Prop28
280
     0
102
RTVSPost2010PropOp28
 70
     1
102
RTVSPost2010Prop29
280
     1
102
RTVSPost2010PropOp29
 70
     1
102
RTVSPost2010Prop30
280
     1
102
RTVSPost2010PropOp30
 70
     1
102
RTVSPost2010Prop31
280
     0
102
RTVSPost2010PropOp31
 70
     1
102
RTVSPost2010Prop32
280
     0
102
RTVSPost2010PropOp32
 70
     1
102
RTVSPost2010Prop33
280
     0
102
RTVSPost2010PropOp33
 70
     1
102
RTVSPost2010Prop34
280
     0
102
RTVSPost2010PropOp34
 70
     1
102
RTVSPost2010Prop35
280
     0
102
RTVSPost2010PropOp35
 70
     1
102
RTVSPost2010Prop36
280
     0
102
RTVSPost2010PropOp36
 70
     1
102
RTVSPost2010Prop37
 90
       50
102
RTVSPost2010PropOp37
 70
     1
102
RTVSPost2010Prop38
140
0.0
102
RTVSPost2010PropOp38
 70
     1
102
RTVSPost2010Prop39
140
1.0
102
RTVSPost2010PropOp39
 70
     1
102
RTVSPost2010Prop40
 90
        0
102
RTVSPost2010PropOp40
 70
     1
102
RTVSPost2010Prop41ColorIndex
 90
       18
102
RTVSPost2010Prop41ColorRGB
 90
        0
102
RTVSPost2010PropOp41
 70
     1
102
RTVSPost2010Prop42
 90
       50
102
RTVSPost2010PropOp42
 70
     1
102
RTVSPost2010Prop43
 90
        3
102
RTVSPost2010PropOp43
 70
     1
102
RTVSPost2010Prop44ColorIndex
 90
        5
102
RTVSPost2010Prop44ColorRGB
 90
      255
102
RTVSPost2010PropOp44
 70
     1
102
RTVSPost2010Prop45
280
     0
102
RTVSPost2010PropOp45
 70
     1
102
RTVSPost2010Prop46
 90
       50
102
RTVSPost2010PropOp46
 70
     1
102
RTVSPost2010Prop47
 90
       50
102
RTVSPost2010PropOp47
 70
     1
102
RTVSPost2010Prop48
 90
       50
102
RTVSPost2010PropOp48
 70
     1
102
RTVSPost2010Prop49
280
     0
102
RTVSPost2010PropOp49
 70
     1
102
RTVSPost2010Prop50
 90
       50
102
RTVSPost2010PropOp50
 70
     1
102
RTVSPost2010Prop51ColorIndex
 90
      256
102
RTVSPost2010Prop51ColorRGB
 90
-16777216
102
RTVSPost2010PropOp51
 70
     0
102
RTVSPost2010Prop52
140
1.0
102
RTVSPost2010PropOp52
 70
     0
102
RTVSPost2010Prop53
 90
        2
102
RTVSPost2010PropOp53
 70
     1
102
RTVSPost2010Prop54
  1
strokes_ogs.tif
102
RTVSPost2010PropOp54
 70
     1
102
RTVSPost2010Prop55
280
     0
102
RTVSPost2010PropOp55
 70
     1
102
RTVSPost2010Prop56
140
1.0
102
RTVSPost2010PropOp56
 70
     1
102
RTVSPost2010Prop57
140
1.0
102
RTVSPost2010PropOp57
 70
     1
  0
XRECORD
  5
1FBE
102
{ACAD_REACTORS
330
1FBD
102
}
330
1FBD
100
AcDbXrecord
280
     1
102
RTVSPropertyOp0
 70
     1
102
RTVSPropertyOp1
 70
     1
102
RTVSPropertyOp2
 70
     1
102
RTVSPropertyOp3
 70
     1
102
RTVSPropertyOp4
 70
     1
102
RTVSPropertyOp5
 70
     1
102
RTVSPropertyOp6
 70
     1
102
RTVSPropertyOp7
 70
     1
102
RTVSPropertyOp8
 70
     1
102
RTVSPropertyOp9
 70
     1
102
RTVSPropertyOp10
 70
     1
102
RTVSPropertyOp11
 70
     1
102
RTVSPropertyOp12
 70
     1
102
RTVSPropertyOp13
 70
     1
102
RTVSPropertyOp14
 70
     1
102
RTVSPropertyOp15
 70
     1
102
RTVSPropertyOp16
 70
     1
102
RTVSPropertyOp17
 70
     1
102
RTVSPropertyOp18
 70
     1
102
RTVSPropertyOp19
 70
     1
102
RTVSPropertyOp20
 70
     1
102
RTVSPropertyOp21
 70
     1
102
RTVSPropertyOp22
 70
     1
102
RTVSPropertyOp23
 70
     1
102
RTVSPropertyOp24
 70
     1
102
RTVSPropertyOp25
 70
     1
102
RTVSPropertyOp26
 70
     1
102
RTVSPropertyOp27
 70
     1
102
RTVSPropertyOp28
 70
     1
102
RTVSPropertyOp29
 70
     1
102
RTVSPropertyOp30
 70
     1
102
RTVSPropertyOp31
 70
     1
102
RTVSPropertyOp32
 70
     1
102
RTVSPropertyOp33
 70
     1
102
RTVSPropertyOp34
 70
     1
102
RTVSPropertyOp35
 70
     1
102
RTVSPropertyOp36
 70
     1
102
RTVSPropertyOp37
 70
     1
102
RTVSPropertyOp38
 70
     1
102
RTVSPropertyOp39
 70
     1
102
RTVSPropertyOp40
 70
     1
102
RTVSPropertyOp41
 70
     1
102
RTVSPropertyOp42
 70
     1
102
RTVSPropertyOp43
 70
     1
102
RTVSPropertyOp44
 70
     1
102
RTVSPropertyOp45
 70
     1
102
RTVSPropertyOp46
 70
     1
102
RTVSPropertyOp47
 70
     1
102
RTVSPropertyOp48
 70
     1
102
RTVSPropertyOp49
 70
     1
102
RTVSPropertyOp50
 70
     1
102
RTVSPropertyOp51
 70
     0
102
RTVSPropertyOp52
 70
     0
102
RTVSPropertyOp53
 70
     1
102
RTVSPropertyOp54
 70
     1
102
RTVSPropertyOp55
 70
     1
102
RTVSPropertyOp56
 70
     1
102
RTVSPropertyOp57
 70
     1
102
RTVSPost2010Prop28
280
     0
102
RTVSPost2010PropOp28
 70
     1
102
RTVSPost2010Prop29
280
     1
102
RTVSPost2010PropOp29
 70
     1
102
RTVSPost2010Prop30
280
     1
102
RTVSPost2010PropOp30
 70
     1
102
RTVSPost2010Prop31
280
     0
102
RTVSPost2010PropOp31
 70
     1
102
RTVSPost2010Prop32
280
     0
102
RTVSPost2010PropOp32
 70
     1
102
RTVSPost2010Prop33
280
     0
102
RTVSPost2010PropOp33
 70
     1
102
RTVSPost2010Prop34
280
     0
102
RTVSPost2010PropOp34
 70
     1
102
RTVSPost2010Prop35
280
     0
102
RTVSPost2010PropOp35
 70
     1
102
RTVSPost2010Prop36
280
     0
102
RTVSPost2010PropOp36
 70
     1
102
RTVSPost2010Prop37
 90
       50
102
RTVSPost2010PropOp37
 70
     1
102
RTVSPost2010Prop38
140
0.0
102
RTVSPost2010PropOp38
 70
     1
102
RTVSPost2010Prop39
140
1.0
102
RTVSPost2010PropOp39
 70
     1
102
RTVSPost2010Prop40
 90
        0
102
RTVSPost2010PropOp40
 70
     1
102
RTVSPost2010Prop41ColorIndex
 90
       18
102
RTVSPost2010Prop41ColorRGB
 90
        0
102
RTVSPost2010PropOp41
 70
     1
102
RTVSPost2010Prop42
 90
       50
102
RTVSPost2010PropOp42
 70
     1
102
RTVSPost2010Prop43
 90
        3
102
RTVSPost2010PropOp43
 70
     1
102
RTVSPost2010Prop44ColorIndex
 90
        5
102
RTVSPost2010Prop44ColorRGB
 90
      255
102
RTVSPost2010PropOp44
 70
     1
102
RTVSPost2010Prop45
280
     0
102
RTVSPost2010PropOp45
 70
     1
102
RTVSPost2010Prop46
 90
       50
102
RTVSPost2010PropOp46
 70
     1
102
RTVSPost2010Prop47
 90
       50
102
RTVSPost2010PropOp47
 70
     1
102
RTVSPost2010Prop48
 90
       50
102
RTVSPost2010PropOp48
 70
     1
102
RTVSPost2010Prop49
280
     0
102
RTVSPost2010PropOp49
 70
     1
102
RTVSPost2010Prop50
 90
       50
102
RTVSPost2010PropOp50
 70
     1
102
RTVSPost2010Prop51ColorIndex
 90
      256
102
RTVSPost2010Prop51ColorRGB
 90
-16777216
102
RTVSPost2010PropOp51
 70
     0
102
RTVSPost2010Prop52
140
1.0
102
RTVSPost2010PropOp52
 70
     0
102
RTVSPost2010Prop53
 90
        2
102
RTVSPost2010PropOp53
 70
     1
102
RTVSPost2010Prop54
  1
strokes_ogs.tif
102
RTVSPost2010PropOp54
 70
     1
102
RTVSPost2010Prop55
280
     0
102
RTVSPost2010PropOp55
 70
     1
102
RTVSPost2010Prop56
140
1.0
102
RTVSPost2010PropOp56
 70
     1
102
RTVSPost2010Prop57
140
1.0
102
RTVSPost2010PropOp57
 70
     1
  0
XRECORD
  5
1FDC
102
{ACAD_REACTORS
330
1FDB
102
}
330
1FDB
100
AcDbXrecord
280
     1
102
RTVSPropertyOp0
 70
     1
102
RTVSPropertyOp1
 70
     1
102
RTVSPropertyOp2
 70
     1
102
RTVSPropertyOp3
 70
     1
102
RTVSPropertyOp4
 70
     1
102
RTVSPropertyOp5
 70
     1
102
RTVSPropertyOp6
 70
     1
102
RTVSPropertyOp7
 70
     1
102
RTVSPropertyOp8
 70
     1
102
RTVSPropertyOp9
 70
     1
102
RTVSPropertyOp10
 70
     1
102
RTVSPropertyOp11
 70
     1
102
RTVSPropertyOp12
 70
     1
102
RTVSPropertyOp13
 70
     1
102
RTVSPropertyOp14
 70
     1
102
RTVSPropertyOp15
 70
     1
102
RTVSPropertyOp16
 70
     1
102
RTVSPropertyOp17
 70
     1
102
RTVSPropertyOp18
 70
     1
102
RTVSPropertyOp19
 70
     1
102
RTVSPropertyOp20
 70
     1
102
RTVSPropertyOp21
 70
     1
102
RTVSPropertyOp22
 70
     1
102
RTVSPropertyOp23
 70
     1
102
RTVSPropertyOp24
 70
     1
102
RTVSPropertyOp25
 70
     1
102
RTVSPropertyOp26
 70
     1
102
RTVSPropertyOp27
 70
     1
102
RTVSPropertyOp28
 70
     1
102
RTVSPropertyOp29
 70
     1
102
RTVSPropertyOp30
 70
     1
102
RTVSPropertyOp31
 70
     1
102
RTVSPropertyOp32
 70
     1
102
RTVSPropertyOp33
 70
     1
102
RTVSPropertyOp34
 70
     1
102
RTVSPropertyOp35
 70
     1
102
RTVSPropertyOp36
 70
     1
102
RTVSPropertyOp37
 70
     1
102
RTVSPropertyOp38
 70
     1
102
RTVSPropertyOp39
 70
     1
102
RTVSPropertyOp40
 70
     1
102
RTVSPropertyOp41
 70
     1
102
RTVSPropertyOp42
 70
     1
102
RTVSPropertyOp43
 70
     1
102
RTVSPropertyOp44
 70
     1
102
RTVSPropertyOp45
 70
     1
102
RTVSPropertyOp46
 70
     1
102
RTVSPropertyOp47
 70
     1
102
RTVSPropertyOp48
 70
     1
102
RTVSPropertyOp49
 70
     1
102
RTVSPropertyOp50
 70
     1
102
RTVSPropertyOp51
 70
     0
102
RTVSPropertyOp52
 70
     0
102
RTVSPropertyOp53
 70
     1
102
RTVSPropertyOp54
 70
     1
102
RTVSPropertyOp55
 70
     1
102
RTVSPropertyOp56
 70
     1
102
RTVSPropertyOp57
 70
     1
102
RTVSPost2010Prop28
280
     0
102
RTVSPost2010PropOp28
 70
     1
102
RTVSPost2010Prop29
280
     1
102
RTVSPost2010PropOp29
 70
     1
102
RTVSPost2010Prop30
280
     1
102
RTVSPost2010PropOp30
 70
     1
102
RTVSPost2010Prop31
280
     0
102
RTVSPost2010PropOp31
 70
     1
102
RTVSPost2010Prop32
280
     0
102
RTVSPost2010PropOp32
 70
     1
102
RTVSPost2010Prop33
280
     0
102
RTVSPost2010PropOp33
 70
     1
102
RTVSPost2010Prop34
280
     0
102
RTVSPost2010PropOp34
 70
     1
102
RTVSPost2010Prop35
280
     0
102
RTVSPost2010PropOp35
 70
     1
102
RTVSPost2010Prop36
280
     0
102
RTVSPost2010PropOp36
 70
     1
102
RTVSPost2010Prop37
 90
       50
102
RTVSPost2010PropOp37
 70
     1
102
RTVSPost2010Prop38
140
0.0
102
RTVSPost2010PropOp38
 70
     1
102
RTVSPost2010Prop39
140
1.0
102
RTVSPost2010PropOp39
 70
     1
102
RTVSPost2010Prop40
 90
        0
102
RTVSPost2010PropOp40
 70
     1
102
RTVSPost2010Prop41ColorIndex
 90
       18
102
RTVSPost2010Prop41ColorRGB
 90
        0
102
RTVSPost2010PropOp41
 70
     1
102
RTVSPost2010Prop42
 90
       50
102
RTVSPost2010PropOp42
 70
     1
102
RTVSPost2010Prop43
 90
        3
102
RTVSPost2010PropOp43
 70
     1
102
RTVSPost2010Prop44ColorIndex
 90
        5
102
RTVSPost2010Prop44ColorRGB
 90
      255
102
RTVSPost2010PropOp44
 70
     1
102
RTVSPost2010Prop45
280
     0
102
RTVSPost2010PropOp45
 70
     1
102
RTVSPost2010Prop46
 90
       50
102
RTVSPost2010PropOp46
 70
     1
102
RTVSPost2010Prop47
 90
       50
102
RTVSPost2010PropOp47
 70
     1
102
RTVSPost2010Prop48
 90
       50
102
RTVSPost2010PropOp48
 70
     1
102
RTVSPost2010Prop49
280
     0
102
RTVSPost2010PropOp49
 70
     1
102
RTVSPost2010Prop50
 90
       50
102
RTVSPost2010PropOp50
 70
     1
102
RTVSPost2010Prop51ColorIndex
 90
      256
102
RTVSPost2010Prop51ColorRGB
 90
-16777216
102
RTVSPost2010PropOp51
 70
     0
102
RTVSPost2010Prop52
140
1.0
102
RTVSPost2010PropOp52
 70
     0
102
RTVSPost2010Prop53
 90
        2
102
RTVSPost2010PropOp53
 70
     1
102
RTVSPost2010Prop54
  1
strokes_ogs.tif
102
RTVSPost2010PropOp54
 70
     1
102
RTVSPost2010Prop55
280
     0
102
RTVSPost2010PropOp55
 70
     1
102
RTVSPost2010Prop56
140
1.0
102
RTVSPost2010PropOp56
 70
     1
102
RTVSPost2010Prop57
140
1.0
102
RTVSPost2010PropOp57
 70
     1
  0
XRECORD
  5
1FDA
102
{ACAD_REACTORS
330
1FD9
102
}
330
1FD9
100
AcDbXrecord
280
     1
102
RTVSPropertyOp0
 70
     1
102
RTVSPropertyOp1
 70
     1
102
RTVSPropertyOp2
 70
     1
102
RTVSPropertyOp3
 70
     1
102
RTVSPropertyOp4
 70
     1
102
RTVSPropertyOp5
 70
     1
102
RTVSPropertyOp6
 70
     1
102
RTVSPropertyOp7
 70
     1
102
RTVSPropertyOp8
 70
     1
102
RTVSPropertyOp9
 70
     1
102
RTVSPropertyOp10
 70
     1
102
RTVSPropertyOp11
 70
     1
102
RTVSPropertyOp12
 70
     1
102
RTVSPropertyOp13
 70
     1
102
RTVSPropertyOp14
 70
     1
102
RTVSPropertyOp15
 70
     1
102
RTVSPropertyOp16
 70
     1
102
RTVSPropertyOp17
 70
     1
102
RTVSPropertyOp18
 70
     1
102
RTVSPropertyOp19
 70
     1
102
RTVSPropertyOp20
 70
     1
102
RTVSPropertyOp21
 70
     1
102
RTVSPropertyOp22
 70
     1
102
RTVSPropertyOp23
 70
     1
102
RTVSPropertyOp24
 70
     1
102
RTVSPropertyOp25
 70
     1
102
RTVSPropertyOp26
 70
     1
102
RTVSPropertyOp27
 70
     1
102
RTVSPropertyOp28
 70
     1
102
RTVSPropertyOp29
 70
     1
102
RTVSPropertyOp30
 70
     1
102
RTVSPropertyOp31
 70
     1
102
RTVSPropertyOp32
 70
     1
102
RTVSPropertyOp33
 70
     1
102
RTVSPropertyOp34
 70
     1
102
RTVSPropertyOp35
 70
     1
102
RTVSPropertyOp36
 70
     1
102
RTVSPropertyOp37
 70
     1
102
RTVSPropertyOp38
 70
     1
102
RTVSPropertyOp39
 70
     1
102
RTVSPropertyOp40
 70
     1
102
RTVSPropertyOp41
 70
     1
102
RTVSPropertyOp42
 70
     1
102
RTVSPropertyOp43
 70
     1
102
RTVSPropertyOp44
 70
     1
102
RTVSPropertyOp45
 70
     1
102
RTVSPropertyOp46
 70
     1
102
RTVSPropertyOp47
 70
     1
102
RTVSPropertyOp48
 70
     1
102
RTVSPropertyOp49
 70
     1
102
RTVSPropertyOp50
 70
     1
102
RTVSPropertyOp51
 70
     0
102
RTVSPropertyOp52
 70
     0
102
RTVSPropertyOp53
 70
     1
102
RTVSPropertyOp54
 70
     1
102
RTVSPropertyOp55
 70
     1
102
RTVSPropertyOp56
 70
     1
102
RTVSPropertyOp57
 70
     1
102
RTVSPost2010Prop28
280
     0
102
RTVSPost2010PropOp28
 70
     1
102
RTVSPost2010Prop29
280
     1
102
RTVSPost2010PropOp29
 70
     1
102
RTVSPost2010Prop30
280
     1
102
RTVSPost2010PropOp30
 70
     1
102
RTVSPost2010Prop31
280
     0
102
RTVSPost2010PropOp31
 70
     1
102
RTVSPost2010Prop32
280
     0
102
RTVSPost2010PropOp32
 70
     1
102
RTVSPost2010Prop33
280
     0
102
RTVSPost2010PropOp33
 70
     1
102
RTVSPost2010Prop34
280
     0
102
RTVSPost2010PropOp34
 70
     1
102
RTVSPost2010Prop35
280
     0
102
RTVSPost2010PropOp35
 70
     1
102
RTVSPost2010Prop36
280
     0
102
RTVSPost2010PropOp36
 70
     1
102
RTVSPost2010Prop37
 90
       50
102
RTVSPost2010PropOp37
 70
     1
102
RTVSPost2010Prop38
140
0.0
102
RTVSPost2010PropOp38
 70
     1
102
RTVSPost2010Prop39
140
1.0
102
RTVSPost2010PropOp39
 70
     1
102
RTVSPost2010Prop40
 90
        0
102
RTVSPost2010PropOp40
 70
     1
102
RTVSPost2010Prop41ColorIndex
 90
       18
102
RTVSPost2010Prop41ColorRGB
 90
        0
102
RTVSPost2010PropOp41
 70
     1
102
RTVSPost2010Prop42
 90
       50
102
RTVSPost2010PropOp42
 70
     1
102
RTVSPost2010Prop43
 90
        3
102
RTVSPost2010PropOp43
 70
     1
102
RTVSPost2010Prop44ColorIndex
 90
        5
102
RTVSPost2010Prop44ColorRGB
 90
      255
102
RTVSPost2010PropOp44
 70
     1
102
RTVSPost2010Prop45
280
     0
102
RTVSPost2010PropOp45
 70
     1
102
RTVSPost2010Prop46
 90
       50
102
RTVSPost2010PropOp46
 70
     1
102
RTVSPost2010Prop47
 90
       50
102
RTVSPost2010PropOp47
 70
     1
102
RTVSPost2010Prop48
 90
       50
102
RTVSPost2010PropOp48
 70
     1
102
RTVSPost2010Prop49
280
     0
102
RTVSPost2010PropOp49
 70
     1
102
RTVSPost2010Prop50
 90
       50
102
RTVSPost2010PropOp50
 70
     1
102
RTVSPost2010Prop51ColorIndex
 90
      256
102
RTVSPost2010Prop51ColorRGB
 90
-16777216
102
RTVSPost2010PropOp51
 70
     0
102
RTVSPost2010Prop52
140
1.0
102
RTVSPost2010PropOp52
 70
     0
102
RTVSPost2010Prop53
 90
        2
102
RTVSPost2010PropOp53
 70
     1
102
RTVSPost2010Prop54
  1
strokes_ogs.tif
102
RTVSPost2010PropOp54
 70
     1
102
RTVSPost2010Prop55
280
     0
102
RTVSPost2010PropOp55
 70
     1
102
RTVSPost2010Prop56
140
1.0
102
RTVSPost2010PropOp56
 70
     1
102
RTVSPost2010Prop57
140
1.0
102
RTVSPost2010PropOp57
 70
     1
  0
XRECORD
  5
1FD4
102
{ACAD_REACTORS
330
1FD3
102
}
330
1FD3
100
AcDbXrecord
280
     1
102
RTVSPropertyOp0
 70
     1
102
RTVSPropertyOp1
 70
     1
102
RTVSPropertyOp2
 70
     1
102
RTVSPropertyOp3
 70
     1
102
RTVSPropertyOp4
 70
     1
102
RTVSPropertyOp5
 70
     1
102
RTVSPropertyOp6
 70
     1
102
RTVSPropertyOp7
 70
     1
102
RTVSPropertyOp8
 70
     1
102
RTVSPropertyOp9
 70
     1
102
RTVSPropertyOp10
 70
     1
102
RTVSPropertyOp11
 70
     1
102
RTVSPropertyOp12
 70
     1
102
RTVSPropertyOp13
 70
     1
102
RTVSPropertyOp14
 70
     1
102
RTVSPropertyOp15
 70
     1
102
RTVSPropertyOp16
 70
     1
102
RTVSPropertyOp17
 70
     1
102
RTVSPropertyOp18
 70
     1
102
RTVSPropertyOp19
 70
     1
102
RTVSPropertyOp20
 70
     1
102
RTVSPropertyOp21
 70
     1
102
RTVSPropertyOp22
 70
     1
102
RTVSPropertyOp23
 70
     1
102
RTVSPropertyOp24
 70
     1
102
RTVSPropertyOp25
 70
     1
102
RTVSPropertyOp26
 70
     1
102
RTVSPropertyOp27
 70
     1
102
RTVSPropertyOp28
 70
     1
102
RTVSPropertyOp29
 70
     1
102
RTVSPropertyOp30
 70
     1
102
RTVSPropertyOp31
 70
     1
102
RTVSPropertyOp32
 70
     1
102
RTVSPropertyOp33
 70
     1
102
RTVSPropertyOp34
 70
     1
102
RTVSPropertyOp35
 70
     1
102
RTVSPropertyOp36
 70
     1
102
RTVSPropertyOp37
 70
     1
102
RTVSPropertyOp38
 70
     1
102
RTVSPropertyOp39
 70
     1
102
RTVSPropertyOp40
 70
     1
102
RTVSPropertyOp41
 70
     1
102
RTVSPropertyOp42
 70
     1
102
RTVSPropertyOp43
 70
     1
102
RTVSPropertyOp44
 70
     1
102
RTVSPropertyOp45
 70
     1
102
RTVSPropertyOp46
 70
     1
102
RTVSPropertyOp47
 70
     1
102
RTVSPropertyOp48
 70
     1
102
RTVSPropertyOp49
 70
     1
102
RTVSPropertyOp50
 70
     1
102
RTVSPropertyOp51
 70
     0
102
RTVSPropertyOp52
 70
     0
102
RTVSPropertyOp53
 70
     1
102
RTVSPropertyOp54
 70
     1
102
RTVSPropertyOp55
 70
     1
102
RTVSPropertyOp56
 70
     1
102
RTVSPropertyOp57
 70
     1
102
RTVSPost2010Prop28
280
     0
102
RTVSPost2010PropOp28
 70
     1
102
RTVSPost2010Prop29
280
     1
102
RTVSPost2010PropOp29
 70
     1
102
RTVSPost2010Prop30
280
     1
102
RTVSPost2010PropOp30
 70
     1
102
RTVSPost2010Prop31
280
     0
102
RTVSPost2010PropOp31
 70
     1
102
RTVSPost2010Prop32
280
     0
102
RTVSPost2010PropOp32
 70
     1
102
RTVSPost2010Prop33
280
     0
102
RTVSPost2010PropOp33
 70
     1
102
RTVSPost2010Prop34
280
     0
102
RTVSPost2010PropOp34
 70
     1
102
RTVSPost2010Prop35
280
     0
102
RTVSPost2010PropOp35
 70
     1
102
RTVSPost2010Prop36
280
     0
102
RTVSPost2010PropOp36
 70
     1
102
RTVSPost2010Prop37
 90
       50
102
RTVSPost2010PropOp37
 70
     1
102
RTVSPost2010Prop38
140
0.0
102
RTVSPost2010PropOp38
 70
     1
102
RTVSPost2010Prop39
140
1.0
102
RTVSPost2010PropOp39
 70
     1
102
RTVSPost2010Prop40
 90
        0
102
RTVSPost2010PropOp40
 70
     1
102
RTVSPost2010Prop41ColorIndex
 90
       18
102
RTVSPost2010Prop41ColorRGB
 90
        0
102
RTVSPost2010PropOp41
 70
     1
102
RTVSPost2010Prop42
 90
       50
102
RTVSPost2010PropOp42
 70
     1
102
RTVSPost2010Prop43
 90
        3
102
RTVSPost2010PropOp43
 70
     1
102
RTVSPost2010Prop44ColorIndex
 90
        5
102
RTVSPost2010Prop44ColorRGB
 90
      255
102
RTVSPost2010PropOp44
 70
     1
102
RTVSPost2010Prop45
280
     0
102
RTVSPost2010PropOp45
 70
     1
102
RTVSPost2010Prop46
 90
       50
102
RTVSPost2010PropOp46
 70
     1
102
RTVSPost2010Prop47
 90
       50
102
RTVSPost2010PropOp47
 70
     1
102
RTVSPost2010Prop48
 90
       50
102
RTVSPost2010PropOp48
 70
     1
102
RTVSPost2010Prop49
280
     0
102
RTVSPost2010PropOp49
 70
     1
102
RTVSPost2010Prop50
 90
       50
102
RTVSPost2010PropOp50
 70
     1
102
RTVSPost2010Prop51ColorIndex
 90
      256
102
RTVSPost2010Prop51ColorRGB
 90
-16777216
102
RTVSPost2010PropOp51
 70
     0
102
RTVSPost2010Prop52
140
1.0
102
RTVSPost2010PropOp52
 70
     0
102
RTVSPost2010Prop53
 90
        2
102
RTVSPost2010PropOp53
 70
     1
102
RTVSPost2010Prop54
  1
strokes_ogs.tif
102
RTVSPost2010PropOp54
 70
     1
102
RTVSPost2010Prop55
280
     0
102
RTVSPost2010PropOp55
 70
     1
102
RTVSPost2010Prop56
140
1.0
102
RTVSPost2010PropOp56
 70
     1
102
RTVSPost2010Prop57
140
1.0
102
RTVSPost2010PropOp57
 70
     1
  0
XRECORD
  5
1FD6
102
{ACAD_REACTORS
330
1FD5
102
}
330
1FD5
100
AcDbXrecord
280
     1
102
RTVSPropertyOp0
 70
     1
102
RTVSPropertyOp1
 70
     1
102
RTVSPropertyOp2
 70
     1
102
RTVSPropertyOp3
 70
     1
102
RTVSPropertyOp4
 70
     1
102
RTVSPropertyOp5
 70
     1
102
RTVSPropertyOp6
 70
     1
102
RTVSPropertyOp7
 70
     1
102
RTVSPropertyOp8
 70
     1
102
RTVSPropertyOp9
 70
     1
102
RTVSPropertyOp10
 70
     1
102
RTVSPropertyOp11
 70
     1
102
RTVSPropertyOp12
 70
     1
102
RTVSPropertyOp13
 70
     1
102
RTVSPropertyOp14
 70
     1
102
RTVSPropertyOp15
 70
     1
102
RTVSPropertyOp16
 70
     1
102
RTVSPropertyOp17
 70
     1
102
RTVSPropertyOp18
 70
     1
102
RTVSPropertyOp19
 70
     1
102
RTVSPropertyOp20
 70
     1
102
RTVSPropertyOp21
 70
     1
102
RTVSPropertyOp22
 70
     1
102
RTVSPropertyOp23
 70
     1
102
RTVSPropertyOp24
 70
     1
102
RTVSPropertyOp25
 70
     1
102
RTVSPropertyOp26
 70
     1
102
RTVSPropertyOp27
 70
     1
102
RTVSPropertyOp28
 70
     1
102
RTVSPropertyOp29
 70
     1
102
RTVSPropertyOp30
 70
     1
102
RTVSPropertyOp31
 70
     1
102
RTVSPropertyOp32
 70
     1
102
RTVSPropertyOp33
 70
     1
102
RTVSPropertyOp34
 70
     1
102
RTVSPropertyOp35
 70
     1
102
RTVSPropertyOp36
 70
     1
102
RTVSPropertyOp37
 70
     1
102
RTVSPropertyOp38
 70
     1
102
RTVSPropertyOp39
 70
     1
102
RTVSPropertyOp40
 70
     1
102
RTVSPropertyOp41
 70
     1
102
RTVSPropertyOp42
 70
     1
102
RTVSPropertyOp43
 70
     1
102
RTVSPropertyOp44
 70
     1
102
RTVSPropertyOp45
 70
     1
102
RTVSPropertyOp46
 70
     1
102
RTVSPropertyOp47
 70
     1
102
RTVSPropertyOp48
 70
     1
102
RTVSPropertyOp49
 70
     1
102
RTVSPropertyOp50
 70
     1
102
RTVSPropertyOp51
 70
     0
102
RTVSPropertyOp52
 70
     0
102
RTVSPropertyOp53
 70
     1
102
RTVSPropertyOp54
 70
     1
102
RTVSPropertyOp55
 70
     1
102
RTVSPropertyOp56
 70
     1
102
RTVSPropertyOp57
 70
     1
102
RTVSPost2010Prop28
280
     0
102
RTVSPost2010PropOp28
 70
     1
102
RTVSPost2010Prop29
280
     1
102
RTVSPost2010PropOp29
 70
     1
102
RTVSPost2010Prop30
280
     1
102
RTVSPost2010PropOp30
 70
     1
102
RTVSPost2010Prop31
280
     0
102
RTVSPost2010PropOp31
 70
     1
102
RTVSPost2010Prop32
280
     0
102
RTVSPost2010PropOp32
 70
     1
102
RTVSPost2010Prop33
280
     0
102
RTVSPost2010PropOp33
 70
     1
102
RTVSPost2010Prop34
280
     0
102
RTVSPost2010PropOp34
 70
     1
102
RTVSPost2010Prop35
280
     0
102
RTVSPost2010PropOp35
 70
     1
102
RTVSPost2010Prop36
280
     0
102
RTVSPost2010PropOp36
 70
     1
102
RTVSPost2010Prop37
 90
       50
102
RTVSPost2010PropOp37
 70
     1
102
RTVSPost2010Prop38
140
0.0
102
RTVSPost2010PropOp38
 70
     1
102
RTVSPost2010Prop39
140
1.0
102
RTVSPost2010PropOp39
 70
     1
102
RTVSPost2010Prop40
 90
        0
102
RTVSPost2010PropOp40
 70
     1
102
RTVSPost2010Prop41ColorIndex
 90
       18
102
RTVSPost2010Prop41ColorRGB
 90
        0
102
RTVSPost2010PropOp41
 70
     1
102
RTVSPost2010Prop42
 90
       50
102
RTVSPost2010PropOp42
 70
     1
102
RTVSPost2010Prop43
 90
        3
102
RTVSPost2010PropOp43
 70
     1
102
RTVSPost2010Prop44ColorIndex
 90
        5
102
RTVSPost2010Prop44ColorRGB
 90
      255
102
RTVSPost2010PropOp44
 70
     1
102
RTVSPost2010Prop45
280
     0
102
RTVSPost2010PropOp45
 70
     1
102
RTVSPost2010Prop46
 90
       50
102
RTVSPost2010PropOp46
 70
     1
102
RTVSPost2010Prop47
 90
       50
102
RTVSPost2010PropOp47
 70
     1
102
RTVSPost2010Prop48
 90
       50
102
RTVSPost2010PropOp48
 70
     1
102
RTVSPost2010Prop49
280
     0
102
RTVSPost2010PropOp49
 70
     1
102
RTVSPost2010Prop50
 90
       50
102
RTVSPost2010PropOp50
 70
     1
102
RTVSPost2010Prop51ColorIndex
 90
      256
102
RTVSPost2010Prop51ColorRGB
 90
-16777216
102
RTVSPost2010PropOp51
 70
     0
102
RTVSPost2010Prop52
140
1.0
102
RTVSPost2010PropOp52
 70
     0
102
RTVSPost2010Prop53
 90
        2
102
RTVSPost2010PropOp53
 70
     1
102
RTVSPost2010Prop54
  1
strokes_ogs.tif
102
RTVSPost2010PropOp54
 70
     1
102
RTVSPost2010Prop55
280
     0
102
RTVSPost2010PropOp55
 70
     1
102
RTVSPost2010Prop56
140
1.0
102
RTVSPost2010PropOp56
 70
     1
102
RTVSPost2010Prop57
140
1.0
102
RTVSPost2010PropOp57
 70
     1
  0
XRECORD
  5
1FC6
102
{ACAD_REACTORS
330
1FC5
102
}
330
1FC5
100
AcDbXrecord
280
     1
102
RTVSPropertyOp0
 70
     1
102
RTVSPropertyOp1
 70
     1
102
RTVSPropertyOp2
 70
     1
102
RTVSPropertyOp3
 70
     1
102
RTVSPropertyOp4
 70
     1
102
RTVSPropertyOp5
 70
     1
102
RTVSPropertyOp6
 70
     1
102
RTVSPropertyOp7
 70
     1
102
RTVSPropertyOp8
 70
     1
102
RTVSPropertyOp9
 70
     1
102
RTVSPropertyOp10
 70
     1
102
RTVSPropertyOp11
 70
     1
102
RTVSPropertyOp12
 70
     1
102
RTVSPropertyOp13
 70
     1
102
RTVSPropertyOp14
 70
     1
102
RTVSPropertyOp15
 70
     1
102
RTVSPropertyOp16
 70
     1
102
RTVSPropertyOp17
 70
     1
102
RTVSPropertyOp18
 70
     1
102
RTVSPropertyOp19
 70
     1
102
RTVSPropertyOp20
 70
     1
102
RTVSPropertyOp21
 70
     1
102
RTVSPropertyOp22
 70
     1
102
RTVSPropertyOp23
 70
     1
102
RTVSPropertyOp24
 70
     1
102
RTVSPropertyOp25
 70
     1
102
RTVSPropertyOp26
 70
     1
102
RTVSPropertyOp27
 70
     1
102
RTVSPropertyOp28
 70
     1
102
RTVSPropertyOp29
 70
     1
102
RTVSPropertyOp30
 70
     1
102
RTVSPropertyOp31
 70
     1
102
RTVSPropertyOp32
 70
     1
102
RTVSPropertyOp33
 70
     1
102
RTVSPropertyOp34
 70
     1
102
RTVSPropertyOp35
 70
     1
102
RTVSPropertyOp36
 70
     1
102
RTVSPropertyOp37
 70
     1
102
RTVSPropertyOp38
 70
     1
102
RTVSPropertyOp39
 70
     1
102
RTVSPropertyOp40
 70
     1
102
RTVSPropertyOp41
 70
     1
102
RTVSPropertyOp42
 70
     1
102
RTVSPropertyOp43
 70
     1
102
RTVSPropertyOp44
 70
     1
102
RTVSPropertyOp45
 70
     1
102
RTVSPropertyOp46
 70
     1
102
RTVSPropertyOp47
 70
     1
102
RTVSPropertyOp48
 70
     1
102
RTVSPropertyOp49
 70
     1
102
RTVSPropertyOp50
 70
     1
102
RTVSPropertyOp51
 70
     0
102
RTVSPropertyOp52
 70
     0
102
RTVSPropertyOp53
 70
     1
102
RTVSPropertyOp54
 70
     1
102
RTVSPropertyOp55
 70
     1
102
RTVSPropertyOp56
 70
     1
102
RTVSPropertyOp57
 70
     1
102
RTVSPost2010Prop28
280
     0
102
RTVSPost2010PropOp28
 70
     1
102
RTVSPost2010Prop29
280
     1
102
RTVSPost2010PropOp29
 70
     1
102
RTVSPost2010Prop30
280
     1
102
RTVSPost2010PropOp30
 70
     1
102
RTVSPost2010Prop31
280
     0
102
RTVSPost2010PropOp31
 70
     1
102
RTVSPost2010Prop32
280
     0
102
RTVSPost2010PropOp32
 70
     1
102
RTVSPost2010Prop33
280
     0
102
RTVSPost2010PropOp33
 70
     1
102
RTVSPost2010Prop34
280
     0
102
RTVSPost2010PropOp34
 70
     1
102
RTVSPost2010Prop35
280
     0
102
RTVSPost2010PropOp35
 70
     1
102
RTVSPost2010Prop36
280
     0
102
RTVSPost2010PropOp36
 70
     1
102
RTVSPost2010Prop37
 90
       50
102
RTVSPost2010PropOp37
 70
     1
102
RTVSPost2010Prop38
140
0.0
102
RTVSPost2010PropOp38
 70
     1
102
RTVSPost2010Prop39
140
1.0
102
RTVSPost2010PropOp39
 70
     1
102
RTVSPost2010Prop40
 90
        0
102
RTVSPost2010PropOp40
 70
     1
102
RTVSPost2010Prop41ColorIndex
 90
       18
102
RTVSPost2010Prop41ColorRGB
 90
        0
102
RTVSPost2010PropOp41
 70
     1
102
RTVSPost2010Prop42
 90
       50
102
RTVSPost2010PropOp42
 70
     1
102
RTVSPost2010Prop43
 90
        3
102
RTVSPost2010PropOp43
 70
     1
102
RTVSPost2010Prop44ColorIndex
 90
        5
102
RTVSPost2010Prop44ColorRGB
 90
      255
102
RTVSPost2010PropOp44
 70
     1
102
RTVSPost2010Prop45
280
     0
102
RTVSPost2010PropOp45
 70
     1
102
RTVSPost2010Prop46
 90
       50
102
RTVSPost2010PropOp46
 70
     1
102
RTVSPost2010Prop47
 90
       50
102
RTVSPost2010PropOp47
 70
     1
102
RTVSPost2010Prop48
 90
       50
102
RTVSPost2010PropOp48
 70
     1
102
RTVSPost2010Prop49
280
     0
102
RTVSPost2010PropOp49
 70
     1
102
RTVSPost2010Prop50
 90
       50
102
RTVSPost2010PropOp50
 70
     1
102
RTVSPost2010Prop51ColorIndex
 90
      256
102
RTVSPost2010Prop51ColorRGB
 90
-16777216
102
RTVSPost2010PropOp51
 70
     0
102
RTVSPost2010Prop52
140
1.0
102
RTVSPost2010PropOp52
 70
     0
102
RTVSPost2010Prop53
 90
        2
102
RTVSPost2010PropOp53
 70
     1
102
RTVSPost2010Prop54
  1
strokes_ogs.tif
102
RTVSPost2010PropOp54
 70
     1
102
RTVSPost2010Prop55
280
     0
102
RTVSPost2010PropOp55
 70
     1
102
RTVSPost2010Prop56
140
1.0
102
RTVSPost2010PropOp56
 70
     1
102
RTVSPost2010Prop57
140
1.0
102
RTVSPost2010PropOp57
 70
     1
  0
XRECORD
  5
1FB8
102
{ACAD_REACTORS
330
1FB7
102
}
330
1FB7
100
AcDbXrecord
280
     1
102
RTVSPropertyOp0
 70
     1
102
RTVSPropertyOp1
 70
     1
102
RTVSPropertyOp2
 70
     1
102
RTVSPropertyOp3
 70
     1
102
RTVSPropertyOp4
 70
     1
102
RTVSPropertyOp5
 70
     1
102
RTVSPropertyOp6
 70
     1
102
RTVSPropertyOp7
 70
     1
102
RTVSPropertyOp8
 70
     1
102
RTVSPropertyOp9
 70
     1
102
RTVSPropertyOp10
 70
     1
102
RTVSPropertyOp11
 70
     1
102
RTVSPropertyOp12
 70
     1
102
RTVSPropertyOp13
 70
     1
102
RTVSPropertyOp14
 70
     1
102
RTVSPropertyOp15
 70
     1
102
RTVSPropertyOp16
 70
     1
102
RTVSPropertyOp17
 70
     1
102
RTVSPropertyOp18
 70
     1
102
RTVSPropertyOp19
 70
     1
102
RTVSPropertyOp20
 70
     1
102
RTVSPropertyOp21
 70
     1
102
RTVSPropertyOp22
 70
     1
102
RTVSPropertyOp23
 70
     1
102
RTVSPropertyOp24
 70
     1
102
RTVSPropertyOp25
 70
     1
102
RTVSPropertyOp26
 70
     1
102
RTVSPropertyOp27
 70
     1
102
RTVSPropertyOp28
 70
     1
102
RTVSPropertyOp29
 70
     1
102
RTVSPropertyOp30
 70
     1
102
RTVSPropertyOp31
 70
     1
102
RTVSPropertyOp32
 70
     1
102
RTVSPropertyOp33
 70
     1
102
RTVSPropertyOp34
 70
     1
102
RTVSPropertyOp35
 70
     1
102
RTVSPropertyOp36
 70
     1
102
RTVSPropertyOp37
 70
     1
102
RTVSPropertyOp38
 70
     1
102
RTVSPropertyOp39
 70
     1
102
RTVSPropertyOp40
 70
     1
102
RTVSPropertyOp41
 70
     1
102
RTVSPropertyOp42
 70
     1
102
RTVSPropertyOp43
 70
     1
102
RTVSPropertyOp44
 70
     1
102
RTVSPropertyOp45
 70
     1
102
RTVSPropertyOp46
 70
     1
102
RTVSPropertyOp47
 70
     1
102
RTVSPropertyOp48
 70
     1
102
RTVSPropertyOp49
 70
     1
102
RTVSPropertyOp50
 70
     1
102
RTVSPropertyOp51
 70
     0
102
RTVSPropertyOp52
 70
     0
102
RTVSPropertyOp53
 70
     1
102
RTVSPropertyOp54
 70
     1
102
RTVSPropertyOp55
 70
     1
102
RTVSPropertyOp56
 70
     1
102
RTVSPropertyOp57
 70
     1
102
RTVSPost2010Prop28
280
     0
102
RTVSPost2010PropOp28
 70
     1
102
RTVSPost2010Prop29
280
     1
102
RTVSPost2010PropOp29
 70
     1
102
RTVSPost2010Prop30
280
     1
102
RTVSPost2010PropOp30
 70
     1
102
RTVSPost2010Prop31
280
     0
102
RTVSPost2010PropOp31
 70
     1
102
RTVSPost2010Prop32
280
     0
102
RTVSPost2010PropOp32
 70
     1
102
RTVSPost2010Prop33
280
     0
102
RTVSPost2010PropOp33
 70
     1
102
RTVSPost2010Prop34
280
     0
102
RTVSPost2010PropOp34
 70
     1
102
RTVSPost2010Prop35
280
     0
102
RTVSPost2010PropOp35
 70
     1
102
RTVSPost2010Prop36
280
     0
102
RTVSPost2010PropOp36
 70
     1
102
RTVSPost2010Prop37
 90
       50
102
RTVSPost2010PropOp37
 70
     1
102
RTVSPost2010Prop38
140
0.0
102
RTVSPost2010PropOp38
 70
     1
102
RTVSPost2010Prop39
140
1.0
102
RTVSPost2010PropOp39
 70
     1
102
RTVSPost2010Prop40
 90
        0
102
RTVSPost2010PropOp40
 70
     1
102
RTVSPost2010Prop41ColorIndex
 90
       18
102
RTVSPost2010Prop41ColorRGB
 90
        0
102
RTVSPost2010PropOp41
 70
     1
102
RTVSPost2010Prop42
 90
       50
102
RTVSPost2010PropOp42
 70
     1
102
RTVSPost2010Prop43
 90
        3
102
RTVSPost2010PropOp43
 70
     1
102
RTVSPost2010Prop44ColorIndex
 90
        5
102
RTVSPost2010Prop44ColorRGB
 90
      255
102
RTVSPost2010PropOp44
 70
     1
102
RTVSPost2010Prop45
280
     0
102
RTVSPost2010PropOp45
 70
     1
102
RTVSPost2010Prop46
 90
       50
102
RTVSPost2010PropOp46
 70
     1
102
RTVSPost2010Prop47
 90
       50
102
RTVSPost2010PropOp47
 70
     1
102
RTVSPost2010Prop48
 90
       50
102
RTVSPost2010PropOp48
 70
     1
102
RTVSPost2010Prop49
280
     0
102
RTVSPost2010PropOp49
 70
     1
102
RTVSPost2010Prop50
 90
       50
102
RTVSPost2010PropOp50
 70
     1
102
RTVSPost2010Prop51ColorIndex
 90
      256
102
RTVSPost2010Prop51ColorRGB
 90
-16777216
102
RTVSPost2010PropOp51
 70
     0
102
RTVSPost2010Prop52
140
1.0
102
RTVSPost2010PropOp52
 70
     0
102
RTVSPost2010Prop53
 90
        2
102
RTVSPost2010PropOp53
 70
     1
102
RTVSPost2010Prop54
  1
strokes_ogs.tif
102
RTVSPost2010PropOp54
 70
     1
102
RTVSPost2010Prop55
280
     0
102
RTVSPost2010PropOp55
 70
     1
102
RTVSPost2010Prop56
140
1.0
102
RTVSPost2010PropOp56
 70
     1
102
RTVSPost2010Prop57
140
1.0
102
RTVSPost2010PropOp57
 70
     1
  0
XRECORD
  5
1FD8
102
{ACAD_REACTORS
330
1FD7
102
}
330
1FD7
100
AcDbXrecord
280
     1
102
RTVSPropertyOp0
 70
     1
102
RTVSPropertyOp1
 70
     1
102
RTVSPropertyOp2
 70
     1
102
RTVSPropertyOp3
 70
     1
102
RTVSPropertyOp4
 70
     1
102
RTVSPropertyOp5
 70
     1
102
RTVSPropertyOp6
 70
     1
102
RTVSPropertyOp7
 70
     1
102
RTVSPropertyOp8
 70
     1
102
RTVSPropertyOp9
 70
     1
102
RTVSPropertyOp10
 70
     1
102
RTVSPropertyOp11
 70
     1
102
RTVSPropertyOp12
 70
     1
102
RTVSPropertyOp13
 70
     1
102
RTVSPropertyOp14
 70
     1
102
RTVSPropertyOp15
 70
     1
102
RTVSPropertyOp16
 70
     1
102
RTVSPropertyOp17
 70
     1
102
RTVSPropertyOp18
 70
     1
102
RTVSPropertyOp19
 70
     1
102
RTVSPropertyOp20
 70
     1
102
RTVSPropertyOp21
 70
     1
102
RTVSPropertyOp22
 70
     1
102
RTVSPropertyOp23
 70
     1
102
RTVSPropertyOp24
 70
     1
102
RTVSPropertyOp25
 70
     1
102
RTVSPropertyOp26
 70
     1
102
RTVSPropertyOp27
 70
     1
102
RTVSPropertyOp28
 70
     1
102
RTVSPropertyOp29
 70
     1
102
RTVSPropertyOp30
 70
     1
102
RTVSPropertyOp31
 70
     1
102
RTVSPropertyOp32
 70
     1
102
RTVSPropertyOp33
 70
     1
102
RTVSPropertyOp34
 70
     1
102
RTVSPropertyOp35
 70
     1
102
RTVSPropertyOp36
 70
     1
102
RTVSPropertyOp37
 70
     1
102
RTVSPropertyOp38
 70
     1
102
RTVSPropertyOp39
 70
     1
102
RTVSPropertyOp40
 70
     1
102
RTVSPropertyOp41
 70
     1
102
RTVSPropertyOp42
 70
     1
102
RTVSPropertyOp43
 70
     1
102
RTVSPropertyOp44
 70
     1
102
RTVSPropertyOp45
 70
     1
102
RTVSPropertyOp46
 70
     1
102
RTVSPropertyOp47
 70
     1
102
RTVSPropertyOp48
 70
     1
102
RTVSPropertyOp49
 70
     1
102
RTVSPropertyOp50
 70
     1
102
RTVSPropertyOp51
 70
     0
102
RTVSPropertyOp52
 70
     0
102
RTVSPropertyOp53
 70
     1
102
RTVSPropertyOp54
 70
     1
102
RTVSPropertyOp55
 70
     1
102
RTVSPropertyOp56
 70
     1
102
RTVSPropertyOp57
 70
     1
102
RTVSPost2010Prop28
280
     0
102
RTVSPost2010PropOp28
 70
     1
102
RTVSPost2010Prop29
280
     1
102
RTVSPost2010PropOp29
 70
     1
102
RTVSPost2010Prop30
280
     1
102
RTVSPost2010PropOp30
 70
     1
102
RTVSPost2010Prop31
280
     0
102
RTVSPost2010PropOp31
 70
     1
102
RTVSPost2010Prop32
280
     0
102
RTVSPost2010PropOp32
 70
     1
102
RTVSPost2010Prop33
280
     0
102
RTVSPost2010PropOp33
 70
     1
102
RTVSPost2010Prop34
280
     0
102
RTVSPost2010PropOp34
 70
     1
102
RTVSPost2010Prop35
280
     0
102
RTVSPost2010PropOp35
 70
     1
102
RTVSPost2010Prop36
280
     0
102
RTVSPost2010PropOp36
 70
     1
102
RTVSPost2010Prop37
 90
       50
102
RTVSPost2010PropOp37
 70
     1
102
RTVSPost2010Prop38
140
0.0
102
RTVSPost2010PropOp38
 70
     1
102
RTVSPost2010Prop39
140
1.0
102
RTVSPost2010PropOp39
 70
     1
102
RTVSPost2010Prop40
 90
        0
102
RTVSPost2010PropOp40
 70
     1
102
RTVSPost2010Prop41ColorIndex
 90
       18
102
RTVSPost2010Prop41ColorRGB
 90
        0
102
RTVSPost2010PropOp41
 70
     1
102
RTVSPost2010Prop42
 90
       50
102
RTVSPost2010PropOp42
 70
     1
102
RTVSPost2010Prop43
 90
        3
102
RTVSPost2010PropOp43
 70
     1
102
RTVSPost2010Prop44ColorIndex
 90
        5
102
RTVSPost2010Prop44ColorRGB
 90
      255
102
RTVSPost2010PropOp44
 70
     1
102
RTVSPost2010Prop45
280
     0
102
RTVSPost2010PropOp45
 70
     1
102
RTVSPost2010Prop46
 90
       50
102
RTVSPost2010PropOp46
 70
     1
102
RTVSPost2010Prop47
 90
       50
102
RTVSPost2010PropOp47
 70
     1
102
RTVSPost2010Prop48
 90
       50
102
RTVSPost2010PropOp48
 70
     1
102
RTVSPost2010Prop49
280
     0
102
RTVSPost2010PropOp49
 70
     1
102
RTVSPost2010Prop50
 90
       50
102
RTVSPost2010PropOp50
 70
     1
102
RTVSPost2010Prop51ColorIndex
 90
      256
102
RTVSPost2010Prop51ColorRGB
 90
-16777216
102
RTVSPost2010PropOp51
 70
     0
102
RTVSPost2010Prop52
140
1.0
102
RTVSPost2010PropOp52
 70
     0
102
RTVSPost2010Prop53
 90
        2
102
RTVSPost2010PropOp53
 70
     1
102
RTVSPost2010Prop54
  1
strokes_ogs.tif
102
RTVSPost2010PropOp54
 70
     1
102
RTVSPost2010Prop55
280
     0
102
RTVSPost2010PropOp55
 70
     1
102
RTVSPost2010Prop56
140
1.0
102
RTVSPost2010PropOp56
 70
     1
102
RTVSPost2010Prop57
140
1.0
102
RTVSPost2010PropOp57
 70
     1
  0
ENDSEC
  0
SECTION
  2
THUMBNAILIMAGE
 90
    16364
310
28000000B4000000550000000100080000000000C43B000000000000000000000001000000010000FFFFFF000000FF0000FFFF0000FF0000FFFF0000FF000000FF00FF000000000080808000C0C0C0000000FF007F7FFF000000A5005252A50000007F003F3F7F0000004C0026264C000000260013132600003FFF007F9FFF
310
000029A5005267A500001F7F003F4F7F0000134C00262F4C000009260013172600007FFF007FBFFF000052A500527CA500003F7F003F5F7F0000264C0026394C0000132600131C260000BFFF007FDFFF00007CA5005291A500005F7F003F6F7F0000394C0026424C00001C26001321260000FFFF007FFFFF0000A5A50052A5
310
A500007F7F003F7F7F00004C4C00264C4C00002626001326260000FFBF007FFFDF0000A57C0052A59100007F5F003F7F6F00004C3900264C420000261C001326210000FF7F007FFFBF0000A5520052A57C00007F3F003F7F5F00004C2600264C39000026130013261C0000FF3F007FFF9F0000A5290052A56700007F1F003F
310
7F4F00004C1300264C2F00002609001326170000FF00007FFF7F0000A5000052A55200007F00003F7F3F00004C0000264C260000260000132613003FFF00009FFF7F0029A5000067A552001F7F00004F7F3F00134C00002F4C260009260000172613007FFF0000BFFF7F0052A500007CA552003F7F00005F7F3F00264C0000
310
394C2600132600001C261300BFFF0000DFFF7F007CA5000091A552005F7F00006F7F3F00394C0000424C26001C26000021261300FFFF0000FFFF7F00A5A50000A5A552007F7F00007F7F3F004C4C00004C4C26002626000026261300FFBF0000FFDF7F00A57C0000A59152007F5F00007F6F3F004C3900004C422600261C00
310
0026211300FF7F0000FFBF7F00A5520000A57C52007F3F00007F5F3F004C2600004C39260026130000261C1300FF3F0000FF9F7F00A5290000A56752007F1F00007F4F3F004C1300004C2F26002609000026171300FF000000FF7F7F00A5000000A55252007F0000007F3F3F004C0000004C2626002600000026131300FF00
310
3F00FF7F9F00A5002900A55267007F001F007F3F4F004C0013004C262F002600090026131700FF007F00FF7FBF00A5005200A5527C007F003F007F3F5F004C0026004C2639002600130026131C00FF00BF00FF7FDF00A5007C00A55291007F005F007F3F6F004C0039004C26420026001C0026132100FF00FF00FF7FFF00A5
310
00A500A552A5007F007F007F3F7F004C004C004C264C002600260026132600BF00FF00DF7FFF007C00A5009152A5005F007F006F3F7F0039004C0042264C001C002600211326007F00FF00BF7FFF005200A5007C52A5003F007F005F3F7F0026004C0039264C00130026001C1326003F00FF009F7FFF002900A5006752A500
310
1F007F004F3F7F0013004C002F264C000900260017132600000000002D2D2D005B5B5B0089898900B7B7B700B3B3B30000000000000000000000000000000000000000000000000000000000000000000000000000000000000000000000000000000000000000000000000000000000000000000000000000000000000000
310
00000000000000000000000000000000000000000000000000000000000000000000000000000000000000000000000000000000000000000000000000000000000000000000000000000000000000000000000000000000000000000000000000000000000000000000000000000000000000000000000000000000000000
310
00000000000000000000000000000000000000000000000000000000000000000000000000000000000000000000000000000000000000000000000000000000000000000000000000000000000000000000000000000000000000000000000000000000000000000000000000000000000000000000000000000000000000
310
00000000000000000000000000000000000000000000000000000000000000000000000000000000000000000000000000000000000000000000000000000000000000000000000000000000000000000000000000000000000000000000000000000000000000000000000000000000000000000000000000000000000000
310
00000000000000000000000000000000000000000000000000000000000000000000000000000000000000000000000000000000000000000000000000000000000000000000000000000000000000000000000000000000000000000000000000000000000000000000000000000000000000000000000000000000000000
310
00000000000000000000000000000000000000000000000000000000000000000000000000000000000000000000000000000000000000000000000000000000000000000000000000000000000000000000000000000000000000000000000000000000000000000000000000000000000000000000000000000000000000
310
00000000000000000000000000000000000000000000000000000000000000000000000000000000000000000000000000000000000000000000000000000000000000000000000000000000000000000000000000000000000000000000000000000000000000000000000000000000000000000000000000000000000000
310
00000000000000000000000000000000000000000000000000000000000000000000000000000000000000000000000000000000000000000000000000000000000000000000000000000000000000000000000000000000000000000000000000000000000000000000000000000000000000000000000000000000000000
310
00000000000000000000000000000000000000000000000000000000000000000000000000000000000000000000000000000000000000000000000000000000000000000000000000000000000000000000000000000000000000000000000000000000000000000000000000000000000000000000000000000000000000
310
00000000000000000000000000000000000000000000000000000000000000000000000000000000000000000000000000000000000000000000000000000000000000000000000000000000000000000000000000000000000000000000000000000000000000000000000000000000000000000000000000000000000000
310
00000000000000000000000000000000000000000000000000000000000000000000000000000000000000000000000000000000000000000000000000000000000000000000000000000001000000000001000000000100000000000000000000000000000000000000000000000000010000000000000000000000000000
310
01000000000000000000000000000000000000000000000000000000000000000000000000000000000000000000000000000000000000000000000000000000000000000000000000000000000000000000000000000000000000000000000000000000000000000000000000000000000000000000000000000000000003
310
03010303030303030303030403030300000000000202020200000000000003030303000303030103030303030303030303030303030103030000000000000000000000000000000000000000000000000000000000000000000000000000000000000000000000000000000000000000000000000000000000000000000000
310
00000000000000000000000000000000000000000000000000000000000000000000000000000000000000000000000000000000030303030303010101010303040303030000000000020202020000000000000303000303030303010303030000000004040003030303010303000000000000000000000000000000000000
310
00000000000000000000000000000000000000000000000000000000000000000000000000000000000000000000000000000000000000000000000000000000000000000000000000000000000000000000000000000000000000000000000000000000000000000000000303030303030303030303010000000000000000
310
00000000000000000101010103000000030100030300000000030400030300000100030000000000000000000000000000000000000000000000000000000000000000000000000000000000000000000000000000000000000000000000000000000000000000000000000000000000000000000000000000000000000000
310
00000000000000000000000000000000000000000000000000000000000000000003010300000001000003010300000000000000000000000000000000000303000300000003000000030000000000010003000000000003030000000000000000000000000000000000000000000000000000000000000000000000000000
310
00000000000000000000000000000000000000000000000000000000000000000000000000000000000000000000000000000000000000000000000000000000000000000000000000000000000000000000000000030103000000000100000003010300000000000000000000000000000000030300030000000300000003
310
00000000000100030000000001010101000000000000000000000000000000000000000000000000000000000000000000000000000000000000000000000000000000000000000000000000000000000000000000000000000000000000000000000000000000000000000000000000000000000000000000000000000000
310
00000000000000000000000301030000000001000000030303000000000000000000000000000000000303000300000003000000000000000000010000000000000003030000000000000000000000000000000000000000000000000000000000000000000000000000000000000000000000000000000000000000000000
310
00000000000000000000000000000000000000000000000000000000000000000000000000000000000000000000000000000000000000000000000000000000030300000000030300000000030300000000000000000000000000000003030300030000000300000000000000000001000000000000000303000000000000
310
00000000000000000000000000000000000000000000000000000000000000000000000000000000000000000000000000000000000000000000000000000000000000000000000000000000000000000000000000000000000000000000000000000000000000000000000000000000000000000103030101010103030101
310
01010303010000000000000000000000000000030303010301010103010101010101010101010101010101010103030100000000000000000000000000000000000000000000000000000000000000000000000000000000000000000000000000000000000000000000000000000000000000000000000000000000000000
310
00000000000000000000000000000000000000000000000000000000000000000000000000000000000000030300000000030300000000030300000000000000000000000000000003030300030000000300030303000303030301030303000303030303000000000000000000000000000000000000000000000000000000
310
00000000000000000000000000000000000000000000000000000000000000000000000000000000000000000000000000000000000000000000000000000000000000000000000000000000000000000000000000000000000000000000000003010300000000010000000303030000000000000000000000000000000003
310
03000300000003000300030300030303010303000303000003030000000000000000000000000000000000000000000000000000000000000000000000000000000000000000000000000000000000000000000000000000000000000000000000000000000000000000000000000000000000000000000000000000000000
310
00000000000000000000000000000000000000000000030103000000000100000003010300000000000000000000000000000000030300030103030303000003000303000001000303000300010101010000000000000000000000000000000000000000000000000000000000000000000000000000000000000000000000
310
00000000000000000000000000000000000000000000000000000000000000000000000000000000000000000000000000000000000000000000000000000000000000000000000000000003030103000000010000030103030000000000000000000000000000000003030303010303030300030303000300000100030003
310
03030003030000000000000000000000000000000000000000000000000000000000000000000000000000000000000000000000000000000000000000000000000000000000000000000000000000000000000000000000000000000000000000000000000000000000000000000000000000000000000001000000030303
310
03030303030303030303030303030300000000000000000000000000000001010101030103030303030003000303030303030303030300030300000000000000000000000000000000000000000000000000000000000000000000000000000000000000000000000000000000000000000000000000000000000000000000
310
00000000000000000000000000000000000000000000000000000000000000000000000000000000000000000003010300030301010303010103030101010103030101030000000000000000000000000000000003030303010103030103030303030000000100000303030303030000000000000000000000000000000000
310
00000000000000000000000000000000000000000000000000000000000000000000000000000000000000000000000000000000000000000000000000000000000000000000000000000000000000000000000000000000000000000000000000000303030303030303030300000000030303030000000003030303030303
310
00000000000000000000030303030103030303000300030300030303030000030003000300000000000000000000000000000000000000000000000000000000000000000000000000000000000000000000000000000000000000000000000000000000000000000000000000000000000000000000000000000000000000
310
00000000000000000000000000000000000000000000000000010003000000000003010000000000010000000001030000000000030000000000000000000000030303010303030300030003030303000103030003000300030000000000000000000000000000000000000000000000000000000000000000000000000000
310
00000000000000000000000000000000000000000000000000000000000000000000000000000000000000000000000000000000000000000000000000000000000000000000000000000000000000000301010101010301030303030303030303030303010101010103000000000000000000000003030303030303030101
310
01010103030101030301010101010101000000000000000000000000000000000000000000000000000000000000000000000000000000000000000000000000000000000000000000000000000000000000000000000000000000000000000000000000000000000000000000000000000000000000000000000000000000
310
00000000000003000000000003010300000000010000000303030000000000030000000000000000000000000000030300000300030003000303030303030003000300030000000000000000000000000000000000000000000000000000000000000000000000000000000000000000000000000000000000000000000000
310
00000000000000000000000000000000000000000000000000000000000000000000000000000000000000000000000000000000000000000000000303030303030301030000000001000000030303030303030303000000000000000000000000000001000000030003000303000303030300000300030003000000000000
310
00000000000000000000000000000000000000000000000000000000000000000000000000000000000000000000000000000000000000000000000000000000000000000000000000000000000000000000000000000000000000000000000000000000000000000000000000000000000000000000000303000000000100
310
00000303000000000000000000000000000000000000000000000000000303030303030000000100000303030303030000000000000000000000000000000000000000000000000000000000000000000000000000000000000000000000000000000000000000000000000000000000000000000000000000000000000000
310
00000000000000000000000000000000000000000000000000000000000000000000000000000000000000000003030000000001000000030300000000000000000000000000000000000000000000000000030300030003030303030303030303000303000000000000000000000000000000000000000000000000000000
310
00000000000000000000000000000000000000000000000000000000000000000000000000000000000000000000000000000000000000000000000000000000000000000000000000000000000000000000000000000000000000000000000000000303000000000100000003030000000000000000000000000000000000
310
00000000000000000300030003000303030303030303000300030000000000000000000000000000000000000000000000000000000000000000000000000000000000000000000000000000000000000000000000000000000000000000000000000000000000000000000000000000000000000000000000000000000000
310
00000000000000000000000000000000000000000000000003030000000001000000030300000000000000000000000000000000000000000000000000030000030003030303030303030003000003000000000000000000000000000000000000000000000000000000000000000000000000000000000000000000000000
310
00000000000000000000000000000000000000000000000000000000000000000000000000000000000000000000000000000000000000000000000000000000000000000000000000000000000301010000000100000003030000000000000000000000000000000000000000000000000003000003030000030301030300
310
03030000030000000000000000000000000000000000000000000000000000000000000000000000000000000000000000000000000000000000000000000000000000000000000000000000000000000000000000000000000000000000000000000000000000000000000000000000000000000000000000000000000000
310
00000003030000000303000000030300000000000000000000000000000000000000000000000000000303030103030303010303030103030303000000000000000000000000000000000000000000000000000000000000000000000000000000000000000000000000000000000000000000000000000000000000000000
310
00000000000000000000000000000000000000000000000000000000000000000000000000000000000000000000000000000000000000000000030303030303030300000000000000000000000000000000000000000000000000000000000003030300030303030003030300000000000000000000000000000000000000
310
00000000000000000000000000000000000000000000000000000000000000000000000000000000000000000000000000000000000000000000000000000000000000000000000000000000000000000000000000000000000000000000000000000000000000000000000000000000000003030000000000000000000000
310
00000000000000000000000000000000000000000001030103010000010001010101010000000000000000000000000000000000000000000000000000000000000000000000000000000000000000000000000000000000000000000000000000000000000000000000000000000000000000000000000000000000000000
310
00000000000000000000000000000000000000000000000000000000000000000000000000000000030300000000000000000000000000000000000000000000000000000000000000000003010300000000000003030300000000000000000000000000000000000000000000000000000000000000000000000000000000
310
00000000000000000000000000000000000000000000000000000000000000000000000000000000000000000000000000000000000000000000000000000000000000000000000000000000000000000000000000000000000000000000010000000000000000000000000000000000000000000000000000000000000000
310
00000100000000000000000100000000000000000000000000000000000000000000000000000000000000000000000000000000000000000000000000000000000000000000000000000000000000000000000000000000000000000000000000000000000000000000000000000000000000000000000000000000000000
310
00000000000000000000000000000000000000000000000000000000000000000000000000000000000000000000000000000000000000000000000000000000000000000000000000000000000000000000000000000000000000000000000000000000000000000000000000000000000000000000000000000000000000
310
00000000000000000000000000000000000000000000000000000000000000000000000000000000000000000000000000000000000000000000000000000000000000000000000000000000000000000000000000000000000000000000000000000000000000000000000000000000000000000000000000000000000000
310
00000000000000000000000000000000000000000000000000000000000000000000000000000000000000000000000000000000000000000000000000000000000000000000000000000000000000000000000000000000000000000000000000000000000000000000000000000000000000000000000000000000000000
310
00000000000000000000000000000000000000000000000000000000000000000000000000000000000000000000000000000000000000000000000000000000000000000000000000000000000000000000000000000000000000000000000000000000000000000000000000000000000000000000000000000000000000
310
00000000000000000000000000000000000000000000000000000000000000000000000000000000000000000000000000000000000000000000000000000000000000000000000000000000000000000000000000000000000000000000000000000000000000000000000000000000000000000000000000000000000000
310
00000000000000000000000000000000000000000000000000000000000000000000000000000000000000000000000000000000000000000000000000000000000000000000000000000000000000000000000000000000000000000000000000000000000000000000000000000000000000000000000000000000000000
310
00000000000000000000000000000000000000000000000000000000000000000000000000000000000000000000000000000000000000000000000000000000000000000000000000000000000000000000000000000000000000000000000000000000000000000000000000000000000000000000000000000000000000
310
00000000000000000000000000000000000000000000000000000000000000000000000000000000000000000000000000000000000000000000000000000000000000000000000000000000000000000000000000000000000000000000000000000000000000000000000000000000000000000000000000000000000000
310
00000000000000000000000000000000000000000000000000000000000000000000000000000000000000000000000000000000000000000000000000000000000000000000000000000000000000000000000000000000000000000000000000000000000000000000000000000000000000000000000000000000000000
310
00000000000000000000000000000000000000000000000000000000000000000000000000000000000000000000000000000000000000000000000000000000000000000000000000000000000000000000000000000000000000000000000000000000000000000000000000000000000000000000000000000000000000
310
00000000000000000000000000000000000000000000000000000000000000000000000000000000000000000000000000000000000000000000000000000000000000000000000000000000000000000000000000000000000000000000000000000000000000000000000000000000000000000000000000000000000000
310
00000000000000000000000000000000000000000000000000000000000000000000000000000000000000000000000000000000000000000000000000000000000000000000000000000000000000000000000000000000000000000000000000000000000000000000000000000000000000000000000000000000000000
310
00000000000000000000000000000000000000000000000000000000000000000000000000000000000000000000000000000000000000000000000000000000000000000000000000000000000000000000000000000000000000000000000000000000000000000000000000000000000000000000000000000000000000
310
00000000000000000000000000000000000000000000000000000000000000000000000000000000000000000000000000000000000000000000000000000000000000000000000000000000000000000000000000000000000000000000000000000000000000000000000000000000000000000000000000000000000000
310
00000000000000000000000000000000000000000000000000000000000000000000000000000000000000000000000000000000000000000000000000000000000000000000000000000000000000000000000000000000000000000000000000000000000000000000000000000000000000000000000000000000000000
310
00000000000000000000000000000000000000000000000000000000000000000000000000000000000000000000000000000000000000000000000000000000000000000000000000000000000000000000000000000000000000000000000100000000000000000000000000000000000000000000000000000000000000
310
00000000000000000000000000000000000000000000000000000000000000000000000000000000000000000000000000000000000000000000000000000000000000000000000000000000000000000000000000000000000000000000000000000000000000000000000000000000000000000000000000000000000000
310
00000000000000000000000000000103000103030303030301000301000000000000000000000000000000000000000000000000000000000000000000000000000000000000000000000000000000000000000000000000000000000000000000000000000000000000000000000000000000000000000000000000000000
310
00000000000000000000000000000000000000000000000000000000000000000000000000000000000000000000000000000000000000000000000000000000000000010303010303030303030103030100000000000000000000000000000000000000000000000000000000000000000000000000000000000000000000
310
00000000000000000000000000000000000000000000000000000000000000000000000000000000000000000000000000000000000000000000000000000000000000000000000000000000000000000000000000000000000000000000000000000000000000000000000000000000000000000000000001030301030303
310
03030301030301000000000000000000000000000000000000000000000000000000000000000000000000000000000000000000000000000000000000000000000000000000000000000000000000000000000000000000000000000000000000000000000000000000000000000000000000000000000000000000000000
310
00000000000000000000000000000000000000000000000000000000000000000000000000000000000000000000030000000000000100000000000300000000000000000000000000000000000000000000000000000000000000000000000000000000000000000000000000000000000000000000000000000000000000
310
00000000000000000000000000000000000000000000000000000000000000000000000000000000000000000000000000000000000000000000000000000000000000000000000000000000000000000000000000000000000000000000030303030303010000000000010000000001030000000000000000000000000000
310
00000000000000000000000000000000000000000000000000000000000000000000000000000000000000000000000000000000000000000000000000000000000000000000000000000000000000000000000000000000000000000000000000000000000000000000000000000000000000000000000000000000000000
310
00000000000000000000000000000000000000000303030303030101010101010101010101010303000000000000000000000000000000000000000000000000000000000000000000000000000000000000000000000000000000000000000000000000000000000000000000000000000000000000000000000000000000
310
00000000000000000000000000000000000000000000000000000000000000000000000000000000000000000000000000000000000000000000000000000000000000000000000000000303030303010000000000010000000001030300000000000000000000000000000000000000000000000000000000000000000000
310
00000000000000000000000000000000000000000000000000000000000000000000000000000000000000000000000000000000000000000000000000000000000000000000000000000000000000000000000000000000000000000000000000000000000000000000000000000000000000000000000000000000000000
310
00000003030003000000000100000003000303000000000000000000000000000000000000000000000000000000000000000000000000000000000000000000000000000000000000000000000000000000000000000000000000000000000000000000000000000000000000000000000000000000000000000000000000
310
00000000000000000000000000000000000000000000000000000000000000000000000000000000000000000000000000000000000000000303030303030303030303030303030300000000000000000000000000000000000000000000000000000000000000000000000000000000000000000000000000000000000000
310
00000000000000000000000000000000000000000000000000000000000000000000000000000000000000000000000000000000000000000000000000000000000000000000000000000000000000000000000000000000000000000000000000000000000000000000000000030301010100000001000000030301010000
310
00000000000000000000000000000000000000000000000000000000000000000000000000000000000000000000000000000000000000000000000000000000000000000000000000000000000000000000000000000000000000000000000000000000000000000000000000000000000000000000000000000000000000
310
00000000000000000000000000000000000000000000000000000000000000000000000300030300000000010000000303000300000000000000000000000000000000000000000000000000000000000000000000000000000000000000000000000000000000000000000000000000000000000000000000000000000000
310
00000000000000000000000000000000000000000000000000000000000000000000000000000000000000000000000000000000000000000000000000000000000000000000000000000000000000000000000000000000030003030000000303000000030300030000000000000000000000000000000000000000000000
310
00000000000000000000000000000000000000000000000000000000000000000000000000000000000000000000000000000000000000000000000000000000000000000000000000000000000000000000000000000000000000000000000000000000000000000000000000000000000000000000000000000000000000
310
00000000000000000000000000000303030300000103030100000303030300000000000000000000000000000000000000000000000000000000000000000000000000000000000000000000000000000000000000000000000000000000000000000000000000000000000000000000000000000000000000000000000000
310
00000000000000000000000000000000000000000000000000000000000000000000000000000000000000000000000000000000000000000000000000000000000000000001010100000303000000030300000000000000000000000000000000000000000000000000000000000000000000000000000000000000000000
310
00000000000000000000000000000000000000000000000000000000000000000000000000000000000000000000000000000000000000000000000000000000000000000000000000000000000000000000000000000000000000000000000000000000000000000000000000000000000000000000000000000303000000
310
03030000000303000000000000000000000000000000000000000000000000000000000000000000000000000000000000000000000000000000000000000000000000000000000000000000000000000000000000000000000000000000000000000000000000000000000000000000000000000000000000000000000000
310
00000000000000000000000000000000000000000000000000000000000000000000000000000000000303030303030303030000000001000000030303030303030303000000000000000000000000000000000000000000000000000000000000000000000000000000000000000000000000000000000000000000000000
310
00000000000000000000000000000000000000000000000000000000000000000000000000000000000000000000000000000000000000000000000000000000000000000000000000000000000000000000000000000000000000000000030000000000030303000000030300000003030300000000000300000000000000
310
00000000000000000000000000000000000000000000000000000000000000000000000000000000000000000000000000000000000000000000000000000000000000000000000000000000000000000000000000000000000000000000000000000000000000000000000000000000000000000000000000000000000000
310
00000000000000000000000000000000000000000303030303030303030101030303030101030303030303030303000000000000000000000000000000000000000000000000000000000000000000000000000000000000000000000000000000000000000000000000000000000000000000000000000000000000000000
310
00000000000000000000000000000000000000000000000000000000000000000000000000000000000000000000000000000000000000000000000000000000000000000000000000030303030303030303000000030300000003030303030303030300000000000000000000000000000000000000000000000000000000
310
00000000000000000000000000000000000000000000000000000000000000000000000000000000000000000000000000000000000000000000000000000000000000000000000000000000000000000000000000000000000000000000000000000000000000000000000000000000000000000000000000000000000003
310
03030303030303030000000001000000030303030303030303000000000000000000000000000000000000000000000000000000000000000000000000000000000000000000000000000000000000000000000000000000000000000000000000000000000000000000000000000000000000000000000000000000000000
310
00000000000000000000000000000000000000000000000000000000000000000000000000000000000000000000000000000000000000000003000303000000030300000003030003000000000000000000000000000000000000000000000000000000000000000000000000000000000000000000000000000000000000
310
00000000000000000000000000000000000000000000000000000000000000000000000000000000000000000000000000000000000000000000000000000000000000000000000000000000000000000000000000000000000000000000000000000000000000000000000000000300010101000003030000000303000300
310
00000000000000000000000000000000000000000000000000000000000000000000000000000000000000000000000000000000000000000000000000000000000000000000000000000000000000000000000000000000000000000000000000000000000000000000000000000000000000000000000000000000000000
310
00000000000000000000000000000000000000000000000000000000000000000000000003000103000001030301000003010003000000000000000000000000000000000000000000000000000000000000000000000000000000000000000000000000000000000000000000000000000000000000000000000000000000
310
00000000000000000000000000000000000000000000000000000000000000000000000000000000000000000000000000000000000000000000000000000000000000000000000000000000000000000000000000000000000301030100000003030000000103010300000000000000000000000000000000000000000000
310
00000000000000000000000000000000000000000000000000000000000000000000000000000000000000000000000000000000000000000000000000000000000000000000000000000000000000000000000000000000000000000000000000000000000000000000000000000000000000000000000000000000000000
310
00000000000000000000000000000003000303000000000100000003010003000000000000000000000000000000000000000000000000000000000000000000000000000000000000000000000000000000000000000000000000000000000000000000000000000000000000000000000000000000000000000000000000
310
00000000000000000000000000000000000000000000000000000000000000000000000000000000000000000000000000000000000000000000000000000000000000000300010101000100010100010303000300000000000000000000000000000000000000000000000000000000000000000000000000000000000000
310
00000000000000000000000000000000000000000000000000000000000000000000000000000000000000000000000000000000000000000000000000000000000000000000000000000000000000000000000000000000000000000000000000000000000000000000000000000000000000000000000000030303030103
310
01030301030103030303000000000000000000000000000000000000000000000000000000000000000000000000000000000000000000000000000000000000000000000000000000000000000000000000000000000000000000000000000000000000000000000000000000000000000000000000000000000000000000
310
00000000000000000000000000000000000000000000000000000000000000000000000000000000000000000000000000000001030103030103010000000000000000000000000000000000000000000000000000000000000000000000000000000000000000000000000000000000000000000000000000000000000000
310
00000000000000000000000000000000000000000000000000000000000000000000000000000000000000000000000000000000000000000000000000000000000000000000000000000000000000000000000000000000000000000000000000000000000000000000000000000000000000000000000000000000000000
310
00000000000000000000000000000000000000000000000000000000000000000000000000000000000000000000000000000000000000000000000000000000000000000000000000000000000000000000000000000000000000000000000000000000000000000000000000000000000000000000000000000000000000
310
00000000000000000000000000000000000000000000000000000000000000000000000000000000000000000000000000000000000000000000000000000000000000000000000000000000000000000000000000000000000000000000000000000000000000000000000000000000000000000000000000000000000000
310
00000000000000000000000000000000000000000000000000000000000000000000000000000000000000000000000000000000000000000000000000000000000000000000000000000000000000000000000000000000000000000000000000000000000000000000000000000000000000000000000000000000000000
310
00000000000000000000000000000000000000000000000000000000000000000000000000000000000000000000000000000000000000000000000000000000000000000000000000000000000000000000000000000000000000000000000000000000000000000000000000000000000000000000000000000000000000
310
00000000000000000000000000000000000000000000000000000000000000000000000000000000000000000000000000000000000000000000000000000000000000000000000000000000000000000000000000000000000000000000000000000000000000000000000000000000000000000000000000000000000000
310
00000000000000000000000000000000000000000000000000000000000000000000000000000000000000000000000000000000000000000000000000000000000000000000000000000000000000000000000000000000000000000000000000000000000000000000000000000000000000000000000000000000000000
310
00000000000000000000000000000000000000000000000000000000000000000000000000000000000000000000000000000000000000000000000000000000000000000000000000000000000000000000000000000000000000000000000000000000000000000000000000000000000000000000000000000000000000
310
00000000000000000000000000000000000000000000000000000000000000000000000000000000000000000000000000000000000000000000000000000000000000000000000000000000000000000000000000000000000000000000000000000000000000000000000000000000000000000000000000000000000000
310
00000000000000000000000000000000000000000000000000000000000000000000000000000000000000000000000000000000000000000000000000000000000000000000000000000000000000000000000000000000000000000000000000000000000000000000000000000000000000000000000000000000000000
310
00000000000000000000000000000000000000000000000000000000000000000000000000000000000000000000000000000000000000000000000000000000000000000000000000000000000000000000000000000000000000000000000000000000000000000000000000000000000000000000000000000000000000
310
000000000000000000000000000000000000000000000000000000000000000000000000000000000000000000000000000000000000000000000000000000000000000000000000000000000000000000000000000000000000000000000000000000000000000000000000
  0
ENDSEC
  0
EOF
