  0
SECTION
  2
HEADER
  9
$ACADVER
  1
AC1015
  9
$ACADMAINTVER
 70
     6
  9
$DWGCODEPAGE
  3
ANSI_932
  9
$INSBASE
 10
2624.423239682807
 20
1431.94626938246
 30
0.0
  9
$EXTMIN
 10
184.5396548182837
 20
25.48084162905252
 30
0.0
  9
$EXTMAX
 10
1711.057192448035
 20
1449.516209648874
 30
0.0
  9
$LIMMIN
 10
0.0
 20
0.0
  9
$LIMMAX
 10
816.5000000000001
 20
565.0
  9
$ORTHOMODE
 70
     1
  9
$REGENMODE
 70
     1
  9
$FILLMODE
 70
     1
  9
$QTEXTMODE
 70
     0
  9
$MIRRTEXT
 70
     1
  9
$LTSCALE
 40
20.0
  9
$ATTMODE
 70
     1
  9
$TEXTSIZE
 40
15.0
  9
$TRACEWID
 40
0.05
  9
$TEXTSTYLE
  7
KANJI
  9
$CLAYER
  8
2
  9
$CELTYPE
  6
BYLAYER
  9
$CECOLOR
 62
   256
  9
$CELTSCALE
 40
1.0
  9
$DISPSILH
 70
     0
  9
$DIMSCALE
 40
5.0
  9
$DIMASZ
 40
2.0
  9
$DIMEXO
 40
0.5
  9
$DIMDLI
 40
0.0
  9
$DIMRND
 40
0.0
  9
$DIMDLE
 40
0.0
  9
$DIMEXE
 40
1.0
  9
$DIMTP
 40
0.0
  9
$DIMTM
 40
0.0
  9
$DIMTXT
 40
3.0
  9
$DIMCEN
 40
0.09
  9
$DIMTSZ
 40
0.0
  9
$DIMTOL
 70
     0
  9
$DIMLIM
 70
     0
  9
$DIMTIH
 70
     0
  9
$DIMTOH
 70
     0
  9
$DIMSE1
 70
     0
  9
$DIMSE2
 70
     0
  9
$DIMTAD
 70
     0
  9
$DIMZIN
 70
     8
  9
$DIMBLK
  1

  9
$DIMASO
 70
     0
  9
$DIMSHO
 70
     0
  9
$DIMPOST
  1

  9
$DIMAPOST
  1

  9
$DIMALT
 70
     0
  9
$DIMALTD
 70
     2
  9
$DIMALTF
 40
25.4
  9
$DIMLFAC
 40
1.0
  9
$DIMTOFL
 70
     1
  9
$DIMTVP
 40
1.0
  9
$DIMTIX
 70
     1
  9
$DIMSOXD
 70
     1
  9
$DIMSAH
 70
     0
  9
$DIMBLK1
  1

  9
$DIMBLK2
  1

  9
$DIMSTYLE
  2
STANDARD
  9
$DIMCLRD
 70
   256
  9
$DIMCLRE
 70
   256
  9
$DIMCLRT
 70
   256
  9
$DIMTFAC
 40
1.0
  9
$DIMGAP
 40
0.09
  9
$DIMJUST
 70
     0
  9
$DIMSD1
 70
     0
  9
$DIMSD2
 70
     0
  9
$DIMTOLJ
 70
     1
  9
$DIMTZIN
 70
     0
  9
$DIMALTZ
 70
     0
  9
$DIMALTTZ
 70
     0
  9
$DIMUPT
 70
     0
  9
$DIMDEC
 70
     1
  9
$DIMTDEC
 70
     4
  9
$DIMALTU
 70
     2
  9
$DIMALTTD
 70
     2
  9
$DIMTXSTY
  7
STANDARD
  9
$DIMAUNIT
 70
     0
  9
$DIMADEC
 70
     0
  9
$DIMALTRND
 40
0.0
  9
$DIMAZIN
 70
     0
  9
$DIMDSEP
 70
    46
  9
$DIMATFIT
 70
     3
  9
$DIMFRAC
 70
     0
  9
$DIMLDRBLK
  1

  9
$DIMLUNIT
 70
     2
  9
$DIMLWD
 70
    -2
  9
$DIMLWE
 70
    -2
  9
$DIMTMOVE
 70
     0
  9
$LUNITS
 70
     2
  9
$LUPREC
 70
     3
  9
$SKETCHINC
 40
0.1
  9
$FILLETRAD
 40
1.0
  9
$AUNITS
 70
     0
  9
$AUPREC
 70
     3
  9
$MENU
  1
C:\R13\WIN\SUPPORT\ACADFULL
  9
$ELEVATION
 40
0.0
  9
$PELEVATION
 40
0.0
  9
$THICKNESS
 40
0.0
  9
$LIMCHECK
 70
     0
  9
$CHAMFERA
 40
0.0
  9
$CHAMFERB
 40
0.0
  9
$CHAMFERC
 40
0.0
  9
$CHAMFERD
 40
0.0
  9
$SKPOLY
 70
     0
  9
$TDCREATE
 40
2457431.541599734
  9
$TDUCREATE
 40
2457431.166599734
  9
$TDUPDATE
 40
2458116.730540301
  9
$TDUUPDATE
 40
2458116.355540301
  9
$TDINDWG
 40
0.0211289236
  9
$TDUSRTIMER
 40
0.021128044
  9
$USRTIMER
 70
     1
  9
$ANGBASE
 50
0.0
  9
$ANGDIR
 70
     0
  9
$PDMODE
 70
     0
  9
$PDSIZE
 40
0.0
  9
$PLINEWID
 40
0.0
  9
$SPLFRAME
 70
     0
  9
$SPLINETYPE
 70
     6
  9
$SPLINESEGS
 70
     8
  9
$HANDSEED
  5
706
  9
$SURFTAB1
 70
     6
  9
$SURFTAB2
 70
     6
  9
$SURFTYPE
 70
     6
  9
$SURFU
 70
     6
  9
$SURFV
 70
     6
  9
$UCSBASE
  2

  9
$UCSNAME
  2

  9
$UCSORG
 10
0.0
 20
0.0
 30
0.0
  9
$UCSXDIR
 10
1.0
 20
0.0
 30
0.0
  9
$UCSYDIR
 10
0.0
 20
1.0
 30
0.0
  9
$UCSORTHOREF
  2

  9
$UCSORTHOVIEW
 70
     0
  9
$UCSORGTOP
 10
0.0
 20
0.0
 30
0.0
  9
$UCSORGBOTTOM
 10
0.0
 20
0.0
 30
0.0
  9
$UCSORGLEFT
 10
0.0
 20
0.0
 30
0.0
  9
$UCSORGRIGHT
 10
0.0
 20
0.0
 30
0.0
  9
$UCSORGFRONT
 10
0.0
 20
0.0
 30
0.0
  9
$UCSORGBACK
 10
0.0
 20
0.0
 30
0.0
  9
$PUCSBASE
  2

  9
$PUCSNAME
  2

  9
$PUCSORG
 10
0.0
 20
0.0
 30
0.0
  9
$PUCSXDIR
 10
1.0
 20
0.0
 30
0.0
  9
$PUCSYDIR
 10
0.0
 20
1.0
 30
0.0
  9
$PUCSORTHOREF
  2

  9
$PUCSORTHOVIEW
 70
     0
  9
$PUCSORGTOP
 10
0.0
 20
0.0
 30
0.0
  9
$PUCSORGBOTTOM
 10
0.0
 20
0.0
 30
0.0
  9
$PUCSORGLEFT
 10
0.0
 20
0.0
 30
0.0
  9
$PUCSORGRIGHT
 10
0.0
 20
0.0
 30
0.0
  9
$PUCSORGFRONT
 10
0.0
 20
0.0
 30
0.0
  9
$PUCSORGBACK
 10
0.0
 20
0.0
 30
0.0
  9
$USERI1
 70
     0
  9
$USERI2
 70
     0
  9
$USERI3
 70
     0
  9
$USERI4
 70
     0
  9
$USERI5
 70
     0
  9
$USERR1
 40
0.0
  9
$USERR2
 40
0.0
  9
$USERR3
 40
0.0
  9
$USERR4
 40
2448925.372986111
  9
$USERR5
 40
0.04166667
  9
$WORLDVIEW
 70
     1
  9
$SHADEDGE
 70
     3
  9
$SHADEDIF
 70
    70
  9
$TILEMODE
 70
     1
  9
$MAXACTVP
 70
    16
  9
$PINSBASE
 10
0.0
 20
0.0
 30
0.0
  9
$PLIMCHECK
 70
     0
  9
$PEXTMIN
 10
1000000000000000E+20
 20
1000000000000000E+20
 30
1000000000000000E+20
  9
$PEXTMAX
 10
-1000000000000000E+20
 20
-1000000000000000E+20
 30
-1000000000000000E+20
  9
$PLIMMIN
 10
0.0
 20
0.0
  9
$PLIMMAX
 10
12.0
 20
9.0
  9
$UNITMODE
 70
     0
  9
$VISRETAIN
 70
     0
  9
$PLINEGEN
 70
     0
  9
$PSLTSCALE
 70
     0
  9
$TREEDEPTH
 70
  3020
  9
$CMLSTYLE
  2
STANDARD
  9
$CMLJUST
 70
     0
  9
$CMLSCALE
 40
1.0
  9
$PROXYGRAPHICS
 70
     1
  9
$MEASUREMENT
 70
     0
  9
$CELWEIGHT
370
    -1
  9
$ENDCAPS
280
     0
  9
$JOINSTYLE
280
     0
  9
$LWDISPLAY
290
     0
  9
$INSUNITS
 70
     0
  9
$HYPERLINKBASE
  1

  9
$STYLESHEET
  1
R14.ctb
  9
$XEDIT
290
     1
  9
$CEPSNTYPE
380
     0
  9
$PSTYLEMODE
290
     1
  9
$FINGERPRINTGUID
  2
{91F20C86-5D8A-4890-AAB6-EBB1C24B4FD4}
  9
$VERSIONGUID
  2
{639BF546-A087-4B5C-9001-CFD38F13E72F}
  9
$EXTNAMES
290
     1
  9
$PSVPSCALE
 40
0.0
  9
$OLESTARTUP
290
     0
  0
ENDSEC
  0
SECTION
  2
CLASSES
  0
CLASS
  1
ACDBDICTIONARYWDFLT
  2
AcDbDictionaryWithDefault
  3
ObjectDBX Classes
 90
        0
280
     0
281
     0
  0
CLASS
  1
MATERIAL
  2
AcDbMaterial
  3
ObjectDBX Classes
 90
     1153
280
     0
281
     0
  0
CLASS
  1
SORTENTSTABLE
  2
AcDbSortentsTable
  3
ObjectDBX Classes
 90
        0
280
     0
281
     0
  0
CLASS
  1
SCALE
  2
AcDbScale
  3
ObjectDBX Classes
 90
     1153
280
     0
281
     0
  0
CLASS
  1
DICTIONARYVAR
  2
AcDbDictionaryVar
  3
ObjectDBX Classes
 90
        0
280
     0
281
     0
  0
CLASS
  1
VISUALSTYLE
  2
AcDbVisualStyle
  3
ObjectDBX Classes
 90
     4095
280
     0
281
     0
  0
CLASS
  1
MLEADERSTYLE
  2
AcDbMLeaderStyle
  3
ACDB_MLEADERSTYLE_CLASS
 90
     4095
280
     0
281
     0
  0
CLASS
  1
TABLESTYLE
  2
AcDbTableStyle
  3
ObjectDBX Classes
 90
     4095
280
     0
281
     0
  0
CLASS
  1
ACDBPLACEHOLDER
  2
AcDbPlaceHolder
  3
ObjectDBX Classes
 90
        0
280
     0
281
     0
  0
CLASS
  1
LAYOUT
  2
AcDbLayout
  3
ObjectDBX Classes
 90
        0
280
     0
281
     0
  0
ENDSEC
  0
SECTION
  2
TABLES
  0
TABLE
  2
VPORT
  5
26
102
{ACAD_XDICTIONARY
360
6CB
102
}
330
0
100
AcDbSymbolTable
 70
     2
  0
VPORT
  5
2B
330
26
100
AcDbSymbolTableRecord
100
AcDbViewportTableRecord
  2
*ACTIVE
 70
     0
 10
0.0
 20
0.0
 11
1.0
 21
1.0
 12
1694.601266072152
 22
762.1559697868308
 13
0.0
 23
0.0
 14
1.0
 24
1.0
 15
50.0
 25
50.0
 16
0.0
 26
0.0
 36
1.0
 17
0.0
 27
0.0
 37
0.0
 40
2035.439172971105
 41
1.82716049382716
 42
50.0
 43
0.0
 44
0.0
 50
0.0
 51
0.0
 71
     0
 72
  5000
 73
     1
 74
     0
 75
     0
 76
     0
 77
     0
 78
     0
281
     0
 65
     1
110
0.0
120
0.0
130
0.0
111
1.0
121
0.0
131
0.0
112
0.0
122
1.0
132
0.0
 79
     0
146
0.0
  0
ENDTAB
  0
TABLE
  2
LTYPE
  5
B
330
0
100
AcDbSymbolTable
 70
     2
  0
LTYPE
  5
C
330
B
100
AcDbSymbolTableRecord
100
AcDbLinetypeTableRecord
  2
BYBLOCK
 70
     0
  3

 72
    65
 73
     0
 40
0.0
  0
LTYPE
  5
D
330
B
100
AcDbSymbolTableRecord
100
AcDbLinetypeTableRecord
  2
BYLAYER
 70
     0
  3

 72
    65
 73
     0
 40
0.0
  0
LTYPE
  5
A
330
B
100
AcDbSymbolTableRecord
100
AcDbLinetypeTableRecord
  2
CONTINUOUS
 70
     0
  3
Solid line
 72
    65
 73
     0
 40
0.0
  0
LTYPE
  5
55
330
B
100
AcDbSymbolTableRecord
100
AcDbLinetypeTableRecord
  2
CENTER
 70
     0
  3
____ _ ____ _ ____ _ ____ _ ____ _ ____ _ ____
 72
    65
 73
     4
 40
2.0
 49
1.25
 74
     0
 49
-0.25
 74
     0
 49
0.25
 74
     0
 49
-0.25
 74
     0
  0
ENDTAB
  0
TABLE
  2
LAYER
  5
2
330
0
100
AcDbSymbolTable
 70
     8
  0
LAYER
  5
1B
330
2
100
AcDbSymbolTableRecord
100
AcDbLayerTableRecord
  2
0
 70
     0
 62
     7
  6
CONTINUOUS
370
    -3
390
3
  0
LAYER
  5
10B
330
2
100
AcDbSymbolTableRecord
100
AcDbLayerTableRecord
  2
1
 70
     0
 62
     9
  6
CONTINUOUS
370
    -3
390
3
  0
LAYER
  5
1
330
2
100
AcDbSymbolTableRecord
100
AcDbLayerTableRecord
  2
2
 70
     0
 62
     4
  6
CONTINUOUS
370
    -3
390
3
  0
LAYER
  5
109
330
2
100
AcDbSymbolTableRecord
100
AcDbLayerTableRecord
  2
4
 70
     0
 62
     3
  6
CONTINUOUS
370
    -3
390
3
  0
LAYER
  5
54
330
2
100
AcDbSymbolTableRecord
100
AcDbLayerTableRecord
  2
L-CENTER
 70
     0
 62
     1
  6
CENTER
370
    -3
390
3
  0
LAYER
  5
4B7
330
2
100
AcDbSymbolTableRecord
100
AcDbLayerTableRecord
  2
DEFPOINTS
 70
     0
 62
     7
  6
CONTINUOUS
290
     0
370
    -3
390
3
  0
LAYER
  5
58
330
2
100
AcDbSymbolTableRecord
100
AcDbLayerTableRecord
  2
3
 70
     0
 62
     2
  6
CONTINUOUS
370
    -3
390
3
  0
LAYER
  5
102
102
{ACAD_XDICTIONARY
360
103
102
}
330
2
100
AcDbSymbolTableRecord
100
AcDbLayerTableRecord
  2
5
 70
     0
 62
     6
  6
CONTINUOUS
370
    -3
390
3
  0
ENDTAB
  0
TABLE
  2
STYLE
  5
F
330
0
100
AcDbSymbolTable
 70
     2
  0
STYLE
  5
13
330
F
100
AcDbSymbolTableRecord
100
AcDbTextStyleTableRecord
  2
STANDARD
 70
     0
 40
0.0
 41
1.0
 50
0.0
 71
     0
 42
9.0
  3
TXT
  4

  0
STYLE
  5
E
330
F
100
AcDbSymbolTableRecord
100
AcDbTextStyleTableRecord
  2
KANJI
 70
     0
 40
0.0
 41
1.0
 50
0.0
 71
     0
 42
15.0
  3
TXT
  4
BIGFONT
  0
ENDTAB
  0
TABLE
  2
VIEW
  5
24
330
0
100
AcDbSymbolTable
 70
     0
  0
ENDTAB
  0
TABLE
  2
UCS
  5
25
330
0
100
AcDbSymbolTable
 70
     0
  0
ENDTAB
  0
TABLE
  2
APPID
  5
9
330
0
100
AcDbSymbolTable
 70
     3
  0
APPID
  5
8
330
9
100
AcDbSymbolTableRecord
100
AcDbRegAppTableRecord
  2
ACAD
 70
     0
  0
APPID
  5
1F
330
9
100
AcDbSymbolTableRecord
100
AcDbRegAppTableRecord
  2
ACAD_PSEXT
 70
     0
  0
APPID
  5
654
330
9
100
AcDbSymbolTableRecord
100
AcDbRegAppTableRecord
  2
ACAD_MLEADERVER
 70
     0
  0
ENDTAB
  0
TABLE
  2
DIMSTYLE
  5
12
330
0
100
AcDbSymbolTable
 70
     1
100
AcDbDimStyleTable
  0
DIMSTYLE
105
11
330
12
100
AcDbSymbolTableRecord
100
AcDbDimStyleTableRecord
  2
STANDARD
 70
     0
178
     0
340
13
  0
ENDTAB
  0
TABLE
  2
BLOCK_RECORD
  5
16
330
0
100
AcDbSymbolTable
 70
     0
  0
BLOCK_RECORD
  5
17
102
{ACAD_XDICTIONARY
360
18
102
}
330
16
100
AcDbSymbolTableRecord
100
AcDbBlockTableRecord
  2
*MODEL_SPACE
340
1D
  0
BLOCK_RECORD
  5
20
330
16
100
AcDbSymbolTableRecord
100
AcDbBlockTableRecord
  2
*PAPER_SPACE
340
23
  0
ENDTAB
  0
ENDSEC
  0
SECTION
  2
BLOCKS
  0
BLOCK
  5
1A
330
17
100
AcDbEntity
  8
0
100
AcDbBlockBegin
  2
*MODEL_SPACE
 70
     0
 10
0.0
 20
0.0
 30
0.0
  3
*MODEL_SPACE
  1

  0
ENDBLK
  5
1C
330
17
100
AcDbEntity
  8
0
100
AcDbBlockEnd
  0
BLOCK
  5
21
330
20
100
AcDbEntity
 67
     1
  8
0
100
AcDbBlockBegin
  2
*PAPER_SPACE
 70
     0
 10
0.0
 20
0.0
 30
0.0
  3
*PAPER_SPACE
  1

  0
ENDBLK
  5
22
330
20
100
AcDbEntity
 67
     1
  8
0
100
AcDbBlockEnd
  0
ENDSEC
  0
SECTION
  2
ENTITIES
  0
LINE
  5
53
330
17
100
AcDbEntity
  8
L-CENTER
100
AcDbLine
 10
556.3681302627424
 20
1355.248231394293
 30
0.0
 11
615.8378461061188
 21
1355.248231394293
 31
0.0
  0
LINE
  5
64
330
17
100
AcDbEntity
  8
L-CENTER
100
AcDbLine
 10
1665.085421190002
 20
233.9069105699143
 30
0.0
 11
1711.057192448035
 21
233.9069060680457
 31
0.0
  0
ARC
  5
1D1
330
17
100
AcDbEntity
  8
4
100
AcDbCircle
 10
650.3547502346269
 20
906.248231394294
 30
0.0
 40
1.0
100
AcDbArc
 50
270.0
 51
343.610459665966
  0
LINE
  5
1D2
330
17
100
AcDbEntity
  8
4
100
AcDbLine
 10
638.8529950920208
 20
921.2482313942942
 30
0.0
 11
638.8529950920206
 21
923.2482313942942
 31
0.0
  0
LINE
  5
1D3
330
17
100
AcDbEntity
  8
4
100
AcDbLine
 10
639.6029950920208
 20
913.2482313942942
 30
0.0
 11
639.6029950920208
 21
921.2482313942937
 31
0.0
  0
LINE
  5
1D4
330
17
100
AcDbEntity
  8
4
100
AcDbLine
 10
652.6029950920208
 20
913.2482313942942
 30
0.0
 11
639.6029950920208
 21
913.2482313942942
 31
0.0
  0
LINE
  5
1D5
330
17
100
AcDbEntity
  8
4
100
AcDbLine
 10
653.3529950920208
 20
921.2482313942942
 30
0.0
 11
653.3529950920208
 21
923.2482313942942
 31
0.0
  0
LINE
  5
1D6
330
17
100
AcDbEntity
  8
4
100
AcDbLine
 10
653.3529950920208
 20
921.2482313942942
 30
0.0
 11
638.8529950920208
 21
921.2482313942942
 31
0.0
  0
LINE
  5
1D7
330
17
100
AcDbEntity
  8
4
100
AcDbLine
 10
652.6029950920208
 20
913.2482313942942
 30
0.0
 11
652.6029950920208
 21
921.2482313942937
 31
0.0
  0
ARC
  5
1D8
330
17
100
AcDbEntity
  8
4
100
AcDbCircle
 10
660.701883695785
 20
916.6204219568956
 30
0.0
 40
6.0
100
AcDbArc
 50
94.89909245378786
 51
163.6104596659663
  0
LINE
  5
1D9
330
17
100
AcDbEntity
  8
4
100
AcDbLine
 10
667.769654851098
 20
923.2482313942944
 30
0.0
 11
660.1894768477064
 21
922.5985018511458
 31
0.0
  0
LINE
  5
1DA
330
17
100
AcDbEntity
  8
4
100
AcDbLine
 10
654.945690686357
 20
918.3134199008448
 30
0.0
 11
651.3141157361974
 21
905.966065070302
 31
0.0
  0
LINE
  5
1DB
330
17
100
AcDbEntity
  8
L-CENTER
100
AcDbLine
 10
646.1029950920208
 20
909.3310487785548
 30
0.0
 11
646.1029950920208
 21
952.4710807364809
 31
0.0
  0
LINE
  5
1DC
330
17
100
AcDbEntity
  8
4
100
AcDbLine
 10
712.6029881844306
 20
913.248231394294
 30
0.0
 11
712.6029881844306
 21
921.2482313942935
 31
0.0
  0
LINE
  5
1DD
330
17
100
AcDbEntity
  8
4
100
AcDbLine
 10
713.3529881844306
 20
921.248231394294
 30
0.0
 11
698.8529881844306
 21
921.248231394294
 31
0.0
  0
LINE
  5
1DE
330
17
100
AcDbEntity
  8
4
100
AcDbLine
 10
713.3529881844306
 20
921.248231394294
 30
0.0
 11
713.3529881844306
 21
923.248231394294
 31
0.0
  0
LINE
  5
1DF
330
17
100
AcDbEntity
  8
4
100
AcDbLine
 10
712.6029881844306
 20
913.248231394294
 30
0.0
 11
699.6029881844306
 21
913.248231394294
 31
0.0
  0
LINE
  5
1E0
330
17
100
AcDbEntity
  8
4
100
AcDbLine
 10
699.6029881844306
 20
913.248231394294
 30
0.0
 11
699.6029881844306
 21
921.2482313942935
 31
0.0
  0
LINE
  5
1E1
330
17
100
AcDbEntity
  8
4
100
AcDbLine
 10
698.8529881844306
 20
921.248231394294
 30
0.0
 11
698.8529881844304
 21
923.248231394294
 31
0.0
  0
LINE
  5
1E2
330
17
100
AcDbEntity
  8
L-CENTER
100
AcDbLine
 10
706.1029881844306
 20
909.3310487785545
 30
0.0
 11
706.1029881844306
 21
952.4710807364806
 31
0.0
  0
ARC
  5
1E3
330
17
100
AcDbEntity
  8
4
100
AcDbCircle
 10
714.1029881844311
 20
924.248231394294
 30
0.0
 40
1.0
100
AcDbArc
 50
270.0
 51
0.0
  0
ARC
  5
1E4
330
17
100
AcDbEntity
  8
4
100
AcDbCircle
 10
716.1029881844307
 20
941.2482313942935
 30
0.0
 40
1.0
100
AcDbArc
 50
90.0
 51
180.0
  0
LINE
  5
1E5
330
17
100
AcDbEntity
  8
4
100
AcDbLine
 10
715.1029881844306
 20
924.248231394294
 30
0.0
 11
715.1029881844306
 21
941.2482313942935
 31
0.0
  0
LINE
  5
1E6
330
17
100
AcDbEntity
  8
4
100
AcDbLine
 10
519.6029812768404
 20
913.2482313942942
 30
0.0
 11
519.6029812768404
 21
921.2482313942937
 31
0.0
  0
LINE
  5
1E7
330
17
100
AcDbEntity
  8
4
100
AcDbLine
 10
518.8529812768404
 20
921.2482313942942
 30
0.0
 11
533.3529812768404
 21
921.2482313942942
 31
0.0
  0
LINE
  5
1E8
330
17
100
AcDbEntity
  8
4
100
AcDbLine
 10
518.8529812768404
 20
921.2482313942942
 30
0.0
 11
518.8529812768404
 21
923.2482313942942
 31
0.0
  0
LINE
  5
1E9
330
17
100
AcDbEntity
  8
4
100
AcDbLine
 10
519.6029812768404
 20
913.2482313942942
 30
0.0
 11
532.6029812768404
 21
913.2482313942942
 31
0.0
  0
LINE
  5
1EA
330
17
100
AcDbEntity
  8
4
100
AcDbLine
 10
532.6029812768404
 20
913.2482313942942
 30
0.0
 11
532.6029812768404
 21
921.2482313942937
 31
0.0
  0
LINE
  5
1EB
330
17
100
AcDbEntity
  8
4
100
AcDbLine
 10
533.3529812768404
 20
921.2482313942942
 30
0.0
 11
533.3529812768406
 21
923.2482313942942
 31
0.0
  0
LINE
  5
1EC
330
17
100
AcDbEntity
  8
L-CENTER
100
AcDbLine
 10
526.1029812768404
 20
909.3310487785548
 30
0.0
 11
526.1029812768404
 21
952.4710807364809
 31
0.0
  0
LINE
  5
1ED
330
17
100
AcDbEntity
  8
4
100
AcDbLine
 10
458.8529881844306
 20
921.248231394294
 30
0.0
 11
473.3529881844306
 21
921.248231394294
 31
0.0
  0
LINE
  5
1EE
330
17
100
AcDbEntity
  8
4
100
AcDbLine
 10
459.6029881844306
 20
913.248231394294
 30
0.0
 11
472.6029881844306
 21
913.248231394294
 31
0.0
  0
LINE
  5
1EF
330
17
100
AcDbEntity
  8
4
100
AcDbLine
 10
473.3529881844306
 20
921.248231394294
 30
0.0
 11
473.3529881844308
 21
923.248231394294
 31
0.0
  0
LINE
  5
1F0
330
17
100
AcDbEntity
  8
4
100
AcDbLine
 10
472.6029881844306
 20
913.248231394294
 30
0.0
 11
472.6029881844306
 21
921.2482313942935
 31
0.0
  0
LINE
  5
1F1
330
17
100
AcDbEntity
  8
4
100
AcDbLine
 10
458.8529881844306
 20
921.248231394294
 30
0.0
 11
458.8529881844306
 21
923.248231394294
 31
0.0
  0
LINE
  5
1F2
330
17
100
AcDbEntity
  8
4
100
AcDbLine
 10
459.6029881844306
 20
913.248231394294
 30
0.0
 11
459.6029881844306
 21
921.2482313942935
 31
0.0
  0
CIRCLE
  5
1F3
330
17
100
AcDbEntity
  8
4
100
AcDbCircle
 10
526.1029812768401
 20
295.4038860950857
 30
0.0
 40
6.5
  0
CIRCLE
  5
1F4
330
17
100
AcDbEntity
  8
4
100
AcDbCircle
 10
526.1029812768401
 20
295.4038860950857
 30
0.0
 40
7.25
  0
LINE
  5
1F5
330
17
100
AcDbEntity
  8
2
100
AcDbLine
 10
527.8350357288936
 20
298.4038839909385
 30
0.0
 11
529.5670828919751
 21
295.4038818867958
 31
0.0
  0
LINE
  5
1F6
330
17
100
AcDbEntity
  8
2
100
AcDbLine
 10
529.5670828919751
 20
295.4038818867958
 30
0.0
 11
527.8350284399216
 21
292.4038839909431
 31
0.0
  0
LINE
  5
1F7
330
17
100
AcDbEntity
  8
2
100
AcDbLine
 10
524.3709268247866
 20
292.4038881992328
 30
0.0
 11
527.8350284399216
 21
292.4038839909431
 31
0.0
  0
LINE
  5
1F8
330
17
100
AcDbEntity
  8
2
100
AcDbLine
 10
522.6388796617049
 20
295.4038903033755
 30
0.0
 11
524.3709268247866
 21
292.4038881992328
 31
0.0
  0
LINE
  5
1F9
330
17
100
AcDbEntity
  8
2
100
AcDbLine
 10
524.3709341137583
 20
298.4038881992282
 30
0.0
 11
522.6388796617049
 21
295.4038903033755
 31
0.0
  0
LINE
  5
1FA
330
17
100
AcDbEntity
  8
2
100
AcDbLine
 10
524.3709341137583
 20
298.4038881992282
 30
0.0
 11
527.8350357288936
 21
298.4038839909385
 31
0.0
  0
LINE
  5
1FB
330
17
100
AcDbEntity
  8
L-CENTER
  6
CENTER
100
AcDbLine
 10
518.9429281844305
 20
307.8054966290533
 30
0.0
 11
533.2630343692497
 21
283.002275561118
 31
0.0
  0
LINE
  5
1FC
330
17
100
AcDbEntity
  8
L-CENTER
  6
CENTER
100
AcDbLine
 10
653.2630481844308
 20
307.8054966290533
 30
0.0
 11
638.9429419996115
 21
283.002275561118
 31
0.0
  0
LINE
  5
1FD
330
17
100
AcDbEntity
  8
2
100
AcDbLine
 10
647.835042255103
 20
298.4038881992282
 30
0.0
 11
644.3709406399677
 21
298.4038839909385
 31
0.0
  0
LINE
  5
1FE
330
17
100
AcDbEntity
  8
2
100
AcDbLine
 10
647.835042255103
 20
298.4038881992282
 30
0.0
 11
649.5670967071563
 21
295.4038903033755
 31
0.0
  0
LINE
  5
1FF
330
17
100
AcDbEntity
  8
2
100
AcDbLine
 10
649.5670967071563
 20
295.4038903033755
 30
0.0
 11
647.8350495440746
 21
292.4038881992328
 31
0.0
  0
LINE
  5
200
330
17
100
AcDbEntity
  8
2
100
AcDbLine
 10
647.8350495440746
 20
292.4038881992328
 30
0.0
 11
644.3709479289396
 21
292.4038839909431
 31
0.0
  0
LINE
  5
201
330
17
100
AcDbEntity
  8
2
100
AcDbLine
 10
642.6388934768861
 20
295.4038818867958
 30
0.0
 11
644.3709479289396
 21
292.4038839909431
 31
0.0
  0
LINE
  5
202
330
17
100
AcDbEntity
  8
2
100
AcDbLine
 10
644.3709406399677
 20
298.4038839909385
 30
0.0
 11
642.6388934768861
 21
295.4038818867958
 31
0.0
  0
CIRCLE
  5
203
330
17
100
AcDbEntity
  8
4
100
AcDbCircle
 10
646.1029950920212
 20
295.4038860950857
 30
0.0
 40
7.25
  0
CIRCLE
  5
204
330
17
100
AcDbEntity
  8
4
100
AcDbCircle
 10
646.1029950920212
 20
295.4038860950857
 30
0.0
 40
6.5
  0
CIRCLE
  5
205
330
17
100
AcDbEntity
  8
4
100
AcDbCircle
 10
646.1029950920212
 20
87.55779716301936
 30
0.0
 40
6.5
  0
CIRCLE
  5
206
330
17
100
AcDbEntity
  8
4
100
AcDbCircle
 10
646.1029950920212
 20
87.55779716301936
 30
0.0
 40
7.25
  0
LINE
  5
207
330
17
100
AcDbEntity
  8
2
100
AcDbLine
 10
644.3709406399677
 20
84.5577992671665
 30
0.0
 11
642.6388934768861
 21
87.55780137130921
 31
0.0
  0
LINE
  5
208
330
17
100
AcDbEntity
  8
2
100
AcDbLine
 10
642.6388934768861
 20
87.55780137130921
 30
0.0
 11
644.3709479289396
 21
90.55779926716195
 31
0.0
  0
LINE
  5
209
330
17
100
AcDbEntity
  8
2
100
AcDbLine
 10
647.8350495440746
 20
90.55779505887222
 30
0.0
 11
644.3709479289396
 21
90.55779926716195
 31
0.0
  0
LINE
  5
20A
330
17
100
AcDbEntity
  8
2
100
AcDbLine
 10
649.5670967071563
 20
87.5577929547295
 30
0.0
 11
647.8350495440746
 21
90.55779505887222
 31
0.0
  0
LINE
  5
20B
330
17
100
AcDbEntity
  8
2
100
AcDbLine
 10
647.835042255103
 20
84.55779505887688
 30
0.0
 11
649.5670967071563
 21
87.5577929547295
 31
0.0
  0
LINE
  5
20C
330
17
100
AcDbEntity
  8
2
100
AcDbLine
 10
647.835042255103
 20
84.55779505887688
 30
0.0
 11
644.3709406399677
 21
84.5577992671665
 31
0.0
  0
LINE
  5
20D
330
17
100
AcDbEntity
  8
L-CENTER
  6
CENTER
100
AcDbLine
 10
653.2630481844308
 20
75.15618662905172
 30
0.0
 11
638.9429419996115
 21
99.959407696987
 31
0.0
  0
LINE
  5
20E
330
17
100
AcDbEntity
  8
2
100
AcDbLine
 10
707.8350353475125
 20
188.48083952491
 30
0.0
 11
704.3709337323772
 21
188.4808437331997
 31
0.0
  0
LINE
  5
20F
330
17
100
AcDbEntity
  8
2
100
AcDbLine
 10
707.8350353475125
 20
188.48083952491
 30
0.0
 11
709.5670897995659
 21
191.4808374207627
 31
0.0
  0
LINE
  5
210
330
17
100
AcDbEntity
  8
2
100
AcDbLine
 10
709.5670897995659
 20
191.4808374207627
 30
0.0
 11
707.8350426364842
 21
194.4808395249054
 31
0.0
  0
LINE
  5
211
330
17
100
AcDbEntity
  8
2
100
AcDbLine
 10
707.8350426364842
 20
194.4808395249054
 30
0.0
 11
704.3709410213492
 21
194.4808437331951
 31
0.0
  0
LINE
  5
212
330
17
100
AcDbEntity
  8
2
100
AcDbLine
 10
702.6388865692957
 20
191.4808458373424
 30
0.0
 11
704.3709410213492
 21
194.4808437331951
 31
0.0
  0
LINE
  5
213
330
17
100
AcDbEntity
  8
2
100
AcDbLine
 10
704.3709337323772
 20
188.4808437331997
 30
0.0
 11
702.6388865692957
 21
191.4808458373424
 31
0.0
  0
CIRCLE
  5
214
330
17
100
AcDbEntity
  8
4
100
AcDbCircle
 10
706.1029881844307
 20
191.4808416290525
 30
0.0
 40
7.25
  0
CIRCLE
  5
215
330
17
100
AcDbEntity
  8
4
100
AcDbCircle
 10
706.1029881844307
 20
191.4808416290525
 30
0.0
 40
6.5
  0
CIRCLE
  5
216
330
17
100
AcDbEntity
  8
4
100
AcDbCircle
 10
466.1029881844305
 20
191.4808416290525
 30
0.0
 40
6.5
  0
CIRCLE
  5
217
330
17
100
AcDbEntity
  8
4
100
AcDbCircle
 10
466.1029881844305
 20
191.4808416290525
 30
0.0
 40
7.25
  0
LINE
  5
218
330
17
100
AcDbEntity
  8
2
100
AcDbLine
 10
467.835042636484
 20
188.4808437331997
 30
0.0
 11
469.5670897995656
 21
191.4808458373424
 31
0.0
  0
LINE
  5
219
330
17
100
AcDbEntity
  8
2
100
AcDbLine
 10
469.5670897995656
 20
191.4808458373424
 30
0.0
 11
467.8350353475121
 21
194.4808437331951
 31
0.0
  0
LINE
  5
21A
330
17
100
AcDbEntity
  8
2
100
AcDbLine
 10
464.370933732377
 20
194.4808395249054
 30
0.0
 11
467.8350353475121
 21
194.4808437331951
 31
0.0
  0
LINE
  5
21B
330
17
100
AcDbEntity
  8
2
100
AcDbLine
 10
462.6388865692953
 20
191.4808374207627
 30
0.0
 11
464.370933732377
 21
194.4808395249054
 31
0.0
  0
LINE
  5
21C
330
17
100
AcDbEntity
  8
2
100
AcDbLine
 10
464.3709410213487
 20
188.48083952491
 30
0.0
 11
462.6388865692953
 21
191.4808374207627
 31
0.0
  0
LINE
  5
21D
330
17
100
AcDbEntity
  8
2
100
AcDbLine
 10
464.3709410213487
 20
188.48083952491
 30
0.0
 11
467.835042636484
 21
188.4808437331997
 31
0.0
  0
LINE
  5
21E
330
17
100
AcDbEntity
  8
2
100
AcDbLine
 10
524.3709268247866
 20
90.55779505887222
 30
0.0
 11
527.8350284399216
 21
90.55779926716195
 31
0.0
  0
LINE
  5
21F
330
17
100
AcDbEntity
  8
2
100
AcDbLine
 10
524.3709341137583
 20
84.55779505887688
 30
0.0
 11
527.8350357288936
 21
84.5577992671665
 31
0.0
  0
LINE
  5
220
330
17
100
AcDbEntity
  8
2
100
AcDbLine
 10
527.8350357288936
 20
84.5577992671665
 30
0.0
 11
529.5670828919751
 21
87.55780137130921
 31
0.0
  0
LINE
  5
221
330
17
100
AcDbEntity
  8
2
100
AcDbLine
 10
522.6388796617049
 20
87.5577929547295
 30
0.0
 11
524.3709268247866
 21
90.55779505887222
 31
0.0
  0
LINE
  5
222
330
17
100
AcDbEntity
  8
2
100
AcDbLine
 10
529.5670828919751
 20
87.55780137130921
 30
0.0
 11
527.8350284399216
 21
90.55779926716195
 31
0.0
  0
LINE
  5
223
330
17
100
AcDbEntity
  8
2
100
AcDbLine
 10
524.3709341137583
 20
84.55779505887688
 30
0.0
 11
522.6388796617049
 21
87.5577929547295
 31
0.0
  0
CIRCLE
  5
224
330
17
100
AcDbEntity
  8
4
100
AcDbCircle
 10
526.1029812768401
 20
87.55779716301936
 30
0.0
 40
6.5
  0
CIRCLE
  5
225
330
17
100
AcDbEntity
  8
4
100
AcDbCircle
 10
526.1029812768401
 20
87.55779716301936
 30
0.0
 40
7.25
  0
LINE
  5
226
330
17
100
AcDbEntity
  8
L-CENTER
100
AcDbLine
 10
466.1029881844306
 20
358.480841629053
 30
0.0
 11
466.1029881844306
 21
405.7297282353911
 31
0.0
  0
LINE
  5
227
330
17
100
AcDbEntity
  8
L-CENTER
100
AcDbLine
 10
1171.419697172663
 20
87.55738976089754
 30
0.0
 11
1215.091950068291
 21
87.55736677947516
 31
0.0
  0
LINE
  5
228
330
17
100
AcDbEntity
  8
4
100
AcDbLine
 10
1174.789156086004
 20
81.05738798780385
 30
0.0
 11
1182.789156086003
 21
81.05738377800537
 31
0.0
  0
LINE
  5
229
330
17
100
AcDbEntity
  8
4
100
AcDbLine
 10
1182.789155691334
 20
80.30738377800549
 30
0.0
 11
1184.789155691334
 21
80.30738272555607
 31
0.0
  0
LINE
  5
22A
330
17
100
AcDbEntity
  8
4
100
AcDbLine
 10
1174.789162926927
 20
94.05738798780192
 30
0.0
 11
1182.789162926925
 21
94.05738377800355
 31
0.0
  0
LINE
  5
22B
330
17
100
AcDbEntity
  8
4
100
AcDbLine
 10
1182.789163321594
 20
94.80738377800355
 30
0.0
 11
1184.789163321594
 21
94.80738272555413
 31
0.0
  0
LINE
  5
22C
330
17
100
AcDbEntity
  8
4
100
AcDbLine
 10
1174.789156086004
 20
81.05738798780385
 30
0.0
 11
1174.789162926927
 21
94.05738798780192
 31
0.0
  0
LINE
  5
22D
330
17
100
AcDbEntity
  8
4
100
AcDbLine
 10
1182.789155691334
 20
80.30738377800549
 30
0.0
 11
1182.789163321594
 21
94.80738377800355
 31
0.0
  0
LINE
  5
22E
330
17
100
AcDbEntity
  8
4
100
AcDbLine
 10
1174.789214193456
 20
197.9806344103131
 30
0.0
 11
1182.789214193455
 21
197.9806344103132
 31
0.0
  0
LINE
  5
22F
330
17
100
AcDbEntity
  8
4
100
AcDbLine
 10
1182.789214193456
 20
198.7306344103132
 30
0.0
 11
1184.789214193456
 21
198.7306344103131
 31
0.0
  0
LINE
  5
230
330
17
100
AcDbEntity
  8
4
100
AcDbLine
 10
1174.789214193456
 20
184.9806344103132
 30
0.0
 11
1182.789214193455
 21
184.9806344103132
 31
0.0
  0
LINE
  5
231
330
17
100
AcDbEntity
  8
4
100
AcDbLine
 10
1182.789214193456
 20
184.2306344103131
 30
0.0
 11
1184.789214193456
 21
184.230634410313
 31
0.0
  0
LINE
  5
232
330
17
100
AcDbEntity
  8
4
100
AcDbLine
 10
1174.789214193456
 20
197.9806344103131
 30
0.0
 11
1174.789214193456
 21
184.9806344103132
 31
0.0
  0
LINE
  5
233
330
17
100
AcDbEntity
  8
4
100
AcDbLine
 10
1182.789214193456
 20
198.7306344103132
 30
0.0
 11
1182.789214193456
 21
184.2306344103131
 31
0.0
  0
LINE
  5
234
330
17
100
AcDbEntity
  8
4
100
AcDbLine
 10
1182.789214193456
 20
288.1538860950858
 30
0.0
 11
1184.789214193456
 21
288.1538860950857
 31
0.0
  0
LINE
  5
235
330
17
100
AcDbEntity
  8
4
100
AcDbLine
 10
1182.789214193456
 20
302.6538860950859
 30
0.0
 11
1184.789214193456
 21
302.6538860950858
 31
0.0
  0
LINE
  5
236
330
17
100
AcDbEntity
  8
4
100
AcDbLine
 10
1174.789214193456
 20
288.9038860950859
 30
0.0
 11
1182.789214193455
 21
288.9038860950859
 31
0.0
  0
LINE
  5
237
330
17
100
AcDbEntity
  8
4
100
AcDbLine
 10
1174.789214193456
 20
301.9038860950858
 30
0.0
 11
1182.789214193455
 21
301.9038860950859
 31
0.0
  0
LINE
  5
238
330
17
100
AcDbEntity
  8
4
100
AcDbLine
 10
1174.789214193456
 20
301.9038860950858
 30
0.0
 11
1174.789214193456
 21
288.9038860950859
 31
0.0
  0
LINE
  5
239
330
17
100
AcDbEntity
  8
4
100
AcDbLine
 10
1182.789214193456
 20
302.6538860950859
 30
0.0
 11
1182.789214193456
 21
288.1538860950858
 31
0.0
  0
ARC
  5
23F
330
17
100
AcDbEntity
  8
4
100
AcDbCircle
 10
1667.611724193456
 20
526.0430966290533
 30
0.0
 40
4.999965
100
AcDbArc
 50
11.57987699999932
 51
79.06481200000005
  0
LINE
  5
240
330
17
100
AcDbEntity
  8
4
100
AcDbLine
 10
1636.788969193456
 20
543.480841629053
 30
0.0
 11
1636.788969193456
 21
536.4295716290535
 31
0.0
  0
LINE
  5
241
330
17
100
AcDbEntity
  8
4
100
AcDbLine
 10
1629.288969193456
 20
543.480841629053
 30
0.0
 11
1629.288969193456
 21
552.4808416290516
 31
0.0
  0
ARC
  5
242
330
17
100
AcDbEntity
  8
4
100
AcDbCircle
 10
1630.688869193456
 20
547.0362616290531
 30
0.0
 40
1.399915
100
AcDbArc
 50
121.7691819999988
 51
180.0
  0
LINE
  5
243
330
17
100
AcDbEntity
  8
4
100
AcDbLine
 10
1616.788969193456
 20
554.4808416290521
 30
0.0
 11
1629.288969193456
 21
552.4808416290516
 31
0.0
  0
LINE
  5
244
330
17
100
AcDbEntity
  8
4
100
AcDbLine
 10
1604.288969193456
 20
543.480841629053
 30
0.0
 11
1604.288969193456
 21
552.4808416290516
 31
0.0
  0
ARC
  5
245
330
17
100
AcDbEntity
  8
4
100
AcDbCircle
 10
1602.889064193456
 20
547.0362616290531
 30
0.0
 40
1.399915
100
AcDbArc
 50
0.0
 51
58.23081800000119
  0
LINE
  5
246
330
17
100
AcDbEntity
  8
4
100
AcDbLine
 10
1596.788969193456
 20
541.4708316290516
 30
0.0
 11
1596.788969193456
 21
543.480841629053
 31
0.0
  0
LINE
  5
247
330
17
100
AcDbEntity
  8
4
100
AcDbLine
 10
1629.288969193456
 20
552.4808416290516
 30
0.0
 11
1604.288969193456
 21
552.4808416290516
 31
0.0
  0
LINE
  5
248
330
17
100
AcDbEntity
  8
4
100
AcDbLine
 10
1604.288969193456
 20
543.480841629053
 30
0.0
 11
1629.288969193456
 21
543.480841629053
 31
0.0
  0
LINE
  5
249
330
17
100
AcDbEntity
  8
4
100
AcDbLine
 10
1604.288969193456
 20
552.4808416290516
 30
0.0
 11
1616.788969193456
 21
554.4808416290521
 31
0.0
  0
LINE
  5
24A
330
17
100
AcDbEntity
  8
4
100
AcDbLine
 10
1596.788969193456
 20
543.480841629053
 30
0.0
 11
1636.788969193456
 21
543.480841629053
 31
0.0
  0
LINE
  5
24B
330
17
100
AcDbEntity
  8
L-CENTER
  6
CENTER
100
AcDbLine
 10
1616.788969193456
 20
536.4547166288244
 30
0.0
 11
1616.788969193456
 21
602.5069666292798
 31
0.0
  0
CIRCLE
  5
24C
330
17
100
AcDbEntity
  8
4
100
AcDbCircle
 10
1616.788969193456
 20
569.4808416290521
 30
0.0
 40
15.0
  0
ARC
  5
250
330
17
100
AcDbEntity
  8
4
100
AcDbCircle
 10
1573.288969193456
 20
498.3900216290526
 30
0.0
 40
4.00005
100
AcDbArc
 50
66.81335099999902
 51
180.0
  0
ARC
  5
251
330
17
100
AcDbEntity
  8
4
100
AcDbCircle
 10
1558.288969193456
 20
484.4808416290521
 30
0.0
 40
4.0
100
AcDbArc
 50
0.0
 51
90.0
  0
LINE
  5
252
330
17
100
AcDbEntity
  8
4
100
AcDbLine
 10
1525.288969193456
 20
552.9808416290534
 30
0.0
 11
1525.288969193456
 21
556.9808416290521
 31
0.0
  0
LINE
  5
253
330
17
100
AcDbEntity
  8
4
100
AcDbLine
 10
1532.788969193456
 20
547.4808416290516
 30
0.0
 11
1532.788969193456
 21
549.9808416290516
 31
0.0
  0
LINE
  5
254
330
17
100
AcDbEntity
  8
4
100
AcDbLine
 10
1533.788969193456
 20
556.9808416290521
 30
0.0
 11
1533.788969193456
 21
549.9808416290516
 31
0.0
  0
LINE
  5
255
330
17
100
AcDbEntity
  8
4
100
AcDbLine
 10
1535.788969193456
 20
545.2552566290528
 30
0.0
 11
1535.788969193456
 21
547.4808416290516
 31
0.0
  0
LINE
  5
256
330
17
100
AcDbEntity
  8
4
100
AcDbLine
 10
1556.288969193456
 20
473.7774716290533
 30
0.0
 11
1550.072904193456
 21
473.7774716290533
 31
0.0
  0
ARC
  5
257
330
17
100
AcDbEntity
  8
4
100
AcDbCircle
 10
1546.288969193456
 20
472.4808416290516
 30
0.0
 40
3.99997
100
AcDbArc
 50
18.91490900000102
 51
191.5376309999977
  0
LINE
  5
258
330
17
100
AcDbEntity
  8
4
100
AcDbLine
 10
1524.288969193456
 20
482.4808416290516
 30
0.0
 11
1524.288969193456
 21
476.4808416290525
 31
0.0
  0
ARC
  5
259
330
17
100
AcDbEntity
  8
4
100
AcDbCircle
 10
1546.288969193456
 20
472.4808416290516
 30
0.0
 40
9.999975
100
AcDbArc
 50
7.450165000000863
 51
180.0013980003158
  0
LINE
  5
25D
330
17
100
AcDbEntity
  8
4
100
AcDbLine
 10
1500.788969193456
 20
547.4808416290516
 30
0.0
 11
1500.788969193456
 21
549.9808416290516
 31
0.0
  0
LINE
  5
25E
330
17
100
AcDbEntity
  8
4
100
AcDbLine
 10
1499.788969193456
 20
549.9808416290516
 30
0.0
 11
1499.788969193456
 21
556.9808416290521
 31
0.0
  0
LINE
  5
25F
330
17
100
AcDbEntity
  8
4
100
AcDbLine
 10
1508.288969193456
 20
552.9808416290534
 30
0.0
 11
1508.288969193456
 21
556.9808416290521
 31
0.0
  0
LINE
  5
260
330
17
100
AcDbEntity
  8
4
100
AcDbLine
 10
1497.788969193456
 20
545.2552566290528
 30
0.0
 11
1497.788969193456
 21
547.4808416290516
 31
0.0
  0
ARC
  5
261
330
17
100
AcDbEntity
  8
4
100
AcDbCircle
 10
1475.288969193456
 20
484.4808416290521
 30
0.0
 40
4.0
100
AcDbArc
 50
90.0
 51
180.0
  0
ARC
  5
262
330
17
100
AcDbEntity
  8
4
100
AcDbCircle
 10
1460.288969193456
 20
498.3900216290526
 30
0.0
 40
3.99994
100
AcDbArc
 50
0.0
 51
113.1880259999996
  0
LINE
  5
263
330
17
100
AcDbEntity
  8
4
100
AcDbLine
 10
1477.288969193456
 20
482.4808416290516
 30
0.0
 11
1483.288969193456
 21
482.4808416290516
 31
0.0
  0
LINE
  5
264
330
17
100
AcDbEntity
  8
4
100
AcDbLine
 10
1558.288969193456
 20
488.480841629053
 30
0.0
 11
1475.288969193456
 21
488.480841629053
 31
0.0
  0
LINE
  5
265
330
17
100
AcDbEntity
  8
4
100
AcDbLine
 10
1510.288969193456
 20
476.4808416290525
 30
0.0
 11
1524.288969193456
 21
476.4808416290525
 31
0.0
  0
LINE
  5
266
330
17
100
AcDbEntity
  8
4
100
AcDbLine
 10
1504.288969193456
 20
482.4808416290516
 30
0.0
 11
1524.288969193456
 21
482.4808416290516
 31
0.0
  0
LINE
  5
267
330
17
100
AcDbEntity
  8
4
100
AcDbLine
 10
1499.788969193456
 20
556.9808416290521
 30
0.0
 11
1533.788969193456
 21
556.9808416290521
 31
0.0
  0
LINE
  5
268
330
17
100
AcDbEntity
  8
4
100
AcDbLine
 10
1499.788969193456
 20
552.9808416290534
 30
0.0
 11
1533.788969193456
 21
552.9808416290534
 31
0.0
  0
LINE
  5
269
330
17
100
AcDbEntity
  8
4
100
AcDbLine
 10
1499.788969193456
 20
549.9808416290516
 30
0.0
 11
1533.788969193456
 21
549.9808416290516
 31
0.0
  0
LINE
  5
26A
330
17
100
AcDbEntity
  8
4
100
AcDbLine
 10
1500.788969193456
 20
547.4808416290516
 30
0.0
 11
1532.788969193456
 21
547.4808416290516
 31
0.0
  0
LINE
  5
26B
330
17
100
AcDbEntity
  8
4
100
AcDbLine
 10
1497.788969193456
 20
547.4808416290516
 30
0.0
 11
1535.788969193456
 21
547.4808416290516
 31
0.0
  0
LINE
  5
26D
330
17
100
AcDbEntity
  8
4
100
AcDbLine
 10
1436.788969193456
 20
541.4708316290516
 30
0.0
 11
1436.788969193456
 21
543.480841629053
 31
0.0
  0
ARC
  5
26E
330
17
100
AcDbEntity
  8
4
100
AcDbCircle
 10
1430.688869193456
 20
547.0362616290531
 30
0.0
 40
1.399915
100
AcDbArc
 50
121.7691819999988
 51
180.0
  0
LINE
  5
26F
330
17
100
AcDbEntity
  8
4
100
AcDbLine
 10
1429.288969193456
 20
543.480841629053
 30
0.0
 11
1429.288969193456
 21
552.4808416290516
 31
0.0
  0
LINE
  5
270
330
17
100
AcDbEntity
  8
4
100
AcDbLine
 10
1416.788969193456
 20
554.4805966290533
 30
0.0
 11
1404.288969193456
 21
552.4805966290528
 31
0.0
  0
ARC
  5
271
330
17
100
AcDbEntity
  8
4
100
AcDbCircle
 10
1402.889064193456
 20
547.036016629052
 30
0.0
 40
1.399915
100
AcDbArc
 50
0.0
 51
58.23083899999963
  0
LINE
  5
272
330
17
100
AcDbEntity
  8
4
100
AcDbLine
 10
1404.288969193456
 20
543.4805966290519
 30
0.0
 11
1404.288969193456
 21
552.4805966290528
 31
0.0
  0
LINE
  5
273
330
17
100
AcDbEntity
  8
4
100
AcDbLine
 10
1429.288969193456
 20
552.4808416290516
 30
0.0
 11
1416.788969193456
 21
554.4805966290533
 31
0.0
  0
LINE
  5
274
330
17
100
AcDbEntity
  8
4
100
AcDbLine
 10
1429.288969193456
 20
543.480841629053
 30
0.0
 11
1404.288969193456
 21
543.4805966290519
 31
0.0
  0
LINE
  5
275
330
17
100
AcDbEntity
  8
4
100
AcDbLine
 10
1404.288969193456
 20
552.4805966290528
 30
0.0
 11
1429.288969193456
 21
552.4808416290516
 31
0.0
  0
LINE
  5
276
330
17
100
AcDbEntity
  8
4
100
AcDbLine
 10
1396.788969193456
 20
543.4805966290519
 30
0.0
 11
1396.788969193456
 21
536.4293266290524
 31
0.0
  0
LINE
  5
277
330
17
100
AcDbEntity
  8
4
100
AcDbLine
 10
1436.788969193456
 20
543.480841629053
 30
0.0
 11
1396.788969193456
 21
543.4805966290519
 31
0.0
  0
LINE
  5
278
330
17
100
AcDbEntity
  8
L-CENTER
  6
CENTER
100
AcDbLine
 10
1416.788969193456
 20
536.4545944197487
 30
0.0
 11
1416.788969193456
 21
602.5068444202041
 31
0.0
  0
ARC
  5
279
330
17
100
AcDbEntity
  8
4
100
AcDbCircle
 10
1416.788969193456
 20
569.4805966290533
 30
0.0
 40
24.999925
100
AcDbArc
 50
300.0007640000001
 51
238.2310270000001
  0
CIRCLE
  5
27A
330
17
100
AcDbEntity
  8
4
100
AcDbCircle
 10
1416.788969193456
 20
569.4805966290533
 30
0.0
 40
15.0
  0
ARC
  5
27B
330
17
100
AcDbEntity
  8
4
100
AcDbCircle
 10
1365.965969193456
 20
526.0428516290522
 30
0.0
 40
4.999965
100
AcDbArc
 50
100.9351859999996
 51
168.4201110000008
  0
LINE
  5
27D
330
17
100
AcDbEntity
  8
L-CENTER
  6
CENTER
100
AcDbLine
 10
1383.762844193456
 20
569.4805966290533
 30
0.0
 11
1449.815094193455
 21
569.4808422108995
 31
0.0
  0
ARC
  5
287
330
17
100
AcDbEntity
  8
4
100
AcDbCircle
 10
1616.788969193456
 20
569.4808416290521
 30
0.0
 40
25.000065
100
AcDbArc
 50
301.7714629999999
 51
240.0007640000003
  0
LINE
  5
288
330
17
100
AcDbEntity
  8
L-CENTER
  6
CENTER
100
AcDbLine
 10
1649.815089193456
 20
569.4808416290521
 30
0.0
 11
1583.762844193228
 21
569.4808416290521
 31
0.0
  0
ARC
  5
289
330
17
100
AcDbEntity
  8
4
100
AcDbCircle
 10
1516.789214193456
 20
-254.5191583709466
 30
0.0
 40
800.0000749999999
100
AcDbArc
 50
79.06442000000001
 51
100.93654
  0
ARC
  5
290
330
17
100
AcDbEntity
  8
4
100
AcDbCircle
 10
1654.695949193456
 20
406.1529616290527
 30
0.0
 40
3.99996
100
AcDbArc
 50
263.1786249999996
 51
16.05107299999984
  0
ARC
  5
291
330
17
100
AcDbEntity
  8
4
100
AcDbCircle
 10
1654.696194193456
 20
326.8087216290523
 30
0.0
 40
3.99993
100
AcDbArc
 50
343.9522819999996
 51
96.82139099999998
  0
LINE
  5
292
330
17
100
AcDbEntity
  8
4
100
AcDbLine
 10
1681.789214193456
 20
261.4803516290526
 30
0.0
 11
1686.789214193456
 21
261.4803516290526
 31
0.0
  0
LINE
  5
293
330
17
100
AcDbEntity
  8
4
100
AcDbLine
 10
1686.789214193456
 20
261.4806266290525
 30
0.0
 11
1698.689214193455
 21
261.4806266290525
 31
0.0
  0
LINE
  5
294
330
17
100
AcDbEntity
  8
4
100
AcDbLine
 10
1698.689214193455
 20
224.0919514918219
 30
0.0
 11
1698.689214193455
 21
243.7218606442689
 31
0.0
  0
LINE
  5
295
330
17
100
AcDbEntity
  8
4
100
AcDbLine
 10
1707.285687247603
 20
228.9994287799341
 30
0.0
 11
1701.189214193455
 21
228.9994287799341
 31
0.0
  0
LINE
  5
296
330
17
100
AcDbEntity
  8
4
100
AcDbLine
 10
1707.285687247603
 20
238.8143833561576
 30
0.0
 11
1701.189214193455
 21
238.8143833561576
 31
0.0
  0
ARC
  5
297
330
17
100
AcDbEntity
  8
4
100
AcDbCircle
 10
1704.405600264396
 20
226.545690135878
 30
0.0
 40
3.783613929059507
100
AcDbArc
 50
319.5701031551734
 51
40.42989684482659
  0
LINE
  5
298
330
17
100
AcDbEntity
  8
4
100
AcDbLine
 10
1708.189214193455
 20
241.2681220002137
 30
0.0
 11
1708.189214193455
 21
226.545690135878
 31
0.0
  0
ARC
  5
299
330
17
100
AcDbEntity
  8
4
100
AcDbCircle
 10
1694.410048895996
 20
233.9069060680454
 30
0.0
 40
13.77916529745958
100
AcDbArc
 50
339.1359356360799
 51
20.86406436392003
  0
ARC
  5
29A
330
17
100
AcDbEntity
  8
4
100
AcDbCircle
 10
1704.405600264396
 20
241.2681220002137
 30
0.0
 40
3.783613929059507
100
AcDbArc
 50
319.5701031551734
 51
40.42989684482659
  0
LINE
  5
29B
330
17
100
AcDbEntity
  8
4
100
AcDbLine
 10
1701.189214193455
 20
224.0919514918219
 30
0.0
 11
1701.189214193455
 21
243.7218606442689
 31
0.0
  0
LINE
  5
29C
330
17
100
AcDbEntity
  8
4
100
AcDbLine
 10
1698.689214193455
 20
243.7218606442689
 30
0.0
 11
1707.285687247603
 21
243.7218606442689
 31
0.0
  0
LINE
  5
29D
330
17
100
AcDbEntity
  8
4
100
AcDbLine
 10
1707.285687247603
 20
224.0919514918219
 30
0.0
 11
1698.689214193455
 21
224.0919514918219
 31
0.0
  0
LINE
  5
29E
330
17
100
AcDbEntity
  8
4
100
AcDbLine
 10
1698.6891970325
 20
158.8690469018874
 30
0.0
 11
1698.689186702755
 21
139.2391377494431
 31
0.0
  0
LINE
  5
29F
330
17
100
AcDbEntity
  8
4
100
AcDbLine
 10
1701.1891970325
 20
158.8690455863253
 30
0.0
 11
1701.189186702755
 21
139.2391364338811
 31
0.0
  0
ARC
  5
2A0
330
17
100
AcDbEntity
  8
4
100
AcDbCircle
 10
1704.405581812222
 20
156.4153052497275
 30
0.0
 40
3.783613929059507
100
AcDbArc
 50
319.5700730047134
 51
40.42986669436894
  0
LINE
  5
2A1
330
17
100
AcDbEntity
  8
4
100
AcDbLine
 10
1708.189187993972
 20
141.6928713943623
 30
0.0
 11
1708.189195741281
 21
156.415303258696
 31
0.0
  0
ARC
  5
2A2
330
17
100
AcDbEntity
  8
4
100
AcDbCircle
 10
1694.410026570169
 20
149.054094577468
 30
0.0
 40
13.77916529745958
100
AcDbArc
 50
339.1359054856202
 51
20.86403421345999
  0
ARC
  5
2A3
330
17
100
AcDbEntity
  8
4
100
AcDbCircle
 10
1704.405574064913
 20
141.6928733853938
 30
0.0
 40
3.783613929059507
100
AcDbArc
 50
319.5700730047134
 51
40.42986669436894
  0
LINE
  5
2A4
330
17
100
AcDbEntity
  8
4
100
AcDbLine
 10
1707.285667504211
 20
153.9615650900985
 30
0.0
 11
1701.189194450064
 21
153.9615682982138
 31
0.0
  0
LINE
  5
2A5
330
17
100
AcDbEntity
  8
4
100
AcDbLine
 10
1707.285662339338
 20
144.1466105138763
 30
0.0
 11
1701.189189285192
 21
144.1466137219917
 31
0.0
  0
LINE
  5
2A6
330
17
100
AcDbEntity
  8
4
100
AcDbLine
 10
1698.689186702755
 20
139.2391377494431
 30
0.0
 11
1707.285659756902
 21
139.2391332257657
 31
0.0
  0
LINE
  5
2A7
330
17
100
AcDbEntity
  8
4
100
AcDbLine
 10
1707.285670086647
 20
158.86904237821
 30
0.0
 11
1698.6891970325
 21
158.8690469018874
 31
0.0
  0
LINE
  5
2A8
330
17
100
AcDbEntity
  8
4
100
AcDbLine
 10
1681.789214193456
 20
121.4808416290525
 30
0.0
 11
1686.789214193456
 21
121.4808416290525
 31
0.0
  0
LINE
  5
2A9
330
17
100
AcDbEntity
  8
4
100
AcDbLine
 10
1686.789214193456
 20
121.4806266290525
 30
0.0
 11
1698.689214193455
 21
121.4806266290525
 31
0.0
  0
LINE
  5
2AA
330
17
100
AcDbEntity
  8
L-CENTER
100
AcDbLine
 10
1665.085398864177
 20
149.0541055069457
 30
0.0
 11
1711.057170122206
 21
149.0540858173283
 31
0.0
  0
LINE
  5
2AB
330
17
100
AcDbEntity
  8
4
100
AcDbLine
 10
1698.689214193455
 20
261.4806266290525
 30
0.0
 11
1698.689214193455
 21
121.4806266290525
 31
0.0
  0
LINE
  5
2AC
330
17
100
AcDbEntity
  8
4
100
AcDbLine
 10
1686.789214193456
 20
261.4806266290525
 30
0.0
 11
1686.789214193456
 21
121.4806266290525
 31
0.0
  0
LINE
  5
2AD
330
17
100
AcDbEntity
  8
4
100
AcDbLine
 10
1686.789214193456
 20
121.4808416290525
 30
0.0
 11
1686.789214193456
 21
261.4808416290525
 31
0.0
  0
ARC
  5
2AE
330
17
100
AcDbEntity
  8
4
100
AcDbCircle
 10
1668.659819193456
 20
212.1219566290533
 30
0.0
 40
4.999995
100
AcDbArc
 50
281.0147509999989
 51
348.8052900000006
  0
LINE
  5
2B4
330
17
100
AcDbEntity
  8
4
100
AcDbLine
 10
1701.789214193456
 20
68.48084162905297
 30
0.0
 11
1701.789214193456
 21
41.48084162905252
 31
0.0
  0
ARC
  5
2B5
330
17
100
AcDbEntity
  8
4
100
AcDbCircle
 10
1698.789214193456
 20
68.48084162905297
 30
0.0
 40
3.0
100
AcDbArc
 50
0.0
 51
90.0
  0
LINE
  5
2B8
330
17
100
AcDbEntity
  8
4
100
AcDbLine
 10
1631.789214193456
 20
41.48084162905252
 30
0.0
 11
1631.789214193456
 21
71.48084162905252
 31
0.0
  0
LINE
  5
2B9
330
17
100
AcDbEntity
  8
L-CENTER
  6
CENTER
100
AcDbLine
 10
1656.789214193456
 20
25.48084162905252
 30
0.0
 11
1656.789214193456
 21
87.48084162905252
 31
0.0
  0
LINE
  5
2C5
330
17
100
AcDbEntity
  8
4
100
AcDbLine
 10
1681.789214193456
 20
71.48084162905252
 30
0.0
 11
1681.789214193456
 21
260.8824516290524
 31
0.0
  0
LINE
  5
2C6
330
17
100
AcDbEntity
  8
4
100
AcDbLine
 10
1596.789214193456
 20
81.48084162905252
 30
0.0
 11
1596.789214193456
 21
187.4964666290525
 31
0.0
  0
ARC
  5
2C8
330
17
100
AcDbEntity
  8
4
100
AcDbCircle
 10
1577.288969193456
 20
440.8653616290535
 30
0.0
 40
7.999955
100
AcDbArc
 50
180.0017480005757
 51
262.8526470000001
  0
ARC
  5
2C9
330
17
100
AcDbEntity
  8
4
100
AcDbCircle
 10
1558.288969193456
 20
450.4808416290534
 30
0.0
 40
4.0
100
AcDbArc
 50
270.0
 51
0.0
  0
ARC
  5
2CA
330
17
100
AcDbEntity
  8
4
100
AcDbCircle
 10
1592.204494193456
 20
417.6578416290527
 30
0.0
 40
7.999955
100
AcDbArc
 50
185.7834979999997
 51
263.1803530000003
  0
ARC
  5
2CB
330
17
100
AcDbEntity
  8
4
100
AcDbCircle
 10
1572.623439193456
 20
422.3153116290523
 30
0.0
 40
6.000005000000001
100
AcDbArc
 50
6.490554000001487
 51
83.50972000000034
  0
ARC
  5
2CC
330
17
100
AcDbEntity
  8
4
100
AcDbCircle
 10
1575.297759193456
 20
424.9896316290533
 30
0.0
 40
8.000105
100
AcDbArc
 50
6.828331000000277
 51
83.17166899999972
  0
CIRCLE
  5
2CD
330
17
100
AcDbEntity
  8
4
100
AcDbCircle
 10
1546.288969193456
 20
462.4808416290516
 30
0.0
 40
4.0
  0
LINE
  5
2CE
330
17
100
AcDbEntity
  8
4
100
AcDbLine
 10
1524.288969193456
 20
452.4808416290516
 30
0.0
 11
1524.288969193456
 21
458.480841629053
 31
0.0
  0
LINE
  5
2CF
330
17
100
AcDbEntity
  8
4
100
AcDbLine
 10
1527.288969193456
 20
464.4808416290521
 30
0.0
 11
1533.288969193456
 21
464.4808416290521
 31
0.0
  0
LINE
  5
2D0
330
17
100
AcDbEntity
  8
4
100
AcDbLine
 10
1527.288969193456
 20
470.4808416290534
 30
0.0
 11
1533.288969193456
 21
470.4808416290534
 31
0.0
  0
LINE
  5
2D1
330
17
100
AcDbEntity
  8
4
100
AcDbLine
 10
1527.288969193456
 20
464.4808416290521
 30
0.0
 11
1527.288969193456
 21
470.4808416290534
 31
0.0
  0
LINE
  5
2D2
330
17
100
AcDbEntity
  8
4
100
AcDbLine
 10
1524.288969193456
 20
470.4808416290534
 30
0.0
 11
1524.288969193456
 21
464.4808416290521
 31
0.0
  0
LINE
  5
2D3
330
17
100
AcDbEntity
  8
4
100
AcDbLine
 10
1533.288969193456
 20
464.4808416290521
 30
0.0
 11
1533.288969193456
 21
470.4808416290534
 31
0.0
  0
ARC
  5
2D4
330
17
100
AcDbEntity
  8
4
100
AcDbCircle
 10
1592.204739193456
 20
315.3038416290524
 30
0.0
 40
7.999955
100
AcDbArc
 50
96.82138300000058
 51
174.2182469999999
  0
ARC
  5
2D5
330
17
100
AcDbEntity
  8
4
100
AcDbCircle
 10
1572.623684193456
 20
310.6463666290533
 30
0.0
 40
6.000005000000001
100
AcDbArc
 50
276.4928680000002
 51
353.5120349999997
  0
ARC
  5
2D6
330
17
100
AcDbEntity
  8
4
100
AcDbCircle
 10
1575.297999193456
 20
307.9722966290528
 30
0.0
 40
8.000119999999999
100
AcDbArc
 50
276.8300650000004
 51
353.1716700000004
  0
ARC
  5
2D7
330
17
100
AcDbEntity
  8
4
100
AcDbCircle
 10
1086.788969193456
 20
366.4805966290514
 30
0.0
 40
499.9999350000001
100
AcDbArc
 50
353.1714379999999
 51
6.830195999999989
  0
ARC
  5
2D8
330
17
100
AcDbEntity
  8
4
100
AcDbCircle
 10
1081.788969193456
 20
366.4805966290514
 30
0.0
 40
499.999975
100
AcDbArc
 50
353.5114080000001
 51
6.489913999999886
  0
LINE
  5
2D9
330
17
100
AcDbEntity
  8
4
100
AcDbLine
 10
1510.288969193456
 20
464.4808416290521
 30
0.0
 11
1510.288969193456
 21
458.480841629053
 31
0.0
  0
LINE
  5
2DA
330
17
100
AcDbEntity
  8
4
100
AcDbLine
 10
1497.288969193456
 20
452.4808416290516
 30
0.0
 11
1497.288969193456
 21
458.480841629053
 31
0.0
  0
LINE
  5
2DB
330
17
100
AcDbEntity
  8
4
100
AcDbLine
 10
1483.288969193456
 20
458.480841629053
 30
0.0
 11
1497.288969193456
 21
458.480841629053
 31
0.0
  0
ARC
  5
2DC
330
17
100
AcDbEntity
  8
4
100
AcDbCircle
 10
1475.288969193456
 20
450.4808416290534
 30
0.0
 40
4.0
100
AcDbArc
 50
180.0
 51
270.0
  0
ARC
  5
2DD
330
17
100
AcDbEntity
  8
4
100
AcDbCircle
 10
1456.288969193456
 20
440.8653616290535
 30
0.0
 40
8.000035
100
AcDbArc
 50
276.8406909999999
 51
0.0
  0
ARC
  5
2DE
330
17
100
AcDbEntity
  8
4
100
AcDbCircle
 10
1441.373439193456
 20
417.6578416290527
 30
0.0
 40
7.999960000000001
100
AcDbArc
 50
276.8231169999999
 51
354.2199859999996
  0
ARC
  5
2DF
330
17
100
AcDbEntity
  8
4
100
AcDbCircle
 10
1460.954494193456
 20
422.3153116290523
 30
0.0
 40
6.000005000000001
100
AcDbArc
 50
96.49054300000047
 51
173.5097110000003
  0
ARC
  5
2E0
330
17
100
AcDbEntity
  8
4
100
AcDbCircle
 10
1458.280179193456
 20
424.9896316290533
 30
0.0
 40
8.000015000000001
100
AcDbArc
 50
96.83200899999967
 51
173.1716690000001
  0
LINE
  5
2E1
330
17
100
AcDbEntity
  8
4
100
AcDbLine
 10
1477.288969193456
 20
452.4808416290516
 30
0.0
 11
1497.288969193456
 21
452.4808416290516
 31
0.0
  0
ARC
  5
2E2
330
17
100
AcDbEntity
  8
4
100
AcDbCircle
 10
1460.954739193456
 20
310.6463666290533
 30
0.0
 40
6.000005000000001
100
AcDbArc
 50
186.4928689999999
 51
263.5120349999999
  0
ARC
  5
2E3
330
17
100
AcDbEntity
  8
4
100
AcDbCircle
 10
1458.280669193456
 20
307.9720516290517
 30
0.0
 40
8.000015000000001
100
AcDbArc
 50
186.8320160000004
 51
263.1716699999993
  0
ARC
  5
2E4
330
17
100
AcDbEntity
  8
4
100
AcDbCircle
 10
1441.373684193456
 20
315.3038416290524
 30
0.0
 40
7.999970000000001
100
AcDbArc
 50
5.781753000000277
 51
83.17688199999968
  0
ARC
  5
2E5
330
17
100
AcDbEntity
  8
4
100
AcDbCircle
 10
1946.788969193456
 20
366.4813316290524
 30
0.0
 40
500.00008
100
AcDbArc
 50
173.1713000000001
 51
186.831039
  0
ARC
  5
2E6
330
17
100
AcDbEntity
  8
4
100
AcDbCircle
 10
1951.788969193456
 20
366.4813316290524
 30
0.0
 40
500.00002
100
AcDbArc
 50
173.5113520000001
 51
186.490449
  0
ARC
  5
2E7
330
17
100
AcDbEntity
  8
4
100
AcDbCircle
 10
1516.788479193456
 20
801.4808416290525
 30
0.0
 40
499.999995
100
AcDbArc
 50
263.511661
 51
276.4907019999999
  0
ARC
  5
2E8
330
17
100
AcDbEntity
  8
4
100
AcDbCircle
 10
1516.788479193456
 20
796.4808416290525
 30
0.0
 40
500.0
100
AcDbArc
 50
263.171553
 51
276.8308999999999
  0
ARC
  5
2E9
330
17
100
AcDbEntity
  8
4
100
AcDbCircle
 10
1516.789214193456
 20
-68.51915837094748
 30
0.0
 40
499.999985
100
AcDbArc
 50
83.510648
 51
96.490421
  0
ARC
  5
2EA
330
17
100
AcDbEntity
  8
4
100
AcDbCircle
 10
1516.789214193456
 20
-63.51915837094748
 30
0.0
 40
499.99997
100
AcDbArc
 50
83.17067800000001
 51
96.83067500000001
  0
LINE
  5
2EB
330
17
100
AcDbEntity
  8
4
100
AcDbLine
 10
1558.288969193456
 20
446.4808416290525
 30
0.0
 11
1475.288969193456
 21
446.4808416290525
 31
0.0
  0
LINE
  5
2EC
330
17
100
AcDbEntity
  8
4
100
AcDbLine
 10
1504.288969193456
 20
452.4808416290516
 30
0.0
 11
1524.288969193456
 21
452.4808416290516
 31
0.0
  0
LINE
  5
2ED
330
17
100
AcDbEntity
  8
4
100
AcDbLine
 10
1510.288969193456
 20
458.480841629053
 30
0.0
 11
1524.288969193456
 21
458.480841629053
 31
0.0
  0
LINE
  5
2EE
330
17
100
AcDbEntity
  8
4
100
AcDbLine
 10
1510.288969193456
 20
464.4808416290521
 30
0.0
 11
1524.288969193456
 21
464.4808416290521
 31
0.0
  0
LINE
  5
2EF
330
17
100
AcDbEntity
  8
4
100
AcDbLine
 10
1510.288969193456
 20
470.4808416290534
 30
0.0
 11
1524.288969193456
 21
470.4808416290534
 31
0.0
  0
ARC
  5
2F0
330
17
100
AcDbEntity
  8
4
100
AcDbCircle
 10
1556.461329193456
 20
228.5738566290529
 30
0.0
 40
3.99996
100
AcDbArc
 50
173.1786090000005
 51
286.0510769999999
  0
LINE
  5
2F1
330
17
100
AcDbEntity
  8
4
100
AcDbLine
 10
1552.489654193455
 20
229.0489566290516
 30
0.0
 11
1560.022854193456
 21
292.0157516290515
 31
0.0
  0
LINE
  5
2F2
330
17
100
AcDbEntity
  8
4
100
AcDbLine
 10
1529.779689193456
 20
173.9808416290525
 30
0.0
 11
1529.779689193456
 21
188.9808416290525
 31
0.0
  0
LINE
  5
2F3
330
17
100
AcDbEntity
  8
4
100
AcDbLine
 10
1481.088774193455
 20
229.0489566290516
 30
0.0
 11
1473.555569193456
 21
292.0155116290521
 31
0.0
  0
ARC
  5
2F4
330
17
100
AcDbEntity
  8
4
100
AcDbCircle
 10
1477.117094193456
 20
228.5738566290529
 30
0.0
 40
3.99993
100
AcDbArc
 50
253.9522820000001
 51
6.82138900000014
  0
LINE
  5
2F5
330
17
100
AcDbEntity
  8
4
100
AcDbLine
 10
1516.789214193456
 20
196.4808416290525
 30
0.0
 11
1503.798979193456
 21
188.9808416290525
 31
0.0
  0
LINE
  5
2F6
330
17
100
AcDbEntity
  8
4
100
AcDbLine
 10
1503.798979193456
 20
173.9808416290525
 30
0.0
 11
1516.789214193456
 21
166.4808416290525
 31
0.0
  0
LINE
  5
2F7
330
17
100
AcDbEntity
  8
4
100
AcDbLine
 10
1503.798979193456
 20
173.9808416290525
 30
0.0
 11
1503.798979193456
 21
188.9808416290525
 31
0.0
  0
LINE
  5
2F8
330
17
100
AcDbEntity
  8
4
100
AcDbLine
 10
1529.779689193456
 20
188.9808416290525
 30
0.0
 11
1516.789214193456
 21
196.4808416290525
 31
0.0
  0
CIRCLE
  5
2F9
330
17
100
AcDbEntity
  8
4
100
AcDbCircle
 10
1516.789214193456
 20
181.4808416290525
 30
0.0
 40
15.0
  0
CIRCLE
  5
2FA
330
17
100
AcDbEntity
  8
4
100
AcDbCircle
 10
1516.789214193456
 20
181.4808416290525
 30
0.0
 40
22.5
  0
LINE
  5
2FB
330
17
100
AcDbEntity
  8
L-CENTER
  6
CENTER
100
AcDbLine
 10
1486.686429193456
 20
181.4808416290525
 30
0.0
 11
1546.891948897801
 21
181.4808416290525
 31
0.0
  0
LINE
  5
2FC
330
17
100
AcDbEntity
  8
4
100
AcDbLine
 10
1516.789214193456
 20
166.4808416290525
 30
0.0
 11
1529.779689193456
 21
173.9808416290525
 31
0.0
  0
ARC
  5
2FD
330
17
100
AcDbEntity
  8
4
100
AcDbCircle
 10
1465.612209193456
 20
291.0653116290523
 30
0.0
 40
7.999960000000001
100
AcDbArc
 50
6.821388999999712
 51
84.21824800000047
  0
ARC
  5
2FE
330
17
100
AcDbEntity
  8
4
100
AcDbCircle
 10
1567.966214193455
 20
291.0653116290523
 30
0.0
 40
7.999970000000001
100
AcDbArc
 50
95.78349099999937
 51
173.1786100000002
  0
ARC
  5
2FF
330
17
100
AcDbEntity
  8
4
100
AcDbCircle
 10
1378.881984193456
 20
406.1527166290516
 30
0.0
 40
3.99993
100
AcDbArc
 50
163.9522859999993
 51
276.8213750000006
  0
ARC
  5
300
330
17
100
AcDbEntity
  8
4
100
AcDbCircle
 10
1378.882229193456
 20
326.8084766290535
 30
0.0
 40
3.99996
100
AcDbArc
 50
83.1786249999996
 51
196.0510769999999
  0
ARC
  5
301
330
17
100
AcDbEntity
  8
4
100
AcDbCircle
 10
1312.718169193455
 20
360.4097966290515
 30
0.0
 40
5.000055
100
AcDbArc
 50
7.648990999999619
 51
82.35099600000126
  0
ARC
  5
302
330
17
100
AcDbEntity
  8
4
100
AcDbCircle
 10
1317.100734193456
 20
364.7923666290517
 30
0.0
 40
5.0
100
AcDbArc
 50
8.386482000000173
 51
81.613518
  0
ARC
  5
303
330
17
100
AcDbEntity
  8
4
100
AcDbCircle
 10
1320.409819193456
 20
398.4805966290519
 30
0.0
 40
24.999995
100
AcDbArc
 50
270.0011180000001
 51
357.7786690000001
  0
ARC
  5
304
330
17
100
AcDbEntity
  8
4
100
AcDbCircle
 10
1426.789214193456
 20
187.4962216290514
 30
0.0
 40
9.999955
100
AcDbArc
 50
0.0
 51
83.62072599999955
  0
ARC
  5
305
330
17
100
AcDbEntity
  8
4
100
AcDbCircle
 10
1364.918609193456
 20
212.1212216290523
 30
0.0
 40
4.99997
100
AcDbArc
 50
191.1947189999999
 51
258.9879929999989
  0
ARC
  5
306
330
17
100
AcDbEntity
  8
4
100
AcDbCircle
 10
1316.789214193456
 20
254.0194166290535
 30
0.0
 40
5.000025
100
AcDbArc
 50
98.09805900000121
 51
180.0
  0
ARC
  5
307
330
17
100
AcDbEntity
  8
4
100
AcDbCircle
 10
1312.718409193456
 20
268.5513966290528
 30
0.0
 40
5.000055
100
AcDbArc
 50
277.6490039999987
 51
352.3510090000004
  0
ARC
  5
308
330
17
100
AcDbEntity
  8
4
100
AcDbCircle
 10
1317.100979193456
 20
264.168831629052
 30
0.0
 40
4.999979999999999
100
AcDbArc
 50
278.3864820000011
 51
351.6162840000002
  0
ARC
  5
309
330
17
100
AcDbEntity
  8
4
100
AcDbCircle
 10
970.7892141934558
 20
314.4805966290533
 30
0.0
 40
349.99999
100
AcDbArc
 50
352.350755
 51
7.650494000000029
  0
ARC
  5
30A
330
17
100
AcDbEntity
  8
4
100
AcDbCircle
 10
975.7892141934558
 20
314.4805966290533
 30
0.0
 40
349.99996
100
AcDbArc
 50
351.615739
 51
8.385430999999974
  0
ARC
  5
30B
330
17
100
AcDbEntity
  8
4
100
AcDbCircle
 10
1516.788234193456
 20
992.4808416290516
 30
0.0
 40
800.00002
100
AcDbArc
 50
258.98858
 51
268.6048339999999
  0
LINE
  5
30C
330
17
100
AcDbEntity
  8
4
100
AcDbLine
 10
1379.357084193456
 20
402.181036629052
 30
0.0
 11
1442.323634193456
 21
409.7144816290534
 31
0.0
  0
LINE
  5
30D
330
17
100
AcDbEntity
  8
4
100
AcDbLine
 10
1379.357329193456
 20
330.7801566290532
 30
0.0
 11
1442.324124193456
 21
323.2471966290523
 31
0.0
  0
LINE
  5
30E
330
17
100
AcDbEntity
  8
4
100
AcDbLine
 10
1581.789214193456
 20
41.48084162905252
 30
0.0
 11
1581.789214193456
 21
71.48084162905252
 31
0.0
  0
LINE
  5
30F
330
17
100
AcDbEntity
  8
2
100
AcDbLine
 10
1521.418329193456
 20
78.8081116290532
 30
0.0
 11
1521.418329193456
 21
84.15357162905184
 31
0.0
  0
LINE
  5
310
330
17
100
AcDbEntity
  8
4
100
AcDbLine
 10
1531.789214193456
 20
61.48084162905252
 30
0.0
 11
1531.789214193456
 21
81.48084162905252
 31
0.0
  0
LINE
  5
311
330
17
100
AcDbEntity
  8
2
100
AcDbLine
 10
1516.789214193456
 20
86.82618662905315
 30
0.0
 11
1512.159999193456
 21
84.15342162905335
 31
0.0
  0
LINE
  5
312
330
17
100
AcDbEntity
  8
2
100
AcDbLine
 10
1512.159999193456
 20
84.15342162905335
 30
0.0
 11
1512.159999193456
 21
78.80826162905169
 31
0.0
  0
LINE
  5
313
330
17
100
AcDbEntity
  8
2
100
AcDbLine
 10
1512.159999193456
 20
78.80826162905169
 30
0.0
 11
1516.789214193456
 21
76.13549662905189
 31
0.0
  0
LINE
  5
314
330
17
100
AcDbEntity
  8
4
100
AcDbLine
 10
1501.789214193456
 20
61.48084162905252
 30
0.0
 11
1501.789214193456
 21
81.48084162905252
 31
0.0
  0
ARC
  5
316
330
17
100
AcDbEntity
  8
4
100
AcDbCircle
 10
1516.789214193456
 20
81.48084162905252
 30
0.0
 40
15.0
100
AcDbArc
 50
0.0
 51
180.0009320002106
  0
CIRCLE
  5
317
330
17
100
AcDbEntity
  8
2
100
AcDbCircle
 10
1516.789214193456
 20
81.48084162905252
 30
0.0
 40
6.5
  0
LINE
  5
318
330
17
100
AcDbEntity
  8
L-CENTER
  6
CENTER
100
AcDbLine
 10
1537.770069529958
 20
81.48084162905252
 30
0.0
 11
1495.808344689762
 21
81.48084162905252
 31
0.0
  0
LINE
  5
319
330
17
100
AcDbEntity
  8
2
100
AcDbLine
 10
1516.789214193456
 20
76.13549662905189
 30
0.0
 11
1521.418329193456
 21
78.8081116290532
 31
0.0
  0
LINE
  5
31A
330
17
100
AcDbEntity
  8
2
100
AcDbLine
 10
1521.418329193456
 20
84.15357162905184
 30
0.0
 11
1516.789214193456
 21
86.82618662905315
 31
0.0
  0
ARC
  5
31C
330
17
100
AcDbEntity
  8
4
100
AcDbCircle
 10
1426.789214193456
 20
81.48084162905252
 30
0.0
 40
10.0
100
AcDbArc
 50
270.0013980000001
 51
0.0
  0
LINE
  5
31D
330
17
100
AcDbEntity
  8
4
100
AcDbLine
 10
1326.789214193456
 20
41.48059662905143
 30
0.0
 11
1326.789214193456
 21
71.48059662905143
 31
0.0
  0
LINE
  5
31E
330
17
100
AcDbEntity
  8
4
100
AcDbLine
 10
1326.789214193456
 20
61.48059662905143
 30
0.0
 11
1581.789214193456
 21
61.48084162905252
 31
0.0
  0
LINE
  5
321
330
17
100
AcDbEntity
  8
4
100
AcDbLine
 10
1311.789214193456
 20
254.0194166290535
 30
0.0
 11
1311.789214193456
 21
97.12268662905262
 31
0.0
  0
LINE
  5
322
330
17
100
AcDbEntity
  8
4
100
AcDbLine
 10
1436.789214193456
 20
187.4962216290514
 30
0.0
 11
1436.789214193456
 21
81.48084162905252
 31
0.0
  0
LINE
  5
323
330
17
100
AcDbEntity
  8
4
100
AcDbLine
 10
1279.288679193456
 20
398.4804736289664
 30
0.0
 11
1279.288679193456
 21
385.4804736289664
 31
0.0
  0
LINE
  5
324
330
17
100
AcDbEntity
  8
4
100
AcDbLine
 10
1280.788679193456
 20
400.4804736289664
 30
0.0
 11
1280.788679193456
 21
398.4804736289664
 31
0.0
  0
LINE
  5
325
330
17
100
AcDbEntity
  8
4
100
AcDbLine
 10
1280.788679193456
 20
400.4804736289664
 30
0.0
 11
1279.288679193456
 21
401.4804736289664
 31
0.0
  0
LINE
  5
326
330
17
100
AcDbEntity
  8
4
100
AcDbLine
 10
1254.288679193456
 20
398.4804736289664
 30
0.0
 11
1254.288679193456
 21
385.4804736289664
 31
0.0
  0
LINE
  5
327
330
17
100
AcDbEntity
  8
4
100
AcDbLine
 10
1252.788678193456
 20
400.4804736289664
 30
0.0
 11
1252.788679193456
 21
398.4804736289664
 31
0.0
  0
LINE
  5
328
330
17
100
AcDbEntity
  8
4
100
AcDbLine
 10
1254.288679193456
 20
401.4804736289664
 30
0.0
 11
1252.788679193456
 21
400.4804736289664
 31
0.0
  0
LINE
  5
329
330
17
100
AcDbEntity
  8
4
100
AcDbLine
 10
1278.288679193456
 20
385.4804736289664
 30
0.0
 11
1254.288679193456
 21
385.4804736289664
 31
0.0
  0
LINE
  5
32A
330
17
100
AcDbEntity
  8
4
100
AcDbLine
 10
1279.288679193456
 20
385.4804736289664
 30
0.0
 11
1254.288679193456
 21
385.4804736289664
 31
0.0
  0
LINE
  5
32B
330
17
100
AcDbEntity
  8
4
100
AcDbLine
 10
1279.288679193456
 20
401.4804736289664
 30
0.0
 11
1254.288679193456
 21
401.4804736289664
 31
0.0
  0
LINE
  5
32C
330
17
100
AcDbEntity
  8
4
100
AcDbLine
 10
1280.788679193456
 20
398.4804736289664
 30
0.0
 11
1252.788679193456
 21
398.4804736289664
 31
0.0
  0
LINE
  5
32D
330
17
100
AcDbEntity
  8
4
100
AcDbLine
 10
1280.788679193456
 20
400.4804736289664
 30
0.0
 11
1252.788679193456
 21
400.4804736289664
 31
0.0
  0
LINE
  5
32E
330
17
100
AcDbEntity
  8
4
100
AcDbLine
 10
1272.788679193456
 20
380.3673946289662
 30
0.0
 11
1272.788679193456
 21
373.4804736289664
 31
0.0
  0
ARC
  5
32F
330
17
100
AcDbEntity
  8
4
100
AcDbCircle
 10
1263.789114193456
 20
369.2313436289662
 30
0.0
 40
9.249130000000001
100
AcDbArc
 50
71.07445700000008
 51
108.9255429999999
  0
LINE
  5
330
330
17
100
AcDbEntity
  8
4
100
AcDbLine
 10
1260.788679193456
 20
379.9804736289664
 30
0.0
 11
1260.788679193456
 21
373.4804736289664
 31
0.0
  0
ARC
  5
331
330
17
100
AcDbEntity
  8
4
100
AcDbCircle
 10
1269.788824193456
 20
369.2313436289662
 30
0.0
 40
9.249130000000001
100
AcDbArc
 50
71.07445700000008
 51
108.9255429999999
  0
ARC
  5
337
330
17
100
AcDbEntity
  8
4
100
AcDbCircle
 10
1220.859769193456
 20
360.4097966290515
 30
0.0
 40
5.000055
100
AcDbArc
 50
97.64900399999874
 51
172.3510090000004
  0
ARC
  5
338
330
17
100
AcDbEntity
  8
4
100
AcDbCircle
 10
1216.477199193456
 20
364.7923666290517
 30
0.0
 40
5.0
100
AcDbArc
 50
98.38648200000002
 51
171.6135179999998
  0
ARC
  5
339
330
17
100
AcDbEntity
  8
4
100
AcDbCircle
 10
1255.288679193456
 20
379.9804736289664
 30
0.0
 40
5.5
100
AcDbArc
 50
0.0
 51
90.96750600000075
  0
ARC
  5
33A
330
17
100
AcDbEntity
  8
4
100
AcDbCircle
 10
1278.288679193456
 20
379.9804736289664
 30
0.0
 40
5.5
100
AcDbArc
 50
90.0
 51
180.0
  0
LINE
  5
33B
330
17
100
AcDbEntity
  8
4
100
AcDbLine
 10
1201.789214193455
 20
320.4805966290523
 30
0.0
 11
1203.789214193456
 21
320.4805966290523
 31
0.0
  0
LINE
  5
33C
330
17
100
AcDbEntity
  8
4
100
AcDbLine
 10
1201.788884193456
 20
316.373931629053
 30
0.0
 11
1201.789214193455
 21
316.373931629053
 31
0.0
  0
LINE
  5
33D
330
17
100
AcDbEntity
  8
4
100
AcDbLine
 10
1207.932034193455
 20
324.4805966290533
 30
0.0
 11
1203.789214193456
 21
324.4805966290533
 31
0.0
  0
LINE
  5
33E
330
17
100
AcDbEntity
  8
4
100
AcDbLine
 10
1184.789214193456
 20
320.4806266290534
 30
0.0
 11
1201.789214193455
 21
320.4806266290534
 31
0.0
  0
LINE
  5
33F
330
17
100
AcDbEntity
  8
L-CENTER
100
AcDbLine
 10
1171.419751859652
 20
295.4038860950859
 30
0.0
 11
1215.092004755287
 21
295.4038860950859
 31
0.0
  0
ARC
  5
340
330
17
100
AcDbEntity
  8
4
100
AcDbCircle
 10
1226.789214193455
 20
252.7413416290533
 30
0.0
 40
5.000055
100
AcDbArc
 50
83.52942900000095
 51
180.0
  0
ARC
  5
341
330
17
100
AcDbEntity
  8
4
100
AcDbCircle
 10
1216.477444193456
 20
264.168831629052
 30
0.0
 40
5.0
100
AcDbArc
 50
188.3864809999997
 51
261.6135060000012
  0
ARC
  5
342
330
17
100
AcDbEntity
  8
4
100
AcDbCircle
 10
1220.860014193455
 20
268.5513966290528
 30
0.0
 40
5.000055
100
AcDbArc
 50
187.6489909999996
 51
262.3510080000005
  0
LINE
  5
343
330
17
100
AcDbEntity
  8
4
100
AcDbLine
 10
1183.789214193456
 20
261.4806266290525
 30
0.0
 11
1184.551307321057
 21
288.1538860950859
 31
0.0
  0
LINE
  5
344
330
17
100
AcDbEntity
  8
4
100
AcDbLine
 10
1166.789214193455
 20
256.4806266290525
 30
0.0
 11
1183.789214193456
 21
261.4806266290525
 31
0.0
  0
LINE
  5
345
330
17
100
AcDbEntity
  8
4
100
AcDbLine
 10
1183.789214193456
 20
121.4806266290525
 30
0.0
 11
1183.789214193456
 21
184.230634410313
 31
0.0
  0
LINE
  5
346
330
17
100
AcDbEntity
  8
4
100
AcDbLine
 10
1166.789214193455
 20
126.4806266290525
 30
0.0
 11
1183.789214193456
 21
121.4806266290525
 31
0.0
  0
LINE
  5
347
330
17
100
AcDbEntity
  8
4
100
AcDbLine
 10
1166.789214193455
 20
256.4806266290525
 30
0.0
 11
1166.789214193455
 21
126.4806266290525
 31
0.0
  0
LINE
  5
348
330
17
100
AcDbEntity
  8
4
100
AcDbLine
 10
1183.789214193456
 20
198.7306344103132
 30
0.0
 11
1183.789214193456
 21
261.4806266290525
 31
0.0
  0
LINE
  5
349
330
17
100
AcDbEntity
  8
L-CENTER
  6
CENTER
100
AcDbLine
 10
1266.788969193456
 20
244.8480166290533
 30
0.0
 11
1266.788969193456
 21
405.1705799796182
 31
0.0
  0
ARC
  5
34A
330
17
100
AcDbEntity
  8
4
100
AcDbCircle
 10
1557.789214193456
 20
314.4808416290521
 30
0.0
 40
349.9999550000001
100
AcDbArc
 50
171.615496
 51
188.3859960000001
  0
ARC
  5
34B
330
17
100
AcDbEntity
  8
4
100
AcDbCircle
 10
1562.789214193456
 20
314.4808416290521
 30
0.0
 40
350.00001
100
AcDbArc
 50
172.350473
 51
187.65146
  0
LINE
  5
354
330
17
100
AcDbEntity
  8
4
100
AcDbLine
 10
1276.789214193456
 20
41.48059662905143
 30
0.0
 11
1276.789214193456
 21
71.48059662905143
 31
0.0
  0
LINE
  5
355
330
17
100
AcDbEntity
  8
L-CENTER
  6
CENTER
100
AcDbLine
 10
1251.789214193456
 20
25.48084162905252
 30
0.0
 11
1251.789214193456
 21
87.48084162905252
 31
0.0
  0
LINE
  5
356
330
17
100
AcDbEntity
  8
4
100
AcDbLine
 10
1204.789214193456
 20
97.12268662905262
 30
0.0
 11
1203.789214193456
 21
97.12268662905262
 31
0.0
  0
ARC
  5
357
330
17
100
AcDbEntity
  8
4
100
AcDbCircle
 10
1204.789214193456
 20
95.12268662905217
 30
0.0
 40
2.0
100
AcDbArc
 50
0.0
 51
90.0
  0
LINE
  5
358
330
17
100
AcDbEntity
  8
4
100
AcDbLine
 10
1201.789214193455
 20
62.4805966290528
 30
0.0
 11
1203.789214193456
 21
62.4805966290528
 31
0.0
  0
ARC
  5
359
330
17
100
AcDbEntity
  8
4
100
AcDbCircle
 10
1209.789214193456
 20
68.48059662905189
 30
0.0
 40
3.0
100
AcDbArc
 50
90.0
 51
180.0
  0
LINE
  5
35A
330
17
100
AcDbEntity
  8
4
100
AcDbLine
 10
1206.789214193455
 20
58.48059662905189
 30
0.0
 11
1203.789214193456
 21
58.48059662905189
 31
0.0
  0
LINE
  5
35B
330
17
100
AcDbEntity
  8
4
100
AcDbLine
 10
1184.789214193456
 20
62.48062662905159
 30
0.0
 11
1201.789214193455
 21
62.48062662905159
 31
0.0
  0
LINE
  5
35C
330
17
100
AcDbEntity
  8
4
100
AcDbLine
 10
1206.789214193455
 20
95.12268662905217
 30
0.0
 11
1206.789214193455
 21
41.48059662905143
 31
0.0
  0
LINE
  5
35D
330
17
100
AcDbEntity
  8
4
100
AcDbLine
 10
1206.789214193455
 20
92.12268662905262
 30
0.0
 11
1221.789214193455
 21
92.12268662905262
 31
0.0
  0
LINE
  5
364
330
17
100
AcDbEntity
  8
4
100
AcDbLine
 10
1184.789214193456
 20
320.4806266290534
 30
0.0
 11
1184.789214193456
 21
62.48062662905159
 31
0.0
  0
LINE
  5
365
330
17
100
AcDbEntity
  8
4
100
AcDbLine
 10
1201.789214193455
 20
320.4805966290523
 30
0.0
 11
1201.789214193455
 21
62.4805966290528
 31
0.0
  0
LINE
  5
366
330
17
100
AcDbEntity
  8
4
100
AcDbLine
 10
1221.789214193455
 20
252.7413416290533
 30
0.0
 11
1221.789214193455
 21
92.12268662905262
 31
0.0
  0
LINE
  5
367
330
17
100
AcDbEntity
  8
4
100
AcDbLine
 10
1201.789214193455
 20
62.4805966290528
 30
0.0
 11
1201.789214193455
 21
320.4805966290523
 31
0.0
  0
LINE
  5
368
330
17
100
AcDbEntity
  8
4
100
AcDbLine
 10
1203.789214193456
 20
58.48059662905189
 30
0.0
 11
1203.789214193456
 21
324.4805966290533
 31
0.0
  0
LINE
  5
369
330
17
100
AcDbEntity
  8
4
100
AcDbLine
 10
1183.789214193456
 20
121.4806266290525
 30
0.0
 11
1184.551306872837
 21
94.80738285072005
 31
0.0
  0
LINE
  5
36B
330
17
100
AcDbEntity
  8
4
100
AcDbLine
 10
1311.789214193456
 20
97.12268662905262
 30
0.0
 11
1221.789214193455
 21
97.12268662905262
 31
0.0
  0
LINE
  5
36C
330
17
100
AcDbEntity
  8
4
100
AcDbLine
 10
1209.789214193456
 20
71.48059662905143
 30
0.0
 11
1426.789214193456
 21
71.48084162905252
 31
0.0
  0
LINE
  5
36D
330
17
100
AcDbEntity
  8
4
100
AcDbLine
 10
1206.789214193455
 20
41.48059662905143
 30
0.0
 11
1326.789214193456
 21
41.48059662905143
 31
0.0
  0
LINE
  5
36E
330
17
100
AcDbEntity
  8
L-CENTER
  6
CENTER
100
AcDbLine
 10
1201.450004193456
 20
314.4805966290533
 30
0.0
 11
1332.127934193456
 21
314.4805966290533
 31
0.0
  0
LINE
  5
36F
330
17
100
AcDbEntity
  8
4
100
AcDbLine
 10
1320.409819193456
 20
373.4805966290519
 30
0.0
 11
1266.788969193456
 21
373.4805966290519
 31
0.0
  0
ARC
  5
370
330
17
100
AcDbEntity
  8
4
100
AcDbCircle
 10
1266.789214193456
 20
23.48059662905189
 30
0.0
 40
349.99996
100
AcDbArc
 50
81.61493099999998
 51
98.38571400000002
  0
ARC
  5
371
330
17
100
AcDbEntity
  8
4
100
AcDbCircle
 10
1266.789214193456
 20
18.48059662905189
 30
0.0
 40
349.999995
100
AcDbArc
 50
82.34994700000001
 51
97.65089499999999
  0
ARC
  5
372
330
17
100
AcDbEntity
  8
4
100
AcDbCircle
 10
1266.788724193455
 20
605.4805966290523
 30
0.0
 40
350.00006
100
AcDbArc
 50
261.6159030000001
 51
278.386358
  0
ARC
  5
373
330
17
100
AcDbEntity
  8
4
100
AcDbCircle
 10
1266.788724193455
 20
610.4805966290523
 30
0.0
 40
349.999985
100
AcDbArc
 50
262.350835
 51
277.65146
  0
CIRCLE
  5
374
330
17
100
AcDbEntity
  8
4
100
AcDbCircle
 10
1266.788969193456
 20
314.4805966290533
 30
0.0
 40
36.0
  0
ARC
  5
376
330
17
100
AcDbEntity
  8
4
100
AcDbCircle
 10
1516.788234193456
 20
992.4808416290516
 30
0.0
 40
799.999945
100
AcDbArc
 50
271.396863
 51
281.013985
  0
ARC
  5
377
330
17
100
AcDbEntity
  8
4
100
AcDbCircle
 10
1606.789214193456
 20
187.4964666290525
 30
0.0
 40
9.999965000000001
100
AcDbArc
 50
96.38066399999956
 51
180.0013980000552
  0
LINE
  5
378
330
17
100
AcDbEntity
  8
L-CENTER
  6
CENTER
100
AcDbLine
 10
1157.353259193456
 20
191.480641629053
 30
0.0
 11
1708.448544193456
 21
191.4804966290517
 31
0.0
  0
LINE
  5
379
330
17
100
AcDbEntity
  8
4
100
AcDbLine
 10
1698.789214193456
 20
71.48084162905252
 30
0.0
 11
1581.789214193456
 21
71.48084162905252
 31
0.0
  0
LINE
  5
37A
330
17
100
AcDbEntity
  8
4
100
AcDbLine
 10
1581.789214193456
 20
41.48084162905252
 30
0.0
 11
1701.789214193456
 21
41.48084162905252
 31
0.0
  0
ARC
  5
37B
330
17
100
AcDbEntity
  8
4
100
AcDbCircle
 10
1606.789214193456
 20
81.48084162905252
 30
0.0
 40
10.0
100
AcDbArc
 50
180.0013980000552
 51
270.0013980000001
  0
LINE
  5
37C
330
17
100
AcDbEntity
  8
L-CENTER
  6
CENTER
100
AcDbLine
 10
1698.026674887781
 20
366.4808350406995
 30
0.0
 11
1335.551636365862
 21
366.4806064284128
 31
0.0
  0
LINE
  5
37D
330
17
100
AcDbEntity
  8
4
100
AcDbLine
 10
1654.221099193456
 20
330.780401629052
 30
0.0
 11
1591.254544193456
 21
323.2471966290523
 31
0.0
  0
LINE
  5
37E
330
17
100
AcDbEntity
  8
4
100
AcDbLine
 10
1654.220854193456
 20
402.181281629053
 30
0.0
 11
1591.254299193456
 21
409.7144816290534
 31
0.0
  0
LINE
  5
383
330
17
100
AcDbEntity
  8
L-CENTER
  6
CENTER
100
AcDbLine
 10
1516.789119193456
 20
568.1686016290523
 30
0.0
 11
1516.789212642941
 21
50.85080547493976
 31
0.0
  0
ARC
  5
384
330
17
100
AcDbEntity
  8
4
100
AcDbCircle
 10
1516.788969193456
 20
366.4808416290525
 30
0.0
 40
172.000005
100
AcDbArc
 50
275.902244
 51
264.099722
  0
CIRCLE
  5
385
330
17
100
AcDbEntity
  8
4
100
AcDbCircle
 10
1516.788969193456
 20
366.4808416290525
 30
0.0
 40
147.5
  0
ARC
  5
386
330
17
100
AcDbEntity
  8
4
100
AcDbCircle
 10
2144.788969193456
 20
366.4815716290518
 30
0.0
 40
800.000005
100
AcDbArc
 50
168.42285
 51
191.1964520000001
  0
LINE
  5
387
330
17
100
AcDbEntity
  8
4
100
AcDbLine
 10
1464.288969193456
 20
498.3900216290526
 30
0.0
 11
1464.288969193456
 21
440.8653616290535
 31
0.0
  0
ARC
  5
388
330
17
100
AcDbEntity
  8
4
100
AcDbCircle
 10
1546.288969193456
 20
462.4808416290516
 30
0.0
 40
9.999979999999999
100
AcDbArc
 50
180.0013979997944
 51
113.0740569999999
  0
LINE
  5
389
330
17
100
AcDbEntity
  8
4
100
AcDbLine
 10
1471.288969193456
 20
450.4808416290534
 30
0.0
 11
1471.288969193456
 21
484.4808416290521
 31
0.0
  0
LINE
  5
38A
330
17
100
AcDbEntity
  8
4
100
AcDbLine
 10
1504.288969193456
 20
452.4808416290516
 30
0.0
 11
1504.288969193456
 21
482.4808416290516
 31
0.0
  0
LINE
  5
38B
330
17
100
AcDbEntity
  8
4
100
AcDbLine
 10
1483.288969193456
 20
458.480841629053
 30
0.0
 11
1483.288969193456
 21
482.4808416290516
 31
0.0
  0
LINE
  5
38C
330
17
100
AcDbEntity
  8
4
100
AcDbLine
 10
1477.288969193456
 20
452.4808416290516
 30
0.0
 11
1477.288969193456
 21
482.4808416290516
 31
0.0
  0
LINE
  5
38D
330
17
100
AcDbEntity
  8
4
100
AcDbLine
 10
1510.288969193456
 20
476.4808416290525
 30
0.0
 11
1510.288969193456
 21
470.4808416290534
 31
0.0
  0
LINE
  5
38E
330
17
100
AcDbEntity
  8
4
100
AcDbLine
 10
1536.288969193456
 20
462.4808416290516
 30
0.0
 11
1536.288969193456
 21
472.4808416290516
 31
0.0
  0
LINE
  5
38F
330
17
100
AcDbEntity
  8
4
100
AcDbLine
 10
1562.288969193456
 20
484.4808416290521
 30
0.0
 11
1562.288969193456
 21
450.4808416290534
 31
0.0
  0
LINE
  5
390
330
17
100
AcDbEntity
  8
4
100
AcDbLine
 10
1569.288969193456
 20
498.3900216290526
 30
0.0
 11
1569.288969193456
 21
440.8653616290535
 31
0.0
  0
ARC
  5
391
330
17
100
AcDbEntity
  8
4
100
AcDbCircle
 10
888.7889691934561
 20
366.4805966290514
 30
0.0
 40
799.999955
100
AcDbArc
 50
348.805527
 51
11.578418
  0
ARC
  5
399
330
17
100
AcDbEntity
  8
4
100
AcDbCircle
 10
741.1029881844306
 20
1435.248231394293
 30
0.0
 40
5.0
100
AcDbArc
 50
0.0
 51
90.0
  0
ARC
  5
39A
330
17
100
AcDbEntity
  8
4
100
AcDbCircle
 10
741.1029881844306
 20
1373.019469601829
 30
0.0
 40
5.0
100
AcDbArc
 50
302.0053832080841
 51
0.0
  0
LINE
  5
39B
330
17
100
AcDbEntity
  8
4
100
AcDbLine
 10
746.1029881844306
 20
1435.248231394293
 30
0.0
 11
746.1029881844306
 21
1373.019469601829
 31
0.0
  0
ARC
  5
39C
330
17
100
AcDbEntity
  8
4
100
AcDbCircle
 10
655.1029881844307
 20
1436.148231394294
 30
0.0
 40
1.0
100
AcDbArc
 50
0.0
 51
90.0
  0
ARC
  5
39D
330
17
100
AcDbEntity
  8
4
100
AcDbCircle
 10
685.1029881844306
 20
1426.248231394293
 30
0.0
 40
1.0
100
AcDbArc
 50
0.0
 51
90.0
  0
ARC
  5
39E
330
17
100
AcDbEntity
  8
4
100
AcDbCircle
 10
668.1029881844306
 20
1428.248231394293
 30
0.0
 40
1.0
100
AcDbArc
 50
0.0
 51
90.0
  0
LINE
  5
39F
330
17
100
AcDbEntity
  8
4
100
AcDbLine
 10
666.1029881844306
 20
1429.248231394293
 30
0.0
 11
668.1029881844306
 21
1429.248231394293
 31
0.0
  0
LINE
  5
3A0
330
17
100
AcDbEntity
  8
4
100
AcDbLine
 10
669.1029881844306
 20
1427.248231394293
 30
0.0
 11
685.1029881844306
 21
1427.248231394293
 31
0.0
  0
LINE
  5
3A1
330
17
100
AcDbEntity
  8
4
100
AcDbLine
 10
656.1029881844306
 20
1429.248231394293
 30
0.0
 11
656.1029881844307
 21
1436.148231394294
 31
0.0
  0
ARC
  5
3A2
330
17
100
AcDbEntity
  8
4
100
AcDbCircle
 10
635.890610987792
 20
1442.864617465235
 30
0.0
 40
3.783613929059507
100
AcDbArc
 50
49.57010315516987
 51
130.4298968448301
  0
LINE
  5
3A3
330
17
100
AcDbEntity
  8
4
100
AcDbLine
 10
633.436872343736
 20
1445.744704448441
 30
0.0
 11
633.436872343736
 21
1439.648231394294
 31
0.0
  0
LINE
  5
3A4
330
17
100
AcDbEntity
  8
4
100
AcDbLine
 10
638.3443496318473
 20
1437.148231394294
 30
0.0
 11
638.3443496318473
 21
1445.744704448441
 31
0.0
  0
ARC
  5
3A5
330
17
100
AcDbEntity
  8
4
100
AcDbCircle
 10
621.1681791234563
 20
1442.864617465235
 30
0.0
 40
3.783613929059507
100
AcDbArc
 50
49.57010315516987
 51
130.4298968448301
  0
LINE
  5
3A6
330
17
100
AcDbEntity
  8
4
100
AcDbLine
 10
623.6219177675125
 20
1445.744704448441
 30
0.0
 11
623.6219177675125
 21
1439.648231394294
 31
0.0
  0
LINE
  5
3A7
330
17
100
AcDbEntity
  8
4
100
AcDbLine
 10
618.7144404794003
 20
1445.744704448441
 30
0.0
 11
618.7144404794003
 21
1437.148231394294
 31
0.0
  0
LINE
  5
3A8
330
17
100
AcDbEntity
  8
4
100
AcDbLine
 10
618.7144404794003
 20
1439.648231394294
 30
0.0
 11
638.3443496318473
 21
1439.648231394294
 31
0.0
  0
LINE
  5
3A9
330
17
100
AcDbEntity
  8
4
100
AcDbLine
 10
635.8906109877921
 20
1446.648231394294
 30
0.0
 11
621.1681791234564
 21
1446.648231394294
 31
0.0
  0
ARC
  5
3AA
330
17
100
AcDbEntity
  8
4
100
AcDbCircle
 10
628.5293950556237
 20
1432.869066096834
 30
0.0
 40
13.77916529745958
100
AcDbArc
 50
69.13593563607996
 51
110.8640643639201
  0
LINE
  5
3AB
330
17
100
AcDbEntity
  8
4
100
AcDbLine
 10
618.7144404794003
 20
1437.148231394294
 30
0.0
 11
638.3443496318473
 21
1437.148231394294
 31
0.0
  0
LINE
  5
3AC
330
17
100
AcDbEntity
  8
L-CENTER
100
AcDbLine
 10
628.5293950556238
 20
1412.099467965794
 30
0.0
 11
628.5293950556238
 21
1449.516209648874
 31
0.0
  0
ARC
  5
3AD
330
17
100
AcDbEntity
  8
4
100
AcDbCircle
 10
551.0377972454049
 20
1442.864617465235
 30
0.0
 40
3.783613929059507
100
AcDbArc
 50
49.57010315516987
 51
130.4298968448301
  0
LINE
  5
3AE
330
17
100
AcDbEntity
  8
4
100
AcDbLine
 10
536.3153653810691
 20
1446.648231394294
 30
0.0
 11
551.0377972454048
 21
1446.648231394294
 31
0.0
  0
ARC
  5
3AF
330
17
100
AcDbEntity
  8
4
100
AcDbCircle
 10
543.6765813132375
 20
1432.869066096834
 30
0.0
 40
13.77916529745958
100
AcDbArc
 50
69.13593563607996
 51
110.8640643639201
  0
LINE
  5
3B0
330
17
100
AcDbEntity
  8
4
100
AcDbLine
 10
548.5840586013487
 20
1445.744704448441
 30
0.0
 11
548.5840586013487
 21
1439.648231394294
 31
0.0
  0
LINE
  5
3B1
330
17
100
AcDbEntity
  8
4
100
AcDbLine
 10
538.7691040251252
 20
1445.744704448441
 30
0.0
 11
538.7691040251252
 21
1439.648231394294
 31
0.0
  0
LINE
  5
3B2
330
17
100
AcDbEntity
  8
4
100
AcDbLine
 10
553.4915358894609
 20
1445.744704448441
 30
0.0
 11
553.4915358894609
 21
1437.148231394294
 31
0.0
  0
LINE
  5
3B3
330
17
100
AcDbEntity
  8
L-CENTER
100
AcDbLine
 10
543.6765813132374
 20
1412.099467965794
 30
0.0
 11
543.6765813132374
 21
1449.516209648874
 31
0.0
  0
LINE
  5
3B4
330
17
100
AcDbEntity
  8
4
100
AcDbLine
 10
533.8616267370139
 20
1437.148231394294
 30
0.0
 11
533.8616267370139
 21
1445.744704448441
 31
0.0
  0
ARC
  5
3B5
330
17
100
AcDbEntity
  8
4
100
AcDbCircle
 10
517.1029881844306
 20
1436.148231394294
 30
0.0
 40
1.0
100
AcDbArc
 50
90.0
 51
180.0
  0
ARC
  5
3B6
330
17
100
AcDbEntity
  8
4
100
AcDbCircle
 10
504.1029881844306
 20
1428.248231394293
 30
0.0
 40
1.0
100
AcDbArc
 50
90.0
 51
180.0
  0
LINE
  5
3B7
330
17
100
AcDbEntity
  8
4
100
AcDbLine
 10
504.1029881844306
 20
1429.248231394293
 30
0.0
 11
506.1029881844306
 21
1429.248231394293
 31
0.0
  0
LINE
  5
3B8
330
17
100
AcDbEntity
  8
4
100
AcDbLine
 10
516.1029881844306
 20
1429.248231394293
 30
0.0
 11
516.1029881844306
 21
1436.148231394294
 31
0.0
  0
LINE
  5
3B9
330
17
100
AcDbEntity
  8
4
100
AcDbLine
 10
553.4915358894609
 20
1437.148231394294
 30
0.0
 11
533.8616267370139
 21
1437.148231394294
 31
0.0
  0
LINE
  5
3BA
330
17
100
AcDbEntity
  8
4
100
AcDbLine
 10
553.4915358894609
 20
1439.648231394294
 30
0.0
 11
533.8616267370139
 21
1439.648231394294
 31
0.0
  0
ARC
  5
3BB
330
17
100
AcDbEntity
  8
4
100
AcDbCircle
 10
536.3153653810692
 20
1442.864617465235
 30
0.0
 40
3.783613929059507
100
AcDbArc
 50
49.57010315516987
 51
130.4298968448301
  0
ARC
  5
3BC
330
17
100
AcDbEntity
  8
4
100
AcDbCircle
 10
484.7029881844305
 20
1426.248231394293
 30
0.0
 40
1.0
100
AcDbArc
 50
90.0
 51
180.0
  0
LINE
  5
3BD
330
17
100
AcDbEntity
  8
4
100
AcDbLine
 10
483.7029881844305
 20
1408.433276818072
 30
0.0
 11
483.7029881844305
 21
1428.063185970519
 31
0.0
  0
LINE
  5
3BE
330
17
100
AcDbEntity
  8
4
100
AcDbLine
 10
481.2029881844305
 20
1408.433276818072
 30
0.0
 11
481.2029881844305
 21
1428.063185970519
 31
0.0
  0
ARC
  5
3BF
330
17
100
AcDbEntity
  8
4
100
AcDbCircle
 10
477.9866021134899
 20
1410.887015462128
 30
0.0
 40
3.783613929059507
100
AcDbArc
 50
139.5701031551691
 51
220.4298968448309
  0
LINE
  5
3C0
330
17
100
AcDbEntity
  8
4
100
AcDbLine
 10
474.2029881844305
 20
1425.609447326464
 30
0.0
 11
474.2029881844305
 21
1410.887015462128
 31
0.0
  0
ARC
  5
3C1
330
17
100
AcDbEntity
  8
4
100
AcDbCircle
 10
487.9821534818902
 20
1418.248231394295
 30
0.0
 40
13.77916529745958
100
AcDbArc
 50
159.1359356360806
 51
200.8640643639194
  0
ARC
  5
3C2
330
17
100
AcDbEntity
  8
4
100
AcDbCircle
 10
477.9866021134899
 20
1425.609447326464
 30
0.0
 40
3.783613929059507
100
AcDbArc
 50
139.5701031551691
 51
220.4298968448309
  0
LINE
  5
3C3
330
17
100
AcDbEntity
  8
4
100
AcDbLine
 10
475.1065151302828
 20
1413.340754106184
 30
0.0
 11
481.2029881844305
 21
1413.340754106184
 31
0.0
  0
LINE
  5
3C4
330
17
100
AcDbEntity
  8
4
100
AcDbLine
 10
475.1065151302828
 20
1423.155708682408
 30
0.0
 11
481.2029881844305
 21
1423.155708682408
 31
0.0
  0
LINE
  5
3C5
330
17
100
AcDbEntity
  8
4
100
AcDbLine
 10
483.7029881844305
 20
1428.063185970519
 30
0.0
 11
475.1065151302828
 21
1428.063185970519
 31
0.0
  0
LINE
  5
3C6
330
17
100
AcDbEntity
  8
4
100
AcDbLine
 10
475.1065151302828
 20
1408.433276818072
 30
0.0
 11
483.7029881844305
 21
1408.433276818072
 31
0.0
  0
ARC
  5
3C7
330
17
100
AcDbEntity
  8
4
100
AcDbCircle
 10
431.1029881844306
 20
1435.248231394293
 30
0.0
 40
5.0
100
AcDbArc
 50
90.0
 51
180.0
  0
LINE
  5
3C8
330
17
100
AcDbEntity
  8
L-CENTER
100
AcDbLine
 10
431.1029881844406
 20
1395.248231394293
 30
0.0
 11
481.1029881844233
 21
1395.248231394293
 31
0.0
  0
LINE
  5
3C9
330
17
100
AcDbEntity
  8
4
100
AcDbLine
 10
431.1029881844306
 20
1440.248231394293
 30
0.0
 11
533.8616267370139
 21
1440.248231394293
 31
0.0
  0
LINE
  5
3CA
330
17
100
AcDbEntity
  8
4
100
AcDbLine
 10
484.7029881844305
 20
1427.248231394293
 30
0.0
 11
503.1029881844306
 21
1427.248231394293
 31
0.0
  0
LINE
  5
3CB
330
17
100
AcDbEntity
  8
L-CENTER
100
AcDbLine
 10
508.7517516129301
 20
1418.248231394295
 30
0.0
 11
471.3350099298505
 21
1418.248231394295
 31
0.0
  0
LINE
  5
3CC
330
17
100
AcDbEntity
  8
4
100
AcDbLine
 10
504.1029881844306
 20
1429.248231394293
 30
0.0
 11
668.1029881844306
 21
1429.248231394293
 31
0.0
  0
LINE
  5
3CD
330
17
100
AcDbEntity
  8
4
100
AcDbLine
 10
517.1029881844306
 20
1437.148231394294
 30
0.0
 11
655.1029881844307
 21
1437.148231394294
 31
0.0
  0
LINE
  5
3CE
330
17
100
AcDbEntity
  8
4
100
AcDbLine
 10
553.4915358894609
 20
1440.248231394293
 30
0.0
 11
618.7144404794003
 21
1440.248231394293
 31
0.0
  0
ARC
  5
3CF
330
17
100
AcDbEntity
  8
4
100
AcDbCircle
 10
697.1029881844306
 20
1319.535275418419
 30
0.0
 40
1.0
100
AcDbArc
 50
0.0
 51
70.97439396242729
  0
LINE
  5
3D0
330
17
100
AcDbEntity
  8
4
100
AcDbLine
 10
697.4289788677502
 20
1320.480648400045
 30
0.0
 11
686.1029881844306
 21
1324.386162428776
 31
0.0
  0
ARC
  5
3D1
330
17
100
AcDbEntity
  8
4
100
AcDbCircle
 10
586.1029881844307
 20
1375.248231394293
 30
0.0
 40
5.0
100
AcDbArc
 50
0.0
 51
180.0
  0
ARC
  5
3D2
330
17
100
AcDbEntity
  8
4
100
AcDbCircle
 10
586.1029881844307
 20
1335.248231394293
 30
0.0
 40
5.0
100
AcDbArc
 50
180.0
 51
0.0
  0
LINE
  5
3D3
330
17
100
AcDbEntity
  8
4
100
AcDbLine
 10
581.1029881844306
 20
1335.248231394293
 30
0.0
 11
581.1029881844306
 21
1375.248231394293
 31
0.0
  0
LINE
  5
3D4
330
17
100
AcDbEntity
  8
4
100
AcDbLine
 10
591.1029881844306
 20
1335.248231394293
 30
0.0
 11
591.1029881844306
 21
1375.248231394293
 31
0.0
  0
ARC
  5
3D5
330
17
100
AcDbEntity
  8
4
100
AcDbCircle
 10
586.1029881844307
 20
1355.248231394293
 30
0.0
 40
12.5
100
AcDbArc
 50
293.5781784782025
 51
66.42182152179757
  0
ARC
  5
3D6
330
17
100
AcDbEntity
  8
4
100
AcDbCircle
 10
586.1029881844307
 20
1355.248231394293
 30
0.0
 40
11.0
100
AcDbArc
 50
117.0356917894125
 51
242.9643082105875
  0
ARC
  5
3D7
330
17
100
AcDbEntity
  8
4
100
AcDbCircle
 10
586.1029881844307
 20
1355.248231394293
 30
0.0
 40
11.0
100
AcDbArc
 50
297.035691789413
 51
62.96430821058699
  0
ARC
  5
3D8
330
17
100
AcDbEntity
  8
4
100
AcDbCircle
 10
586.1029881844306
 20
1355.248231394293
 30
0.0
 40
20.0
100
AcDbArc
 50
284.4775121859299
 51
75.52248781407006
  0
ARC
  5
3D9
330
17
100
AcDbEntity
  8
4
100
AcDbCircle
 10
697.1029881844306
 20
1190.961187370168
 30
0.0
 40
1.0
100
AcDbArc
 50
289.0256060375727
 51
0.0
  0
LINE
  5
3DA
330
17
100
AcDbEntity
  8
4
100
AcDbLine
 10
697.4289788677497
 20
1190.015814388542
 30
0.0
 11
686.1029881844306
 21
1186.110300359811
 31
0.0
  0
LINE
  5
3DB
330
17
100
AcDbEntity
  8
4
100
AcDbLine
 10
725.1029881844306
 20
1063.248231394293
 30
0.0
 11
722.1029881844306
 21
1063.248231394293
 31
0.0
  0
LINE
  5
3DC
330
17
100
AcDbEntity
  8
4
100
AcDbLine
 10
726.1029881844306
 20
1041.248231394295
 30
0.0
 11
725.1029881844306
 21
1041.248231394295
 31
0.0
  0
ARC
  5
3DD
330
17
100
AcDbEntity
  8
4
100
AcDbCircle
 10
685.1029881844305
 20
1084.248231394293
 30
0.0
 40
1.0
100
AcDbArc
 50
270.0
 51
0.0
  0
ARC
  5
3DE
330
17
100
AcDbEntity
  8
4
100
AcDbCircle
 10
668.1029881844305
 20
1082.248231394293
 30
0.0
 40
1.0
100
AcDbArc
 50
270.0
 51
0.0
  0
LINE
  5
3DF
330
17
100
AcDbEntity
  8
4
100
AcDbLine
 10
669.1029881844306
 20
1083.248231394293
 30
0.0
 11
685.1029881844306
 21
1083.248231394293
 31
0.0
  0
ARC
  5
3E0
330
17
100
AcDbEntity
  8
4
100
AcDbCircle
 10
671.1029881844305
 20
1069.248231394293
 30
0.0
 40
5.0
100
AcDbArc
 50
180.0
 51
270.0
  0
LINE
  5
3E1
330
17
100
AcDbEntity
  8
4
100
AcDbLine
 10
722.1029881844306
 20
1064.248231394293
 30
0.0
 11
671.1029881844306
 21
1064.248231394293
 31
0.0
  0
ARC
  5
3E2
330
17
100
AcDbEntity
  8
4
100
AcDbCircle
 10
586.1029881844307
 20
1175.248231394293
 30
0.0
 40
5.0
100
AcDbArc
 50
0.0
 51
180.0
  0
ARC
  5
3E3
330
17
100
AcDbEntity
  8
4
100
AcDbCircle
 10
586.1029881844307
 20
1135.248231394293
 30
0.0
 40
5.0
100
AcDbArc
 50
180.0
 51
0.0
  0
ARC
  5
3E4
330
17
100
AcDbEntity
  8
4
100
AcDbCircle
 10
586.1029881844307
 20
1155.248231394293
 30
0.0
 40
11.0
100
AcDbArc
 50
117.0356917894125
 51
242.9643082105875
  0
ARC
  5
3E5
330
17
100
AcDbEntity
  8
4
100
AcDbCircle
 10
586.1029881844307
 20
1155.248231394293
 30
0.0
 40
12.5
100
AcDbArc
 50
293.5781784782025
 51
66.42182152179757
  0
ARC
  5
3E6
330
17
100
AcDbEntity
  8
4
100
AcDbCircle
 10
586.1029881844307
 20
1155.248231394293
 30
0.0
 40
11.0
100
AcDbArc
 50
297.035691789413
 51
62.96430821058699
  0
LINE
  5
3E7
330
17
100
AcDbEntity
  8
4
100
AcDbLine
 10
581.1029881844306
 20
1135.248231394293
 30
0.0
 11
581.1029881844306
 21
1175.248231394293
 31
0.0
  0
LINE
  5
3E8
330
17
100
AcDbEntity
  8
4
100
AcDbLine
 10
591.1029881844306
 20
1135.248231394293
 30
0.0
 11
591.1029881844306
 21
1175.248231394293
 31
0.0
  0
ARC
  5
3E9
330
17
100
AcDbEntity
  8
4
100
AcDbCircle
 10
586.1029881844306
 20
1155.248231394293
 30
0.0
 40
20.0
100
AcDbArc
 50
284.4775121859299
 51
75.52248781407006
  0
LINE
  5
3EA
330
17
100
AcDbEntity
  8
4
100
AcDbLine
 10
698.1029881844306
 20
1319.535275418419
 30
0.0
 11
698.1029881844306
 21
1190.961187370168
 31
0.0
  0
LINE
  5
3EB
330
17
100
AcDbEntity
  8
4
100
AcDbLine
 10
483.7029881844305
 20
1346.563185970518
 30
0.0
 11
475.1065151302828
 21
1346.563185970518
 31
0.0
  0
LINE
  5
3EC
330
17
100
AcDbEntity
  8
4
100
AcDbLine
 10
472.7029881844305
 20
1305.248231394293
 30
0.0
 11
473.7029881844305
 21
1305.248231394293
 31
0.0
  0
ARC
  5
3ED
330
17
100
AcDbEntity
  8
4
100
AcDbCircle
 10
474.7029881844305
 20
1319.571198432867
 30
0.0
 40
1.0
100
AcDbArc
 50
111.8014094863536
 51
180.0
  0
ARC
  5
3EE
330
17
100
AcDbEntity
  8
4
100
AcDbCircle
 10
487.9821534818902
 20
1336.748231394295
 30
0.0
 40
13.77916529745958
100
AcDbArc
 50
159.1359356360806
 51
200.8640643639194
  0
LINE
  5
3EF
330
17
100
AcDbEntity
  8
4
100
AcDbLine
 10
474.2029881844305
 20
1344.109447326463
 30
0.0
 11
474.2029881844305
 21
1329.387015462127
 31
0.0
  0
ARC
  5
3F0
330
17
100
AcDbEntity
  8
4
100
AcDbCircle
 10
477.9866021134899
 20
1329.387015462127
 30
0.0
 40
3.783613929059507
100
AcDbArc
 50
139.5701031551729
 51
220.4298968448271
  0
LINE
  5
3F1
330
17
100
AcDbEntity
  8
4
100
AcDbLine
 10
474.3315975080768
 20
1320.499675123752
 30
0.0
 11
483.7029881844305
 21
1324.248231394293
 31
0.0
  0
LINE
  5
3F2
330
17
100
AcDbEntity
  8
4
100
AcDbLine
 10
475.1065151302828
 20
1326.933276818071
 30
0.0
 11
483.7029881844305
 21
1326.933276818071
 31
0.0
  0
LINE
  5
3F3
330
17
100
AcDbEntity
  8
4
100
AcDbLine
 10
475.1065151302828
 20
1341.655708682407
 30
0.0
 11
481.2029881844305
 21
1341.655708682407
 31
0.0
  0
LINE
  5
3F4
330
17
100
AcDbEntity
  8
4
100
AcDbLine
 10
475.1065151302828
 20
1331.840754106184
 30
0.0
 11
481.2029881844305
 21
1331.840754106184
 31
0.0
  0
LINE
  5
3F5
330
17
100
AcDbEntity
  8
4
100
AcDbLine
 10
481.2029881844305
 20
1326.933276818071
 30
0.0
 11
481.2029881844305
 21
1346.563185970518
 31
0.0
  0
ARC
  5
3F6
330
17
100
AcDbEntity
  8
4
100
AcDbCircle
 10
477.9866021134899
 20
1344.109447326463
 30
0.0
 40
3.783613929059507
100
AcDbArc
 50
139.5701031551729
 51
220.4298968448271
  0
LINE
  5
3F7
330
17
100
AcDbEntity
  8
4
100
AcDbLine
 10
483.7029881844305
 20
1326.933276818071
 30
0.0
 11
483.7029881844305
 21
1346.563185970518
 31
0.0
  0
ARC
  5
3F8
330
17
100
AcDbEntity
  8
4
100
AcDbCircle
 10
431.1029881844306
 20
1373.019469601829
 30
0.0
 40
5.0
100
AcDbArc
 50
180.0
 51
237.9946167919154
  0
LINE
  5
3F9
330
17
100
AcDbEntity
  8
4
100
AcDbLine
 10
474.2029881844305
 20
1340.185731394293
 30
0.0
 11
428.4529934844149
 21
1368.779478081804
 31
0.0
  0
ARC
  5
3FA
330
17
100
AcDbEntity
  8
4
100
AcDbCircle
 10
445.6029881844308
 20
1292.248231394293
 30
0.0
 40
0.5
100
AcDbArc
 50
270.0
 51
0.0
  0
ARC
  5
3FB
330
17
100
AcDbEntity
  8
4
100
AcDbCircle
 10
445.6029881844308
 20
1218.248231394293
 30
0.0
 40
0.5
100
AcDbArc
 50
0.0
 51
90.0
  0
LINE
  5
3FC
330
17
100
AcDbEntity
  8
4
100
AcDbLine
 10
436.1029881844306
 20
1255.248231394293
 30
0.0
 11
436.1029881844306
 21
1255.248231394293
 31
0.0
  0
ARC
  5
3FD
330
17
100
AcDbEntity
  8
4
100
AcDbCircle
 10
426.1029881844308
 20
1255.248231394293
 30
0.0
 40
10.0
100
AcDbArc
 50
270.0
 51
0.0
  0
LINE
  5
3FE
330
17
100
AcDbEntity
  8
4
100
AcDbLine
 10
446.1029881844306
 20
1217.748231394293
 30
0.0
 11
446.1029881844306
 21
1292.748231394293
 31
0.0
  0
ARC
  5
3FF
330
17
100
AcDbEntity
  8
4
100
AcDbCircle
 10
426.1029881844308
 20
1255.248231394293
 30
0.0
 40
10.0
100
AcDbArc
 50
0.0
 51
90.0
  0
LINE
  5
400
330
17
100
AcDbEntity
  8
4
100
AcDbLine
 10
446.1029881844306
 20
1217.748231394293
 30
0.0
 11
472.7029881844309
 21
1217.748231394293
 31
0.0
  0
LINE
  5
401
330
17
100
AcDbEntity
  8
4
100
AcDbLine
 10
446.1029881844306
 20
1292.748231394293
 30
0.0
 11
472.7029881844306
 21
1292.748231394293
 31
0.0
  0
LINE
  5
402
330
17
100
AcDbEntity
  8
L-CENTER
100
AcDbLine
 10
508.7517516129301
 20
1336.748231394295
 30
0.0
 11
471.3350099298505
 21
1336.748231394295
 31
0.0
  0
ARC
  5
403
330
17
100
AcDbEntity
  8
4
100
AcDbCircle
 10
504.1029881844306
 20
1082.248231394293
 30
0.0
 40
1.0
100
AcDbArc
 50
180.0
 51
270.0
  0
ARC
  5
404
330
17
100
AcDbEntity
  8
4
100
AcDbCircle
 10
501.1029881844306
 20
1069.248231394293
 30
0.0
 40
5.0
100
AcDbArc
 50
270.0
 51
0.0
  0
LINE
  5
405
330
17
100
AcDbEntity
  8
4
100
AcDbLine
 10
472.702988184431
 20
1205.248231394293
 30
0.0
 11
473.7029881844305
 21
1205.248231394293
 31
0.0
  0
ARC
  5
406
330
17
100
AcDbEntity
  8
4
100
AcDbCircle
 10
474.7029881844305
 20
1190.92526435572
 30
0.0
 40
1.0
100
AcDbArc
 50
180.0
 51
248.1985905136464
  0
ARC
  5
407
330
17
100
AcDbEntity
  8
4
100
AcDbCircle
 10
477.9866021134899
 20
1181.10944732646
 30
0.0
 40
3.783613929059507
100
AcDbArc
 50
139.5701031551729
 51
220.4298968448271
  0
LINE
  5
408
330
17
100
AcDbEntity
  8
4
100
AcDbLine
 10
474.3315975080764
 20
1189.996787664835
 30
0.0
 11
483.7029881844301
 21
1186.248231394294
 31
0.0
  0
LINE
  5
409
330
17
100
AcDbEntity
  8
4
100
AcDbLine
 10
475.1065151302828
 20
1178.655708682403
 30
0.0
 11
481.2029881844305
 21
1178.655708682403
 31
0.0
  0
LINE
  5
40A
330
17
100
AcDbEntity
  8
4
100
AcDbLine
 10
475.1065151302828
 20
1183.563185970516
 30
0.0
 11
483.7029881844305
 21
1183.563185970516
 31
0.0
  0
ARC
  5
40B
330
17
100
AcDbEntity
  8
4
100
AcDbCircle
 10
477.9866021134899
 20
1166.387015462124
 30
0.0
 40
3.783613929059507
100
AcDbArc
 50
139.5701031551729
 51
220.4298968448271
  0
LINE
  5
40C
330
17
100
AcDbEntity
  8
4
100
AcDbLine
 10
475.1065151302828
 20
1168.84075410618
 30
0.0
 11
481.2029881844305
 21
1168.84075410618
 31
0.0
  0
LINE
  5
40D
330
17
100
AcDbEntity
  8
4
100
AcDbLine
 10
483.7029881844305
 20
1163.933276818069
 30
0.0
 11
475.1065151302828
 21
1163.933276818069
 31
0.0
  0
LINE
  5
40E
330
17
100
AcDbEntity
  8
4
100
AcDbLine
 10
483.7029881844305
 20
1183.563185970516
 30
0.0
 11
483.7029881844305
 21
1163.933276818069
 31
0.0
  0
LINE
  5
40F
330
17
100
AcDbEntity
  8
4
100
AcDbLine
 10
474.2029881844305
 20
1166.387015462124
 30
0.0
 11
474.2029881844305
 21
1181.10944732646
 31
0.0
  0
ARC
  5
410
330
17
100
AcDbEntity
  8
4
100
AcDbCircle
 10
487.9821534818902
 20
1173.748231394292
 30
0.0
 40
13.77916529745958
100
AcDbArc
 50
159.1359356360806
 51
200.8640643639194
  0
LINE
  5
411
330
17
100
AcDbEntity
  8
4
100
AcDbLine
 10
481.2029881844305
 20
1183.563185970516
 30
0.0
 11
481.2029881844305
 21
1163.933276818069
 31
0.0
  0
ARC
  5
412
330
17
100
AcDbEntity
  8
4
100
AcDbCircle
 10
484.7029881844305
 20
1084.248231394293
 30
0.0
 40
1.0
100
AcDbArc
 50
180.0
 51
270.0
  0
LINE
  5
413
330
17
100
AcDbEntity
  8
4
100
AcDbLine
 10
481.2029881844305
 20
1102.063185970515
 30
0.0
 11
481.2029881844305
 21
1082.433276818068
 31
0.0
  0
LINE
  5
414
330
17
100
AcDbEntity
  8
4
100
AcDbLine
 10
483.7029881844305
 20
1102.063185970515
 30
0.0
 11
483.7029881844305
 21
1082.433276818068
 31
0.0
  0
ARC
  5
415
330
17
100
AcDbEntity
  8
4
100
AcDbCircle
 10
477.9866021134899
 20
1099.609447326459
 30
0.0
 40
3.783613929059507
100
AcDbArc
 50
139.5701031551729
 51
220.4298968448271
  0
ARC
  5
416
330
17
100
AcDbEntity
  8
4
100
AcDbCircle
 10
477.9866021134899
 20
1084.887015462123
 30
0.0
 40
3.783613929059507
100
AcDbArc
 50
139.5701031551729
 51
220.4298968448271
  0
ARC
  5
417
330
17
100
AcDbEntity
  8
4
100
AcDbCircle
 10
487.9821534818902
 20
1092.248231394292
 30
0.0
 40
13.77916529745958
100
AcDbArc
 50
159.1359356360806
 51
200.8640643639194
  0
LINE
  5
418
330
17
100
AcDbEntity
  8
4
100
AcDbLine
 10
474.2029881844305
 20
1084.887015462123
 30
0.0
 11
474.2029881844305
 21
1099.609447326459
 31
0.0
  0
LINE
  5
419
330
17
100
AcDbEntity
  8
4
100
AcDbLine
 10
475.1065151302828
 20
1102.063185970515
 30
0.0
 11
483.7029881844305
 21
1102.063185970515
 31
0.0
  0
LINE
  5
41A
330
17
100
AcDbEntity
  8
4
100
AcDbLine
 10
483.7029881844305
 20
1082.433276818068
 30
0.0
 11
475.1065151302828
 21
1082.433276818068
 31
0.0
  0
LINE
  5
41B
330
17
100
AcDbEntity
  8
4
100
AcDbLine
 10
475.1065151302828
 20
1087.340754106179
 30
0.0
 11
481.2029881844305
 21
1087.340754106179
 31
0.0
  0
LINE
  5
41C
330
17
100
AcDbEntity
  8
4
100
AcDbLine
 10
475.1065151302828
 20
1097.155708682403
 30
0.0
 11
481.2029881844305
 21
1097.155708682403
 31
0.0
  0
LINE
  5
41D
330
17
100
AcDbEntity
  8
4
100
AcDbLine
 10
450.1029881844306
 20
1063.248231394293
 30
0.0
 11
447.1029881844306
 21
1063.248231394293
 31
0.0
  0
LINE
  5
41E
330
17
100
AcDbEntity
  8
4
100
AcDbLine
 10
446.1029881844306
 20
1041.248231394295
 30
0.0
 11
447.1029881844306
 21
1041.248231394295
 31
0.0
  0
LINE
  5
41F
330
17
100
AcDbEntity
  8
4
100
AcDbLine
 10
446.1029881844306
 20
1041.248231394295
 30
0.0
 11
447.1029881844306
 21
1041.248231394295
 31
0.0
  0
LINE
  5
420
330
17
100
AcDbEntity
  8
4
100
AcDbLine
 10
501.1029881844306
 20
1064.248231394293
 30
0.0
 11
450.1029881844306
 21
1064.248231394293
 31
0.0
  0
LINE
  5
421
330
17
100
AcDbEntity
  8
4
100
AcDbLine
 10
484.7029881844305
 20
1083.248231394293
 30
0.0
 11
503.1029881844306
 21
1083.248231394293
 31
0.0
  0
LINE
  5
422
330
17
100
AcDbEntity
  8
L-CENTER
100
AcDbLine
 10
508.7517516129301
 20
1092.248231394292
 30
0.0
 11
471.3350099298505
 21
1092.248231394292
 31
0.0
  0
LINE
  5
423
330
17
100
AcDbEntity
  8
L-CENTER
100
AcDbLine
 10
508.7517516129301
 20
1173.748231394292
 30
0.0
 11
471.3350099298505
 21
1173.748231394292
 31
0.0
  0
LINE
  5
424
330
17
100
AcDbEntity
  8
4
100
AcDbLine
 10
472.702988184431
 20
1205.248231394293
 30
0.0
 11
472.7029881844305
 21
1305.248231394293
 31
0.0
  0
LINE
  5
425
330
17
100
AcDbEntity
  8
4
100
AcDbLine
 10
473.7029881844305
 20
1190.92526435572
 30
0.0
 11
473.7029881844305
 21
1319.571198432867
 31
0.0
  0
ARC
  5
426
330
17
100
AcDbEntity
  8
4
100
AcDbCircle
 10
586.1029881844306
 20
1355.248231394293
 30
0.0
 40
20.0
100
AcDbArc
 50
104.47751218593
 51
255.52248781407
  0
CIRCLE
  5
427
330
17
100
AcDbEntity
  8
4
100
AcDbCircle
 10
586.1029881844306
 20
1255.248231394293
 30
0.0
 40
19.0
  0
LINE
  5
428
330
17
100
AcDbEntity
  8
4
100
AcDbLine
 10
504.1029881844306
 20
1081.248231394293
 30
0.0
 11
668.1029881844306
 21
1081.248231394293
 31
0.0
  0
ARC
  5
429
330
17
100
AcDbEntity
  8
4
100
AcDbCircle
 10
586.1029881844306
 20
1155.248231394293
 30
0.0
 40
20.0
100
AcDbArc
 50
104.47751218593
 51
255.52248781407
  0
LINE
  5
42A
330
17
100
AcDbEntity
  8
L-CENTER
100
AcDbLine
 10
556.3681302627424
 20
1155.248231394293
 30
0.0
 11
615.8378461061188
 21
1155.248231394293
 31
0.0
  0
CIRCLE
  5
42B
330
17
100
AcDbEntity
  8
4
100
AcDbCircle
 10
586.1029881844306
 20
1255.248231394293
 30
0.0
 40
17.0
  0
LWPOLYLINE
  5
42C
330
17
100
AcDbEntity
  8
4
100
AcDbPolyline
 90
        6
 70
     1
 43
0.0
 10
586.1029881844306
 20
1272.248231394293
 10
571.3805563200951
 20
1263.748231394293
 10
571.3805563200951
 20
1246.748231394293
 10
586.1029881844306
 20
1238.248231394293
 10
600.8254200487661
 20
1246.748231394293
 10
600.8254200487661
 20
1263.748231394293
  0
ARC
  5
42D
330
17
100
AcDbEntity
  8
4
100
AcDbCircle
 10
586.1029881844307
 20
1155.248231394293
 30
0.0
 40
12.5
100
AcDbArc
 50
113.578178478202
 51
246.421821521798
  0
ARC
  5
42E
330
17
100
AcDbEntity
  8
4
100
AcDbCircle
 10
586.1029881844307
 20
1355.248231394293
 30
0.0
 40
12.5
100
AcDbArc
 50
113.578178478202
 51
246.421821521798
  0
LINE
  5
42F
330
17
100
AcDbEntity
  8
4
100
AcDbLine
 10
669.1029881844306
 20
1428.248231394293
 30
0.0
 11
669.1029881844306
 21
1082.248231394293
 31
0.0
  0
LINE
  5
430
330
17
100
AcDbEntity
  8
4
100
AcDbLine
 10
686.1029881844306
 20
1426.248231394293
 30
0.0
 11
686.1029881844306
 21
1084.248231394293
 31
0.0
  0
LINE
  5
431
330
17
100
AcDbEntity
  8
4
100
AcDbLine
 10
503.1029881844306
 20
1428.248231394293
 30
0.0
 11
503.1029881844306
 21
1082.248231394293
 31
0.0
  0
LINE
  5
432
330
17
100
AcDbEntity
  8
4
100
AcDbLine
 10
501.1029881844306
 20
1427.248231394293
 30
0.0
 11
501.1029881844306
 21
1083.248231394293
 31
0.0
  0
CIRCLE
  5
433
330
17
100
AcDbEntity
  8
4
100
AcDbCircle
 10
456.1029881844315
 20
1395.248231394293
 30
0.0
 40
10.5
  0
LINE
  5
434
330
17
100
AcDbEntity
  8
4
100
AcDbLine
 10
426.1029881844306
 20
1373.019469601829
 30
0.0
 11
426.1029881844306
 21
1435.248231394293
 31
0.0
  0
LINE
  5
435
330
17
100
AcDbEntity
  8
L-CENTER
100
AcDbLine
 10
456.1029881844315
 20
1420.248231394285
 30
0.0
 11
456.1029881844315
 21
1370.248231394303
 31
0.0
  0
CIRCLE
  5
436
330
17
100
AcDbEntity
  8
4
100
AcDbCircle
 10
716.1029881844306
 20
1395.248231394293
 30
0.0
 40
10.5
  0
LINE
  5
437
330
17
100
AcDbEntity
  8
L-CENTER
100
AcDbLine
 10
716.1029881844306
 20
1420.248231394285
 30
0.0
 11
716.1029881844306
 21
1370.248231394303
 31
0.0
  0
LINE
  5
438
330
17
100
AcDbEntity
  8
4
100
AcDbLine
 10
483.7029881844305
 20
1084.248231394293
 30
0.0
 11
483.7029881844305
 21
1426.248231394293
 31
0.0
  0
LINE
  5
439
330
17
100
AcDbEntity
  8
L-CENTER
100
AcDbLine
 10
741.1029881844215
 20
1395.248231394293
 30
0.0
 11
691.1029881844388
 21
1395.248231394293
 31
0.0
  0
LINE
  5
43A
330
17
100
AcDbEntity
  8
4
100
AcDbLine
 10
743.7529828844463
 20
1368.779478081804
 30
0.0
 11
686.1029881844306
 21
1332.748231394293
 31
0.0
  0
LINE
  5
43B
330
17
100
AcDbEntity
  8
4
100
AcDbLine
 10
638.3443496318473
 20
1440.248231394293
 30
0.0
 11
741.1029881844306
 21
1440.248231394293
 31
0.0
  0
LINE
  5
43C
330
17
100
AcDbEntity
  8
4
100
AcDbLine
 10
347.1029881844306
 20
1021.248231394293
 30
0.0
 11
347.1029881844306
 21
1010.248231394293
 31
0.0
  0
LINE
  5
43D
330
17
100
AcDbEntity
  8
4
100
AcDbLine
 10
347.1029881844306
 20
1021.248231394293
 30
0.0
 11
346.1029881844306
 21
1020.248231394293
 31
0.0
  0
LINE
  5
43E
330
17
100
AcDbEntity
  8
4
100
AcDbLine
 10
347.1029881844306
 20
989.2482313942935
 30
0.0
 11
346.1029881844306
 21
990.2482313942935
 31
0.0
  0
LINE
  5
43F
330
17
100
AcDbEntity
  8
4
100
AcDbLine
 10
347.1029881844306
 20
1000.248231394293
 30
0.0
 11
347.1029881844306
 21
989.2482313942935
 31
0.0
  0
LINE
  5
440
330
17
100
AcDbEntity
  8
4
100
AcDbLine
 10
346.1029881844315
 20
1020.248231394293
 30
0.0
 11
346.1029881844306
 21
990.2482313942935
 31
0.0
  0
LINE
  5
441
330
17
100
AcDbEntity
  8
4
100
AcDbLine
 10
421.1029881844315
 20
1005.248231394293
 30
0.0
 11
421.1029881844315
 21
1005.248231394293
 31
0.0
  0
ARC
  5
442
330
17
100
AcDbEntity
  8
4
100
AcDbCircle
 10
416.1029881844315
 20
1005.248231394293
 30
0.0
 40
5.0
100
AcDbArc
 50
270.0
 51
0.0
  0
ARC
  5
443
330
17
100
AcDbEntity
  8
4
100
AcDbCircle
 10
416.1029881844315
 20
1005.248231394293
 30
0.0
 40
5.0
100
AcDbArc
 50
0.0
 51
90.0
  0
ARC
  5
444
330
17
100
AcDbEntity
  8
4
100
AcDbCircle
 10
425.1029881844315
 20
1022.248231394293
 30
0.0
 40
1.0
100
AcDbArc
 50
270.0
 51
0.0
  0
LINE
  5
445
330
17
100
AcDbEntity
  8
4
100
AcDbLine
 10
426.1029881844307
 20
987.7482313942935
 30
0.0
 11
426.1029881844306
 21
950.2482313942935
 31
0.0
  0
ARC
  5
446
330
17
100
AcDbEntity
  8
4
100
AcDbCircle
 10
425.1029881844315
 20
988.2482313942935
 30
0.0
 40
1.0
100
AcDbArc
 50
0.0
 51
90.0
  0
LINE
  5
447
330
17
100
AcDbEntity
  8
4
100
AcDbLine
 10
426.1029881844315
 20
1022.748231394293
 30
0.0
 11
426.1029881844315
 21
987.7482313942935
 31
0.0
  0
ARC
  5
448
330
17
100
AcDbEntity
  8
4
100
AcDbCircle
 10
741.1029881844305
 20
950.2482313942933
 30
0.0
 40
5.0
100
AcDbArc
 50
270.0
 51
0.0
  0
LINE
  5
449
330
17
100
AcDbEntity
  8
4
100
AcDbLine
 10
416.1029881844315
 20
1000.248231394293
 30
0.0
 11
346.1029881844315
 21
1000.248231394293
 31
0.0
  0
LINE
  5
44A
330
17
100
AcDbEntity
  8
4
100
AcDbLine
 10
416.1029881844315
 20
1010.248231394293
 30
0.0
 11
346.1029881844315
 21
1010.248231394293
 31
0.0
  0
LINE
  5
44B
330
17
100
AcDbEntity
  8
4
100
AcDbLine
 10
425.1029881844315
 20
1021.248231394293
 30
0.0
 11
347.1029881844315
 21
1021.248231394293
 31
0.0
  0
LINE
  5
44C
330
17
100
AcDbEntity
  8
4
100
AcDbLine
 10
425.1029881844315
 20
989.2482313942935
 30
0.0
 11
347.1029881844306
 21
989.2482313942935
 31
0.0
  0
LINE
  5
450
330
17
100
AcDbEntity
  8
4
100
AcDbLine
 10
725.1029881844306
 20
969.2482313942942
 30
0.0
 11
726.1029881844306
 21
969.2482313942942
 31
0.0
  0
LINE
  5
451
330
17
100
AcDbEntity
  8
L-CENTER
100
AcDbLine
 10
706.1029881844306
 20
980.8379996115834
 30
0.0
 11
706.1029881844306
 21
1029.658463177004
 31
0.0
  0
CIRCLE
  5
452
330
17
100
AcDbEntity
  8
4
100
AcDbCircle
 10
706.1029881844306
 20
1005.248231394293
 30
0.0
 40
14.0
  0
LINE
  5
453
330
17
100
AcDbEntity
  8
4
100
AcDbLine
 10
725.1029881844306
 20
947.2482313942935
 30
0.0
 11
722.1029881844306
 21
947.2482313942935
 31
0.0
  0
ARC
  5
454
330
17
100
AcDbEntity
  8
4
100
AcDbCircle
 10
722.1029881844305
 20
943.2482313942933
 30
0.0
 40
3.0
100
AcDbArc
 50
89.99999999999567
 51
180.0
  0
LINE
  5
455
330
17
100
AcDbEntity
  8
4
100
AcDbLine
 10
719.1029881844306
 20
942.2482313942935
 30
0.0
 11
719.1029881844306
 21
943.2482313942935
 31
0.0
  0
LINE
  5
456
330
17
100
AcDbEntity
  8
4
100
AcDbLine
 10
517.2602856825042
 20
918.3134199008448
 30
0.0
 11
520.8918606326638
 21
905.966065070302
 31
0.0
  0
ARC
  5
457
330
17
100
AcDbEntity
  8
4
100
AcDbCircle
 10
521.8512261342344
 20
906.248231394294
 30
0.0
 40
1.0
100
AcDbArc
 50
196.389540334034
 51
270.0
  0
LINE
  5
458
330
17
100
AcDbEntity
  8
4
100
AcDbLine
 10
504.4363215177632
 20
923.2482313942944
 30
0.0
 11
512.0164995211549
 21
922.5985018511458
 31
0.0
  0
ARC
  5
459
330
17
100
AcDbEntity
  8
4
100
AcDbCircle
 10
511.5040926730762
 20
916.6204219568956
 30
0.0
 40
6.0
100
AcDbArc
 50
16.38954033403375
 51
85.10090754621214
  0
LINE
  5
45A
330
17
100
AcDbEntity
  8
L-CENTER
100
AcDbLine
 10
466.1029881844306
 20
980.8379996115834
 30
0.0
 11
466.1029881844306
 21
1029.658463177004
 31
0.0
  0
LINE
  5
45C
330
17
100
AcDbEntity
  8
4
100
AcDbLine
 10
743.7529828844467
 20
1016.716984706783
 30
0.0
 11
726.1029881844305
 21
1027.748231394294
 31
0.0
  0
LINE
  5
45D
330
17
100
AcDbEntity
  8
4
100
AcDbLine
 10
447.1029881844306
 20
969.2482313942942
 30
0.0
 11
446.1029881844306
 21
969.2482313942942
 31
0.0
  0
LINE
  5
45E
330
17
100
AcDbEntity
  8
4
100
AcDbLine
 10
447.1029881844306
 20
969.2482313942942
 30
0.0
 11
446.1029881844306
 21
969.2482313942942
 31
0.0
  0
LINE
  5
45F
330
17
100
AcDbEntity
  8
4
100
AcDbLine
 10
746.1029881844306
 20
950.2482313942935
 30
0.0
 11
746.102988184429
 21
1012.476993186757
 31
0.0
  0
CIRCLE
  5
460
330
17
100
AcDbEntity
  8
4
100
AcDbCircle
 10
466.1029881844306
 20
1005.248231394293
 30
0.0
 40
14.0
  0
LINE
  5
461
330
17
100
AcDbEntity
  8
L-CENTER
100
AcDbLine
 10
466.1029881844306
 20
909.3310487785545
 30
0.0
 11
466.1029881844306
 21
952.4710807364806
 31
0.0
  0
ARC
  5
462
330
17
100
AcDbEntity
  8
4
100
AcDbCircle
 10
456.1029881844305
 20
941.2482313942935
 30
0.0
 40
1.0
100
AcDbArc
 50
0.0
 51
90.0
  0
ARC
  5
463
330
17
100
AcDbEntity
  8
4
100
AcDbCircle
 10
450.1029881844305
 20
943.2482313942935
 30
0.0
 40
3.0
100
AcDbArc
 50
0.0
 51
89.99999999999567
  0
LINE
  5
464
330
17
100
AcDbEntity
  8
4
100
AcDbLine
 10
453.1029881844306
 20
943.2482313942935
 30
0.0
 11
453.1029881844306
 21
942.2482313942935
 31
0.0
  0
LINE
  5
465
330
17
100
AcDbEntity
  8
4
100
AcDbLine
 10
457.1029881844306
 20
924.248231394294
 30
0.0
 11
457.1029881844306
 21
941.2482313942935
 31
0.0
  0
LINE
  5
466
330
17
100
AcDbEntity
  8
4
100
AcDbLine
 10
450.1029881844306
 20
947.2482313942935
 30
0.0
 11
447.1029881844306
 21
947.2482313942935
 31
0.0
  0
ARC
  5
467
330
17
100
AcDbEntity
  8
4
100
AcDbCircle
 10
458.1029881844302
 20
924.248231394294
 30
0.0
 40
1.0
100
AcDbArc
 50
180.0
 51
270.0
  0
LINE
  5
468
330
17
100
AcDbEntity
  8
4
100
AcDbLine
 10
431.1029881844306
 20
945.2482313942935
 30
0.0
 11
452.3390561619299
 21
945.2482313942935
 31
0.0
  0
ARC
  5
469
330
17
100
AcDbEntity
  8
4
100
AcDbCircle
 10
431.1029881844306
 20
950.2482313942935
 30
0.0
 40
5.0
100
AcDbArc
 50
180.0
 51
270.0
  0
LINE
  5
46A
330
17
100
AcDbEntity
  8
4
100
AcDbLine
 10
715.1029881844306
 20
940.2482313942935
 30
0.0
 11
457.1029881844306
 21
940.2482313942935
 31
0.0
  0
LINE
  5
46B
330
17
100
AcDbEntity
  8
4
100
AcDbLine
 10
719.1029881844306
 20
942.2482313942935
 30
0.0
 11
453.1029881843979
 21
942.2482313942935
 31
0.0
  0
LINE
  5
46C
330
17
100
AcDbEntity
  8
4
100
AcDbLine
 10
722.1029881844306
 20
946.2482313942935
 30
0.0
 11
450.1029881844306
 21
946.2482313942935
 31
0.0
  0
LINE
  5
46D
330
17
100
AcDbEntity
  8
4
100
AcDbLine
 10
714.1029881844306
 20
923.2482313942944
 30
0.0
 11
458.1029881844306
 21
923.248231394294
 31
0.0
  0
LINE
  5
46E
330
17
100
AcDbEntity
  8
4
100
AcDbLine
 10
650.3547502346264
 20
905.248231394294
 30
0.0
 11
521.8512261342348
 21
905.248231394294
 31
0.0
  0
LINE
  5
46F
330
17
100
AcDbEntity
  8
4
100
AcDbLine
 10
669.1029881844306
 20
538.480841629053
 30
0.0
 11
686.1029881844306
 21
538.480841629053
 31
0.0
  0
ARC
  5
472
330
17
100
AcDbEntity
  8
4
100
AcDbCircle
 10
586.1029881844306
 20
591.4808416290525
 30
0.0
 40
5.0
100
AcDbArc
 50
0.0
 51
180.0
  0
LINE
  5
475
330
17
100
AcDbEntity
  8
4
100
AcDbLine
 10
605.1029881844306
 20
545.4810866290522
 30
0.0
 11
605.1029881844306
 21
547.4808416290516
 31
0.0
  0
LINE
  5
476
330
17
100
AcDbEntity
  8
4
100
AcDbLine
 10
600.8253981844305
 20
552.9808416290534
 30
0.0
 11
600.8253981844305
 21
556.9808416290521
 31
0.0
  0
LINE
  5
477
330
17
100
AcDbEntity
  8
4
100
AcDbLine
 10
602.1029881844306
 20
547.4808416290516
 30
0.0
 11
602.1029881844306
 21
549.9808416290516
 31
0.0
  0
LINE
  5
478
330
17
100
AcDbEntity
  8
4
100
AcDbLine
 10
603.1029881844306
 20
549.9808416290516
 30
0.0
 11
603.1029881844306
 21
552.9808416290534
 31
0.0
  0
LINE
  5
479
330
17
100
AcDbEntity
  8
4
100
AcDbLine
 10
598.6029881844306
 20
545.4808416290534
 30
0.0
 11
598.6029881844306
 21
554.4808416290521
 31
0.0
  0
LINE
  5
47A
330
17
100
AcDbEntity
  8
4
100
AcDbLine
 10
598.6029881844306
 20
552.9808416290534
 30
0.0
 11
603.1029881844306
 21
552.9808416290534
 31
0.0
  0
LINE
  5
47B
330
17
100
AcDbEntity
  8
4
100
AcDbLine
 10
598.6029881844306
 20
549.9808416290516
 30
0.0
 11
603.1029881844306
 21
549.9808416290516
 31
0.0
  0
LINE
  5
47C
330
17
100
AcDbEntity
  8
4
100
AcDbLine
 10
598.6029881844306
 20
547.4808416290516
 30
0.0
 11
605.1029881844306
 21
547.4808416290516
 31
0.0
  0
LINE
  5
47D
330
17
100
AcDbEntity
  8
4
100
AcDbLine
 10
606.1029881844306
 20
545.4810866290522
 30
0.0
 11
606.1029881844306
 21
545.2308416290525
 31
0.0
  0
LINE
  5
47E
330
17
100
AcDbEntity
  8
4
100
AcDbLine
 10
591.1029881844306
 20
555.6807916290522
 30
0.0
 11
598.6029881844306
 21
554.4808416290521
 31
0.0
  0
LINE
  5
47F
330
17
100
AcDbEntity
  8
4
100
AcDbLine
 10
591.1029881844306
 20
554.4808416290521
 30
0.0
 11
598.6029881844306
 21
554.4808416290521
 31
0.0
  0
LINE
  5
480
330
17
100
AcDbEntity
  8
4
100
AcDbLine
 10
591.1029881844306
 20
556.9808416290521
 30
0.0
 11
600.8253981844305
 21
556.9808416290521
 31
0.0
  0
LINE
  5
481
330
17
100
AcDbEntity
  8
4
100
AcDbLine
 10
581.1029881844306
 20
549.0369916290529
 30
0.0
 11
581.1029881844306
 21
591.4808416290525
 31
0.0
  0
LINE
  5
482
330
17
100
AcDbEntity
  8
4
100
AcDbLine
 10
591.1029881844306
 20
549.0369916290529
 30
0.0
 11
591.1029881844306
 21
591.4808416290525
 31
0.0
  0
LINE
  5
484
330
17
100
AcDbEntity
  8
4
100
AcDbLine
 10
566.1029881844306
 20
545.4805966290523
 30
0.0
 11
566.1029881844306
 21
545.2308416290525
 31
0.0
  0
LINE
  5
485
330
17
100
AcDbEntity
  8
4
100
AcDbLine
 10
567.1029881844306
 20
545.4805966290523
 30
0.0
 11
567.1029881844306
 21
547.4808416290516
 31
0.0
  0
LINE
  5
486
330
17
100
AcDbEntity
  8
4
100
AcDbLine
 10
569.1029881844306
 20
552.9808416290534
 30
0.0
 11
569.1029881844306
 21
549.9808416290516
 31
0.0
  0
LINE
  5
487
330
17
100
AcDbEntity
  8
4
100
AcDbLine
 10
570.1029881844306
 20
547.4808416290516
 30
0.0
 11
570.1029881844306
 21
549.9808416290516
 31
0.0
  0
LINE
  5
488
330
17
100
AcDbEntity
  8
4
100
AcDbLine
 10
571.3805781844308
 20
552.9808416290534
 30
0.0
 11
571.3805781844308
 21
556.9808416290521
 31
0.0
  0
LINE
  5
489
330
17
100
AcDbEntity
  8
4
100
AcDbLine
 10
573.6029881844306
 20
545.4808416290534
 30
0.0
 11
573.6029881844306
 21
554.4808416290521
 31
0.0
  0
LINE
  5
48A
330
17
100
AcDbEntity
  8
4
100
AcDbLine
 10
569.1029881844306
 20
552.9808416290534
 30
0.0
 11
573.6029881844306
 21
552.9808416290534
 31
0.0
  0
LINE
  5
48B
330
17
100
AcDbEntity
  8
4
100
AcDbLine
 10
569.1029881844306
 20
549.9808416290516
 30
0.0
 11
573.6029881844306
 21
549.9808416290516
 31
0.0
  0
LINE
  5
48C
330
17
100
AcDbEntity
  8
4
100
AcDbLine
 10
567.1029881844306
 20
547.4808416290516
 30
0.0
 11
573.6029881844306
 21
547.4808416290516
 31
0.0
  0
LINE
  5
48D
330
17
100
AcDbEntity
  8
4
100
AcDbLine
 10
475.1066101302831
 20
517.4578161276431
 30
0.0
 11
483.7030831844309
 21
517.4578161276431
 31
0.0
  0
ARC
  5
48E
330
17
100
AcDbEntity
  8
4
100
AcDbCircle
 10
477.9866971134902
 20
500.2816456192513
 30
0.0
 40
3.783613929059507
100
AcDbArc
 50
139.5701031551729
 51
220.4298968448271
  0
ARC
  5
48F
330
17
100
AcDbEntity
  8
4
100
AcDbCircle
 10
487.9822484818906
 20
507.6428615514196
 30
0.0
 40
13.77916529745958
100
AcDbArc
 50
159.1359356360806
 51
200.8640643639194
  0
LINE
  5
490
330
17
100
AcDbEntity
  8
4
100
AcDbLine
 10
483.7030831844309
 20
497.8279069751961
 30
0.0
 11
475.1066101302831
 21
497.8279069751961
 31
0.0
  0
LINE
  5
491
330
17
100
AcDbEntity
  8
4
100
AcDbLine
 10
475.1066101302831
 20
502.7353842633074
 30
0.0
 11
481.2030831844309
 21
502.7353842633074
 31
0.0
  0
LINE
  5
492
330
17
100
AcDbEntity
  8
4
100
AcDbLine
 10
475.1066101302831
 20
512.5503388395309
 30
0.0
 11
481.2030831844309
 21
512.5503388395309
 31
0.0
  0
LINE
  5
493
330
17
100
AcDbEntity
  8
4
100
AcDbLine
 10
481.2030831844309
 20
517.4578161276431
 30
0.0
 11
481.2030831844309
 21
497.8279069751961
 31
0.0
  0
LINE
  5
494
330
17
100
AcDbEntity
  8
4
100
AcDbLine
 10
474.2030831844309
 20
500.2816456192513
 30
0.0
 11
474.2030831844309
 21
515.004077483587
 31
0.0
  0
ARC
  5
495
330
17
100
AcDbEntity
  8
4
100
AcDbCircle
 10
477.9866971134902
 20
515.004077483587
 30
0.0
 40
3.783613929059507
100
AcDbArc
 50
139.5701031551729
 51
220.4298968448271
  0
LINE
  5
496
330
17
100
AcDbEntity
  8
4
100
AcDbLine
 10
483.7030831844309
 20
517.4578161276431
 30
0.0
 11
483.7030831844309
 21
497.8279069751961
 31
0.0
  0
LINE
  5
498
330
17
100
AcDbEntity
  8
4
100
AcDbLine
 10
503.1029881844306
 20
538.480841629053
 30
0.0
 11
483.7030831844309
 21
538.480841629053
 31
0.0
  0
LINE
  5
499
330
17
100
AcDbEntity
  8
L-CENTER
100
AcDbLine
 10
527.046916495492
 20
507.6428615514196
 30
0.0
 11
471.3351049298508
 21
507.6428615514196
 31
0.0
  0
ARC
  5
49B
330
17
100
AcDbEntity
  8
4
100
AcDbCircle
 10
586.1029881844306
 20
-254.5191583709466
 30
0.0
 40
800.00001
100
AcDbArc
 50
84.04482800000001
 51
95.955469
  0
LINE
  5
49C
330
17
100
AcDbEntity
  8
4
100
AcDbLine
 10
606.1029881844306
 20
545.4810866290522
 30
0.0
 11
566.1029881844306
 21
545.4805966290523
 31
0.0
  0
LINE
  5
49D
330
17
100
AcDbEntity
  8
4
100
AcDbLine
 10
602.1029881844306
 20
547.4808416290516
 30
0.0
 11
570.1029881844306
 21
547.4808416290516
 31
0.0
  0
LINE
  5
49E
330
17
100
AcDbEntity
  8
4
100
AcDbLine
 10
573.6029881844306
 20
545.4808416290534
 30
0.0
 11
598.6029881844306
 21
545.4808416290534
 31
0.0
  0
LINE
  5
49F
330
17
100
AcDbEntity
  8
4
100
AcDbLine
 10
581.1029881844306
 20
555.6807916290522
 30
0.0
 11
573.6029881844306
 21
554.4808416290521
 31
0.0
  0
LINE
  5
4A0
330
17
100
AcDbEntity
  8
4
100
AcDbLine
 10
573.6029881844306
 20
554.4808416290521
 30
0.0
 11
581.1029881844306
 21
554.4808416290521
 31
0.0
  0
LINE
  5
4A1
330
17
100
AcDbEntity
  8
4
100
AcDbLine
 10
571.3805781844308
 20
556.9808416290521
 30
0.0
 11
581.1029881844306
 21
556.9808416290521
 31
0.0
  0
LINE
  5
4A4
330
17
100
AcDbEntity
  8
L-CENTER
100
AcDbLine
 10
341.0143224790543
 20
1005.248231394293
 30
0.0
 11
730.2840618943551
 21
1005.248231394293
 31
0.0
  0
LINE
  5
4A5
330
17
100
AcDbEntity
  8
4
100
AcDbLine
 10
446.1029881844306
 20
1027.748231394293
 30
0.0
 11
438.1029881844313
 21
1022.748231394294
 31
0.0
  0
LINE
  5
4A6
330
17
100
AcDbEntity
  8
4
100
AcDbLine
 10
719.8669202069304
 20
945.2482313942935
 30
0.0
 11
741.1029881844306
 21
945.2482313942935
 31
0.0
  0
LINE
  5
4A7
330
17
100
AcDbEntity
  8
4
100
AcDbLine
 10
446.1029881844306
 20
1022.748231394293
 30
0.0
 11
426.1029881844315
 21
1022.748231394293
 31
0.0
  0
LINE
  5
4A8
330
17
100
AcDbEntity
  8
4
100
AcDbLine
 10
446.1029881844306
 20
987.7482313942935
 30
0.0
 11
426.1029881844315
 21
987.7482313942935
 31
0.0
  0
LINE
  5
4A9
330
17
100
AcDbEntity
  8
L-CENTER
100
AcDbLine
 10
586.1029881844306
 20
897.1009753264887
 30
0.0
 11
586.1029881844306
 21
1447.613908665681
 31
0.0
  0
LINE
  5
4AA
330
17
100
AcDbEntity
  8
4
100
AcDbLine
 10
450.1029881844306
 20
946.2482313942935
 30
0.0
 11
450.1029881844306
 21
1064.248231394293
 31
0.0
  0
LINE
  5
4AB
330
17
100
AcDbEntity
  8
4
100
AcDbLine
 10
447.1029881844306
 20
947.2482313942935
 30
0.0
 11
447.1029881844306
 21
1063.248231394293
 31
0.0
  0
LINE
  5
4AC
330
17
100
AcDbEntity
  8
4
100
AcDbLine
 10
506.1029881844306
 20
1005.248231394293
 30
0.0
 11
506.1029881844306
 21
1081.248231394293
 31
0.0
  0
LINE
  5
4AD
330
17
100
AcDbEntity
  8
4
100
AcDbLine
 10
722.1029881844306
 20
946.2482313942935
 30
0.0
 11
722.1029881844306
 21
1064.248231394293
 31
0.0
  0
LINE
  5
4AE
330
17
100
AcDbEntity
  8
4
100
AcDbLine
 10
725.1029881844306
 20
947.2482313942935
 30
0.0
 11
725.1029881844306
 21
1063.248231394293
 31
0.0
  0
LINE
  5
4AF
330
17
100
AcDbEntity
  8
4
100
AcDbLine
 10
666.1029881844306
 20
1081.248231394293
 30
0.0
 11
666.1029881844306
 21
1005.248231394293
 31
0.0
  0
LINE
  5
4B0
330
17
100
AcDbEntity
  8
4
100
AcDbLine
 10
446.1029881844306
 20
1041.248231394295
 30
0.0
 11
446.1029881844306
 21
969.2482313942942
 31
0.0
  0
LINE
  5
4B1
330
17
100
AcDbEntity
  8
4
100
AcDbLine
 10
726.1029881844306
 20
1041.248231394295
 30
0.0
 11
726.1029881844306
 21
969.2482313942942
 31
0.0
  0
LINE
  5
4B2
330
17
100
AcDbEntity
  8
4
100
AcDbLine
 10
327.1029881844306
 20
1291.748231394293
 30
0.0
 11
326.1029881844306
 21
1290.748231394293
 31
0.0
  0
LINE
  5
4B3
330
17
100
AcDbEntity
  8
4
100
AcDbLine
 10
327.1029881844306
 20
1265.248231394293
 30
0.0
 11
327.1029881844306
 21
1291.748231394293
 31
0.0
  0
LINE
  5
4B4
330
17
100
AcDbEntity
  8
4
100
AcDbLine
 10
327.1029881844306
 20
1218.748231394293
 30
0.0
 11
327.1029881844306
 21
1245.248231394293
 31
0.0
  0
LINE
  5
4B5
330
17
100
AcDbEntity
  8
4
100
AcDbLine
 10
327.1029881844306
 20
1218.748231394293
 30
0.0
 11
326.1029881844306
 21
1219.748231394293
 31
0.0
  0
POINT
  5
4B6
330
17
100
AcDbEntity
  8
DEFPOINTS
  6
ByBlock
 62
     0
100
AcDbPoint
 10
326.1029881844306
 20
1219.748231394293
 30
0.0
  0
LINE
  5
4B8
330
17
100
AcDbEntity
  8
4
100
AcDbLine
 10
326.1029881844306
 20
1219.748231394293
 30
0.0
 11
326.1029881844306
 21
1290.748231394293
 31
0.0
  0
LINE
  5
4C1
330
17
100
AcDbEntity
  8
L-CENTER
100
AcDbLine
 10
319.2745274629132
 20
1255.248231394293
 30
0.0
 11
705.9121250801123
 21
1255.248231394293
 31
0.0
  0
LINE
  5
4C2
330
17
100
AcDbEntity
  8
4
100
AcDbLine
 10
426.1029881844306
 20
1245.248231394293
 30
0.0
 11
326.1029881844306
 21
1245.248231394293
 31
0.0
  0
LINE
  5
4C3
330
17
100
AcDbEntity
  8
4
100
AcDbLine
 10
426.1029881844306
 20
1265.248231394293
 30
0.0
 11
326.1029881844306
 21
1265.248231394293
 31
0.0
  0
LINE
  5
4C4
330
17
100
AcDbEntity
  8
4
100
AcDbLine
 10
327.1029881844306
 20
1218.748231394293
 30
0.0
 11
445.6029881844306
 21
1218.748231394293
 31
0.0
  0
LINE
  5
4C5
330
17
100
AcDbEntity
  8
4
100
AcDbLine
 10
327.1029881844306
 20
1291.748231394293
 30
0.0
 11
445.6029881844306
 21
1291.748231394293
 31
0.0
  0
LINE
  5
4DC
330
17
100
AcDbEntity
  8
4
100
AcDbLine
 10
746.1029881844306
 20
41.48084162905252
 30
0.0
 11
746.1029881844306
 21
71.48084162905252
 31
0.0
  0
TEXT
  5
4DD
330
17
100
AcDbEntity
  8
3
100
AcDbText
 10
901.4609076957579
 20
40.09651560937664
 30
0.0
 40
15.61517997527595
  1
LE6-01
  7
KANJI
100
AcDbText
  0
LINE
  5
4E1
330
17
100
AcDbEntity
  8
4
100
AcDbLine
 10
720.1026981844307
 20
400.4807586290531
 30
0.0
 11
718.6026981844307
 21
401.4807586290531
 31
0.0
  0
LINE
  5
4E2
330
17
100
AcDbEntity
  8
4
100
AcDbLine
 10
720.1026981844307
 20
400.4807586290531
 30
0.0
 11
720.1026981844307
 21
398.4807586290531
 31
0.0
  0
LINE
  5
4E3
330
17
100
AcDbEntity
  8
4
100
AcDbLine
 10
718.6026981844307
 20
398.4807586290531
 30
0.0
 11
718.6026981844307
 21
385.4807586290531
 31
0.0
  0
LINE
  5
4E4
330
17
100
AcDbEntity
  8
4
100
AcDbLine
 10
693.6026981844307
 20
401.4807586290531
 30
0.0
 11
692.1026981844307
 21
400.4807586290531
 31
0.0
  0
LINE
  5
4E5
330
17
100
AcDbEntity
  8
4
100
AcDbLine
 10
692.1026971844308
 20
400.4807586290531
 30
0.0
 11
692.1026981844307
 21
398.4807586290531
 31
0.0
  0
LINE
  5
4E6
330
17
100
AcDbEntity
  8
4
100
AcDbLine
 10
693.6026981844307
 20
398.4807586290531
 30
0.0
 11
693.6026981844307
 21
385.4807586290531
 31
0.0
  0
LINE
  5
4E7
330
17
100
AcDbEntity
  8
4
100
AcDbLine
 10
720.1026981844307
 20
400.4807586290531
 30
0.0
 11
692.1026981844307
 21
400.4807586290531
 31
0.0
  0
LINE
  5
4E8
330
17
100
AcDbEntity
  8
4
100
AcDbLine
 10
720.1026981844307
 20
398.4807586290531
 30
0.0
 11
692.1026981844307
 21
398.4807586290531
 31
0.0
  0
LINE
  5
4E9
330
17
100
AcDbEntity
  8
4
100
AcDbLine
 10
718.6026981844307
 20
401.4807586290531
 30
0.0
 11
693.6026981844307
 21
401.4807586290531
 31
0.0
  0
LINE
  5
4EA
330
17
100
AcDbEntity
  8
4
100
AcDbLine
 10
718.6026981844307
 20
385.4807586290531
 30
0.0
 11
693.6026981844307
 21
385.4807586290531
 31
0.0
  0
LINE
  5
4EB
330
17
100
AcDbEntity
  8
4
100
AcDbLine
 10
717.6026981844307
 20
385.4807586290531
 30
0.0
 11
693.6026981844307
 21
385.4807586290531
 31
0.0
  0
LINE
  5
4EC
330
17
100
AcDbEntity
  8
4
100
AcDbLine
 10
698.1029881844306
 20
401.4807586290531
 30
0.0
 11
698.1029881844306
 21
431.4808416290525
 31
0.0
  0
LINE
  5
4ED
330
17
100
AcDbEntity
  8
4
100
AcDbLine
 10
686.1029881844306
 20
435.618781629053
 30
0.0
 11
698.1029881844306
 21
431.4808416290525
 31
0.0
  0
LINE
  5
4EE
330
17
100
AcDbEntity
  8
4
100
AcDbLine
 10
726.1029881844306
 20
350.4808416290534
 30
0.0
 11
725.1029881844306
 21
350.4808416290534
 31
0.0
  0
LINE
  5
4EF
330
17
100
AcDbEntity
  8
4
100
AcDbLine
 10
722.1029881844306
 20
368.480841629053
 30
0.0
 11
725.1029881844306
 21
368.480841629053
 31
0.0
  0
LINE
  5
4F0
330
17
100
AcDbEntity
  8
4
100
AcDbLine
 10
712.1026981844307
 20
380.3676796290529
 30
0.0
 11
712.1026981844307
 21
373.4807586290531
 31
0.0
  0
LINE
  5
4F1
330
17
100
AcDbEntity
  8
4
100
AcDbLine
 10
700.1026981844307
 20
379.9807586290531
 30
0.0
 11
700.1026981844307
 21
373.4807586290531
 31
0.0
  0
ARC
  5
4F2
330
17
100
AcDbEntity
  8
4
100
AcDbCircle
 10
703.1031331844306
 20
369.2316286290529
 30
0.0
 40
9.249130000000001
100
AcDbArc
 50
71.07445700000008
 51
108.9255429999999
  0
ARC
  5
4F3
330
17
100
AcDbEntity
  8
4
100
AcDbCircle
 10
709.1028431844306
 20
369.2316286290529
 30
0.0
 40
9.249130000000001
100
AcDbArc
 50
71.07445700000008
 51
108.9255429999999
  0
ARC
  5
4F4
330
17
100
AcDbEntity
  8
4
100
AcDbCircle
 10
700.6637781844306
 20
306.041631629053
 30
0.0
 40
5.000020000000001
100
AcDbArc
 50
13.38212300000026
 51
76.61787699999975
  0
LINE
  5
4F5
330
17
100
AcDbEntity
  8
4
100
AcDbLine
 10
698.1029881844306
 20
373.480841629053
 30
0.0
 11
698.1029881844306
 21
384.2231600617207
 31
0.0
  0
LINE
  5
4F6
330
17
100
AcDbEntity
  8
L-CENTER
100
AcDbLine
 10
706.1029881844306
 20
358.480841629053
 30
0.0
 11
706.1029881844306
 21
405.7297282353911
 31
0.0
  0
ARC
  5
4F7
330
17
100
AcDbEntity
  8
4
100
AcDbCircle
 10
694.6026981844307
 20
379.9807586290531
 30
0.0
 40
5.5
100
AcDbArc
 50
0.0
 51
90.96750599999956
  0
ARC
  5
4F8
330
17
100
AcDbEntity
  8
4
100
AcDbCircle
 10
717.6026981844307
 20
379.9807586290531
 30
0.0
 40
5.5
100
AcDbArc
 50
90.0
 51
180.0
  0
LINE
  5
4F9
330
17
100
AcDbEntity
  8
4
100
AcDbLine
 10
725.1029881844306
 20
278.480841629053
 30
0.0
 11
726.1029881844306
 21
278.480841629053
 31
0.0
  0
LINE
  5
4FA
330
17
100
AcDbEntity
  8
4
100
AcDbLine
 10
725.1029881844306
 20
260.4808416290534
 30
0.0
 11
722.1029881844306
 21
260.4808416290534
 31
0.0
  0
ARC
  5
4FB
330
17
100
AcDbEntity
  8
4
100
AcDbCircle
 10
718.373008184431
 20
252.6236616290525
 30
0.0
 40
3.00002
100
AcDbArc
 50
90.0
 51
186.9833230000008
  0
LINE
  5
4FC
330
17
100
AcDbEntity
  8
4
100
AcDbLine
 10
718.373008184431
 20
255.6236616290521
 30
0.0
 11
722.1029881844306
 21
255.6236616290521
 31
0.0
  0
ARC
  5
4FD
330
17
100
AcDbEntity
  8
4
100
AcDbCircle
 10
676.6326531844306
 20
231.5480266290529
 30
0.0
 40
6.0
100
AcDbArc
 50
260.906255
 51
23.8735219999994
  0
ARC
  5
4FE
330
17
100
AcDbEntity
  8
4
100
AcDbCircle
 10
657.5187431844306
 20
231.5692516290533
 30
0.0
 40
3.0
100
AcDbArc
 50
184.5261559999994
 51
260.9062549999988
  0
LINE
  5
4FF
330
17
100
AcDbEntity
  8
4
100
AcDbLine
 10
675.6843531844306
 20
225.6234416290526
 30
0.0
 11
657.0445931844306
 21
228.6069616290529
 31
0.0
  0
ARC
  5
500
330
17
100
AcDbEntity
  8
4
100
AcDbCircle
 10
676.6326531844306
 20
151.4136566290522
 30
0.0
 40
6.0
100
AcDbArc
 50
336.1264780000006
 51
99.09374499999998
  0
ARC
  5
501
330
17
100
AcDbEntity
  8
4
100
AcDbCircle
 10
657.5187431844306
 20
151.3924316290518
 30
0.0
 40
3.0
100
AcDbArc
 50
99.09374499999907
 51
175.4738440000006
  0
LINE
  5
502
330
17
100
AcDbEntity
  8
4
100
AcDbLine
 10
675.6843531844306
 20
157.3382416290524
 30
0.0
 11
657.0445931844306
 21
154.3547216290522
 31
0.0
  0
ARC
  5
503
330
17
100
AcDbEntity
  8
4
100
AcDbCircle
 10
151.1029881844306
 20
191.4808416290525
 30
0.0
 40
505.0
100
AcDbArc
 50
352.9652109999999
 51
7.034789000000055
  0
ARC
  5
504
330
17
100
AcDbEntity
  8
4
100
AcDbCircle
 10
646.4415181844306
 20
251.8193716290516
 30
0.0
 40
1.0
100
AcDbArc
 50
6.945138000002625
 51
83.05486199999737
  0
ARC
  5
505
330
17
100
AcDbEntity
  8
4
100
AcDbCircle
 10
626.1913981844309
 20
262.896596629053
 30
0.0
 40
3.0
100
AcDbArc
 50
189.0937449999991
 51
265.4738440000007
  0
ARC
  5
506
330
17
100
AcDbEntity
  8
4
100
AcDbCircle
 10
626.1701731844305
 20
282.0105066290516
 30
0.0
 40
6.0
100
AcDbArc
 50
66.12647800000062
 51
189.093745
  0
LINE
  5
507
330
17
100
AcDbEntity
  8
4
100
AcDbLine
 10
620.2455881844307
 20
281.0622066290516
 30
0.0
 11
623.2291081844305
 21
262.422446629053
 31
0.0
  0
ARC
  5
508
330
17
100
AcDbEntity
  8
4
100
AcDbCircle
 10
646.4415181844306
 20
131.1423116290534
 30
0.0
 40
1.0
100
AcDbArc
 50
276.9451380000027
 51
353.0548619999973
  0
ARC
  5
509
330
17
100
AcDbEntity
  8
4
100
AcDbCircle
 10
626.1913981844309
 20
120.0650866290521
 30
0.0
 40
3.0
100
AcDbArc
 50
94.52615599999935
 51
170.9062550000009
  0
ARC
  5
50A
330
17
100
AcDbEntity
  8
4
100
AcDbCircle
 10
151.1029881844306
 20
191.4808416290525
 30
0.0
 40
500.0
100
AcDbArc
 50
353.054862
 51
6.945137999999995
  0
ARC
  5
50B
330
17
100
AcDbEntity
  8
4
100
AcDbCircle
 10
647.3389731844309
 20
130.2448566290518
 30
0.0
 40
5.0
100
AcDbArc
 50
277.0347890000005
 51
352.9652109999995
  0
ARC
  5
50C
330
17
100
AcDbEntity
  8
4
100
AcDbCircle
 10
647.3389731844309
 20
252.7168266290532
 30
0.0
 40
5.0
100
AcDbArc
 50
7.034789000000523
 51
82.96521099999948
  0
ARC
  5
50D
330
17
100
AcDbEntity
  8
4
100
AcDbCircle
 10
219.1029881844306
 20
191.4808416290525
 30
0.0
 40
499.999965
100
AcDbArc
 50
0.0
 51
13.381605
  0
LINE
  5
50E
330
17
100
AcDbEntity
  8
4
100
AcDbLine
 10
726.1029881844306
 20
350.4808416290534
 30
0.0
 11
726.1029881844306
 21
278.480841629053
 31
0.0
  0
LINE
  5
50F
330
17
100
AcDbEntity
  8
4
100
AcDbLine
 10
722.1029881844306
 20
255.6236616290521
 30
0.0
 11
722.1029881844306
 21
373.480841629053
 31
0.0
  0
LINE
  5
510
330
17
100
AcDbEntity
  8
4
100
AcDbLine
 10
725.1029881844306
 20
260.4808416290534
 30
0.0
 11
725.1029881844306
 21
368.480841629053
 31
0.0
  0
LINE
  5
511
330
17
100
AcDbEntity
  8
4
100
AcDbLine
 10
483.7030831844309
 20
435.4808416290534
 30
0.0
 11
473.7030831844309
 21
431.4808416290525
 31
0.0
  0
LINE
  5
512
330
17
100
AcDbEntity
  8
4
100
AcDbLine
 10
478.6026981844307
 20
398.4807586290531
 30
0.0
 11
478.6026981844307
 21
385.4807586290531
 31
0.0
  0
LINE
  5
513
330
17
100
AcDbEntity
  8
4
100
AcDbLine
 10
480.1026981844307
 20
400.4807586290531
 30
0.0
 11
480.1026981844307
 21
398.4807586290531
 31
0.0
  0
LINE
  5
514
330
17
100
AcDbEntity
  8
4
100
AcDbLine
 10
480.1026981844307
 20
400.4807586290531
 30
0.0
 11
478.6026981844307
 21
401.4807586290531
 31
0.0
  0
LINE
  5
515
330
17
100
AcDbEntity
  8
4
100
AcDbLine
 10
473.7030831844309
 20
416.4808416290525
 30
0.0
 11
472.7030831844304
 21
416.4808416290525
 31
0.0
  0
LINE
  5
516
330
17
100
AcDbEntity
  8
4
100
AcDbLine
 10
472.7030831844303
 20
401.4807586290531
 30
0.0
 11
472.7030831844304
 21
416.4808416290525
 31
0.0
  0
LINE
  5
517
330
17
100
AcDbEntity
  8
4
100
AcDbLine
 10
473.7030831844309
 20
401.4807586290531
 30
0.0
 11
473.7030831844309
 21
431.4808416290525
 31
0.0
  0
ARC
  5
518
330
17
100
AcDbEntity
  8
4
100
AcDbCircle
 10
445.1029881844306
 20
403.9808416290525
 30
0.0
 40
1.0
100
AcDbArc
 50
270.0
 51
0.0
  0
LINE
  5
519
330
17
100
AcDbEntity
  8
4
100
AcDbLine
 10
453.6026981844307
 20
398.4807586290531
 30
0.0
 11
453.6026981844307
 21
385.4807586290531
 31
0.0
  0
LINE
  5
51A
330
17
100
AcDbEntity
  8
4
100
AcDbLine
 10
452.1026971844308
 20
400.4807586290531
 30
0.0
 11
452.1026981844307
 21
398.4807586290531
 31
0.0
  0
LINE
  5
51B
330
17
100
AcDbEntity
  8
4
100
AcDbLine
 10
453.6026981844307
 20
401.4807586290531
 30
0.0
 11
452.1026981844307
 21
400.4807586290531
 31
0.0
  0
LINE
  5
51C
330
17
100
AcDbEntity
  8
4
100
AcDbLine
 10
436.1029881844306
 20
402.9808416290534
 30
0.0
 11
436.1029881844306
 21
408.9808416290525
 31
0.0
  0
LINE
  5
51D
330
17
100
AcDbEntity
  8
4
100
AcDbLine
 10
472.7030831844304
 20
403.9808416290525
 30
0.0
 11
446.1029881844306
 21
403.9808416290525
 31
0.0
  0
LINE
  5
51E
330
17
100
AcDbEntity
  8
4
100
AcDbLine
 10
477.6026981844307
 20
385.4807586290531
 30
0.0
 11
453.6026981844307
 21
385.4807586290531
 31
0.0
  0
LINE
  5
51F
330
17
100
AcDbEntity
  8
4
100
AcDbLine
 10
478.6026981844307
 20
385.4807586290531
 30
0.0
 11
453.6026981844307
 21
385.4807586290531
 31
0.0
  0
LINE
  5
520
330
17
100
AcDbEntity
  8
4
100
AcDbLine
 10
478.6026981844307
 20
401.4807586290531
 30
0.0
 11
453.6026981844307
 21
401.4807586290531
 31
0.0
  0
LINE
  5
521
330
17
100
AcDbEntity
  8
4
100
AcDbLine
 10
480.1026981844307
 20
398.4807586290531
 30
0.0
 11
452.1026981844307
 21
398.4807586290531
 31
0.0
  0
LINE
  5
522
330
17
100
AcDbEntity
  8
4
100
AcDbLine
 10
480.1026981844307
 20
400.4807586290531
 30
0.0
 11
452.1026981844307
 21
400.4807586290531
 31
0.0
  0
LINE
  5
523
330
17
100
AcDbEntity
  8
4
100
AcDbLine
 10
483.7030831844309
 20
376.295796205276
 30
0.0
 11
483.7030831844309
 21
373.4808416290531
 31
0.0
  0
LINE
  5
524
330
17
100
AcDbEntity
  8
4
100
AcDbLine
 10
481.2030831844309
 20
376.295796205276
 30
0.0
 11
481.2030831844308
 21
373.4808416290531
 31
0.0
  0
ARC
  5
525
330
17
100
AcDbEntity
  8
4
100
AcDbCircle
 10
477.9866971134902
 20
373.8420575612199
 30
0.0
 40
3.783613929059507
100
AcDbArc
 50
139.5701031551729
 51
185.4782852308402
  0
LINE
  5
526
330
17
100
AcDbEntity
  8
4
100
AcDbLine
 10
474.2030831844309
 20
373.4808416290531
 30
0.0
 11
474.2030831844309
 21
373.8420575612199
 31
0.0
  0
ARC
  5
527
330
17
100
AcDbEntity
  8
4
100
AcDbCircle
 10
469.1028431844306
 20
369.2316286290529
 30
0.0
 40
9.249130000000001
100
AcDbArc
 50
71.07445700000008
 51
108.9255429999999
  0
ARC
  5
528
330
17
100
AcDbEntity
  8
4
100
AcDbCircle
 10
463.1031331844306
 20
369.2316286290529
 30
0.0
 40
9.249130000000001
100
AcDbArc
 50
71.07445700000008
 51
108.9255429999999
  0
LINE
  5
529
330
17
100
AcDbEntity
  8
4
100
AcDbLine
 10
472.1026981844307
 20
380.3676796290529
 30
0.0
 11
472.1026981844307
 21
373.4807586290531
 31
0.0
  0
LINE
  5
52A
330
17
100
AcDbEntity
  8
4
100
AcDbLine
 10
460.1026981844307
 20
379.9807586290531
 30
0.0
 11
460.1026981844307
 21
373.4807586290531
 31
0.0
  0
LINE
  5
52B
330
17
100
AcDbEntity
  8
4
100
AcDbLine
 10
475.1066101302831
 20
376.295796205276
 30
0.0
 11
483.7030831844309
 21
376.295796205276
 31
0.0
  0
ARC
  5
52C
330
17
100
AcDbEntity
  8
4
100
AcDbCircle
 10
471.5421981844306
 20
306.041631629053
 30
0.0
 40
5.000020000000001
100
AcDbArc
 50
103.3821340000002
 51
166.6178769999996
  0
LINE
  5
52D
330
17
100
AcDbEntity
  8
4
100
AcDbLine
 10
446.1029881844306
 20
350.4808416290534
 30
0.0
 11
447.1029881844306
 21
350.4808416290534
 31
0.0
  0
LINE
  5
52E
330
17
100
AcDbEntity
  8
4
100
AcDbLine
 10
447.1029881844306
 20
368.480841629053
 30
0.0
 11
450.1029881844306
 21
368.480841629053
 31
0.0
  0
LINE
  5
52F
330
17
100
AcDbEntity
  8
4
100
AcDbLine
 10
446.1029881844306
 20
350.4808416290534
 30
0.0
 11
447.1029881844306
 21
350.4808416290534
 31
0.0
  0
LINE
  5
530
330
17
100
AcDbEntity
  8
4
100
AcDbLine
 10
473.7030831844309
 20
373.480841629053
 30
0.0
 11
473.7030831844309
 21
383.8592896463039
 31
0.0
  0
LINE
  5
531
330
17
100
AcDbEntity
  8
4
100
AcDbLine
 10
472.7030831844304
 20
373.480841629053
 30
0.0
 11
472.7030831844304
 21
382.4795128890339
 31
0.0
  0
ARC
  5
532
330
17
100
AcDbEntity
  8
4
100
AcDbCircle
 10
477.6026981844307
 20
379.9807586290531
 30
0.0
 40
5.5
100
AcDbArc
 50
90.0
 51
180.0
  0
ARC
  5
533
330
17
100
AcDbEntity
  8
4
100
AcDbCircle
 10
454.6026981844307
 20
379.9807586290531
 30
0.0
 40
5.5
100
AcDbArc
 50
0.0
 51
90.96750600000016
  0
ARC
  5
534
330
17
100
AcDbEntity
  8
4
100
AcDbCircle
 10
546.0358031844307
 20
282.0105066290516
 30
0.0
 40
6.0
100
AcDbArc
 50
350.906255
 51
113.8735219999994
  0
LINE
  5
535
330
17
100
AcDbEntity
  8
4
100
AcDbLine
 10
551.9603881844305
 20
281.0622066290516
 30
0.0
 11
548.9768681844307
 21
262.422446629053
 31
0.0
  0
ARC
  5
536
330
17
100
AcDbEntity
  8
4
100
AcDbCircle
 10
546.0145781844303
 20
262.896596629053
 30
0.0
 40
3.0
100
AcDbArc
 50
274.5261559999993
 51
350.9062549999988
  0
ARC
  5
537
330
17
100
AcDbEntity
  8
4
100
AcDbCircle
 10
524.8670031844304
 20
252.7168266290532
 30
0.0
 40
5.0
100
AcDbArc
 50
97.03478900000052
 51
172.9652109999995
  0
ARC
  5
538
330
17
100
AcDbEntity
  8
4
100
AcDbCircle
 10
525.7644581844306
 20
251.8193716290516
 30
0.0
 40
1.0
100
AcDbArc
 50
96.94513800000264
 51
173.0548619999974
  0
ARC
  5
539
330
17
100
AcDbEntity
  8
4
100
AcDbCircle
 10
514.6872331844306
 20
231.5692516290533
 30
0.0
 40
3.0
100
AcDbArc
 50
279.0937449999991
 51
355.4738440000006
  0
ARC
  5
53A
330
17
100
AcDbEntity
  8
4
100
AcDbCircle
 10
546.0145781844303
 20
120.0650866290521
 30
0.0
 40
3.0
100
AcDbArc
 50
9.093744999999087
 51
85.47384400000065
  0
ARC
  5
53B
330
17
100
AcDbEntity
  8
4
100
AcDbCircle
 10
524.8670031844304
 20
130.2448566290518
 30
0.0
 40
5.0
100
AcDbArc
 50
187.0347890000005
 51
262.9652109999995
  0
ARC
  5
53C
330
17
100
AcDbEntity
  8
4
100
AcDbCircle
 10
525.7644581844306
 20
131.1423116290534
 30
0.0
 40
1.0
100
AcDbArc
 50
186.9451380000026
 51
263.0548619999973
  0
ARC
  5
53D
330
17
100
AcDbEntity
  8
4
100
AcDbCircle
 10
514.6872331844306
 20
151.3924316290518
 30
0.0
 40
3.0
100
AcDbArc
 50
4.526155999999363
 51
80.90625500000093
  0
ARC
  5
53E
330
17
100
AcDbEntity
  8
4
100
AcDbCircle
 10
1021.102988184431
 20
191.4808416290525
 30
0.0
 40
505.0
100
AcDbArc
 50
172.965211
 51
187.034789
  0
ARC
  5
53F
330
17
100
AcDbEntity
  8
4
100
AcDbCircle
 10
1021.102988184431
 20
191.4808416290525
 30
0.0
 40
500.0
100
AcDbArc
 50
173.054862
 51
186.945138
  0
ARC
  5
540
330
17
100
AcDbEntity
  8
4
100
AcDbCircle
 10
495.5733231844306
 20
231.5480266290529
 30
0.0
 40
6.0
100
AcDbArc
 50
156.1264780000006
 51
279.093745
  0
LINE
  5
541
330
17
100
AcDbEntity
  8
4
100
AcDbLine
 10
447.1029881844306
 20
278.480841629053
 30
0.0
 11
446.1029881844306
 21
278.480841629053
 31
0.0
  0
LINE
  5
542
330
17
100
AcDbEntity
  8
4
100
AcDbLine
 10
450.1029881844306
 20
260.4808416290534
 30
0.0
 11
447.1029881844306
 21
260.4808416290534
 31
0.0
  0
ARC
  5
543
330
17
100
AcDbEntity
  8
4
100
AcDbCircle
 10
453.8329681844307
 20
252.6236616290525
 30
0.0
 40
3.00002
100
AcDbArc
 50
353.0166769999991
 51
90.0
  0
LINE
  5
544
330
17
100
AcDbEntity
  8
4
100
AcDbLine
 10
453.8329681844307
 20
255.6236616290521
 30
0.0
 11
450.1029881844306
 21
255.6236616290521
 31
0.0
  0
LINE
  5
545
330
17
100
AcDbEntity
  8
4
100
AcDbLine
 10
447.1029881844306
 20
278.480841629053
 30
0.0
 11
446.1029881844306
 21
278.480841629053
 31
0.0
  0
ARC
  5
546
330
17
100
AcDbEntity
  8
4
100
AcDbCircle
 10
495.5733231844306
 20
151.4136566290522
 30
0.0
 40
6.0
100
AcDbArc
 50
80.90625500000003
 51
203.8735219999994
  0
LINE
  5
547
330
17
100
AcDbEntity
  8
4
100
AcDbLine
 10
496.5216231844306
 20
157.3382416290524
 30
0.0
 11
515.1613831844306
 21
154.3547216290522
 31
0.0
  0
LINE
  5
548
330
17
100
AcDbEntity
  8
4
100
AcDbLine
 10
496.5216231844306
 20
225.6234416290526
 30
0.0
 11
515.1613831844306
 21
228.6069616290529
 31
0.0
  0
ARC
  5
549
330
17
100
AcDbEntity
  8
4
100
AcDbCircle
 10
953.1029881844306
 20
191.4808416290525
 30
0.0
 40
500.0000449999999
100
AcDbArc
 50
166.618802
 51
180.0003359997955
  0
LINE
  5
54A
330
17
100
AcDbEntity
  8
4
100
AcDbLine
 10
446.1029881844306
 20
278.480841629053
 30
0.0
 11
446.1029881844306
 21
403.9808416290525
 31
0.0
  0
LINE
  5
54B
330
17
100
AcDbEntity
  8
4
100
AcDbLine
 10
450.1029881844306
 20
373.480841629053
 30
0.0
 11
450.1029881844306
 21
255.6236616290521
 31
0.0
  0
LINE
  5
54C
330
17
100
AcDbEntity
  8
4
100
AcDbLine
 10
447.1029881844306
 20
368.480841629053
 30
0.0
 11
447.1029881844306
 21
260.4808416290534
 31
0.0
  0
LINE
  5
54D
330
17
100
AcDbEntity
  8
4
100
AcDbLine
 10
446.1029881844306
 20
350.4808416290534
 30
0.0
 11
446.1029881844306
 21
278.480841629053
 31
0.0
  0
ARC
  5
54E
330
17
100
AcDbEntity
  8
4
100
AcDbCircle
 10
586.1029881844306
 20
626.4808416290525
 30
0.0
 40
505.0
100
AcDbArc
 50
262.965211
 51
277.034789
  0
ARC
  5
54F
330
17
100
AcDbEntity
  8
4
100
AcDbCircle
 10
586.1029881844306
 20
626.4808416290525
 30
0.0
 40
500.0
100
AcDbArc
 50
263.054862
 51
276.945138
  0
LINE
  5
550
330
17
100
AcDbEntity
  8
4
100
AcDbLine
 10
450.1029881844306
 20
373.480841629053
 30
0.0
 11
722.1029881844306
 21
373.480841629053
 31
0.0
  0
ARC
  5
551
330
17
100
AcDbEntity
  8
4
100
AcDbCircle
 10
586.1029881844306
 20
-243.5191583709475
 30
0.0
 40
505.0
100
AcDbArc
 50
82.965211
 51
97.03478899999999
  0
ARC
  5
552
330
17
100
AcDbEntity
  8
4
100
AcDbCircle
 10
586.1029881844306
 20
-243.5191583709475
 30
0.0
 40
500.0
100
AcDbArc
 50
83.054862
 51
96.945138
  0
ARC
  5
553
330
17
100
AcDbEntity
  8
4
100
AcDbCircle
 10
586.1027431844304
 20
-175.5191583709479
 30
0.0
 40
499.9999350000001
100
AcDbArc
 50
76.618483
 51
103.381578
  0
LINE
  5
555
330
17
100
AcDbEntity
  8
4
100
AcDbLine
 10
726.6029881844306
 20
41.48084162905252
 30
0.0
 11
726.6029881844306
 21
71.48084162905252
 31
0.0
  0
LINE
  5
556
330
17
100
AcDbEntity
  8
4
100
AcDbLine
 10
705.6029881844306
 20
41.48084162905252
 30
0.0
 11
705.6029881844306
 21
71.48084162905252
 31
0.0
  0
ARC
  5
557
330
17
100
AcDbEntity
  8
4
100
AcDbCircle
 10
692.3236931844308
 20
69.27820662905151
 30
0.0
 40
4.241535
100
AcDbArc
 50
296.4559070000003
 51
31.28558099999936
  0
ARC
  5
558
330
17
100
AcDbEntity
  8
4
100
AcDbCircle
 10
696.1027431844304
 20
61.68347662905308
 30
0.0
 40
4.241535
100
AcDbArc
 50
116.4559129999996
 51
211.2855700000006
  0
ARC
  5
559
330
17
100
AcDbEntity
  8
4
100
AcDbCircle
 10
688.8529881844306
 20
57.27820662905333
 30
0.0
 40
4.241535
100
AcDbArc
 50
296.4559070000003
 51
31.28558099999936
  0
ARC
  5
55A
330
17
100
AcDbEntity
  8
4
100
AcDbCircle
 10
688.8529881844306
 20
57.27820662905333
 30
0.0
 40
4.241535
100
AcDbArc
 50
296.4559070000003
 51
31.28558099999936
  0
ARC
  5
55B
330
17
100
AcDbEntity
  8
4
100
AcDbCircle
 10
696.1027431844304
 20
61.68347662905308
 30
0.0
 40
4.241535
100
AcDbArc
 50
116.4559129999996
 51
211.2855700000006
  0
ARC
  5
55C
330
17
100
AcDbEntity
  8
4
100
AcDbCircle
 10
692.3236931844308
 20
69.27820662905151
 30
0.0
 40
4.241535
100
AcDbArc
 50
296.4559070000003
 51
31.28558099999936
  0
ARC
  5
55D
330
17
100
AcDbEntity
  8
4
100
AcDbCircle
 10
690.4054781844306
 20
86.48084162905252
 30
0.0
 40
15.000015
100
AcDbArc
 50
134.8094320000001
 51
270.0009319999999
  0
ARC
  5
55E
330
17
100
AcDbEntity
  8
4
100
AcDbCircle
 10
685.3825281844306
 20
45.27820662905287
 30
0.0
 40
4.241535
100
AcDbArc
 50
296.4559070000003
 51
31.28558099999936
  0
ARC
  5
55F
330
17
100
AcDbEntity
  8
4
100
AcDbCircle
 10
685.3825281844306
 20
45.27820662905287
 30
0.0
 40
4.241535
100
AcDbArc
 50
296.4559070000003
 51
31.28558099999936
  0
ARC
  5
560
330
17
100
AcDbEntity
  8
4
100
AcDbCircle
 10
692.6322831844309
 20
49.68347662905262
 30
0.0
 40
4.241535
100
AcDbArc
 50
116.4559129999996
 51
211.2855700000006
  0
ARC
  5
561
330
17
100
AcDbEntity
  8
4
100
AcDbCircle
 10
692.6322831844309
 20
49.68347662905262
 30
0.0
 40
4.241535
100
AcDbArc
 50
116.4559129999996
 51
211.2855700000006
  0
LINE
  5
562
330
17
100
AcDbEntity
  8
L-CENTER
  6
CENTER
100
AcDbLine
 10
716.1029881844306
 20
25.48084162905252
 30
0.0
 11
716.1029881844306
 21
87.48084162905252
 31
0.0
  0
ARC
  5
563
330
17
100
AcDbEntity
  8
4
100
AcDbCircle
 10
626.1701731844305
 20
100.9511766290534
 30
0.0
 40
6.0
100
AcDbArc
 50
170.906255
 51
293.8735219999994
  0
ARC
  5
564
330
17
100
AcDbEntity
  8
4
100
AcDbCircle
 10
546.0358031844307
 20
100.9511766290534
 30
0.0
 40
6.0
100
AcDbArc
 50
246.1264780000006
 51
9.093744999999972
  0
LINE
  5
565
330
17
100
AcDbEntity
  8
L-CENTER
  6
CENTER
100
AcDbLine
 10
518.9429281844305
 20
75.15618662905172
 30
0.0
 11
533.2630343692497
 21
99.959407696987
 31
0.0
  0
LINE
  5
566
330
17
100
AcDbEntity
  8
4
100
AcDbLine
 10
426.1029881844306
 20
71.48084162905252
 30
0.0
 11
426.1029881844306
 21
41.48084162905252
 31
0.0
  0
LINE
  5
567
330
17
100
AcDbEntity
  8
4
100
AcDbLine
 10
481.8004981844306
 20
71.48084162905252
 30
0.0
 11
426.1029881844306
 21
71.48084162905252
 31
0.0
  0
LINE
  5
568
330
17
100
AcDbEntity
  8
L-CENTER
  6
CENTER
100
AcDbLine
 10
456.1029881844306
 20
25.48084162905252
 30
0.0
 11
456.1029881844306
 21
87.48084162905252
 31
0.0
  0
ARC
  5
569
330
17
100
AcDbEntity
  8
4
100
AcDbCircle
 10
481.8004981844306
 20
86.48084162905252
 30
0.0
 40
15.000015
100
AcDbArc
 50
270.000936
 51
45.19056499999991
  0
CIRCLE
  5
56A
330
17
100
AcDbEntity
  8
4
100
AcDbCircle
 10
586.1029881844306
 20
191.4808416290525
 30
0.0
 40
105.0
  0
CIRCLE
  5
56B
330
17
100
AcDbEntity
  8
4
100
AcDbCircle
 10
586.1029881844306
 20
191.4808416290525
 30
0.0
 40
129.0
  0
CIRCLE
  5
56C
330
17
100
AcDbEntity
  8
L-CENTER
  6
CENTER
100
AcDbCircle
 10
586.1029881844306
 20
191.4808416290525
 30
0.0
 40
120.0
  0
ARC
  5
56D
330
17
100
AcDbEntity
  8
4
100
AcDbCircle
 10
586.1029881844306
 20
191.4808416290525
 30
0.0
 40
132.999995
100
AcDbArc
 50
314.809762
 51
0.0001050002750729
  0
ARC
  5
56E
330
17
100
AcDbEntity
  8
4
100
AcDbCircle
 10
586.1029881844306
 20
191.4808416290525
 30
0.0
 40
133.0
100
AcDbArc
 50
180.0003160012228
 51
225.191279
  0
LINE
  5
56F
330
17
100
AcDbEntity
  8
4
100
AcDbLine
 10
551.9603881844305
 20
101.8994766290534
 30
0.0
 11
548.9768681844307
 21
120.5392366290521
 31
0.0
  0
LINE
  5
570
330
17
100
AcDbEntity
  8
4
100
AcDbLine
 10
620.2455881844307
 20
101.8994766290534
 30
0.0
 11
623.2291081844305
 21
120.5392366290521
 31
0.0
  0
LINE
  5
572
330
17
100
AcDbEntity
  8
4
100
AcDbLine
 10
746.1029881844306
 20
41.48084162905252
 30
0.0
 11
426.1029881844306
 21
41.48084162905252
 31
0.0
  0
LINE
  5
573
330
17
100
AcDbEntity
  8
4
100
AcDbLine
 10
690.4054781844306
 20
71.48084162905252
 30
0.0
 11
746.1029881844306
 21
71.48084162905252
 31
0.0
  0
LINE
  5
574
330
17
100
AcDbEntity
  8
L-CENTER
  6
CENTER
100
AcDbLine
 10
730.1996681844307
 20
191.4808416290525
 30
0.0
 11
442.0063081844305
 21
191.4808416290525
 31
0.0
  0
LINE
  5
575
330
17
100
AcDbEntity
  8
L-CENTER
  6
CENTER
100
AcDbLine
 10
730.2840618943551
 20
314.4808416290521
 30
0.0
 11
341.2032939091198
 21
314.4808416290523
 31
0.0
  0
LINE
  5
59A
330
17
100
AcDbEntity
  8
4
100
AcDbLine
 10
309.7622319100896
 20
1010.248231394293
 30
0.0
 11
309.7622319100896
 21
1000.248231394293
 31
0.0
  0
LINE
  5
59F
330
17
100
AcDbEntity
  8
4
100
AcDbLine
 10
301.7622319100901
 20
1000.248231394293
 30
0.0
 11
301.7622319100901
 21
1010.248231394293
 31
0.0
  0
LINE
  5
5A1
330
17
100
AcDbEntity
  8
L-CENTER
  6
CENTER
100
AcDbLine
 10
264.5982559524804
 20
1005.248231394293
 30
0.0
 11
315.9262078676979
 21
1005.248231394293
 31
0.0
  0
LINE
  5
5A2
330
17
100
AcDbEntity
  8
4
100
AcDbLine
 10
309.7622319100896
 20
1000.248231394293
 30
0.0
 11
301.7622319100901
 21
1000.248231394293
 31
0.0
  0
LINE
  5
5A3
330
17
100
AcDbEntity
  8
4
100
AcDbLine
 10
309.7622319100896
 20
1010.248231394293
 30
0.0
 11
301.7622319100901
 21
1010.248231394293
 31
0.0
  0
LINE
  5
5AB
330
17
100
AcDbEntity
  8
4
100
AcDbLine
 10
327.1029881844306
 20
402.9808416290534
 30
0.0
 11
326.1029881844306
 21
401.9808416290521
 31
0.0
  0
LINE
  5
5AC
330
17
100
AcDbEntity
  8
4
100
AcDbLine
 10
327.1029881844306
 20
329.9808416290516
 30
0.0
 11
326.1029881844306
 21
330.980841629053
 31
0.0
  0
LINE
  5
5AE
330
17
100
AcDbEntity
  8
4
100
AcDbLine
 10
326.1029881844306
 20
330.980841629053
 30
0.0
 11
326.1029881844306
 21
408.9808416290525
 31
0.0
  0
LINE
  5
5AF
330
17
100
AcDbEntity
  8
4
100
AcDbLine
 10
327.1029881844306
 20
329.9808416290516
 30
0.0
 11
327.1029881844306
 21
402.9808416290534
 31
0.0
  0
ARC
  5
5BB
330
17
100
AcDbEntity
  8
4
100
AcDbCircle
 10
290.2622319100892
 20
1005.248231394293
 30
0.0
 40
16.0
100
AcDbArc
 50
18.20995686428305
 51
341.7900440000002
  0
LINE
  5
5BC
330
17
100
AcDbEntity
  8
L-CENTER
  6
CENTER
100
AcDbLine
 10
290.2622319100892
 20
979.5842554366848
 30
0.0
 11
290.2622319100892
 21
1030.912207351902
 31
0.0
  0
LINE
  5
5BD
330
17
100
AcDbEntity
  8
4
100
AcDbLine
 10
346.1029881844306
 20
329.9808416290515
 30
0.0
 11
327.1029881844306
 21
329.9808416290516
 31
0.0
  0
LINE
  5
5BE
330
17
100
AcDbEntity
  8
L-CENTER
  6
CENTER
100
AcDbLine
 10
705.9121250801123
 20
366.4808416290525
 30
0.0
 11
317.0440810563528
 21
366.4808416290525
 31
0.0
  0
LINE
  5
5BF
330
17
100
AcDbEntity
  8
4
100
AcDbLine
 10
445.1029881844306
 20
402.9808416290534
 30
0.0
 11
327.1029881844306
 21
402.9808416290534
 31
0.0
  0
LINE
  5
5C0
330
17
100
AcDbEntity
  8
4
100
AcDbLine
 10
436.1029881844306
 20
408.9808416290525
 30
0.0
 11
326.1029881844306
 21
408.9808416290525
 31
0.0
  0
LINE
  5
5C5
330
17
100
AcDbEntity
  8
L-CENTER
  6
CENTER
100
AcDbLine
 10
586.1029881844306
 20
598.787236629053
 30
0.0
 11
586.1029881844306
 21
30.93264051191727
 31
0.0
  0
LINE
  5
5C6
330
17
100
AcDbEntity
  8
4
100
AcDbLine
 10
483.7030831844309
 20
373.480841629053
 30
0.0
 11
483.7030831844309
 21
538.480841629053
 31
0.0
  0
LINE
  5
5C7
330
17
100
AcDbEntity
  8
4
100
AcDbLine
 10
501.1029881844306
 20
373.480841629053
 30
0.0
 11
501.1029881844306
 21
538.480841629053
 31
0.0
  0
LINE
  5
5C8
330
17
100
AcDbEntity
  8
4
100
AcDbLine
 10
503.1029881844306
 20
373.480841629053
 30
0.0
 11
503.1029881844306
 21
541.1634566290518
 31
0.0
  0
LINE
  5
5C9
330
17
100
AcDbEntity
  8
4
100
AcDbLine
 10
669.1029881844306
 20
373.480841629053
 30
0.0
 11
669.1029881844306
 21
541.1634566290518
 31
0.0
  0
LINE
  5
5CA
330
17
100
AcDbEntity
  8
4
100
AcDbLine
 10
686.1029881844306
 20
373.480841629053
 30
0.0
 11
686.1029881844306
 21
538.480841629053
 31
0.0
  0
LINE
  5
5F3
330
17
100
AcDbEntity
  8
4
100
AcDbLine
 10
346.1029881844306
 20
299.4808416290521
 30
0.0
 11
346.1029881844306
 21
333.9808416290525
 31
0.0
  0
LINE
  5
5F4
330
17
100
AcDbEntity
  8
4
100
AcDbLine
 10
347.1029881844306
 20
330.4808416290534
 30
0.0
 11
347.1029881844306
 21
298.480841629053
 31
0.0
  0
LINE
  5
5F5
330
17
100
AcDbEntity
  8
4
100
AcDbLine
 10
346.1029881844306
 20
299.4808416290521
 30
0.0
 11
347.1029881844306
 21
298.480841629053
 31
0.0
  0
LINE
  5
5F6
330
17
100
AcDbEntity
  8
4
100
AcDbLine
 10
347.1029881844306
 20
330.4808416290534
 30
0.0
 11
346.1029881844306
 21
329.4808416290521
 31
0.0
  0
LINE
  5
5F7
330
17
100
AcDbEntity
  8
4
100
AcDbLine
 10
421.1029881844306
 20
330.4808416290534
 30
0.0
 11
421.1029881844306
 21
333.9808416290525
 31
0.0
  0
LINE
  5
5F8
330
17
100
AcDbEntity
  8
4
100
AcDbLine
 10
426.1029881844306
 20
296.9808416290521
 30
0.0
 11
426.1029881844306
 21
331.9808416290521
 31
0.0
  0
LINE
  5
5F9
330
17
100
AcDbEntity
  8
4
100
AcDbLine
 10
347.1029881844306
 20
298.480841629053
 30
0.0
 11
426.1029881844306
 21
298.480841629053
 31
0.0
  0
LINE
  5
5FA
330
17
100
AcDbEntity
  8
4
100
AcDbLine
 10
347.1029881844306
 20
330.4808416290534
 30
0.0
 11
426.1029881844306
 21
330.4808416290534
 31
0.0
  0
LINE
  5
5FB
330
17
100
AcDbEntity
  8
4
100
AcDbLine
 10
346.1029881844306
 20
333.9808416290525
 30
0.0
 11
421.1029881844306
 21
333.9808416290525
 31
0.0
  0
LINE
  5
5FD
330
17
100
AcDbEntity
  8
4
100
AcDbLine
 10
446.1029881844306
 20
296.9808416290521
 30
0.0
 11
426.1029881844306
 21
296.9808416290521
 31
0.0
  0
LINE
  5
5FE
330
17
100
AcDbEntity
  8
4
100
AcDbLine
 10
446.1029881844306
 20
331.9808416290521
 30
0.0
 11
426.1029881844306
 21
331.9808416290521
 31
0.0
  0
CIRCLE
  5
655
330
17
100
AcDbEntity
  8
4
100
AcDbCircle
 10
1516.789214193456
 20
81.48084162905252
 30
0.0
 40
7.5
  0
ARC
  5
6B1
330
17
100
AcDbEntity
  8
4
100
AcDbCircle
 10
741.1029881844306
 20
1012.476993186757
 30
0.0
 40
5.0
100
AcDbArc
 50
0.0
 51
57.99461679191594
  0
LINE
  5
6BE
330
17
100
AcDbEntity
  8
4
100
AcDbLine
 10
276.0021507021299
 20
1245.248231394293
 30
0.0
 11
263.0021507021304
 21
1245.248231394293
 31
0.0
  0
LINE
  5
6BF
330
17
100
AcDbEntity
  8
4
100
AcDbLine
 10
276.0021507021301
 20
1265.248231394293
 30
0.0
 11
263.0021507021305
 21
1265.248231394293
 31
0.0
  0
LINE
  5
6C0
330
17
100
AcDbEntity
  8
4
100
AcDbLine
 10
276.0021507021299
 20
1245.248231394293
 30
0.0
 11
276.0021507021301
 21
1265.248231394293
 31
0.0
  0
LINE
  5
6C1
330
17
100
AcDbEntity
  8
4
100
AcDbLine
 10
263.0021507021305
 20
1265.248231394293
 30
0.0
 11
263.0021507021304
 21
1245.248231394293
 31
0.0
  0
LINE
  5
6C2
330
17
100
AcDbEntity
  8
L-CENTER
  6
CENTER
100
AcDbLine
 10
184.5396548182837
 20
1255.248231394293
 30
0.0
 11
282.4646465859762
 21
1255.248231394293
 31
0.0
  0
ARC
  5
6C3
330
17
100
AcDbEntity
  8
4
100
AcDbCircle
 10
233.5021507021299
 20
1255.248231394293
 30
0.0
 40
36.500055
100
AcDbArc
 50
15.90077276202129
 51
344.0992260000002
  0
LINE
  5
6C4
330
17
100
AcDbEntity
  8
L-CENTER
  6
CENTER
100
AcDbLine
 10
233.5021507021301
 20
1304.21072727814
 30
0.0
 11
233.5021507021299
 21
1206.285735510447
 31
0.0
  0
ENDSEC
  0
SECTION
  2
OBJECTS
  0
DICTIONARY
  5
5
330
0
100
AcDbDictionary
281
     1
  3
ACAD_COLOR
350
29
  3
ACAD_GROUP
350
27
  3
ACAD_LAYOUT
350
1E
  3
ACAD_MATERIAL
350
7
  3
ACAD_MLEADERSTYLE
350
5D2
  3
ACAD_MLINESTYLE
350
15
  3
ACAD_PLOTSETTINGS
350
28
  3
ACAD_PLOTSTYLENAME
350
4
  3
ACAD_SCALELIST
350
2D
  3
ACAD_TABLESTYLE
350
5D1
  3
ACAD_VISUALSTYLE
350
2A
  3
ACDBHEADERROUNDTRIPXREC
350
6C7
  3
AcDbVariableDictionary
350
5CF
  3
DWGPROPS
350
6CA
  0
DICTIONARY
  5
6CB
330
26
100
AcDbDictionary
280
     1
281
     1
  3
ACAD_XREC_ROUNDTRIP
360
6CC
  0
DICTIONARY
  5
103
330
102
100
AcDbDictionary
280
     1
281
     1
  3
ADSK_XREC_LAYER_RECONCILED
360
104
  0
DICTIONARY
  5
18
330
17
100
AcDbDictionary
280
     1
281
     1
  3
ACAD_SORTENTS
360
19
  0
DICTIONARY
  5
29
102
{ACAD_REACTORS
330
5
102
}
330
5
100
AcDbDictionary
281
     1
  0
DICTIONARY
  5
27
102
{ACAD_REACTORS
330
5
102
}
330
5
100
AcDbDictionary
281
     1
  0
DICTIONARY
  5
1E
102
{ACAD_REACTORS
330
5
102
}
330
5
100
AcDbDictionary
281
     1
  3
Model
350
1D
  3
ﾚｲｱｳﾄ1
350
23
  0
DICTIONARY
  5
7
102
{ACAD_REACTORS
330
5
102
}
330
5
100
AcDbDictionary
281
     1
  3
ByBlock
350
50
  3
ByLayer
350
10
  3
Global
350
6
  0
DICTIONARY
  5
5D2
102
{ACAD_REACTORS
330
5
102
}
330
5
100
AcDbDictionary
281
     1
  3
Standard
350
653
  0
DICTIONARY
  5
15
102
{ACAD_REACTORS
330
5
102
}
330
5
100
AcDbDictionary
281
     1
  3
STANDARD
350
14
  0
DICTIONARY
  5
28
102
{ACAD_REACTORS
330
5
102
}
330
5
100
AcDbDictionary
281
     1
  0
ACDBDICTIONARYWDFLT
  5
4
102
{ACAD_REACTORS
330
5
102
}
330
5
100
AcDbDictionary
281
     1
  3
Normal
350
3
100
AcDbDictionaryWithDefault
340
3
  0
DICTIONARY
  5
2D
102
{ACAD_REACTORS
330
5
102
}
330
5
100
AcDbDictionary
281
     1
  3
*A1
350
4F
  0
DICTIONARY
  5
5D1
102
{ACAD_REACTORS
330
5
102
}
330
5
100
AcDbDictionary
281
     1
  3
Standard
350
659
  0
DICTIONARY
  5
2A
102
{ACAD_REACTORS
330
5
102
}
330
5
100
AcDbDictionary
281
     1
  3
2dWireframe
350
5DA
  3
Basic
350
5DD
  3
Brighten
350
5E1
  3
ColorChange
350
5E5
  3
Conceptual
350
5DF
  3
Dim
350
5E0
  3
EdgeColorOff
350
5E8
  3
Facepattern
350
5E4
  3
Flat
350
5D6
  3
FlatWithEdges
350
5D7
  3
Gouraud
350
5D8
  3
GouraudWithEdges
350
5D9
  3
Hidden
350
5DC
  3
JitterOff
350
5E6
  3
Linepattern
350
5E3
  3
OverhangOff
350
5E7
  3
Realistic
350
5DE
  3
Shaded
350
5ED
  3
Shaded with edges
350
5EC
  3
Shades of Gray
350
5E9
  3
Sketchy
350
5EA
  3
Thicken
350
5E2
  3
Wireframe
350
5DB
  3
X-Ray
350
5EB
  0
DICTIONARY
  5
6C7
102
{ACAD_REACTORS
330
5
102
}
330
5
100
AcDbDictionary
281
     1
  3
COLORDICT
350
6C8
  3
MATERIALDICT
350
6C9
  0
DICTIONARY
  5
5CF
102
{ACAD_REACTORS
330
5
102
}
330
5
100
AcDbDictionary
281
     1
  3
CANNOSCALE
350
5D0
  3
CMLEADERSTYLE
350
656
  3
CTABLESTYLE
350
65A
  3
DIMASSOC
350
6C5
  3
HIDETEXT
350
6C6
  3
MSLTSCALE
350
6CD
  3
XCLIPFRAME
350
5D3
  0
XRECORD
  5
6CA
102
{ACAD_REACTORS
330
5
102
}
330
5
100
AcDbXrecord
280
     1
  1
DWGPROPS COOKIE
  2

  3

  4

  6

  7

  8
sg-d03
  9

300
=
301
=
302
=
303
=
304
=
305
=
306
=
307
=
308
=
309
=
 40
0.0
 41
2457431.166599734
 42
2458116.355540301
  1

 90
        0
  0
XRECORD
  5
6CC
102
{ACAD_REACTORS
330
6CB
102
}
330
6CB
100
AcDbXrecord
280
     1
102
VTR_0.000_0.000_1.000_1.000_GRIDDISPLAY
 70
     3
102
VTR_0.000_0.000_1.000_1.000_GRIDMAJOR
 70
     5
102
VTR_0.000_0.000_1.000_1.000_DEFAULTLIGHTING
280
     1
102
VTR_0.000_0.000_1.000_1.000_DEFAULTLIGHTINGTYPE
 70
     1
102
VTR_0.000_0.000_1.000_1.000_BRIGHTNESS
141
0.0
102
VTR_0.000_0.000_1.000_1.000_CONTRAST
142
0.0
  0
XRECORD
  5
104
102
{ACAD_REACTORS
330
103
102
}
330
103
100
AcDbXrecord
280
     1
290
     1
  0
SORTENTSTABLE
  5
19
102
{ACAD_REACTORS
330
18
102
}
330
18
100
AcDbSortentsTable
330
17
331
0
  5
569
331
318
  5
319
331
319
  5
31A
331
31A
  5
31B
331
0
  5
31C
331
31C
  5
31D
331
31D
  5
31E
331
31E
  5
31F
331
0
  5
320
331
0
  5
321
331
321
  5
322
331
322
  5
323
331
323
  5
324
331
324
  5
325
331
325
  5
326
331
326
  5
327
331
327
  5
328
331
328
  5
329
331
329
  5
32A
331
32A
  5
32B
331
32B
  5
32C
331
32C
  5
32D
331
32D
  5
32E
331
32E
  5
32F
331
32F
  5
330
331
330
  5
331
331
331
  5
337
331
337
  5
338
331
338
  5
339
331
339
  5
33A
331
33A
  5
33B
331
33B
  5
33C
331
33C
  5
33D
331
33D
  5
33E
331
33E
  5
33F
331
33F
  5
340
331
340
  5
341
331
341
  5
342
331
342
  5
343
331
343
  5
344
331
344
  5
345
331
345
  5
346
331
346
  5
347
331
347
  5
348
331
348
  5
349
331
349
  5
34A
331
34A
  5
34B
331
34B
  5
34C
331
0
  5
34D
331
0
  5
34E
331
0
  5
34F
331
0
  5
350
331
0
  5
351
331
0
  5
352
331
0
  5
353
331
0
  5
354
331
354
  5
355
331
355
  5
356
331
356
  5
357
331
357
  5
358
331
358
  5
359
331
359
  5
35A
331
35A
  5
35B
331
35B
  5
35C
331
35C
  5
35D
331
35D
  5
35E
331
0
  5
35F
331
0
  5
360
331
0
  5
361
331
0
  5
362
331
0
  5
363
331
0
  5
364
331
364
  5
365
331
365
  5
366
331
366
  5
367
331
367
  5
368
331
368
  5
369
331
369
  5
36A
331
0
  5
36B
331
36B
  5
36C
331
36C
  5
36D
331
36D
  5
36E
331
36E
  5
36F
331
36F
  5
370
331
370
  5
371
331
371
  5
372
331
372
  5
373
331
373
  5
374
331
374
  5
375
331
0
  5
376
331
376
  5
377
331
377
  5
378
331
378
  5
379
331
379
  5
37A
331
37A
  5
37B
331
37B
  5
37C
331
37C
  5
37D
331
37D
  5
37E
331
37E
  5
37F
331
0
  5
380
331
0
  5
381
331
0
  5
382
331
0
  5
383
331
383
  5
384
331
384
  5
385
331
385
  5
386
331
386
  5
387
331
387
  5
388
331
388
  5
389
331
389
  5
38A
331
38A
  5
38B
331
38B
  5
38C
331
38C
  5
38D
331
38D
  5
38E
331
38E
  5
38F
331
38F
  5
390
331
390
  5
391
331
391
  5
392
331
0
  5
393
331
0
  5
394
331
0
  5
395
331
0
  5
396
331
0
  5
397
331
0
  5
398
331
0
  5
399
331
399
  5
39A
331
39A
  5
39B
331
39B
  5
39C
331
39C
  5
39D
331
39D
  5
39E
331
39E
  5
39F
331
39F
  5
3A0
331
3A0
  5
3A1
331
3A1
  5
3A2
331
3A2
  5
3A3
331
3A3
  5
3A4
331
3A4
  5
3A5
331
3A5
  5
3A6
331
3A6
  5
3A7
331
3A7
  5
3A8
331
3A8
  5
3A9
331
3A9
  5
3AA
331
3AA
  5
3AB
331
3AB
  5
3AC
331
3AC
  5
3AD
331
3AD
  5
3AE
331
3AE
  5
3AF
331
3AF
  5
3B0
331
3B0
  5
3B1
331
3B1
  5
3B2
331
3B2
  5
3B3
331
3B3
  5
3B4
331
3B4
  5
3B5
331
3B5
  5
3B6
331
3B6
  5
3B7
331
3B7
  5
3B8
331
3B8
  5
3B9
331
3B9
  5
3BA
331
3BA
  5
3BB
331
3BB
  5
3BC
331
3BC
  5
3BD
331
3BD
  5
3BE
331
3BE
  5
3BF
331
3BF
  5
3C0
331
3C0
  5
3C1
331
3C1
  5
3C2
331
3C2
  5
3C3
331
3C3
  5
3C4
331
3C4
  5
3C5
331
3C5
  5
3C6
331
3C6
  5
3C7
331
3C7
  5
3C8
331
3C8
  5
3C9
331
3C9
  5
3CA
331
3CA
  5
3CB
331
3CB
  5
3CC
331
3CC
  5
3CD
331
3CD
  5
3CE
331
3CE
  5
3CF
331
3CF
  5
3D0
331
3D0
  5
3D1
331
3D1
  5
3D2
331
3D2
  5
3D3
331
3D3
  5
3D4
331
3D4
  5
3D5
331
3D5
  5
3D6
331
3D6
  5
3D7
331
3D7
  5
3D8
331
3D8
  5
3D9
331
3D9
  5
3DA
331
3DA
  5
3DB
331
3DB
  5
3DC
331
3DC
  5
3DD
331
3DD
  5
3DE
331
3DE
  5
3DF
331
3DF
  5
3E0
331
3E0
  5
3E1
331
3E1
  5
3E2
331
3E2
  5
3E3
331
3E3
  5
3E4
331
3E4
  5
3E5
331
3E5
  5
3E6
331
3E6
  5
3E7
331
3E7
  5
3E8
331
3E8
  5
3E9
331
3E9
  5
3EA
331
3EA
  5
3EB
331
3EB
  5
3EC
331
3EC
  5
3ED
331
3ED
  5
3EE
331
3EE
  5
3EF
331
3EF
  5
3F0
331
3F0
  5
3F1
331
3F1
  5
3F2
331
3F2
  5
3F3
331
3F3
  5
3F4
331
3F4
  5
3F5
331
3F5
  5
3F6
331
3F6
  5
3F7
331
3F7
  5
3F8
331
3F8
  5
3F9
331
3F9
  5
3FA
331
3FA
  5
3FB
331
3FB
  5
3FC
331
3FC
  5
3FD
331
3FD
  5
3FE
331
3FE
  5
3FF
331
3FF
  5
400
331
400
  5
401
331
401
  5
402
331
402
  5
403
331
403
  5
404
331
404
  5
405
331
405
  5
406
331
406
  5
407
331
407
  5
408
331
408
  5
409
331
409
  5
40A
331
40A
  5
40B
331
40B
  5
40C
331
40C
  5
40D
331
40D
  5
40E
331
40E
  5
40F
331
40F
  5
410
331
410
  5
411
331
411
  5
412
331
412
  5
413
331
413
  5
414
331
414
  5
415
331
415
  5
416
331
416
  5
417
331
417
  5
418
331
418
  5
419
331
419
  5
41A
331
41A
  5
41B
331
41B
  5
41C
331
41C
  5
41D
331
41D
  5
41E
331
41E
  5
41F
331
41F
  5
420
331
420
  5
421
331
421
  5
422
331
422
  5
423
331
423
  5
424
331
424
  5
425
331
425
  5
426
331
426
  5
427
331
427
  5
428
331
428
  5
429
331
429
  5
42A
331
42A
  5
42B
331
42B
  5
42C
331
42C
  5
42D
331
42D
  5
42E
331
42E
  5
42F
331
42F
  5
430
331
430
  5
431
331
431
  5
432
331
432
  5
433
331
433
  5
434
331
434
  5
435
331
435
  5
436
331
436
  5
437
331
437
  5
438
331
438
  5
439
331
439
  5
43A
331
43A
  5
43B
331
43B
  5
43C
331
43C
  5
43D
331
43D
  5
43E
331
43E
  5
43F
331
43F
  5
440
331
440
  5
441
331
441
  5
442
331
442
  5
443
331
443
  5
444
331
444
  5
445
331
445
  5
446
331
446
  5
447
331
447
  5
448
331
448
  5
449
331
449
  5
44A
331
44A
  5
44B
331
44B
  5
44C
331
44C
  5
450
331
450
  5
451
331
451
  5
452
331
452
  5
453
331
453
  5
454
331
454
  5
455
331
455
  5
456
331
456
  5
457
331
457
  5
458
331
458
  5
459
331
459
  5
45A
331
45A
  5
45B
331
45C
  5
45D
331
45D
  5
45E
331
45E
  5
45F
331
45F
  5
460
331
460
  5
461
331
461
  5
462
331
462
  5
463
331
463
  5
464
331
464
  5
465
331
465
  5
466
331
466
  5
467
331
467
  5
468
331
468
  5
469
331
469
  5
46A
331
46A
  5
46B
331
46B
  5
46C
331
46C
  5
46D
331
46D
  5
46E
331
46E
  5
46F
331
46F
  5
470
331
0
  5
472
331
472
  5
473
331
0
  5
474
331
0
  5
475
331
475
  5
476
331
476
  5
477
331
477
  5
478
331
478
  5
479
331
479
  5
47A
331
47A
  5
47B
331
47B
  5
47C
331
47C
  5
47D
331
47D
  5
47E
331
47E
  5
47F
331
47F
  5
480
331
480
  5
481
331
481
  5
482
331
482
  5
484
331
484
  5
485
331
485
  5
486
331
486
  5
487
331
487
  5
488
331
488
  5
489
331
489
  5
48A
331
48A
  5
48B
331
48B
  5
48C
331
48C
  5
48D
331
48D
  5
48E
331
48E
  5
48F
331
48F
  5
490
331
490
  5
491
331
491
  5
492
331
492
  5
493
331
493
  5
494
331
494
  5
495
331
495
  5
496
331
496
  5
497
331
0
  5
498
331
498
  5
499
331
499
  5
49A
331
0
  5
49B
331
49B
  5
49C
331
49C
  5
49D
331
49D
  5
49E
331
49E
  5
49F
331
49F
  5
4A0
331
4A0
  5
4A1
331
4A1
  5
4A4
331
4A4
  5
4A5
331
4A5
  5
4A6
331
4A6
  5
4A7
331
4A7
  5
4A8
331
4A8
  5
4A9
331
4A9
  5
4AA
331
4AA
  5
4AB
331
4AB
  5
4AC
331
4AC
  5
4AD
331
4AD
  5
4AE
331
4AE
  5
4AF
331
4AF
  5
4B0
331
4B0
  5
4B1
331
4B1
  5
4B2
331
4B2
  5
4B3
331
4B3
  5
4B4
331
4B4
  5
4B5
331
4B5
  5
4B6
331
4B6
  5
4B8
331
4B8
  5
4BA
331
0
  5
4BB
331
0
  5
4BC
331
0
  5
4BE
331
0
  5
4BF
331
0
  5
4C1
331
4C1
  5
4C2
331
4C2
  5
4C3
331
4C3
  5
4C4
331
4C4
  5
4C5
331
4C5
  5
4D7
331
0
  5
4D8
331
0
  5
4D9
331
0
  5
4DA
331
0
  5
4DB
331
0
  5
4DC
331
4DC
  5
4DD
331
4DD
  5
4DE
331
0
  5
4DF
331
0
  5
4E0
331
0
  5
4E1
331
4E1
  5
4E2
331
4E2
  5
4E3
331
4E3
  5
4E4
331
4E4
  5
4E5
331
4E5
  5
4E6
331
4E6
  5
4E7
331
4E7
  5
4E8
331
4E8
  5
4E9
331
4E9
  5
4EA
331
4EA
  5
4EB
331
4EB
  5
4EC
331
4EC
  5
4ED
331
4ED
  5
4EE
331
4EE
  5
4EF
331
4EF
  5
4F0
331
4F0
  5
4F1
331
4F1
  5
4F2
331
4F2
  5
4F3
331
4F3
  5
4F4
331
4F4
  5
4F5
331
4F5
  5
4F6
331
4F6
  5
4F7
331
4F7
  5
4F8
331
4F8
  5
4F9
331
4F9
  5
4FA
331
4FA
  5
4FB
331
4FB
  5
4FC
331
4FC
  5
4FD
331
4FD
  5
4FE
331
4FE
  5
4FF
331
4FF
  5
500
331
500
  5
501
331
501
  5
502
331
502
  5
503
331
503
  5
504
331
504
  5
505
331
505
  5
506
331
506
  5
507
331
507
  5
508
331
508
  5
509
331
509
  5
50A
331
50A
  5
50B
331
50B
  5
50C
331
50C
  5
50D
331
50D
  5
50E
331
50E
  5
50F
331
50F
  5
510
331
510
  5
511
331
511
  5
512
331
512
  5
513
331
513
  5
514
331
514
  5
515
331
515
  5
516
331
516
  5
517
331
517
  5
518
331
518
  5
519
331
519
  5
51A
331
51A
  5
51B
331
51B
  5
51C
331
51C
  5
51D
331
51D
  5
51E
331
51E
  5
51F
331
51F
  5
520
331
520
  5
521
331
521
  5
522
331
522
  5
523
331
523
  5
524
331
524
  5
525
331
525
  5
526
331
526
  5
527
331
527
  5
528
331
528
  5
529
331
529
  5
52A
331
52A
  5
52B
331
52B
  5
52C
331
52C
  5
52D
331
52D
  5
52E
331
52E
  5
52F
331
52F
  5
530
331
530
  5
531
331
531
  5
532
331
532
  5
533
331
533
  5
534
331
534
  5
535
331
535
  5
536
331
536
  5
537
331
537
  5
538
331
538
  5
539
331
539
  5
53A
331
53A
  5
53B
331
53B
  5
53C
331
53C
  5
53D
331
53D
  5
53E
331
53E
  5
53F
331
53F
  5
540
331
540
  5
541
331
541
  5
542
331
542
  5
543
331
543
  5
544
331
544
  5
545
331
545
  5
546
331
546
  5
547
331
547
  5
548
331
548
  5
549
331
549
  5
54A
331
54A
  5
54B
331
54B
  5
54C
331
54C
  5
54D
331
54D
  5
54E
331
54E
  5
54F
331
54F
  5
550
331
550
  5
551
331
551
  5
552
331
552
  5
553
331
553
  5
554
331
0
  5
555
331
555
  5
556
331
556
  5
557
331
557
  5
558
331
558
  5
559
331
559
  5
55A
331
55A
  5
55B
331
55B
  5
55C
331
55C
  5
55D
331
55D
  5
55E
331
55E
  5
55F
331
55F
  5
560
331
560
  5
561
331
561
  5
562
331
562
  5
563
331
563
  5
564
331
564
  5
565
331
565
  5
566
331
566
  5
567
331
567
  5
568
331
568
  5
56A
331
569
  5
56B
331
56A
  5
56C
331
56B
  5
56D
331
56C
  5
56E
331
56D
  5
56F
331
56E
  5
570
331
56F
  5
571
331
570
  5
572
331
0
  5
573
331
572
  5
574
331
573
  5
578
331
574
  5
579
331
575
  5
57A
331
0
  5
57B
331
0
  5
57C
331
0
  5
57D
331
0
  5
57E
331
0
  5
57F
331
0
  5
580
331
0
  5
581
331
0
  5
582
331
0
  5
583
331
0
  5
584
331
0
  5
585
331
0
  5
586
331
0
  5
587
331
0
  5
588
331
0
  5
589
331
0
  5
58A
331
0
  5
58B
331
0
  5
58C
331
0
  5
58D
331
0
  5
58E
331
0
  5
58F
331
0
  5
590
331
0
  5
591
331
0
  5
592
331
0
  5
593
331
0
  5
594
331
0
  5
595
331
0
  5
596
331
0
  5
597
331
0
  5
598
331
0
  5
599
331
0
  5
59A
331
0
  5
59B
331
0
  5
59C
331
59A
  5
59D
331
0
  5
59E
331
0
  5
59F
331
0
  5
5A0
331
0
  5
5A1
331
59F
  5
5A2
331
0
  5
5A3
331
5A1
  5
5A4
331
5A2
  5
5A5
331
5A3
  5
5A6
331
0
  5
5A7
331
0
  5
5A8
331
0
  5
5A9
331
0
  5
5AA
331
0
  5
5AB
331
0
  5
5AC
331
0
  5
5AD
331
5AB
  5
5AE
331
5AC
  5
5AF
331
0
  5
5B0
331
5AE
  5
5B1
331
5AF
  5
5B2
331
0
  5
5B3
331
0
  5
5B4
331
0
  5
5B5
331
0
  5
5B6
331
0
  5
5B7
331
0
  5
5B8
331
0
  5
5B9
331
0
  5
5BA
331
0
  5
5BB
331
0
  5
5BC
331
0
  5
5BD
331
5BB
  5
5BE
331
5BC
  5
5BF
331
5BD
  5
5C0
331
5BE
  5
5C1
331
5BF
  5
5C2
331
5C0
  5
5C3
331
0
  5
5C4
331
0
  5
5C5
331
0
  5
5C6
331
0
  5
5C7
331
5C5
  5
5C8
331
5C6
  5
5C9
331
5C7
  5
5CA
331
5C8
  5
5CB
331
5C9
  5
5CC
331
5CA
  5
5CD
331
0
  5
5EE
331
0
  5
5EF
331
0
  5
5F2
331
0
  5
5F5
331
5F3
  5
5F6
331
5F4
  5
5F7
331
5F5
  5
5F8
331
5F6
  5
5F9
331
5F7
  5
5FA
331
5F8
  5
5FB
331
5F9
  5
5FC
331
5FA
  5
5FD
331
5FB
  5
5FE
331
0
  5
5FF
331
5FD
  5
600
331
5FE
  5
601
331
0
  5
602
331
0
  5
603
331
0
  5
604
331
0
  5
605
331
0
  5
607
331
0
  5
608
331
0
  5
609
331
0
  5
60A
331
0
  5
60B
331
0
  5
60C
331
0
  5
60D
331
0
  5
625
331
655
  5
318
  0
LAYOUT
  5
1D
102
{ACAD_REACTORS
330
1E
102
}
330
1E
100
AcDbPlotSettings
  1

  2
Bullzip PDF Printer.pc3
  4
A3
  6

 40
0.2
 41
0.0
 42
0.0
 43
0.0
 44
420.2
 45
297.1
 46
25.0
 47
12.0
 48
114.9999998416665
 49
10.0
140
2024.999995466666
141
1372.499996820833
142
1.0
143
5.0
 70
 11936
 72
     1
 73
     0
 74
     4
  7
monochrome.ctb
 75
     0
147
0.2
148
-114.9999998416665
149
-10.0
100
AcDbLayout
  1
Model
 70
     0
 71
     0
 10
0.0
 20
0.0
 11
12.0
 21
9.0
 12
0.0
 22
0.0
 32
0.0
 14
184.5396548182837
 24
25.48084162905252
 34
0.0
 15
1711.057192448035
 25
1449.516209648874
 35
0.0
146
0.0
 13
0.0
 23
0.0
 33
0.0
 16
1.0
 26
0.0
 36
0.0
 17
0.0
 27
1.0
 37
0.0
 76
     0
330
17
331
2B
1001
ACAD_PSEXT
1000
Bullzip PDF Printer.pc3
1000
Bullzip PDF Printer
1000
BULLZIP
1000
Bullzip PDF Printer 10.1.0.1871
1070
     0
  0
LAYOUT
  5
23
102
{ACAD_REACTORS
330
1E
102
}
330
1E
100
AcDbPlotSettings
  1

  2
SR-LP8300F
  4

  6

 40
0.0
 41
0.0
 42
0.0
 43
0.0
 44
0.0
 45
0.0
 46
0.0
 47
0.0
 48
0.0
 49
0.0
140
0.0
141
0.0
142
1.0
143
1.0
 70
   688
 72
     0
 73
     0
 74
     5
  7
monochrome.ctb
 75
    16
147
1.0
148
0.0
149
0.0
100
AcDbLayout
  1
ﾚｲｱｳﾄ1
 70
     0
 71
     1
 10
0.0
 20
0.0
 11
12.0
 21
9.0
 12
0.0
 22
0.0
 32
0.0
 14
1000000000000000E+20
 24
1000000000000000E+20
 34
1000000000000000E+20
 15
-1000000000000000E+20
 25
-1000000000000000E+20
 35
-1000000000000000E+20
146
0.0
 13
0.0
 23
0.0
 33
0.0
 16
1.0
 26
0.0
 36
0.0
 17
0.0
 27
1.0
 37
0.0
 76
     0
330
20
  0
MATERIAL
  5
50
102
{ACAD_REACTORS
330
7
102
}
102
{ACAD_XDICTIONARY
360
6D2
102
}
330
7
100
AcDbMaterial
  1
ByBlock
  0
MATERIAL
  5
10
102
{ACAD_REACTORS
330
7
102
}
102
{ACAD_XDICTIONARY
360
6CE
102
}
330
7
100
AcDbMaterial
  1
ByLayer
  0
MATERIAL
  5
6
102
{ACAD_REACTORS
330
7
102
}
102
{ACAD_XDICTIONARY
360
6D0
102
}
330
7
100
AcDbMaterial
  1
Global
1001
ACAD
1070
    -1
1070
     3
1070
     0
1000

1071
        0
  0
MLEADERSTYLE
  5
653
102
{ACAD_REACTORS
330
5D2
102
}
102
{ACAD_XDICTIONARY
360
704
102
}
330
5D2
100
AcDbMLeaderStyle
170
     2
171
     1
172
     0
 90
        2
 40
0.0
 41
0.0
173
     1
 91
-1056964608
340
D
 92
       -2
290
     1
 42
0.09
291
     1
 43
0.36
  3
Standard
341
0
 44
0.18
300

342
E
174
     1
178
     6
175
     1
176
     0
 93
-1056964608
 45
0.18
292
     0
297
     0
 46
0.18
343
0
 94
-1056964608
 47
1.0
 49
1.0
140
1.0
293
     1
141
0.0
294
     1
177
     0
142
1.0
295
     0
296
     0
143
0.125
1001
ACAD_MLEADERVER
1070
     2
  0
MLINESTYLE
  5
14
102
{ACAD_REACTORS
330
15
102
}
330
15
100
AcDbMlineStyle
  2
STANDARD
 70
     0
  3

 62
     0
 51
90.0
 52
90.0
 71
     2
 49
0.5
 62
   256
  6
BYLAYER
 49
-0.5
 62
   256
  6
BYLAYER
  0
ACDBPLACEHOLDER
  5
3
102
{ACAD_REACTORS
330
4
102
}
330
4
  0
SCALE
  5
4F
102
{ACAD_REACTORS
330
2D
102
}
330
2D
100
AcDbScale
 70
     0
300
1:1
140
1.0
141
1.0
290
     1
  0
TABLESTYLE
  5
659
102
{ACAD_REACTORS
330
5D1
102
}
330
5D1
100
AcDbTableStyle
  3
Standard
 70
     0
 71
     0
 40
0.06
 41
0.06
280
     0
281
     0
  7
STANDARD
140
0.18
170
     2
 62
     0
 63
   257
283
     0
274
    -2
284
     1
 64
     0
275
    -2
285
     1
 65
     0
276
    -2
286
     1
 66
     0
277
    -2
287
     1
 67
     0
278
    -2
288
     1
 68
     0
279
    -2
289
     1
 69
     0
  7
STANDARD
140
0.25
170
     5
 62
     0
 63
   257
283
     0
274
    -2
284
     1
 64
     0
275
    -2
285
     1
 65
     0
276
    -2
286
     1
 66
     0
277
    -2
287
     1
 67
     0
278
    -2
288
     1
 68
     0
279
    -2
289
     1
 69
     0
  7
STANDARD
140
0.18
170
     5
 62
     0
 63
   257
283
     0
274
    -2
284
     1
 64
     0
275
    -2
285
     1
 65
     0
276
    -2
286
     1
 66
     0
277
    -2
287
     1
 67
     0
278
    -2
288
     1
 68
     0
279
    -2
289
     1
 69
     0
  0
VISUALSTYLE
  5
5DA
102
{ACAD_REACTORS
330
2A
102
}
102
{ACAD_XDICTIONARY
360
6DC
102
}
330
2A
100
AcDbVisualStyle
  2
2dWireframe
 70
     4
 71
     0
 72
     2
 73
     0
 90
        0
 40
0.6
 41
30.0
 62
     5
 63
     7
 74
     1
 91
        4
 64
     7
 65
   257
 75
     1
175
     1
 42
1.0
 92
        0
 66
   257
 43
1.0
 76
     1
 77
     6
 78
     2
 67
     7
 79
     5
170
     0
171
     0
290
     0
174
     0
 93
        1
 44
0.0
173
     0
291
     0
 45
0.0
1001
ACAD
1000
AcDbSavedByObjectVersion
1070
     0
  0
VISUALSTYLE
  5
5DD
102
{ACAD_REACTORS
330
2A
102
}
102
{ACAD_XDICTIONARY
360
6E2
102
}
330
2A
100
AcDbVisualStyle
  2
Basic
 70
     7
 71
     1
 72
     0
 73
     1
 90
        0
 40
0.6
 41
30.0
 62
     5
 63
     7
 74
     0
 91
        4
 64
     7
 65
   257
 75
     1
175
     1
 42
1.0
 92
        8
 66
     7
 43
1.0
 76
     1
 77
     6
 78
     2
 67
     7
 79
     5
170
     0
171
     0
290
     0
174
     0
 93
        1
 44
0.0
173
     0
291
     1
 45
0.0
1001
ACAD
1000
AcDbSavedByObjectVersion
1070
     0
  0
VISUALSTYLE
  5
5E1
102
{ACAD_REACTORS
330
2A
102
}
102
{ACAD_XDICTIONARY
360
6EA
102
}
330
2A
100
AcDbVisualStyle
  2
Brighten
 70
    12
 71
     2
 72
     2
 73
     0
 90
        0
 40
0.6
 41
30.0
 62
     5
 63
     7
 74
     1
 91
        4
 64
     7
 65
   257
 75
     1
175
     1
 42
1.0
 92
        8
 66
     7
 43
1.0
 76
     1
 77
     6
 78
     2
 67
     7
 79
     5
170
     0
171
     0
290
     0
174
     0
 93
        1
 44
50.0
173
     0
291
     1
 45
0.0
1001
ACAD
1000
AcDbSavedByObjectVersion
1070
     0
  0
VISUALSTYLE
  5
5E5
102
{ACAD_REACTORS
330
2A
102
}
102
{ACAD_XDICTIONARY
360
6F2
102
}
330
2A
100
AcDbVisualStyle
  2
ColorChange
 70
    16
 71
     2
 72
     2
 73
     3
 90
        0
 40
0.6
 41
30.0
 62
     5
 63
     8
 74
     1
 91
        4
 64
     7
 65
   257
 75
     1
175
     1
 42
1.0
 92
        8
 66
     8
 43
1.0
 76
     1
 77
     6
 78
     2
 67
     7
 79
     5
170
     0
171
     0
290
     0
174
     0
 93
        1
 44
0.0
173
     0
291
     1
 45
0.0
1001
ACAD
1000
AcDbSavedByObjectVersion
1070
     0
  0
VISUALSTYLE
  5
5DF
102
{ACAD_REACTORS
330
2A
102
}
102
{ACAD_XDICTIONARY
360
6E6
102
}
330
2A
100
AcDbVisualStyle
  2
Conceptual
 70
     9
 71
     3
 72
     2
 73
     0
 90
        0
 40
0.6
 41
30.0
 62
     5
 63
     7
 74
     2
 91
        2
 64
     7
 65
   257
 75
     1
175
     1
 42
40.0
 92
        8
 66
     7
 43
1.0
 76
     1
 77
     6
 78
     2
 67
     7
 79
     3
170
     0
171
     0
290
     0
174
     0
 93
        1
 44
0.0
173
     0
291
     0
 45
0.0
1001
ACAD
1000
AcDbSavedByObjectVersion
1070
     0
  0
VISUALSTYLE
  5
5E0
102
{ACAD_REACTORS
330
2A
102
}
102
{ACAD_XDICTIONARY
360
6E8
102
}
330
2A
100
AcDbVisualStyle
  2
Dim
 70
    11
 71
     2
 72
     2
 73
     0
 90
        0
 40
0.6
 41
30.0
 62
     5
 63
     7
 74
     1
 91
        4
 64
     7
 65
   257
 75
     1
175
     1
 42
1.0
 92
        8
 66
     7
 43
1.0
 76
     1
 77
     6
 78
     2
 67
     7
 79
     5
170
     0
171
     0
290
     0
174
     0
 93
        1
 44
-50.0
173
     0
291
     1
 45
0.0
1001
ACAD
1000
AcDbSavedByObjectVersion
1070
     0
  0
VISUALSTYLE
  5
5E8
102
{ACAD_REACTORS
330
2A
102
}
102
{ACAD_XDICTIONARY
360
6F8
102
}
330
2A
100
AcDbVisualStyle
  2
EdgeColorOff
 70
    22
 71
     2
 72
     2
 73
     0
 90
        0
 40
0.6
 41
30.0
 62
     5
 63
     7
 74
     1
 91
        4
 64
     7
 65
   257
 75
     1
175
     1
 42
1.0
 92
        8
 66
     7
 43
1.0
 76
     1
 77
     6
 78
     2
 67
     7
 79
     5
170
     0
171
     0
290
     0
174
     0
 93
        1
 44
0.0
173
     0
291
     1
 45
0.0
1001
ACAD
1000
AcDbSavedByObjectVersion
1070
     0
  0
VISUALSTYLE
  5
5E4
102
{ACAD_REACTORS
330
2A
102
}
102
{ACAD_XDICTIONARY
360
6F0
102
}
330
2A
100
AcDbVisualStyle
  2
Facepattern
 70
    15
 71
     2
 72
     2
 73
     0
 90
        0
 40
0.6
 41
30.0
 62
     5
 63
     7
 74
     1
 91
        4
 64
     7
 65
   257
 75
     1
175
     1
 42
1.0
 92
        8
 66
     7
 43
1.0
 76
     1
 77
     6
 78
     2
 67
     7
 79
     5
170
     0
171
     0
290
     0
174
     0
 93
        1
 44
0.0
173
     0
291
     1
 45
0.0
1001
ACAD
1000
AcDbSavedByObjectVersion
1070
     0
  0
VISUALSTYLE
  5
5D6
102
{ACAD_REACTORS
330
2A
102
}
102
{ACAD_XDICTIONARY
360
6D4
102
}
330
2A
100
AcDbVisualStyle
  2
Flat
 70
     0
 71
     2
 72
     1
 73
     1
 90
        2
 40
0.6
 41
30.0
 62
     5
 63
     7
 74
     0
 91
        4
 64
     7
 65
   257
 75
     1
175
     1
 42
1.0
 92
        8
 66
     7
 43
1.0
 76
     1
 77
     6
 78
     2
 67
     7
 79
     5
170
     0
171
     0
290
     0
174
     0
 93
       13
 44
0.0
173
     0
291
     1
 45
0.0
1001
ACAD
1000
AcDbSavedByObjectVersion
1070
     0
  0
VISUALSTYLE
  5
5D7
102
{ACAD_REACTORS
330
2A
102
}
102
{ACAD_XDICTIONARY
360
6D6
102
}
330
2A
100
AcDbVisualStyle
  2
FlatWithEdges
 70
     1
 71
     2
 72
     1
 73
     1
 90
        2
 40
0.6
 41
30.0
 62
     5
 63
     7
 74
     1
 91
        4
 64
     7
 65
   257
 75
     1
175
     1
 42
1.0
 92
        0
 66
   257
 43
1.0
 76
     1
 77
     6
 78
     2
 67
     7
 79
     5
170
     0
171
     0
290
     0
174
     0
 93
       13
 44
0.0
173
     0
291
     1
 45
0.0
1001
ACAD
1000
AcDbSavedByObjectVersion
1070
     0
  0
VISUALSTYLE
  5
5D8
102
{ACAD_REACTORS
330
2A
102
}
102
{ACAD_XDICTIONARY
360
6D8
102
}
330
2A
100
AcDbVisualStyle
  2
Gouraud
 70
     2
 71
     2
 72
     2
 73
     1
 90
        2
 40
0.6
 41
30.0
 62
     5
 63
     7
 74
     0
 91
        4
 64
     7
 65
   257
 75
     1
175
     1
 42
1.0
 92
        0
 66
     7
 43
1.0
 76
     1
 77
     6
 78
     2
 67
     7
 79
     5
170
     0
171
     0
290
     0
174
     0
 93
       13
 44
0.0
173
     0
291
     1
 45
0.0
1001
ACAD
1000
AcDbSavedByObjectVersion
1070
     0
  0
VISUALSTYLE
  5
5D9
102
{ACAD_REACTORS
330
2A
102
}
102
{ACAD_XDICTIONARY
360
6DA
102
}
330
2A
100
AcDbVisualStyle
  2
GouraudWithEdges
 70
     3
 71
     2
 72
     2
 73
     1
 90
        2
 40
0.6
 41
30.0
 62
     5
 63
     7
 74
     1
 91
        4
 64
     7
 65
   257
 75
     1
175
     1
 42
1.0
 92
        0
 66
   257
 43
1.0
 76
     1
 77
     6
 78
     2
 67
     7
 79
     5
170
     0
171
     0
290
     0
174
     0
 93
       13
 44
0.0
173
     0
291
     1
 45
0.0
1001
ACAD
1000
AcDbSavedByObjectVersion
1070
     0
  0
VISUALSTYLE
  5
5DC
102
{ACAD_REACTORS
330
2A
102
}
102
{ACAD_XDICTIONARY
360
6E0
102
}
330
2A
100
AcDbVisualStyle
  2
Hidden
 70
     6
 71
     1
 72
     2
 73
     2
 90
        0
 40
0.6
 41
30.0
 62
     5
 63
     7
 74
     2
 91
        2
 64
     7
 65
   257
 75
     2
175
     1
 42
40.0
 92
        0
 66
   257
 43
1.0
 76
     1
 77
     6
 78
     2
 67
     7
 79
     3
170
     0
171
     0
290
     0
174
     0
 93
        1
 44
0.0
173
     0
291
     0
 45
0.0
1001
ACAD
1000
AcDbSavedByObjectVersion
1070
     0
  0
VISUALSTYLE
  5
5E6
102
{ACAD_REACTORS
330
2A
102
}
102
{ACAD_XDICTIONARY
360
6F4
102
}
330
2A
100
AcDbVisualStyle
  2
JitterOff
 70
    20
 71
     2
 72
     2
 73
     0
 90
        0
 40
0.6
 41
30.0
 62
     5
 63
     7
 74
     1
 91
        4
 64
     7
 65
   257
 75
     1
175
     1
 42
1.0
 92
       10
 66
     7
 43
1.0
 76
     1
 77
     6
 78
     2
 67
     7
 79
     5
170
     0
171
     0
290
     0
174
     0
 93
        1
 44
0.0
173
     0
291
     1
 45
0.0
1001
ACAD
1000
AcDbSavedByObjectVersion
1070
     0
  0
VISUALSTYLE
  5
5E3
102
{ACAD_REACTORS
330
2A
102
}
102
{ACAD_XDICTIONARY
360
6EE
102
}
330
2A
100
AcDbVisualStyle
  2
Linepattern
 70
    14
 71
     2
 72
     2
 73
     0
 90
        0
 40
0.6
 41
30.0
 62
     5
 63
     7
 74
     1
 91
        4
 64
     7
 65
   257
 75
     7
175
     7
 42
1.0
 92
        8
 66
     7
 43
1.0
 76
     1
 77
     6
 78
     2
 67
     7
 79
     5
170
     0
171
     0
290
     0
174
     0
 93
        1
 44
0.0
173
     0
291
     1
 45
0.0
1001
ACAD
1000
AcDbSavedByObjectVersion
1070
     0
  0
VISUALSTYLE
  5
5E7
102
{ACAD_REACTORS
330
2A
102
}
102
{ACAD_XDICTIONARY
360
6F6
102
}
330
2A
100
AcDbVisualStyle
  2
OverhangOff
 70
    21
 71
     2
 72
     2
 73
     0
 90
        0
 40
0.6
 41
30.0
 62
     5
 63
     7
 74
     1
 91
        4
 64
     7
 65
   257
 75
     1
175
     1
 42
1.0
 92
        9
 66
     7
 43
1.0
 76
     1
 77
     6
 78
     2
 67
     7
 79
     5
170
     0
171
     0
290
     0
174
     0
 93
        1
 44
0.0
173
     0
291
     1
 45
0.0
1001
ACAD
1000
AcDbSavedByObjectVersion
1070
     0
  0
VISUALSTYLE
  5
5DE
102
{ACAD_REACTORS
330
2A
102
}
102
{ACAD_XDICTIONARY
360
6E4
102
}
330
2A
100
AcDbVisualStyle
  2
Realistic
 70
     8
 71
     2
 72
     3
 73
     0
 90
        2
 40
0.6
 41
30.0
 62
     5
 63
     7
 74
     0
 91
        0
 64
     7
 65
   257
 75
     1
175
     1
 42
1.0
 92
        8
 66
   257
 43
1.0
 76
     1
 77
     6
 78
     2
 67
     7
 79
     3
170
     0
171
     0
290
     0
174
     0
 93
       13
 44
0.0
173
     0
291
     0
 45
0.0
1001
ACAD
1000
AcDbSavedByObjectVersion
1070
     0
  0
VISUALSTYLE
  5
5ED
102
{ACAD_REACTORS
330
2A
102
}
102
{ACAD_XDICTIONARY
360
702
102
}
330
2A
100
AcDbVisualStyle
  2
Shaded
 70
    27
 71
     2
 72
     2
 73
     1
 90
        2
 40
0.6
 41
30.0
 62
     5
 63
     7
 74
     0
 91
        4
 64
     7
 65
   257
 75
     1
175
     1
 42
1.0
 92
        8
 66
   257
 43
1.0
 76
     1
 77
     6
 78
     2
 67
   251
 79
     3
170
     0
171
     0
290
     0
174
     0
 93
        5
 44
0.0
173
     0
291
     0
 45
0.0
1001
ACAD
1000
AcDbSavedByObjectVersion
1070
     0
  0
VISUALSTYLE
  5
5EC
102
{ACAD_REACTORS
330
2A
102
}
102
{ACAD_XDICTIONARY
360
700
102
}
330
2A
100
AcDbVisualStyle
  2
Shaded with edges
 70
    26
 71
     2
 72
     2
 73
     1
 90
        2
 40
0.6
 41
30.0
 62
     5
 63
     7
 74
     1
 91
       10
 64
     7
 65
   257
 75
     2
175
     1
 42
1.0
 92
        8
 66
   257
 43
1.0
 76
     1
 77
     6
 78
     2
 67
     7
 79
     3
170
     0
171
     0
290
     0
174
     0
 93
        5
 44
0.0
173
     0
291
     0
 45
0.0
1001
ACAD
1000
AcDbSavedByObjectVersion
1070
     0
  0
VISUALSTYLE
  5
5E9
102
{ACAD_REACTORS
330
2A
102
}
102
{ACAD_XDICTIONARY
360
6FA
102
}
330
2A
100
AcDbVisualStyle
  2
Shades of Gray
 70
    23
 71
     2
 72
     2
 73
     3
 90
        0
 40
0.6
 41
30.0
 62
     5
 63
     7
 74
     2
 91
        2
 64
     7
 65
     7
 75
     1
175
     1
 42
40.0
 92
        8
 66
     7
 43
1.0
 76
     1
 77
     6
 78
     2
 67
     7
 79
     3
170
     0
171
     0
290
     0
174
     0
 93
        1
 44
0.0
173
     0
291
     0
 45
0.0
1001
ACAD
1000
AcDbSavedByObjectVersion
1070
     0
  0
VISUALSTYLE
  5
5EA
102
{ACAD_REACTORS
330
2A
102
}
102
{ACAD_XDICTIONARY
360
6FC
102
}
330
2A
100
AcDbVisualStyle
  2
Sketchy
 70
    24
 71
     1
 72
     2
 73
     2
 90
        0
 40
0.6
 41
30.0
 62
     5
 63
     7
 74
     2
 91
        2
 64
     7
 65
     7
 75
     1
175
     1
 42
40.0
 92
       11
 66
     7
 43
1.0
 76
     1
 77
     6
 78
     2
 67
     7
 79
     6
170
     0
171
     0
290
     0
174
     0
 93
        1
 44
0.0
173
     0
291
     0
 45
0.0
1001
ACAD
1000
AcDbSavedByObjectVersion
1070
     0
  0
VISUALSTYLE
  5
5E2
102
{ACAD_REACTORS
330
2A
102
}
102
{ACAD_XDICTIONARY
360
6EC
102
}
330
2A
100
AcDbVisualStyle
  2
Thicken
 70
    13
 71
     2
 72
     2
 73
     0
 90
        0
 40
0.6
 41
30.0
 62
     5
 63
     7
 74
     1
 91
        4
 64
     7
 65
   257
 75
     1
175
     1
 42
1.0
 92
       12
 66
     7
 43
1.0
 76
     1
 77
     6
 78
     2
 67
     7
 79
     5
170
     0
171
     0
290
     0
174
     0
 93
        1
 44
0.0
173
     0
291
     1
 45
0.0
1001
ACAD
1000
AcDbSavedByObjectVersion
1070
     0
  0
VISUALSTYLE
  5
5DB
102
{ACAD_REACTORS
330
2A
102
}
102
{ACAD_XDICTIONARY
360
6DE
102
}
330
2A
100
AcDbVisualStyle
  2
Wireframe
 70
     5
 71
     0
 72
     2
 73
     0
 90
        0
 40
0.6
 41
30.0
 62
     5
 63
     7
 74
     1
 91
        4
 64
     7
 65
   257
 75
     1
175
     1
 42
1.0
 92
        0
 66
   257
 43
1.0
 76
     1
 77
     6
 78
     2
 67
     7
 79
     5
170
     0
171
     0
290
     0
174
     0
 93
        1
 44
0.0
173
     0
291
     0
 45
0.0
1001
ACAD
1000
AcDbSavedByObjectVersion
1070
     0
  0
VISUALSTYLE
  5
5EB
102
{ACAD_REACTORS
330
2A
102
}
102
{ACAD_XDICTIONARY
360
6FE
102
}
330
2A
100
AcDbVisualStyle
  2
X-Ray
 70
    25
 71
     2
 72
     2
 73
     1
 90
        1
 40
0.5
 41
30.0
 62
     5
 63
     7
 74
     1
 91
        0
 64
     7
 65
   257
 75
     1
175
     1
 42
1.0
 92
        8
 66
     7
 43
1.0
 76
     1
 77
     6
 78
     2
 67
     7
 79
     3
170
     0
171
     0
290
     0
174
     0
 93
       13
 44
0.0
173
     0
291
     0
 45
0.0
1001
ACAD
1000
AcDbSavedByObjectVersion
1070
     0
  0
XRECORD
  5
6C8
102
{ACAD_REACTORS
330
6C7
102
}
330
6C7
100
AcDbXrecord
280
     1
340
29
  0
XRECORD
  5
6C9
102
{ACAD_REACTORS
330
6C7
102
}
330
6C7
100
AcDbXrecord
280
     1
340
7
  0
DICTIONARYVAR
  5
5D0
102
{ACAD_REACTORS
330
5CF
102
}
330
5CF
100
DictionaryVariables
280
     0
  1
1:1
  0
DICTIONARYVAR
  5
656
102
{ACAD_REACTORS
330
5CF
102
}
330
5CF
100
DictionaryVariables
280
     0
  1
Standard
  0
DICTIONARYVAR
  5
65A
102
{ACAD_REACTORS
330
5CF
102
}
330
5CF
100
DictionaryVariables
280
     0
  1
Standard
  0
DICTIONARYVAR
  5
6C5
102
{ACAD_REACTORS
330
5CF
102
}
330
5CF
100
DictionaryVariables
280
     0
  1
0
  0
DICTIONARYVAR
  5
6C6
102
{ACAD_REACTORS
330
5CF
102
}
330
5CF
100
DictionaryVariables
280
     0
  1
1
  0
DICTIONARYVAR
  5
6CD
102
{ACAD_REACTORS
330
5CF
102
}
330
5CF
100
DictionaryVariables
280
     0
  1
1
  0
DICTIONARYVAR
  5
5D3
102
{ACAD_REACTORS
330
5CF
102
}
330
5CF
100
DictionaryVariables
280
     0
  1
0
  0
DICTIONARY
  5
6D2
330
50
100
AcDbDictionary
280
     1
281
     1
  3
ACAD_XREC_ROUNDTRIP
360
6D3
  0
DICTIONARY
  5
6CE
330
10
100
AcDbDictionary
280
     1
281
     1
  3
ACAD_XREC_ROUNDTRIP
360
6CF
  0
DICTIONARY
  5
6D0
330
6
100
AcDbDictionary
280
     1
281
     1
  3
ACAD_XREC_ROUNDTRIP
360
6D1
  0
DICTIONARY
  5
704
330
653
100
AcDbDictionary
280
     1
281
     1
  3
ACAD_XREC_ROUNDTRIP
360
705
  0
DICTIONARY
  5
6DC
330
5DA
100
AcDbDictionary
280
     1
281
     1
  3
ACAD_XREC_ROUNDTRIP
360
6DD
  0
DICTIONARY
  5
6E2
330
5DD
100
AcDbDictionary
280
     1
281
     1
  3
ACAD_XREC_ROUNDTRIP
360
6E3
  0
DICTIONARY
  5
6EA
330
5E1
100
AcDbDictionary
280
     1
281
     1
  3
ACAD_XREC_ROUNDTRIP
360
6EB
  0
DICTIONARY
  5
6F2
330
5E5
100
AcDbDictionary
280
     1
281
     1
  3
ACAD_XREC_ROUNDTRIP
360
6F3
  0
DICTIONARY
  5
6E6
330
5DF
100
AcDbDictionary
280
     1
281
     1
  3
ACAD_XREC_ROUNDTRIP
360
6E7
  0
DICTIONARY
  5
6E8
330
5E0
100
AcDbDictionary
280
     1
281
     1
  3
ACAD_XREC_ROUNDTRIP
360
6E9
  0
DICTIONARY
  5
6F8
330
5E8
100
AcDbDictionary
280
     1
281
     1
  3
ACAD_XREC_ROUNDTRIP
360
6F9
  0
DICTIONARY
  5
6F0
330
5E4
100
AcDbDictionary
280
     1
281
     1
  3
ACAD_XREC_ROUNDTRIP
360
6F1
  0
DICTIONARY
  5
6D4
330
5D6
100
AcDbDictionary
280
     1
281
     1
  3
ACAD_XREC_ROUNDTRIP
360
6D5
  0
DICTIONARY
  5
6D6
330
5D7
100
AcDbDictionary
280
     1
281
     1
  3
ACAD_XREC_ROUNDTRIP
360
6D7
  0
DICTIONARY
  5
6D8
330
5D8
100
AcDbDictionary
280
     1
281
     1
  3
ACAD_XREC_ROUNDTRIP
360
6D9
  0
DICTIONARY
  5
6DA
330
5D9
100
AcDbDictionary
280
     1
281
     1
  3
ACAD_XREC_ROUNDTRIP
360
6DB
  0
DICTIONARY
  5
6E0
330
5DC
100
AcDbDictionary
280
     1
281
     1
  3
ACAD_XREC_ROUNDTRIP
360
6E1
  0
DICTIONARY
  5
6F4
330
5E6
100
AcDbDictionary
280
     1
281
     1
  3
ACAD_XREC_ROUNDTRIP
360
6F5
  0
DICTIONARY
  5
6EE
330
5E3
100
AcDbDictionary
280
     1
281
     1
  3
ACAD_XREC_ROUNDTRIP
360
6EF
  0
DICTIONARY
  5
6F6
330
5E7
100
AcDbDictionary
280
     1
281
     1
  3
ACAD_XREC_ROUNDTRIP
360
6F7
  0
DICTIONARY
  5
6E4
330
5DE
100
AcDbDictionary
280
     1
281
     1
  3
ACAD_XREC_ROUNDTRIP
360
6E5
  0
DICTIONARY
  5
702
330
5ED
100
AcDbDictionary
280
     1
281
     1
  3
ACAD_XREC_ROUNDTRIP
360
703
  0
DICTIONARY
  5
700
330
5EC
100
AcDbDictionary
280
     1
281
     1
  3
ACAD_XREC_ROUNDTRIP
360
701
  0
DICTIONARY
  5
6FA
330
5E9
100
AcDbDictionary
280
     1
281
     1
  3
ACAD_XREC_ROUNDTRIP
360
6FB
  0
DICTIONARY
  5
6FC
330
5EA
100
AcDbDictionary
280
     1
281
     1
  3
ACAD_XREC_ROUNDTRIP
360
6FD
  0
DICTIONARY
  5
6EC
330
5E2
100
AcDbDictionary
280
     1
281
     1
  3
ACAD_XREC_ROUNDTRIP
360
6ED
  0
DICTIONARY
  5
6DE
330
5DB
100
AcDbDictionary
280
     1
281
     1
  3
ACAD_XREC_ROUNDTRIP
360
6DF
  0
DICTIONARY
  5
6FE
330
5EB
100
AcDbDictionary
280
     1
281
     1
  3
ACAD_XREC_ROUNDTRIP
360
6FF
  0
XRECORD
  5
6D3
102
{ACAD_REACTORS
330
6D2
102
}
330
6D2
100
AcDbXrecord
280
     1
102
MATERIAL
148
0.0
149
0.0
149
0.0
 93
        0
 94
      127
282
     0
 72
     1
 77
     1
171
     1
175
     1
179
     1
273
     0
  0
XRECORD
  5
6CF
102
{ACAD_REACTORS
330
6CE
102
}
330
6CE
100
AcDbXrecord
280
     1
102
MATERIAL
148
0.0
149
0.0
149
0.0
 93
        0
 94
      127
282
     0
 72
     1
 77
     1
171
     1
175
     1
179
     1
273
     0
  0
XRECORD
  5
6D1
102
{ACAD_REACTORS
330
6D0
102
}
330
6D0
100
AcDbXrecord
280
     1
102
MATERIAL
148
0.0
149
0.0
149
0.0
 93
        0
 94
      127
282
     0
 72
     1
 77
     1
171
     1
175
     1
179
     1
273
     0
  0
XRECORD
  5
705
102
{ACAD_REACTORS
330
704
102
}
330
704
100
AcDbXrecord
280
     1
102
ACAD_ROUNDTRIP_2010_MLEADER_STYLE
  0
XRECORD
  5
6DD
102
{ACAD_REACTORS
330
6DC
102
}
330
6DC
100
AcDbXrecord
280
     1
102
RTVSPropertyOp0
 70
     1
102
RTVSPropertyOp1
 70
     1
102
RTVSPropertyOp2
 70
     1
102
RTVSPropertyOp3
 70
     1
102
RTVSPropertyOp4
 70
     1
102
RTVSPropertyOp5
 70
     1
102
RTVSPropertyOp6
 70
     1
102
RTVSPropertyOp7
 70
     1
102
RTVSPropertyOp8
 70
     1
102
RTVSPropertyOp9
 70
     1
102
RTVSPropertyOp10
 70
     1
102
RTVSPropertyOp11
 70
     1
102
RTVSPropertyOp12
 70
     1
102
RTVSPropertyOp13
 70
     1
102
RTVSPropertyOp14
 70
     1
102
RTVSPropertyOp15
 70
     1
102
RTVSPropertyOp16
 70
     1
102
RTVSPropertyOp17
 70
     1
102
RTVSPropertyOp18
 70
     1
102
RTVSPropertyOp19
 70
     1
102
RTVSPropertyOp20
 70
     1
102
RTVSPropertyOp21
 70
     1
102
RTVSPropertyOp22
 70
     1
102
RTVSPropertyOp23
 70
     1
102
RTVSPropertyOp24
 70
     1
102
RTVSPropertyOp25
 70
     1
102
RTVSPropertyOp26
 70
     1
102
RTVSPropertyOp27
 70
     1
102
RTVSPropertyOp28
 70
     1
102
RTVSPropertyOp29
 70
     1
102
RTVSPropertyOp30
 70
     1
102
RTVSPropertyOp31
 70
     1
102
RTVSPropertyOp32
 70
     1
102
RTVSPropertyOp33
 70
     1
102
RTVSPropertyOp34
 70
     1
102
RTVSPropertyOp35
 70
     1
102
RTVSPropertyOp36
 70
     1
102
RTVSPropertyOp37
 70
     1
102
RTVSPropertyOp38
 70
     1
102
RTVSPropertyOp39
 70
     1
102
RTVSPropertyOp40
 70
     1
102
RTVSPropertyOp41
 70
     1
102
RTVSPropertyOp42
 70
     1
102
RTVSPropertyOp43
 70
     1
102
RTVSPropertyOp44
 70
     1
102
RTVSPropertyOp45
 70
     1
102
RTVSPropertyOp46
 70
     1
102
RTVSPropertyOp47
 70
     1
102
RTVSPropertyOp48
 70
     1
102
RTVSPropertyOp49
 70
     1
102
RTVSPropertyOp50
 70
     1
102
RTVSPropertyOp51
 70
     0
102
RTVSPropertyOp52
 70
     0
102
RTVSPropertyOp53
 70
     1
102
RTVSPropertyOp54
 70
     1
102
RTVSPropertyOp55
 70
     1
102
RTVSPropertyOp56
 70
     1
102
RTVSPropertyOp57
 70
     1
102
RTVSPost2010Prop28
280
     1
102
RTVSPost2010PropOp28
 70
     1
102
RTVSPost2010Prop29
280
     1
102
RTVSPost2010PropOp29
 70
     1
102
RTVSPost2010Prop30
280
     0
102
RTVSPost2010PropOp30
 70
     1
102
RTVSPost2010Prop31
280
     0
102
RTVSPost2010PropOp31
 70
     1
102
RTVSPost2010Prop32
280
     0
102
RTVSPost2010PropOp32
 70
     1
102
RTVSPost2010Prop33
280
     0
102
RTVSPost2010PropOp33
 70
     1
102
RTVSPost2010Prop34
280
     0
102
RTVSPost2010PropOp34
 70
     1
102
RTVSPost2010Prop35
280
     0
102
RTVSPost2010PropOp35
 70
     1
102
RTVSPost2010Prop36
280
     0
102
RTVSPost2010PropOp36
 70
     1
102
RTVSPost2010Prop37
 90
       50
102
RTVSPost2010PropOp37
 70
     1
102
RTVSPost2010Prop38
140
0.0
102
RTVSPost2010PropOp38
 70
     1
102
RTVSPost2010Prop39
140
1.0
102
RTVSPost2010PropOp39
 70
     1
102
RTVSPost2010Prop40
 90
        0
102
RTVSPost2010PropOp40
 70
     1
102
RTVSPost2010Prop41ColorIndex
 90
       18
102
RTVSPost2010Prop41ColorRGB
 90
        0
102
RTVSPost2010PropOp41
 70
     1
102
RTVSPost2010Prop42
 90
       50
102
RTVSPost2010PropOp42
 70
     1
102
RTVSPost2010Prop43
 90
        3
102
RTVSPost2010PropOp43
 70
     1
102
RTVSPost2010Prop44ColorIndex
 90
        5
102
RTVSPost2010Prop44ColorRGB
 90
      255
102
RTVSPost2010PropOp44
 70
     1
102
RTVSPost2010Prop45
280
     0
102
RTVSPost2010PropOp45
 70
     1
102
RTVSPost2010Prop46
 90
       50
102
RTVSPost2010PropOp46
 70
     1
102
RTVSPost2010Prop47
 90
       50
102
RTVSPost2010PropOp47
 70
     1
102
RTVSPost2010Prop48
 90
       50
102
RTVSPost2010PropOp48
 70
     1
102
RTVSPost2010Prop49
280
     0
102
RTVSPost2010PropOp49
 70
     1
102
RTVSPost2010Prop50
 90
       50
102
RTVSPost2010PropOp50
 70
     1
102
RTVSPost2010Prop51ColorIndex
 90
      256
102
RTVSPost2010Prop51ColorRGB
 90
-16777216
102
RTVSPost2010PropOp51
 70
     0
102
RTVSPost2010Prop52
140
1.0
102
RTVSPost2010PropOp52
 70
     0
102
RTVSPost2010Prop53
 90
        2
102
RTVSPost2010PropOp53
 70
     1
102
RTVSPost2010Prop54
  1
strokes_ogs.tif
102
RTVSPost2010PropOp54
 70
     1
102
RTVSPost2010Prop55
280
     0
102
RTVSPost2010PropOp55
 70
     1
102
RTVSPost2010Prop56
140
1.0
102
RTVSPost2010PropOp56
 70
     1
102
RTVSPost2010Prop57
140
1.0
102
RTVSPost2010PropOp57
 70
     1
  0
XRECORD
  5
6E3
102
{ACAD_REACTORS
330
6E2
102
}
330
6E2
100
AcDbXrecord
280
     1
102
RTVSPropertyOp0
 70
     1
102
RTVSPropertyOp1
 70
     1
102
RTVSPropertyOp2
 70
     1
102
RTVSPropertyOp3
 70
     1
102
RTVSPropertyOp4
 70
     1
102
RTVSPropertyOp5
 70
     1
102
RTVSPropertyOp6
 70
     1
102
RTVSPropertyOp7
 70
     1
102
RTVSPropertyOp8
 70
     1
102
RTVSPropertyOp9
 70
     1
102
RTVSPropertyOp10
 70
     1
102
RTVSPropertyOp11
 70
     1
102
RTVSPropertyOp12
 70
     1
102
RTVSPropertyOp13
 70
     1
102
RTVSPropertyOp14
 70
     1
102
RTVSPropertyOp15
 70
     1
102
RTVSPropertyOp16
 70
     1
102
RTVSPropertyOp17
 70
     1
102
RTVSPropertyOp18
 70
     1
102
RTVSPropertyOp19
 70
     1
102
RTVSPropertyOp20
 70
     1
102
RTVSPropertyOp21
 70
     1
102
RTVSPropertyOp22
 70
     1
102
RTVSPropertyOp23
 70
     1
102
RTVSPropertyOp24
 70
     1
102
RTVSPropertyOp25
 70
     1
102
RTVSPropertyOp26
 70
     1
102
RTVSPropertyOp27
 70
     1
102
RTVSPropertyOp28
 70
     1
102
RTVSPropertyOp29
 70
     1
102
RTVSPropertyOp30
 70
     1
102
RTVSPropertyOp31
 70
     1
102
RTVSPropertyOp32
 70
     1
102
RTVSPropertyOp33
 70
     1
102
RTVSPropertyOp34
 70
     1
102
RTVSPropertyOp35
 70
     1
102
RTVSPropertyOp36
 70
     1
102
RTVSPropertyOp37
 70
     1
102
RTVSPropertyOp38
 70
     1
102
RTVSPropertyOp39
 70
     1
102
RTVSPropertyOp40
 70
     1
102
RTVSPropertyOp41
 70
     1
102
RTVSPropertyOp42
 70
     1
102
RTVSPropertyOp43
 70
     1
102
RTVSPropertyOp44
 70
     1
102
RTVSPropertyOp45
 70
     1
102
RTVSPropertyOp46
 70
     1
102
RTVSPropertyOp47
 70
     1
102
RTVSPropertyOp48
 70
     1
102
RTVSPropertyOp49
 70
     1
102
RTVSPropertyOp50
 70
     1
102
RTVSPropertyOp51
 70
     0
102
RTVSPropertyOp52
 70
     0
102
RTVSPropertyOp53
 70
     1
102
RTVSPropertyOp54
 70
     1
102
RTVSPropertyOp55
 70
     1
102
RTVSPropertyOp56
 70
     1
102
RTVSPropertyOp57
 70
     1
102
RTVSPost2010Prop28
280
     0
102
RTVSPost2010PropOp28
 70
     1
102
RTVSPost2010Prop29
280
     1
102
RTVSPost2010PropOp29
 70
     1
102
RTVSPost2010Prop30
280
     1
102
RTVSPost2010PropOp30
 70
     1
102
RTVSPost2010Prop31
280
     0
102
RTVSPost2010PropOp31
 70
     1
102
RTVSPost2010Prop32
280
     0
102
RTVSPost2010PropOp32
 70
     1
102
RTVSPost2010Prop33
280
     0
102
RTVSPost2010PropOp33
 70
     1
102
RTVSPost2010Prop34
280
     0
102
RTVSPost2010PropOp34
 70
     1
102
RTVSPost2010Prop35
280
     0
102
RTVSPost2010PropOp35
 70
     1
102
RTVSPost2010Prop36
280
     0
102
RTVSPost2010PropOp36
 70
     1
102
RTVSPost2010Prop37
 90
       50
102
RTVSPost2010PropOp37
 70
     1
102
RTVSPost2010Prop38
140
0.0
102
RTVSPost2010PropOp38
 70
     1
102
RTVSPost2010Prop39
140
1.0
102
RTVSPost2010PropOp39
 70
     1
102
RTVSPost2010Prop40
 90
        0
102
RTVSPost2010PropOp40
 70
     1
102
RTVSPost2010Prop41ColorIndex
 90
       18
102
RTVSPost2010Prop41ColorRGB
 90
        0
102
RTVSPost2010PropOp41
 70
     1
102
RTVSPost2010Prop42
 90
       50
102
RTVSPost2010PropOp42
 70
     1
102
RTVSPost2010Prop43
 90
        3
102
RTVSPost2010PropOp43
 70
     1
102
RTVSPost2010Prop44ColorIndex
 90
        5
102
RTVSPost2010Prop44ColorRGB
 90
      255
102
RTVSPost2010PropOp44
 70
     1
102
RTVSPost2010Prop45
280
     0
102
RTVSPost2010PropOp45
 70
     1
102
RTVSPost2010Prop46
 90
       50
102
RTVSPost2010PropOp46
 70
     1
102
RTVSPost2010Prop47
 90
       50
102
RTVSPost2010PropOp47
 70
     1
102
RTVSPost2010Prop48
 90
       50
102
RTVSPost2010PropOp48
 70
     1
102
RTVSPost2010Prop49
280
     0
102
RTVSPost2010PropOp49
 70
     1
102
RTVSPost2010Prop50
 90
       50
102
RTVSPost2010PropOp50
 70
     1
102
RTVSPost2010Prop51ColorIndex
 90
      256
102
RTVSPost2010Prop51ColorRGB
 90
-16777216
102
RTVSPost2010PropOp51
 70
     0
102
RTVSPost2010Prop52
140
1.0
102
RTVSPost2010PropOp52
 70
     0
102
RTVSPost2010Prop53
 90
        2
102
RTVSPost2010PropOp53
 70
     1
102
RTVSPost2010Prop54
  1
strokes_ogs.tif
102
RTVSPost2010PropOp54
 70
     1
102
RTVSPost2010Prop55
280
     0
102
RTVSPost2010PropOp55
 70
     1
102
RTVSPost2010Prop56
140
1.0
102
RTVSPost2010PropOp56
 70
     1
102
RTVSPost2010Prop57
140
1.0
102
RTVSPost2010PropOp57
 70
     1
  0
XRECORD
  5
6EB
102
{ACAD_REACTORS
330
6EA
102
}
330
6EA
100
AcDbXrecord
280
     1
102
RTVSPropertyOp0
 70
     1
102
RTVSPropertyOp1
 70
     1
102
RTVSPropertyOp2
 70
     1
102
RTVSPropertyOp3
 70
     1
102
RTVSPropertyOp4
 70
     1
102
RTVSPropertyOp5
 70
     1
102
RTVSPropertyOp6
 70
     1
102
RTVSPropertyOp7
 70
     1
102
RTVSPropertyOp8
 70
     1
102
RTVSPropertyOp9
 70
     1
102
RTVSPropertyOp10
 70
     1
102
RTVSPropertyOp11
 70
     1
102
RTVSPropertyOp12
 70
     1
102
RTVSPropertyOp13
 70
     1
102
RTVSPropertyOp14
 70
     1
102
RTVSPropertyOp15
 70
     1
102
RTVSPropertyOp16
 70
     1
102
RTVSPropertyOp17
 70
     1
102
RTVSPropertyOp18
 70
     1
102
RTVSPropertyOp19
 70
     1
102
RTVSPropertyOp20
 70
     1
102
RTVSPropertyOp21
 70
     1
102
RTVSPropertyOp22
 70
     1
102
RTVSPropertyOp23
 70
     1
102
RTVSPropertyOp24
 70
     1
102
RTVSPropertyOp25
 70
     1
102
RTVSPropertyOp26
 70
     1
102
RTVSPropertyOp27
 70
     1
102
RTVSPropertyOp28
 70
     1
102
RTVSPropertyOp29
 70
     1
102
RTVSPropertyOp30
 70
     1
102
RTVSPropertyOp31
 70
     1
102
RTVSPropertyOp32
 70
     1
102
RTVSPropertyOp33
 70
     1
102
RTVSPropertyOp34
 70
     1
102
RTVSPropertyOp35
 70
     1
102
RTVSPropertyOp36
 70
     1
102
RTVSPropertyOp37
 70
     1
102
RTVSPropertyOp38
 70
     1
102
RTVSPropertyOp39
 70
     1
102
RTVSPropertyOp40
 70
     1
102
RTVSPropertyOp41
 70
     1
102
RTVSPropertyOp42
 70
     1
102
RTVSPropertyOp43
 70
     1
102
RTVSPropertyOp44
 70
     1
102
RTVSPropertyOp45
 70
     1
102
RTVSPropertyOp46
 70
     1
102
RTVSPropertyOp47
 70
     1
102
RTVSPropertyOp48
 70
     1
102
RTVSPropertyOp49
 70
     1
102
RTVSPropertyOp50
 70
     1
102
RTVSPropertyOp51
 70
     0
102
RTVSPropertyOp52
 70
     0
102
RTVSPropertyOp53
 70
     1
102
RTVSPropertyOp54
 70
     1
102
RTVSPropertyOp55
 70
     1
102
RTVSPropertyOp56
 70
     1
102
RTVSPropertyOp57
 70
     1
102
RTVSPost2010Prop28
280
     0
102
RTVSPost2010PropOp28
 70
     1
102
RTVSPost2010Prop29
280
     1
102
RTVSPost2010PropOp29
 70
     1
102
RTVSPost2010Prop30
280
     1
102
RTVSPost2010PropOp30
 70
     1
102
RTVSPost2010Prop31
280
     0
102
RTVSPost2010PropOp31
 70
     1
102
RTVSPost2010Prop32
280
     0
102
RTVSPost2010PropOp32
 70
     1
102
RTVSPost2010Prop33
280
     0
102
RTVSPost2010PropOp33
 70
     1
102
RTVSPost2010Prop34
280
     0
102
RTVSPost2010PropOp34
 70
     1
102
RTVSPost2010Prop35
280
     0
102
RTVSPost2010PropOp35
 70
     1
102
RTVSPost2010Prop36
280
     0
102
RTVSPost2010PropOp36
 70
     1
102
RTVSPost2010Prop37
 90
       50
102
RTVSPost2010PropOp37
 70
     1
102
RTVSPost2010Prop38
140
0.0
102
RTVSPost2010PropOp38
 70
     1
102
RTVSPost2010Prop39
140
1.0
102
RTVSPost2010PropOp39
 70
     1
102
RTVSPost2010Prop40
 90
        0
102
RTVSPost2010PropOp40
 70
     1
102
RTVSPost2010Prop41ColorIndex
 90
       18
102
RTVSPost2010Prop41ColorRGB
 90
        0
102
RTVSPost2010PropOp41
 70
     1
102
RTVSPost2010Prop42
 90
       50
102
RTVSPost2010PropOp42
 70
     1
102
RTVSPost2010Prop43
 90
        3
102
RTVSPost2010PropOp43
 70
     1
102
RTVSPost2010Prop44ColorIndex
 90
        5
102
RTVSPost2010Prop44ColorRGB
 90
      255
102
RTVSPost2010PropOp44
 70
     1
102
RTVSPost2010Prop45
280
     0
102
RTVSPost2010PropOp45
 70
     1
102
RTVSPost2010Prop46
 90
       50
102
RTVSPost2010PropOp46
 70
     1
102
RTVSPost2010Prop47
 90
       50
102
RTVSPost2010PropOp47
 70
     1
102
RTVSPost2010Prop48
 90
       50
102
RTVSPost2010PropOp48
 70
     1
102
RTVSPost2010Prop49
280
     0
102
RTVSPost2010PropOp49
 70
     1
102
RTVSPost2010Prop50
 90
       50
102
RTVSPost2010PropOp50
 70
     1
102
RTVSPost2010Prop51ColorIndex
 90
      256
102
RTVSPost2010Prop51ColorRGB
 90
-16777216
102
RTVSPost2010PropOp51
 70
     0
102
RTVSPost2010Prop52
140
1.0
102
RTVSPost2010PropOp52
 70
     0
102
RTVSPost2010Prop53
 90
        2
102
RTVSPost2010PropOp53
 70
     1
102
RTVSPost2010Prop54
  1
strokes_ogs.tif
102
RTVSPost2010PropOp54
 70
     1
102
RTVSPost2010Prop55
280
     0
102
RTVSPost2010PropOp55
 70
     1
102
RTVSPost2010Prop56
140
1.0
102
RTVSPost2010PropOp56
 70
     1
102
RTVSPost2010Prop57
140
1.0
102
RTVSPost2010PropOp57
 70
     1
  0
XRECORD
  5
6F3
102
{ACAD_REACTORS
330
6F2
102
}
330
6F2
100
AcDbXrecord
280
     1
102
RTVSPropertyOp0
 70
     1
102
RTVSPropertyOp1
 70
     1
102
RTVSPropertyOp2
 70
     1
102
RTVSPropertyOp3
 70
     1
102
RTVSPropertyOp4
 70
     1
102
RTVSPropertyOp5
 70
     1
102
RTVSPropertyOp6
 70
     1
102
RTVSPropertyOp7
 70
     1
102
RTVSPropertyOp8
 70
     1
102
RTVSPropertyOp9
 70
     1
102
RTVSPropertyOp10
 70
     1
102
RTVSPropertyOp11
 70
     1
102
RTVSPropertyOp12
 70
     1
102
RTVSPropertyOp13
 70
     1
102
RTVSPropertyOp14
 70
     1
102
RTVSPropertyOp15
 70
     1
102
RTVSPropertyOp16
 70
     1
102
RTVSPropertyOp17
 70
     1
102
RTVSPropertyOp18
 70
     1
102
RTVSPropertyOp19
 70
     1
102
RTVSPropertyOp20
 70
     1
102
RTVSPropertyOp21
 70
     1
102
RTVSPropertyOp22
 70
     1
102
RTVSPropertyOp23
 70
     1
102
RTVSPropertyOp24
 70
     1
102
RTVSPropertyOp25
 70
     1
102
RTVSPropertyOp26
 70
     1
102
RTVSPropertyOp27
 70
     1
102
RTVSPropertyOp28
 70
     1
102
RTVSPropertyOp29
 70
     1
102
RTVSPropertyOp30
 70
     1
102
RTVSPropertyOp31
 70
     1
102
RTVSPropertyOp32
 70
     1
102
RTVSPropertyOp33
 70
     1
102
RTVSPropertyOp34
 70
     1
102
RTVSPropertyOp35
 70
     1
102
RTVSPropertyOp36
 70
     1
102
RTVSPropertyOp37
 70
     1
102
RTVSPropertyOp38
 70
     1
102
RTVSPropertyOp39
 70
     1
102
RTVSPropertyOp40
 70
     1
102
RTVSPropertyOp41
 70
     1
102
RTVSPropertyOp42
 70
     1
102
RTVSPropertyOp43
 70
     1
102
RTVSPropertyOp44
 70
     1
102
RTVSPropertyOp45
 70
     1
102
RTVSPropertyOp46
 70
     1
102
RTVSPropertyOp47
 70
     1
102
RTVSPropertyOp48
 70
     1
102
RTVSPropertyOp49
 70
     1
102
RTVSPropertyOp50
 70
     1
102
RTVSPropertyOp51
 70
     0
102
RTVSPropertyOp52
 70
     0
102
RTVSPropertyOp53
 70
     1
102
RTVSPropertyOp54
 70
     1
102
RTVSPropertyOp55
 70
     1
102
RTVSPropertyOp56
 70
     1
102
RTVSPropertyOp57
 70
     1
102
RTVSPost2010Prop28
280
     0
102
RTVSPost2010PropOp28
 70
     1
102
RTVSPost2010Prop29
280
     1
102
RTVSPost2010PropOp29
 70
     1
102
RTVSPost2010Prop30
280
     1
102
RTVSPost2010PropOp30
 70
     1
102
RTVSPost2010Prop31
280
     0
102
RTVSPost2010PropOp31
 70
     1
102
RTVSPost2010Prop32
280
     0
102
RTVSPost2010PropOp32
 70
     1
102
RTVSPost2010Prop33
280
     0
102
RTVSPost2010PropOp33
 70
     1
102
RTVSPost2010Prop34
280
     0
102
RTVSPost2010PropOp34
 70
     1
102
RTVSPost2010Prop35
280
     0
102
RTVSPost2010PropOp35
 70
     1
102
RTVSPost2010Prop36
280
     0
102
RTVSPost2010PropOp36
 70
     1
102
RTVSPost2010Prop37
 90
       50
102
RTVSPost2010PropOp37
 70
     1
102
RTVSPost2010Prop38
140
0.0
102
RTVSPost2010PropOp38
 70
     1
102
RTVSPost2010Prop39
140
1.0
102
RTVSPost2010PropOp39
 70
     1
102
RTVSPost2010Prop40
 90
        0
102
RTVSPost2010PropOp40
 70
     1
102
RTVSPost2010Prop41ColorIndex
 90
       18
102
RTVSPost2010Prop41ColorRGB
 90
        0
102
RTVSPost2010PropOp41
 70
     1
102
RTVSPost2010Prop42
 90
       50
102
RTVSPost2010PropOp42
 70
     1
102
RTVSPost2010Prop43
 90
        3
102
RTVSPost2010PropOp43
 70
     1
102
RTVSPost2010Prop44ColorIndex
 90
        5
102
RTVSPost2010Prop44ColorRGB
 90
      255
102
RTVSPost2010PropOp44
 70
     1
102
RTVSPost2010Prop45
280
     0
102
RTVSPost2010PropOp45
 70
     1
102
RTVSPost2010Prop46
 90
       50
102
RTVSPost2010PropOp46
 70
     1
102
RTVSPost2010Prop47
 90
       50
102
RTVSPost2010PropOp47
 70
     1
102
RTVSPost2010Prop48
 90
       50
102
RTVSPost2010PropOp48
 70
     1
102
RTVSPost2010Prop49
280
     0
102
RTVSPost2010PropOp49
 70
     1
102
RTVSPost2010Prop50
 90
       50
102
RTVSPost2010PropOp50
 70
     1
102
RTVSPost2010Prop51ColorIndex
 90
      256
102
RTVSPost2010Prop51ColorRGB
 90
-16777216
102
RTVSPost2010PropOp51
 70
     0
102
RTVSPost2010Prop52
140
1.0
102
RTVSPost2010PropOp52
 70
     0
102
RTVSPost2010Prop53
 90
        2
102
RTVSPost2010PropOp53
 70
     1
102
RTVSPost2010Prop54
  1
strokes_ogs.tif
102
RTVSPost2010PropOp54
 70
     1
102
RTVSPost2010Prop55
280
     0
102
RTVSPost2010PropOp55
 70
     1
102
RTVSPost2010Prop56
140
1.0
102
RTVSPost2010PropOp56
 70
     1
102
RTVSPost2010Prop57
140
1.0
102
RTVSPost2010PropOp57
 70
     1
  0
XRECORD
  5
6E7
102
{ACAD_REACTORS
330
6E6
102
}
330
6E6
100
AcDbXrecord
280
     1
102
RTVSPropertyOp0
 70
     1
102
RTVSPropertyOp1
 70
     1
102
RTVSPropertyOp2
 70
     1
102
RTVSPropertyOp3
 70
     1
102
RTVSPropertyOp4
 70
     1
102
RTVSPropertyOp5
 70
     1
102
RTVSPropertyOp6
 70
     1
102
RTVSPropertyOp7
 70
     1
102
RTVSPropertyOp8
 70
     1
102
RTVSPropertyOp9
 70
     1
102
RTVSPropertyOp10
 70
     1
102
RTVSPropertyOp11
 70
     1
102
RTVSPropertyOp12
 70
     1
102
RTVSPropertyOp13
 70
     1
102
RTVSPropertyOp14
 70
     1
102
RTVSPropertyOp15
 70
     1
102
RTVSPropertyOp16
 70
     1
102
RTVSPropertyOp17
 70
     1
102
RTVSPropertyOp18
 70
     1
102
RTVSPropertyOp19
 70
     1
102
RTVSPropertyOp20
 70
     1
102
RTVSPropertyOp21
 70
     1
102
RTVSPropertyOp22
 70
     1
102
RTVSPropertyOp23
 70
     1
102
RTVSPropertyOp24
 70
     1
102
RTVSPropertyOp25
 70
     1
102
RTVSPropertyOp26
 70
     1
102
RTVSPropertyOp27
 70
     1
102
RTVSPropertyOp28
 70
     1
102
RTVSPropertyOp29
 70
     1
102
RTVSPropertyOp30
 70
     1
102
RTVSPropertyOp31
 70
     1
102
RTVSPropertyOp32
 70
     1
102
RTVSPropertyOp33
 70
     1
102
RTVSPropertyOp34
 70
     1
102
RTVSPropertyOp35
 70
     1
102
RTVSPropertyOp36
 70
     1
102
RTVSPropertyOp37
 70
     1
102
RTVSPropertyOp38
 70
     1
102
RTVSPropertyOp39
 70
     1
102
RTVSPropertyOp40
 70
     1
102
RTVSPropertyOp41
 70
     1
102
RTVSPropertyOp42
 70
     1
102
RTVSPropertyOp43
 70
     1
102
RTVSPropertyOp44
 70
     1
102
RTVSPropertyOp45
 70
     1
102
RTVSPropertyOp46
 70
     1
102
RTVSPropertyOp47
 70
     1
102
RTVSPropertyOp48
 70
     1
102
RTVSPropertyOp49
 70
     1
102
RTVSPropertyOp50
 70
     1
102
RTVSPropertyOp51
 70
     0
102
RTVSPropertyOp52
 70
     0
102
RTVSPropertyOp53
 70
     1
102
RTVSPropertyOp54
 70
     1
102
RTVSPropertyOp55
 70
     1
102
RTVSPropertyOp56
 70
     1
102
RTVSPropertyOp57
 70
     1
102
RTVSPost2010Prop28
280
     0
102
RTVSPost2010PropOp28
 70
     1
102
RTVSPost2010Prop29
280
     1
102
RTVSPost2010PropOp29
 70
     1
102
RTVSPost2010Prop30
280
     1
102
RTVSPost2010PropOp30
 70
     1
102
RTVSPost2010Prop31
280
     0
102
RTVSPost2010PropOp31
 70
     1
102
RTVSPost2010Prop32
280
     0
102
RTVSPost2010PropOp32
 70
     1
102
RTVSPost2010Prop33
280
     0
102
RTVSPost2010PropOp33
 70
     1
102
RTVSPost2010Prop34
280
     0
102
RTVSPost2010PropOp34
 70
     1
102
RTVSPost2010Prop35
280
     0
102
RTVSPost2010PropOp35
 70
     1
102
RTVSPost2010Prop36
280
     0
102
RTVSPost2010PropOp36
 70
     1
102
RTVSPost2010Prop37
 90
       50
102
RTVSPost2010PropOp37
 70
     1
102
RTVSPost2010Prop38
140
0.0
102
RTVSPost2010PropOp38
 70
     1
102
RTVSPost2010Prop39
140
1.0
102
RTVSPost2010PropOp39
 70
     1
102
RTVSPost2010Prop40
 90
        0
102
RTVSPost2010PropOp40
 70
     1
102
RTVSPost2010Prop41ColorIndex
 90
       18
102
RTVSPost2010Prop41ColorRGB
 90
        0
102
RTVSPost2010PropOp41
 70
     1
102
RTVSPost2010Prop42
 90
       50
102
RTVSPost2010PropOp42
 70
     1
102
RTVSPost2010Prop43
 90
        3
102
RTVSPost2010PropOp43
 70
     1
102
RTVSPost2010Prop44ColorIndex
 90
        5
102
RTVSPost2010Prop44ColorRGB
 90
      255
102
RTVSPost2010PropOp44
 70
     1
102
RTVSPost2010Prop45
280
     0
102
RTVSPost2010PropOp45
 70
     1
102
RTVSPost2010Prop46
 90
       50
102
RTVSPost2010PropOp46
 70
     1
102
RTVSPost2010Prop47
 90
       50
102
RTVSPost2010PropOp47
 70
     1
102
RTVSPost2010Prop48
 90
       50
102
RTVSPost2010PropOp48
 70
     1
102
RTVSPost2010Prop49
280
     0
102
RTVSPost2010PropOp49
 70
     1
102
RTVSPost2010Prop50
 90
       50
102
RTVSPost2010PropOp50
 70
     1
102
RTVSPost2010Prop51ColorIndex
 90
      256
102
RTVSPost2010Prop51ColorRGB
 90
-16777216
102
RTVSPost2010PropOp51
 70
     0
102
RTVSPost2010Prop52
140
1.0
102
RTVSPost2010PropOp52
 70
     0
102
RTVSPost2010Prop53
 90
        2
102
RTVSPost2010PropOp53
 70
     1
102
RTVSPost2010Prop54
  1
strokes_ogs.tif
102
RTVSPost2010PropOp54
 70
     1
102
RTVSPost2010Prop55
280
     0
102
RTVSPost2010PropOp55
 70
     1
102
RTVSPost2010Prop56
140
1.0
102
RTVSPost2010PropOp56
 70
     1
102
RTVSPost2010Prop57
140
1.0
102
RTVSPost2010PropOp57
 70
     1
  0
XRECORD
  5
6E9
102
{ACAD_REACTORS
330
6E8
102
}
330
6E8
100
AcDbXrecord
280
     1
102
RTVSPropertyOp0
 70
     1
102
RTVSPropertyOp1
 70
     1
102
RTVSPropertyOp2
 70
     1
102
RTVSPropertyOp3
 70
     1
102
RTVSPropertyOp4
 70
     1
102
RTVSPropertyOp5
 70
     1
102
RTVSPropertyOp6
 70
     1
102
RTVSPropertyOp7
 70
     1
102
RTVSPropertyOp8
 70
     1
102
RTVSPropertyOp9
 70
     1
102
RTVSPropertyOp10
 70
     1
102
RTVSPropertyOp11
 70
     1
102
RTVSPropertyOp12
 70
     1
102
RTVSPropertyOp13
 70
     1
102
RTVSPropertyOp14
 70
     1
102
RTVSPropertyOp15
 70
     1
102
RTVSPropertyOp16
 70
     1
102
RTVSPropertyOp17
 70
     1
102
RTVSPropertyOp18
 70
     1
102
RTVSPropertyOp19
 70
     1
102
RTVSPropertyOp20
 70
     1
102
RTVSPropertyOp21
 70
     1
102
RTVSPropertyOp22
 70
     1
102
RTVSPropertyOp23
 70
     1
102
RTVSPropertyOp24
 70
     1
102
RTVSPropertyOp25
 70
     1
102
RTVSPropertyOp26
 70
     1
102
RTVSPropertyOp27
 70
     1
102
RTVSPropertyOp28
 70
     1
102
RTVSPropertyOp29
 70
     1
102
RTVSPropertyOp30
 70
     1
102
RTVSPropertyOp31
 70
     1
102
RTVSPropertyOp32
 70
     1
102
RTVSPropertyOp33
 70
     1
102
RTVSPropertyOp34
 70
     1
102
RTVSPropertyOp35
 70
     1
102
RTVSPropertyOp36
 70
     1
102
RTVSPropertyOp37
 70
     1
102
RTVSPropertyOp38
 70
     1
102
RTVSPropertyOp39
 70
     1
102
RTVSPropertyOp40
 70
     1
102
RTVSPropertyOp41
 70
     1
102
RTVSPropertyOp42
 70
     1
102
RTVSPropertyOp43
 70
     1
102
RTVSPropertyOp44
 70
     1
102
RTVSPropertyOp45
 70
     1
102
RTVSPropertyOp46
 70
     1
102
RTVSPropertyOp47
 70
     1
102
RTVSPropertyOp48
 70
     1
102
RTVSPropertyOp49
 70
     1
102
RTVSPropertyOp50
 70
     1
102
RTVSPropertyOp51
 70
     0
102
RTVSPropertyOp52
 70
     0
102
RTVSPropertyOp53
 70
     1
102
RTVSPropertyOp54
 70
     1
102
RTVSPropertyOp55
 70
     1
102
RTVSPropertyOp56
 70
     1
102
RTVSPropertyOp57
 70
     1
102
RTVSPost2010Prop28
280
     0
102
RTVSPost2010PropOp28
 70
     1
102
RTVSPost2010Prop29
280
     1
102
RTVSPost2010PropOp29
 70
     1
102
RTVSPost2010Prop30
280
     1
102
RTVSPost2010PropOp30
 70
     1
102
RTVSPost2010Prop31
280
     0
102
RTVSPost2010PropOp31
 70
     1
102
RTVSPost2010Prop32
280
     0
102
RTVSPost2010PropOp32
 70
     1
102
RTVSPost2010Prop33
280
     0
102
RTVSPost2010PropOp33
 70
     1
102
RTVSPost2010Prop34
280
     0
102
RTVSPost2010PropOp34
 70
     1
102
RTVSPost2010Prop35
280
     0
102
RTVSPost2010PropOp35
 70
     1
102
RTVSPost2010Prop36
280
     0
102
RTVSPost2010PropOp36
 70
     1
102
RTVSPost2010Prop37
 90
       50
102
RTVSPost2010PropOp37
 70
     1
102
RTVSPost2010Prop38
140
0.0
102
RTVSPost2010PropOp38
 70
     1
102
RTVSPost2010Prop39
140
1.0
102
RTVSPost2010PropOp39
 70
     1
102
RTVSPost2010Prop40
 90
        0
102
RTVSPost2010PropOp40
 70
     1
102
RTVSPost2010Prop41ColorIndex
 90
       18
102
RTVSPost2010Prop41ColorRGB
 90
        0
102
RTVSPost2010PropOp41
 70
     1
102
RTVSPost2010Prop42
 90
       50
102
RTVSPost2010PropOp42
 70
     1
102
RTVSPost2010Prop43
 90
        3
102
RTVSPost2010PropOp43
 70
     1
102
RTVSPost2010Prop44ColorIndex
 90
        5
102
RTVSPost2010Prop44ColorRGB
 90
      255
102
RTVSPost2010PropOp44
 70
     1
102
RTVSPost2010Prop45
280
     0
102
RTVSPost2010PropOp45
 70
     1
102
RTVSPost2010Prop46
 90
       50
102
RTVSPost2010PropOp46
 70
     1
102
RTVSPost2010Prop47
 90
       50
102
RTVSPost2010PropOp47
 70
     1
102
RTVSPost2010Prop48
 90
       50
102
RTVSPost2010PropOp48
 70
     1
102
RTVSPost2010Prop49
280
     0
102
RTVSPost2010PropOp49
 70
     1
102
RTVSPost2010Prop50
 90
       50
102
RTVSPost2010PropOp50
 70
     1
102
RTVSPost2010Prop51ColorIndex
 90
      256
102
RTVSPost2010Prop51ColorRGB
 90
-16777216
102
RTVSPost2010PropOp51
 70
     0
102
RTVSPost2010Prop52
140
1.0
102
RTVSPost2010PropOp52
 70
     0
102
RTVSPost2010Prop53
 90
        2
102
RTVSPost2010PropOp53
 70
     1
102
RTVSPost2010Prop54
  1
strokes_ogs.tif
102
RTVSPost2010PropOp54
 70
     1
102
RTVSPost2010Prop55
280
     0
102
RTVSPost2010PropOp55
 70
     1
102
RTVSPost2010Prop56
140
1.0
102
RTVSPost2010PropOp56
 70
     1
102
RTVSPost2010Prop57
140
1.0
102
RTVSPost2010PropOp57
 70
     1
  0
XRECORD
  5
6F9
102
{ACAD_REACTORS
330
6F8
102
}
330
6F8
100
AcDbXrecord
280
     1
102
RTVSPropertyOp0
 70
     0
102
RTVSPropertyOp1
 70
     0
102
RTVSPropertyOp2
 70
     0
102
RTVSPropertyOp3
 70
     0
102
RTVSPropertyOp4
 70
     0
102
RTVSPropertyOp5
 70
     0
102
RTVSPropertyOp6
 70
     0
102
RTVSPropertyOp7
 70
     0
102
RTVSPropertyOp8
 70
     0
102
RTVSPropertyOp9
 70
     0
102
RTVSPropertyOp10
 70
     0
102
RTVSPropertyOp11
 70
     0
102
RTVSPropertyOp12
 70
     0
102
RTVSPropertyOp13
 70
     0
102
RTVSPropertyOp14
 70
     0
102
RTVSPropertyOp15
 70
     0
102
RTVSPropertyOp16
 70
     0
102
RTVSPropertyOp17
 70
     0
102
RTVSPropertyOp18
 70
     0
102
RTVSPropertyOp19
 70
     0
102
RTVSPropertyOp20
 70
     0
102
RTVSPropertyOp21
 70
     0
102
RTVSPropertyOp22
 70
     0
102
RTVSPropertyOp23
 70
     0
102
RTVSPropertyOp24
 70
     0
102
RTVSPropertyOp25
 70
     0
102
RTVSPropertyOp26
 70
     0
102
RTVSPropertyOp27
 70
     0
102
RTVSPropertyOp28
 70
     1
102
RTVSPropertyOp29
 70
     1
102
RTVSPropertyOp30
 70
     1
102
RTVSPropertyOp31
 70
     1
102
RTVSPropertyOp32
 70
     1
102
RTVSPropertyOp33
 70
     1
102
RTVSPropertyOp34
 70
     1
102
RTVSPropertyOp35
 70
     1
102
RTVSPropertyOp36
 70
     1
102
RTVSPropertyOp37
 70
     1
102
RTVSPropertyOp38
 70
     1
102
RTVSPropertyOp39
 70
     1
102
RTVSPropertyOp40
 70
     1
102
RTVSPropertyOp41
 70
     1
102
RTVSPropertyOp42
 70
     1
102
RTVSPropertyOp43
 70
     1
102
RTVSPropertyOp44
 70
     1
102
RTVSPropertyOp45
 70
     1
102
RTVSPropertyOp46
 70
     1
102
RTVSPropertyOp47
 70
     1
102
RTVSPropertyOp48
 70
     1
102
RTVSPropertyOp49
 70
     1
102
RTVSPropertyOp50
 70
     1
102
RTVSPropertyOp51
 70
     0
102
RTVSPropertyOp52
 70
     0
102
RTVSPropertyOp53
 70
     1
102
RTVSPropertyOp54
 70
     1
102
RTVSPropertyOp55
 70
     1
102
RTVSPropertyOp56
 70
     1
102
RTVSPropertyOp57
 70
     1
102
RTVSPost2010Prop28
280
     0
102
RTVSPost2010PropOp28
 70
     1
102
RTVSPost2010Prop29
280
     1
102
RTVSPost2010PropOp29
 70
     1
102
RTVSPost2010Prop30
280
     1
102
RTVSPost2010PropOp30
 70
     1
102
RTVSPost2010Prop31
280
     0
102
RTVSPost2010PropOp31
 70
     1
102
RTVSPost2010Prop32
280
     0
102
RTVSPost2010PropOp32
 70
     1
102
RTVSPost2010Prop33
280
     0
102
RTVSPost2010PropOp33
 70
     1
102
RTVSPost2010Prop34
280
     0
102
RTVSPost2010PropOp34
 70
     1
102
RTVSPost2010Prop35
280
     0
102
RTVSPost2010PropOp35
 70
     1
102
RTVSPost2010Prop36
280
     0
102
RTVSPost2010PropOp36
 70
     1
102
RTVSPost2010Prop37
 90
       50
102
RTVSPost2010PropOp37
 70
     1
102
RTVSPost2010Prop38
140
0.0
102
RTVSPost2010PropOp38
 70
     1
102
RTVSPost2010Prop39
140
1.0
102
RTVSPost2010PropOp39
 70
     1
102
RTVSPost2010Prop40
 90
        0
102
RTVSPost2010PropOp40
 70
     1
102
RTVSPost2010Prop41ColorIndex
 90
       18
102
RTVSPost2010Prop41ColorRGB
 90
        0
102
RTVSPost2010PropOp41
 70
     1
102
RTVSPost2010Prop42
 90
       50
102
RTVSPost2010PropOp42
 70
     1
102
RTVSPost2010Prop43
 90
        3
102
RTVSPost2010PropOp43
 70
     1
102
RTVSPost2010Prop44ColorIndex
 90
        5
102
RTVSPost2010Prop44ColorRGB
 90
      255
102
RTVSPost2010PropOp44
 70
     1
102
RTVSPost2010Prop45
280
     0
102
RTVSPost2010PropOp45
 70
     1
102
RTVSPost2010Prop46
 90
       50
102
RTVSPost2010PropOp46
 70
     1
102
RTVSPost2010Prop47
 90
       50
102
RTVSPost2010PropOp47
 70
     1
102
RTVSPost2010Prop48
 90
       50
102
RTVSPost2010PropOp48
 70
     1
102
RTVSPost2010Prop49
280
     0
102
RTVSPost2010PropOp49
 70
     1
102
RTVSPost2010Prop50
 90
       50
102
RTVSPost2010PropOp50
 70
     1
102
RTVSPost2010Prop51ColorIndex
 90
      256
102
RTVSPost2010Prop51ColorRGB
 90
-16777216
102
RTVSPost2010PropOp51
 70
     0
102
RTVSPost2010Prop52
140
1.0
102
RTVSPost2010PropOp52
 70
     0
102
RTVSPost2010Prop53
 90
        2
102
RTVSPost2010PropOp53
 70
     1
102
RTVSPost2010Prop54
  1
strokes_ogs.tif
102
RTVSPost2010PropOp54
 70
     1
102
RTVSPost2010Prop55
280
     0
102
RTVSPost2010PropOp55
 70
     1
102
RTVSPost2010Prop56
140
1.0
102
RTVSPost2010PropOp56
 70
     1
102
RTVSPost2010Prop57
140
1.0
102
RTVSPost2010PropOp57
 70
     1
  0
XRECORD
  5
6F1
102
{ACAD_REACTORS
330
6F0
102
}
330
6F0
100
AcDbXrecord
280
     1
102
RTVSPropertyOp0
 70
     1
102
RTVSPropertyOp1
 70
     1
102
RTVSPropertyOp2
 70
     1
102
RTVSPropertyOp3
 70
     1
102
RTVSPropertyOp4
 70
     1
102
RTVSPropertyOp5
 70
     1
102
RTVSPropertyOp6
 70
     1
102
RTVSPropertyOp7
 70
     1
102
RTVSPropertyOp8
 70
     1
102
RTVSPropertyOp9
 70
     1
102
RTVSPropertyOp10
 70
     1
102
RTVSPropertyOp11
 70
     1
102
RTVSPropertyOp12
 70
     1
102
RTVSPropertyOp13
 70
     1
102
RTVSPropertyOp14
 70
     1
102
RTVSPropertyOp15
 70
     1
102
RTVSPropertyOp16
 70
     1
102
RTVSPropertyOp17
 70
     1
102
RTVSPropertyOp18
 70
     1
102
RTVSPropertyOp19
 70
     1
102
RTVSPropertyOp20
 70
     1
102
RTVSPropertyOp21
 70
     1
102
RTVSPropertyOp22
 70
     1
102
RTVSPropertyOp23
 70
     1
102
RTVSPropertyOp24
 70
     1
102
RTVSPropertyOp25
 70
     1
102
RTVSPropertyOp26
 70
     1
102
RTVSPropertyOp27
 70
     1
102
RTVSPropertyOp28
 70
     1
102
RTVSPropertyOp29
 70
     1
102
RTVSPropertyOp30
 70
     1
102
RTVSPropertyOp31
 70
     1
102
RTVSPropertyOp32
 70
     1
102
RTVSPropertyOp33
 70
     1
102
RTVSPropertyOp34
 70
     1
102
RTVSPropertyOp35
 70
     1
102
RTVSPropertyOp36
 70
     1
102
RTVSPropertyOp37
 70
     1
102
RTVSPropertyOp38
 70
     1
102
RTVSPropertyOp39
 70
     1
102
RTVSPropertyOp40
 70
     1
102
RTVSPropertyOp41
 70
     1
102
RTVSPropertyOp42
 70
     1
102
RTVSPropertyOp43
 70
     1
102
RTVSPropertyOp44
 70
     1
102
RTVSPropertyOp45
 70
     1
102
RTVSPropertyOp46
 70
     1
102
RTVSPropertyOp47
 70
     1
102
RTVSPropertyOp48
 70
     1
102
RTVSPropertyOp49
 70
     1
102
RTVSPropertyOp50
 70
     1
102
RTVSPropertyOp51
 70
     0
102
RTVSPropertyOp52
 70
     0
102
RTVSPropertyOp53
 70
     1
102
RTVSPropertyOp54
 70
     1
102
RTVSPropertyOp55
 70
     1
102
RTVSPropertyOp56
 70
     1
102
RTVSPropertyOp57
 70
     1
102
RTVSPost2010Prop28
280
     0
102
RTVSPost2010PropOp28
 70
     1
102
RTVSPost2010Prop29
280
     1
102
RTVSPost2010PropOp29
 70
     1
102
RTVSPost2010Prop30
280
     1
102
RTVSPost2010PropOp30
 70
     1
102
RTVSPost2010Prop31
280
     0
102
RTVSPost2010PropOp31
 70
     1
102
RTVSPost2010Prop32
280
     0
102
RTVSPost2010PropOp32
 70
     1
102
RTVSPost2010Prop33
280
     0
102
RTVSPost2010PropOp33
 70
     1
102
RTVSPost2010Prop34
280
     0
102
RTVSPost2010PropOp34
 70
     1
102
RTVSPost2010Prop35
280
     0
102
RTVSPost2010PropOp35
 70
     1
102
RTVSPost2010Prop36
280
     0
102
RTVSPost2010PropOp36
 70
     1
102
RTVSPost2010Prop37
 90
       50
102
RTVSPost2010PropOp37
 70
     1
102
RTVSPost2010Prop38
140
0.0
102
RTVSPost2010PropOp38
 70
     1
102
RTVSPost2010Prop39
140
1.0
102
RTVSPost2010PropOp39
 70
     1
102
RTVSPost2010Prop40
 90
        0
102
RTVSPost2010PropOp40
 70
     1
102
RTVSPost2010Prop41ColorIndex
 90
       18
102
RTVSPost2010Prop41ColorRGB
 90
        0
102
RTVSPost2010PropOp41
 70
     1
102
RTVSPost2010Prop42
 90
       50
102
RTVSPost2010PropOp42
 70
     1
102
RTVSPost2010Prop43
 90
        3
102
RTVSPost2010PropOp43
 70
     1
102
RTVSPost2010Prop44ColorIndex
 90
        5
102
RTVSPost2010Prop44ColorRGB
 90
      255
102
RTVSPost2010PropOp44
 70
     1
102
RTVSPost2010Prop45
280
     0
102
RTVSPost2010PropOp45
 70
     1
102
RTVSPost2010Prop46
 90
       50
102
RTVSPost2010PropOp46
 70
     1
102
RTVSPost2010Prop47
 90
       50
102
RTVSPost2010PropOp47
 70
     1
102
RTVSPost2010Prop48
 90
       50
102
RTVSPost2010PropOp48
 70
     1
102
RTVSPost2010Prop49
280
     0
102
RTVSPost2010PropOp49
 70
     1
102
RTVSPost2010Prop50
 90
       50
102
RTVSPost2010PropOp50
 70
     1
102
RTVSPost2010Prop51ColorIndex
 90
      256
102
RTVSPost2010Prop51ColorRGB
 90
-16777216
102
RTVSPost2010PropOp51
 70
     0
102
RTVSPost2010Prop52
140
1.0
102
RTVSPost2010PropOp52
 70
     0
102
RTVSPost2010Prop53
 90
        2
102
RTVSPost2010PropOp53
 70
     1
102
RTVSPost2010Prop54
  1
strokes_ogs.tif
102
RTVSPost2010PropOp54
 70
     1
102
RTVSPost2010Prop55
280
     0
102
RTVSPost2010PropOp55
 70
     1
102
RTVSPost2010Prop56
140
1.0
102
RTVSPost2010PropOp56
 70
     1
102
RTVSPost2010Prop57
140
1.0
102
RTVSPost2010PropOp57
 70
     1
  0
XRECORD
  5
6D5
102
{ACAD_REACTORS
330
6D4
102
}
330
6D4
100
AcDbXrecord
280
     1
102
RTVSPropertyOp0
 70
     1
102
RTVSPropertyOp1
 70
     1
102
RTVSPropertyOp2
 70
     1
102
RTVSPropertyOp3
 70
     1
102
RTVSPropertyOp4
 70
     1
102
RTVSPropertyOp5
 70
     1
102
RTVSPropertyOp6
 70
     1
102
RTVSPropertyOp7
 70
     1
102
RTVSPropertyOp8
 70
     1
102
RTVSPropertyOp9
 70
     1
102
RTVSPropertyOp10
 70
     1
102
RTVSPropertyOp11
 70
     1
102
RTVSPropertyOp12
 70
     1
102
RTVSPropertyOp13
 70
     1
102
RTVSPropertyOp14
 70
     1
102
RTVSPropertyOp15
 70
     1
102
RTVSPropertyOp16
 70
     1
102
RTVSPropertyOp17
 70
     1
102
RTVSPropertyOp18
 70
     1
102
RTVSPropertyOp19
 70
     1
102
RTVSPropertyOp20
 70
     1
102
RTVSPropertyOp21
 70
     1
102
RTVSPropertyOp22
 70
     1
102
RTVSPropertyOp23
 70
     1
102
RTVSPropertyOp24
 70
     1
102
RTVSPropertyOp25
 70
     1
102
RTVSPropertyOp26
 70
     1
102
RTVSPropertyOp27
 70
     1
102
RTVSPropertyOp28
 70
     1
102
RTVSPropertyOp29
 70
     1
102
RTVSPropertyOp30
 70
     1
102
RTVSPropertyOp31
 70
     1
102
RTVSPropertyOp32
 70
     1
102
RTVSPropertyOp33
 70
     1
102
RTVSPropertyOp34
 70
     1
102
RTVSPropertyOp35
 70
     1
102
RTVSPropertyOp36
 70
     1
102
RTVSPropertyOp37
 70
     1
102
RTVSPropertyOp38
 70
     1
102
RTVSPropertyOp39
 70
     1
102
RTVSPropertyOp40
 70
     1
102
RTVSPropertyOp41
 70
     1
102
RTVSPropertyOp42
 70
     1
102
RTVSPropertyOp43
 70
     1
102
RTVSPropertyOp44
 70
     1
102
RTVSPropertyOp45
 70
     1
102
RTVSPropertyOp46
 70
     1
102
RTVSPropertyOp47
 70
     1
102
RTVSPropertyOp48
 70
     1
102
RTVSPropertyOp49
 70
     1
102
RTVSPropertyOp50
 70
     1
102
RTVSPropertyOp51
 70
     0
102
RTVSPropertyOp52
 70
     0
102
RTVSPropertyOp53
 70
     1
102
RTVSPropertyOp54
 70
     1
102
RTVSPropertyOp55
 70
     1
102
RTVSPropertyOp56
 70
     1
102
RTVSPropertyOp57
 70
     1
102
RTVSPost2010Prop28
280
     0
102
RTVSPost2010PropOp28
 70
     1
102
RTVSPost2010Prop29
280
     1
102
RTVSPost2010PropOp29
 70
     1
102
RTVSPost2010Prop30
280
     1
102
RTVSPost2010PropOp30
 70
     1
102
RTVSPost2010Prop31
280
     0
102
RTVSPost2010PropOp31
 70
     1
102
RTVSPost2010Prop32
280
     0
102
RTVSPost2010PropOp32
 70
     1
102
RTVSPost2010Prop33
280
     0
102
RTVSPost2010PropOp33
 70
     1
102
RTVSPost2010Prop34
280
     0
102
RTVSPost2010PropOp34
 70
     1
102
RTVSPost2010Prop35
280
     0
102
RTVSPost2010PropOp35
 70
     1
102
RTVSPost2010Prop36
280
     0
102
RTVSPost2010PropOp36
 70
     1
102
RTVSPost2010Prop37
 90
       50
102
RTVSPost2010PropOp37
 70
     1
102
RTVSPost2010Prop38
140
0.0
102
RTVSPost2010PropOp38
 70
     1
102
RTVSPost2010Prop39
140
1.0
102
RTVSPost2010PropOp39
 70
     1
102
RTVSPost2010Prop40
 90
        0
102
RTVSPost2010PropOp40
 70
     1
102
RTVSPost2010Prop41ColorIndex
 90
       18
102
RTVSPost2010Prop41ColorRGB
 90
        0
102
RTVSPost2010PropOp41
 70
     1
102
RTVSPost2010Prop42
 90
       50
102
RTVSPost2010PropOp42
 70
     1
102
RTVSPost2010Prop43
 90
        3
102
RTVSPost2010PropOp43
 70
     1
102
RTVSPost2010Prop44ColorIndex
 90
        5
102
RTVSPost2010Prop44ColorRGB
 90
      255
102
RTVSPost2010PropOp44
 70
     1
102
RTVSPost2010Prop45
280
     0
102
RTVSPost2010PropOp45
 70
     1
102
RTVSPost2010Prop46
 90
       50
102
RTVSPost2010PropOp46
 70
     1
102
RTVSPost2010Prop47
 90
       50
102
RTVSPost2010PropOp47
 70
     1
102
RTVSPost2010Prop48
 90
       50
102
RTVSPost2010PropOp48
 70
     1
102
RTVSPost2010Prop49
280
     0
102
RTVSPost2010PropOp49
 70
     1
102
RTVSPost2010Prop50
 90
       50
102
RTVSPost2010PropOp50
 70
     1
102
RTVSPost2010Prop51ColorIndex
 90
      256
102
RTVSPost2010Prop51ColorRGB
 90
-16777216
102
RTVSPost2010PropOp51
 70
     0
102
RTVSPost2010Prop52
140
1.0
102
RTVSPost2010PropOp52
 70
     0
102
RTVSPost2010Prop53
 90
        2
102
RTVSPost2010PropOp53
 70
     1
102
RTVSPost2010Prop54
  1
strokes_ogs.tif
102
RTVSPost2010PropOp54
 70
     1
102
RTVSPost2010Prop55
280
     0
102
RTVSPost2010PropOp55
 70
     1
102
RTVSPost2010Prop56
140
1.0
102
RTVSPost2010PropOp56
 70
     1
102
RTVSPost2010Prop57
140
1.0
102
RTVSPost2010PropOp57
 70
     1
  0
XRECORD
  5
6D7
102
{ACAD_REACTORS
330
6D6
102
}
330
6D6
100
AcDbXrecord
280
     1
102
RTVSPropertyOp0
 70
     1
102
RTVSPropertyOp1
 70
     1
102
RTVSPropertyOp2
 70
     1
102
RTVSPropertyOp3
 70
     1
102
RTVSPropertyOp4
 70
     1
102
RTVSPropertyOp5
 70
     1
102
RTVSPropertyOp6
 70
     1
102
RTVSPropertyOp7
 70
     1
102
RTVSPropertyOp8
 70
     1
102
RTVSPropertyOp9
 70
     1
102
RTVSPropertyOp10
 70
     1
102
RTVSPropertyOp11
 70
     1
102
RTVSPropertyOp12
 70
     1
102
RTVSPropertyOp13
 70
     1
102
RTVSPropertyOp14
 70
     1
102
RTVSPropertyOp15
 70
     1
102
RTVSPropertyOp16
 70
     1
102
RTVSPropertyOp17
 70
     1
102
RTVSPropertyOp18
 70
     1
102
RTVSPropertyOp19
 70
     1
102
RTVSPropertyOp20
 70
     1
102
RTVSPropertyOp21
 70
     1
102
RTVSPropertyOp22
 70
     1
102
RTVSPropertyOp23
 70
     1
102
RTVSPropertyOp24
 70
     1
102
RTVSPropertyOp25
 70
     1
102
RTVSPropertyOp26
 70
     1
102
RTVSPropertyOp27
 70
     1
102
RTVSPropertyOp28
 70
     1
102
RTVSPropertyOp29
 70
     1
102
RTVSPropertyOp30
 70
     1
102
RTVSPropertyOp31
 70
     1
102
RTVSPropertyOp32
 70
     1
102
RTVSPropertyOp33
 70
     1
102
RTVSPropertyOp34
 70
     1
102
RTVSPropertyOp35
 70
     1
102
RTVSPropertyOp36
 70
     1
102
RTVSPropertyOp37
 70
     1
102
RTVSPropertyOp38
 70
     1
102
RTVSPropertyOp39
 70
     1
102
RTVSPropertyOp40
 70
     1
102
RTVSPropertyOp41
 70
     1
102
RTVSPropertyOp42
 70
     1
102
RTVSPropertyOp43
 70
     1
102
RTVSPropertyOp44
 70
     1
102
RTVSPropertyOp45
 70
     1
102
RTVSPropertyOp46
 70
     1
102
RTVSPropertyOp47
 70
     1
102
RTVSPropertyOp48
 70
     1
102
RTVSPropertyOp49
 70
     1
102
RTVSPropertyOp50
 70
     1
102
RTVSPropertyOp51
 70
     0
102
RTVSPropertyOp52
 70
     0
102
RTVSPropertyOp53
 70
     1
102
RTVSPropertyOp54
 70
     1
102
RTVSPropertyOp55
 70
     1
102
RTVSPropertyOp56
 70
     1
102
RTVSPropertyOp57
 70
     1
102
RTVSPost2010Prop28
280
     0
102
RTVSPost2010PropOp28
 70
     1
102
RTVSPost2010Prop29
280
     1
102
RTVSPost2010PropOp29
 70
     1
102
RTVSPost2010Prop30
280
     1
102
RTVSPost2010PropOp30
 70
     1
102
RTVSPost2010Prop31
280
     0
102
RTVSPost2010PropOp31
 70
     1
102
RTVSPost2010Prop32
280
     0
102
RTVSPost2010PropOp32
 70
     1
102
RTVSPost2010Prop33
280
     0
102
RTVSPost2010PropOp33
 70
     1
102
RTVSPost2010Prop34
280
     0
102
RTVSPost2010PropOp34
 70
     1
102
RTVSPost2010Prop35
280
     0
102
RTVSPost2010PropOp35
 70
     1
102
RTVSPost2010Prop36
280
     0
102
RTVSPost2010PropOp36
 70
     1
102
RTVSPost2010Prop37
 90
       50
102
RTVSPost2010PropOp37
 70
     1
102
RTVSPost2010Prop38
140
0.0
102
RTVSPost2010PropOp38
 70
     1
102
RTVSPost2010Prop39
140
1.0
102
RTVSPost2010PropOp39
 70
     1
102
RTVSPost2010Prop40
 90
        0
102
RTVSPost2010PropOp40
 70
     1
102
RTVSPost2010Prop41ColorIndex
 90
       18
102
RTVSPost2010Prop41ColorRGB
 90
        0
102
RTVSPost2010PropOp41
 70
     1
102
RTVSPost2010Prop42
 90
       50
102
RTVSPost2010PropOp42
 70
     1
102
RTVSPost2010Prop43
 90
        3
102
RTVSPost2010PropOp43
 70
     1
102
RTVSPost2010Prop44ColorIndex
 90
        5
102
RTVSPost2010Prop44ColorRGB
 90
      255
102
RTVSPost2010PropOp44
 70
     1
102
RTVSPost2010Prop45
280
     0
102
RTVSPost2010PropOp45
 70
     1
102
RTVSPost2010Prop46
 90
       50
102
RTVSPost2010PropOp46
 70
     1
102
RTVSPost2010Prop47
 90
       50
102
RTVSPost2010PropOp47
 70
     1
102
RTVSPost2010Prop48
 90
       50
102
RTVSPost2010PropOp48
 70
     1
102
RTVSPost2010Prop49
280
     0
102
RTVSPost2010PropOp49
 70
     1
102
RTVSPost2010Prop50
 90
       50
102
RTVSPost2010PropOp50
 70
     1
102
RTVSPost2010Prop51ColorIndex
 90
      256
102
RTVSPost2010Prop51ColorRGB
 90
-16777216
102
RTVSPost2010PropOp51
 70
     0
102
RTVSPost2010Prop52
140
1.0
102
RTVSPost2010PropOp52
 70
     0
102
RTVSPost2010Prop53
 90
        2
102
RTVSPost2010PropOp53
 70
     1
102
RTVSPost2010Prop54
  1
strokes_ogs.tif
102
RTVSPost2010PropOp54
 70
     1
102
RTVSPost2010Prop55
280
     0
102
RTVSPost2010PropOp55
 70
     1
102
RTVSPost2010Prop56
140
1.0
102
RTVSPost2010PropOp56
 70
     1
102
RTVSPost2010Prop57
140
1.0
102
RTVSPost2010PropOp57
 70
     1
  0
XRECORD
  5
6D9
102
{ACAD_REACTORS
330
6D8
102
}
330
6D8
100
AcDbXrecord
280
     1
102
RTVSPropertyOp0
 70
     1
102
RTVSPropertyOp1
 70
     1
102
RTVSPropertyOp2
 70
     1
102
RTVSPropertyOp3
 70
     1
102
RTVSPropertyOp4
 70
     1
102
RTVSPropertyOp5
 70
     1
102
RTVSPropertyOp6
 70
     1
102
RTVSPropertyOp7
 70
     1
102
RTVSPropertyOp8
 70
     1
102
RTVSPropertyOp9
 70
     1
102
RTVSPropertyOp10
 70
     1
102
RTVSPropertyOp11
 70
     1
102
RTVSPropertyOp12
 70
     1
102
RTVSPropertyOp13
 70
     1
102
RTVSPropertyOp14
 70
     1
102
RTVSPropertyOp15
 70
     1
102
RTVSPropertyOp16
 70
     1
102
RTVSPropertyOp17
 70
     1
102
RTVSPropertyOp18
 70
     1
102
RTVSPropertyOp19
 70
     1
102
RTVSPropertyOp20
 70
     1
102
RTVSPropertyOp21
 70
     1
102
RTVSPropertyOp22
 70
     1
102
RTVSPropertyOp23
 70
     1
102
RTVSPropertyOp24
 70
     1
102
RTVSPropertyOp25
 70
     1
102
RTVSPropertyOp26
 70
     1
102
RTVSPropertyOp27
 70
     1
102
RTVSPropertyOp28
 70
     1
102
RTVSPropertyOp29
 70
     1
102
RTVSPropertyOp30
 70
     1
102
RTVSPropertyOp31
 70
     1
102
RTVSPropertyOp32
 70
     1
102
RTVSPropertyOp33
 70
     1
102
RTVSPropertyOp34
 70
     1
102
RTVSPropertyOp35
 70
     1
102
RTVSPropertyOp36
 70
     1
102
RTVSPropertyOp37
 70
     1
102
RTVSPropertyOp38
 70
     1
102
RTVSPropertyOp39
 70
     1
102
RTVSPropertyOp40
 70
     1
102
RTVSPropertyOp41
 70
     1
102
RTVSPropertyOp42
 70
     1
102
RTVSPropertyOp43
 70
     1
102
RTVSPropertyOp44
 70
     1
102
RTVSPropertyOp45
 70
     1
102
RTVSPropertyOp46
 70
     1
102
RTVSPropertyOp47
 70
     1
102
RTVSPropertyOp48
 70
     1
102
RTVSPropertyOp49
 70
     1
102
RTVSPropertyOp50
 70
     1
102
RTVSPropertyOp51
 70
     0
102
RTVSPropertyOp52
 70
     0
102
RTVSPropertyOp53
 70
     1
102
RTVSPropertyOp54
 70
     1
102
RTVSPropertyOp55
 70
     1
102
RTVSPropertyOp56
 70
     1
102
RTVSPropertyOp57
 70
     1
102
RTVSPost2010Prop28
280
     0
102
RTVSPost2010PropOp28
 70
     1
102
RTVSPost2010Prop29
280
     1
102
RTVSPost2010PropOp29
 70
     1
102
RTVSPost2010Prop30
280
     1
102
RTVSPost2010PropOp30
 70
     1
102
RTVSPost2010Prop31
280
     0
102
RTVSPost2010PropOp31
 70
     1
102
RTVSPost2010Prop32
280
     0
102
RTVSPost2010PropOp32
 70
     1
102
RTVSPost2010Prop33
280
     0
102
RTVSPost2010PropOp33
 70
     1
102
RTVSPost2010Prop34
280
     0
102
RTVSPost2010PropOp34
 70
     1
102
RTVSPost2010Prop35
280
     0
102
RTVSPost2010PropOp35
 70
     1
102
RTVSPost2010Prop36
280
     0
102
RTVSPost2010PropOp36
 70
     1
102
RTVSPost2010Prop37
 90
       50
102
RTVSPost2010PropOp37
 70
     1
102
RTVSPost2010Prop38
140
0.0
102
RTVSPost2010PropOp38
 70
     1
102
RTVSPost2010Prop39
140
1.0
102
RTVSPost2010PropOp39
 70
     1
102
RTVSPost2010Prop40
 90
        0
102
RTVSPost2010PropOp40
 70
     1
102
RTVSPost2010Prop41ColorIndex
 90
       18
102
RTVSPost2010Prop41ColorRGB
 90
        0
102
RTVSPost2010PropOp41
 70
     1
102
RTVSPost2010Prop42
 90
       50
102
RTVSPost2010PropOp42
 70
     1
102
RTVSPost2010Prop43
 90
        3
102
RTVSPost2010PropOp43
 70
     1
102
RTVSPost2010Prop44ColorIndex
 90
        5
102
RTVSPost2010Prop44ColorRGB
 90
      255
102
RTVSPost2010PropOp44
 70
     1
102
RTVSPost2010Prop45
280
     0
102
RTVSPost2010PropOp45
 70
     1
102
RTVSPost2010Prop46
 90
       50
102
RTVSPost2010PropOp46
 70
     1
102
RTVSPost2010Prop47
 90
       50
102
RTVSPost2010PropOp47
 70
     1
102
RTVSPost2010Prop48
 90
       50
102
RTVSPost2010PropOp48
 70
     1
102
RTVSPost2010Prop49
280
     0
102
RTVSPost2010PropOp49
 70
     1
102
RTVSPost2010Prop50
 90
       50
102
RTVSPost2010PropOp50
 70
     1
102
RTVSPost2010Prop51ColorIndex
 90
      256
102
RTVSPost2010Prop51ColorRGB
 90
-16777216
102
RTVSPost2010PropOp51
 70
     0
102
RTVSPost2010Prop52
140
1.0
102
RTVSPost2010PropOp52
 70
     0
102
RTVSPost2010Prop53
 90
        2
102
RTVSPost2010PropOp53
 70
     1
102
RTVSPost2010Prop54
  1
strokes_ogs.tif
102
RTVSPost2010PropOp54
 70
     1
102
RTVSPost2010Prop55
280
     0
102
RTVSPost2010PropOp55
 70
     1
102
RTVSPost2010Prop56
140
1.0
102
RTVSPost2010PropOp56
 70
     1
102
RTVSPost2010Prop57
140
1.0
102
RTVSPost2010PropOp57
 70
     1
  0
XRECORD
  5
6DB
102
{ACAD_REACTORS
330
6DA
102
}
330
6DA
100
AcDbXrecord
280
     1
102
RTVSPropertyOp0
 70
     1
102
RTVSPropertyOp1
 70
     1
102
RTVSPropertyOp2
 70
     1
102
RTVSPropertyOp3
 70
     1
102
RTVSPropertyOp4
 70
     1
102
RTVSPropertyOp5
 70
     1
102
RTVSPropertyOp6
 70
     1
102
RTVSPropertyOp7
 70
     1
102
RTVSPropertyOp8
 70
     1
102
RTVSPropertyOp9
 70
     1
102
RTVSPropertyOp10
 70
     1
102
RTVSPropertyOp11
 70
     1
102
RTVSPropertyOp12
 70
     1
102
RTVSPropertyOp13
 70
     1
102
RTVSPropertyOp14
 70
     1
102
RTVSPropertyOp15
 70
     1
102
RTVSPropertyOp16
 70
     1
102
RTVSPropertyOp17
 70
     1
102
RTVSPropertyOp18
 70
     1
102
RTVSPropertyOp19
 70
     1
102
RTVSPropertyOp20
 70
     1
102
RTVSPropertyOp21
 70
     1
102
RTVSPropertyOp22
 70
     1
102
RTVSPropertyOp23
 70
     1
102
RTVSPropertyOp24
 70
     1
102
RTVSPropertyOp25
 70
     1
102
RTVSPropertyOp26
 70
     1
102
RTVSPropertyOp27
 70
     1
102
RTVSPropertyOp28
 70
     1
102
RTVSPropertyOp29
 70
     1
102
RTVSPropertyOp30
 70
     1
102
RTVSPropertyOp31
 70
     1
102
RTVSPropertyOp32
 70
     1
102
RTVSPropertyOp33
 70
     1
102
RTVSPropertyOp34
 70
     1
102
RTVSPropertyOp35
 70
     1
102
RTVSPropertyOp36
 70
     1
102
RTVSPropertyOp37
 70
     1
102
RTVSPropertyOp38
 70
     1
102
RTVSPropertyOp39
 70
     1
102
RTVSPropertyOp40
 70
     1
102
RTVSPropertyOp41
 70
     1
102
RTVSPropertyOp42
 70
     1
102
RTVSPropertyOp43
 70
     1
102
RTVSPropertyOp44
 70
     1
102
RTVSPropertyOp45
 70
     1
102
RTVSPropertyOp46
 70
     1
102
RTVSPropertyOp47
 70
     1
102
RTVSPropertyOp48
 70
     1
102
RTVSPropertyOp49
 70
     1
102
RTVSPropertyOp50
 70
     1
102
RTVSPropertyOp51
 70
     0
102
RTVSPropertyOp52
 70
     0
102
RTVSPropertyOp53
 70
     1
102
RTVSPropertyOp54
 70
     1
102
RTVSPropertyOp55
 70
     1
102
RTVSPropertyOp56
 70
     1
102
RTVSPropertyOp57
 70
     1
102
RTVSPost2010Prop28
280
     0
102
RTVSPost2010PropOp28
 70
     1
102
RTVSPost2010Prop29
280
     1
102
RTVSPost2010PropOp29
 70
     1
102
RTVSPost2010Prop30
280
     1
102
RTVSPost2010PropOp30
 70
     1
102
RTVSPost2010Prop31
280
     0
102
RTVSPost2010PropOp31
 70
     1
102
RTVSPost2010Prop32
280
     0
102
RTVSPost2010PropOp32
 70
     1
102
RTVSPost2010Prop33
280
     0
102
RTVSPost2010PropOp33
 70
     1
102
RTVSPost2010Prop34
280
     0
102
RTVSPost2010PropOp34
 70
     1
102
RTVSPost2010Prop35
280
     0
102
RTVSPost2010PropOp35
 70
     1
102
RTVSPost2010Prop36
280
     0
102
RTVSPost2010PropOp36
 70
     1
102
RTVSPost2010Prop37
 90
       50
102
RTVSPost2010PropOp37
 70
     1
102
RTVSPost2010Prop38
140
0.0
102
RTVSPost2010PropOp38
 70
     1
102
RTVSPost2010Prop39
140
1.0
102
RTVSPost2010PropOp39
 70
     1
102
RTVSPost2010Prop40
 90
        0
102
RTVSPost2010PropOp40
 70
     1
102
RTVSPost2010Prop41ColorIndex
 90
       18
102
RTVSPost2010Prop41ColorRGB
 90
        0
102
RTVSPost2010PropOp41
 70
     1
102
RTVSPost2010Prop42
 90
       50
102
RTVSPost2010PropOp42
 70
     1
102
RTVSPost2010Prop43
 90
        3
102
RTVSPost2010PropOp43
 70
     1
102
RTVSPost2010Prop44ColorIndex
 90
        5
102
RTVSPost2010Prop44ColorRGB
 90
      255
102
RTVSPost2010PropOp44
 70
     1
102
RTVSPost2010Prop45
280
     0
102
RTVSPost2010PropOp45
 70
     1
102
RTVSPost2010Prop46
 90
       50
102
RTVSPost2010PropOp46
 70
     1
102
RTVSPost2010Prop47
 90
       50
102
RTVSPost2010PropOp47
 70
     1
102
RTVSPost2010Prop48
 90
       50
102
RTVSPost2010PropOp48
 70
     1
102
RTVSPost2010Prop49
280
     0
102
RTVSPost2010PropOp49
 70
     1
102
RTVSPost2010Prop50
 90
       50
102
RTVSPost2010PropOp50
 70
     1
102
RTVSPost2010Prop51ColorIndex
 90
      256
102
RTVSPost2010Prop51ColorRGB
 90
-16777216
102
RTVSPost2010PropOp51
 70
     0
102
RTVSPost2010Prop52
140
1.0
102
RTVSPost2010PropOp52
 70
     0
102
RTVSPost2010Prop53
 90
        2
102
RTVSPost2010PropOp53
 70
     1
102
RTVSPost2010Prop54
  1
strokes_ogs.tif
102
RTVSPost2010PropOp54
 70
     1
102
RTVSPost2010Prop55
280
     0
102
RTVSPost2010PropOp55
 70
     1
102
RTVSPost2010Prop56
140
1.0
102
RTVSPost2010PropOp56
 70
     1
102
RTVSPost2010Prop57
140
1.0
102
RTVSPost2010PropOp57
 70
     1
  0
XRECORD
  5
6E1
102
{ACAD_REACTORS
330
6E0
102
}
330
6E0
100
AcDbXrecord
280
     1
102
RTVSPropertyOp0
 70
     1
102
RTVSPropertyOp1
 70
     1
102
RTVSPropertyOp2
 70
     1
102
RTVSPropertyOp3
 70
     1
102
RTVSPropertyOp4
 70
     1
102
RTVSPropertyOp5
 70
     1
102
RTVSPropertyOp6
 70
     1
102
RTVSPropertyOp7
 70
     1
102
RTVSPropertyOp8
 70
     1
102
RTVSPropertyOp9
 70
     1
102
RTVSPropertyOp10
 70
     1
102
RTVSPropertyOp11
 70
     1
102
RTVSPropertyOp12
 70
     1
102
RTVSPropertyOp13
 70
     1
102
RTVSPropertyOp14
 70
     1
102
RTVSPropertyOp15
 70
     1
102
RTVSPropertyOp16
 70
     1
102
RTVSPropertyOp17
 70
     1
102
RTVSPropertyOp18
 70
     1
102
RTVSPropertyOp19
 70
     1
102
RTVSPropertyOp20
 70
     1
102
RTVSPropertyOp21
 70
     1
102
RTVSPropertyOp22
 70
     1
102
RTVSPropertyOp23
 70
     1
102
RTVSPropertyOp24
 70
     1
102
RTVSPropertyOp25
 70
     1
102
RTVSPropertyOp26
 70
     1
102
RTVSPropertyOp27
 70
     1
102
RTVSPropertyOp28
 70
     1
102
RTVSPropertyOp29
 70
     1
102
RTVSPropertyOp30
 70
     1
102
RTVSPropertyOp31
 70
     1
102
RTVSPropertyOp32
 70
     1
102
RTVSPropertyOp33
 70
     1
102
RTVSPropertyOp34
 70
     1
102
RTVSPropertyOp35
 70
     1
102
RTVSPropertyOp36
 70
     1
102
RTVSPropertyOp37
 70
     1
102
RTVSPropertyOp38
 70
     1
102
RTVSPropertyOp39
 70
     1
102
RTVSPropertyOp40
 70
     1
102
RTVSPropertyOp41
 70
     1
102
RTVSPropertyOp42
 70
     1
102
RTVSPropertyOp43
 70
     1
102
RTVSPropertyOp44
 70
     1
102
RTVSPropertyOp45
 70
     1
102
RTVSPropertyOp46
 70
     1
102
RTVSPropertyOp47
 70
     1
102
RTVSPropertyOp48
 70
     1
102
RTVSPropertyOp49
 70
     1
102
RTVSPropertyOp50
 70
     1
102
RTVSPropertyOp51
 70
     0
102
RTVSPropertyOp52
 70
     0
102
RTVSPropertyOp53
 70
     1
102
RTVSPropertyOp54
 70
     1
102
RTVSPropertyOp55
 70
     1
102
RTVSPropertyOp56
 70
     1
102
RTVSPropertyOp57
 70
     1
102
RTVSPost2010Prop28
280
     0
102
RTVSPost2010PropOp28
 70
     1
102
RTVSPost2010Prop29
280
     1
102
RTVSPost2010PropOp29
 70
     1
102
RTVSPost2010Prop30
280
     1
102
RTVSPost2010PropOp30
 70
     1
102
RTVSPost2010Prop31
280
     0
102
RTVSPost2010PropOp31
 70
     1
102
RTVSPost2010Prop32
280
     0
102
RTVSPost2010PropOp32
 70
     1
102
RTVSPost2010Prop33
280
     0
102
RTVSPost2010PropOp33
 70
     1
102
RTVSPost2010Prop34
280
     0
102
RTVSPost2010PropOp34
 70
     1
102
RTVSPost2010Prop35
280
     0
102
RTVSPost2010PropOp35
 70
     1
102
RTVSPost2010Prop36
280
     0
102
RTVSPost2010PropOp36
 70
     1
102
RTVSPost2010Prop37
 90
       50
102
RTVSPost2010PropOp37
 70
     1
102
RTVSPost2010Prop38
140
0.0
102
RTVSPost2010PropOp38
 70
     1
102
RTVSPost2010Prop39
140
1.0
102
RTVSPost2010PropOp39
 70
     1
102
RTVSPost2010Prop40
 90
        0
102
RTVSPost2010PropOp40
 70
     1
102
RTVSPost2010Prop41ColorIndex
 90
       18
102
RTVSPost2010Prop41ColorRGB
 90
        0
102
RTVSPost2010PropOp41
 70
     1
102
RTVSPost2010Prop42
 90
       50
102
RTVSPost2010PropOp42
 70
     1
102
RTVSPost2010Prop43
 90
        3
102
RTVSPost2010PropOp43
 70
     1
102
RTVSPost2010Prop44ColorIndex
 90
        5
102
RTVSPost2010Prop44ColorRGB
 90
      255
102
RTVSPost2010PropOp44
 70
     1
102
RTVSPost2010Prop45
280
     0
102
RTVSPost2010PropOp45
 70
     1
102
RTVSPost2010Prop46
 90
       50
102
RTVSPost2010PropOp46
 70
     1
102
RTVSPost2010Prop47
 90
       50
102
RTVSPost2010PropOp47
 70
     1
102
RTVSPost2010Prop48
 90
       50
102
RTVSPost2010PropOp48
 70
     1
102
RTVSPost2010Prop49
280
     0
102
RTVSPost2010PropOp49
 70
     1
102
RTVSPost2010Prop50
 90
       50
102
RTVSPost2010PropOp50
 70
     1
102
RTVSPost2010Prop51ColorIndex
 90
      256
102
RTVSPost2010Prop51ColorRGB
 90
-16777216
102
RTVSPost2010PropOp51
 70
     0
102
RTVSPost2010Prop52
140
1.0
102
RTVSPost2010PropOp52
 70
     0
102
RTVSPost2010Prop53
 90
        2
102
RTVSPost2010PropOp53
 70
     1
102
RTVSPost2010Prop54
  1
strokes_ogs.tif
102
RTVSPost2010PropOp54
 70
     1
102
RTVSPost2010Prop55
280
     0
102
RTVSPost2010PropOp55
 70
     1
102
RTVSPost2010Prop56
140
1.0
102
RTVSPost2010PropOp56
 70
     1
102
RTVSPost2010Prop57
140
1.0
102
RTVSPost2010PropOp57
 70
     1
  0
XRECORD
  5
6F5
102
{ACAD_REACTORS
330
6F4
102
}
330
6F4
100
AcDbXrecord
280
     1
102
RTVSPropertyOp0
 70
     0
102
RTVSPropertyOp1
 70
     0
102
RTVSPropertyOp2
 70
     0
102
RTVSPropertyOp3
 70
     0
102
RTVSPropertyOp4
 70
     0
102
RTVSPropertyOp5
 70
     0
102
RTVSPropertyOp6
 70
     0
102
RTVSPropertyOp7
 70
     0
102
RTVSPropertyOp8
 70
     0
102
RTVSPropertyOp9
 70
     0
102
RTVSPropertyOp10
 70
     0
102
RTVSPropertyOp11
 70
     0
102
RTVSPropertyOp12
 70
     0
102
RTVSPropertyOp13
 70
     0
102
RTVSPropertyOp14
 70
     0
102
RTVSPropertyOp15
 70
     0
102
RTVSPropertyOp16
 70
     0
102
RTVSPropertyOp17
 70
     0
102
RTVSPropertyOp18
 70
     0
102
RTVSPropertyOp19
 70
     0
102
RTVSPropertyOp20
 70
     0
102
RTVSPropertyOp21
 70
     0
102
RTVSPropertyOp22
 70
     0
102
RTVSPropertyOp23
 70
     0
102
RTVSPropertyOp24
 70
     0
102
RTVSPropertyOp25
 70
     0
102
RTVSPropertyOp26
 70
     0
102
RTVSPropertyOp27
 70
     0
102
RTVSPropertyOp28
 70
     1
102
RTVSPropertyOp29
 70
     1
102
RTVSPropertyOp30
 70
     1
102
RTVSPropertyOp31
 70
     1
102
RTVSPropertyOp32
 70
     1
102
RTVSPropertyOp33
 70
     1
102
RTVSPropertyOp34
 70
     1
102
RTVSPropertyOp35
 70
     1
102
RTVSPropertyOp36
 70
     1
102
RTVSPropertyOp37
 70
     1
102
RTVSPropertyOp38
 70
     1
102
RTVSPropertyOp39
 70
     1
102
RTVSPropertyOp40
 70
     1
102
RTVSPropertyOp41
 70
     1
102
RTVSPropertyOp42
 70
     1
102
RTVSPropertyOp43
 70
     1
102
RTVSPropertyOp44
 70
     1
102
RTVSPropertyOp45
 70
     1
102
RTVSPropertyOp46
 70
     1
102
RTVSPropertyOp47
 70
     1
102
RTVSPropertyOp48
 70
     1
102
RTVSPropertyOp49
 70
     1
102
RTVSPropertyOp50
 70
     1
102
RTVSPropertyOp51
 70
     0
102
RTVSPropertyOp52
 70
     0
102
RTVSPropertyOp53
 70
     1
102
RTVSPropertyOp54
 70
     1
102
RTVSPropertyOp55
 70
     1
102
RTVSPropertyOp56
 70
     1
102
RTVSPropertyOp57
 70
     1
102
RTVSPost2010Prop28
280
     0
102
RTVSPost2010PropOp28
 70
     1
102
RTVSPost2010Prop29
280
     1
102
RTVSPost2010PropOp29
 70
     1
102
RTVSPost2010Prop30
280
     1
102
RTVSPost2010PropOp30
 70
     1
102
RTVSPost2010Prop31
280
     0
102
RTVSPost2010PropOp31
 70
     1
102
RTVSPost2010Prop32
280
     0
102
RTVSPost2010PropOp32
 70
     1
102
RTVSPost2010Prop33
280
     0
102
RTVSPost2010PropOp33
 70
     1
102
RTVSPost2010Prop34
280
     0
102
RTVSPost2010PropOp34
 70
     1
102
RTVSPost2010Prop35
280
     0
102
RTVSPost2010PropOp35
 70
     1
102
RTVSPost2010Prop36
280
     0
102
RTVSPost2010PropOp36
 70
     1
102
RTVSPost2010Prop37
 90
       50
102
RTVSPost2010PropOp37
 70
     1
102
RTVSPost2010Prop38
140
0.0
102
RTVSPost2010PropOp38
 70
     1
102
RTVSPost2010Prop39
140
1.0
102
RTVSPost2010PropOp39
 70
     1
102
RTVSPost2010Prop40
 90
        0
102
RTVSPost2010PropOp40
 70
     1
102
RTVSPost2010Prop41ColorIndex
 90
       18
102
RTVSPost2010Prop41ColorRGB
 90
        0
102
RTVSPost2010PropOp41
 70
     1
102
RTVSPost2010Prop42
 90
       50
102
RTVSPost2010PropOp42
 70
     1
102
RTVSPost2010Prop43
 90
        3
102
RTVSPost2010PropOp43
 70
     1
102
RTVSPost2010Prop44ColorIndex
 90
        5
102
RTVSPost2010Prop44ColorRGB
 90
      255
102
RTVSPost2010PropOp44
 70
     1
102
RTVSPost2010Prop45
280
     0
102
RTVSPost2010PropOp45
 70
     1
102
RTVSPost2010Prop46
 90
       50
102
RTVSPost2010PropOp46
 70
     1
102
RTVSPost2010Prop47
 90
       50
102
RTVSPost2010PropOp47
 70
     1
102
RTVSPost2010Prop48
 90
       50
102
RTVSPost2010PropOp48
 70
     1
102
RTVSPost2010Prop49
280
     0
102
RTVSPost2010PropOp49
 70
     1
102
RTVSPost2010Prop50
 90
       50
102
RTVSPost2010PropOp50
 70
     1
102
RTVSPost2010Prop51ColorIndex
 90
      256
102
RTVSPost2010Prop51ColorRGB
 90
-16777216
102
RTVSPost2010PropOp51
 70
     0
102
RTVSPost2010Prop52
140
1.0
102
RTVSPost2010PropOp52
 70
     0
102
RTVSPost2010Prop53
 90
        2
102
RTVSPost2010PropOp53
 70
     1
102
RTVSPost2010Prop54
  1
strokes_ogs.tif
102
RTVSPost2010PropOp54
 70
     1
102
RTVSPost2010Prop55
280
     0
102
RTVSPost2010PropOp55
 70
     1
102
RTVSPost2010Prop56
140
1.0
102
RTVSPost2010PropOp56
 70
     1
102
RTVSPost2010Prop57
140
1.0
102
RTVSPost2010PropOp57
 70
     1
  0
XRECORD
  5
6EF
102
{ACAD_REACTORS
330
6EE
102
}
330
6EE
100
AcDbXrecord
280
     1
102
RTVSPropertyOp0
 70
     1
102
RTVSPropertyOp1
 70
     1
102
RTVSPropertyOp2
 70
     1
102
RTVSPropertyOp3
 70
     1
102
RTVSPropertyOp4
 70
     1
102
RTVSPropertyOp5
 70
     1
102
RTVSPropertyOp6
 70
     1
102
RTVSPropertyOp7
 70
     1
102
RTVSPropertyOp8
 70
     1
102
RTVSPropertyOp9
 70
     1
102
RTVSPropertyOp10
 70
     1
102
RTVSPropertyOp11
 70
     1
102
RTVSPropertyOp12
 70
     1
102
RTVSPropertyOp13
 70
     1
102
RTVSPropertyOp14
 70
     1
102
RTVSPropertyOp15
 70
     1
102
RTVSPropertyOp16
 70
     1
102
RTVSPropertyOp17
 70
     1
102
RTVSPropertyOp18
 70
     1
102
RTVSPropertyOp19
 70
     1
102
RTVSPropertyOp20
 70
     1
102
RTVSPropertyOp21
 70
     1
102
RTVSPropertyOp22
 70
     1
102
RTVSPropertyOp23
 70
     1
102
RTVSPropertyOp24
 70
     1
102
RTVSPropertyOp25
 70
     1
102
RTVSPropertyOp26
 70
     1
102
RTVSPropertyOp27
 70
     1
102
RTVSPropertyOp28
 70
     1
102
RTVSPropertyOp29
 70
     1
102
RTVSPropertyOp30
 70
     1
102
RTVSPropertyOp31
 70
     1
102
RTVSPropertyOp32
 70
     1
102
RTVSPropertyOp33
 70
     1
102
RTVSPropertyOp34
 70
     1
102
RTVSPropertyOp35
 70
     1
102
RTVSPropertyOp36
 70
     1
102
RTVSPropertyOp37
 70
     1
102
RTVSPropertyOp38
 70
     1
102
RTVSPropertyOp39
 70
     1
102
RTVSPropertyOp40
 70
     1
102
RTVSPropertyOp41
 70
     1
102
RTVSPropertyOp42
 70
     1
102
RTVSPropertyOp43
 70
     1
102
RTVSPropertyOp44
 70
     1
102
RTVSPropertyOp45
 70
     1
102
RTVSPropertyOp46
 70
     1
102
RTVSPropertyOp47
 70
     1
102
RTVSPropertyOp48
 70
     1
102
RTVSPropertyOp49
 70
     1
102
RTVSPropertyOp50
 70
     1
102
RTVSPropertyOp51
 70
     0
102
RTVSPropertyOp52
 70
     0
102
RTVSPropertyOp53
 70
     1
102
RTVSPropertyOp54
 70
     1
102
RTVSPropertyOp55
 70
     1
102
RTVSPropertyOp56
 70
     1
102
RTVSPropertyOp57
 70
     1
102
RTVSPost2010Prop28
280
     0
102
RTVSPost2010PropOp28
 70
     1
102
RTVSPost2010Prop29
280
     1
102
RTVSPost2010PropOp29
 70
     1
102
RTVSPost2010Prop30
280
     1
102
RTVSPost2010PropOp30
 70
     1
102
RTVSPost2010Prop31
280
     0
102
RTVSPost2010PropOp31
 70
     1
102
RTVSPost2010Prop32
280
     0
102
RTVSPost2010PropOp32
 70
     1
102
RTVSPost2010Prop33
280
     0
102
RTVSPost2010PropOp33
 70
     1
102
RTVSPost2010Prop34
280
     0
102
RTVSPost2010PropOp34
 70
     1
102
RTVSPost2010Prop35
280
     0
102
RTVSPost2010PropOp35
 70
     1
102
RTVSPost2010Prop36
280
     0
102
RTVSPost2010PropOp36
 70
     1
102
RTVSPost2010Prop37
 90
       50
102
RTVSPost2010PropOp37
 70
     1
102
RTVSPost2010Prop38
140
0.0
102
RTVSPost2010PropOp38
 70
     1
102
RTVSPost2010Prop39
140
1.0
102
RTVSPost2010PropOp39
 70
     1
102
RTVSPost2010Prop40
 90
        0
102
RTVSPost2010PropOp40
 70
     1
102
RTVSPost2010Prop41ColorIndex
 90
       18
102
RTVSPost2010Prop41ColorRGB
 90
        0
102
RTVSPost2010PropOp41
 70
     1
102
RTVSPost2010Prop42
 90
       50
102
RTVSPost2010PropOp42
 70
     1
102
RTVSPost2010Prop43
 90
        3
102
RTVSPost2010PropOp43
 70
     1
102
RTVSPost2010Prop44ColorIndex
 90
        5
102
RTVSPost2010Prop44ColorRGB
 90
      255
102
RTVSPost2010PropOp44
 70
     1
102
RTVSPost2010Prop45
280
     0
102
RTVSPost2010PropOp45
 70
     1
102
RTVSPost2010Prop46
 90
       50
102
RTVSPost2010PropOp46
 70
     1
102
RTVSPost2010Prop47
 90
       50
102
RTVSPost2010PropOp47
 70
     1
102
RTVSPost2010Prop48
 90
       50
102
RTVSPost2010PropOp48
 70
     1
102
RTVSPost2010Prop49
280
     0
102
RTVSPost2010PropOp49
 70
     1
102
RTVSPost2010Prop50
 90
       50
102
RTVSPost2010PropOp50
 70
     1
102
RTVSPost2010Prop51ColorIndex
 90
      256
102
RTVSPost2010Prop51ColorRGB
 90
-16777216
102
RTVSPost2010PropOp51
 70
     0
102
RTVSPost2010Prop52
140
1.0
102
RTVSPost2010PropOp52
 70
     0
102
RTVSPost2010Prop53
 90
        2
102
RTVSPost2010PropOp53
 70
     1
102
RTVSPost2010Prop54
  1
strokes_ogs.tif
102
RTVSPost2010PropOp54
 70
     1
102
RTVSPost2010Prop55
280
     0
102
RTVSPost2010PropOp55
 70
     1
102
RTVSPost2010Prop56
140
1.0
102
RTVSPost2010PropOp56
 70
     1
102
RTVSPost2010Prop57
140
1.0
102
RTVSPost2010PropOp57
 70
     1
  0
XRECORD
  5
6F7
102
{ACAD_REACTORS
330
6F6
102
}
330
6F6
100
AcDbXrecord
280
     1
102
RTVSPropertyOp0
 70
     0
102
RTVSPropertyOp1
 70
     0
102
RTVSPropertyOp2
 70
     0
102
RTVSPropertyOp3
 70
     0
102
RTVSPropertyOp4
 70
     0
102
RTVSPropertyOp5
 70
     0
102
RTVSPropertyOp6
 70
     0
102
RTVSPropertyOp7
 70
     0
102
RTVSPropertyOp8
 70
     0
102
RTVSPropertyOp9
 70
     0
102
RTVSPropertyOp10
 70
     0
102
RTVSPropertyOp11
 70
     0
102
RTVSPropertyOp12
 70
     0
102
RTVSPropertyOp13
 70
     0
102
RTVSPropertyOp14
 70
     0
102
RTVSPropertyOp15
 70
     0
102
RTVSPropertyOp16
 70
     0
102
RTVSPropertyOp17
 70
     0
102
RTVSPropertyOp18
 70
     0
102
RTVSPropertyOp19
 70
     0
102
RTVSPropertyOp20
 70
     0
102
RTVSPropertyOp21
 70
     0
102
RTVSPropertyOp22
 70
     0
102
RTVSPropertyOp23
 70
     0
102
RTVSPropertyOp24
 70
     0
102
RTVSPropertyOp25
 70
     0
102
RTVSPropertyOp26
 70
     0
102
RTVSPropertyOp27
 70
     0
102
RTVSPropertyOp28
 70
     1
102
RTVSPropertyOp29
 70
     1
102
RTVSPropertyOp30
 70
     1
102
RTVSPropertyOp31
 70
     1
102
RTVSPropertyOp32
 70
     1
102
RTVSPropertyOp33
 70
     1
102
RTVSPropertyOp34
 70
     1
102
RTVSPropertyOp35
 70
     1
102
RTVSPropertyOp36
 70
     1
102
RTVSPropertyOp37
 70
     1
102
RTVSPropertyOp38
 70
     1
102
RTVSPropertyOp39
 70
     1
102
RTVSPropertyOp40
 70
     1
102
RTVSPropertyOp41
 70
     1
102
RTVSPropertyOp42
 70
     1
102
RTVSPropertyOp43
 70
     1
102
RTVSPropertyOp44
 70
     1
102
RTVSPropertyOp45
 70
     1
102
RTVSPropertyOp46
 70
     1
102
RTVSPropertyOp47
 70
     1
102
RTVSPropertyOp48
 70
     1
102
RTVSPropertyOp49
 70
     1
102
RTVSPropertyOp50
 70
     1
102
RTVSPropertyOp51
 70
     0
102
RTVSPropertyOp52
 70
     0
102
RTVSPropertyOp53
 70
     1
102
RTVSPropertyOp54
 70
     1
102
RTVSPropertyOp55
 70
     1
102
RTVSPropertyOp56
 70
     1
102
RTVSPropertyOp57
 70
     1
102
RTVSPost2010Prop28
280
     0
102
RTVSPost2010PropOp28
 70
     1
102
RTVSPost2010Prop29
280
     1
102
RTVSPost2010PropOp29
 70
     1
102
RTVSPost2010Prop30
280
     1
102
RTVSPost2010PropOp30
 70
     1
102
RTVSPost2010Prop31
280
     0
102
RTVSPost2010PropOp31
 70
     1
102
RTVSPost2010Prop32
280
     0
102
RTVSPost2010PropOp32
 70
     1
102
RTVSPost2010Prop33
280
     0
102
RTVSPost2010PropOp33
 70
     1
102
RTVSPost2010Prop34
280
     0
102
RTVSPost2010PropOp34
 70
     1
102
RTVSPost2010Prop35
280
     0
102
RTVSPost2010PropOp35
 70
     1
102
RTVSPost2010Prop36
280
     0
102
RTVSPost2010PropOp36
 70
     1
102
RTVSPost2010Prop37
 90
       50
102
RTVSPost2010PropOp37
 70
     1
102
RTVSPost2010Prop38
140
0.0
102
RTVSPost2010PropOp38
 70
     1
102
RTVSPost2010Prop39
140
1.0
102
RTVSPost2010PropOp39
 70
     1
102
RTVSPost2010Prop40
 90
        0
102
RTVSPost2010PropOp40
 70
     1
102
RTVSPost2010Prop41ColorIndex
 90
       18
102
RTVSPost2010Prop41ColorRGB
 90
        0
102
RTVSPost2010PropOp41
 70
     1
102
RTVSPost2010Prop42
 90
       50
102
RTVSPost2010PropOp42
 70
     1
102
RTVSPost2010Prop43
 90
        3
102
RTVSPost2010PropOp43
 70
     1
102
RTVSPost2010Prop44ColorIndex
 90
        5
102
RTVSPost2010Prop44ColorRGB
 90
      255
102
RTVSPost2010PropOp44
 70
     1
102
RTVSPost2010Prop45
280
     0
102
RTVSPost2010PropOp45
 70
     1
102
RTVSPost2010Prop46
 90
       50
102
RTVSPost2010PropOp46
 70
     1
102
RTVSPost2010Prop47
 90
       50
102
RTVSPost2010PropOp47
 70
     1
102
RTVSPost2010Prop48
 90
       50
102
RTVSPost2010PropOp48
 70
     1
102
RTVSPost2010Prop49
280
     0
102
RTVSPost2010PropOp49
 70
     1
102
RTVSPost2010Prop50
 90
       50
102
RTVSPost2010PropOp50
 70
     1
102
RTVSPost2010Prop51ColorIndex
 90
      256
102
RTVSPost2010Prop51ColorRGB
 90
-16777216
102
RTVSPost2010PropOp51
 70
     0
102
RTVSPost2010Prop52
140
1.0
102
RTVSPost2010PropOp52
 70
     0
102
RTVSPost2010Prop53
 90
        2
102
RTVSPost2010PropOp53
 70
     1
102
RTVSPost2010Prop54
  1
strokes_ogs.tif
102
RTVSPost2010PropOp54
 70
     1
102
RTVSPost2010Prop55
280
     0
102
RTVSPost2010PropOp55
 70
     1
102
RTVSPost2010Prop56
140
1.0
102
RTVSPost2010PropOp56
 70
     1
102
RTVSPost2010Prop57
140
1.0
102
RTVSPost2010PropOp57
 70
     1
  0
XRECORD
  5
6E5
102
{ACAD_REACTORS
330
6E4
102
}
330
6E4
100
AcDbXrecord
280
     1
102
RTVSPropertyOp0
 70
     1
102
RTVSPropertyOp1
 70
     1
102
RTVSPropertyOp2
 70
     1
102
RTVSPropertyOp3
 70
     1
102
RTVSPropertyOp4
 70
     1
102
RTVSPropertyOp5
 70
     1
102
RTVSPropertyOp6
 70
     1
102
RTVSPropertyOp7
 70
     1
102
RTVSPropertyOp8
 70
     1
102
RTVSPropertyOp9
 70
     1
102
RTVSPropertyOp10
 70
     1
102
RTVSPropertyOp11
 70
     1
102
RTVSPropertyOp12
 70
     1
102
RTVSPropertyOp13
 70
     1
102
RTVSPropertyOp14
 70
     1
102
RTVSPropertyOp15
 70
     1
102
RTVSPropertyOp16
 70
     1
102
RTVSPropertyOp17
 70
     1
102
RTVSPropertyOp18
 70
     1
102
RTVSPropertyOp19
 70
     1
102
RTVSPropertyOp20
 70
     1
102
RTVSPropertyOp21
 70
     1
102
RTVSPropertyOp22
 70
     1
102
RTVSPropertyOp23
 70
     1
102
RTVSPropertyOp24
 70
     1
102
RTVSPropertyOp25
 70
     1
102
RTVSPropertyOp26
 70
     1
102
RTVSPropertyOp27
 70
     1
102
RTVSPropertyOp28
 70
     1
102
RTVSPropertyOp29
 70
     1
102
RTVSPropertyOp30
 70
     1
102
RTVSPropertyOp31
 70
     1
102
RTVSPropertyOp32
 70
     1
102
RTVSPropertyOp33
 70
     1
102
RTVSPropertyOp34
 70
     1
102
RTVSPropertyOp35
 70
     1
102
RTVSPropertyOp36
 70
     1
102
RTVSPropertyOp37
 70
     1
102
RTVSPropertyOp38
 70
     1
102
RTVSPropertyOp39
 70
     1
102
RTVSPropertyOp40
 70
     1
102
RTVSPropertyOp41
 70
     1
102
RTVSPropertyOp42
 70
     1
102
RTVSPropertyOp43
 70
     1
102
RTVSPropertyOp44
 70
     1
102
RTVSPropertyOp45
 70
     1
102
RTVSPropertyOp46
 70
     1
102
RTVSPropertyOp47
 70
     1
102
RTVSPropertyOp48
 70
     1
102
RTVSPropertyOp49
 70
     1
102
RTVSPropertyOp50
 70
     1
102
RTVSPropertyOp51
 70
     0
102
RTVSPropertyOp52
 70
     0
102
RTVSPropertyOp53
 70
     1
102
RTVSPropertyOp54
 70
     1
102
RTVSPropertyOp55
 70
     1
102
RTVSPropertyOp56
 70
     1
102
RTVSPropertyOp57
 70
     1
102
RTVSPost2010Prop28
280
     0
102
RTVSPost2010PropOp28
 70
     1
102
RTVSPost2010Prop29
280
     1
102
RTVSPost2010PropOp29
 70
     1
102
RTVSPost2010Prop30
280
     1
102
RTVSPost2010PropOp30
 70
     1
102
RTVSPost2010Prop31
280
     0
102
RTVSPost2010PropOp31
 70
     1
102
RTVSPost2010Prop32
280
     0
102
RTVSPost2010PropOp32
 70
     1
102
RTVSPost2010Prop33
280
     0
102
RTVSPost2010PropOp33
 70
     1
102
RTVSPost2010Prop34
280
     0
102
RTVSPost2010PropOp34
 70
     1
102
RTVSPost2010Prop35
280
     0
102
RTVSPost2010PropOp35
 70
     1
102
RTVSPost2010Prop36
280
     0
102
RTVSPost2010PropOp36
 70
     1
102
RTVSPost2010Prop37
 90
       50
102
RTVSPost2010PropOp37
 70
     1
102
RTVSPost2010Prop38
140
0.0
102
RTVSPost2010PropOp38
 70
     1
102
RTVSPost2010Prop39
140
1.0
102
RTVSPost2010PropOp39
 70
     1
102
RTVSPost2010Prop40
 90
        0
102
RTVSPost2010PropOp40
 70
     1
102
RTVSPost2010Prop41ColorIndex
 90
       18
102
RTVSPost2010Prop41ColorRGB
 90
        0
102
RTVSPost2010PropOp41
 70
     1
102
RTVSPost2010Prop42
 90
       50
102
RTVSPost2010PropOp42
 70
     1
102
RTVSPost2010Prop43
 90
        3
102
RTVSPost2010PropOp43
 70
     1
102
RTVSPost2010Prop44ColorIndex
 90
        5
102
RTVSPost2010Prop44ColorRGB
 90
      255
102
RTVSPost2010PropOp44
 70
     1
102
RTVSPost2010Prop45
280
     0
102
RTVSPost2010PropOp45
 70
     1
102
RTVSPost2010Prop46
 90
       50
102
RTVSPost2010PropOp46
 70
     1
102
RTVSPost2010Prop47
 90
       50
102
RTVSPost2010PropOp47
 70
     1
102
RTVSPost2010Prop48
 90
       50
102
RTVSPost2010PropOp48
 70
     1
102
RTVSPost2010Prop49
280
     0
102
RTVSPost2010PropOp49
 70
     1
102
RTVSPost2010Prop50
 90
       50
102
RTVSPost2010PropOp50
 70
     1
102
RTVSPost2010Prop51ColorIndex
 90
      256
102
RTVSPost2010Prop51ColorRGB
 90
-16777216
102
RTVSPost2010PropOp51
 70
     0
102
RTVSPost2010Prop52
140
1.0
102
RTVSPost2010PropOp52
 70
     0
102
RTVSPost2010Prop53
 90
        2
102
RTVSPost2010PropOp53
 70
     1
102
RTVSPost2010Prop54
  1
strokes_ogs.tif
102
RTVSPost2010PropOp54
 70
     1
102
RTVSPost2010Prop55
280
     0
102
RTVSPost2010PropOp55
 70
     1
102
RTVSPost2010Prop56
140
1.0
102
RTVSPost2010PropOp56
 70
     1
102
RTVSPost2010Prop57
140
1.0
102
RTVSPost2010PropOp57
 70
     1
  0
XRECORD
  5
703
102
{ACAD_REACTORS
330
702
102
}
330
702
100
AcDbXrecord
280
     1
102
RTVSPropertyOp0
 70
     1
102
RTVSPropertyOp1
 70
     1
102
RTVSPropertyOp2
 70
     1
102
RTVSPropertyOp3
 70
     1
102
RTVSPropertyOp4
 70
     1
102
RTVSPropertyOp5
 70
     1
102
RTVSPropertyOp6
 70
     1
102
RTVSPropertyOp7
 70
     1
102
RTVSPropertyOp8
 70
     1
102
RTVSPropertyOp9
 70
     1
102
RTVSPropertyOp10
 70
     1
102
RTVSPropertyOp11
 70
     1
102
RTVSPropertyOp12
 70
     1
102
RTVSPropertyOp13
 70
     1
102
RTVSPropertyOp14
 70
     1
102
RTVSPropertyOp15
 70
     1
102
RTVSPropertyOp16
 70
     1
102
RTVSPropertyOp17
 70
     1
102
RTVSPropertyOp18
 70
     1
102
RTVSPropertyOp19
 70
     1
102
RTVSPropertyOp20
 70
     1
102
RTVSPropertyOp21
 70
     1
102
RTVSPropertyOp22
 70
     1
102
RTVSPropertyOp23
 70
     1
102
RTVSPropertyOp24
 70
     1
102
RTVSPropertyOp25
 70
     1
102
RTVSPropertyOp26
 70
     1
102
RTVSPropertyOp27
 70
     1
102
RTVSPropertyOp28
 70
     1
102
RTVSPropertyOp29
 70
     1
102
RTVSPropertyOp30
 70
     1
102
RTVSPropertyOp31
 70
     1
102
RTVSPropertyOp32
 70
     1
102
RTVSPropertyOp33
 70
     1
102
RTVSPropertyOp34
 70
     1
102
RTVSPropertyOp35
 70
     1
102
RTVSPropertyOp36
 70
     1
102
RTVSPropertyOp37
 70
     1
102
RTVSPropertyOp38
 70
     1
102
RTVSPropertyOp39
 70
     1
102
RTVSPropertyOp40
 70
     1
102
RTVSPropertyOp41
 70
     1
102
RTVSPropertyOp42
 70
     1
102
RTVSPropertyOp43
 70
     1
102
RTVSPropertyOp44
 70
     1
102
RTVSPropertyOp45
 70
     1
102
RTVSPropertyOp46
 70
     1
102
RTVSPropertyOp47
 70
     1
102
RTVSPropertyOp48
 70
     1
102
RTVSPropertyOp49
 70
     1
102
RTVSPropertyOp50
 70
     1
102
RTVSPropertyOp51
 70
     0
102
RTVSPropertyOp52
 70
     0
102
RTVSPropertyOp53
 70
     1
102
RTVSPropertyOp54
 70
     1
102
RTVSPropertyOp55
 70
     1
102
RTVSPropertyOp56
 70
     1
102
RTVSPropertyOp57
 70
     1
102
RTVSPost2010Prop28
280
     0
102
RTVSPost2010PropOp28
 70
     1
102
RTVSPost2010Prop29
280
     1
102
RTVSPost2010PropOp29
 70
     1
102
RTVSPost2010Prop30
280
     1
102
RTVSPost2010PropOp30
 70
     1
102
RTVSPost2010Prop31
280
     0
102
RTVSPost2010PropOp31
 70
     1
102
RTVSPost2010Prop32
280
     0
102
RTVSPost2010PropOp32
 70
     1
102
RTVSPost2010Prop33
280
     0
102
RTVSPost2010PropOp33
 70
     1
102
RTVSPost2010Prop34
280
     0
102
RTVSPost2010PropOp34
 70
     1
102
RTVSPost2010Prop35
280
     0
102
RTVSPost2010PropOp35
 70
     1
102
RTVSPost2010Prop36
280
     0
102
RTVSPost2010PropOp36
 70
     1
102
RTVSPost2010Prop37
 90
       50
102
RTVSPost2010PropOp37
 70
     1
102
RTVSPost2010Prop38
140
0.0
102
RTVSPost2010PropOp38
 70
     1
102
RTVSPost2010Prop39
140
1.0
102
RTVSPost2010PropOp39
 70
     1
102
RTVSPost2010Prop40
 90
        0
102
RTVSPost2010PropOp40
 70
     1
102
RTVSPost2010Prop41ColorIndex
 90
       18
102
RTVSPost2010Prop41ColorRGB
 90
        0
102
RTVSPost2010PropOp41
 70
     1
102
RTVSPost2010Prop42
 90
       50
102
RTVSPost2010PropOp42
 70
     1
102
RTVSPost2010Prop43
 90
        3
102
RTVSPost2010PropOp43
 70
     1
102
RTVSPost2010Prop44ColorIndex
 90
        5
102
RTVSPost2010Prop44ColorRGB
 90
      255
102
RTVSPost2010PropOp44
 70
     1
102
RTVSPost2010Prop45
280
     0
102
RTVSPost2010PropOp45
 70
     1
102
RTVSPost2010Prop46
 90
       50
102
RTVSPost2010PropOp46
 70
     1
102
RTVSPost2010Prop47
 90
       50
102
RTVSPost2010PropOp47
 70
     1
102
RTVSPost2010Prop48
 90
       50
102
RTVSPost2010PropOp48
 70
     1
102
RTVSPost2010Prop49
280
     0
102
RTVSPost2010PropOp49
 70
     1
102
RTVSPost2010Prop50
 90
       50
102
RTVSPost2010PropOp50
 70
     1
102
RTVSPost2010Prop51ColorIndex
 90
      256
102
RTVSPost2010Prop51ColorRGB
 90
-16777216
102
RTVSPost2010PropOp51
 70
     0
102
RTVSPost2010Prop52
140
1.0
102
RTVSPost2010PropOp52
 70
     0
102
RTVSPost2010Prop53
 90
        2
102
RTVSPost2010PropOp53
 70
     1
102
RTVSPost2010Prop54
  1
strokes_ogs.tif
102
RTVSPost2010PropOp54
 70
     1
102
RTVSPost2010Prop55
280
     0
102
RTVSPost2010PropOp55
 70
     1
102
RTVSPost2010Prop56
140
1.0
102
RTVSPost2010PropOp56
 70
     1
102
RTVSPost2010Prop57
140
1.0
102
RTVSPost2010PropOp57
 70
     1
  0
XRECORD
  5
701
102
{ACAD_REACTORS
330
700
102
}
330
700
100
AcDbXrecord
280
     1
102
RTVSPropertyOp0
 70
     1
102
RTVSPropertyOp1
 70
     1
102
RTVSPropertyOp2
 70
     1
102
RTVSPropertyOp3
 70
     1
102
RTVSPropertyOp4
 70
     1
102
RTVSPropertyOp5
 70
     1
102
RTVSPropertyOp6
 70
     1
102
RTVSPropertyOp7
 70
     1
102
RTVSPropertyOp8
 70
     1
102
RTVSPropertyOp9
 70
     1
102
RTVSPropertyOp10
 70
     1
102
RTVSPropertyOp11
 70
     1
102
RTVSPropertyOp12
 70
     1
102
RTVSPropertyOp13
 70
     1
102
RTVSPropertyOp14
 70
     1
102
RTVSPropertyOp15
 70
     1
102
RTVSPropertyOp16
 70
     1
102
RTVSPropertyOp17
 70
     1
102
RTVSPropertyOp18
 70
     1
102
RTVSPropertyOp19
 70
     1
102
RTVSPropertyOp20
 70
     1
102
RTVSPropertyOp21
 70
     1
102
RTVSPropertyOp22
 70
     1
102
RTVSPropertyOp23
 70
     1
102
RTVSPropertyOp24
 70
     1
102
RTVSPropertyOp25
 70
     1
102
RTVSPropertyOp26
 70
     1
102
RTVSPropertyOp27
 70
     1
102
RTVSPropertyOp28
 70
     1
102
RTVSPropertyOp29
 70
     1
102
RTVSPropertyOp30
 70
     1
102
RTVSPropertyOp31
 70
     1
102
RTVSPropertyOp32
 70
     1
102
RTVSPropertyOp33
 70
     1
102
RTVSPropertyOp34
 70
     1
102
RTVSPropertyOp35
 70
     1
102
RTVSPropertyOp36
 70
     1
102
RTVSPropertyOp37
 70
     1
102
RTVSPropertyOp38
 70
     1
102
RTVSPropertyOp39
 70
     1
102
RTVSPropertyOp40
 70
     1
102
RTVSPropertyOp41
 70
     1
102
RTVSPropertyOp42
 70
     1
102
RTVSPropertyOp43
 70
     1
102
RTVSPropertyOp44
 70
     1
102
RTVSPropertyOp45
 70
     1
102
RTVSPropertyOp46
 70
     1
102
RTVSPropertyOp47
 70
     1
102
RTVSPropertyOp48
 70
     1
102
RTVSPropertyOp49
 70
     1
102
RTVSPropertyOp50
 70
     1
102
RTVSPropertyOp51
 70
     0
102
RTVSPropertyOp52
 70
     0
102
RTVSPropertyOp53
 70
     1
102
RTVSPropertyOp54
 70
     1
102
RTVSPropertyOp55
 70
     1
102
RTVSPropertyOp56
 70
     1
102
RTVSPropertyOp57
 70
     1
102
RTVSPost2010Prop28
280
     0
102
RTVSPost2010PropOp28
 70
     1
102
RTVSPost2010Prop29
280
     1
102
RTVSPost2010PropOp29
 70
     1
102
RTVSPost2010Prop30
280
     1
102
RTVSPost2010PropOp30
 70
     1
102
RTVSPost2010Prop31
280
     0
102
RTVSPost2010PropOp31
 70
     1
102
RTVSPost2010Prop32
280
     0
102
RTVSPost2010PropOp32
 70
     1
102
RTVSPost2010Prop33
280
     0
102
RTVSPost2010PropOp33
 70
     1
102
RTVSPost2010Prop34
280
     0
102
RTVSPost2010PropOp34
 70
     1
102
RTVSPost2010Prop35
280
     0
102
RTVSPost2010PropOp35
 70
     1
102
RTVSPost2010Prop36
280
     0
102
RTVSPost2010PropOp36
 70
     1
102
RTVSPost2010Prop37
 90
       50
102
RTVSPost2010PropOp37
 70
     1
102
RTVSPost2010Prop38
140
0.0
102
RTVSPost2010PropOp38
 70
     1
102
RTVSPost2010Prop39
140
1.0
102
RTVSPost2010PropOp39
 70
     1
102
RTVSPost2010Prop40
 90
        0
102
RTVSPost2010PropOp40
 70
     1
102
RTVSPost2010Prop41ColorIndex
 90
       18
102
RTVSPost2010Prop41ColorRGB
 90
        0
102
RTVSPost2010PropOp41
 70
     1
102
RTVSPost2010Prop42
 90
       50
102
RTVSPost2010PropOp42
 70
     1
102
RTVSPost2010Prop43
 90
        3
102
RTVSPost2010PropOp43
 70
     1
102
RTVSPost2010Prop44ColorIndex
 90
        5
102
RTVSPost2010Prop44ColorRGB
 90
      255
102
RTVSPost2010PropOp44
 70
     1
102
RTVSPost2010Prop45
280
     0
102
RTVSPost2010PropOp45
 70
     1
102
RTVSPost2010Prop46
 90
       50
102
RTVSPost2010PropOp46
 70
     1
102
RTVSPost2010Prop47
 90
       50
102
RTVSPost2010PropOp47
 70
     1
102
RTVSPost2010Prop48
 90
       50
102
RTVSPost2010PropOp48
 70
     1
102
RTVSPost2010Prop49
280
     0
102
RTVSPost2010PropOp49
 70
     1
102
RTVSPost2010Prop50
 90
       50
102
RTVSPost2010PropOp50
 70
     1
102
RTVSPost2010Prop51ColorIndex
 90
      256
102
RTVSPost2010Prop51ColorRGB
 90
-16777216
102
RTVSPost2010PropOp51
 70
     0
102
RTVSPost2010Prop52
140
1.0
102
RTVSPost2010PropOp52
 70
     0
102
RTVSPost2010Prop53
 90
        2
102
RTVSPost2010PropOp53
 70
     1
102
RTVSPost2010Prop54
  1
strokes_ogs.tif
102
RTVSPost2010PropOp54
 70
     1
102
RTVSPost2010Prop55
280
     0
102
RTVSPost2010PropOp55
 70
     1
102
RTVSPost2010Prop56
140
1.0
102
RTVSPost2010PropOp56
 70
     1
102
RTVSPost2010Prop57
140
1.0
102
RTVSPost2010PropOp57
 70
     1
  0
XRECORD
  5
6FB
102
{ACAD_REACTORS
330
6FA
102
}
330
6FA
100
AcDbXrecord
280
     1
102
RTVSPropertyOp0
 70
     1
102
RTVSPropertyOp1
 70
     1
102
RTVSPropertyOp2
 70
     1
102
RTVSPropertyOp3
 70
     1
102
RTVSPropertyOp4
 70
     1
102
RTVSPropertyOp5
 70
     1
102
RTVSPropertyOp6
 70
     1
102
RTVSPropertyOp7
 70
     1
102
RTVSPropertyOp8
 70
     1
102
RTVSPropertyOp9
 70
     1
102
RTVSPropertyOp10
 70
     1
102
RTVSPropertyOp11
 70
     1
102
RTVSPropertyOp12
 70
     1
102
RTVSPropertyOp13
 70
     1
102
RTVSPropertyOp14
 70
     1
102
RTVSPropertyOp15
 70
     1
102
RTVSPropertyOp16
 70
     1
102
RTVSPropertyOp17
 70
     1
102
RTVSPropertyOp18
 70
     1
102
RTVSPropertyOp19
 70
     1
102
RTVSPropertyOp20
 70
     1
102
RTVSPropertyOp21
 70
     1
102
RTVSPropertyOp22
 70
     1
102
RTVSPropertyOp23
 70
     1
102
RTVSPropertyOp24
 70
     1
102
RTVSPropertyOp25
 70
     1
102
RTVSPropertyOp26
 70
     1
102
RTVSPropertyOp27
 70
     1
102
RTVSPropertyOp28
 70
     1
102
RTVSPropertyOp29
 70
     1
102
RTVSPropertyOp30
 70
     1
102
RTVSPropertyOp31
 70
     1
102
RTVSPropertyOp32
 70
     1
102
RTVSPropertyOp33
 70
     1
102
RTVSPropertyOp34
 70
     1
102
RTVSPropertyOp35
 70
     1
102
RTVSPropertyOp36
 70
     1
102
RTVSPropertyOp37
 70
     1
102
RTVSPropertyOp38
 70
     1
102
RTVSPropertyOp39
 70
     1
102
RTVSPropertyOp40
 70
     1
102
RTVSPropertyOp41
 70
     1
102
RTVSPropertyOp42
 70
     1
102
RTVSPropertyOp43
 70
     1
102
RTVSPropertyOp44
 70
     1
102
RTVSPropertyOp45
 70
     1
102
RTVSPropertyOp46
 70
     1
102
RTVSPropertyOp47
 70
     1
102
RTVSPropertyOp48
 70
     1
102
RTVSPropertyOp49
 70
     1
102
RTVSPropertyOp50
 70
     1
102
RTVSPropertyOp51
 70
     0
102
RTVSPropertyOp52
 70
     0
102
RTVSPropertyOp53
 70
     1
102
RTVSPropertyOp54
 70
     1
102
RTVSPropertyOp55
 70
     1
102
RTVSPropertyOp56
 70
     1
102
RTVSPropertyOp57
 70
     1
102
RTVSPost2010Prop28
280
     0
102
RTVSPost2010PropOp28
 70
     1
102
RTVSPost2010Prop29
280
     1
102
RTVSPost2010PropOp29
 70
     1
102
RTVSPost2010Prop30
280
     1
102
RTVSPost2010PropOp30
 70
     1
102
RTVSPost2010Prop31
280
     0
102
RTVSPost2010PropOp31
 70
     1
102
RTVSPost2010Prop32
280
     0
102
RTVSPost2010PropOp32
 70
     1
102
RTVSPost2010Prop33
280
     0
102
RTVSPost2010PropOp33
 70
     1
102
RTVSPost2010Prop34
280
     0
102
RTVSPost2010PropOp34
 70
     1
102
RTVSPost2010Prop35
280
     0
102
RTVSPost2010PropOp35
 70
     1
102
RTVSPost2010Prop36
280
     0
102
RTVSPost2010PropOp36
 70
     1
102
RTVSPost2010Prop37
 90
       50
102
RTVSPost2010PropOp37
 70
     1
102
RTVSPost2010Prop38
140
0.0
102
RTVSPost2010PropOp38
 70
     1
102
RTVSPost2010Prop39
140
1.0
102
RTVSPost2010PropOp39
 70
     1
102
RTVSPost2010Prop40
 90
        0
102
RTVSPost2010PropOp40
 70
     1
102
RTVSPost2010Prop41ColorIndex
 90
       18
102
RTVSPost2010Prop41ColorRGB
 90
        0
102
RTVSPost2010PropOp41
 70
     1
102
RTVSPost2010Prop42
 90
       50
102
RTVSPost2010PropOp42
 70
     1
102
RTVSPost2010Prop43
 90
        3
102
RTVSPost2010PropOp43
 70
     1
102
RTVSPost2010Prop44ColorIndex
 90
        5
102
RTVSPost2010Prop44ColorRGB
 90
      255
102
RTVSPost2010PropOp44
 70
     1
102
RTVSPost2010Prop45
280
     0
102
RTVSPost2010PropOp45
 70
     1
102
RTVSPost2010Prop46
 90
       50
102
RTVSPost2010PropOp46
 70
     1
102
RTVSPost2010Prop47
 90
       50
102
RTVSPost2010PropOp47
 70
     1
102
RTVSPost2010Prop48
 90
       50
102
RTVSPost2010PropOp48
 70
     1
102
RTVSPost2010Prop49
280
     0
102
RTVSPost2010PropOp49
 70
     1
102
RTVSPost2010Prop50
 90
       50
102
RTVSPost2010PropOp50
 70
     1
102
RTVSPost2010Prop51ColorIndex
 90
      256
102
RTVSPost2010Prop51ColorRGB
 90
-16777216
102
RTVSPost2010PropOp51
 70
     0
102
RTVSPost2010Prop52
140
1.0
102
RTVSPost2010PropOp52
 70
     0
102
RTVSPost2010Prop53
 90
        2
102
RTVSPost2010PropOp53
 70
     1
102
RTVSPost2010Prop54
  1
strokes_ogs.tif
102
RTVSPost2010PropOp54
 70
     1
102
RTVSPost2010Prop55
280
     0
102
RTVSPost2010PropOp55
 70
     1
102
RTVSPost2010Prop56
140
1.0
102
RTVSPost2010PropOp56
 70
     1
102
RTVSPost2010Prop57
140
1.0
102
RTVSPost2010PropOp57
 70
     1
  0
XRECORD
  5
6FD
102
{ACAD_REACTORS
330
6FC
102
}
330
6FC
100
AcDbXrecord
280
     1
102
RTVSPropertyOp0
 70
     1
102
RTVSPropertyOp1
 70
     1
102
RTVSPropertyOp2
 70
     1
102
RTVSPropertyOp3
 70
     1
102
RTVSPropertyOp4
 70
     1
102
RTVSPropertyOp5
 70
     1
102
RTVSPropertyOp6
 70
     1
102
RTVSPropertyOp7
 70
     1
102
RTVSPropertyOp8
 70
     1
102
RTVSPropertyOp9
 70
     1
102
RTVSPropertyOp10
 70
     1
102
RTVSPropertyOp11
 70
     1
102
RTVSPropertyOp12
 70
     1
102
RTVSPropertyOp13
 70
     1
102
RTVSPropertyOp14
 70
     1
102
RTVSPropertyOp15
 70
     1
102
RTVSPropertyOp16
 70
     1
102
RTVSPropertyOp17
 70
     1
102
RTVSPropertyOp18
 70
     1
102
RTVSPropertyOp19
 70
     1
102
RTVSPropertyOp20
 70
     1
102
RTVSPropertyOp21
 70
     1
102
RTVSPropertyOp22
 70
     1
102
RTVSPropertyOp23
 70
     1
102
RTVSPropertyOp24
 70
     1
102
RTVSPropertyOp25
 70
     1
102
RTVSPropertyOp26
 70
     1
102
RTVSPropertyOp27
 70
     1
102
RTVSPropertyOp28
 70
     1
102
RTVSPropertyOp29
 70
     1
102
RTVSPropertyOp30
 70
     1
102
RTVSPropertyOp31
 70
     1
102
RTVSPropertyOp32
 70
     1
102
RTVSPropertyOp33
 70
     1
102
RTVSPropertyOp34
 70
     1
102
RTVSPropertyOp35
 70
     1
102
RTVSPropertyOp36
 70
     1
102
RTVSPropertyOp37
 70
     1
102
RTVSPropertyOp38
 70
     1
102
RTVSPropertyOp39
 70
     1
102
RTVSPropertyOp40
 70
     1
102
RTVSPropertyOp41
 70
     1
102
RTVSPropertyOp42
 70
     1
102
RTVSPropertyOp43
 70
     1
102
RTVSPropertyOp44
 70
     1
102
RTVSPropertyOp45
 70
     1
102
RTVSPropertyOp46
 70
     1
102
RTVSPropertyOp47
 70
     1
102
RTVSPropertyOp48
 70
     1
102
RTVSPropertyOp49
 70
     1
102
RTVSPropertyOp50
 70
     1
102
RTVSPropertyOp51
 70
     0
102
RTVSPropertyOp52
 70
     0
102
RTVSPropertyOp53
 70
     1
102
RTVSPropertyOp54
 70
     1
102
RTVSPropertyOp55
 70
     1
102
RTVSPropertyOp56
 70
     1
102
RTVSPropertyOp57
 70
     1
102
RTVSPost2010Prop28
280
     0
102
RTVSPost2010PropOp28
 70
     1
102
RTVSPost2010Prop29
280
     1
102
RTVSPost2010PropOp29
 70
     1
102
RTVSPost2010Prop30
280
     1
102
RTVSPost2010PropOp30
 70
     1
102
RTVSPost2010Prop31
280
     0
102
RTVSPost2010PropOp31
 70
     1
102
RTVSPost2010Prop32
280
     0
102
RTVSPost2010PropOp32
 70
     1
102
RTVSPost2010Prop33
280
     0
102
RTVSPost2010PropOp33
 70
     1
102
RTVSPost2010Prop34
280
     0
102
RTVSPost2010PropOp34
 70
     1
102
RTVSPost2010Prop35
280
     0
102
RTVSPost2010PropOp35
 70
     1
102
RTVSPost2010Prop36
280
     0
102
RTVSPost2010PropOp36
 70
     1
102
RTVSPost2010Prop37
 90
       50
102
RTVSPost2010PropOp37
 70
     1
102
RTVSPost2010Prop38
140
0.0
102
RTVSPost2010PropOp38
 70
     1
102
RTVSPost2010Prop39
140
1.0
102
RTVSPost2010PropOp39
 70
     1
102
RTVSPost2010Prop40
 90
        0
102
RTVSPost2010PropOp40
 70
     1
102
RTVSPost2010Prop41ColorIndex
 90
       18
102
RTVSPost2010Prop41ColorRGB
 90
        0
102
RTVSPost2010PropOp41
 70
     1
102
RTVSPost2010Prop42
 90
       50
102
RTVSPost2010PropOp42
 70
     1
102
RTVSPost2010Prop43
 90
        3
102
RTVSPost2010PropOp43
 70
     1
102
RTVSPost2010Prop44ColorIndex
 90
        5
102
RTVSPost2010Prop44ColorRGB
 90
      255
102
RTVSPost2010PropOp44
 70
     1
102
RTVSPost2010Prop45
280
     0
102
RTVSPost2010PropOp45
 70
     1
102
RTVSPost2010Prop46
 90
       50
102
RTVSPost2010PropOp46
 70
     1
102
RTVSPost2010Prop47
 90
       50
102
RTVSPost2010PropOp47
 70
     1
102
RTVSPost2010Prop48
 90
       50
102
RTVSPost2010PropOp48
 70
     1
102
RTVSPost2010Prop49
280
     0
102
RTVSPost2010PropOp49
 70
     1
102
RTVSPost2010Prop50
 90
       50
102
RTVSPost2010PropOp50
 70
     1
102
RTVSPost2010Prop51ColorIndex
 90
      256
102
RTVSPost2010Prop51ColorRGB
 90
-16777216
102
RTVSPost2010PropOp51
 70
     0
102
RTVSPost2010Prop52
140
1.0
102
RTVSPost2010PropOp52
 70
     0
102
RTVSPost2010Prop53
 90
        2
102
RTVSPost2010PropOp53
 70
     1
102
RTVSPost2010Prop54
  1
strokes_ogs.tif
102
RTVSPost2010PropOp54
 70
     1
102
RTVSPost2010Prop55
280
     0
102
RTVSPost2010PropOp55
 70
     1
102
RTVSPost2010Prop56
140
1.0
102
RTVSPost2010PropOp56
 70
     1
102
RTVSPost2010Prop57
140
1.0
102
RTVSPost2010PropOp57
 70
     1
  0
XRECORD
  5
6ED
102
{ACAD_REACTORS
330
6EC
102
}
330
6EC
100
AcDbXrecord
280
     1
102
RTVSPropertyOp0
 70
     1
102
RTVSPropertyOp1
 70
     1
102
RTVSPropertyOp2
 70
     1
102
RTVSPropertyOp3
 70
     1
102
RTVSPropertyOp4
 70
     1
102
RTVSPropertyOp5
 70
     1
102
RTVSPropertyOp6
 70
     1
102
RTVSPropertyOp7
 70
     1
102
RTVSPropertyOp8
 70
     1
102
RTVSPropertyOp9
 70
     1
102
RTVSPropertyOp10
 70
     1
102
RTVSPropertyOp11
 70
     1
102
RTVSPropertyOp12
 70
     1
102
RTVSPropertyOp13
 70
     1
102
RTVSPropertyOp14
 70
     1
102
RTVSPropertyOp15
 70
     1
102
RTVSPropertyOp16
 70
     1
102
RTVSPropertyOp17
 70
     1
102
RTVSPropertyOp18
 70
     1
102
RTVSPropertyOp19
 70
     1
102
RTVSPropertyOp20
 70
     1
102
RTVSPropertyOp21
 70
     1
102
RTVSPropertyOp22
 70
     1
102
RTVSPropertyOp23
 70
     1
102
RTVSPropertyOp24
 70
     1
102
RTVSPropertyOp25
 70
     1
102
RTVSPropertyOp26
 70
     1
102
RTVSPropertyOp27
 70
     1
102
RTVSPropertyOp28
 70
     1
102
RTVSPropertyOp29
 70
     1
102
RTVSPropertyOp30
 70
     1
102
RTVSPropertyOp31
 70
     1
102
RTVSPropertyOp32
 70
     1
102
RTVSPropertyOp33
 70
     1
102
RTVSPropertyOp34
 70
     1
102
RTVSPropertyOp35
 70
     1
102
RTVSPropertyOp36
 70
     1
102
RTVSPropertyOp37
 70
     1
102
RTVSPropertyOp38
 70
     1
102
RTVSPropertyOp39
 70
     1
102
RTVSPropertyOp40
 70
     1
102
RTVSPropertyOp41
 70
     1
102
RTVSPropertyOp42
 70
     1
102
RTVSPropertyOp43
 70
     1
102
RTVSPropertyOp44
 70
     1
102
RTVSPropertyOp45
 70
     1
102
RTVSPropertyOp46
 70
     1
102
RTVSPropertyOp47
 70
     1
102
RTVSPropertyOp48
 70
     1
102
RTVSPropertyOp49
 70
     1
102
RTVSPropertyOp50
 70
     1
102
RTVSPropertyOp51
 70
     0
102
RTVSPropertyOp52
 70
     0
102
RTVSPropertyOp53
 70
     1
102
RTVSPropertyOp54
 70
     1
102
RTVSPropertyOp55
 70
     1
102
RTVSPropertyOp56
 70
     1
102
RTVSPropertyOp57
 70
     1
102
RTVSPost2010Prop28
280
     0
102
RTVSPost2010PropOp28
 70
     1
102
RTVSPost2010Prop29
280
     1
102
RTVSPost2010PropOp29
 70
     1
102
RTVSPost2010Prop30
280
     1
102
RTVSPost2010PropOp30
 70
     1
102
RTVSPost2010Prop31
280
     0
102
RTVSPost2010PropOp31
 70
     1
102
RTVSPost2010Prop32
280
     0
102
RTVSPost2010PropOp32
 70
     1
102
RTVSPost2010Prop33
280
     0
102
RTVSPost2010PropOp33
 70
     1
102
RTVSPost2010Prop34
280
     0
102
RTVSPost2010PropOp34
 70
     1
102
RTVSPost2010Prop35
280
     0
102
RTVSPost2010PropOp35
 70
     1
102
RTVSPost2010Prop36
280
     0
102
RTVSPost2010PropOp36
 70
     1
102
RTVSPost2010Prop37
 90
       50
102
RTVSPost2010PropOp37
 70
     1
102
RTVSPost2010Prop38
140
0.0
102
RTVSPost2010PropOp38
 70
     1
102
RTVSPost2010Prop39
140
1.0
102
RTVSPost2010PropOp39
 70
     1
102
RTVSPost2010Prop40
 90
        0
102
RTVSPost2010PropOp40
 70
     1
102
RTVSPost2010Prop41ColorIndex
 90
       18
102
RTVSPost2010Prop41ColorRGB
 90
        0
102
RTVSPost2010PropOp41
 70
     1
102
RTVSPost2010Prop42
 90
       50
102
RTVSPost2010PropOp42
 70
     1
102
RTVSPost2010Prop43
 90
        3
102
RTVSPost2010PropOp43
 70
     1
102
RTVSPost2010Prop44ColorIndex
 90
        5
102
RTVSPost2010Prop44ColorRGB
 90
      255
102
RTVSPost2010PropOp44
 70
     1
102
RTVSPost2010Prop45
280
     0
102
RTVSPost2010PropOp45
 70
     1
102
RTVSPost2010Prop46
 90
       50
102
RTVSPost2010PropOp46
 70
     1
102
RTVSPost2010Prop47
 90
       50
102
RTVSPost2010PropOp47
 70
     1
102
RTVSPost2010Prop48
 90
       50
102
RTVSPost2010PropOp48
 70
     1
102
RTVSPost2010Prop49
280
     0
102
RTVSPost2010PropOp49
 70
     1
102
RTVSPost2010Prop50
 90
       50
102
RTVSPost2010PropOp50
 70
     1
102
RTVSPost2010Prop51ColorIndex
 90
      256
102
RTVSPost2010Prop51ColorRGB
 90
-16777216
102
RTVSPost2010PropOp51
 70
     0
102
RTVSPost2010Prop52
140
1.0
102
RTVSPost2010PropOp52
 70
     0
102
RTVSPost2010Prop53
 90
        2
102
RTVSPost2010PropOp53
 70
     1
102
RTVSPost2010Prop54
  1
strokes_ogs.tif
102
RTVSPost2010PropOp54
 70
     1
102
RTVSPost2010Prop55
280
     0
102
RTVSPost2010PropOp55
 70
     1
102
RTVSPost2010Prop56
140
1.0
102
RTVSPost2010PropOp56
 70
     1
102
RTVSPost2010Prop57
140
1.0
102
RTVSPost2010PropOp57
 70
     1
  0
XRECORD
  5
6DF
102
{ACAD_REACTORS
330
6DE
102
}
330
6DE
100
AcDbXrecord
280
     1
102
RTVSPropertyOp0
 70
     1
102
RTVSPropertyOp1
 70
     1
102
RTVSPropertyOp2
 70
     1
102
RTVSPropertyOp3
 70
     1
102
RTVSPropertyOp4
 70
     1
102
RTVSPropertyOp5
 70
     1
102
RTVSPropertyOp6
 70
     1
102
RTVSPropertyOp7
 70
     1
102
RTVSPropertyOp8
 70
     1
102
RTVSPropertyOp9
 70
     1
102
RTVSPropertyOp10
 70
     1
102
RTVSPropertyOp11
 70
     1
102
RTVSPropertyOp12
 70
     1
102
RTVSPropertyOp13
 70
     1
102
RTVSPropertyOp14
 70
     1
102
RTVSPropertyOp15
 70
     1
102
RTVSPropertyOp16
 70
     1
102
RTVSPropertyOp17
 70
     1
102
RTVSPropertyOp18
 70
     1
102
RTVSPropertyOp19
 70
     1
102
RTVSPropertyOp20
 70
     1
102
RTVSPropertyOp21
 70
     1
102
RTVSPropertyOp22
 70
     1
102
RTVSPropertyOp23
 70
     1
102
RTVSPropertyOp24
 70
     1
102
RTVSPropertyOp25
 70
     1
102
RTVSPropertyOp26
 70
     1
102
RTVSPropertyOp27
 70
     1
102
RTVSPropertyOp28
 70
     1
102
RTVSPropertyOp29
 70
     1
102
RTVSPropertyOp30
 70
     1
102
RTVSPropertyOp31
 70
     1
102
RTVSPropertyOp32
 70
     1
102
RTVSPropertyOp33
 70
     1
102
RTVSPropertyOp34
 70
     1
102
RTVSPropertyOp35
 70
     1
102
RTVSPropertyOp36
 70
     1
102
RTVSPropertyOp37
 70
     1
102
RTVSPropertyOp38
 70
     1
102
RTVSPropertyOp39
 70
     1
102
RTVSPropertyOp40
 70
     1
102
RTVSPropertyOp41
 70
     1
102
RTVSPropertyOp42
 70
     1
102
RTVSPropertyOp43
 70
     1
102
RTVSPropertyOp44
 70
     1
102
RTVSPropertyOp45
 70
     1
102
RTVSPropertyOp46
 70
     1
102
RTVSPropertyOp47
 70
     1
102
RTVSPropertyOp48
 70
     1
102
RTVSPropertyOp49
 70
     1
102
RTVSPropertyOp50
 70
     1
102
RTVSPropertyOp51
 70
     0
102
RTVSPropertyOp52
 70
     0
102
RTVSPropertyOp53
 70
     1
102
RTVSPropertyOp54
 70
     1
102
RTVSPropertyOp55
 70
     1
102
RTVSPropertyOp56
 70
     1
102
RTVSPropertyOp57
 70
     1
102
RTVSPost2010Prop28
280
     0
102
RTVSPost2010PropOp28
 70
     1
102
RTVSPost2010Prop29
280
     1
102
RTVSPost2010PropOp29
 70
     1
102
RTVSPost2010Prop30
280
     1
102
RTVSPost2010PropOp30
 70
     1
102
RTVSPost2010Prop31
280
     0
102
RTVSPost2010PropOp31
 70
     1
102
RTVSPost2010Prop32
280
     0
102
RTVSPost2010PropOp32
 70
     1
102
RTVSPost2010Prop33
280
     0
102
RTVSPost2010PropOp33
 70
     1
102
RTVSPost2010Prop34
280
     0
102
RTVSPost2010PropOp34
 70
     1
102
RTVSPost2010Prop35
280
     0
102
RTVSPost2010PropOp35
 70
     1
102
RTVSPost2010Prop36
280
     0
102
RTVSPost2010PropOp36
 70
     1
102
RTVSPost2010Prop37
 90
       50
102
RTVSPost2010PropOp37
 70
     1
102
RTVSPost2010Prop38
140
0.0
102
RTVSPost2010PropOp38
 70
     1
102
RTVSPost2010Prop39
140
1.0
102
RTVSPost2010PropOp39
 70
     1
102
RTVSPost2010Prop40
 90
        0
102
RTVSPost2010PropOp40
 70
     1
102
RTVSPost2010Prop41ColorIndex
 90
       18
102
RTVSPost2010Prop41ColorRGB
 90
        0
102
RTVSPost2010PropOp41
 70
     1
102
RTVSPost2010Prop42
 90
       50
102
RTVSPost2010PropOp42
 70
     1
102
RTVSPost2010Prop43
 90
        3
102
RTVSPost2010PropOp43
 70
     1
102
RTVSPost2010Prop44ColorIndex
 90
        5
102
RTVSPost2010Prop44ColorRGB
 90
      255
102
RTVSPost2010PropOp44
 70
     1
102
RTVSPost2010Prop45
280
     0
102
RTVSPost2010PropOp45
 70
     1
102
RTVSPost2010Prop46
 90
       50
102
RTVSPost2010PropOp46
 70
     1
102
RTVSPost2010Prop47
 90
       50
102
RTVSPost2010PropOp47
 70
     1
102
RTVSPost2010Prop48
 90
       50
102
RTVSPost2010PropOp48
 70
     1
102
RTVSPost2010Prop49
280
     0
102
RTVSPost2010PropOp49
 70
     1
102
RTVSPost2010Prop50
 90
       50
102
RTVSPost2010PropOp50
 70
     1
102
RTVSPost2010Prop51ColorIndex
 90
      256
102
RTVSPost2010Prop51ColorRGB
 90
-16777216
102
RTVSPost2010PropOp51
 70
     0
102
RTVSPost2010Prop52
140
1.0
102
RTVSPost2010PropOp52
 70
     0
102
RTVSPost2010Prop53
 90
        2
102
RTVSPost2010PropOp53
 70
     1
102
RTVSPost2010Prop54
  1
strokes_ogs.tif
102
RTVSPost2010PropOp54
 70
     1
102
RTVSPost2010Prop55
280
     0
102
RTVSPost2010PropOp55
 70
     1
102
RTVSPost2010Prop56
140
1.0
102
RTVSPost2010PropOp56
 70
     1
102
RTVSPost2010Prop57
140
1.0
102
RTVSPost2010PropOp57
 70
     1
  0
XRECORD
  5
6FF
102
{ACAD_REACTORS
330
6FE
102
}
330
6FE
100
AcDbXrecord
280
     1
102
RTVSPropertyOp0
 70
     1
102
RTVSPropertyOp1
 70
     1
102
RTVSPropertyOp2
 70
     1
102
RTVSPropertyOp3
 70
     1
102
RTVSPropertyOp4
 70
     1
102
RTVSPropertyOp5
 70
     1
102
RTVSPropertyOp6
 70
     1
102
RTVSPropertyOp7
 70
     1
102
RTVSPropertyOp8
 70
     1
102
RTVSPropertyOp9
 70
     1
102
RTVSPropertyOp10
 70
     1
102
RTVSPropertyOp11
 70
     1
102
RTVSPropertyOp12
 70
     1
102
RTVSPropertyOp13
 70
     1
102
RTVSPropertyOp14
 70
     1
102
RTVSPropertyOp15
 70
     1
102
RTVSPropertyOp16
 70
     1
102
RTVSPropertyOp17
 70
     1
102
RTVSPropertyOp18
 70
     1
102
RTVSPropertyOp19
 70
     1
102
RTVSPropertyOp20
 70
     1
102
RTVSPropertyOp21
 70
     1
102
RTVSPropertyOp22
 70
     1
102
RTVSPropertyOp23
 70
     1
102
RTVSPropertyOp24
 70
     1
102
RTVSPropertyOp25
 70
     1
102
RTVSPropertyOp26
 70
     1
102
RTVSPropertyOp27
 70
     1
102
RTVSPropertyOp28
 70
     1
102
RTVSPropertyOp29
 70
     1
102
RTVSPropertyOp30
 70
     1
102
RTVSPropertyOp31
 70
     1
102
RTVSPropertyOp32
 70
     1
102
RTVSPropertyOp33
 70
     1
102
RTVSPropertyOp34
 70
     1
102
RTVSPropertyOp35
 70
     1
102
RTVSPropertyOp36
 70
     1
102
RTVSPropertyOp37
 70
     1
102
RTVSPropertyOp38
 70
     1
102
RTVSPropertyOp39
 70
     1
102
RTVSPropertyOp40
 70
     1
102
RTVSPropertyOp41
 70
     1
102
RTVSPropertyOp42
 70
     1
102
RTVSPropertyOp43
 70
     1
102
RTVSPropertyOp44
 70
     1
102
RTVSPropertyOp45
 70
     1
102
RTVSPropertyOp46
 70
     1
102
RTVSPropertyOp47
 70
     1
102
RTVSPropertyOp48
 70
     1
102
RTVSPropertyOp49
 70
     1
102
RTVSPropertyOp50
 70
     1
102
RTVSPropertyOp51
 70
     0
102
RTVSPropertyOp52
 70
     0
102
RTVSPropertyOp53
 70
     1
102
RTVSPropertyOp54
 70
     1
102
RTVSPropertyOp55
 70
     1
102
RTVSPropertyOp56
 70
     1
102
RTVSPropertyOp57
 70
     1
102
RTVSPost2010Prop28
280
     0
102
RTVSPost2010PropOp28
 70
     1
102
RTVSPost2010Prop29
280
     1
102
RTVSPost2010PropOp29
 70
     1
102
RTVSPost2010Prop30
280
     1
102
RTVSPost2010PropOp30
 70
     1
102
RTVSPost2010Prop31
280
     0
102
RTVSPost2010PropOp31
 70
     1
102
RTVSPost2010Prop32
280
     0
102
RTVSPost2010PropOp32
 70
     1
102
RTVSPost2010Prop33
280
     0
102
RTVSPost2010PropOp33
 70
     1
102
RTVSPost2010Prop34
280
     0
102
RTVSPost2010PropOp34
 70
     1
102
RTVSPost2010Prop35
280
     0
102
RTVSPost2010PropOp35
 70
     1
102
RTVSPost2010Prop36
280
     0
102
RTVSPost2010PropOp36
 70
     1
102
RTVSPost2010Prop37
 90
       50
102
RTVSPost2010PropOp37
 70
     1
102
RTVSPost2010Prop38
140
0.0
102
RTVSPost2010PropOp38
 70
     1
102
RTVSPost2010Prop39
140
1.0
102
RTVSPost2010PropOp39
 70
     1
102
RTVSPost2010Prop40
 90
        0
102
RTVSPost2010PropOp40
 70
     1
102
RTVSPost2010Prop41ColorIndex
 90
       18
102
RTVSPost2010Prop41ColorRGB
 90
        0
102
RTVSPost2010PropOp41
 70
     1
102
RTVSPost2010Prop42
 90
       50
102
RTVSPost2010PropOp42
 70
     1
102
RTVSPost2010Prop43
 90
        3
102
RTVSPost2010PropOp43
 70
     1
102
RTVSPost2010Prop44ColorIndex
 90
        5
102
RTVSPost2010Prop44ColorRGB
 90
      255
102
RTVSPost2010PropOp44
 70
     1
102
RTVSPost2010Prop45
280
     0
102
RTVSPost2010PropOp45
 70
     1
102
RTVSPost2010Prop46
 90
       50
102
RTVSPost2010PropOp46
 70
     1
102
RTVSPost2010Prop47
 90
       50
102
RTVSPost2010PropOp47
 70
     1
102
RTVSPost2010Prop48
 90
       50
102
RTVSPost2010PropOp48
 70
     1
102
RTVSPost2010Prop49
280
     0
102
RTVSPost2010PropOp49
 70
     1
102
RTVSPost2010Prop50
 90
       50
102
RTVSPost2010PropOp50
 70
     1
102
RTVSPost2010Prop51ColorIndex
 90
      256
102
RTVSPost2010Prop51ColorRGB
 90
-16777216
102
RTVSPost2010PropOp51
 70
     0
102
RTVSPost2010Prop52
140
1.0
102
RTVSPost2010PropOp52
 70
     0
102
RTVSPost2010Prop53
 90
        2
102
RTVSPost2010PropOp53
 70
     1
102
RTVSPost2010Prop54
  1
strokes_ogs.tif
102
RTVSPost2010PropOp54
 70
     1
102
RTVSPost2010Prop55
280
     0
102
RTVSPost2010PropOp55
 70
     1
102
RTVSPost2010Prop56
140
1.0
102
RTVSPost2010PropOp56
 70
     1
102
RTVSPost2010Prop57
140
1.0
102
RTVSPost2010PropOp57
 70
     1
  0
ENDSEC
  0
SECTION
  2
THUMBNAILIMAGE
 90
    16364
310
28000000B4000000550000000100080000000000C43B000000000000000000000001000000010000FFFFFF000000FF0000FFFF0000FF0000FFFF0000FF000000FF00FF000000000080808000C0C0C0000000FF007F7FFF000000A5005252A50000007F003F3F7F0000004C0026264C000000260013132600003FFF007F9FFF
310
000029A5005267A500001F7F003F4F7F0000134C00262F4C000009260013172600007FFF007FBFFF000052A500527CA500003F7F003F5F7F0000264C0026394C0000132600131C260000BFFF007FDFFF00007CA5005291A500005F7F003F6F7F0000394C0026424C00001C26001321260000FFFF007FFFFF0000A5A50052A5
310
A500007F7F003F7F7F00004C4C00264C4C00002626001326260000FFBF007FFFDF0000A57C0052A59100007F5F003F7F6F00004C3900264C420000261C001326210000FF7F007FFFBF0000A5520052A57C00007F3F003F7F5F00004C2600264C39000026130013261C0000FF3F007FFF9F0000A5290052A56700007F1F003F
310
7F4F00004C1300264C2F00002609001326170000FF00007FFF7F0000A5000052A55200007F00003F7F3F00004C0000264C260000260000132613003FFF00009FFF7F0029A5000067A552001F7F00004F7F3F00134C00002F4C260009260000172613007FFF0000BFFF7F0052A500007CA552003F7F00005F7F3F00264C0000
310
394C2600132600001C261300BFFF0000DFFF7F007CA5000091A552005F7F00006F7F3F00394C0000424C26001C26000021261300FFFF0000FFFF7F00A5A50000A5A552007F7F00007F7F3F004C4C00004C4C26002626000026261300FFBF0000FFDF7F00A57C0000A59152007F5F00007F6F3F004C3900004C422600261C00
310
0026211300FF7F0000FFBF7F00A5520000A57C52007F3F00007F5F3F004C2600004C39260026130000261C1300FF3F0000FF9F7F00A5290000A56752007F1F00007F4F3F004C1300004C2F26002609000026171300FF000000FF7F7F00A5000000A55252007F0000007F3F3F004C0000004C2626002600000026131300FF00
310
3F00FF7F9F00A5002900A55267007F001F007F3F4F004C0013004C262F002600090026131700FF007F00FF7FBF00A5005200A5527C007F003F007F3F5F004C0026004C2639002600130026131C00FF00BF00FF7FDF00A5007C00A55291007F005F007F3F6F004C0039004C26420026001C0026132100FF00FF00FF7FFF00A5
310
00A500A552A5007F007F007F3F7F004C004C004C264C002600260026132600BF00FF00DF7FFF007C00A5009152A5005F007F006F3F7F0039004C0042264C001C002600211326007F00FF00BF7FFF005200A5007C52A5003F007F005F3F7F0026004C0039264C00130026001C1326003F00FF009F7FFF002900A5006752A500
310
1F007F004F3F7F0013004C002F264C000900260017132600000000002D2D2D005B5B5B0089898900B7B7B700B3B3B30000000000000000000000000000000000000000000000000000000000000000000000000000000000000000000000000000000000000000000000000000000000000000000000000000000000000000
310
00000000000000000000000000000000000000000000000000000000000000000000000000000000000000000000000000000000000000000000000000000000000000000000000000000000000000000000000000000000000000000000000000000000000000000000000000000000000000000000000000000000000000
310
00000000000000000000000000000000000000000000000000000000000000000000000000000000000000000000000000000000000000000000000000000000000000000000000000000000000000000000000000000000000000000000000000000000000000000000000000000000000000000000000000000000000000
310
00000000000000000000000000000000000000000000000000000000000000000000000000000000000000000000000000000000000000000000000000000000000000000000000000000000000000000000000000000000000000000000000000000000000000000000000000000000000000000000000000000000000000
310
00000000000000000000000000000000000000000000000000000000000000000000000000000000000000000000000000000000000000000000000000000000000000000000000000000000000000000000000000000000000000000000000000000000000000000000000000000000000000000000000000000000000000
310
00000000000000000000000000000000000000000000000000000000000000000000000000000000000000000000000000000000000000000000000000000000000000000000000000000000000000000000000000000000000000000000000000000000000000000000000000000000000000000000000000000000000000
310
00000000000000000000000000000000000000000000000000000000000000000000000000000000000000000000000000000000000000000000000000000000000000000000000000000000000000000000000000000000000000000000000000000000000000000000000000000000000000000000000000000000000000
310
00000000000000000000000000000000000000000000000000000000000000000000000000000000000000000000000000000000000000000000000000000000000000000000000000000000000000000000000000000000000000000000000000000000000000000000000000000000000000000000000000000000000000
310
00000000000000000000000000000000000000000000000000000000000000000000000000000000000000000000000000000000000000000000000000000000000000000000000000000000000000000000000000000000000000000000000000000000000000000000000000000000000000000000000000000000000000
310
00000000000000000000000000000000000000000000000000000000000000000000000000000000000000000000000000000000000000000000000000000000000000000000000000000000000000000000000000000000000000000000000000000000000000000000000000000000000000000000000000000000000000
310
00000000000000000000000000000000000000000000000000000000000000000000000000000000000000000000000000000000000000000000000000000000000000000000000000000000000000000000000000000000000000000000000000000000000000000000000000000000000000000000000000000000000000
310
00000000000000000000000000000000000000000000000000000000000000000000000000000000000000000000000000000000000000000000000000000000000000000000000000000000000000000000000000000000000000000000000000000000000000000000000000000000000000000000000000000000000000
310
00000000000000000000000000000000000000000000000000000000000000000000000000000000000000000000000000000000000000000000000000000000000000000000000000000000000000000000000000000000000000000000000000000000000000000000000000000000000000000000000000000000000000
310
00000000000000000000000000000000000000000000000000000000000000000000000000000000000000000000000000000000000000000000000000000000000000000000000000000000000000000000000000000000000000000000000000000000000000000000000000000000000000000000000000000000000000
310
00000000000000000000000000000000000000000000000000000000000000000000000000000000000000000000000000000000000000000000000000000000000000000000000000000000000000000000000000000000000000000000000000000000000000000000000000000000000000000000000000000000000000
310
00000000000000000000000000000000000000000000000000000000000000000000000000000000000000000000000000000000000000000000000000000000000000000000000000000000000000000000000000000000000000000000000000000000000000000000000000000000000000000000000000000000000000
310
00000000000000000000000000000000000000000000000000000000000000000003030303030303010303030303030000000000000202020200000000000000000003030303030300000000000000000003030303030300000000000000000000000000000000000000000000000000000000000000000000000000000000
310
00000000000000000000000000000000000000000000000000000000000000000000000000000000000000000000000000000000000000000000000000000000000000000000000000000000000000000000000000000301000000000301030000030103000000000000020202020000000000000000030300010300030303
310
03030303030103030003010003000000000000000000000000000000000000000000000000000000000000000000000000000000000000000000000000000000000000000000000000000000000000000000000000000000000000000000000000000000000000000000000000000000000000000000000000000000000000
310
00000000000000000000000003010303010101010101030303030000000000000000000000000000000000030303030303030303030303000001010003030303030300000000000000000000000000000000000000000000000000000000000000000000000000000000000000000000000000000000000000000000000000
310
00000000000000000000000000000000000000000000000000000000000000000000000000000000000000000000000000000000000000000000000000000000000000030301030001030301030000000000000000000000000000000000000003030303030303000000000300000301000003000003000000000000000000
310
00000000000000000000000000000000000000000000000000000000000000000000000000000000000000000000000000000000000000000000000000000000000000000000000000000000000000000000000000000000000000000000000000000000000000000000000000000000000000000000000003010303030103
310
03030303000000000000000000000000000000000000030303000000030000000003000000010000030000030303000000000000000000000000000000000000000000000000000000000000000000000000000000000000000000000000000000000000000000000000000000000000000000000000000000000000000000
310
00000000000000000000000000000000000000000000000000000000000000000000000000000000000000000003030303000001000303010300000000000000000000000000000000000003030300000003000000000300000301000003000003030100000000000000000000000000000000000000000000000000000000
310
00000000000000000000000000000000000000000000000000000000000000000000000000000000000000000000000000000000000000000000000000000000000000000000000000000000000000000000000000000000000000000000000000000301000300000100030303030000000000000000000000000000000000
310
00030303000000030000000003000101010100030000030300000000000000000000000000000000000000000000000000000000000000000000000000000000000000000000000000000000000000000000000000000000000000000000000000000000000000000000000000000000000000000000000000000000000000
310
00000000000000000000000000000000000000000000000001010101010101010101010101000000000000000000000000000000000001010101010101010301010103030303030301010103010100000000000000000000000000000000000000000000000000000000000000000000000000000000000000000000000000
310
00000000000000000000000000000000000000000000000000000000000000000000000000000000000000000000000000000000000000000000000000000000000000000000000000000000000301030300000100030301010000000000000000000000000000000000000303030000000300030003030303030303030303
310
00030303000000000000000000000000000000000000000000000000000000000000000000000000000000000000000000000000000000000000000000000000000000000000000000000000000000000000000000000000000000000000000000000000000000000000000000000000000000000000000000000000000000
310
00000003010103030301030303010300000000000000000000000000000000000003030303030303000303000300030001030003030303030300000000000000000000000000000000000000000000000000000000000000000000000000000000000000000000000000000000000000000000000000000000000000000000
310
00000000000000000000000000000000000000000000000000000000000000000000000000000000000000000000000000000000000000000303010303030103030101030300000000000000000000000000000000000003030303030300030303000003000103000003030303000000000000000000000000000000000000
310
00000000000000000000000000000000000000000000000000000000000000000000000000000000000000000000000000000000000000000000000000000000000000000000000000000000000000000000000000000000000000000000000000000000000000000003030303030300010103010101010003030000000000
310
00000000000000000000000001030303010303030303000003030301030300000303030000000000000000000000000000000000000000000000000000000000000000000000000000000000000000000000000000000000000000000000000000000000000000000000000000000000000000000000000000000000000000
310
00000000000000000000000000000000000000000000000000000000000003030303030101010101010101010101010100000000000000000000000000000000000001010301010303030303030300000100030303030303000000000000000000000000000000000000000000000000000000000000000000000000000000
310
00000000000000000000000000000000000000000000000000000000000000000000000000000000000000000000000000000000000000000000000000000000000000000000000000000000000000000000000303030303030000000000010000000003030000000000000000000000000000000000000003030303030303
310
00000003000001000300000003030000000000000000000000000000000000000000000000000000000000000000000000000000000000000000000000000000000000000000000000000000000000000000000000000000000000000000000000000000000000000000000000000000000000000000000000000000000000
310
00000000000000000101010101010103030101010101010303010300000000000000000000000000000000000000030303030303030101010101010101010101010303000000000000000000000000000000000000000000000000000000000000000000000000000000000000000000000000000000000000000000000000
310
00000000000000000000000000000000000000000000000000000000000000000000000000000000000000000000000000000000000000000000000000000303030303030303000000010000030303000000000000000000000000000000000000000000000103000303030300030000010003000303030300000000000000
310
00000000000000000000000000000000000000000000000000000000000000000000000000000000000000000000000000000000000000000000000000000000000000000000000000000000000000000000000000000000000000000000000000000000000000000000000000000000000000030303030303030300000001
310
00000303010000000000000000000000000000000000000000000001000003030300030300000100030300030303000000000000000000000000000000000000000000000000000000000000000000000000000000000000000000000000000000000000000000000000000000000000000000000000000000000000000000
310
00000000000000000000000000000000000000000000000000000000000000000000000000000000000000000000000303000000010000030300000000000000000000000000000000000000000000000000000003030000030303010303000003030300000000000000000000000000000000000000000000000000000000
310
00000000000000000000000000000000000000000000000000000000000000000000000000000000000000000000000000000000000000000000000000000000000000000000000000000000000000000000000000000000000000000000000000000000030300000001000003030000000000000000000000000000000000
310
00000000000000000000030303000303030303030003030003000000000000000000000000000000000000000000000000000000000000000000000000000000000000000000000000000000000000000000000000000000000000000000000000000000000000000000000000000000000000000000000000000000000000
310
00000000000000000000000000000000000000000000000000000303000000010000030300000000000000000000000000000000000000000000000000000003030003030303010303030003030000000000000000000000000000000000000000000000000000000000000000000000000000000000000000000000000000
310
00000000000000000000000000000000000000000000000000000000000000000000000000000000000000000000000000000000000000000000000000000000000000000000000000000000000000030301000001000003030000000000000000000000000000000000000000000000000000000300030303030303030303
310
03000300000000000000000000000000000000000000000000000000000000000000000000000000000000000000000000000000000000000000000000000000000000000000000000000000000000000000000000000000000000000000000000000000000000000000000000000000000000000000000000000000000000
310
00000000000303030303010303030300000000000000000000000000000000000000000000000000000003030303030303030303030303030000000000000000000000000000000000000000000000000000000000000000000000000000000000000000000000000000000000000000000000000000000000000000000000
310
00000000000000000000000000000000000000000000000000000000000000000000000000000000000000000000000000000000000000000000000000000301030000000000000000000000000000000000000000000000000000000000000001010101000301000101010100000000000000000000000000000000000000
310
00000000000000000000000000000000000000000000000000000000000000000000000000000000000000000000000000000000000000000000000000000000000000000000000000000000000000000000000000000000000000000000000000000000000000000000000000000000000000030100000000000000000000
310
00000000000000000000000000000000000000000000030303000000000000030303000000000000000000000000000000000000000000000000000000000000000000000000000000000000000000000000000000000000000000000000000000000000000000000000000000000000000000000000000000000000000000
310
00000000000000000000000000000000000000000000000000000000000000000000000000000000000001000000000000000000000000000000000000000000000000000000000000000000010000000000000000010000000000000000000000000000000000000000000000000000000000000000000000000000000000
310
00000000000000000000000000000000000000000000000000000000000000000000000000000000000000000000000000000000000000000000000000000000000000000000000000000000000000000000000000000000000000000000000000000000000000000000000000000000000000000000000000000000000000
310
00000000000000000000000000000000000000000000000000000000000000000000000000000000000000000000000000000000000000000000000000000000000000000000000000000000000000000000000000000000000000000000000000000000000000000000000000000000000000000000000000000000000000
310
00000000000000000000000000000000000000000000000000000000000000000000000000000000000000000000000000000000000000000000000000000000000000000000000000000000000000000000000000000000000000000000000000000000000000000000000000000000000000000000000000000000000000
310
00000000000000000000000000000000000000000000000000000000000000000000000000000000000000000000000000000000000000000000000000000000000000000000000000000000000000000000000000000000000000000000000000000000000000000000000000000000000000000000000000000000000000
310
00000000000000000000000000000000000000000000000000000000000000000000000000000000000000000000000000000000000000000000000000000000000000000000000000000000000000000000000000000000000000000000000000000000000000000000000000000000000000000000000000000000000000
310
00000000000000000000000000000000000000000000000000000000000000000000000000000000000000000000000000000000000000000000000000000000000000000000000000000000000000000000000000000000000000000000000000000000000000000000000000000000000000000000000000000000000000
310
00000000000000000000000000000000000000000000000000000000000000000000000000000000000000000000000000000000000000000000000000000000000000000000000000000000000000000000000000000000000000000000000000000000000000000000000000000000000000000000000000000000000000
310
00000000000000000000000000000000000000000000000000000000000000000000000000000000000000000000000000000000000000000000000000000000000000000000000000000000000000000000000000000000000000000000000000000000000000000000000000000000000000000000000000000000000000
310
00000000000000000000000000000000000000000000000000000000000000000000000000000000000000000000000000000000000000000000000000000000000000000000000000000000000000000000000000000000000000000000000000000000000000000000000000000000000000000000000000000000000000
310
00000000000000000000000000000000000000000000000000000000000000000000000000000000000000000000000000000000000000000000000000000000000000000000000000000000000000000000000000000000000000000000000000000000000000000000000000000000000000000000000000000000000000
310
00000000000000000000000000000000000000000000000000000000000000000000000000000000000000000000000000000000000000000000000000000000000000000000000000000000000000000000000000000000000000000000000000000000000000000000000000000000000000000000000000000000000000
310
00000000000000000000000000000000000000000000000000000000000000000000000000000000000000000000000000000000000000000000000000000000000000000000000000000000000000000000000000000000000000000000000000000000000000000000000000000000000000000000000000000000000000
310
00000000000000000000000000000000000000000000000000000000000000000000000000000000000000000000000000000000000000000000000000000000000000000000000000000000000000000000000000000000000000000000000000000000000000000000000000000000000000000000000000000000000000
310
00000000000000000000000000000000000000000000000000000000000000000000000000000000000000000000000000000000000000000000000000000000000000000000000000000000000000000000000000000000000000000000000000000000000000000000000000000000000000000000000000000000000000
310
00000000000000000000000000000000000000000000000000000000000000000000000000000000000000000000000000000000000000000000000000000000000000000000000000000000000000000000000000000000000000000000000000000000000000000000000000000000000000000000000000000000000000
310
00000000000000000000000000000000000000000000000000000000000000000000000000000000000000000000000000000000000000000000000000000000000000000000000000000000000000000000000000000000000000000000000000000000000000000000000000000000000000000000000000000000000000
310
00000000000000000000000000000000000000000000000000000000000000000000000000000000030303010303000000000000000000000000000000000000000000000000000000000000000000000000000000000000000000000000000000000000000000000000000000000000000000000000000000000000000000
310
00000000000000000000000000000000000000000000000000000000000000000000000000000000000000000000000000000000000000000000000000000000000000000000000000000000000000000000000000000000000003030303030301030303030300000000000000000000000000000000000000000000000000
310
00000000000000000000000000000000000000000000000000000000000000000000000000000000000000000000000000000000000000000000000000000000000000000000000000000000000000000000000000000000000000000000000000000000000000000000000000000000000000000000000000000000000000
310
00000000000000000000000000000003030303030303010303030303030000000000000000000000000000000000000000000000000000000000000000000000000000000000000000000000000000000000000000000000000000000000000000000000000000000000000000000000000000000000000000000000000000
310
00000000000000000000000000000000000000000000000000000000000000000000000000000000000000000000000000000000000000000000000000000000000000000303000000000001000000000303000000000000000000000000000000000000000000000000000000000000000000000000000000000000000000
310
00000000000000000000000000000000000000000000000000000000000000000000000000000000000000000000000000000000000000000000000000000000000000000000000000000000000000000000000000000000000000000000000000000000000000000000000000000000000000010300030303030303000000
310
00010000000303030000000000000000000000000000000000000000000000000000000000000000000000000000000000000000000000000000000000000000000000000000000000000000000000000000000000000000000000000000000000000000000000000000000000000000000000000000000000000000000000
310
00000000000000000000000000000000000000000000000000000000000000000000000000000000010103010101010303010301010101010103010303000000000000000000000000000000000000000000000000000000000000000000000000000000000000000000000000000000000000000000000000000000000000
310
00000000000000000000000000000000000000000000000000000000000000000000000000000000000000000000000000000000000000000000000000000000000000000000000000000000000000000000000000000000000000000000010000000000000301030000000100000300030300000000000000000000000000
310
00000000000000000000000000000000000000000000000000000000000000000000000000000000000000000000000000000000000000000000000000000000000000000000000000000000000000000000000000000000000000000000000000000000000000000000000000000000000000000000000000000000000000
310
00000000000000000000000000000000000000000000000000000003030300000001000003030303000000000000000000000000000000000000000000000000000000000000000000000000000000000000000000000000000000000000000000000000000000000000000000000000000000000000000000000000000000
310
00000000000000000000000000000000000000000000000000000000000000000000000000000000000000000000000000000000000000000000000000000000000000000000000000000000000000000003030303030103030303000000000000000000000000000000000000000000000000000000000000000000000000
310
00000000000000000000000000000000000000000000000000000000000000000000000000000000000000000000000000000000000000000000000000000000000000000000000000000000000000000000000000000000000000000000000000000000000000000000000000000000000000000000000000000000000000
310
00000000000000030300000001000003030000000000000000000000000000000000000000000000000000000000000000000000000000000000000000000000000000000000000000000000000000000000000000000000000000000000000000000000000000000000000000000000000000000000000000000000000000
310
00000000000000000000000000000000000000000000000000000000000000000000000000000000000000000000000000000000000000000000000003030000030100000303000000000000000000000000000000000000000000000000000000000000000000000000000000000000000000000000000000000000000000
310
00000000000000000000000000000000000000000000000000000000000000000000000000000000000000000000000000000000000000000000000000000000000000000000000000000000000000000000000000000000000000000000000000000000000000000000000000000000000303000103010100030300000000
310
00000000000000000000000000000000000000000000000000000000000000000000000000000000000000000000000000000000000000000000000000000000000000000000000000000000000000000000000000000000000000000000000000000000000000000000000000000000000000000000000000000000000000
310
00000000000000000000000000000000000000000000000000000000000000000000000000000003030000030100000303000000000000000000000000000000000000000000000000000000000000000000000000000000000000000000000000000000000000000000000000000000000000000000000000000000000000
310
00000000000000000000000000000000000000000000000000000000000000000000000000000000000000000000000000000000000000000000000000000000000000000000000000000000000000000000010000000000000000000303000000010000030300000000000000000000000000000000000000000000000000
310
00000000000000000000000000000000000000000000000000000000000000000000000000000000000000000000000000000000000000000000000000000000000000000000000000000000000000000000000000000000000000000000000000000000000000000000000000000000000000000000000000000000000000
310
00000000000000030103000003030303030303030000030100000303000000000000000000000000000000000000000000000000000000000000000000000000000000000000000000000000000000000000000000000000000000000000000000000000000000000000000000000000000000000000000000000000000000
310
00000000000000000000000000000000000000000000000000000000000000000000000000000000000000000000000000000000000000000000000303010301000303030303010101010101010101010101000000000000000000000000000000000000000000000000000000000000000000000000000000000000000000
310
00000000000000000000000000000000000000000000000000000000000000000000000000000000000000000000000000000000000000000000000000000000000000000000000000000000000000000000000000000000000000000000000000000000000000000000000000000000000301030300030303030303030300
310
00030100000303000000000000000000000000000000000000000000000000000000000000000000000000000000000000000000000000000000000000000000000000000000000000000000000000000000000000000000000000000000000000000000000000000000000000000000000000000000000000000000000000
310
00000000000000000000000000000000000000000000000000000000000000000000000000000000010000000303030303030303000000010000030300000000000000000000000000000000000000000000000000000000000000000000000000000000000000000000000000000000000000000000000000000000000000
310
00000000000000000000000000000000000000000000000000000000000000000000000000000000000000000000000000000000000000000000000000000000000000000000000000000000000000000000000000000000000000000000000000000000000000030300000301000003030000000000000000000000000000
310
00000000000000000000000000000000000000000000000000000000000000000000000000000000000000000000000000000000000000000000000000000000000000000000000000000000000000000000000000000000000000000000000000000000000000000000000000000000000000000000000000000000000000
310
00000000000000000000000000000000000000000000000000000000030303000103010300030303000000000000000000000000000000000000000000000000000000000000000000000000000000000000000000000000000000000000000000000000000000000000000000000000000000000000000000000000000000
310
00000000000000000000000000000000000000000000000000000000000000000000000000000000000000000000000000000000000000000000000000000000000000000000000000000000000000000301030300000301000003030103000000000000000000000000000000000000000000000000000000000000000000
310
00000000000000000000000000000000000000000000000000000000000000000000000000000000000000000000000000000000000000000000000000000000000000000000000000000000000000000000000000000000000000000000000000000000000000000000000000000000000000000000000000000000000000
310
00000000000003010303000000010000030101010000000000000000000000000000000000000000000000000000000000000000000000000000000000000000000000000000000000000000000000000000000000000000000000000000000000000000000000000000000000000000000000000000000000000000000000
310
00000000000000000000000000000000000000000000000000000000000000000000000000000000000000000000000000000000000000000000000301030303030301030303030103000000000000000000000000000000000000000000000000000000000000000000000000000000000000000000000000000000000000
310
00000000000000000000000000000000000000000000000000000000000000000000000000000000000000000000000000000000000000000000000000000000000000000000000000000000000000000000000000000000000000000000000000000000000000000000000000000000030303030303030103030303030300
310
00000000000000000000000000000000000000000000000000000000000000000000000000000000000000000000000000000000000000000000000000000000000000000000000000000000000000000000000000000000000000000000000000000000000000000000000000000000000000000000000000000000000000
310
00000000000000000000000000000000000000000000000000000000000000000000000000000000000000000000000000000000000000000000000000000000000000000000000000000000000000000000000000000000000000000000000000000000000000000000000000000000000000000000000000000000000000
310
00000000000000000000000000000000000000000000000000000000000000000000000000000000000000000000000000000000000000000000000000000000000000000000000000000000000000000000000000000000000000000000000000000000000000000000000000000000000000000000000000000000000000
310
00000000000000000000000000000000000000000000000000000000000000000000000000000000000000000000000000000000000000000000000000000000000000000000000000000000000000000000000000000000000000000000000000000000000000000000000000000000000000000000000000000000000000
310
00000000000000000000000000000000000000000000000000000000000000000000000000000000000000000000000000000000000000000000000000000000000000000000000000000000000000000000000000000000000000000000000000000000000000000000000000000000000000000000000000000000000000
310
00000000000000000000000000000000000000000000000000000000000000000000000000000000000000000000000000000000000000000000000000000000000000000000000000000000000000000000000000000000000000000000000000000000000000000000000000000000000000000000000000000000000000
310
00000000000000000000000000000000000000000000000000000000000000000000000000000000000000000000000000000000000000000000000000000000000000000000000000000000000000000000000000000000000000000000000000000000000000000000000000000000000000000000000000000000000000
310
00000000000000000000000000000000000000000000000000000000000000000000000000000000000000000000000000000000000000000000000000000000000000000000000000000000000000000000000000000000000000000000000000000000000000000000000000000000000000000000000000000000000000
310
00000000000000000000000000000000000000000000000000000000000000000000000000000000000000000000000000000000000000000000000000000000000000000000000000000000000000000000000000000000000000000000000000000000000000000000000000000000000000000000000000000000000000
310
00000000000000000000000000000000000000000000000000000000000000000000000000000000000000000000000000000000000000000000000000000000000000000000000000000000000000000000000000000000000000000000000000000000000000000000000000000000000000000000000000000000000000
310
00000000000000000000000000000000000000000000000000000000000000000000000000000000000000000000000000000000000000000000000000000000000000000000000000000000000000000000000000000000000000000000000000000000000000000000000000000000000000000000000000000000000000
310
00000000000000000000000000000000000000000000000000000000000000000000000000000000000000000000000000000000000000000000000000000000000000000000000000000000000000000000000000000000000000000000000000000000000000000000000000000000000000000000000000000000000000
310
00000000000000000000000000000000000000000000000000000000000000000000000000000000000000000000000000000000000000000000000000000000000000000000000000000000000000000000000000000000000000000000000000000000000000000000000000000000000000000000000000000000000000
310
00000000000000000000000000000000000000000000000000000000000000000000000000000000000000000000000000000000000000000000000000000000000000000000000000000000000000000000000000000000000000000000000000000000000000000000000000000000000000000000000000000000000000
310
00000000000000000000000000000000000000000000000000000000000000000000000000000000000000000000000000000000000000000000000000000000000000000000000000000000000000000000000000000000000000000000000000000000000000000000000000000000000000000000000000000000000000
310
00000000000000000000000000000000000000000000000000000000000000000000000000000000000000000000000000000000000000000000000000000000000000000000000000000000000000000000000000000000000000000000000000000000000000000000000000000000000000000000000000000000000000
310
00000000000000000000000000000000000000000000000000000000000000000000000000000000000000000000000000000000000000000000000000000000000000000000000000000000000000000000000000000000000000000000000000000000000000000000000000000000000000000000000000000000000000
310
00000000000000000000000000000000000000000000000000000000000000000000000000000000000000000000000000000000000000000000000000000000000000000000000000000000000000000000000000000000000000000000000000000000000000000000000000000000000000000000000000000000000000
310
00000000000000000000000000000000000000000000000000000000000000000000000000000000000000000000000000000000000000000000000000000000000000000000000000000000000000000000000000000000000000000000000000000000000000000000000000000000000000000000000000000000000000
310
00000000000000000000000000000000000000000000000000000000000000000000000000000000000000000000000000000000000000000000000000000000000000000000000000000000000000000000000000000000000000000000000000000000000000000000000000000000000000000000000000000000000000
310
000000000000000000000000000000000000000000000000000000000000000000000000000000000000000000000000000000000000000000000000000000000000000000000000000000000000000000000000000000000000000000000000000000000000000000000000
  0
ENDSEC
  0
EOF
