  0
SECTION
  2
HEADER
  9
$ACADVER
  1
AC1015
  9
$ACADMAINTVER
 70
     6
  9
$DWGCODEPAGE
  3
ANSI_932
  9
$INSBASE
 10
1378.981063364641
 20
772.8842346707769
 30
0.0
  9
$EXTMIN
 10
142.5786222910317
 20
14.86174230287338
 30
0.0
  9
$EXTMAX
 10
1103.56311140329
 20
994.6693929220062
 30
0.0
  9
$LIMMIN
 10
0.0
 20
0.0
  9
$LIMMAX
 10
816.5000000000001
 20
565.0
  9
$ORTHOMODE
 70
     1
  9
$REGENMODE
 70
     1
  9
$FILLMODE
 70
     1
  9
$QTEXTMODE
 70
     0
  9
$MIRRTEXT
 70
     1
  9
$LTSCALE
 40
20.0
  9
$ATTMODE
 70
     1
  9
$TEXTSIZE
 40
9.0
  9
$TRACEWID
 40
0.05
  9
$TEXTSTYLE
  7
KANJI
  9
$CLAYER
  8
2
  9
$CELTYPE
  6
BYLAYER
  9
$CECOLOR
 62
   256
  9
$CELTSCALE
 40
1.0
  9
$DISPSILH
 70
     0
  9
$DIMSCALE
 40
3.0
  9
$DIMASZ
 40
2.0
  9
$DIMEXO
 40
0.5
  9
$DIMDLI
 40
0.0
  9
$DIMRND
 40
0.0
  9
$DIMDLE
 40
0.0
  9
$DIMEXE
 40
1.0
  9
$DIMTP
 40
0.0
  9
$DIMTM
 40
0.0
  9
$DIMTXT
 40
3.0
  9
$DIMCEN
 40
0.09
  9
$DIMTSZ
 40
0.0
  9
$DIMTOL
 70
     0
  9
$DIMLIM
 70
     0
  9
$DIMTIH
 70
     0
  9
$DIMTOH
 70
     0
  9
$DIMSE1
 70
     0
  9
$DIMSE2
 70
     0
  9
$DIMTAD
 70
     0
  9
$DIMZIN
 70
     8
  9
$DIMBLK
  1

  9
$DIMASO
 70
     0
  9
$DIMSHO
 70
     0
  9
$DIMPOST
  1

  9
$DIMAPOST
  1

  9
$DIMALT
 70
     0
  9
$DIMALTD
 70
     2
  9
$DIMALTF
 40
25.4
  9
$DIMLFAC
 40
1.0
  9
$DIMTOFL
 70
     1
  9
$DIMTVP
 40
1.0
  9
$DIMTIX
 70
     1
  9
$DIMSOXD
 70
     1
  9
$DIMSAH
 70
     0
  9
$DIMBLK1
  1

  9
$DIMBLK2
  1

  9
$DIMSTYLE
  2
STANDARD
  9
$DIMCLRD
 70
   256
  9
$DIMCLRE
 70
   256
  9
$DIMCLRT
 70
   256
  9
$DIMTFAC
 40
1.0
  9
$DIMGAP
 40
0.09
  9
$DIMJUST
 70
     0
  9
$DIMSD1
 70
     0
  9
$DIMSD2
 70
     0
  9
$DIMTOLJ
 70
     1
  9
$DIMTZIN
 70
     0
  9
$DIMALTZ
 70
     0
  9
$DIMALTTZ
 70
     0
  9
$DIMUPT
 70
     0
  9
$DIMDEC
 70
     1
  9
$DIMTDEC
 70
     4
  9
$DIMALTU
 70
     2
  9
$DIMALTTD
 70
     2
  9
$DIMTXSTY
  7
STANDARD
  9
$DIMAUNIT
 70
     0
  9
$DIMADEC
 70
     0
  9
$DIMALTRND
 40
0.0
  9
$DIMAZIN
 70
     0
  9
$DIMDSEP
 70
    46
  9
$DIMATFIT
 70
     3
  9
$DIMFRAC
 70
     0
  9
$DIMLDRBLK
  1

  9
$DIMLUNIT
 70
     2
  9
$DIMLWD
 70
    -2
  9
$DIMLWE
 70
    -2
  9
$DIMTMOVE
 70
     0
  9
$LUNITS
 70
     2
  9
$LUPREC
 70
     3
  9
$SKETCHINC
 40
0.1
  9
$FILLETRAD
 40
5.0
  9
$AUNITS
 70
     0
  9
$AUPREC
 70
     3
  9
$MENU
  1
C:\R13\WIN\SUPPORT\ACADFULL
  9
$ELEVATION
 40
0.0
  9
$PELEVATION
 40
0.0
  9
$THICKNESS
 40
0.0
  9
$LIMCHECK
 70
     0
  9
$CHAMFERA
 40
0.0
  9
$CHAMFERB
 40
0.0
  9
$CHAMFERC
 40
0.0
  9
$CHAMFERD
 40
0.0
  9
$SKPOLY
 70
     0
  9
$TDCREATE
 40
2457431.830868264
  9
$TDUCREATE
 40
2457431.455868264
  9
$TDUPDATE
 40
2458116.486582431
  9
$TDUUPDATE
 40
2458116.111582431
  9
$TDINDWG
 40
0.0259346644
  9
$TDUSRTIMER
 40
0.0259340278
  9
$USRTIMER
 70
     1
  9
$ANGBASE
 50
0.0
  9
$ANGDIR
 70
     0
  9
$PDMODE
 70
     0
  9
$PDSIZE
 40
0.0
  9
$PLINEWID
 40
0.0
  9
$SPLFRAME
 70
     0
  9
$SPLINETYPE
 70
     6
  9
$SPLINESEGS
 70
     8
  9
$HANDSEED
  5
635
  9
$SURFTAB1
 70
     6
  9
$SURFTAB2
 70
     6
  9
$SURFTYPE
 70
     6
  9
$SURFU
 70
     6
  9
$SURFV
 70
     6
  9
$UCSBASE
  2

  9
$UCSNAME
  2

  9
$UCSORG
 10
0.0
 20
0.0
 30
0.0
  9
$UCSXDIR
 10
1.0
 20
0.0
 30
0.0
  9
$UCSYDIR
 10
0.0
 20
1.0
 30
0.0
  9
$UCSORTHOREF
  2

  9
$UCSORTHOVIEW
 70
     0
  9
$UCSORGTOP
 10
0.0
 20
0.0
 30
0.0
  9
$UCSORGBOTTOM
 10
0.0
 20
0.0
 30
0.0
  9
$UCSORGLEFT
 10
0.0
 20
0.0
 30
0.0
  9
$UCSORGRIGHT
 10
0.0
 20
0.0
 30
0.0
  9
$UCSORGFRONT
 10
0.0
 20
0.0
 30
0.0
  9
$UCSORGBACK
 10
0.0
 20
0.0
 30
0.0
  9
$PUCSBASE
  2

  9
$PUCSNAME
  2

  9
$PUCSORG
 10
0.0
 20
0.0
 30
0.0
  9
$PUCSXDIR
 10
1.0
 20
0.0
 30
0.0
  9
$PUCSYDIR
 10
0.0
 20
1.0
 30
0.0
  9
$PUCSORTHOREF
  2

  9
$PUCSORTHOVIEW
 70
     0
  9
$PUCSORGTOP
 10
0.0
 20
0.0
 30
0.0
  9
$PUCSORGBOTTOM
 10
0.0
 20
0.0
 30
0.0
  9
$PUCSORGLEFT
 10
0.0
 20
0.0
 30
0.0
  9
$PUCSORGRIGHT
 10
0.0
 20
0.0
 30
0.0
  9
$PUCSORGFRONT
 10
0.0
 20
0.0
 30
0.0
  9
$PUCSORGBACK
 10
0.0
 20
0.0
 30
0.0
  9
$USERI1
 70
     0
  9
$USERI2
 70
     0
  9
$USERI3
 70
     0
  9
$USERI4
 70
     0
  9
$USERI5
 70
     0
  9
$USERR1
 40
0.0
  9
$USERR2
 40
0.0
  9
$USERR3
 40
0.0
  9
$USERR4
 40
2448925.372986111
  9
$USERR5
 40
0.04166667
  9
$WORLDVIEW
 70
     1
  9
$SHADEDGE
 70
     3
  9
$SHADEDIF
 70
    70
  9
$TILEMODE
 70
     1
  9
$MAXACTVP
 70
    16
  9
$PINSBASE
 10
0.0
 20
0.0
 30
0.0
  9
$PLIMCHECK
 70
     0
  9
$PEXTMIN
 10
1000000000000000E+20
 20
1000000000000000E+20
 30
1000000000000000E+20
  9
$PEXTMAX
 10
-1000000000000000E+20
 20
-1000000000000000E+20
 30
-1000000000000000E+20
  9
$PLIMMIN
 10
0.0
 20
0.0
  9
$PLIMMAX
 10
12.0
 20
9.0
  9
$UNITMODE
 70
     0
  9
$VISRETAIN
 70
     0
  9
$PLINEGEN
 70
     0
  9
$PSLTSCALE
 70
     0
  9
$TREEDEPTH
 70
  3020
  9
$CMLSTYLE
  2
STANDARD
  9
$CMLJUST
 70
     0
  9
$CMLSCALE
 40
1.0
  9
$PROXYGRAPHICS
 70
     1
  9
$MEASUREMENT
 70
     0
  9
$CELWEIGHT
370
    -1
  9
$ENDCAPS
280
     0
  9
$JOINSTYLE
280
     0
  9
$LWDISPLAY
290
     0
  9
$INSUNITS
 70
     0
  9
$HYPERLINKBASE
  1

  9
$STYLESHEET
  1
monochrome.ctb
  9
$XEDIT
290
     1
  9
$CEPSNTYPE
380
     0
  9
$PSTYLEMODE
290
     1
  9
$FINGERPRINTGUID
  2
{EEE3D872-07DC-49B2-8673-C0E4C97DB6C5}
  9
$VERSIONGUID
  2
{36CBCA31-3C57-49E0-8EA7-6DB51AFA94E9}
  9
$EXTNAMES
290
     1
  9
$PSVPSCALE
 40
0.0
  9
$OLESTARTUP
290
     0
  0
ENDSEC
  0
SECTION
  2
CLASSES
  0
CLASS
  1
ACDBDICTIONARYWDFLT
  2
AcDbDictionaryWithDefault
  3
ObjectDBX Classes
 90
        0
280
     0
281
     0
  0
CLASS
  1
MATERIAL
  2
AcDbMaterial
  3
ObjectDBX Classes
 90
     1153
280
     0
281
     0
  0
CLASS
  1
SORTENTSTABLE
  2
AcDbSortentsTable
  3
ObjectDBX Classes
 90
        0
280
     0
281
     0
  0
CLASS
  1
SCALE
  2
AcDbScale
  3
ObjectDBX Classes
 90
     1153
280
     0
281
     0
  0
CLASS
  1
DICTIONARYVAR
  2
AcDbDictionaryVar
  3
ObjectDBX Classes
 90
        0
280
     0
281
     0
  0
CLASS
  1
VISUALSTYLE
  2
AcDbVisualStyle
  3
ObjectDBX Classes
 90
     4095
280
     0
281
     0
  0
CLASS
  1
MLEADERSTYLE
  2
AcDbMLeaderStyle
  3
ACDB_MLEADERSTYLE_CLASS
 90
     4095
280
     0
281
     0
  0
CLASS
  1
TABLESTYLE
  2
AcDbTableStyle
  3
ObjectDBX Classes
 90
     4095
280
     0
281
     0
  0
CLASS
  1
ACDBPLACEHOLDER
  2
AcDbPlaceHolder
  3
ObjectDBX Classes
 90
        0
280
     0
281
     0
  0
CLASS
  1
LAYOUT
  2
AcDbLayout
  3
ObjectDBX Classes
 90
        0
280
     0
281
     0
  0
ENDSEC
  0
SECTION
  2
TABLES
  0
TABLE
  2
VPORT
  5
26
102
{ACAD_XDICTIONARY
360
5FA
102
}
330
0
100
AcDbSymbolTable
 70
     3
  0
VPORT
  5
2B
330
26
100
AcDbSymbolTableRecord
100
AcDbViewportTableRecord
  2
*Active
 70
     0
 10
0.0
 20
0.0
 11
1.0
 21
1.0
 12
1231.527239174445
 22
459.6863575350923
 13
0.0
 23
0.0
 14
1.0
 24
1.0
 15
50.0
 25
50.0
 16
0.0
 26
0.0
 36
1.0
 17
0.0
 27
0.0
 37
0.0
 40
1503.781653655839
 41
1.827160493827161
 42
50.0
 43
0.0
 44
0.0
 50
0.0
 51
0.0
 71
     0
 72
  5000
 73
     1
 74
     0
 75
     0
 76
     0
 77
     0
 78
     0
281
     0
 65
     1
110
0.0
120
0.0
130
0.0
111
1.0
121
0.0
131
0.0
112
0.0
122
1.0
132
0.0
 79
     0
146
0.0
  0
ENDTAB
  0
TABLE
  2
LTYPE
  5
B
330
0
100
AcDbSymbolTable
 70
     2
  0
LTYPE
  5
C
330
B
100
AcDbSymbolTableRecord
100
AcDbLinetypeTableRecord
  2
BYBLOCK
 70
     0
  3

 72
    65
 73
     0
 40
0.0
  0
LTYPE
  5
D
330
B
100
AcDbSymbolTableRecord
100
AcDbLinetypeTableRecord
  2
BYLAYER
 70
     0
  3

 72
    65
 73
     0
 40
0.0
  0
LTYPE
  5
A
330
B
100
AcDbSymbolTableRecord
100
AcDbLinetypeTableRecord
  2
CONTINUOUS
 70
     0
  3
Solid line
 72
    65
 73
     0
 40
0.0
  0
LTYPE
  5
53
330
B
100
AcDbSymbolTableRecord
100
AcDbLinetypeTableRecord
  2
CENTER
 70
     0
  3
____ _ ____ _ ____ _ ____ _ ____ _ ____ _ ____
 72
    65
 73
     4
 40
2.0
 49
1.25
 74
     0
 49
-0.25
 74
     0
 49
0.25
 74
     0
 49
-0.25
 74
     0
  0
ENDTAB
  0
TABLE
  2
LAYER
  5
2
330
0
100
AcDbSymbolTable
 70
     9
  0
LAYER
  5
1B
330
2
100
AcDbSymbolTableRecord
100
AcDbLayerTableRecord
  2
0
 70
     0
 62
     7
  6
CONTINUOUS
370
    -3
390
3
  0
LAYER
  5
10C
330
2
100
AcDbSymbolTableRecord
100
AcDbLayerTableRecord
  2
1
 70
     0
 62
     9
  6
CONTINUOUS
370
    -3
390
3
  0
LAYER
  5
1
330
2
100
AcDbSymbolTableRecord
100
AcDbLayerTableRecord
  2
2
 70
     0
 62
     4
  6
CONTINUOUS
370
    -3
390
3
  0
LAYER
  5
65
330
2
100
AcDbSymbolTableRecord
100
AcDbLayerTableRecord
  2
4
 70
     0
 62
     3
  6
CONTINUOUS
370
    -3
390
3
  0
LAYER
  5
52
330
2
100
AcDbSymbolTableRecord
100
AcDbLayerTableRecord
  2
L-CENTER
 70
     0
 62
     1
  6
CENTER
370
    -3
390
3
  0
LAYER
  5
58
330
2
100
AcDbSymbolTableRecord
100
AcDbLayerTableRecord
  2
3
 70
     0
 62
     2
  6
CONTINUOUS
370
    -3
390
3
  0
LAYER
  5
104
102
{ACAD_XDICTIONARY
360
105
102
}
330
2
100
AcDbSymbolTableRecord
100
AcDbLayerTableRecord
  2
5
 70
     0
 62
     6
  6
CONTINUOUS
370
    -3
390
3
  0
LAYER
  5
534
330
2
100
AcDbSymbolTableRecord
100
AcDbLayerTableRecord
  2
Defpoints
 70
     0
 62
     7
  6
CONTINUOUS
290
     0
370
    -3
390
3
  0
ENDTAB
  0
TABLE
  2
STYLE
  5
F
330
0
100
AcDbSymbolTable
 70
     2
  0
STYLE
  5
13
330
F
100
AcDbSymbolTableRecord
100
AcDbTextStyleTableRecord
  2
STANDARD
 70
     0
 40
0.0
 41
1.0
 50
0.0
 71
     0
 42
5.4
  3
TXT
  4

  0
STYLE
  5
E
330
F
100
AcDbSymbolTableRecord
100
AcDbTextStyleTableRecord
  2
KANJI
 70
     0
 40
0.0
 41
1.0
 50
0.0
 71
     0
 42
9.0
  3
TXT
  4
BIGFONT
  0
ENDTAB
  0
TABLE
  2
VIEW
  5
24
330
0
100
AcDbSymbolTable
 70
     0
  0
ENDTAB
  0
TABLE
  2
UCS
  5
25
330
0
100
AcDbSymbolTable
 70
     0
  0
ENDTAB
  0
TABLE
  2
APPID
  5
9
330
0
100
AcDbSymbolTable
 70
     4
  0
APPID
  5
8
330
9
100
AcDbSymbolTableRecord
100
AcDbRegAppTableRecord
  2
ACAD
 70
     0
  0
APPID
  5
1F
330
9
100
AcDbSymbolTableRecord
100
AcDbRegAppTableRecord
  2
ACAD_PSEXT
 70
     0
  0
APPID
  5
543
330
9
100
AcDbSymbolTableRecord
100
AcDbRegAppTableRecord
  2
ACAD_MLEADERVER
 70
     0
  0
ENDTAB
  0
TABLE
  2
DIMSTYLE
  5
12
330
0
100
AcDbSymbolTable
 70
     1
100
AcDbDimStyleTable
  0
DIMSTYLE
105
11
330
12
100
AcDbSymbolTableRecord
100
AcDbDimStyleTableRecord
  2
STANDARD
 70
     0
178
     0
340
13
  0
ENDTAB
  0
TABLE
  2
BLOCK_RECORD
  5
16
330
0
100
AcDbSymbolTable
 70
     0
  0
BLOCK_RECORD
  5
17
102
{ACAD_XDICTIONARY
360
18
102
}
330
16
100
AcDbSymbolTableRecord
100
AcDbBlockTableRecord
  2
*MODEL_SPACE
340
1D
  0
BLOCK_RECORD
  5
20
330
16
100
AcDbSymbolTableRecord
100
AcDbBlockTableRecord
  2
*PAPER_SPACE
340
23
  0
ENDTAB
  0
ENDSEC
  0
SECTION
  2
BLOCKS
  0
BLOCK
  5
1A
330
17
100
AcDbEntity
  8
0
100
AcDbBlockBegin
  2
*MODEL_SPACE
 70
     0
 10
0.0
 20
0.0
 30
0.0
  3
*MODEL_SPACE
  1

  0
ENDBLK
  5
1C
330
17
100
AcDbEntity
  8
0
100
AcDbBlockEnd
  0
BLOCK
  5
21
330
20
100
AcDbEntity
 67
     1
  8
0
100
AcDbBlockBegin
  2
*PAPER_SPACE
 70
     0
 10
0.0
 20
0.0
 30
0.0
  3
*PAPER_SPACE
  1

  0
ENDBLK
  5
22
330
20
100
AcDbEntity
 67
     1
  8
0
100
AcDbBlockEnd
  0
ENDSEC
  0
SECTION
  2
ENTITIES
  0
ARC
  5
64
330
17
100
AcDbEntity
  8
4
100
AcDbCircle
 10
228.9455656949131
 20
930.0846344233591
 30
0.0
 40
5.0
100
AcDbArc
 50
180.0
 51
240.4885014429095
  0
ARC
  5
66
330
17
100
AcDbEntity
  8
4
100
AcDbCircle
 10
228.9455656949131
 20
654.2541514206532
 30
0.0
 40
5.0
100
AcDbArc
 50
119.5114985570905
 51
180.0
  0
LINE
  5
67
330
17
100
AcDbEntity
  8
L-CENTER
100
AcDbLine
 10
698.4556874032905
 20
199.4427963028734
 30
0.0
 11
732.0916500538315
 21
199.4427963028734
 31
0.0
  0
LINE
  5
1D8
330
17
100
AcDbEntity
  8
4
100
AcDbLine
 10
257.5456636949139
 20
718.669392922006
 30
0.0
 11
249.5456636949139
 21
718.669392922006
 31
0.0
  0
LINE
  5
1DA
330
17
100
AcDbEntity
  8
4
100
AcDbLine
 10
249.5456636949139
 20
705.669392922006
 30
0.0
 11
257.5456636949139
 21
705.669392922006
 31
0.0
  0
LINE
  5
1DD
330
17
100
AcDbEntity
  8
4
100
AcDbLine
 10
249.5456636949139
 20
718.669392922006
 30
0.0
 11
249.5456636949139
 21
705.669392922006
 31
0.0
  0
LINE
  5
1DF
330
17
100
AcDbEntity
  8
4
100
AcDbLine
 10
257.5456636949139
 20
778.6693929220062
 30
0.0
 11
249.5456636949139
 21
778.6693929220062
 31
0.0
  0
LINE
  5
1E1
330
17
100
AcDbEntity
  8
4
100
AcDbLine
 10
249.5456636949139
 20
765.6693929220062
 30
0.0
 11
257.5456636949139
 21
765.6693929220062
 31
0.0
  0
LINE
  5
1E4
330
17
100
AcDbEntity
  8
4
100
AcDbLine
 10
249.5456636949139
 20
778.6693929220062
 30
0.0
 11
249.5456636949139
 21
765.6693929220062
 31
0.0
  0
LINE
  5
21C
330
17
100
AcDbEntity
  8
4
100
AcDbLine
 10
318.9455656949126
 20
572.169637922006
 30
0.0
 11
318.9455656949126
 21
573.169637922006
 31
0.0
  0
LINE
  5
21D
330
17
100
AcDbEntity
  8
4
100
AcDbLine
 10
368.9455656949126
 20
572.169637922006
 30
0.0
 11
368.9455656949126
 21
573.169637922006
 31
0.0
  0
LINE
  5
21E
330
17
100
AcDbEntity
  8
4
100
AcDbLine
 10
318.9455656949126
 20
572.169637922006
 30
0.0
 11
368.9455656949126
 21
572.1696379220062
 31
0.0
  0
LINE
  5
21F
330
17
100
AcDbEntity
  8
4
100
AcDbLine
 10
149.9455646949132
 20
856.1693929220062
 30
0.0
 11
148.9455656949131
 21
855.1693939220061
 31
0.0
  0
LINE
  5
220
330
17
100
AcDbEntity
  8
4
100
AcDbLine
 10
149.9455646949132
 20
838.1693929220062
 30
0.0
 11
149.9455646949132
 21
856.1693929220062
 31
0.0
  0
LINE
  5
221
330
17
100
AcDbEntity
  8
4
100
AcDbLine
 10
148.9455656949131
 20
809.1693919220063
 30
0.0
 11
149.9455646949132
 21
808.1693929220062
 31
0.0
  0
LINE
  5
222
330
17
100
AcDbEntity
  8
4
100
AcDbLine
 10
148.9455656949131
 20
809.1693919220063
 30
0.0
 11
148.9455656949131
 21
855.1693939220061
 31
0.0
  0
LINE
  5
223
330
17
100
AcDbEntity
  8
4
100
AcDbLine
 10
149.9455646949132
 20
808.1693929220062
 30
0.0
 11
149.9455646949132
 21
826.1693929220062
 31
0.0
  0
LINE
  5
224
330
17
100
AcDbEntity
  8
4
100
AcDbLine
 10
260.5456656949136
 20
961.169390922006
 30
0.0
 11
272.9455656949135
 21
961.169390922006
 31
0.0
  0
LINE
  5
225
330
17
100
AcDbEntity
  8
4
100
AcDbLine
 10
272.9455656949135
 20
962.1693929220062
 30
0.0
 11
274.9455656949135
 21
962.1693929220062
 31
0.0
  0
ARC
  5
226
330
17
100
AcDbEntity
  8
4
100
AcDbCircle
 10
275.9455656949131
 20
962.1693929220062
 30
0.0
 40
1.0
100
AcDbArc
 50
90.0
 51
180.0
  0
ARC
  5
227
330
17
100
AcDbEntity
  8
4
100
AcDbCircle
 10
260.5456656949136
 20
960.1693919220063
 30
0.0
 40
0.999999
100
AcDbArc
 50
90.0
 51
180.0
  0
LINE
  5
228
330
17
100
AcDbEntity
  8
L-CENTER
100
AcDbLine
 10
228.3047496611689
 20
947.1693929220066
 30
0.0
 11
269.5863817286581
 21
947.1693929220066
 31
0.0
  0
LINE
  5
22A
330
17
100
AcDbEntity
  8
4
100
AcDbLine
 10
226.4825745956541
 20
925.7333501480018
 30
0.0
 11
259.5456636949139
 21
907.0183940540812
 31
0.0
  0
ARC
  5
22B
330
17
100
AcDbEntity
  8
4
100
AcDbCircle
 10
248.9455656949131
 20
947.1693929220062
 30
0.0
 40
9.0
100
AcDbArc
 50
86.17682099206068
 51
345.522487814073
  0
LINE
  5
22C
330
17
100
AcDbEntity
  8
L-CENTER
100
AcDbLine
 10
248.9455656949135
 20
967.8102089557512
 30
0.0
 11
248.9455656949135
 21
926.528576888262
 31
0.0
  0
LINE
  5
22D
330
17
100
AcDbEntity
  8
4
100
AcDbLine
 10
223.9455656949135
 20
977.1693929220062
 30
0.0
 11
223.9455656949131
 21
930.0846344233591
 31
0.0
  0
ARC
  5
22E
330
17
100
AcDbEntity
  8
4
100
AcDbCircle
 10
228.9455656949131
 20
977.1693929220062
 30
0.0
 40
5.0
100
AcDbArc
 50
90.0
 51
180.0
  0
LINE
  5
22F
330
17
100
AcDbEntity
  8
4
100
AcDbLine
 10
255.5456646949137
 20
868.169390922006
 30
0.0
 11
254.5456656949136
 21
868.169390922006
 31
0.0
  0
LINE
  5
230
330
17
100
AcDbEntity
  8
4
100
AcDbLine
 10
259.5456636949139
 20
884.669390922006
 30
0.0
 11
255.5456646949137
 21
882.1693919220063
 31
0.0
  0
ARC
  5
232
330
17
100
AcDbEntity
  8
4
100
AcDbCircle
 10
227.9455646949132
 20
832.1693929220062
 30
0.0
 40
6.0
100
AcDbArc
 50
270.0
 51
90.0
  0
LINE
  5
233
330
17
100
AcDbEntity
  8
4
100
AcDbLine
 10
254.5456646949133
 20
857.1693919220063
 30
0.0
 11
238.9455656949131
 21
857.1693919220063
 31
0.0
  0
LINE
  5
234
330
17
100
AcDbEntity
  8
4
100
AcDbLine
 10
255.5456646949137
 20
796.1693949220064
 30
0.0
 11
254.5456656949136
 21
796.1693949220064
 31
0.0
  0
LINE
  5
235
330
17
100
AcDbEntity
  8
4
100
AcDbLine
 10
254.5456646949133
 20
807.1693939220065
 30
0.0
 11
238.9455656949131
 21
807.1693939220065
 31
0.0
  0
LINE
  5
236
330
17
100
AcDbEntity
  8
4
100
AcDbLine
 10
259.5456636949136
 20
779.6693949220062
 30
0.0
 11
255.5456646949137
 21
782.1693939220056
 31
0.0
  0
LINE
  5
237
330
17
100
AcDbEntity
  8
L-CENTER
100
AcDbLine
 10
289.9292947410136
 20
772.1693929220062
 30
0.0
 11
246.7810747248755
 21
772.1693929220062
 31
0.0
  0
LINE
  5
238
330
17
100
AcDbEntity
  8
4
100
AcDbLine
 10
238.9455656949131
 20
807.1693939220065
 30
0.0
 11
238.9455656949131
 21
857.1693919220063
 31
0.0
  0
LINE
  5
239
330
17
100
AcDbEntity
  8
4
100
AcDbLine
 10
254.5456656949136
 20
796.1693949220064
 30
0.0
 11
254.5456656949136
 21
868.169390922006
 31
0.0
  0
LINE
  5
23A
330
17
100
AcDbEntity
  8
4
100
AcDbLine
 10
255.5456646949133
 20
782.1693939220056
 30
0.0
 11
255.5456646949137
 21
882.1693919220063
 31
0.0
  0
CIRCLE
  5
23B
330
17
100
AcDbEntity
  8
4
100
AcDbCircle
 10
343.9455656949131
 20
832.1693929220057
 30
0.0
 40
17.0
  0
CIRCLE
  5
23C
330
17
100
AcDbEntity
  8
4
100
AcDbCircle
 10
343.9455656949126
 20
832.1693929220057
 30
0.0
 40
19.0
  0
LWPOLYLINE
  5
23D
330
17
100
AcDbEntity
  8
4
100
AcDbPolyline
 90
        6
 70
     1
 43
0.0
 10
360.9455656949131
 20
832.1693929220062
 10
352.4455656949135
 20
846.8918247863414
 10
335.4455656949135
 20
846.8918247863414
 10
326.9455656949131
 20
832.1693929220062
 10
335.4455656949131
 20
817.4469610576705
 10
352.4455656949131
 20
817.4469610576705
  0
LINE
  5
23E
330
17
100
AcDbEntity
  8
4
100
AcDbLine
 10
259.5456636949134
 20
779.669394922006
 30
0.0
 11
259.5456636949139
 21
960.1693919220063
 31
0.0
  0
LINE
  5
23F
330
17
100
AcDbEntity
  8
4
100
AcDbLine
 10
227.9455646949132
 20
826.1693929220062
 30
0.0
 11
148.9455656949135
 21
826.1693929220062
 31
0.0
  0
LINE
  5
240
330
17
100
AcDbEntity
  8
4
100
AcDbLine
 10
227.9455646949132
 20
838.1693929220062
 30
0.0
 11
148.9455656949135
 21
838.1693929220066
 31
0.0
  0
LINE
  5
241
330
17
100
AcDbEntity
  8
4
100
AcDbLine
 10
238.9455656949131
 20
856.1693929220062
 30
0.0
 11
149.9455646949132
 21
856.1693929220062
 31
0.0
  0
LINE
  5
242
330
17
100
AcDbEntity
  8
4
100
AcDbLine
 10
238.9455656949131
 20
808.1693929220062
 30
0.0
 11
149.9455646949132
 21
808.1693929220062
 31
0.0
  0
LINE
  5
243
330
17
100
AcDbEntity
  8
L-CENTER
100
AcDbLine
 10
289.9292947410136
 20
712.1693929220066
 30
0.0
 11
246.7810747248755
 21
712.1693929220057
 31
0.0
  0
LINE
  5
244
330
17
100
AcDbEntity
  8
4
100
AcDbLine
 10
259.5456636949139
 20
703.169394922006
 30
0.0
 11
272.9455656949135
 21
703.169394922006
 31
0.0
  0
ARC
  5
245
330
17
100
AcDbEntity
  8
4
100
AcDbCircle
 10
275.9455656949131
 20
702.1693929220057
 30
0.0
 40
1.0
100
AcDbArc
 50
180.0
 51
270.0
  0
LINE
  5
246
330
17
100
AcDbEntity
  8
4
100
AcDbLine
 10
272.9455656949131
 20
702.1693929220062
 30
0.0
 11
274.9455656949131
 21
702.1693929220062
 31
0.0
  0
ARC
  5
247
330
17
100
AcDbEntity
  8
4
100
AcDbCircle
 10
271.9455656949121
 20
691.4545470215173
 30
0.0
 40
3.0
100
AcDbArc
 50
272.1610794882308
 51
0.0
  0
LINE
  5
248
330
17
100
AcDbEntity
  8
4
100
AcDbLine
 10
237.9455656949131
 20
687.1693929220057
 30
0.0
 11
272.058692724614
 21
688.4566807344474
 31
0.0
  0
LINE
  5
249
330
17
100
AcDbEntity
  8
4
100
AcDbLine
 10
236.9455636949128
 20
664.5278823559684
 30
0.0
 11
226.4825745956541
 21
658.6054356960105
 31
0.0
  0
ARC
  5
24A
330
17
100
AcDbEntity
  8
4
100
AcDbCircle
 10
248.9455656949121
 20
603.7521633507962
 30
0.0
 40
3.0
100
AcDbArc
 50
0.0
 51
87.83892051176913
  0
LINE
  5
24B
330
17
100
AcDbEntity
  8
4
100
AcDbLine
 10
228.9455656949131
 20
602.1693929220063
 30
0.0
 11
251.9455656949131
 21
602.1693929220063
 31
0.0
  0
LINE
  5
24C
330
17
100
AcDbEntity
  8
4
100
AcDbLine
 10
251.9455656949131
 20
601.1693929220058
 30
0.0
 11
251.9455656949131
 21
603.7521633507962
 31
0.0
  0
LINE
  5
24D
330
17
100
AcDbEntity
  8
4
100
AcDbLine
 10
253.9455656949131
 20
599.1693929220058
 30
0.0
 11
253.9455656949131
 21
601.1693929220058
 31
0.0
  0
LINE
  5
24E
330
17
100
AcDbEntity
  8
4
100
AcDbLine
 10
223.9455656949131
 20
654.2541514206532
 30
0.0
 11
223.9455656949131
 21
607.1693929220063
 31
0.0
  0
ARC
  5
24F
330
17
100
AcDbEntity
  8
4
100
AcDbCircle
 10
228.9455656949131
 20
607.1693929220058
 30
0.0
 40
5.0
100
AcDbArc
 50
180.0
 51
270.0
  0
LINE
  5
250
330
17
100
AcDbEntity
  8
4
100
AcDbLine
 10
237.9455656949131
 20
607.1693929220058
 30
0.0
 11
237.9455656949131
 21
687.1693929220057
 31
0.0
  0
LINE
  5
251
330
17
100
AcDbEntity
  8
4
100
AcDbLine
 10
343.9455656949131
 20
603.1693929220068
 30
0.0
 11
237.9455656949131
 21
607.1693929220058
 31
0.0
  0
LINE
  5
252
330
17
100
AcDbEntity
  8
4
100
AcDbLine
 10
274.4458096949129
 20
582.169637922006
 30
0.0
 11
274.4458096949129
 21
580.669637922006
 31
0.0
  0
LINE
  5
253
330
17
100
AcDbEntity
  8
4
100
AcDbLine
 10
273.4458096949129
 20
578.669637922006
 30
0.0
 11
273.4458096949129
 21
580.669637922006
 31
0.0
  0
ARC
  5
254
330
17
100
AcDbEntity
  8
4
100
AcDbCircle
 10
272.9455656949126
 20
583.169637922006
 30
0.0
 40
1.0
100
AcDbArc
 50
180.0
 51
270.0
  0
LINE
  5
255
330
17
100
AcDbEntity
  8
4
100
AcDbLine
 10
271.9455656949126
 20
583.169637922006
 30
0.0
 11
271.9455656949126
 21
587.2694909220062
 31
0.0
  0
ARC
  5
256
330
17
100
AcDbEntity
  8
4
100
AcDbCircle
 10
256.9455656949126
 20
588.2694899220063
 30
0.0
 40
0.999999
100
AcDbArc
 50
180.0
 51
270.0
  0
LINE
  5
257
330
17
100
AcDbEntity
  8
4
100
AcDbLine
 10
275.1204594578062
 20
574.669637922006
 30
0.0
 11
275.1204594578066
 21
578.669637922006
 31
0.0
  0
LINE
  5
258
330
17
100
AcDbEntity
  8
4
100
AcDbLine
 10
297.4458096949129
 20
582.169637922006
 30
0.0
 11
297.4458096949129
 21
580.669637922006
 31
0.0
  0
LINE
  5
259
330
17
100
AcDbEntity
  8
4
100
AcDbLine
 10
298.4458096949129
 20
579.7694909220081
 30
0.0
 11
298.4458096949129
 21
578.669637922006
 31
0.0
  0
LINE
  5
25A
330
17
100
AcDbEntity
  8
4
100
AcDbLine
 10
286.4458106949132
 20
587.2694909220062
 30
0.0
 11
298.1955656949131
 21
584.9195956337029
 31
0.0
  0
LINE
  5
25B
330
17
100
AcDbEntity
  8
4
100
AcDbLine
 10
307.6255952828865
 20
579.7694909220077
 30
0.0
 11
308.9455646949132
 21
573.169637922006
 31
0.0
  0
LINE
  5
25C
330
17
100
AcDbEntity
  8
4
100
AcDbLine
 10
296.7706719320195
 20
574.669637922006
 30
0.0
 11
296.7706719320199
 21
578.669637922006
 31
0.0
  0
LINE
  5
25D
330
17
100
AcDbEntity
  8
4
100
AcDbLine
 10
323.4455666949129
 20
583.1696369220061
 30
0.0
 11
326.4455666949129
 21
587.2694909220062
 31
0.0
  0
LINE
  5
25E
330
17
100
AcDbEntity
  8
4
100
AcDbLine
 10
364.4455646949132
 20
583.1696369220061
 30
0.0
 11
361.4455646949132
 21
587.2694909220062
 31
0.0
  0
LINE
  5
25F
330
17
100
AcDbEntity
  8
4
100
AcDbLine
 10
380.2655361069393
 20
579.7694909220061
 30
0.0
 11
378.9455666949129
 21
573.169637922006
 31
0.0
  0
LINE
  5
260
330
17
100
AcDbEntity
  8
4
100
AcDbLine
 10
379.6955656949126
 20
583.1696369220059
 30
0.0
 11
308.1955656949131
 21
583.1696369220061
 31
0.0
  0
LINE
  5
261
330
17
100
AcDbEntity
  8
4
100
AcDbLine
 10
308.9455646949132
 20
573.169637922006
 30
0.0
 11
378.9455666949129
 21
573.169637922006
 31
0.0
  0
LINE
  5
262
330
17
100
AcDbEntity
  8
4
100
AcDbLine
 10
343.9455656949131
 20
587.2694909220062
 30
0.0
 11
256.9455656949131
 21
587.2694909220062
 31
0.0
  0
LINE
  5
263
330
17
100
AcDbEntity
  8
4
100
AcDbLine
 10
296.7706719320199
 20
574.669637922006
 30
0.0
 11
275.1204594578066
 21
574.669637922006
 31
0.0
  0
LINE
  5
264
330
17
100
AcDbEntity
  8
4
100
AcDbLine
 10
298.4458096949129
 20
578.669637922006
 30
0.0
 11
273.4458096949129
 21
578.669637922006
 31
0.0
  0
LINE
  5
265
330
17
100
AcDbEntity
  8
4
100
AcDbLine
 10
298.1955656949131
 20
580.669637922006
 30
0.0
 11
273.4458096949129
 21
580.669637922006
 31
0.0
  0
LINE
  5
266
330
17
100
AcDbEntity
  8
4
100
AcDbLine
 10
272.9455656949126
 20
582.169637922006
 30
0.0
 11
298.1955656949131
 21
582.169637922006
 31
0.0
  0
LINE
  5
268
330
17
100
AcDbEntity
  8
L-CENTER
100
AcDbLine
 10
285.9455656949126
 20
596.6648874553867
 30
0.0
 11
285.9455656949126
 21
569.0978389002743
 31
0.0
  0
LINE
  5
26B
330
17
100
AcDbEntity
  8
4
100
AcDbLine
 10
255.9455666949129
 20
588.2694899220058
 30
0.0
 11
255.9455666949129
 21
599.1693929220058
 31
0.0
  0
LINE
  5
26C
330
17
100
AcDbEntity
  8
4
100
AcDbLine
 10
259.5456636949134
 20
884.6693909220064
 30
0.0
 11
259.5456636949139
 21
703.169394922006
 31
0.0
  0
LINE
  5
26D
330
17
100
AcDbEntity
  8
4
100
AcDbLine
 10
272.9455656949135
 20
962.1693929220062
 30
0.0
 11
272.9455656949131
 21
702.1693929220062
 31
0.0
  0
LINE
  5
26E
330
17
100
AcDbEntity
  8
4
100
AcDbLine
 10
274.9455656949135
 20
962.1693929220062
 30
0.0
 11
274.9455656949131
 21
647.1693929220057
 31
0.0
  0
LINE
  5
26F
330
17
100
AcDbEntity
  8
L-CENTER
100
AcDbLine
 10
343.9455656949135
 20
994.6693929220062
 30
0.0
 11
343.9455656949126
 21
568.0648681381448
 31
0.0
  0
LINE
  5
270
330
17
100
AcDbEntity
  8
4
100
AcDbLine
 10
412.9455656949135
 20
961.1693929220057
 30
0.0
 11
424.9455656949135
 21
961.1693929220057
 31
0.0
  0
LINE
  5
271
330
17
100
AcDbEntity
  8
4
100
AcDbLine
 10
410.9455656949135
 20
963.1693929220057
 30
0.0
 11
411.945565694914
 21
963.1693929220057
 31
0.0
  0
ARC
  5
272
330
17
100
AcDbEntity
  8
4
100
AcDbCircle
 10
411.9455656949135
 20
962.1693929220057
 30
0.0
 40
1.0
100
AcDbArc
 50
0.0
 51
90.0
  0
ARC
  5
273
330
17
100
AcDbEntity
  8
4
100
AcDbCircle
 10
424.9455656949131
 20
959.1693929220057
 30
0.0
 40
2.0
100
AcDbArc
 50
0.0
 51
90.0
  0
LINE
  5
274
330
17
100
AcDbEntity
  8
L-CENTER
100
AcDbLine
 10
438.9455656949135
 20
967.8102089557508
 30
0.0
 11
438.9455656949135
 21
926.5285768882616
 31
0.0
  0
CIRCLE
  5
275
330
17
100
AcDbEntity
  8
4
100
AcDbCircle
 10
438.9455656949131
 20
947.1693929220062
 30
0.0
 40
9.0
  0
ARC
  5
276
330
17
100
AcDbEntity
  8
4
100
AcDbCircle
 10
458.9455656949131
 20
930.0846344233589
 30
0.0
 40
5.0
100
AcDbArc
 50
299.5114985570905
 51
0.0
  0
LINE
  5
277
330
17
100
AcDbEntity
  8
4
100
AcDbLine
 10
463.9455656949135
 20
977.1693929220057
 30
0.0
 11
463.9455656949135
 21
930.0846344233589
 31
0.0
  0
LINE
  5
278
330
17
100
AcDbEntity
  8
4
100
AcDbLine
 10
426.9455656949135
 20
906.2259966955905
 30
0.0
 11
461.4085567941725
 21
925.7333501480018
 31
0.0
  0
LINE
  5
279
330
17
100
AcDbEntity
  8
L-CENTER
100
AcDbLine
 10
459.5863817286581
 20
947.1693929220062
 30
0.0
 11
418.3047496611689
 21
947.1693929220062
 31
0.0
  0
ARC
  5
27A
330
17
100
AcDbEntity
  8
4
100
AcDbCircle
 10
458.9455656949131
 20
977.1693929220057
 30
0.0
 40
5.0
100
AcDbArc
 50
0.0
 51
90.0
  0
ARC
  5
27B
330
17
100
AcDbEntity
  8
4
100
AcDbCircle
 10
429.9455656949131
 20
881.0608976389915
 30
0.0
 40
2.0
100
AcDbArc
 50
0.0
 51
57.99461679191306
  0
LINE
  5
27C
330
17
100
AcDbEntity
  8
4
100
AcDbLine
 10
431.00556357492
 20
882.7568942470018
 30
0.0
 11
426.9455656949135
 21
885.2943929220057
 31
0.0
  0
ARC
  5
27D
330
17
100
AcDbEntity
  8
4
100
AcDbCircle
 10
429.9455656949131
 20
783.27788820502
 30
0.0
 40
2.0
100
AcDbArc
 50
302.0053832080869
 51
0.0
  0
LINE
  5
27E
330
17
100
AcDbEntity
  8
4
100
AcDbLine
 10
431.0055635749195
 20
781.5818915970101
 30
0.0
 11
426.9455656949131
 21
779.0443929220062
 31
0.0
  0
LINE
  5
27F
330
17
100
AcDbEntity
  8
4
100
AcDbLine
 10
431.9455656949135
 20
881.0608976389915
 30
0.0
 11
431.9455656949131
 21
783.2778882050204
 31
0.0
  0
LINE
  5
280
330
17
100
AcDbEntity
  8
4
100
AcDbLine
 10
412.9455656949131
 20
703.1693929220062
 30
0.0
 11
424.9455656949131
 21
703.1693929220062
 31
0.0
  0
ARC
  5
281
330
17
100
AcDbEntity
  8
4
100
AcDbCircle
 10
424.9455656949131
 20
705.1693929220053
 30
0.0
 40
2.0
100
AcDbArc
 50
270.0
 51
0.0
  0
ARC
  5
282
330
17
100
AcDbEntity
  8
4
100
AcDbCircle
 10
411.9455656949131
 20
702.1693929220057
 30
0.0
 40
1.0
100
AcDbArc
 50
270.0
 51
0.0
  0
ARC
  5
283
330
17
100
AcDbEntity
  8
4
100
AcDbCircle
 10
415.9455656949131
 20
691.4545470215173
 30
0.0
 40
3.0
100
AcDbArc
 50
180.0
 51
267.8389205117691
  0
LINE
  5
284
330
17
100
AcDbEntity
  8
4
100
AcDbLine
 10
450.9455676949128
 20
678.1693919220058
 30
0.0
 11
449.9455656949126
 21
678.1693919220058
 31
0.0
  0
LINE
  5
285
330
17
100
AcDbEntity
  8
4
100
AcDbLine
 10
415.8324386652125
 20
688.4566807344474
 30
0.0
 11
449.9455656949126
 21
687.1693929220057
 31
0.0
  0
LINE
  5
286
330
17
100
AcDbEntity
  8
4
100
AcDbLine
 10
455.11223236158
 20
662.1693929220057
 30
0.0
 11
450.9455676949128
 21
664.5278823559684
 31
0.0
  0
LINE
  5
287
330
17
100
AcDbEntity
  8
4
100
AcDbLine
 10
450.9455676949128
 20
616.1693939220057
 30
0.0
 11
449.9455656949126
 21
616.1693939220057
 31
0.0
  0
ARC
  5
288
330
17
100
AcDbEntity
  8
4
100
AcDbCircle
 10
438.9455656949126
 20
603.7521633507962
 30
0.0
 40
3.0
100
AcDbArc
 50
92.1610794882222
 51
180.0
  0
LINE
  5
289
330
17
100
AcDbEntity
  8
4
100
AcDbLine
 10
435.9455656949126
 20
601.1693929220058
 30
0.0
 11
435.9455656949126
 21
603.7521633507962
 31
0.0
  0
LINE
  5
28A
330
17
100
AcDbEntity
  8
4
100
AcDbLine
 10
433.9455656949126
 20
601.1693929220058
 30
0.0
 11
433.9455656949126
 21
599.1693929220058
 31
0.0
  0
ARC
  5
28B
330
17
100
AcDbEntity
  8
4
100
AcDbCircle
 10
472.4455676949128
 20
647.1693929220057
 30
0.0
 40
3.5
100
AcDbArc
 50
90.0
 51
270.0
  0
ARC
  5
28C
330
17
100
AcDbEntity
  8
4
100
AcDbCircle
 10
458.9455656949131
 20
607.1693929220063
 30
0.0
 40
5.0
100
AcDbArc
 50
270.0
 51
0.0
  0
LINE
  5
28D
330
17
100
AcDbEntity
  8
4
100
AcDbLine
 10
463.9455656949131
 20
607.1693929220063
 30
0.0
 11
463.9455656949131
 21
632.1693929220057
 31
0.0
  0
LINE
  5
28E
330
17
100
AcDbEntity
  8
4
100
AcDbLine
 10
463.9455666949129
 20
632.1693929220057
 30
0.0
 11
463.9455666949129
 21
662.1693929220057
 31
0.0
  0
LINE
  5
28F
330
17
100
AcDbEntity
  8
4
100
AcDbLine
 10
435.9455656949126
 20
602.1693929220063
 30
0.0
 11
458.9455656949131
 21
602.1693929220063
 31
0.0
  0
LINE
  5
290
330
17
100
AcDbEntity
  8
4
100
AcDbLine
 10
450.9455676949128
 20
632.1693929220057
 30
0.0
 11
463.9455666949129
 21
632.1693929220057
 31
0.0
  0
LINE
  5
291
330
17
100
AcDbEntity
  8
4
100
AcDbLine
 10
450.9455676949128
 20
662.1693929220057
 30
0.0
 11
463.9455666949129
 21
662.1693929220057
 31
0.0
  0
LINE
  5
292
330
17
100
AcDbEntity
  8
4
100
AcDbLine
 10
450.9455676949128
 20
678.1693919220058
 30
0.0
 11
450.9455676949128
 21
616.1693939220057
 31
0.0
  0
LINE
  5
293
330
17
100
AcDbEntity
  8
4
100
AcDbLine
 10
449.9455656949126
 20
687.1693929220057
 30
0.0
 11
449.9455656949126
 21
607.1693929220058
 31
0.0
  0
LINE
  5
294
330
17
100
AcDbEntity
  8
4
100
AcDbLine
 10
523.9455666949129
 20
658.6693919220058
 30
0.0
 11
522.9455676949128
 21
659.6693939220056
 31
0.0
  0
LINE
  5
295
330
17
100
AcDbEntity
  8
4
100
AcDbLine
 10
522.9455676949128
 20
634.6693919220058
 30
0.0
 11
522.9455676949133
 21
643.6693929220057
 31
0.0
  0
LINE
  5
296
330
17
100
AcDbEntity
  8
4
100
AcDbLine
 10
523.9455666949129
 20
635.6693939220056
 30
0.0
 11
522.9455676949128
 21
634.6693919220058
 31
0.0
  0
LINE
  5
297
330
17
100
AcDbEntity
  8
4
100
AcDbLine
 10
522.9455676949133
 20
650.6693929220057
 30
0.0
 11
522.9455676949128
 21
659.6693939220056
 31
0.0
  0
LINE
  5
298
330
17
100
AcDbEntity
  8
4
100
AcDbLine
 10
523.9455666949129
 20
635.6693939220056
 30
0.0
 11
523.9455666949129
 21
658.6693919220058
 31
0.0
  0
LINE
  5
299
330
17
100
AcDbEntity
  8
4
100
AcDbLine
 10
522.9455676949128
 20
659.6693939220056
 30
0.0
 11
463.9455666949129
 21
659.6693939220056
 31
0.0
  0
LINE
  5
29A
330
17
100
AcDbEntity
  8
4
100
AcDbLine
 10
522.9455676949128
 20
634.6693919220058
 30
0.0
 11
463.9455666949129
 21
634.6693919220058
 31
0.0
  0
LINE
  5
29B
330
17
100
AcDbEntity
  8
4
100
AcDbLine
 10
472.4455676949128
 20
643.6693929220057
 30
0.0
 11
523.9455666949129
 21
643.6693929220057
 31
0.0
  0
LINE
  5
29C
330
17
100
AcDbEntity
  8
4
100
AcDbLine
 10
472.4455676949128
 20
650.6693929220057
 30
0.0
 11
523.9455666949129
 21
650.6693929220053
 31
0.0
  0
ARC
  5
29D
330
17
100
AcDbEntity
  8
4
100
AcDbCircle
 10
430.9455656949126
 20
588.2694899220063
 30
0.0
 40
0.999999
100
AcDbArc
 50
270.0
 51
0.0
  0
LINE
  5
29E
330
17
100
AcDbEntity
  8
4
100
AcDbLine
 10
431.9455646949132
 20
588.2694899220058
 30
0.0
 11
431.9455646949132
 21
599.1693929220058
 31
0.0
  0
LINE
  5
2A0
330
17
100
AcDbEntity
  8
4
100
AcDbLine
 10
426.9455656949135
 20
959.1693929220057
 30
0.0
 11
426.9455656949131
 21
705.1693929220062
 31
0.0
  0
LINE
  5
2A1
330
17
100
AcDbEntity
  8
4
100
AcDbLine
 10
412.945565694914
 20
962.1693929220057
 30
0.0
 11
412.9455656949131
 21
647.1693929220057
 31
0.0
  0
LINE
  5
2A2
330
17
100
AcDbEntity
  8
L-CENTER
100
AcDbLine
 10
545.3125090987933
 20
832.1693929220053
 30
0.0
 11
142.5786222910319
 21
832.1693929220069
 31
0.0
  0
LINE
  5
2A3
330
17
100
AcDbEntity
  8
4
100
AcDbLine
 10
435.9455656949126
 20
601.1693929220058
 30
0.0
 11
251.9455656949131
 21
601.1693929220058
 31
0.0
  0
LINE
  5
2A4
330
17
100
AcDbEntity
  8
4
100
AcDbLine
 10
433.9455656949126
 20
599.1693929220058
 30
0.0
 11
253.9455656949131
 21
599.1693929220058
 31
0.0
  0
LINE
  5
2A5
330
17
100
AcDbEntity
  8
4
100
AcDbLine
 10
449.9455656949126
 20
607.1693929220058
 30
0.0
 11
343.9455656949126
 21
603.1693929220068
 31
0.0
  0
LINE
  5
2A6
330
17
100
AcDbEntity
  8
L-CENTER
100
AcDbLine
 10
233.3523057287543
 20
647.1693929220062
 30
0.0
 11
526.6216520845624
 21
647.1693929220053
 31
0.0
  0
LINE
  5
2A7
330
17
100
AcDbEntity
  8
4
100
AcDbLine
 10
343.9455656949131
 20
587.2694909220062
 30
0.0
 11
430.9455656949131
 21
587.2694909220062
 31
0.0
  0
LINE
  5
2A8
330
17
100
AcDbEntity
  8
4
100
AcDbLine
 10
401.4453206949129
 20
587.2694909220062
 30
0.0
 11
389.6955656949126
 21
584.9195956337024
 31
0.0
  0
LINE
  5
2A9
330
17
100
AcDbEntity
  8
4
100
AcDbLine
 10
275.9455656949131
 20
701.1693929220062
 30
0.0
 11
411.9455656949131
 21
701.1693929220057
 31
0.0
  0
LINE
  5
2AA
330
17
100
AcDbEntity
  8
4
100
AcDbLine
 10
228.9455656949135
 20
982.1693929220062
 30
0.0
 11
458.9455656949135
 21
982.1693929220057
 31
0.0
  0
LINE
  5
2AB
330
17
100
AcDbEntity
  8
4
100
AcDbLine
 10
275.9455656949135
 20
963.1693929220062
 30
0.0
 11
411.945565694914
 21
963.1693929220057
 31
0.0
  0
ARC
  5
2B1
330
17
100
AcDbEntity
  8
4
100
AcDbCircle
 10
1066.002808403291
 20
371.1593493028734
 30
0.0
 40
4.000008
100
AcDbArc
 50
13.91834800000227
 51
79.12901000000063
  0
LINE
  5
2B7
330
17
100
AcDbEntity
  8
4
100
AcDbLine
 10
1085.06311040329
 20
169.8617433028733
 30
0.0
 11
1082.56311140329
 21
169.8617433028733
 31
0.0
  0
LINE
  5
2B8
330
17
100
AcDbEntity
  8
4
100
AcDbLine
 10
1085.06311040329
 20
162.8617413028735
 30
0.0
 11
1086.063109403291
 21
162.8617413028735
 31
0.0
  0
LINE
  5
2B9
330
17
100
AcDbEntity
  8
4
100
AcDbLine
 10
1082.56311140329
 20
183.8617413028735
 30
0.0
 11
1079.917603403291
 21
183.8617413028735
 31
0.0
  0
LINE
  5
2BD
330
17
100
AcDbEntity
  8
4
100
AcDbLine
 10
1082.56311140329
 20
87.8617413028735
 30
0.0
 11
1085.06311040329
 21
87.8617413028735
 31
0.0
  0
LINE
  5
2BE
330
17
100
AcDbEntity
  8
4
100
AcDbLine
 10
1085.06311040329
 20
94.86174330287326
 30
0.0
 11
1086.063109403291
 21
94.86174330287326
 31
0.0
  0
ARC
  5
2BF
330
17
100
AcDbEntity
  8
4
100
AcDbCircle
 10
1066.771852403291
 20
135.7123293028735
 30
0.0
 40
4.000077
100
AcDbArc
 50
280.9491810000028
 51
346.4599169999976
  0
LINE
  5
2C0
330
17
100
AcDbEntity
  8
4
100
AcDbLine
 10
1082.56311140329
 20
73.86174330287326
 30
0.0
 11
1078.563109403291
 21
73.86174330287326
 31
0.0
  0
LINE
  5
2C1
330
17
100
AcDbEntity
  8
4
100
AcDbLine
 10
1103.56311140329
 20
23.86174230287338
 30
0.0
 11
1103.56311140329
 21
48.8617413028735
 31
0.0
  0
LINE
  5
2C2
330
17
100
AcDbEntity
  8
L-CENTER
100
AcDbLine
 10
1068.56311040329
 20
57.8617413028735
 30
0.0
 11
1068.56311040329
 21
14.86174230287338
 31
0.0
  0
LINE
  5
2C4
330
17
100
AcDbEntity
  8
4
100
AcDbLine
 10
1082.56311140329
 20
183.8617413028735
 30
0.0
 11
1082.56311140329
 21
73.86174330287326
 31
0.0
  0
LINE
  5
2C5
330
17
100
AcDbEntity
  8
4
100
AcDbLine
 10
1078.563109403291
 20
174.6346923028734
 30
0.0
 11
1078.563109403291
 21
48.8617413028735
 31
0.0
  0
LINE
  5
2C7
330
17
100
AcDbEntity
  8
4
100
AcDbLine
 10
1085.06311040329
 20
169.8617433028733
 30
0.0
 11
1085.06311040329
 21
87.8617413028735
 31
0.0
  0
LINE
  5
2C8
330
17
100
AcDbEntity
  8
4
100
AcDbLine
 10
1086.063109403291
 20
162.8617413028735
 30
0.0
 11
1086.063109403291
 21
94.86174330287326
 31
0.0
  0
ARC
  5
2CC
330
17
100
AcDbEntity
  8
4
100
AcDbCircle
 10
584.5631114032903
 20
251.8617423028734
 30
0.0
 40
500.000004
100
AcDbArc
 50
346.4582810000001
 51
13.91714800000001
  0
ARC
  5
2D7
330
17
100
AcDbEntity
  8
4
100
AcDbCircle
 10
1049.688109403291
 20
298.8617433028733
 30
0.0
 40
3.000015
100
AcDbArc
 50
26.05832900000438
 51
90.0
  0
LINE
  5
2D8
330
17
100
AcDbEntity
  8
4
100
AcDbLine
 10
1049.688109403291
 20
301.8617433028733
 30
0.0
 11
1007.89563140329
 21
301.8617433028733
 31
0.0
  0
LINE
  5
2D9
330
17
100
AcDbEntity
  8
4
100
AcDbLine
 10
972.5631104032905
 20
385.5607173028732
 30
0.0
 11
972.5631104032905
 21
386.8617423028734
 31
0.0
  0
LINE
  5
2DA
330
17
100
AcDbEntity
  8
4
100
AcDbLine
 10
962.0631104032905
 20
390.3617433028733
 30
0.0
 11
962.0631104032905
 21
394.3617423028734
 31
0.0
  0
LINE
  5
2DB
330
17
100
AcDbEntity
  8
4
100
AcDbLine
 10
970.5631094032906
 20
394.3617423028734
 30
0.0
 11
970.5631094032906
 21
388.3617423028734
 31
0.0
  0
LINE
  5
2DC
330
17
100
AcDbEntity
  8
4
100
AcDbLine
 10
969.5631104032905
 20
386.8617423028734
 30
0.0
 11
969.5631104032905
 21
388.3617423028734
 31
0.0
  0
ARC
  5
2DD
330
17
100
AcDbEntity
  8
4
100
AcDbCircle
 10
985.5631094032906
 20
348.8617413028735
 30
0.0
 40
3.0
100
AcDbArc
 50
0.0
 51
90.0
  0
ARC
  5
2DE
330
17
100
AcDbEntity
  8
4
100
AcDbCircle
 10
999.9010004032907
 20
298.1996313028733
 30
0.0
 40
5.000058
100
AcDbArc
 50
9.03735500000007
 51
80.962658000002
  0
ARC
  5
2DF
330
17
100
AcDbEntity
  8
4
100
AcDbCircle
 10
985.5631094032906
 20
319.8617433028733
 30
0.0
 40
3.0
100
AcDbArc
 50
270.0
 51
0.0
  0
LINE
  5
2E0
330
17
100
AcDbEntity
  8
4
100
AcDbLine
 10
983.5631114032903
 20
329.8617423028734
 30
0.0
 11
983.5631114032903
 21
325.8617433028733
 31
0.0
  0
LINE
  5
2E1
330
17
100
AcDbEntity
  8
4
100
AcDbLine
 10
988.5631094032906
 20
348.8617413028735
 30
0.0
 11
988.5631094032906
 21
319.8617433028733
 31
0.0
  0
LINE
  5
2E2
330
17
100
AcDbEntity
  8
4
100
AcDbLine
 10
975.5631104032905
 20
346.8617433028733
 30
0.0
 11
979.5631094032906
 21
346.8617433028733
 31
0.0
  0
LINE
  5
2E3
330
17
100
AcDbEntity
  8
4
100
AcDbLine
 10
961.5631094032906
 20
346.8617433028733
 30
0.0
 11
961.5631094032906
 21
342.8617413028735
 31
0.0
  0
LINE
  5
2E4
330
17
100
AcDbEntity
  8
4
100
AcDbLine
 10
979.5631094032906
 20
325.8617433028733
 30
0.0
 11
979.5631094032906
 21
321.8617413028735
 31
0.0
  0
LINE
  5
2E5
330
17
100
AcDbEntity
  8
4
100
AcDbLine
 10
975.5631104032905
 20
325.8617433028733
 30
0.0
 11
975.5631104032905
 21
321.8617413028735
 31
0.0
  0
LINE
  5
2E6
330
17
100
AcDbEntity
  8
4
100
AcDbLine
 10
971.9835224032904
 20
329.8617423028734
 30
0.0
 11
975.5631104032905
 21
329.8617423028734
 31
0.0
  0
LINE
  5
2E7
330
17
100
AcDbEntity
  8
4
100
AcDbLine
 10
979.5631094032906
 20
321.8617413028735
 30
0.0
 11
975.5631104032905
 21
321.8617413028735
 31
0.0
  0
LINE
  5
2E8
330
17
100
AcDbEntity
  8
4
100
AcDbLine
 10
961.5631094032906
 20
325.8617433028733
 30
0.0
 11
961.5631094032906
 21
321.8617413028735
 31
0.0
  0
LINE
  5
2E9
330
17
100
AcDbEntity
  8
4
100
AcDbLine
 10
967.5631094032906
 20
325.8617433028733
 30
0.0
 11
967.5631094032906
 21
329.8617423028734
 31
0.0
  0
LINE
  5
2EA
330
17
100
AcDbEntity
  8
4
100
AcDbLine
 10
967.5631094032906
 20
325.8617433028733
 30
0.0
 11
975.5631104032905
 21
325.8617433028733
 31
0.0
  0
LINE
  5
2EB
330
17
100
AcDbEntity
  8
4
100
AcDbLine
 10
975.5631104032905
 20
346.8617433028733
 30
0.0
 11
967.5631094032906
 21
329.8617423028734
 31
0.0
  0
LINE
  5
2EC
330
17
100
AcDbEntity
  8
4
100
AcDbLine
 10
961.5631094032906
 20
332.3617413028735
 30
0.0
 11
961.5631094032906
 21
336.3617433028733
 31
0.0
  0
LINE
  5
2ED
330
17
100
AcDbEntity
  8
4
100
AcDbLine
 10
979.5631094032906
 20
346.8617433028733
 30
0.0
 11
979.5631094032906
 21
329.8617423028734
 31
0.0
  0
LINE
  5
2EE
330
17
100
AcDbEntity
  8
4
100
AcDbLine
 10
971.9835224032904
 20
329.8617423028734
 30
0.0
 11
975.5631104032905
 21
337.4681883028736
 31
0.0
  0
LINE
  5
2EF
330
17
100
AcDbEntity
  8
4
100
AcDbLine
 10
975.5631104032905
 20
337.4681883028736
 30
0.0
 11
975.5631104032905
 21
329.8617423028734
 31
0.0
  0
LINE
  5
2F0
330
17
100
AcDbEntity
  8
4
100
AcDbLine
 10
979.5631094032906
 20
329.8617423028734
 30
0.0
 11
983.5631114032903
 21
329.8617423028734
 31
0.0
  0
LINE
  5
2F1
330
17
100
AcDbEntity
  8
4
100
AcDbLine
 10
979.5631094032906
 20
325.8617433028733
 30
0.0
 11
983.5631114032903
 21
325.8617433028733
 31
0.0
  0
ARC
  5
2F2
330
17
100
AcDbEntity
  8
4
100
AcDbCircle
 10
1007.89563140329
 20
298.8617433028733
 30
0.0
 40
2.999967
100
AcDbArc
 50
90.0
 51
188.9234169999999
  0
LINE
  5
2F5
330
17
100
AcDbEntity
  8
4
100
AcDbLine
 10
936.5631104032905
 20
388.3617423028734
 30
0.0
 11
936.5631104032905
 21
394.3617423028734
 31
0.0
  0
LINE
  5
2F6
330
17
100
AcDbEntity
  8
4
100
AcDbLine
 10
945.0631094032906
 20
390.3617433028733
 30
0.0
 11
945.0631094032906
 21
394.3617423028734
 31
0.0
  0
LINE
  5
2F7
330
17
100
AcDbEntity
  8
4
100
AcDbLine
 10
934.5631094032906
 20
385.5607173028732
 30
0.0
 11
934.5631094032906
 21
386.8617423028734
 31
0.0
  0
LINE
  5
2F8
330
17
100
AcDbEntity
  8
4
100
AcDbLine
 10
937.5631094032906
 20
386.8617423028734
 30
0.0
 11
937.5631094032906
 21
388.3617423028734
 31
0.0
  0
LINE
  5
2FB
330
17
100
AcDbEntity
  8
4
100
AcDbLine
 10
949.5631094032906
 20
342.8617413028735
 30
0.0
 11
949.5631094032906
 21
336.3617433028733
 31
0.0
  0
LINE
  5
2FC
330
17
100
AcDbEntity
  8
4
100
AcDbLine
 10
949.5631094032906
 20
332.3617413028735
 30
0.0
 11
949.5631094032906
 21
325.8617433028733
 31
0.0
  0
LINE
  5
2FD
330
17
100
AcDbEntity
  8
4
100
AcDbLine
 10
939.5631104032905
 20
321.8617413028735
 30
0.0
 11
939.5631104032905
 21
325.8617433028733
 31
0.0
  0
LINE
  5
2FE
330
17
100
AcDbEntity
  8
4
100
AcDbLine
 10
945.5631104032905
 20
321.8617413028735
 30
0.0
 11
945.5631104032905
 21
346.8617433028733
 31
0.0
  0
LINE
  5
2FF
330
17
100
AcDbEntity
  8
4
100
AcDbLine
 10
927.5631104032905
 20
346.8617433028733
 30
0.0
 11
923.5631114032903
 21
346.8617433028733
 31
0.0
  0
ARC
  5
300
330
17
100
AcDbEntity
  8
4
100
AcDbCircle
 10
921.5631104032905
 20
348.8617413028735
 30
0.0
 40
3.0
100
AcDbArc
 50
90.0
 51
180.0
  0
ARC
  5
301
330
17
100
AcDbEntity
  8
4
100
AcDbCircle
 10
921.5631104032905
 20
319.8617433028733
 30
0.0
 40
3.0
100
AcDbArc
 50
180.0
 51
270.0
  0
LINE
  5
302
330
17
100
AcDbEntity
  8
4
100
AcDbLine
 10
918.5631104032905
 20
319.8617433028733
 30
0.0
 11
918.5631104032905
 21
348.8617413028735
 31
0.0
  0
LINE
  5
303
330
17
100
AcDbEntity
  8
4
100
AcDbLine
 10
923.5631114032903
 20
321.8617413028735
 30
0.0
 11
923.5631114032903
 21
346.8617433028733
 31
0.0
  0
LINE
  5
304
330
17
100
AcDbEntity
  8
4
100
AcDbLine
 10
927.5631104032905
 20
325.8617433028733
 30
0.0
 11
927.5631104032905
 21
346.8617433028733
 31
0.0
  0
LINE
  5
305
330
17
100
AcDbEntity
  8
4
100
AcDbLine
 10
923.5631114032903
 20
321.8617413028735
 30
0.0
 11
939.5631104032905
 21
321.8617413028735
 31
0.0
  0
LINE
  5
306
330
17
100
AcDbEntity
  8
4
100
AcDbLine
 10
927.5631104032905
 20
325.8617433028733
 30
0.0
 11
939.5631104032905
 21
325.8617433028733
 31
0.0
  0
ARC
  5
307
330
17
100
AcDbEntity
  8
4
100
AcDbCircle
 10
907.2252194032908
 20
298.1996313028733
 30
0.0
 40
5.000058
100
AcDbArc
 50
99.03735300000076
 51
170.9626449999999
  0
ARC
  5
308
330
17
100
AcDbEntity
  8
4
100
AcDbCircle
 10
899.2305914032904
 20
298.8617433028733
 30
0.0
 40
2.999967
100
AcDbArc
 50
351.0765830000001
 51
90.0
  0
LINE
  5
309
330
17
100
AcDbEntity
  8
4
100
AcDbLine
 10
985.5631094032906
 20
316.8617433028733
 30
0.0
 11
921.5631104032905
 21
316.8617433028733
 31
0.0
  0
ARC
  5
30A
330
17
100
AcDbEntity
  8
4
100
AcDbCircle
 10
953.5631114032903
 20
1.861743302873265
 30
0.0
 40
300.00006
100
AcDbArc
 50
81.81594500000001
 51
98.18438500000002
  0
ARC
  5
30B
330
17
100
AcDbEntity
  8
4
100
AcDbCircle
 10
953.5631114032903
 20
6.861741302873497
 30
0.0
 40
300.000003
100
AcDbArc
 50
80.96297100000002
 51
99.03759600000002
  0
LINE
  5
30C
330
17
100
AcDbEntity
  8
4
100
AcDbLine
 10
985.5631094032906
 20
351.8617413028735
 30
0.0
 11
921.5631104032905
 21
351.8617413028735
 31
0.0
  0
LINE
  5
30D
330
17
100
AcDbEntity
  8
4
100
AcDbLine
 10
945.5631104032905
 20
321.8617413028735
 30
0.0
 11
961.5631094032906
 21
321.8617413028735
 31
0.0
  0
LINE
  5
30E
330
17
100
AcDbEntity
  8
4
100
AcDbLine
 10
949.5631094032906
 20
325.8617433028733
 30
0.0
 11
961.5631094032906
 21
325.8617433028733
 31
0.0
  0
LINE
  5
30F
330
17
100
AcDbEntity
  8
4
100
AcDbLine
 10
949.5631094032906
 20
332.3617413028735
 30
0.0
 11
961.5631094032906
 21
332.3617413028735
 31
0.0
  0
LINE
  5
310
330
17
100
AcDbEntity
  8
4
100
AcDbLine
 10
949.5631094032906
 20
336.3617433028733
 30
0.0
 11
961.5631094032906
 21
336.3617433028733
 31
0.0
  0
LINE
  5
311
330
17
100
AcDbEntity
  8
4
100
AcDbLine
 10
945.5631104032905
 20
346.8617433028733
 30
0.0
 11
961.5631094032906
 21
346.8617433028733
 31
0.0
  0
LINE
  5
312
330
17
100
AcDbEntity
  8
4
100
AcDbLine
 10
949.5631094032906
 20
342.8617413028735
 30
0.0
 11
961.5631094032906
 21
342.8617413028735
 31
0.0
  0
LINE
  5
313
330
17
100
AcDbEntity
  8
4
100
AcDbLine
 10
934.5631094032906
 20
386.8617423028734
 30
0.0
 11
972.5631104032905
 21
386.8617423028734
 31
0.0
  0
LINE
  5
314
330
17
100
AcDbEntity
  8
4
100
AcDbLine
 10
937.5631094032906
 20
386.8617423028734
 30
0.0
 11
969.5631104032905
 21
386.8617423028734
 31
0.0
  0
LINE
  5
315
330
17
100
AcDbEntity
  8
4
100
AcDbLine
 10
936.5631104032905
 20
388.3617423028734
 30
0.0
 11
970.5631094032906
 21
388.3617423028734
 31
0.0
  0
LINE
  5
316
330
17
100
AcDbEntity
  8
4
100
AcDbLine
 10
936.5631104032905
 20
390.3617433028733
 30
0.0
 11
970.5631094032906
 21
390.3617433028733
 31
0.0
  0
LINE
  5
317
330
17
100
AcDbEntity
  8
4
100
AcDbLine
 10
936.5631104032905
 20
394.3617423028734
 30
0.0
 11
970.5631094032906
 21
394.3617423028734
 31
0.0
  0
ARC
  5
319
330
17
100
AcDbEntity
  8
4
100
AcDbCircle
 10
999.9010004032907
 20
205.5238503028734
 30
0.0
 40
5.000058
100
AcDbArc
 50
279.0373439999984
 51
350.9626560000003
  0
ARC
  5
31A
330
17
100
AcDbEntity
  8
4
100
AcDbCircle
 10
995.5587164032904
 20
209.8661373028735
 30
0.0
 40
5.000004000000001
100
AcDbArc
 50
278.1831220000011
 51
351.817277
  0
ARC
  5
31B
330
17
100
AcDbEntity
  8
4
100
AcDbCircle
 10
703.5631094032906
 20
251.8617423028734
 30
0.0
 40
300.000042
100
AcDbArc
 50
351.816934
 51
8.184339000000053
  0
ARC
  5
31C
330
17
100
AcDbEntity
  8
4
100
AcDbCircle
 10
1018.563109403291
 20
119.3636943028737
 30
0.0
 40
4.999941000000001
100
AcDbArc
 50
96.16686299999822
 51
180.0
  0
LINE
  5
31D
330
17
100
AcDbEntity
  8
4
100
AcDbLine
 10
1048.563109403291
 20
23.86174230287338
 30
0.0
 11
1048.563109403291
 21
48.8617413028735
 31
0.0
  0
ARC
  5
31E
330
17
100
AcDbEntity
  8
4
100
AcDbCircle
 10
1018.563109403291
 20
53.86174230287338
 30
0.0
 40
5.000000999999999
100
AcDbArc
 50
180.0
 51
270.0
  0
ARC
  5
31F
330
17
100
AcDbEntity
  8
4
100
AcDbCircle
 10
1008.56311040329
 20
28.86174330287326
 30
0.0
 40
9.999999
100
AcDbArc
 50
0.0
 51
90.0
  0
LINE
  5
320
330
17
100
AcDbEntity
  8
4
100
AcDbLine
 10
1018.563109403291
 20
23.86174230287338
 30
0.0
 11
1018.563109403291
 21
48.8617413028735
 31
0.0
  0
LINE
  5
321
330
17
100
AcDbEntity
  8
4
100
AcDbLine
 10
1013.56311140329
 20
53.86174230287338
 30
0.0
 11
1013.56311140329
 21
119.3636943028737
 31
0.0
  0
LINE
  5
322
330
17
100
AcDbEntity
  8
4
100
AcDbLine
 10
965.5631114032903
 20
38.86174230287338
 30
0.0
 11
965.5631114032903
 21
53.86174230287338
 31
0.0
  0
ARC
  5
323
330
17
100
AcDbEntity
  8
4
100
AcDbCircle
 10
907.2252194032908
 20
205.5238503028734
 30
0.0
 40
5.000058
100
AcDbArc
 50
189.0373439999996
 51
260.9626449999986
  0
ARC
  5
324
330
17
100
AcDbEntity
  8
4
100
AcDbCircle
 10
1203.56311040329
 20
251.8619853028731
 30
0.0
 40
300.000042
100
AcDbArc
 50
171.8166499999999
 51
188.185045
  0
ARC
  5
325
330
17
100
AcDbEntity
  8
4
100
AcDbCircle
 10
911.5677494032907
 20
209.8661373028735
 30
0.0
 40
4.999899000000001
100
AcDbArc
 50
188.1831220000006
 51
261.8141099999998
  0
LINE
  5
326
330
17
100
AcDbEntity
  8
2
100
AcDbLine
 10
958.1922764032906
 20
56.53439130287347
 30
0.0
 11
953.5631114032903
 21
59.20704030287357
 31
0.0
  0
LINE
  5
327
330
17
100
AcDbEntity
  8
2
100
AcDbLine
 10
953.5631114032903
 20
59.20704030287357
 30
0.0
 11
948.9339464032905
 21
56.53439130287347
 31
0.0
  0
LINE
  5
328
330
17
100
AcDbEntity
  8
2
100
AcDbLine
 10
953.5631114032903
 20
48.5164443028732
 30
0.0
 11
958.1922764032906
 21
51.18909330287329
 31
0.0
  0
LINE
  5
329
330
17
100
AcDbEntity
  8
2
100
AcDbLine
 10
948.9339464032905
 20
51.18909330287329
 30
0.0
 11
953.5631114032903
 21
48.5164443028732
 31
0.0
  0
LINE
  5
32A
330
17
100
AcDbEntity
  8
2
100
AcDbLine
 10
948.9339464032905
 20
56.53439130287347
 30
0.0
 11
948.9339464032905
 21
51.18909330287329
 31
0.0
  0
LINE
  5
32B
330
17
100
AcDbEntity
  8
2
100
AcDbLine
 10
958.1922764032906
 20
51.18909330287329
 30
0.0
 11
958.1922764032906
 21
56.53439130287347
 31
0.0
  0
LINE
  5
32C
330
17
100
AcDbEntity
  8
4
100
AcDbLine
 10
941.5631114032903
 20
38.86174230287338
 30
0.0
 11
941.5631114032903
 21
53.86174230287338
 31
0.0
  0
ARC
  5
32D
330
17
100
AcDbEntity
  8
4
100
AcDbCircle
 10
888.5631104032905
 20
119.3636943028737
 30
0.0
 40
5.000061
100
AcDbArc
 50
0.0
 51
83.83342600000009
  0
ARC
  5
32E
330
17
100
AcDbEntity
  8
4
100
AcDbCircle
 10
888.5631104032905
 20
53.86174230287338
 30
0.0
 40
5.000000999999999
100
AcDbArc
 50
270.0
 51
0.0
  0
LINE
  5
32F
330
17
100
AcDbEntity
  8
4
100
AcDbLine
 10
893.5631114032903
 20
53.86174230287338
 30
0.0
 11
893.5631114032903
 21
119.3636943028737
 31
0.0
  0
LINE
  5
330
330
17
100
AcDbEntity
  8
L-CENTER
100
AcDbLine
 10
937.3010131357655
 20
53.86174230287338
 30
0.0
 11
969.8252096708152
 21
53.86174230287338
 31
0.0
  0
ARC
  5
331
330
17
100
AcDbEntity
  8
4
100
AcDbCircle
 10
953.5631114032903
 20
53.86174230287338
 30
0.0
 40
12.0
100
AcDbArc
 50
0.0
 51
180.0011650000286
  0
CIRCLE
  5
332
330
17
100
AcDbEntity
  8
2
100
AcDbCircle
 10
953.5631114032903
 20
53.86174230287338
 30
0.0
 40
6.500000999999999
  0
ARC
  5
333
330
17
100
AcDbEntity
  8
4
100
AcDbCircle
 10
953.5628654032907
 20
501.8617413028735
 30
0.0
 40
299.999922
100
AcDbArc
 50
261.816789
 51
278.18519
  0
ARC
  5
334
330
17
100
AcDbEntity
  8
4
100
AcDbCircle
 10
953.5628654032907
 20
496.8617433028733
 30
0.0
 40
299.999982
100
AcDbArc
 50
260.963585
 51
279.038163
  0
LINE
  5
335
330
17
100
AcDbEntity
  8
L-CENTER
100
AcDbLine
 10
953.5631114032903
 20
33.35221443662704
 30
0.0
 11
953.5631114032903
 21
398.7907931940455
 31
0.0
  0
ARC
  5
336
330
17
100
AcDbEntity
  8
4
100
AcDbCircle
 10
708.5631104032905
 20
251.8617423028734
 30
0.0
 40
299.999937
100
AcDbArc
 50
350.963677
 51
9.037549999999964
  0
ARC
  5
337
330
17
100
AcDbEntity
  8
4
100
AcDbCircle
 10
1198.563109403291
 20
251.8619853028731
 30
0.0
 40
300.000006
100
AcDbArc
 50
170.9635850000001
 51
189.037926
  0
ARC
  5
338
330
17
100
AcDbEntity
  8
4
100
AcDbCircle
 10
911.5675064032903
 20
293.857347302873
 30
0.0
 40
5.000004000000001
100
AcDbArc
 50
98.18312099999712
 51
171.817277
  0
ARC
  5
339
330
17
100
AcDbEntity
  8
4
100
AcDbCircle
 10
995.5587164032904
 20
293.857347302873
 30
0.0
 40
4.999884
100
AcDbArc
 50
8.18312100000049
 51
81.81687899999822
  0
ARC
  5
33A
330
17
100
AcDbEntity
  8
4
100
AcDbCircle
 10
857.4381104032905
 20
298.8617433028733
 30
0.0
 40
3.000015
100
AcDbArc
 50
90.0
 51
153.9416629999994
  0
ARC
  5
33B
330
17
100
AcDbEntity
  8
4
100
AcDbCircle
 10
841.1234144032906
 20
371.1593493028734
 30
0.0
 40
4.000032
100
AcDbArc
 50
100.874422000002
 51
166.0816519999994
  0
ARC
  5
342
330
17
100
AcDbEntity
  8
4
100
AcDbCircle
 10
801.7354754032904
 20
252.0341043028734
 30
0.0
 40
4.000088999999999
100
AcDbArc
 50
9.744023999999818
 51
80.25597599999674
  0
ARC
  5
343
330
17
100
AcDbEntity
  8
4
100
AcDbCircle
 10
800.8804934032905
 20
251.1791253028734
 30
0.0
 40
4.000041
100
AcDbArc
 50
9.488754999999399
 51
80.51122799999615
  0
LINE
  5
344
330
17
100
AcDbEntity
  8
4
100
AcDbLine
 10
772.0631114032903
 20
234.3617433028733
 30
0.0
 11
772.0631114032903
 21
227.3617413028735
 31
0.0
  0
LINE
  5
345
330
17
100
AcDbEntity
  8
4
100
AcDbLine
 10
765.0631094032906
 20
234.3617433028733
 30
0.0
 11
765.0631094032906
 21
227.3617413028735
 31
0.0
  0
LINE
  5
346
330
17
100
AcDbEntity
  8
4
100
AcDbLine
 10
772.0631114032903
 20
227.3617413028735
 30
0.0
 11
765.0631094032906
 21
227.3617413028735
 31
0.0
  0
LINE
  5
347
330
17
100
AcDbEntity
  8
4
100
AcDbLine
 10
765.0631094032906
 20
234.3617433028733
 30
0.0
 11
772.0631114032903
 21
234.3617433028733
 31
0.0
  0
LINE
  5
348
330
17
100
AcDbEntity
  8
4
100
AcDbLine
 10
807.0760514032904
 20
258.8617413028735
 30
0.0
 11
768.5631104032905
 21
258.8617413028735
 31
0.0
  0
ARC
  5
349
330
17
100
AcDbEntity
  8
4
100
AcDbCircle
 10
801.7354754032904
 20
185.6893803028734
 30
0.0
 40
4.000088999999999
100
AcDbArc
 50
279.7440240000033
 51
350.2559760000001
  0
ARC
  5
34A
330
17
100
AcDbEntity
  8
4
100
AcDbCircle
 10
800.8804934032905
 20
186.5443593028733
 30
0.0
 40
4.000041
100
AcDbArc
 50
279.488769000001
 51
350.5112309999989
  0
LINE
  5
34B
330
17
100
AcDbEntity
  8
L-CENTER
100
AcDbLine
 10
768.5631104032905
 20
174.9626256819569
 30
0.0
 11
768.5631104032905
 21
262.7608589237899
 31
0.0
  0
ARC
  5
34C
330
17
100
AcDbEntity
  8
4
100
AcDbCircle
 10
608.5631114032903
 20
218.8614993028737
 30
0.0
 40
200.000058
100
AcDbArc
 50
350.2571769999999
 51
9.744167999999922
  0
ARC
  5
34D
330
17
100
AcDbEntity
  8
4
100
AcDbCircle
 10
607.5631094032906
 20
218.8614993028737
 30
0.0
 40
199.999962
100
AcDbArc
 50
350.510634
 51
9.49071100000003
  0
ARC
  5
34E
330
17
100
AcDbEntity
  8
4
100
AcDbCircle
 10
807.0760514032904
 20
274.8617433028733
 30
0.0
 40
16.000011
100
AcDbArc
 50
270.0008740000004
 51
357.4463049999998
  0
ARC
  5
34F
330
17
100
AcDbEntity
  8
4
100
AcDbCircle
 10
840.3543704032904
 20
135.7123293028735
 30
0.0
 40
3.999987
100
AcDbArc
 50
193.5442990000022
 51
259.0508190000033
  0
ARC
  5
350
330
17
100
AcDbEntity
  8
4
100
AcDbCircle
 10
798.5631104032905
 20
68.86174230287338
 30
0.0
 40
3.0
100
AcDbArc
 50
270.0
 51
0.0
  0
LINE
  5
351
330
17
100
AcDbEntity
  8
4
100
AcDbLine
 10
808.5631094032906
 20
23.86174230287338
 30
0.0
 11
808.5631094032906
 21
48.8617413028735
 31
0.0
  0
LINE
  5
352
330
17
100
AcDbEntity
  8
4
100
AcDbLine
 10
778.5631094032906
 20
23.86174230287338
 30
0.0
 11
778.5631094032906
 21
48.8617413028735
 31
0.0
  0
ARC
  5
353
330
17
100
AcDbEntity
  8
4
100
AcDbCircle
 10
818.5631114032903
 20
28.86174330287326
 30
0.0
 40
9.999999
100
AcDbArc
 50
90.0
 51
180.0013980003158
  0
LINE
  5
354
330
17
100
AcDbEntity
  8
4
100
AcDbLine
 10
801.5631104032905
 20
68.86174230287338
 30
0.0
 11
801.5631104032905
 21
181.6029543028735
 31
0.0
  0
ARC
  5
355
330
17
100
AcDbEntity
  8
4
100
AcDbCircle
 10
735.3907484032907
 20
252.0341043028734
 30
0.0
 40
4.000088999999999
100
AcDbArc
 50
99.7440240000033
 51
170.2559760000002
  0
ARC
  5
356
330
17
100
AcDbEntity
  8
4
100
AcDbCircle
 10
736.2457274032904
 20
251.1791253028734
 30
0.0
 40
4.000041
100
AcDbArc
 50
99.48877200000388
 51
170.5112450000006
  0
LINE
  5
357
330
17
100
AcDbEntity
  8
4
100
AcDbLine
 10
728.5731194032905
 20
220.8617433028733
 30
0.0
 11
722.5631114032903
 21
220.8617433028733
 31
0.0
  0
ARC
  5
358
330
17
100
AcDbEntity
  8
4
100
AcDbCircle
 10
735.3907484032907
 20
185.6893803028734
 30
0.0
 40
4.000088999999999
100
AcDbArc
 50
189.7440239999998
 51
260.2559759999967
  0
ARC
  5
359
330
17
100
AcDbEntity
  8
4
100
AcDbCircle
 10
736.2457274032904
 20
186.5443593028733
 30
0.0
 40
4.000041
100
AcDbArc
 50
189.488769000001
 51
260.5112309999989
  0
ARC
  5
35A
330
17
100
AcDbEntity
  8
4
100
AcDbCircle
 10
928.5631094032906
 20
218.8617423028734
 30
0.0
 40
200.000001
100
AcDbArc
 50
170.25682
 51
189.744456
  0
ARC
  5
35B
330
17
100
AcDbEntity
  8
4
100
AcDbCircle
 10
929.5631114032903
 20
218.8617423028734
 30
0.0
 40
200.000022
100
AcDbArc
 50
170.510358
 51
189.4910679999999
  0
LINE
  5
35C
330
17
100
AcDbEntity
  8
4
100
AcDbLine
 10
707.1632084032904
 20
204.4427963028734
 30
0.0
 11
701.1632084032904
 21
204.4427963028734
 31
0.0
  0
LINE
  5
35D
330
17
100
AcDbEntity
  8
4
100
AcDbLine
 10
701.1632084032904
 20
194.4427963028734
 30
0.0
 11
707.1632084032904
 21
194.4427963028734
 31
0.0
  0
LINE
  5
35E
330
17
100
AcDbEntity
  8
4
100
AcDbLine
 10
701.1632084032904
 20
204.4427963028734
 30
0.0
 11
701.1632084032904
 21
194.4427963028734
 31
0.0
  0
LINE
  5
360
330
17
100
AcDbEntity
  8
4
100
AcDbLine
 10
707.1632084032904
 20
193.6927963028734
 30
0.0
 11
707.1632084032904
 21
205.1927963028734
 31
0.0
  0
ARC
  5
365
330
17
100
AcDbEntity
  8
4
100
AcDbCircle
 10
709.6632074032905
 20
215.8617423028734
 30
0.0
 40
0.999999
100
AcDbArc
 50
90.0
 51
180.0
  0
LINE
  5
366
330
17
100
AcDbEntity
  8
4
100
AcDbLine
 10
704.5633544032908
 20
149.3617413028735
 30
0.0
 11
708.6632084032904
 21
146.3617413028735
 31
0.0
  0
LINE
  5
367
330
17
100
AcDbEntity
  8
4
100
AcDbLine
 10
693.5633554032902
 20
153.8617423028734
 30
0.0
 11
694.5633554032902
 21
153.8617423028734
 31
0.0
  0
LINE
  5
368
330
17
100
AcDbEntity
  8
4
100
AcDbLine
 10
704.5633544032908
 20
165.8617413028735
 30
0.0
 11
694.5633554032902
 21
163.8617433028733
 31
0.0
  0
LINE
  5
369
330
17
100
AcDbEntity
  8
4
100
AcDbLine
 10
708.6632084032904
 20
186.3614973028732
 30
0.0
 11
704.5633544032908
 21
165.8617413028735
 31
0.0
  0
LINE
  5
36A
330
17
100
AcDbEntity
  8
4
100
AcDbLine
 10
709.6632074032905
 20
216.8617413028735
 30
0.0
 11
720.5631104032905
 21
216.8617413028735
 31
0.0
  0
LINE
  5
36B
330
17
100
AcDbEntity
  8
4
100
AcDbLine
 10
722.5631114032903
 20
65.72453430287328
 30
0.0
 11
735.5631104032905
 21
65.72453430287328
 31
0.0
  0
LINE
  5
36D
330
17
100
AcDbEntity
  8
4
100
AcDbLine
 10
723.5631104032905
 20
36.8617413028735
 30
0.0
 11
722.5631114032903
 21
36.8617413028735
 31
0.0
  0
LINE
  5
36E
330
17
100
AcDbEntity
  8
4
100
AcDbLine
 10
720.5631104032905
 20
38.86174230287338
 30
0.0
 11
722.5631114032903
 21
38.86174230287338
 31
0.0
  0
LINE
  5
36F
330
17
100
AcDbEntity
  8
4
100
AcDbLine
 10
723.5631104032905
 20
23.86174230287338
 30
0.0
 11
723.5631104032905
 21
48.8617413028735
 31
0.0
  0
LINE
  5
370
330
17
100
AcDbEntity
  8
4
100
AcDbLine
 10
704.5633544032908
 20
108.3617433028733
 30
0.0
 11
708.6632084032904
 21
111.3617433028733
 31
0.0
  0
LINE
  5
37A
330
17
100
AcDbEntity
  8
4
100
AcDbLine
 10
693.5633554032902
 20
103.8617423028734
 30
0.0
 11
694.5633554032902
 21
103.8617423028734
 31
0.0
  0
LINE
  5
37B
330
17
100
AcDbEntity
  8
4
100
AcDbLine
 10
708.6632084032904
 20
71.36198730287356
 30
0.0
 11
704.5633544032908
 21
91.86174330287326
 31
0.0
  0
LINE
  5
37C
330
17
100
AcDbEntity
  8
4
100
AcDbLine
 10
704.5633544032908
 20
91.86174330287326
 30
0.0
 11
694.5633554032902
 21
93.8617413028735
 31
0.0
  0
LINE
  5
37D
330
17
100
AcDbEntity
  8
4
100
AcDbLine
 10
704.5633544032908
 20
123.8617423028734
 30
0.0
 11
704.5633544032908
 21
91.86174330287326
 31
0.0
  0
ARC
  5
37E
330
17
100
AcDbEntity
  8
4
100
AcDbCircle
 10
709.6632074032905
 20
41.86174230287338
 30
0.0
 40
0.999999
100
AcDbArc
 50
180.0
 51
270.0
  0
LINE
  5
388
330
17
100
AcDbEntity
  8
4
100
AcDbLine
 10
708.6632084032904
 20
128.8617423028734
 30
0.0
 11
708.6632084032904
 21
41.86174230287338
 31
0.0
  0
LINE
  5
38A
330
17
100
AcDbEntity
  8
4
100
AcDbLine
 10
709.6632074032905
 20
40.86174330287326
 30
0.0
 11
720.5631104032905
 21
40.86174330287326
 31
0.0
  0
LINE
  5
38B
330
17
100
AcDbEntity
  8
4
100
AcDbLine
 10
720.5631104032905
 20
218.8617423028734
 30
0.0
 11
720.5631104032905
 21
38.86174230287338
 31
0.0
  0
LINE
  5
38C
330
17
100
AcDbEntity
  8
4
100
AcDbLine
 10
722.5631114032903
 20
220.8617433028733
 30
0.0
 11
722.5631114032903
 21
36.8617413028735
 31
0.0
  0
LINE
  5
38D
330
17
100
AcDbEntity
  8
4
100
AcDbLine
 10
720.5631104032905
 20
216.8617413028735
 30
0.0
 11
720.5631104032905
 21
40.86174330287326
 31
0.0
  0
LINE
  5
38E
330
17
100
AcDbEntity
  8
4
100
AcDbLine
 10
735.5631104032905
 20
181.6029543028735
 30
0.0
 11
735.5631104032905
 21
65.72453430287328
 31
0.0
  0
LINE
  5
38F
330
17
100
AcDbEntity
  8
4
100
AcDbLine
 10
693.5633554032902
 20
153.8617423028734
 30
0.0
 11
693.5633554032902
 21
103.8617423028734
 31
0.0
  0
LINE
  5
390
330
17
100
AcDbEntity
  8
4
100
AcDbLine
 10
694.5633554032902
 20
163.8617433028733
 30
0.0
 11
694.5633554032902
 21
93.8617413028735
 31
0.0
  0
LINE
  5
391
330
17
100
AcDbEntity
  8
4
100
AcDbLine
 10
708.6632084032904
 20
128.8617423028734
 30
0.0
 11
708.6632084032904
 21
215.8617423028734
 31
0.0
  0
LINE
  5
392
330
17
100
AcDbEntity
  8
4
100
AcDbLine
 10
704.5633544032908
 20
133.8617423028734
 30
0.0
 11
704.5633544032908
 21
165.8617413028735
 31
0.0
  0
LINE
  5
393
330
17
100
AcDbEntity
  8
4
100
AcDbLine
 10
723.5631104032905
 20
23.86174230287338
 30
0.0
 11
808.5631094032906
 21
23.86174230287338
 31
0.0
  0
LINE
  5
394
330
17
100
AcDbEntity
  8
4
100
AcDbLine
 10
798.5631104032905
 20
65.86174230287338
 30
0.0
 11
735.5631104032905
 21
65.86174230287338
 31
0.0
  0
CIRCLE
  5
395
330
17
100
AcDbEntity
  8
4
100
AcDbCircle
 10
768.5631104032905
 20
218.8617423028734
 30
0.0
 40
30.999999
  0
ARC
  5
396
330
17
100
AcDbEntity
  8
4
100
AcDbCircle
 10
768.5631104032905
 20
379.8617433028733
 30
0.0
 40
200.000043
100
AcDbArc
 50
260.5104959999999
 51
279.491275
  0
ARC
  5
397
330
17
100
AcDbEntity
  8
4
100
AcDbCircle
 10
768.5631104032905
 20
378.8617413028735
 30
0.0
 40
199.999965
100
AcDbArc
 50
260.2568889999999
 51
279.744812
  0
LINE
  5
398
330
17
100
AcDbEntity
  8
L-CENTER
100
AcDbLine
 10
812.4622270242071
 20
218.8617423028734
 30
0.0
 11
724.6639937823738
 21
218.8617423028734
 31
0.0
  0
ARC
  5
399
330
17
100
AcDbEntity
  8
4
100
AcDbCircle
 10
768.5631104032905
 20
58.86174330287326
 30
0.0
 40
200.000085
100
AcDbArc
 50
80.25625700000005
 51
99.744168
  0
ARC
  5
39A
330
17
100
AcDbEntity
  8
4
100
AcDbCircle
 10
768.5631104032905
 20
57.8617413028735
 30
0.0
 40
199.999962
100
AcDbArc
 50
80.50978300000006
 51
99.49071100000008
  0
ARC
  5
39B
330
17
100
AcDbEntity
  8
4
100
AcDbCircle
 10
768.5631104032905
 20
218.8617423028734
 30
0.0
 40
12.500001
100
AcDbArc
 50
106.2602049999998
 51
73.73979500000017
  0
ARC
  5
39C
330
17
100
AcDbEntity
  8
4
100
AcDbCircle
 10
1322.56311140329
 20
251.8624743028736
 30
0.0
 40
500.000013
100
AcDbArc
 50
166.083748
 51
193.5432449999998
  0
LINE
  5
3A2
330
17
100
AcDbEntity
  8
4
100
AcDbLine
 10
888.5631104032905
 20
48.8617413028735
 30
0.0
 11
723.5631104032905
 21
48.8617413028735
 31
0.0
  0
LINE
  5
3A3
330
17
100
AcDbEntity
  8
4
100
AcDbLine
 10
1008.56311040329
 20
38.86174230287338
 30
0.0
 11
818.5631114032903
 21
38.86174230287338
 31
0.0
  0
LINE
  5
3A4
330
17
100
AcDbEntity
  8
4
100
AcDbLine
 10
899.2305914032904
 20
301.8617433028733
 30
0.0
 11
857.4381104032905
 21
301.8617433028733
 31
0.0
  0
LINE
  5
3B3
330
17
100
AcDbEntity
  8
4
100
AcDbLine
 10
1018.563109403291
 20
48.8617413028735
 30
0.0
 11
1103.56311140329
 21
48.8617413028735
 31
0.0
  0
LINE
  5
3B4
330
17
100
AcDbEntity
  8
4
100
AcDbLine
 10
1018.563109403291
 20
23.86174230287338
 30
0.0
 11
1103.56311140329
 21
23.86174230287338
 31
0.0
  0
LINE
  5
3B5
330
17
100
AcDbEntity
  8
L-CENTER
100
AcDbLine
 10
689.7598216527899
 20
128.8617423028734
 30
0.0
 11
1093.637368403291
 21
128.8617423028734
 31
0.0
  0
LINE
  5
3B6
330
17
100
AcDbEntity
  8
L-CENTER
100
AcDbLine
 10
1091.503102765531
 20
251.8617423028734
 30
0.0
 11
815.6231200410498
 21
251.8617423028734
 31
0.0
  0
ARC
  5
3B7
330
17
100
AcDbEntity
  8
4
100
AcDbCircle
 10
953.5631114032903
 20
-214.1382566971267
 30
0.0
 40
599.999955
100
AcDbArc
 50
79.12587499999998
 51
100.874788
  0
ARC
  5
3B8
330
17
100
AcDbEntity
  8
4
100
AcDbCircle
 10
953.5628654032907
 20
720.8617413028735
 30
0.0
 40
600.000048
100
AcDbArc
 50
259.05142
 51
280.950551
  0
CIRCLE
  5
3B9
330
17
100
AcDbEntity
  8
4
100
AcDbCircle
 10
953.5631114032903
 20
251.8617423028734
 30
0.0
 40
110.000001
  0
CIRCLE
  5
3BA
330
17
100
AcDbEntity
  8
4
100
AcDbCircle
 10
953.5631114032903
 20
251.8617423028734
 30
0.0
 40
129.0
  0
LINE
  5
3C8
330
17
100
AcDbEntity
  8
4
100
AcDbLine
 10
523.9455656949135
 20
230.3617413028735
 30
0.0
 11
522.9455666949139
 21
231.3617433028733
 31
0.0
  0
LINE
  5
3CA
330
17
100
AcDbEntity
  8
4
100
AcDbLine
 10
523.9455656949135
 20
207.3617433028733
 30
0.0
 11
522.9455666949139
 21
206.3617413028735
 31
0.0
  0
LINE
  5
3CC
330
17
100
AcDbEntity
  8
4
100
AcDbLine
 10
523.9455656949135
 20
207.3617433028733
 30
0.0
 11
523.9455656949135
 21
234.3617433028733
 31
0.0
  0
LINE
  5
3CD
330
17
100
AcDbEntity
  8
4
100
AcDbLine
 10
522.9455666949139
 20
206.3617413028735
 30
0.0
 11
522.9455666949139
 21
231.3617433028733
 31
0.0
  0
LINE
  5
3CF
330
17
100
AcDbEntity
  8
4
100
AcDbLine
 10
468.9455666949139
 20
234.3617433028733
 30
0.0
 11
468.9455666949139
 21
231.3617433028733
 31
0.0
  0
LINE
  5
3D0
330
17
100
AcDbEntity
  8
4
100
AcDbLine
 10
450.9455666949139
 20
249.8617413028735
 30
0.0
 11
449.9455646949136
 21
249.8617413028735
 31
0.0
  0
LINE
  5
3D1
330
17
100
AcDbEntity
  8
4
100
AcDbLine
 10
450.9455666949139
 20
233.8617423028734
 30
0.0
 11
463.9455656949135
 21
233.8617423028734
 31
0.0
  0
LINE
  5
3D3
330
17
100
AcDbEntity
  8
4
100
AcDbLine
 10
450.9455666949139
 20
187.8617433028733
 30
0.0
 11
449.9455646949136
 21
187.8617433028733
 31
0.0
  0
LINE
  5
3D4
330
17
100
AcDbEntity
  8
4
100
AcDbLine
 10
450.9455666949139
 20
203.8617423028734
 30
0.0
 11
463.9455656949135
 21
203.8617423028734
 31
0.0
  0
LINE
  5
3D5
330
17
100
AcDbEntity
  8
4
100
AcDbLine
 10
450.9455666949139
 20
249.8617413028735
 30
0.0
 11
450.9455666949139
 21
187.8617433028733
 31
0.0
  0
LINE
  5
3D6
330
17
100
AcDbEntity
  8
4
100
AcDbLine
 10
449.9455646949136
 20
178.8617433028733
 30
0.0
 11
449.9455646949136
 21
258.8617413028735
 31
0.0
  0
LINE
  5
3D7
330
17
100
AcDbEntity
  8
4
100
AcDbLine
 10
463.9455656949135
 20
203.8617423028734
 30
0.0
 11
463.9455656949135
 21
233.8617423028734
 31
0.0
  0
LINE
  5
3D8
330
17
100
AcDbEntity
  8
4
100
AcDbLine
 10
522.9455666949139
 20
231.3617433028733
 30
0.0
 11
463.9455656949135
 21
231.3617433028733
 31
0.0
  0
LINE
  5
3D9
330
17
100
AcDbEntity
  8
4
100
AcDbLine
 10
523.9455656949135
 20
234.3617433028733
 30
0.0
 11
468.9455666949139
 21
234.3617433028733
 31
0.0
  0
LINE
  5
3DA
330
17
100
AcDbEntity
  8
4
100
AcDbLine
 10
522.9455666949139
 20
206.3617413028735
 30
0.0
 11
463.9455656949135
 21
206.3617413028735
 31
0.0
  0
ARC
  5
3E0
330
17
100
AcDbEntity
  8
4
100
AcDbCircle
 10
461.9455646949136
 20
46.86174330287326
 30
0.0
 40
2.000001
100
AcDbArc
 50
0.0
 51
90.0
  0
LINE
  5
3E1
330
17
100
AcDbEntity
  8
4
100
AcDbLine
 10
447.9455666949139
 20
23.86174230287338
 30
0.0
 11
447.9455666949139
 21
48.8617413028735
 31
0.0
  0
LINE
  5
3E2
330
17
100
AcDbEntity
  8
4
100
AcDbLine
 10
463.9455656949135
 20
23.86174230287338
 30
0.0
 11
463.9455656949135
 21
46.86174330287326
 31
0.0
  0
ARC
  5
3EB
330
17
100
AcDbEntity
  8
4
100
AcDbCircle
 10
425.9455646949136
 20
379.8619863028737
 30
0.0
 40
0.999999
100
AcDbArc
 50
0.0
 51
90.0
  0
LINE
  5
3EC
330
17
100
AcDbEntity
  8
4
100
AcDbLine
 10
425.9455646949136
 20
380.8619853028733
 30
0.0
 11
412.945565694914
 21
380.8619853028733
 31
0.0
  0
LINE
  5
3ED
330
17
100
AcDbEntity
  8
4
100
AcDbLine
 10
426.9455666949139
 20
306.0287343028733
 30
0.0
 11
431.9455646949136
 21
301.8619863028737
 31
0.0
  0
LINE
  5
3EE
330
17
100
AcDbEntity
  8
4
100
AcDbLine
 10
362.9455646949136
 20
385.5607173028732
 30
0.0
 11
362.9455646949136
 21
386.8617423028734
 31
0.0
  0
LINE
  5
3EF
330
17
100
AcDbEntity
  8
4
100
AcDbLine
 10
358.6679786949135
 20
390.3617433028733
 30
0.0
 11
358.6679786949135
 21
394.3617423028734
 31
0.0
  0
LINE
  5
3F0
330
17
100
AcDbEntity
  8
4
100
AcDbLine
 10
359.9455646949136
 20
386.8617423028734
 30
0.0
 11
359.9455646949136
 21
388.3617423028734
 31
0.0
  0
LINE
  5
3F1
330
17
100
AcDbEntity
  8
4
100
AcDbLine
 10
360.9455666949139
 20
388.3617423028734
 30
0.0
 11
360.9455666949139
 21
390.3617433028733
 31
0.0
  0
LINE
  5
3F4
330
17
100
AcDbEntity
  8
4
100
AcDbLine
 10
329.2231526949136
 20
390.3617433028733
 30
0.0
 11
329.2231526949136
 21
394.3617423028734
 31
0.0
  0
LINE
  5
3F5
330
17
100
AcDbEntity
  8
4
100
AcDbLine
 10
324.9455666949139
 20
385.5607173028732
 30
0.0
 11
324.9455666949139
 21
386.8617423028734
 31
0.0
  0
LINE
  5
3F6
330
17
100
AcDbEntity
  8
4
100
AcDbLine
 10
326.9455646949136
 20
390.3617433028733
 30
0.0
 11
326.9455646949136
 21
388.3617423028734
 31
0.0
  0
LINE
  5
3F7
330
17
100
AcDbEntity
  8
4
100
AcDbLine
 10
327.9455666949139
 20
386.8617423028734
 30
0.0
 11
327.9455666949139
 21
388.3617423028734
 31
0.0
  0
LINE
  5
3F8
330
17
100
AcDbEntity
  8
4
100
AcDbLine
 10
343.945565694914
 20
386.8617423028734
 30
0.0
 11
324.9455666949139
 21
386.8617423028734
 31
0.0
  0
ARC
  5
3FB
330
17
100
AcDbEntity
  8
4
100
AcDbCircle
 10
260.5456646949137
 20
379.8619863028737
 30
0.0
 40
0.999999
100
AcDbArc
 50
90.0
 51
180.0
  0
LINE
  5
3FC
330
17
100
AcDbEntity
  8
4
100
AcDbLine
 10
260.5456646949137
 20
380.8619853028733
 30
0.0
 11
272.9455646949136
 21
380.8619853028733
 31
0.0
  0
LINE
  5
3FD
330
17
100
AcDbEntity
  8
4
100
AcDbLine
 10
274.945565694914
 20
381.8619873028736
 30
0.0
 11
272.9455646949136
 21
381.8619873028736
 31
0.0
  0
LINE
  5
3FE
330
17
100
AcDbEntity
  8
4
100
AcDbLine
 10
257.5456626949135
 20
348.5348383028734
 30
0.0
 11
257.545662694914
 21
363.0348383028734
 31
0.0
  0
LINE
  5
404
330
17
100
AcDbEntity
  8
4
100
AcDbLine
 10
259.5456626949135
 20
304.3619853028733
 30
0.0
 11
255.5456636949139
 21
301.8619863028737
 31
0.0
  0
ARC
  5
405
330
17
100
AcDbEntity
  8
4
100
AcDbCircle
 10
343.945565694914
 20
-214.1382566971267
 30
0.0
 40
600.000003
100
AcDbArc
 50
83.39639800000002
 51
96.60407
  0
LINE
  5
406
330
17
100
AcDbEntity
  8
4
100
AcDbLine
 10
360.9455666949139
 20
388.3617423028734
 30
0.0
 11
326.9455646949136
 21
388.3617423028734
 31
0.0
  0
LINE
  5
407
330
17
100
AcDbEntity
  8
4
100
AcDbLine
 10
360.9455666949139
 20
390.3617433028733
 30
0.0
 11
326.9455646949136
 21
390.3617433028733
 31
0.0
  0
LINE
  5
408
330
17
100
AcDbEntity
  8
4
100
AcDbLine
 10
362.9455646949136
 20
386.8617423028734
 30
0.0
 11
343.945565694914
 21
386.8617423028734
 31
0.0
  0
LINE
  5
409
330
17
100
AcDbEntity
  8
4
100
AcDbLine
 10
359.9455646949136
 20
386.8617423028734
 30
0.0
 11
327.9455666949139
 21
386.8617423028734
 31
0.0
  0
LINE
  5
40A
330
17
100
AcDbEntity
  8
4
100
AcDbLine
 10
358.6679786949135
 20
394.3617423028734
 30
0.0
 11
329.2231526949136
 21
394.3617423028734
 31
0.0
  0
ARC
  5
40C
330
17
100
AcDbEntity
  8
4
100
AcDbCircle
 10
422.9616806949134
 20
207.8778543028734
 30
0.0
 40
4.999995
100
AcDbArc
 50
11.53982300000052
 51
78.46017900000002
  0
ARC
  5
40D
330
17
100
AcDbEntity
  8
4
100
AcDbCircle
 10
412.8650546949139
 20
149.6969013028731
 30
0.0
 40
3.0
100
AcDbArc
 50
265.3624349999988
 51
16.82067400000035
  0
LINE
  5
40E
330
17
100
AcDbEntity
  8
2
100
AcDbLine
 10
387.1955658707743
 20
197.9994380914984
 30
0.0
 11
387.1955658707743
 21
200.8861894374465
 31
0.0
  0
LINE
  5
40F
330
17
100
AcDbEntity
  8
2
100
AcDbLine
 10
384.6955658707743
 20
202.3295651104206
 30
0.0
 11
382.1955658707743
 21
200.8861894374465
 31
0.0
  0
LINE
  5
410
330
17
100
AcDbEntity
  8
2
100
AcDbLine
 10
382.1955658707743
 20
200.8861894374465
 30
0.0
 11
382.1955658707743
 21
197.9994380914984
 31
0.0
  0
LINE
  5
411
330
17
100
AcDbEntity
  8
2
100
AcDbLine
 10
382.1955658707743
 20
197.9994380914984
 30
0.0
 11
384.6955658707743
 21
196.5560624185243
 31
0.0
  0
LINE
  5
412
330
17
100
AcDbEntity
  8
2
100
AcDbLine
 10
387.1955658707743
 20
200.8861894374465
 30
0.0
 11
384.6955658707743
 21
202.3295651104206
 31
0.0
  0
LINE
  5
413
330
17
100
AcDbEntity
  8
2
100
AcDbLine
 10
384.6955658707743
 20
196.5560624185243
 30
0.0
 11
387.1955658707743
 21
197.9994380914984
 31
0.0
  0
CIRCLE
  5
415
330
17
100
AcDbEntity
  8
4
100
AcDbCircle
 10
384.6955658707743
 20
199.4428137644725
 30
0.0
 40
5.0
  0
LINE
  5
416
330
17
100
AcDbEntity
  8
L-CENTER
100
AcDbLine
 10
380.1919070466347
 20
191.6422462260716
 30
0.0
 11
389.1992246949139
 21
207.2433813028733
 31
0.0
  0
ARC
  5
417
330
17
100
AcDbEntity
  8
4
100
AcDbCircle
 10
375.4156946949138
 20
160.3318713028734
 30
0.0
 40
3.0
100
AcDbArc
 50
9.192202999996342
 51
80.80779699999599
  0
ARC
  5
418
330
17
100
AcDbEntity
  8
4
100
AcDbCircle
 10
373.6874906949138
 20
158.6036673028732
 30
0.0
 40
3.0
100
AcDbArc
 50
8.683389999997802
 51
81.31660999999777
  0
ARC
  5
419
330
17
100
AcDbEntity
  8
4
100
AcDbCircle
 10
383.502665694914
 20
153.0820053028735
 30
0.0
 40
3.999999
100
AcDbArc
 50
186.8186269999987
 51
265.3624349999985
  0
ARC
  5
41A
330
17
100
AcDbEntity
  8
4
100
AcDbCircle
 10
364.7807246949137
 20
197.7812313028737
 30
0.0
 40
3.0
100
AcDbArc
 50
73.17932599999486
 51
184.6375650000012
  0
ARC
  5
41B
330
17
100
AcDbEntity
  8
4
100
AcDbCircle
 10
368.1658286949137
 20
168.4188423028734
 30
0.0
 40
3.999999
100
AcDbArc
 50
184.6375649999998
 51
263.1813730000013
  0
LINE
  5
41C
330
17
100
AcDbEntity
  8
4
100
AcDbLine
 10
361.7905466949137
 20
197.5386753028736
 30
0.0
 11
364.1789246949138
 21
168.0954333028731
 31
0.0
  0
LINE
  5
41D
330
17
100
AcDbEntity
  8
4
100
AcDbLine
 10
383.1792566949139
 20
149.0951013028734
 30
0.0
 11
412.6224986949137
 21
146.7067233028736
 31
0.0
  0
LINE
  5
41E
330
17
100
AcDbEntity
  8
2
100
AcDbLine
 10
427.9455666949139
 20
130.3051179758475
 30
0.0
 11
425.4455666949139
 21
131.7484936488215
 31
0.0
  0
LINE
  5
41F
330
17
100
AcDbEntity
  8
2
100
AcDbLine
 10
427.9455666949139
 20
127.4183666298993
 30
0.0
 11
427.9455666949139
 21
130.3051179758475
 31
0.0
  0
LINE
  5
420
330
17
100
AcDbEntity
  8
2
100
AcDbLine
 10
425.4455666949139
 20
125.9749909569252
 30
0.0
 11
427.9455666949139
 21
127.4183666298993
 31
0.0
  0
ARC
  5
421
330
17
100
AcDbEntity
  8
4
100
AcDbCircle
 10
412.8650546949139
 20
108.0265833028736
 30
0.0
 40
3.0
100
AcDbArc
 50
343.1793259999997
 51
94.6375650000012
  0
LINE
  5
422
330
17
100
AcDbEntity
  8
2
100
AcDbLine
 10
422.9455666949139
 20
130.3051179758475
 30
0.0
 11
422.9455666949139
 21
127.4183666298993
 31
0.0
  0
CIRCLE
  5
424
330
17
100
AcDbEntity
  8
4
100
AcDbCircle
 10
425.4455666949139
 20
128.8617423028734
 30
0.0
 40
5.0
  0
LINE
  5
425
330
17
100
AcDbEntity
  8
2
100
AcDbLine
 10
425.4455666949139
 20
131.7484936488215
 30
0.0
 11
422.9455666949139
 21
130.3051179758475
 31
0.0
  0
LINE
  5
426
330
17
100
AcDbEntity
  8
2
100
AcDbLine
 10
422.9455666949139
 20
127.4183666298993
 30
0.0
 11
425.4455666949139
 21
125.9749909569252
 31
0.0
  0
LINE
  5
428
330
17
100
AcDbEntity
  8
L-CENTER
100
AcDbLine
 10
438.9455666949139
 20
57.8617413028735
 30
0.0
 11
438.9455666949139
 21
14.86174230287338
 31
0.0
  0
LINE
  5
429
330
17
100
AcDbEntity
  8
4
100
AcDbLine
 10
429.9455666949139
 20
23.86174230287338
 30
0.0
 11
429.9455666949139
 21
48.8617413028735
 31
0.0
  0
ARC
  5
42A
330
17
100
AcDbEntity
  8
4
100
AcDbCircle
 10
421.8818456949139
 20
40.64592030287349
 30
0.0
 40
3.488529
100
AcDbArc
 50
112.8036989999989
 51
210.7595080000046
  0
ARC
  5
42B
330
17
100
AcDbEntity
  8
4
100
AcDbCircle
 10
421.8818456949139
 20
40.64592030287349
 30
0.0
 40
3.488529
100
AcDbArc
 50
112.8036989999989
 51
210.7595080000046
  0
ARC
  5
42C
330
17
100
AcDbEntity
  8
4
100
AcDbCircle
 10
415.8864836949137
 20
37.07756130287362
 30
0.0
 40
3.488577
100
AcDbArc
 50
292.8073999999997
 51
30.75952199999961
  0
ARC
  5
42D
330
17
100
AcDbEntity
  8
4
100
AcDbCircle
 10
415.8864836949137
 20
37.07756130287362
 30
0.0
 40
3.488577
100
AcDbArc
 50
292.8073999999997
 51
30.75952199999961
  0
ARC
  5
42E
330
17
100
AcDbEntity
  8
4
100
AcDbCircle
 10
418.5905846949136
 20
30.64592130287338
 30
0.0
 40
3.488529
100
AcDbArc
 50
112.8036989999989
 51
210.7595080000046
  0
ARC
  5
42F
330
17
100
AcDbEntity
  8
4
100
AcDbCircle
 10
418.5905846949136
 20
30.64592130287338
 30
0.0
 40
3.488529
100
AcDbArc
 50
112.8036989999989
 51
210.7595080000046
  0
LINE
  5
430
330
17
100
AcDbEntity
  8
4
100
AcDbLine
 10
411.9472256949139
 20
60.59977830287357
 30
0.0
 11
411.9447056949139
 21
51.0076683028733
 31
0.0
  0
LINE
  5
431
330
17
100
AcDbEntity
  8
4
100
AcDbLine
 10
410.9453216949137
 20
60.43718130287311
 30
0.0
 11
411.9472256949139
 21
60.59977830287357
 31
0.0
  0
LINE
  5
432
330
17
100
AcDbEntity
  8
L-CENTER
100
AcDbLine
 10
414.9346976949137
 20
53.86179330287359
 30
0.0
 11
402.3945416949136
 21
53.86125330287359
 31
0.0
  0
ARC
  5
433
330
17
100
AcDbEntity
  8
4
100
AcDbCircle
 10
412.595225694914
 20
27.0775623028735
 30
0.0
 40
3.488574
100
AcDbArc
 50
292.8073999999983
 51
30.75953100000114
  0
ARC
  5
434
330
17
100
AcDbEntity
  8
4
100
AcDbCircle
 10
412.595225694914
 20
27.0775623028735
 30
0.0
 40
3.488574
100
AcDbArc
 50
292.8073999999983
 51
30.75953100000114
  0
ARC
  5
435
330
17
100
AcDbEntity
  8
4
100
AcDbCircle
 10
419.177498694914
 20
47.07756330287339
 30
0.0
 40
3.488577
100
AcDbArc
 50
292.8073999999997
 51
30.75952200000167
  0
ARC
  5
436
330
17
100
AcDbEntity
  8
4
100
AcDbCircle
 10
419.177498694914
 20
47.07756330287339
 30
0.0
 40
3.488577
100
AcDbArc
 50
292.8073999999997
 51
30.75952200000167
  0
ARC
  5
437
330
17
100
AcDbEntity
  8
4
100
AcDbCircle
 10
343.945565694914
 20
128.8617423028734
 30
0.0
 40
92.000001
100
AcDbArc
 50
316.6647459999999
 51
0.0
  0
ARC
  5
438
330
17
100
AcDbEntity
  8
4
100
AcDbCircle
 10
418.1345306949138
 20
58.86174330287326
 30
0.0
 40
10.00002
100
AcDbArc
 50
136.6639199999988
 51
270.0013979999999
  0
LINE
  5
439
330
17
100
AcDbEntity
  8
4
100
AcDbLine
 10
410.9455646949136
 20
65.8129143028732
 30
0.0
 11
410.9455646949136
 21
51.91056930287368
 31
0.0
  0
ARC
  5
43A
330
17
100
AcDbEntity
  8
4
100
AcDbCircle
 10
383.502665694914
 20
104.6414793028732
 30
0.0
 40
3.999999
100
AcDbArc
 50
94.63756500000144
 51
173.1813730000004
  0
ARC
  5
43B
330
17
100
AcDbEntity
  8
4
100
AcDbCircle
 10
375.4156946949138
 20
97.39161330287334
 30
0.0
 40
3.0
100
AcDbArc
 50
279.192203000004
 51
350.8077970000036
  0
ARC
  5
43C
330
17
100
AcDbEntity
  8
4
100
AcDbCircle
 10
373.6874906949138
 20
99.11981730287357
 30
0.0
 40
3.0
100
AcDbArc
 50
278.6833900000022
 51
351.3166100000022
  0
ARC
  5
43D
330
17
100
AcDbEntity
  8
4
100
AcDbCircle
 10
368.1658286949137
 20
89.30464230287339
 30
0.0
 40
3.999999
100
AcDbArc
 50
96.81862699999876
 51
175.3624350000002
  0
LINE
  5
43E
330
17
100
AcDbEntity
  8
2
100
AcDbLine
 10
387.1955658707743
 20
56.83729516830022
 30
0.0
 11
387.1955658707743
 21
59.72404651424836
 31
0.0
  0
LINE
  5
43F
330
17
100
AcDbEntity
  8
2
100
AcDbLine
 10
384.6955658707743
 20
61.16742218722243
 30
0.0
 11
382.1955658707743
 21
59.72404651424836
 31
0.0
  0
LINE
  5
440
330
17
100
AcDbEntity
  8
2
100
AcDbLine
 10
382.1955658707743
 20
59.72404651424836
 30
0.0
 11
382.1955658707743
 21
56.83729516830022
 31
0.0
  0
LINE
  5
441
330
17
100
AcDbEntity
  8
2
100
AcDbLine
 10
382.1955658707743
 20
56.83729516830022
 30
0.0
 11
384.6955658707743
 21
55.39391949532614
 31
0.0
  0
LINE
  5
442
330
17
100
AcDbEntity
  8
2
100
AcDbLine
 10
387.1955658707743
 20
59.72404651424836
 30
0.0
 11
384.6955658707743
 21
61.16742218722243
 31
0.0
  0
LINE
  5
443
330
17
100
AcDbEntity
  8
2
100
AcDbLine
 10
384.6955658707743
 20
55.39391949532614
 30
0.0
 11
387.1955658707743
 21
56.83729516830022
 31
0.0
  0
CIRCLE
  5
445
330
17
100
AcDbEntity
  8
4
100
AcDbCircle
 10
384.6955658707743
 20
58.28067084127429
 30
0.0
 40
5.0
  0
ARC
  5
446
330
17
100
AcDbEntity
  8
4
100
AcDbCircle
 10
364.7807246949137
 20
59.94225330287304
 30
0.0
 40
3.0
100
AcDbArc
 50
175.3624349999998
 51
286.8206740000051
  0
LINE
  5
447
330
17
100
AcDbEntity
  8
4
100
AcDbLine
 10
364.1789246949138
 20
89.6280513028737
 30
0.0
 11
361.7905466949137
 21
60.18480930287319
 31
0.0
  0
LINE
  5
448
330
17
100
AcDbEntity
  8
L-CENTER
100
AcDbLine
 10
380.1919070466347
 20
66.08123837967514
 30
0.0
 11
389.1992246949139
 21
50.48010330287343
 31
0.0
  0
LINE
  5
449
330
17
100
AcDbEntity
  8
4
100
AcDbLine
 10
412.6224986949137
 20
111.0167613028732
 30
0.0
 11
383.1792566949139
 21
108.6283833028733
 31
0.0
  0
ARC
  5
44A
330
17
100
AcDbEntity
  8
4
100
AcDbCircle
 10
178.945565694914
 20
128.8617423028734
 30
0.0
 40
200.000001
100
AcDbArc
 50
351.3166099999999
 51
8.683389999999951
  0
ARC
  5
44B
330
17
100
AcDbEntity
  8
4
100
AcDbCircle
 10
180.9455666949139
 20
128.8617423028734
 30
0.0
 40
200.000001
100
AcDbArc
 50
350.8077969999999
 51
9.192202999999965
  0
ARC
  5
44C
330
17
100
AcDbEntity
  8
4
100
AcDbCircle
 10
35.94556469491363
 20
128.8614993028737
 30
0.0
 40
400.000035
100
AcDbArc
 50
0.000035015129822
 51
11.53938399999999
  0
LINE
  5
44D
330
17
100
AcDbEntity
  8
2
100
AcDbLine
 10
305.6955655190532
 20
200.8861894374465
 30
0.0
 11
303.1955655190532
 21
202.3295651104206
 31
0.0
  0
LINE
  5
44E
330
17
100
AcDbEntity
  8
2
100
AcDbLine
 10
303.1955655190532
 20
196.5560624185243
 30
0.0
 11
305.6955655190532
 21
197.9994380914984
 31
0.0
  0
LINE
  5
44F
330
17
100
AcDbEntity
  8
2
100
AcDbLine
 10
303.1955655190532
 20
202.3295651104206
 30
0.0
 11
300.6955655190532
 21
200.8861894374465
 31
0.0
  0
LINE
  5
450
330
17
100
AcDbEntity
  8
2
100
AcDbLine
 10
300.6955655190532
 20
200.8861894374465
 30
0.0
 11
300.6955655190532
 21
197.9994380914984
 31
0.0
  0
LINE
  5
451
330
17
100
AcDbEntity
  8
2
100
AcDbLine
 10
300.6955655190532
 20
197.9994380914984
 30
0.0
 11
303.1955655190532
 21
196.5560624185243
 31
0.0
  0
LINE
  5
452
330
17
100
AcDbEntity
  8
2
100
AcDbLine
 10
305.6955655190532
 20
197.9994380914984
 30
0.0
 11
305.6955655190532
 21
200.8861894374465
 31
0.0
  0
ARC
  5
453
330
17
100
AcDbEntity
  8
4
100
AcDbCircle
 10
304.388465694914
 20
153.0820053028735
 30
0.0
 40
3.999999
100
AcDbArc
 50
274.6375649999949
 51
353.1813729999996
  0
ARC
  5
454
330
17
100
AcDbEntity
  8
4
100
AcDbCircle
 10
312.4754366949137
 20
160.3318713028734
 30
0.0
 40
3.0
100
AcDbArc
 50
99.19220299999527
 51
170.8077970000026
  0
ARC
  5
455
330
17
100
AcDbEntity
  8
4
100
AcDbCircle
 10
314.2036406949137
 20
158.6036673028732
 30
0.0
 40
3.0
100
AcDbArc
 50
98.68339000000222
 51
171.3166100000034
  0
LINE
  5
456
330
17
100
AcDbEntity
  8
4
100
AcDbLine
 10
323.7122066949137
 20
168.0954333028731
 30
0.0
 11
326.1005846949138
 21
197.5386753028736
 31
0.0
  0
ARC
  5
457
330
17
100
AcDbEntity
  8
4
100
AcDbCircle
 10
319.7253026949138
 20
168.4188423028734
 30
0.0
 40
3.999999
100
AcDbArc
 50
276.8186269999987
 51
355.3624350000002
  0
ARC
  5
458
330
17
100
AcDbEntity
  8
4
100
AcDbCircle
 10
323.1104066949138
 20
197.7812313028737
 30
0.0
 40
3.0
100
AcDbArc
 50
355.3624349999988
 51
106.8206739999962
  0
LINE
  5
45A
330
17
100
AcDbEntity
  8
4
100
AcDbLine
 10
254.5456646949137
 20
258.8617413028735
 30
0.0
 11
254.5456646949137
 21
287.8619853028731
 31
0.0
  0
LINE
  5
45C
330
17
100
AcDbEntity
  8
4
100
AcDbLine
 10
255.5456636949139
 20
287.8619853028731
 30
0.0
 11
254.5456646949137
 21
287.8619853028731
 31
0.0
  0
ARC
  5
460
330
17
100
AcDbEntity
  8
4
100
AcDbCircle
 10
264.9294536949137
 20
207.8778543028734
 30
0.0
 40
4.999995
100
AcDbArc
 50
101.539821
 51
168.4601790000002
  0
ARC
  5
461
330
17
100
AcDbEntity
  8
4
100
AcDbCircle
 10
275.0260766949136
 20
149.6969013028731
 30
0.0
 40
3.0
100
AcDbArc
 50
163.1793259999997
 51
274.6375650000012
  0
LINE
  5
462
330
17
100
AcDbEntity
  8
4
100
AcDbLine
 10
275.2686326949138
 20
146.7067233028736
 30
0.0
 11
304.7118746949136
 21
149.0951013028734
 31
0.0
  0
CIRCLE
  5
464
330
17
100
AcDbEntity
  8
4
100
AcDbCircle
 10
303.1955655190532
 20
199.4428137644725
 30
0.0
 40
5.0
  0
LINE
  5
465
330
17
100
AcDbEntity
  8
L-CENTER
100
AcDbLine
 10
307.6992243431923
 20
191.6422462260716
 30
0.0
 11
298.691906694914
 21
207.2433813028733
 31
0.0
  0
ARC
  5
466
330
17
100
AcDbEntity
  8
4
100
AcDbCircle
 10
304.388465694914
 20
104.6414793028732
 30
0.0
 40
3.999999
100
AcDbArc
 50
6.818627000000399
 51
85.36243500000512
  0
ARC
  5
467
330
17
100
AcDbEntity
  8
4
100
AcDbCircle
 10
312.4754366949137
 20
97.39161330287334
 30
0.0
 40
3.0
100
AcDbArc
 50
189.1922029999974
 51
260.8077970000047
  0
ARC
  5
468
330
17
100
AcDbEntity
  8
4
100
AcDbCircle
 10
314.2036406949137
 20
99.11981730287357
 30
0.0
 40
3.0
100
AcDbArc
 50
188.6833899999967
 51
261.3166099999978
  0
ARC
  5
469
330
17
100
AcDbEntity
  8
4
100
AcDbCircle
 10
319.7253026949138
 20
89.30464230287339
 30
0.0
 40
3.999999
100
AcDbArc
 50
4.637564999999847
 51
83.18137300000124
  0
LINE
  5
46A
330
17
100
AcDbEntity
  8
2
100
AcDbLine
 10
305.6955655190532
 20
59.72404651424836
 30
0.0
 11
303.1955655190532
 21
61.16742218722243
 31
0.0
  0
LINE
  5
46B
330
17
100
AcDbEntity
  8
2
100
AcDbLine
 10
303.1955655190532
 20
55.39391949532614
 30
0.0
 11
305.6955655190532
 21
56.83729516830022
 31
0.0
  0
LINE
  5
46C
330
17
100
AcDbEntity
  8
2
100
AcDbLine
 10
303.1955655190532
 20
61.16742218722243
 30
0.0
 11
300.6955655190532
 21
59.72404651424836
 31
0.0
  0
LINE
  5
46D
330
17
100
AcDbEntity
  8
2
100
AcDbLine
 10
300.6955655190532
 20
59.72404651424836
 30
0.0
 11
300.6955655190532
 21
56.83729516830022
 31
0.0
  0
LINE
  5
46E
330
17
100
AcDbEntity
  8
2
100
AcDbLine
 10
300.6955655190532
 20
56.83729516830022
 30
0.0
 11
303.1955655190532
 21
55.39391949532614
 31
0.0
  0
LINE
  5
46F
330
17
100
AcDbEntity
  8
2
100
AcDbLine
 10
305.6955655190532
 20
56.83729516830022
 30
0.0
 11
305.6955655190532
 21
59.72404651424836
 31
0.0
  0
ARC
  5
470
330
17
100
AcDbEntity
  8
4
100
AcDbCircle
 10
323.1104066949138
 20
59.94225330287304
 30
0.0
 40
3.0
100
AcDbArc
 50
253.1793260000042
 51
4.637565000000161
  0
LINE
  5
471
330
17
100
AcDbEntity
  8
4
100
AcDbLine
 10
326.1005846949138
 20
60.18480930287319
 30
0.0
 11
323.7122066949137
 21
89.6280513028737
 31
0.0
  0
LINE
  5
472
330
17
100
AcDbEntity
  8
4
100
AcDbLine
 10
298.9358006949137
 20
121.3614993028737
 30
0.0
 11
298.9358006949137
 21
136.3617423028734
 31
0.0
  0
LINE
  5
473
330
17
100
AcDbEntity
  8
4
100
AcDbLine
 10
285.9455666949139
 20
113.8617423028734
 30
0.0
 11
298.9358006949137
 21
121.3614993028737
 31
0.0
  0
LINE
  5
474
330
17
100
AcDbEntity
  8
4
100
AcDbLine
 10
272.9550866949139
 20
121.3617423028734
 30
0.0
 11
272.9550866949139
 21
136.3617423028734
 31
0.0
  0
LINE
  5
475
330
17
100
AcDbEntity
  8
2
100
AcDbLine
 10
264.9455646949136
 20
127.4183666298993
 30
0.0
 11
264.9455646949136
 21
130.3051179758475
 31
0.0
  0
LINE
  5
476
330
17
100
AcDbEntity
  8
2
100
AcDbLine
 10
262.4455646949136
 20
131.7484936488215
 30
0.0
 11
259.9455646949136
 21
130.3051179758475
 31
0.0
  0
LINE
  5
477
330
17
100
AcDbEntity
  8
2
100
AcDbLine
 10
259.9455646949136
 20
130.3051179758475
 30
0.0
 11
259.9455646949136
 21
127.4183666298993
 31
0.0
  0
LINE
  5
478
330
17
100
AcDbEntity
  8
2
100
AcDbLine
 10
259.9455646949136
 20
127.4183666298993
 30
0.0
 11
262.4455646949136
 21
125.9749909569252
 31
0.0
  0
CIRCLE
  5
47A
330
17
100
AcDbEntity
  8
4
100
AcDbCircle
 10
262.4455646949136
 20
128.8617423028734
 30
0.0
 40
5.0
  0
LINE
  5
47B
330
17
100
AcDbEntity
  8
2
100
AcDbLine
 10
264.9455646949136
 20
130.3051179758475
 30
0.0
 11
262.4455646949136
 21
131.7484936488215
 31
0.0
  0
LINE
  5
47C
330
17
100
AcDbEntity
  8
2
100
AcDbLine
 10
262.4455646949136
 20
125.9749909569252
 30
0.0
 11
264.9455646949136
 21
127.4183666298993
 31
0.0
  0
ARC
  5
47D
330
17
100
AcDbEntity
  8
4
100
AcDbCircle
 10
275.0260766949136
 20
108.0265833028736
 30
0.0
 40
3.0
100
AcDbArc
 50
85.3624349999988
 51
196.8206740000003
  0
LINE
  5
47E
330
17
100
AcDbEntity
  8
4
100
AcDbLine
 10
272.9550866949139
 20
121.3617423028734
 30
0.0
 11
285.9455666949139
 21
113.8617423028734
 31
0.0
  0
ARC
  5
47F
330
17
100
AcDbEntity
  8
4
100
AcDbCircle
 10
269.7566006949137
 20
58.86174330287326
 30
0.0
 40
10.00002
100
AcDbArc
 50
270.0013979999999
 51
43.33608000000117
  0
LINE
  5
480
330
17
100
AcDbEntity
  8
4
100
AcDbLine
 10
276.9455666949139
 20
65.81413530287318
 30
0.0
 11
276.9455666949139
 21
51.91056930287368
 31
0.0
  0
LINE
  5
481
330
17
100
AcDbEntity
  8
4
100
AcDbLine
 10
304.7118746949136
 20
108.6283833028733
 30
0.0
 11
275.2686326949138
 21
111.0167613028732
 31
0.0
  0
CIRCLE
  5
483
330
17
100
AcDbEntity
  8
4
100
AcDbCircle
 10
303.1955655190532
 20
58.28067084127429
 30
0.0
 40
5.0
  0
LINE
  5
484
330
17
100
AcDbEntity
  8
L-CENTER
100
AcDbLine
 10
307.6992243431923
 20
66.08123837967514
 30
0.0
 11
298.691906694914
 21
50.48010330287343
 31
0.0
  0
LINE
  5
485
330
17
100
AcDbEntity
  8
L-CENTER
100
AcDbLine
 10
285.9455666949139
 20
151.1482203028736
 30
0.0
 11
285.9455666949139
 21
106.5752643028732
 31
0.0
  0
ARC
  5
486
330
17
100
AcDbEntity
  8
4
100
AcDbCircle
 10
506.9455646949136
 20
128.8617423028734
 30
0.0
 40
200.000001
100
AcDbArc
 50
170.807797
 51
189.192203
  0
ARC
  5
487
330
17
100
AcDbEntity
  8
4
100
AcDbCircle
 10
508.9455656949135
 20
128.8617423028734
 30
0.0
 40
200.000001
100
AcDbArc
 50
171.3166100000001
 51
188.6833899999999
  0
CIRCLE
  5
488
330
17
100
AcDbEntity
  8
4
100
AcDbCircle
 10
285.9455666949139
 20
128.8617423028734
 30
0.0
 40
15.0
  0
LINE
  5
489
330
17
100
AcDbEntity
  8
4
100
AcDbLine
 10
285.9455666949139
 20
143.8617423028734
 30
0.0
 11
272.9550866949139
 21
136.3617423028734
 31
0.0
  0
LINE
  5
48A
330
17
100
AcDbEntity
  8
4
100
AcDbLine
 10
298.9358006949137
 20
136.3617423028734
 30
0.0
 11
285.9455666949139
 21
143.8617423028734
 31
0.0
  0
CIRCLE
  5
48B
330
17
100
AcDbEntity
  8
L-CENTER
100
AcDbCircle
 10
343.945565694914
 20
128.8617423028734
 30
0.0
 40
81.500001
  0
CIRCLE
  5
48C
330
17
100
AcDbEntity
  8
4
100
AcDbCircle
 10
343.945565694914
 20
128.8617423028734
 30
0.0
 40
87.999999
  0
CIRCLE
  5
48D
330
17
100
AcDbEntity
  8
4
100
AcDbCircle
 10
343.945565694914
 20
128.8617423028734
 30
0.0
 40
75.0
  0
ARC
  5
48E
330
17
100
AcDbEntity
  8
4
100
AcDbCircle
 10
343.945565694914
 20
-179.1382586971265
 30
0.0
 40
399.999948
100
AcDbArc
 50
78.46068400000004
 51
101.539459
  0
ARC
  5
48F
330
17
100
AcDbEntity
  8
4
100
AcDbCircle
 10
343.945565694914
 20
293.8617423028734
 30
0.0
 40
200.000001
100
AcDbArc
 50
261.3166099999999
 51
278.6833899999999
  0
ARC
  5
490
330
17
100
AcDbEntity
  8
4
100
AcDbCircle
 10
343.945565694914
 20
291.8617413028735
 30
0.0
 40
200.000001
100
AcDbArc
 50
260.8077969999999
 51
279.1922029999999
  0
ARC
  5
491
330
17
100
AcDbEntity
  8
4
100
AcDbCircle
 10
343.945565694914
 20
-36.13825769712662
 30
0.0
 40
200.000001
100
AcDbArc
 50
81.31661000000008
 51
98.68339000000006
  0
ARC
  5
492
330
17
100
AcDbEntity
  8
4
100
AcDbCircle
 10
343.945565694914
 20
-34.13825669712674
 30
0.0
 40
200.000001
100
AcDbArc
 50
80.8077970000001
 51
99.19220300000006
  0
CIRCLE
  5
493
330
17
100
AcDbEntity
  8
4
100
AcDbCircle
 10
343.945565694914
 20
128.8617423028734
 30
0.0
 40
25.0
  0
LINE
  5
494
330
17
100
AcDbEntity
  8
L-CENTER
100
AcDbLine
 10
343.945565694914
 20
397.9002887059601
 30
0.0
 11
343.945565694914
 21
17.90265888251497
 31
0.0
  0
LINE
  5
495
330
17
100
AcDbEntity
  8
4
100
AcDbLine
 10
255.5456636949139
 20
258.8617413028735
 30
0.0
 11
255.5456636949139
 21
301.8619863028737
 31
0.0
  0
LINE
  5
496
330
17
100
AcDbEntity
  8
4
100
AcDbLine
 10
259.5456626949135
 20
258.8617413028735
 30
0.0
 11
259.5456626949135
 21
379.8619863028737
 31
0.0
  0
LINE
  5
497
330
17
100
AcDbEntity
  8
4
100
AcDbLine
 10
272.9455646949136
 20
258.8617413028735
 30
0.0
 11
272.9455646949136
 21
381.8619873028736
 31
0.0
  0
LINE
  5
498
330
17
100
AcDbEntity
  8
4
100
AcDbLine
 10
274.945565694914
 20
258.8617413028735
 30
0.0
 11
274.945565694914
 21
381.8810283028736
 31
0.0
  0
LINE
  5
499
330
17
100
AcDbEntity
  8
4
100
AcDbLine
 10
426.9455666949139
 20
258.8617413028735
 30
0.0
 11
426.9455666949139
 21
379.8619863028737
 31
0.0
  0
LINE
  5
49A
330
17
100
AcDbEntity
  8
4
100
AcDbLine
 10
412.945565694914
 20
258.8617413028735
 30
0.0
 11
412.945565694914
 21
381.8810283028736
 31
0.0
  0
LINE
  5
49B
330
17
100
AcDbEntity
  8
4
100
AcDbLine
 10
431.9455646949136
 20
258.8617413028735
 30
0.0
 11
431.9455646949136
 21
301.8619863028737
 31
0.0
  0
LINE
  5
49C
330
17
100
AcDbEntity
  8
4
100
AcDbLine
 10
418.1345306949138
 20
48.8617413028735
 30
0.0
 11
461.9455646949136
 21
48.8617413028735
 31
0.0
  0
LINE
  5
49D
330
17
100
AcDbEntity
  8
4
100
AcDbLine
 10
432.8081156949138
 20
178.8617433028733
 30
0.0
 11
449.9455646949136
 21
178.8617433028733
 31
0.0
  0
TEXT
  5
4C7
330
17
100
AcDbEntity
  8
3
100
AcDbText
 10
540.1078476835261
 20
28.67209454190538
 30
0.0
 40
9.369107985165574
  1
LE4-05
  7
KANJI
100
AcDbText
  0
LINE
  5
4C8
330
17
100
AcDbEntity
  8
4
100
AcDbLine
 10
249.545662694914
 20
362.2848383028734
 30
0.0
 11
249.545662694914
 21
349.2848383028734
 31
0.0
  0
LINE
  5
4CF
330
17
100
AcDbEntity
  8
4
100
AcDbLine
 10
238.945565694914
 20
258.8617413028735
 30
0.0
 11
238.945565694914
 21
276.8617413028735
 31
0.0
  0
LINE
  5
4D0
330
17
100
AcDbEntity
  8
4
100
AcDbLine
 10
233.9455646949136
 20
275.8617423028734
 30
0.0
 11
233.9455646949136
 21
279.3617433028733
 31
0.0
  0
LINE
  5
4D1
330
17
100
AcDbEntity
  8
4
100
AcDbLine
 10
236.9455646949136
 20
249.8617413028735
 30
0.0
 11
237.9455666949139
 21
249.8617413028735
 31
0.0
  0
LINE
  5
4D2
330
17
100
AcDbEntity
  8
4
100
AcDbLine
 10
236.9455646949136
 20
187.8617433028733
 30
0.0
 11
237.9455666949139
 21
187.8617433028733
 31
0.0
  0
LINE
  5
4D3
330
17
100
AcDbEntity
  8
4
100
AcDbLine
 10
236.9455646949136
 20
249.8617413028735
 30
0.0
 11
236.9455646949136
 21
187.8617433028733
 31
0.0
  0
LINE
  5
4D4
330
17
100
AcDbEntity
  8
4
100
AcDbLine
 10
237.9455666949139
 20
178.8617433028733
 30
0.0
 11
237.9455666949139
 21
258.8617413028735
 31
0.0
  0
LINE
  5
4D5
330
17
100
AcDbEntity
  8
L-CENTER
100
AcDbLine
 10
248.9455646949136
 20
14.86174230287338
 30
0.0
 11
248.9455646949136
 21
57.8617413028735
 31
0.0
  0
LINE
  5
4D6
330
17
100
AcDbEntity
  8
4
100
AcDbLine
 10
223.945565694914
 20
23.86174230287338
 30
0.0
 11
223.945565694914
 21
46.86174330287326
 31
0.0
  0
ARC
  5
4D7
330
17
100
AcDbEntity
  8
4
100
AcDbCircle
 10
225.9455666949139
 20
46.86174330287326
 30
0.0
 40
2.000001
100
AcDbArc
 50
90.0
 51
180.0
  0
LINE
  5
4D8
330
17
100
AcDbEntity
  8
4
100
AcDbLine
 10
149.9455646949136
 20
275.8617423028734
 30
0.0
 11
148.945565694914
 21
274.8617433028733
 31
0.0
  0
LINE
  5
4DA
330
17
100
AcDbEntity
  8
4
100
AcDbLine
 10
148.945565694914
 20
228.8617413028735
 30
0.0
 11
149.9455646949136
 21
227.8617423028734
 31
0.0
  0
LINE
  5
4DB
330
17
100
AcDbEntity
  8
4
100
AcDbLine
 10
149.9455646949136
 20
227.8617423028734
 30
0.0
 11
149.9455646949136
 21
275.8617423028734
 31
0.0
  0
LINE
  5
4DC
330
17
100
AcDbEntity
  8
4
100
AcDbLine
 10
148.945565694914
 20
228.8617413028735
 30
0.0
 11
148.945565694914
 21
279.3617433028733
 31
0.0
  0
LINE
  5
4DE
330
17
100
AcDbEntity
  8
4
100
AcDbLine
 10
148.945565694914
 20
279.3617433028733
 30
0.0
 11
233.9455646949136
 21
279.3617433028733
 31
0.0
  0
LINE
  5
4DF
330
17
100
AcDbEntity
  8
4
100
AcDbLine
 10
238.945565694914
 20
275.8617423028734
 30
0.0
 11
149.9455646949136
 21
275.8617423028734
 31
0.0
  0
LINE
  5
4E0
330
17
100
AcDbEntity
  8
4
100
AcDbLine
 10
236.9455646949136
 20
227.861742302873
 30
0.0
 11
149.9455646949136
 21
227.8617423028734
 31
0.0
  0
ARC
  5
4FC
330
17
100
AcDbEntity
  8
4
100
AcDbCircle
 10
343.945565694914
 20
128.8617423028734
 30
0.0
 40
91.999977
100
AcDbArc
 50
180.0001519956895
 51
223.3363289999997
  0
LINE
  5
4FD
330
17
100
AcDbEntity
  8
4
100
AcDbLine
 10
463.9455656949135
 20
23.86174230287338
 30
0.0
 11
223.945565694914
 21
23.86174230287338
 31
0.0
  0
LINE
  5
503
330
17
100
AcDbEntity
  8
4
100
AcDbLine
 10
269.7566006949137
 20
48.8617413028735
 30
0.0
 11
225.9455666949139
 21
48.8617413028735
 31
0.0
  0
LINE
  5
504
330
17
100
AcDbEntity
  8
L-CENTER
100
AcDbLine
 10
529.9749005746035
 20
218.8617423028734
 30
0.0
 11
231.3042786141768
 21
218.8617423028734
 31
0.0
  0
LINE
  5
505
330
17
100
AcDbEntity
  8
L-CENTER
100
AcDbLine
 10
142.5786222910333
 20
251.8617423028734
 30
0.0
 11
545.3125090987946
 21
251.8617423028734
 31
0.0
  0
LINE
  5
506
330
17
100
AcDbEntity
  8
L-CENTER
100
AcDbLine
 10
440.2690770853669
 20
128.8617423028734
 30
0.0
 11
247.622054304461
 21
128.8617423028734
 31
0.0
  0
LINE
  5
507
330
17
100
AcDbEntity
  8
4
100
AcDbLine
 10
449.9455646949136
 20
258.8617413028735
 30
0.0
 11
237.9455666949139
 21
258.8617413028735
 31
0.0
  0
ARC
  5
508
330
17
100
AcDbEntity
  8
4
100
AcDbCircle
 10
651.9455666949139
 20
128.8614993028737
 30
0.0
 40
399.999981
100
AcDbArc
 50
168.461041
 51
180.0003500003384
  0
LINE
  5
509
330
17
100
AcDbEntity
  8
4
100
AcDbLine
 10
237.9455666949139
 20
178.8617433028733
 30
0.0
 11
255.0830186949138
 21
178.8617433028733
 31
0.0
  0
LINE
  5
50A
330
17
100
AcDbEntity
  8
4
100
AcDbLine
 10
254.5456646949137
 20
276.8617413028735
 30
0.0
 11
238.945565694914
 21
276.8617413028735
 31
0.0
  0
LINE
  5
50E
330
17
100
AcDbEntity
  8
L-CENTER
100
AcDbLine
 10
289.9292947410136
 20
355.7848383028734
 30
0.0
 11
246.7810747248755
 21
355.7848383028734
 31
0.0
  0
LINE
  5
50F
330
17
100
AcDbEntity
  8
4
100
AcDbLine
 10
249.545662694914
 20
349.2848383028734
 30
0.0
 11
257.545662694914
 21
349.2848383028734
 31
0.0
  0
LINE
  5
510
330
17
100
AcDbEntity
  8
4
100
AcDbLine
 10
257.545662694914
 20
362.2848383028734
 30
0.0
 11
249.545662694914
 21
362.2848383028734
 31
0.0
  0
CIRCLE
  5
545
330
17
100
AcDbEntity
  8
4
100
AcDbCircle
 10
953.5631114032903
 20
53.86174230287338
 30
0.0
 40
7.500000999999999
  0
LINE
  5
546
330
17
100
AcDbEntity
  8
4
100
AcDbLine
 10
259.545662694914
 20
363.0348383028734
 30
0.0
 11
257.545662694914
 21
363.0348383028734
 31
0.0
  0
LINE
  5
547
330
17
100
AcDbEntity
  8
4
100
AcDbLine
 10
259.5456626949135
 20
348.5348383028734
 30
0.0
 11
257.5456626949135
 21
348.5348383028734
 31
0.0
  0
LINE
  5
548
330
17
100
AcDbEntity
  8
2
100
AcDbLine
 10
257.5456626949137
 20
353.7848383028736
 30
0.0
 11
259.5456626949135
 21
355.7848383028734
 31
0.0
  0
LINE
  5
549
330
17
100
AcDbEntity
  8
2
100
AcDbLine
 10
257.5456626949137
 20
356.6132654276198
 30
0.0
 11
259.5456626949135
 21
358.6132654276196
 31
0.0
  0
LINE
  5
54B
330
17
100
AcDbEntity
  8
4
100
AcDbLine
 10
257.545662694914
 20
258.8617413028735
 30
0.0
 11
257.545662694914
 21
259.1117423028734
 31
0.0
  0
LINE
  5
550
330
17
100
AcDbEntity
  8
4
100
AcDbLine
 10
259.545662694914
 20
259.1117423028734
 30
0.0
 11
257.545662694914
 21
259.1117423028734
 31
0.0
  0
LINE
  5
555
330
17
100
AcDbEntity
  8
4
100
AcDbLine
 10
257.5456636949139
 20
704.919392922006
 30
0.0
 11
257.5456636949143
 21
719.419392922006
 31
0.0
  0
LINE
  5
556
330
17
100
AcDbEntity
  8
4
100
AcDbLine
 10
259.5456636949139
 20
704.919392922006
 30
0.0
 11
257.5456636949139
 21
704.919392922006
 31
0.0
  0
LINE
  5
557
330
17
100
AcDbEntity
  8
4
100
AcDbLine
 10
259.5456636949143
 20
719.419392922006
 30
0.0
 11
257.5456636949143
 21
719.419392922006
 31
0.0
  0
LINE
  5
558
330
17
100
AcDbEntity
  8
4
100
AcDbLine
 10
257.5456636949137
 20
764.9193929220062
 30
0.0
 11
257.5456636949141
 21
779.4193929220062
 31
0.0
  0
LINE
  5
559
330
17
100
AcDbEntity
  8
4
100
AcDbLine
 10
259.5456636949137
 20
764.9193929220062
 30
0.0
 11
257.5456636949137
 21
764.9193929220062
 31
0.0
  0
LINE
  5
55A
330
17
100
AcDbEntity
  8
4
100
AcDbLine
 10
259.5456636949141
 20
779.4193929220062
 30
0.0
 11
257.5456636949141
 21
779.4193929220062
 31
0.0
  0
LINE
  5
55B
330
17
100
AcDbEntity
  8
4
100
AcDbLine
 10
257.5456636949144
 20
945.6693929220066
 30
0.0
 11
249.5456636949143
 21
945.6693929220066
 31
0.0
  0
LINE
  5
55C
330
17
100
AcDbEntity
  8
4
100
AcDbLine
 10
249.5456636949144
 20
958.6693929220066
 30
0.0
 11
257.5456636949144
 21
958.6693929220066
 31
0.0
  0
LINE
  5
55D
330
17
100
AcDbEntity
  8
4
100
AcDbLine
 10
249.5456636949143
 20
945.6693929220066
 30
0.0
 11
249.5456636949144
 21
958.6693929220066
 31
0.0
  0
LINE
  5
55E
330
17
100
AcDbEntity
  8
4
100
AcDbLine
 10
257.5456636949141
 20
885.6693929220064
 30
0.0
 11
249.5456636949141
 21
885.6693929220064
 31
0.0
  0
LINE
  5
55F
330
17
100
AcDbEntity
  8
4
100
AcDbLine
 10
249.5456636949141
 20
898.6693929220064
 30
0.0
 11
257.5456636949141
 21
898.6693929220064
 31
0.0
  0
LINE
  5
560
330
17
100
AcDbEntity
  8
4
100
AcDbLine
 10
249.5456636949141
 20
885.6693929220064
 30
0.0
 11
249.5456636949141
 21
898.6693929220064
 31
0.0
  0
LINE
  5
561
330
17
100
AcDbEntity
  8
L-CENTER
100
AcDbLine
 10
289.9292947410138
 20
892.1693929220062
 30
0.0
 11
246.7810747248757
 21
892.1693929220064
 31
0.0
  0
LINE
  5
562
330
17
100
AcDbEntity
  8
L-CENTER
100
AcDbLine
 10
289.9292947410141
 20
952.1693929220057
 30
0.0
 11
246.781074724876
 21
952.1693929220069
 31
0.0
  0
LINE
  5
563
330
17
100
AcDbEntity
  8
4
100
AcDbLine
 10
257.5456636949144
 20
959.4193929220066
 30
0.0
 11
257.5456636949148
 21
944.9193929220066
 31
0.0
  0
LINE
  5
564
330
17
100
AcDbEntity
  8
4
100
AcDbLine
 10
259.5456636949144
 20
959.4193929220066
 30
0.0
 11
257.5456636949144
 21
959.4193929220066
 31
0.0
  0
LINE
  5
565
330
17
100
AcDbEntity
  8
4
100
AcDbLine
 10
259.5456636949148
 20
944.9193929220066
 30
0.0
 11
257.5456636949148
 21
944.9193929220066
 31
0.0
  0
LINE
  5
566
330
17
100
AcDbEntity
  8
4
100
AcDbLine
 10
257.545663694914
 20
899.4193929220064
 30
0.0
 11
257.5456636949144
 21
884.9193929220064
 31
0.0
  0
LINE
  5
567
330
17
100
AcDbEntity
  8
4
100
AcDbLine
 10
259.545663694914
 20
899.4193929220064
 30
0.0
 11
257.545663694914
 21
899.4193929220064
 31
0.0
  0
LINE
  5
568
330
17
100
AcDbEntity
  8
4
100
AcDbLine
 10
259.5456636949144
 20
884.9193929220064
 30
0.0
 11
257.5456636949144
 21
884.9193929220064
 31
0.0
  0
LINE
  5
569
330
17
100
AcDbEntity
  8
4
100
AcDbLine
 10
707.1632084032904
 20
205.1927963028734
 30
0.0
 11
708.6632084032904
 21
205.1927963028734
 31
0.0
  0
LINE
  5
56A
330
17
100
AcDbEntity
  8
4
100
AcDbLine
 10
707.1632084032904
 20
193.6927963028734
 30
0.0
 11
708.6632084032904
 21
193.6927963028734
 31
0.0
  0
LINE
  5
56B
330
17
100
AcDbEntity
  8
2
100
AcDbLine
 10
707.1632084032904
 20
197.9427963028734
 30
0.0
 11
708.6632084032904
 21
199.4427963028734
 31
0.0
  0
LINE
  5
56C
330
17
100
AcDbEntity
  8
2
100
AcDbLine
 10
707.1632084032904
 20
200.0641166464329
 30
0.0
 11
708.6632084032904
 21
201.5641166464329
 31
0.0
  0
LINE
  5
56D
330
17
100
AcDbEntity
  8
4
100
AcDbLine
 10
707.1632084032904
 20
123.1117423028734
 30
0.0
 11
708.6632084032904
 21
123.1117423028734
 31
0.0
  0
LINE
  5
56E
330
17
100
AcDbEntity
  8
4
100
AcDbLine
 10
707.1632084032904
 20
134.6117423028734
 30
0.0
 11
708.6632084032904
 21
134.6117423028734
 31
0.0
  0
LINE
  5
56F
330
17
100
AcDbEntity
  8
4
100
AcDbLine
 10
707.1632084032904
 20
133.8617423028734
 30
0.0
 11
701.1632084032904
 21
133.8617423028734
 31
0.0
  0
LINE
  5
570
330
17
100
AcDbEntity
  8
4
100
AcDbLine
 10
701.1632084032904
 20
123.8617423028734
 30
0.0
 11
707.1632084032904
 21
123.8617423028734
 31
0.0
  0
LINE
  5
571
330
17
100
AcDbEntity
  8
4
100
AcDbLine
 10
701.1632084032904
 20
133.8617423028734
 30
0.0
 11
701.1632084032904
 21
123.8617423028734
 31
0.0
  0
LINE
  5
573
330
17
100
AcDbEntity
  8
4
100
AcDbLine
 10
707.1632084032904
 20
123.1117423028734
 30
0.0
 11
707.1632084032904
 21
134.6117423028734
 31
0.0
  0
LINE
  5
574
330
17
100
AcDbEntity
  8
2
100
AcDbLine
 10
707.1632084032904
 20
127.3617423028734
 30
0.0
 11
708.6632084032904
 21
128.8617423028734
 31
0.0
  0
LINE
  5
575
330
17
100
AcDbEntity
  8
2
100
AcDbLine
 10
707.1632084032904
 20
129.4830626464329
 30
0.0
 11
708.6632084032904
 21
130.9830626464329
 31
0.0
  0
LINE
  5
576
330
17
100
AcDbEntity
  8
L-CENTER
100
AcDbLine
 10
698.4556874032905
 20
58.28068830287339
 30
0.0
 11
732.0916500538315
 21
58.28068830287339
 31
0.0
  0
LINE
  5
577
330
17
100
AcDbEntity
  8
4
100
AcDbLine
 10
707.1632084032904
 20
64.03068830287339
 30
0.0
 11
708.6632084032904
 21
64.03068830287339
 31
0.0
  0
LINE
  5
578
330
17
100
AcDbEntity
  8
4
100
AcDbLine
 10
707.1632084032904
 20
52.53068830287339
 30
0.0
 11
708.6632084032904
 21
52.53068830287339
 31
0.0
  0
LINE
  5
579
330
17
100
AcDbEntity
  8
4
100
AcDbLine
 10
707.1632084032904
 20
53.28068830287339
 30
0.0
 11
701.1632084032904
 21
53.28068830287339
 31
0.0
  0
LINE
  5
57A
330
17
100
AcDbEntity
  8
4
100
AcDbLine
 10
701.1632084032904
 20
63.28068830287339
 30
0.0
 11
707.1632084032904
 21
63.28068830287339
 31
0.0
  0
LINE
  5
57B
330
17
100
AcDbEntity
  8
4
100
AcDbLine
 10
701.1632084032904
 20
53.28068830287339
 30
0.0
 11
701.1632084032904
 21
63.28068830287339
 31
0.0
  0
LINE
  5
57D
330
17
100
AcDbEntity
  8
4
100
AcDbLine
 10
707.1632084032904
 20
64.03068830287339
 30
0.0
 11
707.1632084032904
 21
52.53068830287339
 31
0.0
  0
LINE
  5
57E
330
17
100
AcDbEntity
  8
2
100
AcDbLine
 10
707.1632084032904
 20
59.78068830287339
 30
0.0
 11
708.6632084032904
 21
58.28068830287339
 31
0.0
  0
LINE
  5
57F
330
17
100
AcDbEntity
  8
2
100
AcDbLine
 10
707.1632084032904
 20
57.65936795931384
 30
0.0
 11
708.6632084032904
 21
56.15936795931384
 31
0.0
  0
LINE
  5
580
330
17
100
AcDbEntity
  8
L-CENTER
100
AcDbLine
 10
425.4455656949127
 20
577.0619699220063
 30
0.0
 11
425.4455656949127
 21
610.6979325725472
 31
0.0
  0
LINE
  5
581
330
17
100
AcDbEntity
  8
4
100
AcDbLine
 10
431.1955656949127
 20
585.7694909220061
 30
0.0
 11
431.1955656949127
 21
587.2694909220061
 31
0.0
  0
LINE
  5
582
330
17
100
AcDbEntity
  8
4
100
AcDbLine
 10
419.6955656949127
 20
585.7694909220061
 30
0.0
 11
419.6955656949127
 21
587.2694909220061
 31
0.0
  0
LINE
  5
583
330
17
100
AcDbEntity
  8
4
100
AcDbLine
 10
420.4455656949127
 20
585.7694909220061
 30
0.0
 11
420.4455656949127
 21
579.7694909220061
 31
0.0
  0
LINE
  5
584
330
17
100
AcDbEntity
  8
4
100
AcDbLine
 10
430.4455656949127
 20
579.7694909220061
 30
0.0
 11
430.4455656949127
 21
585.7694909220061
 31
0.0
  0
LINE
  5
585
330
17
100
AcDbEntity
  8
4
100
AcDbLine
 10
420.4455656949127
 20
579.7694909220061
 30
0.0
 11
430.4455656949127
 21
579.7694909220061
 31
0.0
  0
LINE
  5
586
330
17
100
AcDbEntity
  8
4
100
AcDbLine
 10
431.1955656949127
 20
585.7694909220061
 30
0.0
 11
419.6955656949127
 21
585.7694909220061
 31
0.0
  0
LINE
  5
587
330
17
100
AcDbEntity
  8
L-CENTER
100
AcDbLine
 10
384.6955656949126
 20
577.0619699220063
 30
0.0
 11
384.6955656949126
 21
610.6979325725472
 31
0.0
  0
LINE
  5
588
330
17
100
AcDbEntity
  8
4
100
AcDbLine
 10
390.4455656949126
 20
585.7694909220061
 30
0.0
 11
390.4455656949126
 21
587.2694909220061
 31
0.0
  0
LINE
  5
589
330
17
100
AcDbEntity
  8
4
100
AcDbLine
 10
378.9455656949126
 20
585.7694909220061
 30
0.0
 11
378.9455656949126
 21
587.2694909220061
 31
0.0
  0
LINE
  5
58A
330
17
100
AcDbEntity
  8
4
100
AcDbLine
 10
379.6955656949126
 20
585.7694909220061
 30
0.0
 11
379.6955656949126
 21
579.7694909220061
 31
0.0
  0
LINE
  5
58B
330
17
100
AcDbEntity
  8
4
100
AcDbLine
 10
389.6955656949126
 20
579.7694909220061
 30
0.0
 11
389.6955656949126
 21
585.7694909220061
 31
0.0
  0
LINE
  5
58C
330
17
100
AcDbEntity
  8
4
100
AcDbLine
 10
379.6955656949126
 20
579.7694909220061
 30
0.0
 11
389.6955656949126
 21
579.7694909220061
 31
0.0
  0
LINE
  5
58D
330
17
100
AcDbEntity
  8
4
100
AcDbLine
 10
390.4455656949126
 20
585.7694909220061
 30
0.0
 11
378.9455656949126
 21
585.7694909220061
 31
0.0
  0
LINE
  5
58E
330
17
100
AcDbEntity
  8
L-CENTER
100
AcDbLine
 10
262.4455656949129
 20
577.06196992201
 30
0.0
 11
262.4455656949145
 21
610.6979325725509
 31
0.0
  0
LINE
  5
58F
330
17
100
AcDbEntity
  8
4
100
AcDbLine
 10
256.6955656949133
 20
585.7694909220102
 30
0.0
 11
256.6955656949133
 21
587.2694909220102
 31
0.0
  0
LINE
  5
590
330
17
100
AcDbEntity
  8
4
100
AcDbLine
 10
268.1955656949133
 20
585.7694909220096
 30
0.0
 11
268.1955656949133
 21
587.2694909220096
 31
0.0
  0
LINE
  5
591
330
17
100
AcDbEntity
  8
4
100
AcDbLine
 10
267.4455656949133
 20
585.7694909220096
 30
0.0
 11
267.445565694913
 21
579.7694909220096
 31
0.0
  0
LINE
  5
592
330
17
100
AcDbEntity
  8
4
100
AcDbLine
 10
257.445565694913
 20
579.76949092201
 30
0.0
 11
257.4455656949133
 21
585.76949092201
 31
0.0
  0
LINE
  5
593
330
17
100
AcDbEntity
  8
4
100
AcDbLine
 10
267.445565694913
 20
579.7694909220096
 30
0.0
 11
257.445565694913
 21
579.76949092201
 31
0.0
  0
LINE
  5
594
330
17
100
AcDbEntity
  8
4
100
AcDbLine
 10
256.6955656949133
 20
585.7694909220102
 30
0.0
 11
268.1955656949133
 21
585.7694909220096
 31
0.0
  0
LINE
  5
595
330
17
100
AcDbEntity
  8
L-CENTER
100
AcDbLine
 10
303.195565694913
 20
577.0619699220081
 30
0.0
 11
303.1955656949146
 21
610.697932572549
 31
0.0
  0
LINE
  5
596
330
17
100
AcDbEntity
  8
4
100
AcDbLine
 10
297.4455656949134
 20
585.7694909220082
 30
0.0
 11
297.4455656949135
 21
587.2694909220082
 31
0.0
  0
LINE
  5
597
330
17
100
AcDbEntity
  8
4
100
AcDbLine
 10
308.9455656949134
 20
585.7694909220077
 30
0.0
 11
308.9455656949135
 21
587.2694909220077
 31
0.0
  0
LINE
  5
598
330
17
100
AcDbEntity
  8
4
100
AcDbLine
 10
308.1955656949134
 20
585.7694909220077
 30
0.0
 11
308.1955656949131
 21
579.7694909220077
 31
0.0
  0
LINE
  5
599
330
17
100
AcDbEntity
  8
4
100
AcDbLine
 10
298.1955656949131
 20
579.7694909220081
 30
0.0
 11
298.1955656949134
 21
585.7694909220081
 31
0.0
  0
LINE
  5
59A
330
17
100
AcDbEntity
  8
4
100
AcDbLine
 10
308.1955656949131
 20
579.7694909220077
 30
0.0
 11
298.1955656949131
 21
579.7694909220081
 31
0.0
  0
LINE
  5
59B
330
17
100
AcDbEntity
  8
4
100
AcDbLine
 10
297.4455656949134
 20
585.7694909220082
 30
0.0
 11
308.9455656949134
 21
585.7694909220077
 31
0.0
  0
CIRCLE
  5
59C
330
17
100
AcDbEntity
  8
4
100
AcDbCircle
 10
384.6955658707744
 20
58.28067084127417
 30
0.0
 40
5.75
  0
CIRCLE
  5
59D
330
17
100
AcDbEntity
  8
4
100
AcDbCircle
 10
303.1955655190532
 20
58.28067084127434
 30
0.0
 40
5.75
  0
CIRCLE
  5
59E
330
17
100
AcDbEntity
  8
4
100
AcDbCircle
 10
262.445564694914
 20
128.8617423028734
 30
0.0
 40
5.75
  0
CIRCLE
  5
59F
330
17
100
AcDbEntity
  8
4
100
AcDbCircle
 10
425.445566694914
 20
128.8617423028734
 30
0.0
 40
5.75
  0
CIRCLE
  5
5A0
330
17
100
AcDbEntity
  8
4
100
AcDbCircle
 10
384.6955658707744
 20
199.4428137644726
 30
0.0
 40
5.75
  0
CIRCLE
  5
5A1
330
17
100
AcDbEntity
  8
4
100
AcDbCircle
 10
303.1955655190532
 20
199.4428137644725
 30
0.0
 40
5.75
  0
LINE
  5
5A4
330
17
100
AcDbEntity
  8
L-CENTER
100
AcDbLine
 10
758.5631114032903
 20
14.86174230287338
 30
0.0
 11
758.5631114032903
 21
57.8617413028735
 31
0.0
  0
LINE
  5
5A7
330
17
100
AcDbEntity
  8
4
100
AcDbLine
 10
236.9455636949128
 20
678.1693919220063
 30
0.0
 11
237.9455656949131
 21
678.1693919220063
 31
0.0
  0
LINE
  5
5A8
330
17
100
AcDbEntity
  8
4
100
AcDbLine
 10
236.9455636949126
 20
616.1693939220063
 30
0.0
 11
237.9455656949128
 21
616.1693939220063
 31
0.0
  0
LINE
  5
5A9
330
17
100
AcDbEntity
  8
4
100
AcDbLine
 10
236.9455636949128
 20
678.1693919220063
 30
0.0
 11
236.9455636949126
 21
616.1693939220063
 31
0.0
  0
LINE
  5
5AC
330
17
100
AcDbEntity
  8
4
100
AcDbLine
 10
959.5631114032903
 20
271.3617423028734
 30
0.0
 11
959.5631114032903
 21
279.3617403028736
 31
0.0
  0
LINE
  5
5AD
330
17
100
AcDbEntity
  8
4
100
AcDbLine
 10
947.5631114032903
 20
279.3617403028736
 30
0.0
 11
947.5631114032903
 21
271.3617423028734
 31
0.0
  0
LINE
  5
5AE
330
17
100
AcDbEntity
  8
4
100
AcDbLine
 10
959.5631114032903
 20
271.3617423028734
 30
0.0
 11
947.5631114032903
 21
271.3617423028734
 31
0.0
  0
LINE
  5
5AF
330
17
100
AcDbEntity
  8
4
100
AcDbLine
 10
959.5631114032903
 20
279.3617403028736
 30
0.0
 11
947.5631114032903
 21
279.3617403028736
 31
0.0
  0
ARC
  5
5B0
330
17
100
AcDbEntity
  8
4
100
AcDbCircle
 10
953.5631114032903
 20
251.8617423028734
 30
0.0
 40
24.0
100
AcDbArc
 50
104.4775121859299
 51
75.52248799999998
  0
CIRCLE
  5
5B2
330
17
100
AcDbEntity
  8
4
100
AcDbCircle
 10
953.5631114032903
 20
251.8617423028734
 30
0.0
 40
36.00024299999973
  0
LINE
  5
5C0
330
17
100
AcDbEntity
  8
4
100
AcDbLine
 10
432.9454666949142
 20
258.8617413028735
 30
0.0
 11
432.9454666949142
 21
287.8619853028731
 31
0.0
  0
LINE
  5
5C1
330
17
100
AcDbEntity
  8
4
100
AcDbLine
 10
431.9454676949141
 20
287.8619853028731
 30
0.0
 11
432.9454666949142
 21
287.8619853028731
 31
0.0
  0
LINE
  5
5C2
330
17
100
AcDbEntity
  8
4
100
AcDbLine
 10
448.945565694914
 20
258.8617413028735
 30
0.0
 11
448.945565694914
 21
276.8617413028735
 31
0.0
  0
LINE
  5
5C3
330
17
100
AcDbEntity
  8
4
100
AcDbLine
 10
453.9455666949143
 20
275.8617423028734
 30
0.0
 11
453.9455666949143
 21
279.3617433028733
 31
0.0
  0
LINE
  5
5C4
330
17
100
AcDbEntity
  8
4
100
AcDbLine
 10
537.9455666949143
 20
275.8617423028734
 30
0.0
 11
538.945565694914
 21
274.8617433028733
 31
0.0
  0
LINE
  5
5C5
330
17
100
AcDbEntity
  8
4
100
AcDbLine
 10
538.945565694914
 20
228.8617413028735
 30
0.0
 11
537.9455666949143
 21
227.8617423028734
 31
0.0
  0
LINE
  5
5C6
330
17
100
AcDbEntity
  8
4
100
AcDbLine
 10
537.9455666949143
 20
227.8617423028734
 30
0.0
 11
537.9455666949143
 21
275.8617423028734
 31
0.0
  0
LINE
  5
5C7
330
17
100
AcDbEntity
  8
4
100
AcDbLine
 10
538.945565694914
 20
228.8617413028735
 30
0.0
 11
538.945565694914
 21
279.3617433028733
 31
0.0
  0
LINE
  5
5C8
330
17
100
AcDbEntity
  8
4
100
AcDbLine
 10
538.945565694914
 20
279.3617433028733
 30
0.0
 11
453.9455666949143
 21
279.3617433028733
 31
0.0
  0
LINE
  5
5C9
330
17
100
AcDbEntity
  8
4
100
AcDbLine
 10
448.945565694914
 20
275.8617423028734
 30
0.0
 11
537.9455666949143
 21
275.8617423028734
 31
0.0
  0
LINE
  5
5CA
330
17
100
AcDbEntity
  8
4
100
AcDbLine
 10
523.9455656949135
 20
227.8617423028734
 30
0.0
 11
537.9455666949143
 21
227.8617423028734
 31
0.0
  0
LINE
  5
5CB
330
17
100
AcDbEntity
  8
4
100
AcDbLine
 10
432.9454666949142
 20
276.8617413028735
 30
0.0
 11
448.945565694914
 21
276.8617413028735
 31
0.0
  0
LINE
  5
5E4
330
17
100
AcDbEntity
  8
4
100
AcDbLine
 10
537.9455666949129
 20
856.1693929220057
 30
0.0
 11
538.9455656949131
 21
855.1693939220056
 31
0.0
  0
LINE
  5
5E5
330
17
100
AcDbEntity
  8
4
100
AcDbLine
 10
537.9455666949129
 20
838.1693929220057
 30
0.0
 11
537.9455666949129
 21
856.1693929220057
 31
0.0
  0
LINE
  5
5E6
330
17
100
AcDbEntity
  8
4
100
AcDbLine
 10
538.945565694913
 20
809.1693919220058
 30
0.0
 11
537.9455666949128
 21
808.1693929220057
 31
0.0
  0
LINE
  5
5E7
330
17
100
AcDbEntity
  8
4
100
AcDbLine
 10
538.945565694913
 20
809.1693919220058
 30
0.0
 11
538.9455656949131
 21
855.1693939220056
 31
0.0
  0
LINE
  5
5E8
330
17
100
AcDbEntity
  8
4
100
AcDbLine
 10
537.9455666949128
 20
808.1693929220057
 30
0.0
 11
537.9455666949128
 21
826.1693929220057
 31
0.0
  0
LINE
  5
5E9
330
17
100
AcDbEntity
  8
4
100
AcDbLine
 10
431.9454666949124
 20
868.1693909220057
 30
0.0
 11
432.9454656949125
 21
868.1693909220057
 31
0.0
  0
ARC
  5
5EA
330
17
100
AcDbEntity
  8
4
100
AcDbCircle
 10
459.9455666949128
 20
832.169392922006
 30
0.0
 40
6.0
100
AcDbArc
 50
89.99999999999947
 51
270.0
  0
LINE
  5
5EB
330
17
100
AcDbEntity
  8
4
100
AcDbLine
 10
432.9454656949125
 20
857.1693919220061
 30
0.0
 11
448.9455656949131
 21
857.1693919220061
 31
0.0
  0
LINE
  5
5EC
330
17
100
AcDbEntity
  8
4
100
AcDbLine
 10
431.9454666949122
 20
796.1693949220062
 30
0.0
 11
432.9454656949123
 21
796.1693949220062
 31
0.0
  0
LINE
  5
5ED
330
17
100
AcDbEntity
  8
4
100
AcDbLine
 10
432.9454656949124
 20
807.1693939220063
 30
0.0
 11
448.9455656949129
 21
807.1693939220063
 31
0.0
  0
LINE
  5
5EE
330
17
100
AcDbEntity
  8
4
100
AcDbLine
 10
448.9455656949129
 20
807.1693939220063
 30
0.0
 11
448.9455656949131
 21
857.1693919220061
 31
0.0
  0
LINE
  5
5EF
330
17
100
AcDbEntity
  8
4
100
AcDbLine
 10
432.9454656949123
 20
796.1693949220062
 30
0.0
 11
432.9454656949125
 21
868.1693909220057
 31
0.0
  0
LINE
  5
5F0
330
17
100
AcDbEntity
  8
4
100
AcDbLine
 10
459.9455666949128
 20
826.169392922006
 30
0.0
 11
538.9455656949125
 21
826.1693929220057
 31
0.0
  0
LINE
  5
5F1
330
17
100
AcDbEntity
  8
4
100
AcDbLine
 10
459.9455666949129
 20
838.169392922006
 30
0.0
 11
538.9455656949126
 21
838.1693929220062
 31
0.0
  0
LINE
  5
5F2
330
17
100
AcDbEntity
  8
4
100
AcDbLine
 10
448.9455656949131
 20
856.169392922006
 30
0.0
 11
537.9455666949129
 21
856.1693929220057
 31
0.0
  0
LINE
  5
5F3
330
17
100
AcDbEntity
  8
4
100
AcDbLine
 10
448.9455656949129
 20
808.169392922006
 30
0.0
 11
537.9455666949128
 21
808.1693929220057
 31
0.0
  0
ENDSEC
  0
SECTION
  2
OBJECTS
  0
DICTIONARY
  5
5
330
0
100
AcDbDictionary
281
     1
  3
ACAD_COLOR
350
29
  3
ACAD_GROUP
350
27
  3
ACAD_LAYOUT
350
1E
  3
ACAD_MATERIAL
350
7
  3
ACAD_MLEADERSTYLE
350
518
  3
ACAD_MLINESTYLE
350
15
  3
ACAD_PLOTSETTINGS
350
28
  3
ACAD_PLOTSTYLENAME
350
4
  3
ACAD_SCALELIST
350
2D
  3
ACAD_TABLESTYLE
350
517
  3
ACAD_VISUALSTYLE
350
2A
  3
ACDBHEADERROUNDTRIPXREC
350
5F6
  3
AcDbVariableDictionary
350
515
  3
DWGPROPS
350
5F9
  0
DICTIONARY
  5
5FA
330
26
100
AcDbDictionary
280
     1
281
     1
  3
ACAD_XREC_ROUNDTRIP
360
5FB
  0
DICTIONARY
  5
105
330
104
100
AcDbDictionary
280
     1
281
     1
  3
ADSK_XREC_LAYER_RECONCILED
360
106
  0
DICTIONARY
  5
18
330
17
100
AcDbDictionary
280
     1
281
     1
  3
ACAD_SORTENTS
360
19
  0
DICTIONARY
  5
29
102
{ACAD_REACTORS
330
5
102
}
330
5
100
AcDbDictionary
281
     1
  0
DICTIONARY
  5
27
102
{ACAD_REACTORS
330
5
102
}
330
5
100
AcDbDictionary
281
     1
  0
DICTIONARY
  5
1E
102
{ACAD_REACTORS
330
5
102
}
330
5
100
AcDbDictionary
281
     1
  3
Model
350
1D
  3
ﾚｲｱｳﾄ1
350
23
  0
DICTIONARY
  5
7
102
{ACAD_REACTORS
330
5
102
}
330
5
100
AcDbDictionary
281
     1
  3
ByBlock
350
50
  3
ByLayer
350
10
  3
Global
350
6
  0
DICTIONARY
  5
518
102
{ACAD_REACTORS
330
5
102
}
330
5
100
AcDbDictionary
281
     1
  3
Standard
350
542
  0
DICTIONARY
  5
15
102
{ACAD_REACTORS
330
5
102
}
330
5
100
AcDbDictionary
281
     1
  3
STANDARD
350
14
  0
DICTIONARY
  5
28
102
{ACAD_REACTORS
330
5
102
}
330
5
100
AcDbDictionary
281
     1
  0
ACDBDICTIONARYWDFLT
  5
4
102
{ACAD_REACTORS
330
5
102
}
330
5
100
AcDbDictionary
281
     1
  3
Normal
350
3
100
AcDbDictionaryWithDefault
340
3
  0
DICTIONARY
  5
2D
102
{ACAD_REACTORS
330
5
102
}
330
5
100
AcDbDictionary
281
     1
  3
*A1
350
4F
  0
DICTIONARY
  5
517
102
{ACAD_REACTORS
330
5
102
}
330
5
100
AcDbDictionary
281
     1
  3
Standard
350
5A5
  0
DICTIONARY
  5
2A
102
{ACAD_REACTORS
330
5
102
}
330
5
100
AcDbDictionary
281
     1
  3
2dWireframe
350
520
  3
Basic
350
523
  3
Brighten
350
527
  3
ColorChange
350
52B
  3
Conceptual
350
525
  3
Dim
350
526
  3
EdgeColorOff
350
52E
  3
Facepattern
350
52A
  3
Flat
350
51C
  3
FlatWithEdges
350
51D
  3
Gouraud
350
51E
  3
GouraudWithEdges
350
51F
  3
Hidden
350
522
  3
JitterOff
350
52C
  3
Linepattern
350
529
  3
OverhangOff
350
52D
  3
Realistic
350
524
  3
Shaded
350
533
  3
Shaded with edges
350
532
  3
Shades of Gray
350
52F
  3
Sketchy
350
530
  3
Thicken
350
528
  3
Wireframe
350
521
  3
X-Ray
350
531
  0
DICTIONARY
  5
5F6
102
{ACAD_REACTORS
330
5
102
}
330
5
100
AcDbDictionary
281
     1
  3
COLORDICT
350
5F7
  3
MATERIALDICT
350
5F8
  0
DICTIONARY
  5
515
102
{ACAD_REACTORS
330
5
102
}
330
5
100
AcDbDictionary
281
     1
  3
CANNOSCALE
350
516
  3
CMLEADERSTYLE
350
544
  3
CTABLESTYLE
350
5A6
  3
DIMASSOC
350
5F4
  3
HIDETEXT
350
5F5
  3
MSLTSCALE
350
5FC
  3
XCLIPFRAME
350
519
  0
XRECORD
  5
5F9
102
{ACAD_REACTORS
330
5
102
}
330
5
100
AcDbXrecord
280
     1
  1
DWGPROPS COOKIE
  2

  3

  4

  6

  7

  8
sg-d03
  9

300
=
301
=
302
=
303
=
304
=
305
=
306
=
307
=
308
=
309
=
 40
0.0
 41
2457431.455868264
 42
2458116.111582431
  1

 90
        0
  0
XRECORD
  5
5FB
102
{ACAD_REACTORS
330
5FA
102
}
330
5FA
100
AcDbXrecord
280
     1
102
VTR_0.000_0.000_1.000_1.000_GRIDDISPLAY
 70
     3
102
VTR_0.000_0.000_1.000_1.000_GRIDMAJOR
 70
     5
102
VTR_0.000_0.000_1.000_1.000_DEFAULTLIGHTING
280
     1
102
VTR_0.000_0.000_1.000_1.000_DEFAULTLIGHTINGTYPE
 70
     1
102
VTR_0.000_0.000_1.000_1.000_BRIGHTNESS
141
0.0
102
VTR_0.000_0.000_1.000_1.000_CONTRAST
142
0.0
  0
XRECORD
  5
106
102
{ACAD_REACTORS
330
105
102
}
330
105
100
AcDbXrecord
280
     1
290
     1
  0
SORTENTSTABLE
  5
19
102
{ACAD_REACTORS
330
18
102
}
330
18
100
AcDbSortentsTable
330
17
331
0
  5
36F
331
0
  5
6A
331
0
  5
6B
331
0
  5
6C
331
0
  5
6D
331
0
  5
6E
331
0
  5
6F
331
0
  5
70
331
0
  5
71
331
0
  5
72
331
0
  5
73
331
0
  5
74
331
0
  5
75
331
0
  5
76
331
0
  5
77
331
0
  5
78
331
0
  5
79
331
0
  5
7A
331
0
  5
7B
331
0
  5
7C
331
0
  5
7D
331
0
  5
7E
331
0
  5
7F
331
0
  5
80
331
0
  5
81
331
0
  5
82
331
0
  5
83
331
0
  5
84
331
0
  5
85
331
0
  5
86
331
0
  5
87
331
0
  5
88
331
0
  5
89
331
0
  5
8A
331
0
  5
8B
331
0
  5
8C
331
0
  5
8D
331
0
  5
8E
331
0
  5
8F
331
0
  5
90
331
0
  5
91
331
0
  5
92
331
0
  5
93
331
0
  5
94
331
0
  5
95
331
0
  5
96
331
0
  5
97
331
0
  5
98
331
0
  5
99
331
0
  5
9A
331
0
  5
9B
331
0
  5
9C
331
0
  5
9D
331
0
  5
9E
331
0
  5
9F
331
0
  5
A0
331
0
  5
A1
331
0
  5
A2
331
0
  5
A3
331
0
  5
A4
331
0
  5
A5
331
0
  5
A6
331
0
  5
A7
331
0
  5
A8
331
0
  5
A9
331
0
  5
AA
331
0
  5
AB
331
0
  5
AC
331
0
  5
AD
331
0
  5
AE
331
0
  5
AF
331
0
  5
B0
331
0
  5
B1
331
0
  5
B2
331
0
  5
B3
331
0
  5
B4
331
0
  5
B5
331
0
  5
B6
331
0
  5
B7
331
0
  5
B8
331
0
  5
B9
331
0
  5
BA
331
0
  5
BB
331
0
  5
BC
331
0
  5
BD
331
0
  5
BE
331
0
  5
BF
331
0
  5
C0
331
0
  5
C1
331
0
  5
C2
331
0
  5
C3
331
0
  5
C4
331
0
  5
C5
331
0
  5
C6
331
0
  5
C7
331
0
  5
C8
331
0
  5
C9
331
0
  5
CA
331
0
  5
CB
331
0
  5
CC
331
0
  5
CD
331
0
  5
CE
331
0
  5
CF
331
0
  5
D0
331
0
  5
D1
331
0
  5
D2
331
0
  5
D3
331
0
  5
D4
331
0
  5
D5
331
0
  5
D6
331
0
  5
D7
331
0
  5
D8
331
0
  5
D9
331
0
  5
DA
331
0
  5
DB
331
0
  5
DC
331
0
  5
DD
331
0
  5
DE
331
0
  5
DF
331
0
  5
E0
331
0
  5
E1
331
0
  5
E2
331
0
  5
E3
331
0
  5
E4
331
0
  5
E5
331
0
  5
E6
331
0
  5
E7
331
0
  5
E8
331
0
  5
E9
331
0
  5
EA
331
0
  5
EB
331
0
  5
EC
331
0
  5
ED
331
0
  5
EE
331
0
  5
EF
331
0
  5
F0
331
0
  5
F1
331
0
  5
F2
331
0
  5
F3
331
0
  5
F4
331
0
  5
F5
331
0
  5
F6
331
0
  5
F7
331
0
  5
F8
331
0
  5
F9
331
0
  5
FA
331
0
  5
FB
331
0
  5
FC
331
0
  5
FD
331
0
  5
FE
331
0
  5
FF
331
0
  5
100
331
0
  5
101
331
0
  5
102
331
0
  5
103
331
0
  5
107
331
0
  5
108
331
0
  5
109
331
0
  5
10A
331
0
  5
10B
331
0
  5
10D
331
0
  5
10E
331
0
  5
10F
331
0
  5
110
331
0
  5
111
331
0
  5
112
331
0
  5
113
331
0
  5
114
331
0
  5
115
331
0
  5
116
331
0
  5
117
331
0
  5
118
331
0
  5
119
331
0
  5
11A
331
0
  5
11B
331
0
  5
11C
331
0
  5
11D
331
0
  5
11E
331
0
  5
11F
331
0
  5
120
331
0
  5
121
331
0
  5
122
331
0
  5
123
331
0
  5
124
331
0
  5
125
331
0
  5
126
331
0
  5
127
331
0
  5
128
331
0
  5
129
331
0
  5
12A
331
0
  5
12B
331
0
  5
12C
331
0
  5
12D
331
0
  5
12E
331
0
  5
12F
331
0
  5
130
331
0
  5
131
331
0
  5
132
331
0
  5
133
331
0
  5
134
331
0
  5
135
331
0
  5
136
331
0
  5
137
331
0
  5
138
331
0
  5
139
331
0
  5
13A
331
0
  5
13B
331
0
  5
13C
331
0
  5
13D
331
0
  5
13E
331
0
  5
13F
331
0
  5
140
331
0
  5
141
331
0
  5
142
331
0
  5
143
331
0
  5
144
331
0
  5
145
331
0
  5
146
331
0
  5
147
331
0
  5
148
331
0
  5
149
331
0
  5
14A
331
0
  5
14B
331
0
  5
14C
331
0
  5
14D
331
0
  5
14E
331
0
  5
14F
331
0
  5
150
331
0
  5
151
331
0
  5
152
331
0
  5
153
331
0
  5
154
331
0
  5
155
331
0
  5
156
331
0
  5
157
331
0
  5
158
331
0
  5
159
331
0
  5
15A
331
0
  5
15B
331
0
  5
15C
331
0
  5
15D
331
0
  5
15E
331
0
  5
15F
331
0
  5
160
331
0
  5
161
331
0
  5
162
331
0
  5
163
331
0
  5
164
331
0
  5
165
331
0
  5
166
331
0
  5
167
331
0
  5
168
331
0
  5
169
331
0
  5
16A
331
0
  5
16B
331
0
  5
16C
331
0
  5
16D
331
0
  5
16E
331
0
  5
16F
331
0
  5
170
331
0
  5
171
331
0
  5
172
331
0
  5
173
331
0
  5
174
331
0
  5
175
331
0
  5
176
331
0
  5
177
331
0
  5
178
331
0
  5
179
331
0
  5
17A
331
0
  5
17B
331
0
  5
17C
331
0
  5
17D
331
0
  5
17E
331
0
  5
17F
331
0
  5
180
331
0
  5
181
331
0
  5
182
331
0
  5
183
331
0
  5
184
331
0
  5
185
331
0
  5
186
331
0
  5
187
331
0
  5
188
331
0
  5
189
331
0
  5
18A
331
0
  5
18B
331
0
  5
18C
331
0
  5
18D
331
0
  5
18E
331
0
  5
18F
331
0
  5
190
331
0
  5
191
331
0
  5
192
331
0
  5
193
331
0
  5
194
331
0
  5
195
331
0
  5
196
331
0
  5
197
331
0
  5
198
331
0
  5
199
331
0
  5
19A
331
0
  5
19B
331
0
  5
19C
331
0
  5
19D
331
0
  5
19E
331
0
  5
19F
331
0
  5
1A0
331
0
  5
1A1
331
0
  5
1A2
331
0
  5
1A3
331
0
  5
1A4
331
0
  5
1A5
331
0
  5
1A6
331
0
  5
1A7
331
0
  5
1A8
331
0
  5
1A9
331
0
  5
1AA
331
0
  5
1AB
331
0
  5
1AC
331
0
  5
1AD
331
0
  5
1AE
331
0
  5
1AF
331
0
  5
1B0
331
0
  5
1B1
331
0
  5
1B2
331
0
  5
1B3
331
0
  5
1B4
331
0
  5
1B5
331
0
  5
1B6
331
0
  5
1B7
331
0
  5
1B8
331
0
  5
1B9
331
0
  5
1BA
331
0
  5
1BB
331
0
  5
1BC
331
0
  5
1BD
331
0
  5
1BE
331
0
  5
1BF
331
0
  5
1C0
331
0
  5
1C1
331
0
  5
1C2
331
0
  5
1C3
331
0
  5
1C4
331
0
  5
1C5
331
0
  5
1C6
331
0
  5
1C7
331
0
  5
1C8
331
0
  5
1C9
331
0
  5
1CA
331
0
  5
1CB
331
0
  5
1CC
331
0
  5
1CD
331
0
  5
1CE
331
0
  5
1CF
331
0
  5
1D0
331
0
  5
1D1
331
0
  5
1D2
331
0
  5
1D3
331
0
  5
1D4
331
0
  5
1D5
331
0
  5
1D6
331
0
  5
1D7
331
0
  5
1D8
331
0
  5
1D9
331
1D8
  5
1DA
331
1DA
  5
1DC
331
1DD
  5
1DF
331
1DF
  5
1E1
331
1E1
  5
1E3
331
1E4
  5
1E6
331
21C
  5
21E
331
21D
  5
21F
331
21E
  5
220
331
21F
  5
221
331
220
  5
222
331
221
  5
223
331
222
  5
224
331
223
  5
225
331
224
  5
226
331
225
  5
227
331
226
  5
228
331
227
  5
229
331
228
  5
22A
331
22A
  5
22C
331
22B
  5
22D
331
22C
  5
22E
331
22D
  5
22F
331
22E
  5
230
331
22F
  5
231
331
230
  5
232
331
232
  5
234
331
233
  5
235
331
234
  5
236
331
235
  5
237
331
236
  5
238
331
237
  5
239
331
238
  5
23A
331
239
  5
23B
331
23A
  5
23C
331
23B
  5
23D
331
23C
  5
23E
331
23D
  5
23F
331
23E
  5
240
331
23F
  5
241
331
240
  5
242
331
241
  5
243
331
242
  5
244
331
243
  5
245
331
244
  5
246
331
245
  5
247
331
246
  5
248
331
247
  5
249
331
248
  5
24A
331
249
  5
24B
331
24A
  5
24C
331
24B
  5
24D
331
24C
  5
24E
331
24D
  5
24F
331
24E
  5
250
331
24F
  5
251
331
250
  5
252
331
251
  5
253
331
252
  5
254
331
253
  5
255
331
254
  5
256
331
255
  5
257
331
256
  5
258
331
257
  5
259
331
258
  5
25A
331
259
  5
25B
331
25A
  5
25C
331
25B
  5
25D
331
25C
  5
25E
331
25D
  5
25F
331
25E
  5
260
331
25F
  5
261
331
260
  5
262
331
261
  5
263
331
262
  5
264
331
263
  5
265
331
264
  5
266
331
265
  5
267
331
266
  5
268
331
268
  5
26A
331
26B
  5
26D
331
26C
  5
26E
331
26D
  5
26F
331
26E
  5
270
331
26F
  5
271
331
270
  5
272
331
271
  5
273
331
272
  5
274
331
273
  5
275
331
274
  5
276
331
275
  5
277
331
276
  5
278
331
277
  5
279
331
278
  5
27A
331
279
  5
27B
331
27A
  5
27C
331
27B
  5
27D
331
27C
  5
27E
331
27D
  5
27F
331
27E
  5
280
331
27F
  5
281
331
280
  5
282
331
281
  5
283
331
282
  5
284
331
283
  5
285
331
284
  5
286
331
285
  5
287
331
286
  5
288
331
287
  5
289
331
288
  5
28A
331
289
  5
28B
331
28A
  5
28C
331
28B
  5
28D
331
28C
  5
28E
331
28D
  5
28F
331
28E
  5
290
331
28F
  5
291
331
290
  5
292
331
291
  5
293
331
292
  5
294
331
293
  5
295
331
294
  5
296
331
295
  5
297
331
296
  5
298
331
297
  5
299
331
298
  5
29A
331
299
  5
29B
331
29A
  5
29C
331
29B
  5
29D
331
29C
  5
29E
331
29D
  5
29F
331
29E
  5
2A0
331
2A0
  5
2A2
331
2A1
  5
2A3
331
2A2
  5
2A4
331
2A3
  5
2A5
331
2A4
  5
2A6
331
2A5
  5
2A7
331
2A6
  5
2A8
331
2A7
  5
2A9
331
2A8
  5
2AA
331
2A9
  5
2AB
331
2AA
  5
2AC
331
2AB
  5
2AD
331
0
  5
2AE
331
0
  5
2AF
331
0
  5
2B0
331
0
  5
2B1
331
0
  5
2B2
331
2B1
  5
2B3
331
0
  5
2B4
331
0
  5
2B5
331
0
  5
2B6
331
0
  5
2B7
331
0
  5
2B8
331
2B7
  5
2B9
331
2B8
  5
2BA
331
2B9
  5
2BB
331
0
  5
2BC
331
0
  5
2BD
331
0
  5
2BE
331
2BD
  5
2BF
331
2BE
  5
2C0
331
2BF
  5
2C1
331
2C0
  5
2C2
331
2C1
  5
2C3
331
2C2
  5
2C4
331
0
  5
2C5
331
2C4
  5
2C6
331
2C5
  5
2C7
331
0
  5
2C8
331
2C7
  5
2C9
331
2C8
  5
2CA
331
0
  5
2CB
331
0
  5
2CC
331
0
  5
2CD
331
2CC
  5
2CE
331
0
  5
2CF
331
0
  5
2D0
331
0
  5
2D1
331
0
  5
2D2
331
0
  5
2D3
331
0
  5
2D4
331
0
  5
2D5
331
0
  5
2D6
331
0
  5
2D7
331
0
  5
2D8
331
2D7
  5
2D9
331
2D8
  5
2DA
331
2D9
  5
2DB
331
2DA
  5
2DC
331
2DB
  5
2DD
331
2DC
  5
2DE
331
2DD
  5
2DF
331
2DE
  5
2E0
331
2DF
  5
2E1
331
2E0
  5
2E2
331
2E1
  5
2E3
331
2E2
  5
2E4
331
2E3
  5
2E5
331
2E4
  5
2E6
331
2E5
  5
2E7
331
2E6
  5
2E8
331
2E7
  5
2E9
331
2E8
  5
2EA
331
2E9
  5
2EB
331
2EA
  5
2EC
331
2EB
  5
2ED
331
2EC
  5
2EE
331
2ED
  5
2EF
331
2EE
  5
2F0
331
2EF
  5
2F1
331
2F0
  5
2F2
331
2F1
  5
2F3
331
2F2
  5
2F4
331
0
  5
2F5
331
0
  5
2F6
331
2F5
  5
2F7
331
2F6
  5
2F8
331
2F7
  5
2F9
331
2F8
  5
2FA
331
0
  5
2FB
331
0
  5
2FC
331
2FB
  5
2FD
331
2FC
  5
2FE
331
2FD
  5
2FF
331
2FE
  5
300
331
2FF
  5
301
331
300
  5
302
331
301
  5
303
331
302
  5
304
331
303
  5
305
331
304
  5
306
331
305
  5
307
331
306
  5
308
331
307
  5
309
331
308
  5
30A
331
309
  5
30B
331
30A
  5
30C
331
30B
  5
30D
331
30C
  5
30E
331
30D
  5
30F
331
30E
  5
310
331
30F
  5
311
331
310
  5
312
331
311
  5
313
331
312
  5
314
331
313
  5
315
331
314
  5
316
331
315
  5
317
331
316
  5
318
331
317
  5
319
331
0
  5
31A
331
319
  5
31B
331
31A
  5
31C
331
31B
  5
31D
331
31C
  5
31E
331
31D
  5
31F
331
31E
  5
320
331
31F
  5
321
331
320
  5
322
331
321
  5
323
331
322
  5
324
331
323
  5
325
331
324
  5
326
331
325
  5
327
331
326
  5
328
331
327
  5
329
331
328
  5
32A
331
329
  5
32B
331
32A
  5
32C
331
32B
  5
32D
331
32C
  5
32E
331
32D
  5
32F
331
32E
  5
330
331
32F
  5
331
331
330
  5
332
331
331
  5
333
331
332
  5
334
331
333
  5
336
331
334
  5
337
331
335
  5
338
331
336
  5
339
331
337
  5
33A
331
338
  5
33B
331
339
  5
33C
331
33A
  5
33D
331
33B
  5
33E
331
0
  5
33F
331
0
  5
340
331
0
  5
341
331
0
  5
342
331
0
  5
343
331
0
  5
344
331
342
  5
345
331
343
  5
346
331
344
  5
347
331
345
  5
348
331
346
  5
349
331
347
  5
34A
331
348
  5
34B
331
349
  5
34C
331
34A
  5
34D
331
34B
  5
34E
331
34C
  5
34F
331
34D
  5
350
331
34E
  5
351
331
34F
  5
352
331
350
  5
353
331
351
  5
354
331
352
  5
355
331
353
  5
356
331
354
  5
357
331
355
  5
358
331
356
  5
359
331
357
  5
35A
331
358
  5
35B
331
359
  5
35C
331
35A
  5
35D
331
35B
  5
35E
331
35C
  5
35F
331
35D
  5
360
331
35E
  5
361
331
360
  5
363
331
365
  5
368
331
366
  5
369
331
367
  5
36A
331
368
  5
36B
331
369
  5
36C
331
36A
  5
36D
331
36B
  5
36E
331
36D
  5
371
331
36E
  5
372
331
36F
  5
373
331
370
  5
37D
331
37A
  5
37E
331
37B
  5
37F
331
37C
  5
380
331
37D
  5
381
331
37E
  5
38B
331
388
  5
38D
331
38A
  5
38E
331
38B
  5
38F
331
38C
  5
390
331
38D
  5
391
331
38E
  5
392
331
38F
  5
393
331
390
  5
394
331
391
  5
395
331
392
  5
396
331
393
  5
397
331
394
  5
398
331
395
  5
399
331
396
  5
39A
331
397
  5
39B
331
398
  5
39C
331
399
  5
39D
331
39A
  5
39E
331
39B
  5
39F
331
39C
  5
3A0
331
0
  5
3A1
331
0
  5
3A2
331
0
  5
3A3
331
0
  5
3A4
331
0
  5
3A5
331
3A2
  5
3A6
331
3A3
  5
3A7
331
3A4
  5
3A8
331
0
  5
3A9
331
0
  5
3AA
331
0
  5
3AB
331
0
  5
3AC
331
0
  5
3AD
331
0
  5
3AE
331
0
  5
3AF
331
0
  5
3B0
331
0
  5
3B1
331
0
  5
3B2
331
0
  5
3B3
331
0
  5
3B4
331
0
  5
3B5
331
0
  5
3B6
331
3B3
  5
3B7
331
3B4
  5
3B8
331
3B5
  5
3B9
331
3B6
  5
3BA
331
3B7
  5
3BB
331
3B8
  5
3BC
331
3B9
  5
3BD
331
3BA
  5
3BE
331
0
  5
3BF
331
0
  5
3C0
331
0
  5
3C1
331
0
  5
3C4
331
0
  5
3C5
331
0
  5
3C6
331
0
  5
3C7
331
0
  5
3C8
331
0
  5
3C9
331
0
  5
3CA
331
0
  5
3CB
331
3C8
  5
3CC
331
3CA
  5
3CE
331
0
  5
3CF
331
3CC
  5
3D0
331
3CD
  5
3D1
331
3CF
  5
3D3
331
3D0
  5
3D4
331
3D1
  5
3D5
331
3D3
  5
3D7
331
3D4
  5
3D8
331
3D5
  5
3D9
331
3D6
  5
3DA
331
3D7
  5
3DB
331
3D8
  5
3DC
331
3D9
  5
3DD
331
3DA
  5
3DE
331
0
  5
3E1
331
0
  5
3E2
331
0
  5
3E3
331
3E0
  5
3E4
331
3E1
  5
3E5
331
3E2
  5
3E6
331
0
  5
3E7
331
0
  5
3E8
331
0
  5
3E9
331
0
  5
3EA
331
0
  5
3EB
331
3EB
  5
3EF
331
3EC
  5
3F0
331
3ED
  5
3F1
331
3EE
  5
3F2
331
3EF
  5
3F3
331
3F0
  5
3F4
331
3F1
  5
3F5
331
0
  5
3F7
331
3F4
  5
3F8
331
3F5
  5
3F9
331
3F6
  5
3FA
331
3F7
  5
3FB
331
3F8
  5
3FC
331
0
  5
3FD
331
0
  5
3FE
331
3FB
  5
3FF
331
3FC
  5
400
331
3FD
  5
401
331
3FE
  5
407
331
404
  5
408
331
405
  5
409
331
406
  5
40A
331
407
  5
40B
331
408
  5
40C
331
409
  5
40D
331
40A
  5
40E
331
40C
  5
410
331
40D
  5
411
331
40E
  5
412
331
40F
  5
413
331
410
  5
414
331
411
  5
415
331
412
  5
416
331
413
  5
418
331
415
  5
419
331
416
  5
41A
331
417
  5
41B
331
418
  5
41C
331
419
  5
41D
331
41A
  5
41E
331
41B
  5
41F
331
41C
  5
420
331
41D
  5
421
331
41E
  5
422
331
41F
  5
423
331
420
  5
424
331
421
  5
425
331
422
  5
427
331
424
  5
428
331
425
  5
429
331
426
  5
42A
331
0
  5
42B
331
428
  5
42C
331
429
  5
42D
331
42A
  5
42E
331
42B
  5
42F
331
42C
  5
430
331
42D
  5
431
331
42E
  5
432
331
42F
  5
433
331
430
  5
434
331
431
  5
435
331
432
  5
436
331
433
  5
437
331
434
  5
438
331
435
  5
439
331
436
  5
43A
331
437
  5
43B
331
438
  5
43C
331
439
  5
43D
331
43A
  5
43E
331
43B
  5
43F
331
43C
  5
440
331
43D
  5
441
331
43E
  5
442
331
43F
  5
443
331
440
  5
444
331
441
  5
445
331
442
  5
446
331
443
  5
448
331
445
  5
449
331
446
  5
44A
331
447
  5
44B
331
448
  5
44C
331
449
  5
44D
331
44A
  5
44E
331
44B
  5
44F
331
44C
  5
450
331
44D
  5
451
331
44E
  5
452
331
44F
  5
453
331
450
  5
454
331
451
  5
455
331
452
  5
456
331
453
  5
457
331
454
  5
458
331
455
  5
459
331
456
  5
45A
331
457
  5
45B
331
458
  5
45D
331
45A
  5
45F
331
45C
  5
463
331
460
  5
464
331
461
  5
465
331
462
  5
467
331
464
  5
468
331
465
  5
469
331
466
  5
46A
331
467
  5
46B
331
468
  5
46C
331
469
  5
46D
331
46A
  5
46E
331
46B
  5
46F
331
46C
  5
470
331
46D
  5
471
331
46E
  5
472
331
46F
  5
473
331
470
  5
474
331
471
  5
475
331
472
  5
476
331
473
  5
477
331
474
  5
478
331
475
  5
479
331
476
  5
47A
331
477
  5
47B
331
478
  5
47D
331
47A
  5
47E
331
47B
  5
47F
331
47C
  5
480
331
47D
  5
481
331
47E
  5
482
331
47F
  5
483
331
480
  5
484
331
481
  5
486
331
483
  5
487
331
484
  5
488
331
485
  5
489
331
486
  5
48A
331
487
  5
48B
331
488
  5
48C
331
489
  5
48D
331
48A
  5
48E
331
48B
  5
48F
331
48C
  5
490
331
48D
  5
491
331
48E
  5
492
331
48F
  5
493
331
490
  5
494
331
491
  5
495
331
492
  5
496
331
493
  5
497
331
494
  5
498
331
495
  5
499
331
496
  5
49A
331
497
  5
49B
331
498
  5
49C
331
499
  5
49D
331
49A
  5
49E
331
49B
  5
49F
331
49C
  5
4A0
331
49D
  5
4A1
331
0
  5
4A3
331
0
  5
4A4
331
0
  5
4A5
331
0
  5
4A6
331
0
  5
4A7
331
0
  5
4A8
331
0
  5
4A9
331
0
  5
4AA
331
0
  5
4AB
331
0
  5
4AC
331
0
  5
4AD
331
0
  5
4AE
331
0
  5
4AF
331
0
  5
4B0
331
0
  5
4B1
331
0
  5
4B2
331
0
  5
4B3
331
0
  5
4B4
331
0
  5
4B5
331
0
  5
4B6
331
0
  5
4B7
331
0
  5
4B8
331
0
  5
4B9
331
0
  5
4BA
331
0
  5
4BB
331
0
  5
4BC
331
0
  5
4BD
331
0
  5
4BE
331
0
  5
4BF
331
0
  5
4C0
331
0
  5
4C1
331
0
  5
4C2
331
0
  5
4C3
331
0
  5
4C4
331
0
  5
4C5
331
0
  5
4C6
331
0
  5
4C7
331
0
  5
4C8
331
0
  5
4C9
331
0
  5
4CA
331
4C7
  5
4CB
331
4C8
  5
4CC
331
0
  5
4CD
331
0
  5
4CE
331
0
  5
4CF
331
0
  5
4D0
331
0
  5
4D2
331
4CF
  5
4D3
331
4D0
  5
4D4
331
4D1
  5
4D5
331
4D2
  5
4D6
331
4D3
  5
4D7
331
4D4
  5
4D8
331
4D5
  5
4D9
331
4D6
  5
4DA
331
4D7
  5
4DB
331
4D8
  5
4DC
331
0
  5
4E0
331
4DA
  5
4E1
331
4DB
  5
4E2
331
4DC
  5
4E3
331
0
  5
4E4
331
4DE
  5
4E5
331
4DF
  5
4E6
331
4E0
  5
4E7
331
0
  5
4E8
331
0
  5
4EA
331
0
  5
4EB
331
0
  5
4EC
331
0
  5
4ED
331
0
  5
4EE
331
0
  5
4EF
331
0
  5
4F0
331
0
  5
4F1
331
0
  5
4F2
331
0
  5
4F3
331
0
  5
4F4
331
0
  5
4F5
331
0
  5
4F6
331
0
  5
4F7
331
0
  5
4F8
331
0
  5
4F9
331
0
  5
4FA
331
0
  5
4FB
331
0
  5
4FC
331
0
  5
4FD
331
0
  5
4FE
331
0
  5
4FF
331
0
  5
500
331
0
  5
501
331
0
  5
502
331
4FC
  5
503
331
4FD
  5
504
331
0
  5
506
331
0
  5
507
331
0
  5
508
331
0
  5
50B
331
0
  5
50C
331
503
  5
50D
331
504
  5
50F
331
505
  5
510
331
506
  5
511
331
507
  5
512
331
508
  5
513
331
509
  5
514
331
50A
  5
535
331
0
  5
536
331
0
  5
537
331
50E
  5
539
331
50F
  5
53C
331
510
  5
53D
331
0
  5
53E
331
0
  5
53F
331
0
  5
540
331
0
  5
541
331
0
  5
545
331
0
  5
546
331
0
  5
547
331
0
  5
548
331
0
  5
549
331
0
  5
54A
331
0
  5
54B
331
0
  5
54D
331
545
  5
335
331
546
  5
53B
331
547
  5
53A
331
548
  5
552
331
549
  5
557
331
54B
  5
558
331
550
  5
559
331
555
  5
55A
331
556
  5
55B
331
557
  5
55C
331
558
  5
55D
331
559
  5
55E
331
55A
  5
55F
331
55B
  5
560
331
55C
  5
561
331
55D
  5
562
331
55E
  5
563
331
55F
  5
564
331
560
  5
565
331
561
  5
566
331
562
  5
567
331
563
  5
568
331
564
  5
569
331
565
  5
56A
331
566
  5
56B
331
567
  5
56C
331
568
  5
56D
331
569
  5
69
331
56A
  5
68
331
56B
  5
56E
331
56C
  5
56F
331
56D
  5
570
331
56E
  5
571
331
56F
  5
573
331
570
  5
574
331
571
  5
575
331
573
  5
576
331
574
  5
577
331
575
  5
578
331
576
  5
579
331
577
  5
57A
331
578
  5
57B
331
579
  5
57D
331
57A
  5
57E
331
57B
  5
57F
331
57D
  5
580
331
57E
  5
581
331
57F
  5
582
331
580
  5
583
331
581
  5
584
331
582
  5
585
331
583
  5
586
331
584
  5
587
331
585
  5
588
331
586
  5
589
331
587
  5
58A
331
588
  5
58B
331
589
  5
58C
331
58A
  5
58D
331
58B
  5
58E
331
58C
  5
58F
331
58D
  5
590
331
58E
  5
591
331
58F
  5
592
331
590
  5
593
331
591
  5
594
331
592
  5
595
331
593
  5
596
331
594
  5
597
331
595
  5
598
331
596
  5
599
331
597
  5
59A
331
598
  5
59B
331
599
  5
59C
331
59A
  5
59D
331
59B
  5
59E
331
59C
  5
59F
331
59D
  5
5A0
331
59E
  5
5A1
331
59F
  5
5A2
331
5A0
  5
5A3
331
5A1
  5
5A4
331
5A4
  5
370
  0
LAYOUT
  5
1D
102
{ACAD_REACTORS
330
1E
102
}
330
1E
100
AcDbPlotSettings
  1

  2
Bullzip PDF Printer.pc3
  4
A3
  6

 40
0.2
 41
0.0
 42
0.0
 43
0.0
 44
420.2
 45
297.1
 46
25.0
 47
12.0
 48
80.9999999050001
 49
10.0
140
1226.99999728
141
827.4999980924999
142
1.0
143
3.0
 70
 11936
 72
     1
 73
     0
 74
     4
  7
monochrome.ctb
 75
     0
147
0.3488421979355492
148
-80.9999999050001
149
-10.0
100
AcDbLayout
  1
Model
 70
     0
 71
     0
 10
0.0
 20
0.0
 11
12.0
 21
9.0
 12
0.0
 22
0.0
 32
0.0
 14
142.5786222910317
 24
14.86174230287338
 34
0.0
 15
1103.56311140329
 25
994.6693929220062
 35
0.0
146
0.0
 13
0.0
 23
0.0
 33
0.0
 16
1.0
 26
0.0
 36
0.0
 17
0.0
 27
1.0
 37
0.0
 76
     0
330
17
331
2B
1001
ACAD_PSEXT
1000
Bullzip PDF Printer.pc3
1000
Bullzip PDF Printer
1000
BULLZIP
1000
Bullzip PDF Printer 10.1.0.1871
1070
     0
  0
LAYOUT
  5
23
102
{ACAD_REACTORS
330
1E
102
}
330
1E
100
AcDbPlotSettings
  1

  2
SR-LP8300F
  4

  6

 40
0.0
 41
0.0
 42
0.0
 43
0.0
 44
0.0
 45
0.0
 46
0.0
 47
0.0
 48
0.0
 49
0.0
140
0.0
141
0.0
142
1.0
143
1.0
 70
   688
 72
     0
 73
     0
 74
     5
  7
monochrome.ctb
 75
    16
147
1.0
148
0.0
149
0.0
100
AcDbLayout
  1
ﾚｲｱｳﾄ1
 70
     0
 71
     1
 10
0.0
 20
0.0
 11
12.0
 21
9.0
 12
0.0
 22
0.0
 32
0.0
 14
1000000000000000E+20
 24
1000000000000000E+20
 34
1000000000000000E+20
 15
-1000000000000000E+20
 25
-1000000000000000E+20
 35
-1000000000000000E+20
146
0.0
 13
0.0
 23
0.0
 33
0.0
 16
1.0
 26
0.0
 36
0.0
 17
0.0
 27
1.0
 37
0.0
 76
     0
330
20
  0
MATERIAL
  5
50
102
{ACAD_REACTORS
330
7
102
}
102
{ACAD_XDICTIONARY
360
601
102
}
330
7
100
AcDbMaterial
  1
BYBLOCK
 72
     0
 73
     2
 43
0.0208333333333333
 43
0.0
 43
0.0
 43
0.0
 43
0.0
 43
0.0208333333333333
 43
0.0
 43
0.0
 43
0.0
 43
0.0
 43
1.0
 43
0.0
 43
0.0
 43
0.0
 43
0.0
 43
1.0
 77
     0
 78
     2
 47
0.0208333333333333
 47
0.0
 47
0.0
 47
0.0
 47
0.0
 47
0.0208333333333333
 47
0.0
 47
0.0
 47
0.0
 47
0.0
 47
1.0
 47
0.0
 47
0.0
 47
0.0
 47
0.0
 47
1.0
171
     0
172
     2
 49
0.0208333333333333
 49
0.0
 49
0.0
 49
0.0
 49
0.0
 49
0.0208333333333333
 49
0.0
 49
0.0
 49
0.0
 49
0.0
 49
1.0
 49
0.0
 49
0.0
 49
0.0
 49
0.0
 49
1.0
175
     0
176
     2
142
0.0208333333333333
142
0.0
142
0.0
142
0.0
142
0.0
142
0.0208333333333333
142
0.0
142
0.0
142
0.0
142
0.0
142
1.0
142
0.0
142
0.0
142
0.0
142
0.0
142
1.0
179
     0
270
     2
144
0.0208333333333333
144
0.0
144
0.0
144
0.0
144
0.0
144
0.0208333333333333
144
0.0
144
0.0
144
0.0
144
0.0
144
1.0
144
0.0
144
0.0
144
0.0
144
0.0
144
1.0
274
     2
147
0.0208333333333333
147
0.0
147
0.0
147
0.0
147
0.0
147
0.0208333333333333
147
0.0
147
0.0
147
0.0
147
0.0
147
1.0
147
0.0
147
0.0
147
0.0
147
0.0
147
1.0
  0
MATERIAL
  5
10
102
{ACAD_REACTORS
330
7
102
}
102
{ACAD_XDICTIONARY
360
5FD
102
}
330
7
100
AcDbMaterial
  1
BYLAYER
 72
     0
 73
     2
 43
0.0208333333333333
 43
0.0
 43
0.0
 43
0.0
 43
0.0
 43
0.0208333333333333
 43
0.0
 43
0.0
 43
0.0
 43
0.0
 43
1.0
 43
0.0
 43
0.0
 43
0.0
 43
0.0
 43
1.0
 77
     0
 78
     2
 47
0.0208333333333333
 47
0.0
 47
0.0
 47
0.0
 47
0.0
 47
0.0208333333333333
 47
0.0
 47
0.0
 47
0.0
 47
0.0
 47
1.0
 47
0.0
 47
0.0
 47
0.0
 47
0.0
 47
1.0
171
     0
172
     2
 49
0.0208333333333333
 49
0.0
 49
0.0
 49
0.0
 49
0.0
 49
0.0208333333333333
 49
0.0
 49
0.0
 49
0.0
 49
0.0
 49
1.0
 49
0.0
 49
0.0
 49
0.0
 49
0.0
 49
1.0
175
     0
176
     2
142
0.0208333333333333
142
0.0
142
0.0
142
0.0
142
0.0
142
0.0208333333333333
142
0.0
142
0.0
142
0.0
142
0.0
142
1.0
142
0.0
142
0.0
142
0.0
142
0.0
142
1.0
179
     0
270
     2
144
0.0208333333333333
144
0.0
144
0.0
144
0.0
144
0.0
144
0.0208333333333333
144
0.0
144
0.0
144
0.0
144
0.0
144
1.0
144
0.0
144
0.0
144
0.0
144
0.0
144
1.0
274
     2
147
0.0208333333333333
147
0.0
147
0.0
147
0.0
147
0.0
147
0.0208333333333333
147
0.0
147
0.0
147
0.0
147
0.0
147
1.0
147
0.0
147
0.0
147
0.0
147
0.0
147
1.0
  0
MATERIAL
  5
6
102
{ACAD_REACTORS
330
7
102
}
102
{ACAD_XDICTIONARY
360
5FF
102
}
330
7
100
AcDbMaterial
  1
GLOBAL
 72
     0
 73
     2
 43
0.0208333333333333
 43
0.0
 43
0.0
 43
0.0
 43
0.0
 43
0.0208333333333333
 43
0.0
 43
0.0
 43
0.0
 43
0.0
 43
1.0
 43
0.0
 43
0.0
 43
0.0
 43
0.0
 43
1.0
 77
     0
 78
     2
 47
0.0208333333333333
 47
0.0
 47
0.0
 47
0.0
 47
0.0
 47
0.0208333333333333
 47
0.0
 47
0.0
 47
0.0
 47
0.0
 47
1.0
 47
0.0
 47
0.0
 47
0.0
 47
0.0
 47
1.0
171
     0
172
     2
 49
0.0208333333333333
 49
0.0
 49
0.0
 49
0.0
 49
0.0
 49
0.0208333333333333
 49
0.0
 49
0.0
 49
0.0
 49
0.0
 49
1.0
 49
0.0
 49
0.0
 49
0.0
 49
0.0
 49
1.0
175
     0
176
     2
142
0.0208333333333333
142
0.0
142
0.0
142
0.0
142
0.0
142
0.0208333333333333
142
0.0
142
0.0
142
0.0
142
0.0
142
1.0
142
0.0
142
0.0
142
0.0
142
0.0
142
1.0
179
     0
270
     2
144
0.0208333333333333
144
0.0
144
0.0
144
0.0
144
0.0
144
0.0208333333333333
144
0.0
144
0.0
144
0.0
144
0.0
144
1.0
144
0.0
144
0.0
144
0.0
144
0.0
144
1.0
274
     2
147
0.0208333333333333
147
0.0
147
0.0
147
0.0
147
0.0
147
0.0208333333333333
147
0.0
147
0.0
147
0.0
147
0.0
147
1.0
147
0.0
147
0.0
147
0.0
147
0.0
147
1.0
1001
ACAD
1070
    -1
1070
     3
1070
     0
1000

1071
        0
  0
MLEADERSTYLE
  5
542
102
{ACAD_REACTORS
330
518
102
}
102
{ACAD_XDICTIONARY
360
633
102
}
330
518
100
AcDbMLeaderStyle
170
     2
171
     1
172
     0
 90
        2
 40
0.0
 41
0.0
173
     1
 91
-1056964608
340
D
 92
       -2
290
     1
 42
0.09
291
     1
 43
0.36
  3
Standard
341
0
 44
0.18
300

342
E
174
     1
178
     6
175
     1
176
     0
 93
-1056964608
 45
0.18
292
     0
297
     0
 46
0.18
343
0
 94
-1056964608
 47
1.0
 49
1.0
140
1.0
293
     1
141
0.0
294
     1
177
     0
142
1.0
295
     0
296
     0
143
0.125
1001
ACAD_MLEADERVER
1070
     2
  0
MLINESTYLE
  5
14
102
{ACAD_REACTORS
330
15
102
}
330
15
100
AcDbMlineStyle
  2
STANDARD
 70
     0
  3

 62
     0
 51
90.0
 52
90.0
 71
     2
 49
0.5
 62
   256
  6
BYLAYER
 49
-0.5
 62
   256
  6
BYLAYER
  0
ACDBPLACEHOLDER
  5
3
102
{ACAD_REACTORS
330
4
102
}
330
4
  0
SCALE
  5
4F
102
{ACAD_REACTORS
330
2D
102
}
330
2D
100
AcDbScale
 70
     0
300
1:1
140
1.0
141
1.0
290
     1
  0
TABLESTYLE
  5
5A5
102
{ACAD_REACTORS
330
517
102
}
330
517
100
AcDbTableStyle
  3
Standard
 70
     0
 71
     0
 40
0.06
 41
0.06
280
     0
281
     0
  7
STANDARD
140
0.18
170
     2
 62
     0
 63
   257
283
     0
274
    -2
284
     1
 64
     0
275
    -2
285
     1
 65
     0
276
    -2
286
     1
 66
     0
277
    -2
287
     1
 67
     0
278
    -2
288
     1
 68
     0
279
    -2
289
     1
 69
     0
  7
STANDARD
140
0.25
170
     5
 62
     0
 63
   257
283
     0
274
    -2
284
     1
 64
     0
275
    -2
285
     1
 65
     0
276
    -2
286
     1
 66
     0
277
    -2
287
     1
 67
     0
278
    -2
288
     1
 68
     0
279
    -2
289
     1
 69
     0
  7
STANDARD
140
0.18
170
     5
 62
     0
 63
   257
283
     0
274
    -2
284
     1
 64
     0
275
    -2
285
     1
 65
     0
276
    -2
286
     1
 66
     0
277
    -2
287
     1
 67
     0
278
    -2
288
     1
 68
     0
279
    -2
289
     1
 69
     0
  0
VISUALSTYLE
  5
520
102
{ACAD_REACTORS
330
2A
102
}
102
{ACAD_XDICTIONARY
360
60B
102
}
330
2A
100
AcDbVisualStyle
  2
2dWireframe
 70
     4
 71
     0
 72
     2
 73
     0
 90
        0
 40
0.6
 41
30.0
 62
     5
 63
     7
 74
     1
 91
        4
 64
     7
 65
   257
 75
     1
175
     1
 42
1.0
 92
        0
 66
   257
 43
1.0
 76
     1
 77
     6
 78
     2
 67
     7
 79
     5
170
     0
171
     0
290
     0
174
     0
 93
        1
 44
0.0
173
     0
291
     0
 45
0.0
1001
ACAD
1000
AcDbSavedByObjectVersion
1070
     0
  0
VISUALSTYLE
  5
523
102
{ACAD_REACTORS
330
2A
102
}
102
{ACAD_XDICTIONARY
360
611
102
}
330
2A
100
AcDbVisualStyle
  2
Basic
 70
     7
 71
     1
 72
     0
 73
     1
 90
        0
 40
0.6
 41
30.0
 62
     5
 63
     7
 74
     0
 91
        4
 64
     7
 65
   257
 75
     1
175
     1
 42
1.0
 92
        8
 66
     7
 43
1.0
 76
     1
 77
     6
 78
     2
 67
     7
 79
     5
170
     0
171
     0
290
     0
174
     0
 93
        1
 44
0.0
173
     0
291
     1
 45
0.0
1001
ACAD
1000
AcDbSavedByObjectVersion
1070
     0
  0
VISUALSTYLE
  5
527
102
{ACAD_REACTORS
330
2A
102
}
102
{ACAD_XDICTIONARY
360
619
102
}
330
2A
100
AcDbVisualStyle
  2
Brighten
 70
    12
 71
     2
 72
     2
 73
     0
 90
        0
 40
0.6
 41
30.0
 62
     5
 63
     7
 74
     1
 91
        4
 64
     7
 65
   257
 75
     1
175
     1
 42
1.0
 92
        8
 66
     7
 43
1.0
 76
     1
 77
     6
 78
     2
 67
     7
 79
     5
170
     0
171
     0
290
     0
174
     0
 93
        1
 44
50.0
173
     0
291
     1
 45
0.0
1001
ACAD
1000
AcDbSavedByObjectVersion
1070
     0
  0
VISUALSTYLE
  5
52B
102
{ACAD_REACTORS
330
2A
102
}
102
{ACAD_XDICTIONARY
360
621
102
}
330
2A
100
AcDbVisualStyle
  2
ColorChange
 70
    16
 71
     2
 72
     2
 73
     3
 90
        0
 40
0.6
 41
30.0
 62
     5
 63
     8
 74
     1
 91
        4
 64
     7
 65
   257
 75
     1
175
     1
 42
1.0
 92
        8
 66
     8
 43
1.0
 76
     1
 77
     6
 78
     2
 67
     7
 79
     5
170
     0
171
     0
290
     0
174
     0
 93
        1
 44
0.0
173
     0
291
     1
 45
0.0
1001
ACAD
1000
AcDbSavedByObjectVersion
1070
     0
  0
VISUALSTYLE
  5
525
102
{ACAD_REACTORS
330
2A
102
}
102
{ACAD_XDICTIONARY
360
615
102
}
330
2A
100
AcDbVisualStyle
  2
Conceptual
 70
     9
 71
     3
 72
     2
 73
     0
 90
        0
 40
0.6
 41
30.0
 62
     5
 63
     7
 74
     2
 91
        2
 64
     7
 65
   257
 75
     1
175
     1
 42
40.0
 92
        8
 66
     7
 43
1.0
 76
     1
 77
     6
 78
     2
 67
     7
 79
     3
170
     0
171
     0
290
     0
174
     0
 93
        1
 44
0.0
173
     0
291
     0
 45
0.0
1001
ACAD
1000
AcDbSavedByObjectVersion
1070
     0
  0
VISUALSTYLE
  5
526
102
{ACAD_REACTORS
330
2A
102
}
102
{ACAD_XDICTIONARY
360
617
102
}
330
2A
100
AcDbVisualStyle
  2
Dim
 70
    11
 71
     2
 72
     2
 73
     0
 90
        0
 40
0.6
 41
30.0
 62
     5
 63
     7
 74
     1
 91
        4
 64
     7
 65
   257
 75
     1
175
     1
 42
1.0
 92
        8
 66
     7
 43
1.0
 76
     1
 77
     6
 78
     2
 67
     7
 79
     5
170
     0
171
     0
290
     0
174
     0
 93
        1
 44
-50.0
173
     0
291
     1
 45
0.0
1001
ACAD
1000
AcDbSavedByObjectVersion
1070
     0
  0
VISUALSTYLE
  5
52E
102
{ACAD_REACTORS
330
2A
102
}
102
{ACAD_XDICTIONARY
360
627
102
}
330
2A
100
AcDbVisualStyle
  2
EdgeColorOff
 70
    22
 71
     2
 72
     2
 73
     0
 90
        0
 40
0.6
 41
30.0
 62
     5
 63
     7
 74
     1
 91
        4
 64
     7
 65
   257
 75
     1
175
     1
 42
1.0
 92
        8
 66
     7
 43
1.0
 76
     1
 77
     6
 78
     2
 67
     7
 79
     5
170
     0
171
     0
290
     0
174
     0
 93
        1
 44
0.0
173
     0
291
     1
 45
0.0
1001
ACAD
1000
AcDbSavedByObjectVersion
1070
     0
  0
VISUALSTYLE
  5
52A
102
{ACAD_REACTORS
330
2A
102
}
102
{ACAD_XDICTIONARY
360
61F
102
}
330
2A
100
AcDbVisualStyle
  2
Facepattern
 70
    15
 71
     2
 72
     2
 73
     0
 90
        0
 40
0.6
 41
30.0
 62
     5
 63
     7
 74
     1
 91
        4
 64
     7
 65
   257
 75
     1
175
     1
 42
1.0
 92
        8
 66
     7
 43
1.0
 76
     1
 77
     6
 78
     2
 67
     7
 79
     5
170
     0
171
     0
290
     0
174
     0
 93
        1
 44
0.0
173
     0
291
     1
 45
0.0
1001
ACAD
1000
AcDbSavedByObjectVersion
1070
     0
  0
VISUALSTYLE
  5
51C
102
{ACAD_REACTORS
330
2A
102
}
102
{ACAD_XDICTIONARY
360
603
102
}
330
2A
100
AcDbVisualStyle
  2
Flat
 70
     0
 71
     2
 72
     1
 73
     1
 90
        2
 40
0.6
 41
30.0
 62
     5
 63
     7
 74
     0
 91
        4
 64
     7
 65
   257
 75
     1
175
     1
 42
1.0
 92
        8
 66
     7
 43
1.0
 76
     1
 77
     6
 78
     2
 67
     7
 79
     5
170
     0
171
     0
290
     0
174
     0
 93
       13
 44
0.0
173
     0
291
     1
 45
0.0
1001
ACAD
1000
AcDbSavedByObjectVersion
1070
     0
  0
VISUALSTYLE
  5
51D
102
{ACAD_REACTORS
330
2A
102
}
102
{ACAD_XDICTIONARY
360
605
102
}
330
2A
100
AcDbVisualStyle
  2
FlatWithEdges
 70
     1
 71
     2
 72
     1
 73
     1
 90
        2
 40
0.6
 41
30.0
 62
     5
 63
     7
 74
     1
 91
        4
 64
     7
 65
   257
 75
     1
175
     1
 42
1.0
 92
        0
 66
   257
 43
1.0
 76
     1
 77
     6
 78
     2
 67
     7
 79
     5
170
     0
171
     0
290
     0
174
     0
 93
       13
 44
0.0
173
     0
291
     1
 45
0.0
1001
ACAD
1000
AcDbSavedByObjectVersion
1070
     0
  0
VISUALSTYLE
  5
51E
102
{ACAD_REACTORS
330
2A
102
}
102
{ACAD_XDICTIONARY
360
607
102
}
330
2A
100
AcDbVisualStyle
  2
Gouraud
 70
     2
 71
     2
 72
     2
 73
     1
 90
        2
 40
0.6
 41
30.0
 62
     5
 63
     7
 74
     0
 91
        4
 64
     7
 65
   257
 75
     1
175
     1
 42
1.0
 92
        0
 66
     7
 43
1.0
 76
     1
 77
     6
 78
     2
 67
     7
 79
     5
170
     0
171
     0
290
     0
174
     0
 93
       13
 44
0.0
173
     0
291
     1
 45
0.0
1001
ACAD
1000
AcDbSavedByObjectVersion
1070
     0
  0
VISUALSTYLE
  5
51F
102
{ACAD_REACTORS
330
2A
102
}
102
{ACAD_XDICTIONARY
360
609
102
}
330
2A
100
AcDbVisualStyle
  2
GouraudWithEdges
 70
     3
 71
     2
 72
     2
 73
     1
 90
        2
 40
0.6
 41
30.0
 62
     5
 63
     7
 74
     1
 91
        4
 64
     7
 65
   257
 75
     1
175
     1
 42
1.0
 92
        0
 66
   257
 43
1.0
 76
     1
 77
     6
 78
     2
 67
     7
 79
     5
170
     0
171
     0
290
     0
174
     0
 93
       13
 44
0.0
173
     0
291
     1
 45
0.0
1001
ACAD
1000
AcDbSavedByObjectVersion
1070
     0
  0
VISUALSTYLE
  5
522
102
{ACAD_REACTORS
330
2A
102
}
102
{ACAD_XDICTIONARY
360
60F
102
}
330
2A
100
AcDbVisualStyle
  2
Hidden
 70
     6
 71
     1
 72
     2
 73
     2
 90
        0
 40
0.6
 41
30.0
 62
     5
 63
     7
 74
     2
 91
        2
 64
     7
 65
   257
 75
     2
175
     1
 42
40.0
 92
        0
 66
   257
 43
1.0
 76
     1
 77
     6
 78
     2
 67
     7
 79
     3
170
     0
171
     0
290
     0
174
     0
 93
        1
 44
0.0
173
     0
291
     0
 45
0.0
1001
ACAD
1000
AcDbSavedByObjectVersion
1070
     0
  0
VISUALSTYLE
  5
52C
102
{ACAD_REACTORS
330
2A
102
}
102
{ACAD_XDICTIONARY
360
623
102
}
330
2A
100
AcDbVisualStyle
  2
JitterOff
 70
    20
 71
     2
 72
     2
 73
     0
 90
        0
 40
0.6
 41
30.0
 62
     5
 63
     7
 74
     1
 91
        4
 64
     7
 65
   257
 75
     1
175
     1
 42
1.0
 92
       10
 66
     7
 43
1.0
 76
     1
 77
     6
 78
     2
 67
     7
 79
     5
170
     0
171
     0
290
     0
174
     0
 93
        1
 44
0.0
173
     0
291
     1
 45
0.0
1001
ACAD
1000
AcDbSavedByObjectVersion
1070
     0
  0
VISUALSTYLE
  5
529
102
{ACAD_REACTORS
330
2A
102
}
102
{ACAD_XDICTIONARY
360
61D
102
}
330
2A
100
AcDbVisualStyle
  2
Linepattern
 70
    14
 71
     2
 72
     2
 73
     0
 90
        0
 40
0.6
 41
30.0
 62
     5
 63
     7
 74
     1
 91
        4
 64
     7
 65
   257
 75
     7
175
     7
 42
1.0
 92
        8
 66
     7
 43
1.0
 76
     1
 77
     6
 78
     2
 67
     7
 79
     5
170
     0
171
     0
290
     0
174
     0
 93
        1
 44
0.0
173
     0
291
     1
 45
0.0
1001
ACAD
1000
AcDbSavedByObjectVersion
1070
     0
  0
VISUALSTYLE
  5
52D
102
{ACAD_REACTORS
330
2A
102
}
102
{ACAD_XDICTIONARY
360
625
102
}
330
2A
100
AcDbVisualStyle
  2
OverhangOff
 70
    21
 71
     2
 72
     2
 73
     0
 90
        0
 40
0.6
 41
30.0
 62
     5
 63
     7
 74
     1
 91
        4
 64
     7
 65
   257
 75
     1
175
     1
 42
1.0
 92
        9
 66
     7
 43
1.0
 76
     1
 77
     6
 78
     2
 67
     7
 79
     5
170
     0
171
     0
290
     0
174
     0
 93
        1
 44
0.0
173
     0
291
     1
 45
0.0
1001
ACAD
1000
AcDbSavedByObjectVersion
1070
     0
  0
VISUALSTYLE
  5
524
102
{ACAD_REACTORS
330
2A
102
}
102
{ACAD_XDICTIONARY
360
613
102
}
330
2A
100
AcDbVisualStyle
  2
Realistic
 70
     8
 71
     2
 72
     3
 73
     0
 90
        2
 40
0.6
 41
30.0
 62
     5
 63
     7
 74
     0
 91
        0
 64
     7
 65
   257
 75
     1
175
     1
 42
1.0
 92
        8
 66
   257
 43
1.0
 76
     1
 77
     6
 78
     2
 67
     7
 79
     3
170
     0
171
     0
290
     0
174
     0
 93
       13
 44
0.0
173
     0
291
     0
 45
0.0
1001
ACAD
1000
AcDbSavedByObjectVersion
1070
     0
  0
VISUALSTYLE
  5
533
102
{ACAD_REACTORS
330
2A
102
}
102
{ACAD_XDICTIONARY
360
631
102
}
330
2A
100
AcDbVisualStyle
  2
Shaded
 70
    27
 71
     2
 72
     2
 73
     1
 90
        2
 40
0.6
 41
30.0
 62
     5
 63
     7
 74
     0
 91
        4
 64
     7
 65
   257
 75
     1
175
     1
 42
1.0
 92
        8
 66
   257
 43
1.0
 76
     1
 77
     6
 78
     2
 67
   251
 79
     3
170
     0
171
     0
290
     0
174
     0
 93
        5
 44
0.0
173
     0
291
     0
 45
0.0
1001
ACAD
1000
AcDbSavedByObjectVersion
1070
     0
  0
VISUALSTYLE
  5
532
102
{ACAD_REACTORS
330
2A
102
}
102
{ACAD_XDICTIONARY
360
62F
102
}
330
2A
100
AcDbVisualStyle
  2
Shaded with edges
 70
    26
 71
     2
 72
     2
 73
     1
 90
        2
 40
0.6
 41
30.0
 62
     5
 63
     7
 74
     1
 91
       10
 64
     7
 65
   257
 75
     2
175
     1
 42
1.0
 92
        8
 66
   257
 43
1.0
 76
     1
 77
     6
 78
     2
 67
     7
 79
     3
170
     0
171
     0
290
     0
174
     0
 93
        5
 44
0.0
173
     0
291
     0
 45
0.0
1001
ACAD
1000
AcDbSavedByObjectVersion
1070
     0
  0
VISUALSTYLE
  5
52F
102
{ACAD_REACTORS
330
2A
102
}
102
{ACAD_XDICTIONARY
360
629
102
}
330
2A
100
AcDbVisualStyle
  2
Shades of Gray
 70
    23
 71
     2
 72
     2
 73
     3
 90
        0
 40
0.6
 41
30.0
 62
     5
 63
     7
 74
     2
 91
        2
 64
     7
 65
     7
 75
     1
175
     1
 42
40.0
 92
        8
 66
     7
 43
1.0
 76
     1
 77
     6
 78
     2
 67
     7
 79
     3
170
     0
171
     0
290
     0
174
     0
 93
        1
 44
0.0
173
     0
291
     0
 45
0.0
1001
ACAD
1000
AcDbSavedByObjectVersion
1070
     0
  0
VISUALSTYLE
  5
530
102
{ACAD_REACTORS
330
2A
102
}
102
{ACAD_XDICTIONARY
360
62B
102
}
330
2A
100
AcDbVisualStyle
  2
Sketchy
 70
    24
 71
     1
 72
     2
 73
     2
 90
        0
 40
0.6
 41
30.0
 62
     5
 63
     7
 74
     2
 91
        2
 64
     7
 65
     7
 75
     1
175
     1
 42
40.0
 92
       11
 66
     7
 43
1.0
 76
     1
 77
     6
 78
     2
 67
     7
 79
     6
170
     0
171
     0
290
     0
174
     0
 93
        1
 44
0.0
173
     0
291
     0
 45
0.0
1001
ACAD
1000
AcDbSavedByObjectVersion
1070
     0
  0
VISUALSTYLE
  5
528
102
{ACAD_REACTORS
330
2A
102
}
102
{ACAD_XDICTIONARY
360
61B
102
}
330
2A
100
AcDbVisualStyle
  2
Thicken
 70
    13
 71
     2
 72
     2
 73
     0
 90
        0
 40
0.6
 41
30.0
 62
     5
 63
     7
 74
     1
 91
        4
 64
     7
 65
   257
 75
     1
175
     1
 42
1.0
 92
       12
 66
     7
 43
1.0
 76
     1
 77
     6
 78
     2
 67
     7
 79
     5
170
     0
171
     0
290
     0
174
     0
 93
        1
 44
0.0
173
     0
291
     1
 45
0.0
1001
ACAD
1000
AcDbSavedByObjectVersion
1070
     0
  0
VISUALSTYLE
  5
521
102
{ACAD_REACTORS
330
2A
102
}
102
{ACAD_XDICTIONARY
360
60D
102
}
330
2A
100
AcDbVisualStyle
  2
Wireframe
 70
     5
 71
     0
 72
     2
 73
     0
 90
        0
 40
0.6
 41
30.0
 62
     5
 63
     7
 74
     1
 91
        4
 64
     7
 65
   257
 75
     1
175
     1
 42
1.0
 92
        0
 66
   257
 43
1.0
 76
     1
 77
     6
 78
     2
 67
     7
 79
     5
170
     0
171
     0
290
     0
174
     0
 93
        1
 44
0.0
173
     0
291
     0
 45
0.0
1001
ACAD
1000
AcDbSavedByObjectVersion
1070
     0
  0
VISUALSTYLE
  5
531
102
{ACAD_REACTORS
330
2A
102
}
102
{ACAD_XDICTIONARY
360
62D
102
}
330
2A
100
AcDbVisualStyle
  2
X-Ray
 70
    25
 71
     2
 72
     2
 73
     1
 90
        1
 40
0.5
 41
30.0
 62
     5
 63
     7
 74
     1
 91
        0
 64
     7
 65
   257
 75
     1
175
     1
 42
1.0
 92
        8
 66
     7
 43
1.0
 76
     1
 77
     6
 78
     2
 67
     7
 79
     3
170
     0
171
     0
290
     0
174
     0
 93
       13
 44
0.0
173
     0
291
     0
 45
0.0
1001
ACAD
1000
AcDbSavedByObjectVersion
1070
     0
  0
XRECORD
  5
5F7
102
{ACAD_REACTORS
330
5F6
102
}
330
5F6
100
AcDbXrecord
280
     1
340
29
  0
XRECORD
  5
5F8
102
{ACAD_REACTORS
330
5F6
102
}
330
5F6
100
AcDbXrecord
280
     1
340
7
  0
DICTIONARYVAR
  5
516
102
{ACAD_REACTORS
330
515
102
}
330
515
100
DictionaryVariables
280
     0
  1
1:1
  0
DICTIONARYVAR
  5
544
102
{ACAD_REACTORS
330
515
102
}
330
515
100
DictionaryVariables
280
     0
  1
Standard
  0
DICTIONARYVAR
  5
5A6
102
{ACAD_REACTORS
330
515
102
}
330
515
100
DictionaryVariables
280
     0
  1
Standard
  0
DICTIONARYVAR
  5
5F4
102
{ACAD_REACTORS
330
515
102
}
330
515
100
DictionaryVariables
280
     0
  1
0
  0
DICTIONARYVAR
  5
5F5
102
{ACAD_REACTORS
330
515
102
}
330
515
100
DictionaryVariables
280
     0
  1
1
  0
DICTIONARYVAR
  5
5FC
102
{ACAD_REACTORS
330
515
102
}
330
515
100
DictionaryVariables
280
     0
  1
1
  0
DICTIONARYVAR
  5
519
102
{ACAD_REACTORS
330
515
102
}
330
515
100
DictionaryVariables
280
     0
  1
0
  0
DICTIONARY
  5
601
330
50
100
AcDbDictionary
280
     1
281
     1
  3
ACAD_XREC_ROUNDTRIP
360
602
  0
DICTIONARY
  5
5FD
330
10
100
AcDbDictionary
280
     1
281
     1
  3
ACAD_XREC_ROUNDTRIP
360
5FE
  0
DICTIONARY
  5
5FF
330
6
100
AcDbDictionary
280
     1
281
     1
  3
ACAD_XREC_ROUNDTRIP
360
600
  0
DICTIONARY
  5
633
330
542
100
AcDbDictionary
280
     1
281
     1
  3
ACAD_XREC_ROUNDTRIP
360
634
  0
DICTIONARY
  5
60B
330
520
100
AcDbDictionary
280
     1
281
     1
  3
ACAD_XREC_ROUNDTRIP
360
60C
  0
DICTIONARY
  5
611
330
523
100
AcDbDictionary
280
     1
281
     1
  3
ACAD_XREC_ROUNDTRIP
360
612
  0
DICTIONARY
  5
619
330
527
100
AcDbDictionary
280
     1
281
     1
  3
ACAD_XREC_ROUNDTRIP
360
61A
  0
DICTIONARY
  5
621
330
52B
100
AcDbDictionary
280
     1
281
     1
  3
ACAD_XREC_ROUNDTRIP
360
622
  0
DICTIONARY
  5
615
330
525
100
AcDbDictionary
280
     1
281
     1
  3
ACAD_XREC_ROUNDTRIP
360
616
  0
DICTIONARY
  5
617
330
526
100
AcDbDictionary
280
     1
281
     1
  3
ACAD_XREC_ROUNDTRIP
360
618
  0
DICTIONARY
  5
627
330
52E
100
AcDbDictionary
280
     1
281
     1
  3
ACAD_XREC_ROUNDTRIP
360
628
  0
DICTIONARY
  5
61F
330
52A
100
AcDbDictionary
280
     1
281
     1
  3
ACAD_XREC_ROUNDTRIP
360
620
  0
DICTIONARY
  5
603
330
51C
100
AcDbDictionary
280
     1
281
     1
  3
ACAD_XREC_ROUNDTRIP
360
604
  0
DICTIONARY
  5
605
330
51D
100
AcDbDictionary
280
     1
281
     1
  3
ACAD_XREC_ROUNDTRIP
360
606
  0
DICTIONARY
  5
607
330
51E
100
AcDbDictionary
280
     1
281
     1
  3
ACAD_XREC_ROUNDTRIP
360
608
  0
DICTIONARY
  5
609
330
51F
100
AcDbDictionary
280
     1
281
     1
  3
ACAD_XREC_ROUNDTRIP
360
60A
  0
DICTIONARY
  5
60F
330
522
100
AcDbDictionary
280
     1
281
     1
  3
ACAD_XREC_ROUNDTRIP
360
610
  0
DICTIONARY
  5
623
330
52C
100
AcDbDictionary
280
     1
281
     1
  3
ACAD_XREC_ROUNDTRIP
360
624
  0
DICTIONARY
  5
61D
330
529
100
AcDbDictionary
280
     1
281
     1
  3
ACAD_XREC_ROUNDTRIP
360
61E
  0
DICTIONARY
  5
625
330
52D
100
AcDbDictionary
280
     1
281
     1
  3
ACAD_XREC_ROUNDTRIP
360
626
  0
DICTIONARY
  5
613
330
524
100
AcDbDictionary
280
     1
281
     1
  3
ACAD_XREC_ROUNDTRIP
360
614
  0
DICTIONARY
  5
631
330
533
100
AcDbDictionary
280
     1
281
     1
  3
ACAD_XREC_ROUNDTRIP
360
632
  0
DICTIONARY
  5
62F
330
532
100
AcDbDictionary
280
     1
281
     1
  3
ACAD_XREC_ROUNDTRIP
360
630
  0
DICTIONARY
  5
629
330
52F
100
AcDbDictionary
280
     1
281
     1
  3
ACAD_XREC_ROUNDTRIP
360
62A
  0
DICTIONARY
  5
62B
330
530
100
AcDbDictionary
280
     1
281
     1
  3
ACAD_XREC_ROUNDTRIP
360
62C
  0
DICTIONARY
  5
61B
330
528
100
AcDbDictionary
280
     1
281
     1
  3
ACAD_XREC_ROUNDTRIP
360
61C
  0
DICTIONARY
  5
60D
330
521
100
AcDbDictionary
280
     1
281
     1
  3
ACAD_XREC_ROUNDTRIP
360
60E
  0
DICTIONARY
  5
62D
330
531
100
AcDbDictionary
280
     1
281
     1
  3
ACAD_XREC_ROUNDTRIP
360
62E
  0
XRECORD
  5
602
102
{ACAD_REACTORS
330
601
102
}
330
601
100
AcDbXrecord
280
     1
102
MATERIAL
148
0.0
149
0.0
149
0.0
 93
        0
 94
      127
282
     0
 72
     0
 77
     0
171
     0
175
     0
179
     0
273
     0
  0
XRECORD
  5
5FE
102
{ACAD_REACTORS
330
5FD
102
}
330
5FD
100
AcDbXrecord
280
     1
102
MATERIAL
148
0.0
149
0.0
149
0.0
 93
        0
 94
      127
282
     0
 72
     0
 77
     0
171
     0
175
     0
179
     0
273
     0
  0
XRECORD
  5
600
102
{ACAD_REACTORS
330
5FF
102
}
330
5FF
100
AcDbXrecord
280
     1
102
MATERIAL
148
0.0
149
0.0
149
0.0
 93
        0
 94
      127
282
     0
 72
     0
 77
     0
171
     0
175
     0
179
     0
273
     0
  0
XRECORD
  5
634
102
{ACAD_REACTORS
330
633
102
}
330
633
100
AcDbXrecord
280
     1
102
ACAD_ROUNDTRIP_2010_MLEADER_STYLE
  0
XRECORD
  5
60C
102
{ACAD_REACTORS
330
60B
102
}
330
60B
100
AcDbXrecord
280
     1
102
RTVSPropertyOp0
 70
     1
102
RTVSPropertyOp1
 70
     1
102
RTVSPropertyOp2
 70
     1
102
RTVSPropertyOp3
 70
     1
102
RTVSPropertyOp4
 70
     1
102
RTVSPropertyOp5
 70
     1
102
RTVSPropertyOp6
 70
     1
102
RTVSPropertyOp7
 70
     1
102
RTVSPropertyOp8
 70
     1
102
RTVSPropertyOp9
 70
     1
102
RTVSPropertyOp10
 70
     1
102
RTVSPropertyOp11
 70
     1
102
RTVSPropertyOp12
 70
     1
102
RTVSPropertyOp13
 70
     1
102
RTVSPropertyOp14
 70
     1
102
RTVSPropertyOp15
 70
     1
102
RTVSPropertyOp16
 70
     1
102
RTVSPropertyOp17
 70
     1
102
RTVSPropertyOp18
 70
     1
102
RTVSPropertyOp19
 70
     1
102
RTVSPropertyOp20
 70
     1
102
RTVSPropertyOp21
 70
     1
102
RTVSPropertyOp22
 70
     1
102
RTVSPropertyOp23
 70
     1
102
RTVSPropertyOp24
 70
     1
102
RTVSPropertyOp25
 70
     1
102
RTVSPropertyOp26
 70
     1
102
RTVSPropertyOp27
 70
     1
102
RTVSPropertyOp28
 70
     1
102
RTVSPropertyOp29
 70
     1
102
RTVSPropertyOp30
 70
     1
102
RTVSPropertyOp31
 70
     1
102
RTVSPropertyOp32
 70
     1
102
RTVSPropertyOp33
 70
     1
102
RTVSPropertyOp34
 70
     1
102
RTVSPropertyOp35
 70
     1
102
RTVSPropertyOp36
 70
     1
102
RTVSPropertyOp37
 70
     1
102
RTVSPropertyOp38
 70
     1
102
RTVSPropertyOp39
 70
     1
102
RTVSPropertyOp40
 70
     1
102
RTVSPropertyOp41
 70
     1
102
RTVSPropertyOp42
 70
     1
102
RTVSPropertyOp43
 70
     1
102
RTVSPropertyOp44
 70
     1
102
RTVSPropertyOp45
 70
     1
102
RTVSPropertyOp46
 70
     1
102
RTVSPropertyOp47
 70
     1
102
RTVSPropertyOp48
 70
     1
102
RTVSPropertyOp49
 70
     1
102
RTVSPropertyOp50
 70
     1
102
RTVSPropertyOp51
 70
     0
102
RTVSPropertyOp52
 70
     0
102
RTVSPropertyOp53
 70
     1
102
RTVSPropertyOp54
 70
     1
102
RTVSPropertyOp55
 70
     1
102
RTVSPropertyOp56
 70
     1
102
RTVSPropertyOp57
 70
     1
102
RTVSPost2010Prop28
280
     1
102
RTVSPost2010PropOp28
 70
     1
102
RTVSPost2010Prop29
280
     1
102
RTVSPost2010PropOp29
 70
     1
102
RTVSPost2010Prop30
280
     0
102
RTVSPost2010PropOp30
 70
     1
102
RTVSPost2010Prop31
280
     0
102
RTVSPost2010PropOp31
 70
     1
102
RTVSPost2010Prop32
280
     0
102
RTVSPost2010PropOp32
 70
     1
102
RTVSPost2010Prop33
280
     0
102
RTVSPost2010PropOp33
 70
     1
102
RTVSPost2010Prop34
280
     0
102
RTVSPost2010PropOp34
 70
     1
102
RTVSPost2010Prop35
280
     0
102
RTVSPost2010PropOp35
 70
     1
102
RTVSPost2010Prop36
280
     0
102
RTVSPost2010PropOp36
 70
     1
102
RTVSPost2010Prop37
 90
       50
102
RTVSPost2010PropOp37
 70
     1
102
RTVSPost2010Prop38
140
0.0
102
RTVSPost2010PropOp38
 70
     1
102
RTVSPost2010Prop39
140
1.0
102
RTVSPost2010PropOp39
 70
     1
102
RTVSPost2010Prop40
 90
        0
102
RTVSPost2010PropOp40
 70
     1
102
RTVSPost2010Prop41ColorIndex
 90
       18
102
RTVSPost2010Prop41ColorRGB
 90
        0
102
RTVSPost2010PropOp41
 70
     1
102
RTVSPost2010Prop42
 90
       50
102
RTVSPost2010PropOp42
 70
     1
102
RTVSPost2010Prop43
 90
        3
102
RTVSPost2010PropOp43
 70
     1
102
RTVSPost2010Prop44ColorIndex
 90
        5
102
RTVSPost2010Prop44ColorRGB
 90
      255
102
RTVSPost2010PropOp44
 70
     1
102
RTVSPost2010Prop45
280
     0
102
RTVSPost2010PropOp45
 70
     1
102
RTVSPost2010Prop46
 90
       50
102
RTVSPost2010PropOp46
 70
     1
102
RTVSPost2010Prop47
 90
       50
102
RTVSPost2010PropOp47
 70
     1
102
RTVSPost2010Prop48
 90
       50
102
RTVSPost2010PropOp48
 70
     1
102
RTVSPost2010Prop49
280
     0
102
RTVSPost2010PropOp49
 70
     1
102
RTVSPost2010Prop50
 90
       50
102
RTVSPost2010PropOp50
 70
     1
102
RTVSPost2010Prop51ColorIndex
 90
      256
102
RTVSPost2010Prop51ColorRGB
 90
-16777216
102
RTVSPost2010PropOp51
 70
     0
102
RTVSPost2010Prop52
140
1.0
102
RTVSPost2010PropOp52
 70
     0
102
RTVSPost2010Prop53
 90
        2
102
RTVSPost2010PropOp53
 70
     1
102
RTVSPost2010Prop54
  1
strokes_ogs.tif
102
RTVSPost2010PropOp54
 70
     1
102
RTVSPost2010Prop55
280
     0
102
RTVSPost2010PropOp55
 70
     1
102
RTVSPost2010Prop56
140
1.0
102
RTVSPost2010PropOp56
 70
     1
102
RTVSPost2010Prop57
140
1.0
102
RTVSPost2010PropOp57
 70
     1
  0
XRECORD
  5
612
102
{ACAD_REACTORS
330
611
102
}
330
611
100
AcDbXrecord
280
     1
102
RTVSPropertyOp0
 70
     1
102
RTVSPropertyOp1
 70
     1
102
RTVSPropertyOp2
 70
     1
102
RTVSPropertyOp3
 70
     1
102
RTVSPropertyOp4
 70
     1
102
RTVSPropertyOp5
 70
     1
102
RTVSPropertyOp6
 70
     1
102
RTVSPropertyOp7
 70
     1
102
RTVSPropertyOp8
 70
     1
102
RTVSPropertyOp9
 70
     1
102
RTVSPropertyOp10
 70
     1
102
RTVSPropertyOp11
 70
     1
102
RTVSPropertyOp12
 70
     1
102
RTVSPropertyOp13
 70
     1
102
RTVSPropertyOp14
 70
     1
102
RTVSPropertyOp15
 70
     1
102
RTVSPropertyOp16
 70
     1
102
RTVSPropertyOp17
 70
     1
102
RTVSPropertyOp18
 70
     1
102
RTVSPropertyOp19
 70
     1
102
RTVSPropertyOp20
 70
     1
102
RTVSPropertyOp21
 70
     1
102
RTVSPropertyOp22
 70
     1
102
RTVSPropertyOp23
 70
     1
102
RTVSPropertyOp24
 70
     1
102
RTVSPropertyOp25
 70
     1
102
RTVSPropertyOp26
 70
     1
102
RTVSPropertyOp27
 70
     1
102
RTVSPropertyOp28
 70
     1
102
RTVSPropertyOp29
 70
     1
102
RTVSPropertyOp30
 70
     1
102
RTVSPropertyOp31
 70
     1
102
RTVSPropertyOp32
 70
     1
102
RTVSPropertyOp33
 70
     1
102
RTVSPropertyOp34
 70
     1
102
RTVSPropertyOp35
 70
     1
102
RTVSPropertyOp36
 70
     1
102
RTVSPropertyOp37
 70
     1
102
RTVSPropertyOp38
 70
     1
102
RTVSPropertyOp39
 70
     1
102
RTVSPropertyOp40
 70
     1
102
RTVSPropertyOp41
 70
     1
102
RTVSPropertyOp42
 70
     1
102
RTVSPropertyOp43
 70
     1
102
RTVSPropertyOp44
 70
     1
102
RTVSPropertyOp45
 70
     1
102
RTVSPropertyOp46
 70
     1
102
RTVSPropertyOp47
 70
     1
102
RTVSPropertyOp48
 70
     1
102
RTVSPropertyOp49
 70
     1
102
RTVSPropertyOp50
 70
     1
102
RTVSPropertyOp51
 70
     0
102
RTVSPropertyOp52
 70
     0
102
RTVSPropertyOp53
 70
     1
102
RTVSPropertyOp54
 70
     1
102
RTVSPropertyOp55
 70
     1
102
RTVSPropertyOp56
 70
     1
102
RTVSPropertyOp57
 70
     1
102
RTVSPost2010Prop28
280
     0
102
RTVSPost2010PropOp28
 70
     1
102
RTVSPost2010Prop29
280
     1
102
RTVSPost2010PropOp29
 70
     1
102
RTVSPost2010Prop30
280
     1
102
RTVSPost2010PropOp30
 70
     1
102
RTVSPost2010Prop31
280
     0
102
RTVSPost2010PropOp31
 70
     1
102
RTVSPost2010Prop32
280
     0
102
RTVSPost2010PropOp32
 70
     1
102
RTVSPost2010Prop33
280
     0
102
RTVSPost2010PropOp33
 70
     1
102
RTVSPost2010Prop34
280
     0
102
RTVSPost2010PropOp34
 70
     1
102
RTVSPost2010Prop35
280
     0
102
RTVSPost2010PropOp35
 70
     1
102
RTVSPost2010Prop36
280
     0
102
RTVSPost2010PropOp36
 70
     1
102
RTVSPost2010Prop37
 90
       50
102
RTVSPost2010PropOp37
 70
     1
102
RTVSPost2010Prop38
140
0.0
102
RTVSPost2010PropOp38
 70
     1
102
RTVSPost2010Prop39
140
1.0
102
RTVSPost2010PropOp39
 70
     1
102
RTVSPost2010Prop40
 90
        0
102
RTVSPost2010PropOp40
 70
     1
102
RTVSPost2010Prop41ColorIndex
 90
       18
102
RTVSPost2010Prop41ColorRGB
 90
        0
102
RTVSPost2010PropOp41
 70
     1
102
RTVSPost2010Prop42
 90
       50
102
RTVSPost2010PropOp42
 70
     1
102
RTVSPost2010Prop43
 90
        3
102
RTVSPost2010PropOp43
 70
     1
102
RTVSPost2010Prop44ColorIndex
 90
        5
102
RTVSPost2010Prop44ColorRGB
 90
      255
102
RTVSPost2010PropOp44
 70
     1
102
RTVSPost2010Prop45
280
     0
102
RTVSPost2010PropOp45
 70
     1
102
RTVSPost2010Prop46
 90
       50
102
RTVSPost2010PropOp46
 70
     1
102
RTVSPost2010Prop47
 90
       50
102
RTVSPost2010PropOp47
 70
     1
102
RTVSPost2010Prop48
 90
       50
102
RTVSPost2010PropOp48
 70
     1
102
RTVSPost2010Prop49
280
     0
102
RTVSPost2010PropOp49
 70
     1
102
RTVSPost2010Prop50
 90
       50
102
RTVSPost2010PropOp50
 70
     1
102
RTVSPost2010Prop51ColorIndex
 90
      256
102
RTVSPost2010Prop51ColorRGB
 90
-16777216
102
RTVSPost2010PropOp51
 70
     0
102
RTVSPost2010Prop52
140
1.0
102
RTVSPost2010PropOp52
 70
     0
102
RTVSPost2010Prop53
 90
        2
102
RTVSPost2010PropOp53
 70
     1
102
RTVSPost2010Prop54
  1
strokes_ogs.tif
102
RTVSPost2010PropOp54
 70
     1
102
RTVSPost2010Prop55
280
     0
102
RTVSPost2010PropOp55
 70
     1
102
RTVSPost2010Prop56
140
1.0
102
RTVSPost2010PropOp56
 70
     1
102
RTVSPost2010Prop57
140
1.0
102
RTVSPost2010PropOp57
 70
     1
  0
XRECORD
  5
61A
102
{ACAD_REACTORS
330
619
102
}
330
619
100
AcDbXrecord
280
     1
102
RTVSPropertyOp0
 70
     1
102
RTVSPropertyOp1
 70
     1
102
RTVSPropertyOp2
 70
     1
102
RTVSPropertyOp3
 70
     1
102
RTVSPropertyOp4
 70
     1
102
RTVSPropertyOp5
 70
     1
102
RTVSPropertyOp6
 70
     1
102
RTVSPropertyOp7
 70
     1
102
RTVSPropertyOp8
 70
     1
102
RTVSPropertyOp9
 70
     1
102
RTVSPropertyOp10
 70
     1
102
RTVSPropertyOp11
 70
     1
102
RTVSPropertyOp12
 70
     1
102
RTVSPropertyOp13
 70
     1
102
RTVSPropertyOp14
 70
     1
102
RTVSPropertyOp15
 70
     1
102
RTVSPropertyOp16
 70
     1
102
RTVSPropertyOp17
 70
     1
102
RTVSPropertyOp18
 70
     1
102
RTVSPropertyOp19
 70
     1
102
RTVSPropertyOp20
 70
     1
102
RTVSPropertyOp21
 70
     1
102
RTVSPropertyOp22
 70
     1
102
RTVSPropertyOp23
 70
     1
102
RTVSPropertyOp24
 70
     1
102
RTVSPropertyOp25
 70
     1
102
RTVSPropertyOp26
 70
     1
102
RTVSPropertyOp27
 70
     1
102
RTVSPropertyOp28
 70
     1
102
RTVSPropertyOp29
 70
     1
102
RTVSPropertyOp30
 70
     1
102
RTVSPropertyOp31
 70
     1
102
RTVSPropertyOp32
 70
     1
102
RTVSPropertyOp33
 70
     1
102
RTVSPropertyOp34
 70
     1
102
RTVSPropertyOp35
 70
     1
102
RTVSPropertyOp36
 70
     1
102
RTVSPropertyOp37
 70
     1
102
RTVSPropertyOp38
 70
     1
102
RTVSPropertyOp39
 70
     1
102
RTVSPropertyOp40
 70
     1
102
RTVSPropertyOp41
 70
     1
102
RTVSPropertyOp42
 70
     1
102
RTVSPropertyOp43
 70
     1
102
RTVSPropertyOp44
 70
     1
102
RTVSPropertyOp45
 70
     1
102
RTVSPropertyOp46
 70
     1
102
RTVSPropertyOp47
 70
     1
102
RTVSPropertyOp48
 70
     1
102
RTVSPropertyOp49
 70
     1
102
RTVSPropertyOp50
 70
     1
102
RTVSPropertyOp51
 70
     0
102
RTVSPropertyOp52
 70
     0
102
RTVSPropertyOp53
 70
     1
102
RTVSPropertyOp54
 70
     1
102
RTVSPropertyOp55
 70
     1
102
RTVSPropertyOp56
 70
     1
102
RTVSPropertyOp57
 70
     1
102
RTVSPost2010Prop28
280
     0
102
RTVSPost2010PropOp28
 70
     1
102
RTVSPost2010Prop29
280
     1
102
RTVSPost2010PropOp29
 70
     1
102
RTVSPost2010Prop30
280
     1
102
RTVSPost2010PropOp30
 70
     1
102
RTVSPost2010Prop31
280
     0
102
RTVSPost2010PropOp31
 70
     1
102
RTVSPost2010Prop32
280
     0
102
RTVSPost2010PropOp32
 70
     1
102
RTVSPost2010Prop33
280
     0
102
RTVSPost2010PropOp33
 70
     1
102
RTVSPost2010Prop34
280
     0
102
RTVSPost2010PropOp34
 70
     1
102
RTVSPost2010Prop35
280
     0
102
RTVSPost2010PropOp35
 70
     1
102
RTVSPost2010Prop36
280
     0
102
RTVSPost2010PropOp36
 70
     1
102
RTVSPost2010Prop37
 90
       50
102
RTVSPost2010PropOp37
 70
     1
102
RTVSPost2010Prop38
140
0.0
102
RTVSPost2010PropOp38
 70
     1
102
RTVSPost2010Prop39
140
1.0
102
RTVSPost2010PropOp39
 70
     1
102
RTVSPost2010Prop40
 90
        0
102
RTVSPost2010PropOp40
 70
     1
102
RTVSPost2010Prop41ColorIndex
 90
       18
102
RTVSPost2010Prop41ColorRGB
 90
        0
102
RTVSPost2010PropOp41
 70
     1
102
RTVSPost2010Prop42
 90
       50
102
RTVSPost2010PropOp42
 70
     1
102
RTVSPost2010Prop43
 90
        3
102
RTVSPost2010PropOp43
 70
     1
102
RTVSPost2010Prop44ColorIndex
 90
        5
102
RTVSPost2010Prop44ColorRGB
 90
      255
102
RTVSPost2010PropOp44
 70
     1
102
RTVSPost2010Prop45
280
     0
102
RTVSPost2010PropOp45
 70
     1
102
RTVSPost2010Prop46
 90
       50
102
RTVSPost2010PropOp46
 70
     1
102
RTVSPost2010Prop47
 90
       50
102
RTVSPost2010PropOp47
 70
     1
102
RTVSPost2010Prop48
 90
       50
102
RTVSPost2010PropOp48
 70
     1
102
RTVSPost2010Prop49
280
     0
102
RTVSPost2010PropOp49
 70
     1
102
RTVSPost2010Prop50
 90
       50
102
RTVSPost2010PropOp50
 70
     1
102
RTVSPost2010Prop51ColorIndex
 90
      256
102
RTVSPost2010Prop51ColorRGB
 90
-16777216
102
RTVSPost2010PropOp51
 70
     0
102
RTVSPost2010Prop52
140
1.0
102
RTVSPost2010PropOp52
 70
     0
102
RTVSPost2010Prop53
 90
        2
102
RTVSPost2010PropOp53
 70
     1
102
RTVSPost2010Prop54
  1
strokes_ogs.tif
102
RTVSPost2010PropOp54
 70
     1
102
RTVSPost2010Prop55
280
     0
102
RTVSPost2010PropOp55
 70
     1
102
RTVSPost2010Prop56
140
1.0
102
RTVSPost2010PropOp56
 70
     1
102
RTVSPost2010Prop57
140
1.0
102
RTVSPost2010PropOp57
 70
     1
  0
XRECORD
  5
622
102
{ACAD_REACTORS
330
621
102
}
330
621
100
AcDbXrecord
280
     1
102
RTVSPropertyOp0
 70
     1
102
RTVSPropertyOp1
 70
     1
102
RTVSPropertyOp2
 70
     1
102
RTVSPropertyOp3
 70
     1
102
RTVSPropertyOp4
 70
     1
102
RTVSPropertyOp5
 70
     1
102
RTVSPropertyOp6
 70
     1
102
RTVSPropertyOp7
 70
     1
102
RTVSPropertyOp8
 70
     1
102
RTVSPropertyOp9
 70
     1
102
RTVSPropertyOp10
 70
     1
102
RTVSPropertyOp11
 70
     1
102
RTVSPropertyOp12
 70
     1
102
RTVSPropertyOp13
 70
     1
102
RTVSPropertyOp14
 70
     1
102
RTVSPropertyOp15
 70
     1
102
RTVSPropertyOp16
 70
     1
102
RTVSPropertyOp17
 70
     1
102
RTVSPropertyOp18
 70
     1
102
RTVSPropertyOp19
 70
     1
102
RTVSPropertyOp20
 70
     1
102
RTVSPropertyOp21
 70
     1
102
RTVSPropertyOp22
 70
     1
102
RTVSPropertyOp23
 70
     1
102
RTVSPropertyOp24
 70
     1
102
RTVSPropertyOp25
 70
     1
102
RTVSPropertyOp26
 70
     1
102
RTVSPropertyOp27
 70
     1
102
RTVSPropertyOp28
 70
     1
102
RTVSPropertyOp29
 70
     1
102
RTVSPropertyOp30
 70
     1
102
RTVSPropertyOp31
 70
     1
102
RTVSPropertyOp32
 70
     1
102
RTVSPropertyOp33
 70
     1
102
RTVSPropertyOp34
 70
     1
102
RTVSPropertyOp35
 70
     1
102
RTVSPropertyOp36
 70
     1
102
RTVSPropertyOp37
 70
     1
102
RTVSPropertyOp38
 70
     1
102
RTVSPropertyOp39
 70
     1
102
RTVSPropertyOp40
 70
     1
102
RTVSPropertyOp41
 70
     1
102
RTVSPropertyOp42
 70
     1
102
RTVSPropertyOp43
 70
     1
102
RTVSPropertyOp44
 70
     1
102
RTVSPropertyOp45
 70
     1
102
RTVSPropertyOp46
 70
     1
102
RTVSPropertyOp47
 70
     1
102
RTVSPropertyOp48
 70
     1
102
RTVSPropertyOp49
 70
     1
102
RTVSPropertyOp50
 70
     1
102
RTVSPropertyOp51
 70
     0
102
RTVSPropertyOp52
 70
     0
102
RTVSPropertyOp53
 70
     1
102
RTVSPropertyOp54
 70
     1
102
RTVSPropertyOp55
 70
     1
102
RTVSPropertyOp56
 70
     1
102
RTVSPropertyOp57
 70
     1
102
RTVSPost2010Prop28
280
     0
102
RTVSPost2010PropOp28
 70
     1
102
RTVSPost2010Prop29
280
     1
102
RTVSPost2010PropOp29
 70
     1
102
RTVSPost2010Prop30
280
     1
102
RTVSPost2010PropOp30
 70
     1
102
RTVSPost2010Prop31
280
     0
102
RTVSPost2010PropOp31
 70
     1
102
RTVSPost2010Prop32
280
     0
102
RTVSPost2010PropOp32
 70
     1
102
RTVSPost2010Prop33
280
     0
102
RTVSPost2010PropOp33
 70
     1
102
RTVSPost2010Prop34
280
     0
102
RTVSPost2010PropOp34
 70
     1
102
RTVSPost2010Prop35
280
     0
102
RTVSPost2010PropOp35
 70
     1
102
RTVSPost2010Prop36
280
     0
102
RTVSPost2010PropOp36
 70
     1
102
RTVSPost2010Prop37
 90
       50
102
RTVSPost2010PropOp37
 70
     1
102
RTVSPost2010Prop38
140
0.0
102
RTVSPost2010PropOp38
 70
     1
102
RTVSPost2010Prop39
140
1.0
102
RTVSPost2010PropOp39
 70
     1
102
RTVSPost2010Prop40
 90
        0
102
RTVSPost2010PropOp40
 70
     1
102
RTVSPost2010Prop41ColorIndex
 90
       18
102
RTVSPost2010Prop41ColorRGB
 90
        0
102
RTVSPost2010PropOp41
 70
     1
102
RTVSPost2010Prop42
 90
       50
102
RTVSPost2010PropOp42
 70
     1
102
RTVSPost2010Prop43
 90
        3
102
RTVSPost2010PropOp43
 70
     1
102
RTVSPost2010Prop44ColorIndex
 90
        5
102
RTVSPost2010Prop44ColorRGB
 90
      255
102
RTVSPost2010PropOp44
 70
     1
102
RTVSPost2010Prop45
280
     0
102
RTVSPost2010PropOp45
 70
     1
102
RTVSPost2010Prop46
 90
       50
102
RTVSPost2010PropOp46
 70
     1
102
RTVSPost2010Prop47
 90
       50
102
RTVSPost2010PropOp47
 70
     1
102
RTVSPost2010Prop48
 90
       50
102
RTVSPost2010PropOp48
 70
     1
102
RTVSPost2010Prop49
280
     0
102
RTVSPost2010PropOp49
 70
     1
102
RTVSPost2010Prop50
 90
       50
102
RTVSPost2010PropOp50
 70
     1
102
RTVSPost2010Prop51ColorIndex
 90
      256
102
RTVSPost2010Prop51ColorRGB
 90
-16777216
102
RTVSPost2010PropOp51
 70
     0
102
RTVSPost2010Prop52
140
1.0
102
RTVSPost2010PropOp52
 70
     0
102
RTVSPost2010Prop53
 90
        2
102
RTVSPost2010PropOp53
 70
     1
102
RTVSPost2010Prop54
  1
strokes_ogs.tif
102
RTVSPost2010PropOp54
 70
     1
102
RTVSPost2010Prop55
280
     0
102
RTVSPost2010PropOp55
 70
     1
102
RTVSPost2010Prop56
140
1.0
102
RTVSPost2010PropOp56
 70
     1
102
RTVSPost2010Prop57
140
1.0
102
RTVSPost2010PropOp57
 70
     1
  0
XRECORD
  5
616
102
{ACAD_REACTORS
330
615
102
}
330
615
100
AcDbXrecord
280
     1
102
RTVSPropertyOp0
 70
     1
102
RTVSPropertyOp1
 70
     1
102
RTVSPropertyOp2
 70
     1
102
RTVSPropertyOp3
 70
     1
102
RTVSPropertyOp4
 70
     1
102
RTVSPropertyOp5
 70
     1
102
RTVSPropertyOp6
 70
     1
102
RTVSPropertyOp7
 70
     1
102
RTVSPropertyOp8
 70
     1
102
RTVSPropertyOp9
 70
     1
102
RTVSPropertyOp10
 70
     1
102
RTVSPropertyOp11
 70
     1
102
RTVSPropertyOp12
 70
     1
102
RTVSPropertyOp13
 70
     1
102
RTVSPropertyOp14
 70
     1
102
RTVSPropertyOp15
 70
     1
102
RTVSPropertyOp16
 70
     1
102
RTVSPropertyOp17
 70
     1
102
RTVSPropertyOp18
 70
     1
102
RTVSPropertyOp19
 70
     1
102
RTVSPropertyOp20
 70
     1
102
RTVSPropertyOp21
 70
     1
102
RTVSPropertyOp22
 70
     1
102
RTVSPropertyOp23
 70
     1
102
RTVSPropertyOp24
 70
     1
102
RTVSPropertyOp25
 70
     1
102
RTVSPropertyOp26
 70
     1
102
RTVSPropertyOp27
 70
     1
102
RTVSPropertyOp28
 70
     1
102
RTVSPropertyOp29
 70
     1
102
RTVSPropertyOp30
 70
     1
102
RTVSPropertyOp31
 70
     1
102
RTVSPropertyOp32
 70
     1
102
RTVSPropertyOp33
 70
     1
102
RTVSPropertyOp34
 70
     1
102
RTVSPropertyOp35
 70
     1
102
RTVSPropertyOp36
 70
     1
102
RTVSPropertyOp37
 70
     1
102
RTVSPropertyOp38
 70
     1
102
RTVSPropertyOp39
 70
     1
102
RTVSPropertyOp40
 70
     1
102
RTVSPropertyOp41
 70
     1
102
RTVSPropertyOp42
 70
     1
102
RTVSPropertyOp43
 70
     1
102
RTVSPropertyOp44
 70
     1
102
RTVSPropertyOp45
 70
     1
102
RTVSPropertyOp46
 70
     1
102
RTVSPropertyOp47
 70
     1
102
RTVSPropertyOp48
 70
     1
102
RTVSPropertyOp49
 70
     1
102
RTVSPropertyOp50
 70
     1
102
RTVSPropertyOp51
 70
     0
102
RTVSPropertyOp52
 70
     0
102
RTVSPropertyOp53
 70
     1
102
RTVSPropertyOp54
 70
     1
102
RTVSPropertyOp55
 70
     1
102
RTVSPropertyOp56
 70
     1
102
RTVSPropertyOp57
 70
     1
102
RTVSPost2010Prop28
280
     0
102
RTVSPost2010PropOp28
 70
     1
102
RTVSPost2010Prop29
280
     1
102
RTVSPost2010PropOp29
 70
     1
102
RTVSPost2010Prop30
280
     1
102
RTVSPost2010PropOp30
 70
     1
102
RTVSPost2010Prop31
280
     0
102
RTVSPost2010PropOp31
 70
     1
102
RTVSPost2010Prop32
280
     0
102
RTVSPost2010PropOp32
 70
     1
102
RTVSPost2010Prop33
280
     0
102
RTVSPost2010PropOp33
 70
     1
102
RTVSPost2010Prop34
280
     0
102
RTVSPost2010PropOp34
 70
     1
102
RTVSPost2010Prop35
280
     0
102
RTVSPost2010PropOp35
 70
     1
102
RTVSPost2010Prop36
280
     0
102
RTVSPost2010PropOp36
 70
     1
102
RTVSPost2010Prop37
 90
       50
102
RTVSPost2010PropOp37
 70
     1
102
RTVSPost2010Prop38
140
0.0
102
RTVSPost2010PropOp38
 70
     1
102
RTVSPost2010Prop39
140
1.0
102
RTVSPost2010PropOp39
 70
     1
102
RTVSPost2010Prop40
 90
        0
102
RTVSPost2010PropOp40
 70
     1
102
RTVSPost2010Prop41ColorIndex
 90
       18
102
RTVSPost2010Prop41ColorRGB
 90
        0
102
RTVSPost2010PropOp41
 70
     1
102
RTVSPost2010Prop42
 90
       50
102
RTVSPost2010PropOp42
 70
     1
102
RTVSPost2010Prop43
 90
        3
102
RTVSPost2010PropOp43
 70
     1
102
RTVSPost2010Prop44ColorIndex
 90
        5
102
RTVSPost2010Prop44ColorRGB
 90
      255
102
RTVSPost2010PropOp44
 70
     1
102
RTVSPost2010Prop45
280
     0
102
RTVSPost2010PropOp45
 70
     1
102
RTVSPost2010Prop46
 90
       50
102
RTVSPost2010PropOp46
 70
     1
102
RTVSPost2010Prop47
 90
       50
102
RTVSPost2010PropOp47
 70
     1
102
RTVSPost2010Prop48
 90
       50
102
RTVSPost2010PropOp48
 70
     1
102
RTVSPost2010Prop49
280
     0
102
RTVSPost2010PropOp49
 70
     1
102
RTVSPost2010Prop50
 90
       50
102
RTVSPost2010PropOp50
 70
     1
102
RTVSPost2010Prop51ColorIndex
 90
      256
102
RTVSPost2010Prop51ColorRGB
 90
-16777216
102
RTVSPost2010PropOp51
 70
     0
102
RTVSPost2010Prop52
140
1.0
102
RTVSPost2010PropOp52
 70
     0
102
RTVSPost2010Prop53
 90
        2
102
RTVSPost2010PropOp53
 70
     1
102
RTVSPost2010Prop54
  1
strokes_ogs.tif
102
RTVSPost2010PropOp54
 70
     1
102
RTVSPost2010Prop55
280
     0
102
RTVSPost2010PropOp55
 70
     1
102
RTVSPost2010Prop56
140
1.0
102
RTVSPost2010PropOp56
 70
     1
102
RTVSPost2010Prop57
140
1.0
102
RTVSPost2010PropOp57
 70
     1
  0
XRECORD
  5
618
102
{ACAD_REACTORS
330
617
102
}
330
617
100
AcDbXrecord
280
     1
102
RTVSPropertyOp0
 70
     1
102
RTVSPropertyOp1
 70
     1
102
RTVSPropertyOp2
 70
     1
102
RTVSPropertyOp3
 70
     1
102
RTVSPropertyOp4
 70
     1
102
RTVSPropertyOp5
 70
     1
102
RTVSPropertyOp6
 70
     1
102
RTVSPropertyOp7
 70
     1
102
RTVSPropertyOp8
 70
     1
102
RTVSPropertyOp9
 70
     1
102
RTVSPropertyOp10
 70
     1
102
RTVSPropertyOp11
 70
     1
102
RTVSPropertyOp12
 70
     1
102
RTVSPropertyOp13
 70
     1
102
RTVSPropertyOp14
 70
     1
102
RTVSPropertyOp15
 70
     1
102
RTVSPropertyOp16
 70
     1
102
RTVSPropertyOp17
 70
     1
102
RTVSPropertyOp18
 70
     1
102
RTVSPropertyOp19
 70
     1
102
RTVSPropertyOp20
 70
     1
102
RTVSPropertyOp21
 70
     1
102
RTVSPropertyOp22
 70
     1
102
RTVSPropertyOp23
 70
     1
102
RTVSPropertyOp24
 70
     1
102
RTVSPropertyOp25
 70
     1
102
RTVSPropertyOp26
 70
     1
102
RTVSPropertyOp27
 70
     1
102
RTVSPropertyOp28
 70
     1
102
RTVSPropertyOp29
 70
     1
102
RTVSPropertyOp30
 70
     1
102
RTVSPropertyOp31
 70
     1
102
RTVSPropertyOp32
 70
     1
102
RTVSPropertyOp33
 70
     1
102
RTVSPropertyOp34
 70
     1
102
RTVSPropertyOp35
 70
     1
102
RTVSPropertyOp36
 70
     1
102
RTVSPropertyOp37
 70
     1
102
RTVSPropertyOp38
 70
     1
102
RTVSPropertyOp39
 70
     1
102
RTVSPropertyOp40
 70
     1
102
RTVSPropertyOp41
 70
     1
102
RTVSPropertyOp42
 70
     1
102
RTVSPropertyOp43
 70
     1
102
RTVSPropertyOp44
 70
     1
102
RTVSPropertyOp45
 70
     1
102
RTVSPropertyOp46
 70
     1
102
RTVSPropertyOp47
 70
     1
102
RTVSPropertyOp48
 70
     1
102
RTVSPropertyOp49
 70
     1
102
RTVSPropertyOp50
 70
     1
102
RTVSPropertyOp51
 70
     0
102
RTVSPropertyOp52
 70
     0
102
RTVSPropertyOp53
 70
     1
102
RTVSPropertyOp54
 70
     1
102
RTVSPropertyOp55
 70
     1
102
RTVSPropertyOp56
 70
     1
102
RTVSPropertyOp57
 70
     1
102
RTVSPost2010Prop28
280
     0
102
RTVSPost2010PropOp28
 70
     1
102
RTVSPost2010Prop29
280
     1
102
RTVSPost2010PropOp29
 70
     1
102
RTVSPost2010Prop30
280
     1
102
RTVSPost2010PropOp30
 70
     1
102
RTVSPost2010Prop31
280
     0
102
RTVSPost2010PropOp31
 70
     1
102
RTVSPost2010Prop32
280
     0
102
RTVSPost2010PropOp32
 70
     1
102
RTVSPost2010Prop33
280
     0
102
RTVSPost2010PropOp33
 70
     1
102
RTVSPost2010Prop34
280
     0
102
RTVSPost2010PropOp34
 70
     1
102
RTVSPost2010Prop35
280
     0
102
RTVSPost2010PropOp35
 70
     1
102
RTVSPost2010Prop36
280
     0
102
RTVSPost2010PropOp36
 70
     1
102
RTVSPost2010Prop37
 90
       50
102
RTVSPost2010PropOp37
 70
     1
102
RTVSPost2010Prop38
140
0.0
102
RTVSPost2010PropOp38
 70
     1
102
RTVSPost2010Prop39
140
1.0
102
RTVSPost2010PropOp39
 70
     1
102
RTVSPost2010Prop40
 90
        0
102
RTVSPost2010PropOp40
 70
     1
102
RTVSPost2010Prop41ColorIndex
 90
       18
102
RTVSPost2010Prop41ColorRGB
 90
        0
102
RTVSPost2010PropOp41
 70
     1
102
RTVSPost2010Prop42
 90
       50
102
RTVSPost2010PropOp42
 70
     1
102
RTVSPost2010Prop43
 90
        3
102
RTVSPost2010PropOp43
 70
     1
102
RTVSPost2010Prop44ColorIndex
 90
        5
102
RTVSPost2010Prop44ColorRGB
 90
      255
102
RTVSPost2010PropOp44
 70
     1
102
RTVSPost2010Prop45
280
     0
102
RTVSPost2010PropOp45
 70
     1
102
RTVSPost2010Prop46
 90
       50
102
RTVSPost2010PropOp46
 70
     1
102
RTVSPost2010Prop47
 90
       50
102
RTVSPost2010PropOp47
 70
     1
102
RTVSPost2010Prop48
 90
       50
102
RTVSPost2010PropOp48
 70
     1
102
RTVSPost2010Prop49
280
     0
102
RTVSPost2010PropOp49
 70
     1
102
RTVSPost2010Prop50
 90
       50
102
RTVSPost2010PropOp50
 70
     1
102
RTVSPost2010Prop51ColorIndex
 90
      256
102
RTVSPost2010Prop51ColorRGB
 90
-16777216
102
RTVSPost2010PropOp51
 70
     0
102
RTVSPost2010Prop52
140
1.0
102
RTVSPost2010PropOp52
 70
     0
102
RTVSPost2010Prop53
 90
        2
102
RTVSPost2010PropOp53
 70
     1
102
RTVSPost2010Prop54
  1
strokes_ogs.tif
102
RTVSPost2010PropOp54
 70
     1
102
RTVSPost2010Prop55
280
     0
102
RTVSPost2010PropOp55
 70
     1
102
RTVSPost2010Prop56
140
1.0
102
RTVSPost2010PropOp56
 70
     1
102
RTVSPost2010Prop57
140
1.0
102
RTVSPost2010PropOp57
 70
     1
  0
XRECORD
  5
628
102
{ACAD_REACTORS
330
627
102
}
330
627
100
AcDbXrecord
280
     1
102
RTVSPropertyOp0
 70
     0
102
RTVSPropertyOp1
 70
     0
102
RTVSPropertyOp2
 70
     0
102
RTVSPropertyOp3
 70
     0
102
RTVSPropertyOp4
 70
     0
102
RTVSPropertyOp5
 70
     0
102
RTVSPropertyOp6
 70
     0
102
RTVSPropertyOp7
 70
     0
102
RTVSPropertyOp8
 70
     0
102
RTVSPropertyOp9
 70
     0
102
RTVSPropertyOp10
 70
     0
102
RTVSPropertyOp11
 70
     0
102
RTVSPropertyOp12
 70
     0
102
RTVSPropertyOp13
 70
     0
102
RTVSPropertyOp14
 70
     0
102
RTVSPropertyOp15
 70
     0
102
RTVSPropertyOp16
 70
     0
102
RTVSPropertyOp17
 70
     0
102
RTVSPropertyOp18
 70
     0
102
RTVSPropertyOp19
 70
     0
102
RTVSPropertyOp20
 70
     0
102
RTVSPropertyOp21
 70
     0
102
RTVSPropertyOp22
 70
     0
102
RTVSPropertyOp23
 70
     0
102
RTVSPropertyOp24
 70
     0
102
RTVSPropertyOp25
 70
     0
102
RTVSPropertyOp26
 70
     0
102
RTVSPropertyOp27
 70
     0
102
RTVSPropertyOp28
 70
     1
102
RTVSPropertyOp29
 70
     1
102
RTVSPropertyOp30
 70
     1
102
RTVSPropertyOp31
 70
     1
102
RTVSPropertyOp32
 70
     1
102
RTVSPropertyOp33
 70
     1
102
RTVSPropertyOp34
 70
     1
102
RTVSPropertyOp35
 70
     1
102
RTVSPropertyOp36
 70
     1
102
RTVSPropertyOp37
 70
     1
102
RTVSPropertyOp38
 70
     1
102
RTVSPropertyOp39
 70
     1
102
RTVSPropertyOp40
 70
     1
102
RTVSPropertyOp41
 70
     1
102
RTVSPropertyOp42
 70
     1
102
RTVSPropertyOp43
 70
     1
102
RTVSPropertyOp44
 70
     1
102
RTVSPropertyOp45
 70
     1
102
RTVSPropertyOp46
 70
     1
102
RTVSPropertyOp47
 70
     1
102
RTVSPropertyOp48
 70
     1
102
RTVSPropertyOp49
 70
     1
102
RTVSPropertyOp50
 70
     1
102
RTVSPropertyOp51
 70
     0
102
RTVSPropertyOp52
 70
     0
102
RTVSPropertyOp53
 70
     1
102
RTVSPropertyOp54
 70
     1
102
RTVSPropertyOp55
 70
     1
102
RTVSPropertyOp56
 70
     1
102
RTVSPropertyOp57
 70
     1
102
RTVSPost2010Prop28
280
     0
102
RTVSPost2010PropOp28
 70
     1
102
RTVSPost2010Prop29
280
     1
102
RTVSPost2010PropOp29
 70
     1
102
RTVSPost2010Prop30
280
     1
102
RTVSPost2010PropOp30
 70
     1
102
RTVSPost2010Prop31
280
     0
102
RTVSPost2010PropOp31
 70
     1
102
RTVSPost2010Prop32
280
     0
102
RTVSPost2010PropOp32
 70
     1
102
RTVSPost2010Prop33
280
     0
102
RTVSPost2010PropOp33
 70
     1
102
RTVSPost2010Prop34
280
     0
102
RTVSPost2010PropOp34
 70
     1
102
RTVSPost2010Prop35
280
     0
102
RTVSPost2010PropOp35
 70
     1
102
RTVSPost2010Prop36
280
     0
102
RTVSPost2010PropOp36
 70
     1
102
RTVSPost2010Prop37
 90
       50
102
RTVSPost2010PropOp37
 70
     1
102
RTVSPost2010Prop38
140
0.0
102
RTVSPost2010PropOp38
 70
     1
102
RTVSPost2010Prop39
140
1.0
102
RTVSPost2010PropOp39
 70
     1
102
RTVSPost2010Prop40
 90
        0
102
RTVSPost2010PropOp40
 70
     1
102
RTVSPost2010Prop41ColorIndex
 90
       18
102
RTVSPost2010Prop41ColorRGB
 90
        0
102
RTVSPost2010PropOp41
 70
     1
102
RTVSPost2010Prop42
 90
       50
102
RTVSPost2010PropOp42
 70
     1
102
RTVSPost2010Prop43
 90
        3
102
RTVSPost2010PropOp43
 70
     1
102
RTVSPost2010Prop44ColorIndex
 90
        5
102
RTVSPost2010Prop44ColorRGB
 90
      255
102
RTVSPost2010PropOp44
 70
     1
102
RTVSPost2010Prop45
280
     0
102
RTVSPost2010PropOp45
 70
     1
102
RTVSPost2010Prop46
 90
       50
102
RTVSPost2010PropOp46
 70
     1
102
RTVSPost2010Prop47
 90
       50
102
RTVSPost2010PropOp47
 70
     1
102
RTVSPost2010Prop48
 90
       50
102
RTVSPost2010PropOp48
 70
     1
102
RTVSPost2010Prop49
280
     0
102
RTVSPost2010PropOp49
 70
     1
102
RTVSPost2010Prop50
 90
       50
102
RTVSPost2010PropOp50
 70
     1
102
RTVSPost2010Prop51ColorIndex
 90
      256
102
RTVSPost2010Prop51ColorRGB
 90
-16777216
102
RTVSPost2010PropOp51
 70
     0
102
RTVSPost2010Prop52
140
1.0
102
RTVSPost2010PropOp52
 70
     0
102
RTVSPost2010Prop53
 90
        2
102
RTVSPost2010PropOp53
 70
     1
102
RTVSPost2010Prop54
  1
strokes_ogs.tif
102
RTVSPost2010PropOp54
 70
     1
102
RTVSPost2010Prop55
280
     0
102
RTVSPost2010PropOp55
 70
     1
102
RTVSPost2010Prop56
140
1.0
102
RTVSPost2010PropOp56
 70
     1
102
RTVSPost2010Prop57
140
1.0
102
RTVSPost2010PropOp57
 70
     1
  0
XRECORD
  5
620
102
{ACAD_REACTORS
330
61F
102
}
330
61F
100
AcDbXrecord
280
     1
102
RTVSPropertyOp0
 70
     1
102
RTVSPropertyOp1
 70
     1
102
RTVSPropertyOp2
 70
     1
102
RTVSPropertyOp3
 70
     1
102
RTVSPropertyOp4
 70
     1
102
RTVSPropertyOp5
 70
     1
102
RTVSPropertyOp6
 70
     1
102
RTVSPropertyOp7
 70
     1
102
RTVSPropertyOp8
 70
     1
102
RTVSPropertyOp9
 70
     1
102
RTVSPropertyOp10
 70
     1
102
RTVSPropertyOp11
 70
     1
102
RTVSPropertyOp12
 70
     1
102
RTVSPropertyOp13
 70
     1
102
RTVSPropertyOp14
 70
     1
102
RTVSPropertyOp15
 70
     1
102
RTVSPropertyOp16
 70
     1
102
RTVSPropertyOp17
 70
     1
102
RTVSPropertyOp18
 70
     1
102
RTVSPropertyOp19
 70
     1
102
RTVSPropertyOp20
 70
     1
102
RTVSPropertyOp21
 70
     1
102
RTVSPropertyOp22
 70
     1
102
RTVSPropertyOp23
 70
     1
102
RTVSPropertyOp24
 70
     1
102
RTVSPropertyOp25
 70
     1
102
RTVSPropertyOp26
 70
     1
102
RTVSPropertyOp27
 70
     1
102
RTVSPropertyOp28
 70
     1
102
RTVSPropertyOp29
 70
     1
102
RTVSPropertyOp30
 70
     1
102
RTVSPropertyOp31
 70
     1
102
RTVSPropertyOp32
 70
     1
102
RTVSPropertyOp33
 70
     1
102
RTVSPropertyOp34
 70
     1
102
RTVSPropertyOp35
 70
     1
102
RTVSPropertyOp36
 70
     1
102
RTVSPropertyOp37
 70
     1
102
RTVSPropertyOp38
 70
     1
102
RTVSPropertyOp39
 70
     1
102
RTVSPropertyOp40
 70
     1
102
RTVSPropertyOp41
 70
     1
102
RTVSPropertyOp42
 70
     1
102
RTVSPropertyOp43
 70
     1
102
RTVSPropertyOp44
 70
     1
102
RTVSPropertyOp45
 70
     1
102
RTVSPropertyOp46
 70
     1
102
RTVSPropertyOp47
 70
     1
102
RTVSPropertyOp48
 70
     1
102
RTVSPropertyOp49
 70
     1
102
RTVSPropertyOp50
 70
     1
102
RTVSPropertyOp51
 70
     0
102
RTVSPropertyOp52
 70
     0
102
RTVSPropertyOp53
 70
     1
102
RTVSPropertyOp54
 70
     1
102
RTVSPropertyOp55
 70
     1
102
RTVSPropertyOp56
 70
     1
102
RTVSPropertyOp57
 70
     1
102
RTVSPost2010Prop28
280
     0
102
RTVSPost2010PropOp28
 70
     1
102
RTVSPost2010Prop29
280
     1
102
RTVSPost2010PropOp29
 70
     1
102
RTVSPost2010Prop30
280
     1
102
RTVSPost2010PropOp30
 70
     1
102
RTVSPost2010Prop31
280
     0
102
RTVSPost2010PropOp31
 70
     1
102
RTVSPost2010Prop32
280
     0
102
RTVSPost2010PropOp32
 70
     1
102
RTVSPost2010Prop33
280
     0
102
RTVSPost2010PropOp33
 70
     1
102
RTVSPost2010Prop34
280
     0
102
RTVSPost2010PropOp34
 70
     1
102
RTVSPost2010Prop35
280
     0
102
RTVSPost2010PropOp35
 70
     1
102
RTVSPost2010Prop36
280
     0
102
RTVSPost2010PropOp36
 70
     1
102
RTVSPost2010Prop37
 90
       50
102
RTVSPost2010PropOp37
 70
     1
102
RTVSPost2010Prop38
140
0.0
102
RTVSPost2010PropOp38
 70
     1
102
RTVSPost2010Prop39
140
1.0
102
RTVSPost2010PropOp39
 70
     1
102
RTVSPost2010Prop40
 90
        0
102
RTVSPost2010PropOp40
 70
     1
102
RTVSPost2010Prop41ColorIndex
 90
       18
102
RTVSPost2010Prop41ColorRGB
 90
        0
102
RTVSPost2010PropOp41
 70
     1
102
RTVSPost2010Prop42
 90
       50
102
RTVSPost2010PropOp42
 70
     1
102
RTVSPost2010Prop43
 90
        3
102
RTVSPost2010PropOp43
 70
     1
102
RTVSPost2010Prop44ColorIndex
 90
        5
102
RTVSPost2010Prop44ColorRGB
 90
      255
102
RTVSPost2010PropOp44
 70
     1
102
RTVSPost2010Prop45
280
     0
102
RTVSPost2010PropOp45
 70
     1
102
RTVSPost2010Prop46
 90
       50
102
RTVSPost2010PropOp46
 70
     1
102
RTVSPost2010Prop47
 90
       50
102
RTVSPost2010PropOp47
 70
     1
102
RTVSPost2010Prop48
 90
       50
102
RTVSPost2010PropOp48
 70
     1
102
RTVSPost2010Prop49
280
     0
102
RTVSPost2010PropOp49
 70
     1
102
RTVSPost2010Prop50
 90
       50
102
RTVSPost2010PropOp50
 70
     1
102
RTVSPost2010Prop51ColorIndex
 90
      256
102
RTVSPost2010Prop51ColorRGB
 90
-16777216
102
RTVSPost2010PropOp51
 70
     0
102
RTVSPost2010Prop52
140
1.0
102
RTVSPost2010PropOp52
 70
     0
102
RTVSPost2010Prop53
 90
        2
102
RTVSPost2010PropOp53
 70
     1
102
RTVSPost2010Prop54
  1
strokes_ogs.tif
102
RTVSPost2010PropOp54
 70
     1
102
RTVSPost2010Prop55
280
     0
102
RTVSPost2010PropOp55
 70
     1
102
RTVSPost2010Prop56
140
1.0
102
RTVSPost2010PropOp56
 70
     1
102
RTVSPost2010Prop57
140
1.0
102
RTVSPost2010PropOp57
 70
     1
  0
XRECORD
  5
604
102
{ACAD_REACTORS
330
603
102
}
330
603
100
AcDbXrecord
280
     1
102
RTVSPropertyOp0
 70
     1
102
RTVSPropertyOp1
 70
     1
102
RTVSPropertyOp2
 70
     1
102
RTVSPropertyOp3
 70
     1
102
RTVSPropertyOp4
 70
     1
102
RTVSPropertyOp5
 70
     1
102
RTVSPropertyOp6
 70
     1
102
RTVSPropertyOp7
 70
     1
102
RTVSPropertyOp8
 70
     1
102
RTVSPropertyOp9
 70
     1
102
RTVSPropertyOp10
 70
     1
102
RTVSPropertyOp11
 70
     1
102
RTVSPropertyOp12
 70
     1
102
RTVSPropertyOp13
 70
     1
102
RTVSPropertyOp14
 70
     1
102
RTVSPropertyOp15
 70
     1
102
RTVSPropertyOp16
 70
     1
102
RTVSPropertyOp17
 70
     1
102
RTVSPropertyOp18
 70
     1
102
RTVSPropertyOp19
 70
     1
102
RTVSPropertyOp20
 70
     1
102
RTVSPropertyOp21
 70
     1
102
RTVSPropertyOp22
 70
     1
102
RTVSPropertyOp23
 70
     1
102
RTVSPropertyOp24
 70
     1
102
RTVSPropertyOp25
 70
     1
102
RTVSPropertyOp26
 70
     1
102
RTVSPropertyOp27
 70
     1
102
RTVSPropertyOp28
 70
     1
102
RTVSPropertyOp29
 70
     1
102
RTVSPropertyOp30
 70
     1
102
RTVSPropertyOp31
 70
     1
102
RTVSPropertyOp32
 70
     1
102
RTVSPropertyOp33
 70
     1
102
RTVSPropertyOp34
 70
     1
102
RTVSPropertyOp35
 70
     1
102
RTVSPropertyOp36
 70
     1
102
RTVSPropertyOp37
 70
     1
102
RTVSPropertyOp38
 70
     1
102
RTVSPropertyOp39
 70
     1
102
RTVSPropertyOp40
 70
     1
102
RTVSPropertyOp41
 70
     1
102
RTVSPropertyOp42
 70
     1
102
RTVSPropertyOp43
 70
     1
102
RTVSPropertyOp44
 70
     1
102
RTVSPropertyOp45
 70
     1
102
RTVSPropertyOp46
 70
     1
102
RTVSPropertyOp47
 70
     1
102
RTVSPropertyOp48
 70
     1
102
RTVSPropertyOp49
 70
     1
102
RTVSPropertyOp50
 70
     1
102
RTVSPropertyOp51
 70
     0
102
RTVSPropertyOp52
 70
     0
102
RTVSPropertyOp53
 70
     1
102
RTVSPropertyOp54
 70
     1
102
RTVSPropertyOp55
 70
     1
102
RTVSPropertyOp56
 70
     1
102
RTVSPropertyOp57
 70
     1
102
RTVSPost2010Prop28
280
     0
102
RTVSPost2010PropOp28
 70
     1
102
RTVSPost2010Prop29
280
     1
102
RTVSPost2010PropOp29
 70
     1
102
RTVSPost2010Prop30
280
     1
102
RTVSPost2010PropOp30
 70
     1
102
RTVSPost2010Prop31
280
     0
102
RTVSPost2010PropOp31
 70
     1
102
RTVSPost2010Prop32
280
     0
102
RTVSPost2010PropOp32
 70
     1
102
RTVSPost2010Prop33
280
     0
102
RTVSPost2010PropOp33
 70
     1
102
RTVSPost2010Prop34
280
     0
102
RTVSPost2010PropOp34
 70
     1
102
RTVSPost2010Prop35
280
     0
102
RTVSPost2010PropOp35
 70
     1
102
RTVSPost2010Prop36
280
     0
102
RTVSPost2010PropOp36
 70
     1
102
RTVSPost2010Prop37
 90
       50
102
RTVSPost2010PropOp37
 70
     1
102
RTVSPost2010Prop38
140
0.0
102
RTVSPost2010PropOp38
 70
     1
102
RTVSPost2010Prop39
140
1.0
102
RTVSPost2010PropOp39
 70
     1
102
RTVSPost2010Prop40
 90
        0
102
RTVSPost2010PropOp40
 70
     1
102
RTVSPost2010Prop41ColorIndex
 90
       18
102
RTVSPost2010Prop41ColorRGB
 90
        0
102
RTVSPost2010PropOp41
 70
     1
102
RTVSPost2010Prop42
 90
       50
102
RTVSPost2010PropOp42
 70
     1
102
RTVSPost2010Prop43
 90
        3
102
RTVSPost2010PropOp43
 70
     1
102
RTVSPost2010Prop44ColorIndex
 90
        5
102
RTVSPost2010Prop44ColorRGB
 90
      255
102
RTVSPost2010PropOp44
 70
     1
102
RTVSPost2010Prop45
280
     0
102
RTVSPost2010PropOp45
 70
     1
102
RTVSPost2010Prop46
 90
       50
102
RTVSPost2010PropOp46
 70
     1
102
RTVSPost2010Prop47
 90
       50
102
RTVSPost2010PropOp47
 70
     1
102
RTVSPost2010Prop48
 90
       50
102
RTVSPost2010PropOp48
 70
     1
102
RTVSPost2010Prop49
280
     0
102
RTVSPost2010PropOp49
 70
     1
102
RTVSPost2010Prop50
 90
       50
102
RTVSPost2010PropOp50
 70
     1
102
RTVSPost2010Prop51ColorIndex
 90
      256
102
RTVSPost2010Prop51ColorRGB
 90
-16777216
102
RTVSPost2010PropOp51
 70
     0
102
RTVSPost2010Prop52
140
1.0
102
RTVSPost2010PropOp52
 70
     0
102
RTVSPost2010Prop53
 90
        2
102
RTVSPost2010PropOp53
 70
     1
102
RTVSPost2010Prop54
  1
strokes_ogs.tif
102
RTVSPost2010PropOp54
 70
     1
102
RTVSPost2010Prop55
280
     0
102
RTVSPost2010PropOp55
 70
     1
102
RTVSPost2010Prop56
140
1.0
102
RTVSPost2010PropOp56
 70
     1
102
RTVSPost2010Prop57
140
1.0
102
RTVSPost2010PropOp57
 70
     1
  0
XRECORD
  5
606
102
{ACAD_REACTORS
330
605
102
}
330
605
100
AcDbXrecord
280
     1
102
RTVSPropertyOp0
 70
     1
102
RTVSPropertyOp1
 70
     1
102
RTVSPropertyOp2
 70
     1
102
RTVSPropertyOp3
 70
     1
102
RTVSPropertyOp4
 70
     1
102
RTVSPropertyOp5
 70
     1
102
RTVSPropertyOp6
 70
     1
102
RTVSPropertyOp7
 70
     1
102
RTVSPropertyOp8
 70
     1
102
RTVSPropertyOp9
 70
     1
102
RTVSPropertyOp10
 70
     1
102
RTVSPropertyOp11
 70
     1
102
RTVSPropertyOp12
 70
     1
102
RTVSPropertyOp13
 70
     1
102
RTVSPropertyOp14
 70
     1
102
RTVSPropertyOp15
 70
     1
102
RTVSPropertyOp16
 70
     1
102
RTVSPropertyOp17
 70
     1
102
RTVSPropertyOp18
 70
     1
102
RTVSPropertyOp19
 70
     1
102
RTVSPropertyOp20
 70
     1
102
RTVSPropertyOp21
 70
     1
102
RTVSPropertyOp22
 70
     1
102
RTVSPropertyOp23
 70
     1
102
RTVSPropertyOp24
 70
     1
102
RTVSPropertyOp25
 70
     1
102
RTVSPropertyOp26
 70
     1
102
RTVSPropertyOp27
 70
     1
102
RTVSPropertyOp28
 70
     1
102
RTVSPropertyOp29
 70
     1
102
RTVSPropertyOp30
 70
     1
102
RTVSPropertyOp31
 70
     1
102
RTVSPropertyOp32
 70
     1
102
RTVSPropertyOp33
 70
     1
102
RTVSPropertyOp34
 70
     1
102
RTVSPropertyOp35
 70
     1
102
RTVSPropertyOp36
 70
     1
102
RTVSPropertyOp37
 70
     1
102
RTVSPropertyOp38
 70
     1
102
RTVSPropertyOp39
 70
     1
102
RTVSPropertyOp40
 70
     1
102
RTVSPropertyOp41
 70
     1
102
RTVSPropertyOp42
 70
     1
102
RTVSPropertyOp43
 70
     1
102
RTVSPropertyOp44
 70
     1
102
RTVSPropertyOp45
 70
     1
102
RTVSPropertyOp46
 70
     1
102
RTVSPropertyOp47
 70
     1
102
RTVSPropertyOp48
 70
     1
102
RTVSPropertyOp49
 70
     1
102
RTVSPropertyOp50
 70
     1
102
RTVSPropertyOp51
 70
     0
102
RTVSPropertyOp52
 70
     0
102
RTVSPropertyOp53
 70
     1
102
RTVSPropertyOp54
 70
     1
102
RTVSPropertyOp55
 70
     1
102
RTVSPropertyOp56
 70
     1
102
RTVSPropertyOp57
 70
     1
102
RTVSPost2010Prop28
280
     0
102
RTVSPost2010PropOp28
 70
     1
102
RTVSPost2010Prop29
280
     1
102
RTVSPost2010PropOp29
 70
     1
102
RTVSPost2010Prop30
280
     1
102
RTVSPost2010PropOp30
 70
     1
102
RTVSPost2010Prop31
280
     0
102
RTVSPost2010PropOp31
 70
     1
102
RTVSPost2010Prop32
280
     0
102
RTVSPost2010PropOp32
 70
     1
102
RTVSPost2010Prop33
280
     0
102
RTVSPost2010PropOp33
 70
     1
102
RTVSPost2010Prop34
280
     0
102
RTVSPost2010PropOp34
 70
     1
102
RTVSPost2010Prop35
280
     0
102
RTVSPost2010PropOp35
 70
     1
102
RTVSPost2010Prop36
280
     0
102
RTVSPost2010PropOp36
 70
     1
102
RTVSPost2010Prop37
 90
       50
102
RTVSPost2010PropOp37
 70
     1
102
RTVSPost2010Prop38
140
0.0
102
RTVSPost2010PropOp38
 70
     1
102
RTVSPost2010Prop39
140
1.0
102
RTVSPost2010PropOp39
 70
     1
102
RTVSPost2010Prop40
 90
        0
102
RTVSPost2010PropOp40
 70
     1
102
RTVSPost2010Prop41ColorIndex
 90
       18
102
RTVSPost2010Prop41ColorRGB
 90
        0
102
RTVSPost2010PropOp41
 70
     1
102
RTVSPost2010Prop42
 90
       50
102
RTVSPost2010PropOp42
 70
     1
102
RTVSPost2010Prop43
 90
        3
102
RTVSPost2010PropOp43
 70
     1
102
RTVSPost2010Prop44ColorIndex
 90
        5
102
RTVSPost2010Prop44ColorRGB
 90
      255
102
RTVSPost2010PropOp44
 70
     1
102
RTVSPost2010Prop45
280
     0
102
RTVSPost2010PropOp45
 70
     1
102
RTVSPost2010Prop46
 90
       50
102
RTVSPost2010PropOp46
 70
     1
102
RTVSPost2010Prop47
 90
       50
102
RTVSPost2010PropOp47
 70
     1
102
RTVSPost2010Prop48
 90
       50
102
RTVSPost2010PropOp48
 70
     1
102
RTVSPost2010Prop49
280
     0
102
RTVSPost2010PropOp49
 70
     1
102
RTVSPost2010Prop50
 90
       50
102
RTVSPost2010PropOp50
 70
     1
102
RTVSPost2010Prop51ColorIndex
 90
      256
102
RTVSPost2010Prop51ColorRGB
 90
-16777216
102
RTVSPost2010PropOp51
 70
     0
102
RTVSPost2010Prop52
140
1.0
102
RTVSPost2010PropOp52
 70
     0
102
RTVSPost2010Prop53
 90
        2
102
RTVSPost2010PropOp53
 70
     1
102
RTVSPost2010Prop54
  1
strokes_ogs.tif
102
RTVSPost2010PropOp54
 70
     1
102
RTVSPost2010Prop55
280
     0
102
RTVSPost2010PropOp55
 70
     1
102
RTVSPost2010Prop56
140
1.0
102
RTVSPost2010PropOp56
 70
     1
102
RTVSPost2010Prop57
140
1.0
102
RTVSPost2010PropOp57
 70
     1
  0
XRECORD
  5
608
102
{ACAD_REACTORS
330
607
102
}
330
607
100
AcDbXrecord
280
     1
102
RTVSPropertyOp0
 70
     1
102
RTVSPropertyOp1
 70
     1
102
RTVSPropertyOp2
 70
     1
102
RTVSPropertyOp3
 70
     1
102
RTVSPropertyOp4
 70
     1
102
RTVSPropertyOp5
 70
     1
102
RTVSPropertyOp6
 70
     1
102
RTVSPropertyOp7
 70
     1
102
RTVSPropertyOp8
 70
     1
102
RTVSPropertyOp9
 70
     1
102
RTVSPropertyOp10
 70
     1
102
RTVSPropertyOp11
 70
     1
102
RTVSPropertyOp12
 70
     1
102
RTVSPropertyOp13
 70
     1
102
RTVSPropertyOp14
 70
     1
102
RTVSPropertyOp15
 70
     1
102
RTVSPropertyOp16
 70
     1
102
RTVSPropertyOp17
 70
     1
102
RTVSPropertyOp18
 70
     1
102
RTVSPropertyOp19
 70
     1
102
RTVSPropertyOp20
 70
     1
102
RTVSPropertyOp21
 70
     1
102
RTVSPropertyOp22
 70
     1
102
RTVSPropertyOp23
 70
     1
102
RTVSPropertyOp24
 70
     1
102
RTVSPropertyOp25
 70
     1
102
RTVSPropertyOp26
 70
     1
102
RTVSPropertyOp27
 70
     1
102
RTVSPropertyOp28
 70
     1
102
RTVSPropertyOp29
 70
     1
102
RTVSPropertyOp30
 70
     1
102
RTVSPropertyOp31
 70
     1
102
RTVSPropertyOp32
 70
     1
102
RTVSPropertyOp33
 70
     1
102
RTVSPropertyOp34
 70
     1
102
RTVSPropertyOp35
 70
     1
102
RTVSPropertyOp36
 70
     1
102
RTVSPropertyOp37
 70
     1
102
RTVSPropertyOp38
 70
     1
102
RTVSPropertyOp39
 70
     1
102
RTVSPropertyOp40
 70
     1
102
RTVSPropertyOp41
 70
     1
102
RTVSPropertyOp42
 70
     1
102
RTVSPropertyOp43
 70
     1
102
RTVSPropertyOp44
 70
     1
102
RTVSPropertyOp45
 70
     1
102
RTVSPropertyOp46
 70
     1
102
RTVSPropertyOp47
 70
     1
102
RTVSPropertyOp48
 70
     1
102
RTVSPropertyOp49
 70
     1
102
RTVSPropertyOp50
 70
     1
102
RTVSPropertyOp51
 70
     0
102
RTVSPropertyOp52
 70
     0
102
RTVSPropertyOp53
 70
     1
102
RTVSPropertyOp54
 70
     1
102
RTVSPropertyOp55
 70
     1
102
RTVSPropertyOp56
 70
     1
102
RTVSPropertyOp57
 70
     1
102
RTVSPost2010Prop28
280
     0
102
RTVSPost2010PropOp28
 70
     1
102
RTVSPost2010Prop29
280
     1
102
RTVSPost2010PropOp29
 70
     1
102
RTVSPost2010Prop30
280
     1
102
RTVSPost2010PropOp30
 70
     1
102
RTVSPost2010Prop31
280
     0
102
RTVSPost2010PropOp31
 70
     1
102
RTVSPost2010Prop32
280
     0
102
RTVSPost2010PropOp32
 70
     1
102
RTVSPost2010Prop33
280
     0
102
RTVSPost2010PropOp33
 70
     1
102
RTVSPost2010Prop34
280
     0
102
RTVSPost2010PropOp34
 70
     1
102
RTVSPost2010Prop35
280
     0
102
RTVSPost2010PropOp35
 70
     1
102
RTVSPost2010Prop36
280
     0
102
RTVSPost2010PropOp36
 70
     1
102
RTVSPost2010Prop37
 90
       50
102
RTVSPost2010PropOp37
 70
     1
102
RTVSPost2010Prop38
140
0.0
102
RTVSPost2010PropOp38
 70
     1
102
RTVSPost2010Prop39
140
1.0
102
RTVSPost2010PropOp39
 70
     1
102
RTVSPost2010Prop40
 90
        0
102
RTVSPost2010PropOp40
 70
     1
102
RTVSPost2010Prop41ColorIndex
 90
       18
102
RTVSPost2010Prop41ColorRGB
 90
        0
102
RTVSPost2010PropOp41
 70
     1
102
RTVSPost2010Prop42
 90
       50
102
RTVSPost2010PropOp42
 70
     1
102
RTVSPost2010Prop43
 90
        3
102
RTVSPost2010PropOp43
 70
     1
102
RTVSPost2010Prop44ColorIndex
 90
        5
102
RTVSPost2010Prop44ColorRGB
 90
      255
102
RTVSPost2010PropOp44
 70
     1
102
RTVSPost2010Prop45
280
     0
102
RTVSPost2010PropOp45
 70
     1
102
RTVSPost2010Prop46
 90
       50
102
RTVSPost2010PropOp46
 70
     1
102
RTVSPost2010Prop47
 90
       50
102
RTVSPost2010PropOp47
 70
     1
102
RTVSPost2010Prop48
 90
       50
102
RTVSPost2010PropOp48
 70
     1
102
RTVSPost2010Prop49
280
     0
102
RTVSPost2010PropOp49
 70
     1
102
RTVSPost2010Prop50
 90
       50
102
RTVSPost2010PropOp50
 70
     1
102
RTVSPost2010Prop51ColorIndex
 90
      256
102
RTVSPost2010Prop51ColorRGB
 90
-16777216
102
RTVSPost2010PropOp51
 70
     0
102
RTVSPost2010Prop52
140
1.0
102
RTVSPost2010PropOp52
 70
     0
102
RTVSPost2010Prop53
 90
        2
102
RTVSPost2010PropOp53
 70
     1
102
RTVSPost2010Prop54
  1
strokes_ogs.tif
102
RTVSPost2010PropOp54
 70
     1
102
RTVSPost2010Prop55
280
     0
102
RTVSPost2010PropOp55
 70
     1
102
RTVSPost2010Prop56
140
1.0
102
RTVSPost2010PropOp56
 70
     1
102
RTVSPost2010Prop57
140
1.0
102
RTVSPost2010PropOp57
 70
     1
  0
XRECORD
  5
60A
102
{ACAD_REACTORS
330
609
102
}
330
609
100
AcDbXrecord
280
     1
102
RTVSPropertyOp0
 70
     1
102
RTVSPropertyOp1
 70
     1
102
RTVSPropertyOp2
 70
     1
102
RTVSPropertyOp3
 70
     1
102
RTVSPropertyOp4
 70
     1
102
RTVSPropertyOp5
 70
     1
102
RTVSPropertyOp6
 70
     1
102
RTVSPropertyOp7
 70
     1
102
RTVSPropertyOp8
 70
     1
102
RTVSPropertyOp9
 70
     1
102
RTVSPropertyOp10
 70
     1
102
RTVSPropertyOp11
 70
     1
102
RTVSPropertyOp12
 70
     1
102
RTVSPropertyOp13
 70
     1
102
RTVSPropertyOp14
 70
     1
102
RTVSPropertyOp15
 70
     1
102
RTVSPropertyOp16
 70
     1
102
RTVSPropertyOp17
 70
     1
102
RTVSPropertyOp18
 70
     1
102
RTVSPropertyOp19
 70
     1
102
RTVSPropertyOp20
 70
     1
102
RTVSPropertyOp21
 70
     1
102
RTVSPropertyOp22
 70
     1
102
RTVSPropertyOp23
 70
     1
102
RTVSPropertyOp24
 70
     1
102
RTVSPropertyOp25
 70
     1
102
RTVSPropertyOp26
 70
     1
102
RTVSPropertyOp27
 70
     1
102
RTVSPropertyOp28
 70
     1
102
RTVSPropertyOp29
 70
     1
102
RTVSPropertyOp30
 70
     1
102
RTVSPropertyOp31
 70
     1
102
RTVSPropertyOp32
 70
     1
102
RTVSPropertyOp33
 70
     1
102
RTVSPropertyOp34
 70
     1
102
RTVSPropertyOp35
 70
     1
102
RTVSPropertyOp36
 70
     1
102
RTVSPropertyOp37
 70
     1
102
RTVSPropertyOp38
 70
     1
102
RTVSPropertyOp39
 70
     1
102
RTVSPropertyOp40
 70
     1
102
RTVSPropertyOp41
 70
     1
102
RTVSPropertyOp42
 70
     1
102
RTVSPropertyOp43
 70
     1
102
RTVSPropertyOp44
 70
     1
102
RTVSPropertyOp45
 70
     1
102
RTVSPropertyOp46
 70
     1
102
RTVSPropertyOp47
 70
     1
102
RTVSPropertyOp48
 70
     1
102
RTVSPropertyOp49
 70
     1
102
RTVSPropertyOp50
 70
     1
102
RTVSPropertyOp51
 70
     0
102
RTVSPropertyOp52
 70
     0
102
RTVSPropertyOp53
 70
     1
102
RTVSPropertyOp54
 70
     1
102
RTVSPropertyOp55
 70
     1
102
RTVSPropertyOp56
 70
     1
102
RTVSPropertyOp57
 70
     1
102
RTVSPost2010Prop28
280
     0
102
RTVSPost2010PropOp28
 70
     1
102
RTVSPost2010Prop29
280
     1
102
RTVSPost2010PropOp29
 70
     1
102
RTVSPost2010Prop30
280
     1
102
RTVSPost2010PropOp30
 70
     1
102
RTVSPost2010Prop31
280
     0
102
RTVSPost2010PropOp31
 70
     1
102
RTVSPost2010Prop32
280
     0
102
RTVSPost2010PropOp32
 70
     1
102
RTVSPost2010Prop33
280
     0
102
RTVSPost2010PropOp33
 70
     1
102
RTVSPost2010Prop34
280
     0
102
RTVSPost2010PropOp34
 70
     1
102
RTVSPost2010Prop35
280
     0
102
RTVSPost2010PropOp35
 70
     1
102
RTVSPost2010Prop36
280
     0
102
RTVSPost2010PropOp36
 70
     1
102
RTVSPost2010Prop37
 90
       50
102
RTVSPost2010PropOp37
 70
     1
102
RTVSPost2010Prop38
140
0.0
102
RTVSPost2010PropOp38
 70
     1
102
RTVSPost2010Prop39
140
1.0
102
RTVSPost2010PropOp39
 70
     1
102
RTVSPost2010Prop40
 90
        0
102
RTVSPost2010PropOp40
 70
     1
102
RTVSPost2010Prop41ColorIndex
 90
       18
102
RTVSPost2010Prop41ColorRGB
 90
        0
102
RTVSPost2010PropOp41
 70
     1
102
RTVSPost2010Prop42
 90
       50
102
RTVSPost2010PropOp42
 70
     1
102
RTVSPost2010Prop43
 90
        3
102
RTVSPost2010PropOp43
 70
     1
102
RTVSPost2010Prop44ColorIndex
 90
        5
102
RTVSPost2010Prop44ColorRGB
 90
      255
102
RTVSPost2010PropOp44
 70
     1
102
RTVSPost2010Prop45
280
     0
102
RTVSPost2010PropOp45
 70
     1
102
RTVSPost2010Prop46
 90
       50
102
RTVSPost2010PropOp46
 70
     1
102
RTVSPost2010Prop47
 90
       50
102
RTVSPost2010PropOp47
 70
     1
102
RTVSPost2010Prop48
 90
       50
102
RTVSPost2010PropOp48
 70
     1
102
RTVSPost2010Prop49
280
     0
102
RTVSPost2010PropOp49
 70
     1
102
RTVSPost2010Prop50
 90
       50
102
RTVSPost2010PropOp50
 70
     1
102
RTVSPost2010Prop51ColorIndex
 90
      256
102
RTVSPost2010Prop51ColorRGB
 90
-16777216
102
RTVSPost2010PropOp51
 70
     0
102
RTVSPost2010Prop52
140
1.0
102
RTVSPost2010PropOp52
 70
     0
102
RTVSPost2010Prop53
 90
        2
102
RTVSPost2010PropOp53
 70
     1
102
RTVSPost2010Prop54
  1
strokes_ogs.tif
102
RTVSPost2010PropOp54
 70
     1
102
RTVSPost2010Prop55
280
     0
102
RTVSPost2010PropOp55
 70
     1
102
RTVSPost2010Prop56
140
1.0
102
RTVSPost2010PropOp56
 70
     1
102
RTVSPost2010Prop57
140
1.0
102
RTVSPost2010PropOp57
 70
     1
  0
XRECORD
  5
610
102
{ACAD_REACTORS
330
60F
102
}
330
60F
100
AcDbXrecord
280
     1
102
RTVSPropertyOp0
 70
     1
102
RTVSPropertyOp1
 70
     1
102
RTVSPropertyOp2
 70
     1
102
RTVSPropertyOp3
 70
     1
102
RTVSPropertyOp4
 70
     1
102
RTVSPropertyOp5
 70
     1
102
RTVSPropertyOp6
 70
     1
102
RTVSPropertyOp7
 70
     1
102
RTVSPropertyOp8
 70
     1
102
RTVSPropertyOp9
 70
     1
102
RTVSPropertyOp10
 70
     1
102
RTVSPropertyOp11
 70
     1
102
RTVSPropertyOp12
 70
     1
102
RTVSPropertyOp13
 70
     1
102
RTVSPropertyOp14
 70
     1
102
RTVSPropertyOp15
 70
     1
102
RTVSPropertyOp16
 70
     1
102
RTVSPropertyOp17
 70
     1
102
RTVSPropertyOp18
 70
     1
102
RTVSPropertyOp19
 70
     1
102
RTVSPropertyOp20
 70
     1
102
RTVSPropertyOp21
 70
     1
102
RTVSPropertyOp22
 70
     1
102
RTVSPropertyOp23
 70
     1
102
RTVSPropertyOp24
 70
     1
102
RTVSPropertyOp25
 70
     1
102
RTVSPropertyOp26
 70
     1
102
RTVSPropertyOp27
 70
     1
102
RTVSPropertyOp28
 70
     1
102
RTVSPropertyOp29
 70
     1
102
RTVSPropertyOp30
 70
     1
102
RTVSPropertyOp31
 70
     1
102
RTVSPropertyOp32
 70
     1
102
RTVSPropertyOp33
 70
     1
102
RTVSPropertyOp34
 70
     1
102
RTVSPropertyOp35
 70
     1
102
RTVSPropertyOp36
 70
     1
102
RTVSPropertyOp37
 70
     1
102
RTVSPropertyOp38
 70
     1
102
RTVSPropertyOp39
 70
     1
102
RTVSPropertyOp40
 70
     1
102
RTVSPropertyOp41
 70
     1
102
RTVSPropertyOp42
 70
     1
102
RTVSPropertyOp43
 70
     1
102
RTVSPropertyOp44
 70
     1
102
RTVSPropertyOp45
 70
     1
102
RTVSPropertyOp46
 70
     1
102
RTVSPropertyOp47
 70
     1
102
RTVSPropertyOp48
 70
     1
102
RTVSPropertyOp49
 70
     1
102
RTVSPropertyOp50
 70
     1
102
RTVSPropertyOp51
 70
     0
102
RTVSPropertyOp52
 70
     0
102
RTVSPropertyOp53
 70
     1
102
RTVSPropertyOp54
 70
     1
102
RTVSPropertyOp55
 70
     1
102
RTVSPropertyOp56
 70
     1
102
RTVSPropertyOp57
 70
     1
102
RTVSPost2010Prop28
280
     0
102
RTVSPost2010PropOp28
 70
     1
102
RTVSPost2010Prop29
280
     1
102
RTVSPost2010PropOp29
 70
     1
102
RTVSPost2010Prop30
280
     1
102
RTVSPost2010PropOp30
 70
     1
102
RTVSPost2010Prop31
280
     0
102
RTVSPost2010PropOp31
 70
     1
102
RTVSPost2010Prop32
280
     0
102
RTVSPost2010PropOp32
 70
     1
102
RTVSPost2010Prop33
280
     0
102
RTVSPost2010PropOp33
 70
     1
102
RTVSPost2010Prop34
280
     0
102
RTVSPost2010PropOp34
 70
     1
102
RTVSPost2010Prop35
280
     0
102
RTVSPost2010PropOp35
 70
     1
102
RTVSPost2010Prop36
280
     0
102
RTVSPost2010PropOp36
 70
     1
102
RTVSPost2010Prop37
 90
       50
102
RTVSPost2010PropOp37
 70
     1
102
RTVSPost2010Prop38
140
0.0
102
RTVSPost2010PropOp38
 70
     1
102
RTVSPost2010Prop39
140
1.0
102
RTVSPost2010PropOp39
 70
     1
102
RTVSPost2010Prop40
 90
        0
102
RTVSPost2010PropOp40
 70
     1
102
RTVSPost2010Prop41ColorIndex
 90
       18
102
RTVSPost2010Prop41ColorRGB
 90
        0
102
RTVSPost2010PropOp41
 70
     1
102
RTVSPost2010Prop42
 90
       50
102
RTVSPost2010PropOp42
 70
     1
102
RTVSPost2010Prop43
 90
        3
102
RTVSPost2010PropOp43
 70
     1
102
RTVSPost2010Prop44ColorIndex
 90
        5
102
RTVSPost2010Prop44ColorRGB
 90
      255
102
RTVSPost2010PropOp44
 70
     1
102
RTVSPost2010Prop45
280
     0
102
RTVSPost2010PropOp45
 70
     1
102
RTVSPost2010Prop46
 90
       50
102
RTVSPost2010PropOp46
 70
     1
102
RTVSPost2010Prop47
 90
       50
102
RTVSPost2010PropOp47
 70
     1
102
RTVSPost2010Prop48
 90
       50
102
RTVSPost2010PropOp48
 70
     1
102
RTVSPost2010Prop49
280
     0
102
RTVSPost2010PropOp49
 70
     1
102
RTVSPost2010Prop50
 90
       50
102
RTVSPost2010PropOp50
 70
     1
102
RTVSPost2010Prop51ColorIndex
 90
      256
102
RTVSPost2010Prop51ColorRGB
 90
-16777216
102
RTVSPost2010PropOp51
 70
     0
102
RTVSPost2010Prop52
140
1.0
102
RTVSPost2010PropOp52
 70
     0
102
RTVSPost2010Prop53
 90
        2
102
RTVSPost2010PropOp53
 70
     1
102
RTVSPost2010Prop54
  1
strokes_ogs.tif
102
RTVSPost2010PropOp54
 70
     1
102
RTVSPost2010Prop55
280
     0
102
RTVSPost2010PropOp55
 70
     1
102
RTVSPost2010Prop56
140
1.0
102
RTVSPost2010PropOp56
 70
     1
102
RTVSPost2010Prop57
140
1.0
102
RTVSPost2010PropOp57
 70
     1
  0
XRECORD
  5
624
102
{ACAD_REACTORS
330
623
102
}
330
623
100
AcDbXrecord
280
     1
102
RTVSPropertyOp0
 70
     0
102
RTVSPropertyOp1
 70
     0
102
RTVSPropertyOp2
 70
     0
102
RTVSPropertyOp3
 70
     0
102
RTVSPropertyOp4
 70
     0
102
RTVSPropertyOp5
 70
     0
102
RTVSPropertyOp6
 70
     0
102
RTVSPropertyOp7
 70
     0
102
RTVSPropertyOp8
 70
     0
102
RTVSPropertyOp9
 70
     0
102
RTVSPropertyOp10
 70
     0
102
RTVSPropertyOp11
 70
     0
102
RTVSPropertyOp12
 70
     0
102
RTVSPropertyOp13
 70
     0
102
RTVSPropertyOp14
 70
     0
102
RTVSPropertyOp15
 70
     0
102
RTVSPropertyOp16
 70
     0
102
RTVSPropertyOp17
 70
     0
102
RTVSPropertyOp18
 70
     0
102
RTVSPropertyOp19
 70
     0
102
RTVSPropertyOp20
 70
     0
102
RTVSPropertyOp21
 70
     0
102
RTVSPropertyOp22
 70
     0
102
RTVSPropertyOp23
 70
     0
102
RTVSPropertyOp24
 70
     0
102
RTVSPropertyOp25
 70
     0
102
RTVSPropertyOp26
 70
     0
102
RTVSPropertyOp27
 70
     0
102
RTVSPropertyOp28
 70
     1
102
RTVSPropertyOp29
 70
     1
102
RTVSPropertyOp30
 70
     1
102
RTVSPropertyOp31
 70
     1
102
RTVSPropertyOp32
 70
     1
102
RTVSPropertyOp33
 70
     1
102
RTVSPropertyOp34
 70
     1
102
RTVSPropertyOp35
 70
     1
102
RTVSPropertyOp36
 70
     1
102
RTVSPropertyOp37
 70
     1
102
RTVSPropertyOp38
 70
     1
102
RTVSPropertyOp39
 70
     1
102
RTVSPropertyOp40
 70
     1
102
RTVSPropertyOp41
 70
     1
102
RTVSPropertyOp42
 70
     1
102
RTVSPropertyOp43
 70
     1
102
RTVSPropertyOp44
 70
     1
102
RTVSPropertyOp45
 70
     1
102
RTVSPropertyOp46
 70
     1
102
RTVSPropertyOp47
 70
     1
102
RTVSPropertyOp48
 70
     1
102
RTVSPropertyOp49
 70
     1
102
RTVSPropertyOp50
 70
     1
102
RTVSPropertyOp51
 70
     0
102
RTVSPropertyOp52
 70
     0
102
RTVSPropertyOp53
 70
     1
102
RTVSPropertyOp54
 70
     1
102
RTVSPropertyOp55
 70
     1
102
RTVSPropertyOp56
 70
     1
102
RTVSPropertyOp57
 70
     1
102
RTVSPost2010Prop28
280
     0
102
RTVSPost2010PropOp28
 70
     1
102
RTVSPost2010Prop29
280
     1
102
RTVSPost2010PropOp29
 70
     1
102
RTVSPost2010Prop30
280
     1
102
RTVSPost2010PropOp30
 70
     1
102
RTVSPost2010Prop31
280
     0
102
RTVSPost2010PropOp31
 70
     1
102
RTVSPost2010Prop32
280
     0
102
RTVSPost2010PropOp32
 70
     1
102
RTVSPost2010Prop33
280
     0
102
RTVSPost2010PropOp33
 70
     1
102
RTVSPost2010Prop34
280
     0
102
RTVSPost2010PropOp34
 70
     1
102
RTVSPost2010Prop35
280
     0
102
RTVSPost2010PropOp35
 70
     1
102
RTVSPost2010Prop36
280
     0
102
RTVSPost2010PropOp36
 70
     1
102
RTVSPost2010Prop37
 90
       50
102
RTVSPost2010PropOp37
 70
     1
102
RTVSPost2010Prop38
140
0.0
102
RTVSPost2010PropOp38
 70
     1
102
RTVSPost2010Prop39
140
1.0
102
RTVSPost2010PropOp39
 70
     1
102
RTVSPost2010Prop40
 90
        0
102
RTVSPost2010PropOp40
 70
     1
102
RTVSPost2010Prop41ColorIndex
 90
       18
102
RTVSPost2010Prop41ColorRGB
 90
        0
102
RTVSPost2010PropOp41
 70
     1
102
RTVSPost2010Prop42
 90
       50
102
RTVSPost2010PropOp42
 70
     1
102
RTVSPost2010Prop43
 90
        3
102
RTVSPost2010PropOp43
 70
     1
102
RTVSPost2010Prop44ColorIndex
 90
        5
102
RTVSPost2010Prop44ColorRGB
 90
      255
102
RTVSPost2010PropOp44
 70
     1
102
RTVSPost2010Prop45
280
     0
102
RTVSPost2010PropOp45
 70
     1
102
RTVSPost2010Prop46
 90
       50
102
RTVSPost2010PropOp46
 70
     1
102
RTVSPost2010Prop47
 90
       50
102
RTVSPost2010PropOp47
 70
     1
102
RTVSPost2010Prop48
 90
       50
102
RTVSPost2010PropOp48
 70
     1
102
RTVSPost2010Prop49
280
     0
102
RTVSPost2010PropOp49
 70
     1
102
RTVSPost2010Prop50
 90
       50
102
RTVSPost2010PropOp50
 70
     1
102
RTVSPost2010Prop51ColorIndex
 90
      256
102
RTVSPost2010Prop51ColorRGB
 90
-16777216
102
RTVSPost2010PropOp51
 70
     0
102
RTVSPost2010Prop52
140
1.0
102
RTVSPost2010PropOp52
 70
     0
102
RTVSPost2010Prop53
 90
        2
102
RTVSPost2010PropOp53
 70
     1
102
RTVSPost2010Prop54
  1
strokes_ogs.tif
102
RTVSPost2010PropOp54
 70
     1
102
RTVSPost2010Prop55
280
     0
102
RTVSPost2010PropOp55
 70
     1
102
RTVSPost2010Prop56
140
1.0
102
RTVSPost2010PropOp56
 70
     1
102
RTVSPost2010Prop57
140
1.0
102
RTVSPost2010PropOp57
 70
     1
  0
XRECORD
  5
61E
102
{ACAD_REACTORS
330
61D
102
}
330
61D
100
AcDbXrecord
280
     1
102
RTVSPropertyOp0
 70
     1
102
RTVSPropertyOp1
 70
     1
102
RTVSPropertyOp2
 70
     1
102
RTVSPropertyOp3
 70
     1
102
RTVSPropertyOp4
 70
     1
102
RTVSPropertyOp5
 70
     1
102
RTVSPropertyOp6
 70
     1
102
RTVSPropertyOp7
 70
     1
102
RTVSPropertyOp8
 70
     1
102
RTVSPropertyOp9
 70
     1
102
RTVSPropertyOp10
 70
     1
102
RTVSPropertyOp11
 70
     1
102
RTVSPropertyOp12
 70
     1
102
RTVSPropertyOp13
 70
     1
102
RTVSPropertyOp14
 70
     1
102
RTVSPropertyOp15
 70
     1
102
RTVSPropertyOp16
 70
     1
102
RTVSPropertyOp17
 70
     1
102
RTVSPropertyOp18
 70
     1
102
RTVSPropertyOp19
 70
     1
102
RTVSPropertyOp20
 70
     1
102
RTVSPropertyOp21
 70
     1
102
RTVSPropertyOp22
 70
     1
102
RTVSPropertyOp23
 70
     1
102
RTVSPropertyOp24
 70
     1
102
RTVSPropertyOp25
 70
     1
102
RTVSPropertyOp26
 70
     1
102
RTVSPropertyOp27
 70
     1
102
RTVSPropertyOp28
 70
     1
102
RTVSPropertyOp29
 70
     1
102
RTVSPropertyOp30
 70
     1
102
RTVSPropertyOp31
 70
     1
102
RTVSPropertyOp32
 70
     1
102
RTVSPropertyOp33
 70
     1
102
RTVSPropertyOp34
 70
     1
102
RTVSPropertyOp35
 70
     1
102
RTVSPropertyOp36
 70
     1
102
RTVSPropertyOp37
 70
     1
102
RTVSPropertyOp38
 70
     1
102
RTVSPropertyOp39
 70
     1
102
RTVSPropertyOp40
 70
     1
102
RTVSPropertyOp41
 70
     1
102
RTVSPropertyOp42
 70
     1
102
RTVSPropertyOp43
 70
     1
102
RTVSPropertyOp44
 70
     1
102
RTVSPropertyOp45
 70
     1
102
RTVSPropertyOp46
 70
     1
102
RTVSPropertyOp47
 70
     1
102
RTVSPropertyOp48
 70
     1
102
RTVSPropertyOp49
 70
     1
102
RTVSPropertyOp50
 70
     1
102
RTVSPropertyOp51
 70
     0
102
RTVSPropertyOp52
 70
     0
102
RTVSPropertyOp53
 70
     1
102
RTVSPropertyOp54
 70
     1
102
RTVSPropertyOp55
 70
     1
102
RTVSPropertyOp56
 70
     1
102
RTVSPropertyOp57
 70
     1
102
RTVSPost2010Prop28
280
     0
102
RTVSPost2010PropOp28
 70
     1
102
RTVSPost2010Prop29
280
     1
102
RTVSPost2010PropOp29
 70
     1
102
RTVSPost2010Prop30
280
     1
102
RTVSPost2010PropOp30
 70
     1
102
RTVSPost2010Prop31
280
     0
102
RTVSPost2010PropOp31
 70
     1
102
RTVSPost2010Prop32
280
     0
102
RTVSPost2010PropOp32
 70
     1
102
RTVSPost2010Prop33
280
     0
102
RTVSPost2010PropOp33
 70
     1
102
RTVSPost2010Prop34
280
     0
102
RTVSPost2010PropOp34
 70
     1
102
RTVSPost2010Prop35
280
     0
102
RTVSPost2010PropOp35
 70
     1
102
RTVSPost2010Prop36
280
     0
102
RTVSPost2010PropOp36
 70
     1
102
RTVSPost2010Prop37
 90
       50
102
RTVSPost2010PropOp37
 70
     1
102
RTVSPost2010Prop38
140
0.0
102
RTVSPost2010PropOp38
 70
     1
102
RTVSPost2010Prop39
140
1.0
102
RTVSPost2010PropOp39
 70
     1
102
RTVSPost2010Prop40
 90
        0
102
RTVSPost2010PropOp40
 70
     1
102
RTVSPost2010Prop41ColorIndex
 90
       18
102
RTVSPost2010Prop41ColorRGB
 90
        0
102
RTVSPost2010PropOp41
 70
     1
102
RTVSPost2010Prop42
 90
       50
102
RTVSPost2010PropOp42
 70
     1
102
RTVSPost2010Prop43
 90
        3
102
RTVSPost2010PropOp43
 70
     1
102
RTVSPost2010Prop44ColorIndex
 90
        5
102
RTVSPost2010Prop44ColorRGB
 90
      255
102
RTVSPost2010PropOp44
 70
     1
102
RTVSPost2010Prop45
280
     0
102
RTVSPost2010PropOp45
 70
     1
102
RTVSPost2010Prop46
 90
       50
102
RTVSPost2010PropOp46
 70
     1
102
RTVSPost2010Prop47
 90
       50
102
RTVSPost2010PropOp47
 70
     1
102
RTVSPost2010Prop48
 90
       50
102
RTVSPost2010PropOp48
 70
     1
102
RTVSPost2010Prop49
280
     0
102
RTVSPost2010PropOp49
 70
     1
102
RTVSPost2010Prop50
 90
       50
102
RTVSPost2010PropOp50
 70
     1
102
RTVSPost2010Prop51ColorIndex
 90
      256
102
RTVSPost2010Prop51ColorRGB
 90
-16777216
102
RTVSPost2010PropOp51
 70
     0
102
RTVSPost2010Prop52
140
1.0
102
RTVSPost2010PropOp52
 70
     0
102
RTVSPost2010Prop53
 90
        2
102
RTVSPost2010PropOp53
 70
     1
102
RTVSPost2010Prop54
  1
strokes_ogs.tif
102
RTVSPost2010PropOp54
 70
     1
102
RTVSPost2010Prop55
280
     0
102
RTVSPost2010PropOp55
 70
     1
102
RTVSPost2010Prop56
140
1.0
102
RTVSPost2010PropOp56
 70
     1
102
RTVSPost2010Prop57
140
1.0
102
RTVSPost2010PropOp57
 70
     1
  0
XRECORD
  5
626
102
{ACAD_REACTORS
330
625
102
}
330
625
100
AcDbXrecord
280
     1
102
RTVSPropertyOp0
 70
     0
102
RTVSPropertyOp1
 70
     0
102
RTVSPropertyOp2
 70
     0
102
RTVSPropertyOp3
 70
     0
102
RTVSPropertyOp4
 70
     0
102
RTVSPropertyOp5
 70
     0
102
RTVSPropertyOp6
 70
     0
102
RTVSPropertyOp7
 70
     0
102
RTVSPropertyOp8
 70
     0
102
RTVSPropertyOp9
 70
     0
102
RTVSPropertyOp10
 70
     0
102
RTVSPropertyOp11
 70
     0
102
RTVSPropertyOp12
 70
     0
102
RTVSPropertyOp13
 70
     0
102
RTVSPropertyOp14
 70
     0
102
RTVSPropertyOp15
 70
     0
102
RTVSPropertyOp16
 70
     0
102
RTVSPropertyOp17
 70
     0
102
RTVSPropertyOp18
 70
     0
102
RTVSPropertyOp19
 70
     0
102
RTVSPropertyOp20
 70
     0
102
RTVSPropertyOp21
 70
     0
102
RTVSPropertyOp22
 70
     0
102
RTVSPropertyOp23
 70
     0
102
RTVSPropertyOp24
 70
     0
102
RTVSPropertyOp25
 70
     0
102
RTVSPropertyOp26
 70
     0
102
RTVSPropertyOp27
 70
     0
102
RTVSPropertyOp28
 70
     1
102
RTVSPropertyOp29
 70
     1
102
RTVSPropertyOp30
 70
     1
102
RTVSPropertyOp31
 70
     1
102
RTVSPropertyOp32
 70
     1
102
RTVSPropertyOp33
 70
     1
102
RTVSPropertyOp34
 70
     1
102
RTVSPropertyOp35
 70
     1
102
RTVSPropertyOp36
 70
     1
102
RTVSPropertyOp37
 70
     1
102
RTVSPropertyOp38
 70
     1
102
RTVSPropertyOp39
 70
     1
102
RTVSPropertyOp40
 70
     1
102
RTVSPropertyOp41
 70
     1
102
RTVSPropertyOp42
 70
     1
102
RTVSPropertyOp43
 70
     1
102
RTVSPropertyOp44
 70
     1
102
RTVSPropertyOp45
 70
     1
102
RTVSPropertyOp46
 70
     1
102
RTVSPropertyOp47
 70
     1
102
RTVSPropertyOp48
 70
     1
102
RTVSPropertyOp49
 70
     1
102
RTVSPropertyOp50
 70
     1
102
RTVSPropertyOp51
 70
     0
102
RTVSPropertyOp52
 70
     0
102
RTVSPropertyOp53
 70
     1
102
RTVSPropertyOp54
 70
     1
102
RTVSPropertyOp55
 70
     1
102
RTVSPropertyOp56
 70
     1
102
RTVSPropertyOp57
 70
     1
102
RTVSPost2010Prop28
280
     0
102
RTVSPost2010PropOp28
 70
     1
102
RTVSPost2010Prop29
280
     1
102
RTVSPost2010PropOp29
 70
     1
102
RTVSPost2010Prop30
280
     1
102
RTVSPost2010PropOp30
 70
     1
102
RTVSPost2010Prop31
280
     0
102
RTVSPost2010PropOp31
 70
     1
102
RTVSPost2010Prop32
280
     0
102
RTVSPost2010PropOp32
 70
     1
102
RTVSPost2010Prop33
280
     0
102
RTVSPost2010PropOp33
 70
     1
102
RTVSPost2010Prop34
280
     0
102
RTVSPost2010PropOp34
 70
     1
102
RTVSPost2010Prop35
280
     0
102
RTVSPost2010PropOp35
 70
     1
102
RTVSPost2010Prop36
280
     0
102
RTVSPost2010PropOp36
 70
     1
102
RTVSPost2010Prop37
 90
       50
102
RTVSPost2010PropOp37
 70
     1
102
RTVSPost2010Prop38
140
0.0
102
RTVSPost2010PropOp38
 70
     1
102
RTVSPost2010Prop39
140
1.0
102
RTVSPost2010PropOp39
 70
     1
102
RTVSPost2010Prop40
 90
        0
102
RTVSPost2010PropOp40
 70
     1
102
RTVSPost2010Prop41ColorIndex
 90
       18
102
RTVSPost2010Prop41ColorRGB
 90
        0
102
RTVSPost2010PropOp41
 70
     1
102
RTVSPost2010Prop42
 90
       50
102
RTVSPost2010PropOp42
 70
     1
102
RTVSPost2010Prop43
 90
        3
102
RTVSPost2010PropOp43
 70
     1
102
RTVSPost2010Prop44ColorIndex
 90
        5
102
RTVSPost2010Prop44ColorRGB
 90
      255
102
RTVSPost2010PropOp44
 70
     1
102
RTVSPost2010Prop45
280
     0
102
RTVSPost2010PropOp45
 70
     1
102
RTVSPost2010Prop46
 90
       50
102
RTVSPost2010PropOp46
 70
     1
102
RTVSPost2010Prop47
 90
       50
102
RTVSPost2010PropOp47
 70
     1
102
RTVSPost2010Prop48
 90
       50
102
RTVSPost2010PropOp48
 70
     1
102
RTVSPost2010Prop49
280
     0
102
RTVSPost2010PropOp49
 70
     1
102
RTVSPost2010Prop50
 90
       50
102
RTVSPost2010PropOp50
 70
     1
102
RTVSPost2010Prop51ColorIndex
 90
      256
102
RTVSPost2010Prop51ColorRGB
 90
-16777216
102
RTVSPost2010PropOp51
 70
     0
102
RTVSPost2010Prop52
140
1.0
102
RTVSPost2010PropOp52
 70
     0
102
RTVSPost2010Prop53
 90
        2
102
RTVSPost2010PropOp53
 70
     1
102
RTVSPost2010Prop54
  1
strokes_ogs.tif
102
RTVSPost2010PropOp54
 70
     1
102
RTVSPost2010Prop55
280
     0
102
RTVSPost2010PropOp55
 70
     1
102
RTVSPost2010Prop56
140
1.0
102
RTVSPost2010PropOp56
 70
     1
102
RTVSPost2010Prop57
140
1.0
102
RTVSPost2010PropOp57
 70
     1
  0
XRECORD
  5
614
102
{ACAD_REACTORS
330
613
102
}
330
613
100
AcDbXrecord
280
     1
102
RTVSPropertyOp0
 70
     1
102
RTVSPropertyOp1
 70
     1
102
RTVSPropertyOp2
 70
     1
102
RTVSPropertyOp3
 70
     1
102
RTVSPropertyOp4
 70
     1
102
RTVSPropertyOp5
 70
     1
102
RTVSPropertyOp6
 70
     1
102
RTVSPropertyOp7
 70
     1
102
RTVSPropertyOp8
 70
     1
102
RTVSPropertyOp9
 70
     1
102
RTVSPropertyOp10
 70
     1
102
RTVSPropertyOp11
 70
     1
102
RTVSPropertyOp12
 70
     1
102
RTVSPropertyOp13
 70
     1
102
RTVSPropertyOp14
 70
     1
102
RTVSPropertyOp15
 70
     1
102
RTVSPropertyOp16
 70
     1
102
RTVSPropertyOp17
 70
     1
102
RTVSPropertyOp18
 70
     1
102
RTVSPropertyOp19
 70
     1
102
RTVSPropertyOp20
 70
     1
102
RTVSPropertyOp21
 70
     1
102
RTVSPropertyOp22
 70
     1
102
RTVSPropertyOp23
 70
     1
102
RTVSPropertyOp24
 70
     1
102
RTVSPropertyOp25
 70
     1
102
RTVSPropertyOp26
 70
     1
102
RTVSPropertyOp27
 70
     1
102
RTVSPropertyOp28
 70
     1
102
RTVSPropertyOp29
 70
     1
102
RTVSPropertyOp30
 70
     1
102
RTVSPropertyOp31
 70
     1
102
RTVSPropertyOp32
 70
     1
102
RTVSPropertyOp33
 70
     1
102
RTVSPropertyOp34
 70
     1
102
RTVSPropertyOp35
 70
     1
102
RTVSPropertyOp36
 70
     1
102
RTVSPropertyOp37
 70
     1
102
RTVSPropertyOp38
 70
     1
102
RTVSPropertyOp39
 70
     1
102
RTVSPropertyOp40
 70
     1
102
RTVSPropertyOp41
 70
     1
102
RTVSPropertyOp42
 70
     1
102
RTVSPropertyOp43
 70
     1
102
RTVSPropertyOp44
 70
     1
102
RTVSPropertyOp45
 70
     1
102
RTVSPropertyOp46
 70
     1
102
RTVSPropertyOp47
 70
     1
102
RTVSPropertyOp48
 70
     1
102
RTVSPropertyOp49
 70
     1
102
RTVSPropertyOp50
 70
     1
102
RTVSPropertyOp51
 70
     0
102
RTVSPropertyOp52
 70
     0
102
RTVSPropertyOp53
 70
     1
102
RTVSPropertyOp54
 70
     1
102
RTVSPropertyOp55
 70
     1
102
RTVSPropertyOp56
 70
     1
102
RTVSPropertyOp57
 70
     1
102
RTVSPost2010Prop28
280
     0
102
RTVSPost2010PropOp28
 70
     1
102
RTVSPost2010Prop29
280
     1
102
RTVSPost2010PropOp29
 70
     1
102
RTVSPost2010Prop30
280
     1
102
RTVSPost2010PropOp30
 70
     1
102
RTVSPost2010Prop31
280
     0
102
RTVSPost2010PropOp31
 70
     1
102
RTVSPost2010Prop32
280
     0
102
RTVSPost2010PropOp32
 70
     1
102
RTVSPost2010Prop33
280
     0
102
RTVSPost2010PropOp33
 70
     1
102
RTVSPost2010Prop34
280
     0
102
RTVSPost2010PropOp34
 70
     1
102
RTVSPost2010Prop35
280
     0
102
RTVSPost2010PropOp35
 70
     1
102
RTVSPost2010Prop36
280
     0
102
RTVSPost2010PropOp36
 70
     1
102
RTVSPost2010Prop37
 90
       50
102
RTVSPost2010PropOp37
 70
     1
102
RTVSPost2010Prop38
140
0.0
102
RTVSPost2010PropOp38
 70
     1
102
RTVSPost2010Prop39
140
1.0
102
RTVSPost2010PropOp39
 70
     1
102
RTVSPost2010Prop40
 90
        0
102
RTVSPost2010PropOp40
 70
     1
102
RTVSPost2010Prop41ColorIndex
 90
       18
102
RTVSPost2010Prop41ColorRGB
 90
        0
102
RTVSPost2010PropOp41
 70
     1
102
RTVSPost2010Prop42
 90
       50
102
RTVSPost2010PropOp42
 70
     1
102
RTVSPost2010Prop43
 90
        3
102
RTVSPost2010PropOp43
 70
     1
102
RTVSPost2010Prop44ColorIndex
 90
        5
102
RTVSPost2010Prop44ColorRGB
 90
      255
102
RTVSPost2010PropOp44
 70
     1
102
RTVSPost2010Prop45
280
     0
102
RTVSPost2010PropOp45
 70
     1
102
RTVSPost2010Prop46
 90
       50
102
RTVSPost2010PropOp46
 70
     1
102
RTVSPost2010Prop47
 90
       50
102
RTVSPost2010PropOp47
 70
     1
102
RTVSPost2010Prop48
 90
       50
102
RTVSPost2010PropOp48
 70
     1
102
RTVSPost2010Prop49
280
     0
102
RTVSPost2010PropOp49
 70
     1
102
RTVSPost2010Prop50
 90
       50
102
RTVSPost2010PropOp50
 70
     1
102
RTVSPost2010Prop51ColorIndex
 90
      256
102
RTVSPost2010Prop51ColorRGB
 90
-16777216
102
RTVSPost2010PropOp51
 70
     0
102
RTVSPost2010Prop52
140
1.0
102
RTVSPost2010PropOp52
 70
     0
102
RTVSPost2010Prop53
 90
        2
102
RTVSPost2010PropOp53
 70
     1
102
RTVSPost2010Prop54
  1
strokes_ogs.tif
102
RTVSPost2010PropOp54
 70
     1
102
RTVSPost2010Prop55
280
     0
102
RTVSPost2010PropOp55
 70
     1
102
RTVSPost2010Prop56
140
1.0
102
RTVSPost2010PropOp56
 70
     1
102
RTVSPost2010Prop57
140
1.0
102
RTVSPost2010PropOp57
 70
     1
  0
XRECORD
  5
632
102
{ACAD_REACTORS
330
631
102
}
330
631
100
AcDbXrecord
280
     1
102
RTVSPropertyOp0
 70
     1
102
RTVSPropertyOp1
 70
     1
102
RTVSPropertyOp2
 70
     1
102
RTVSPropertyOp3
 70
     1
102
RTVSPropertyOp4
 70
     1
102
RTVSPropertyOp5
 70
     1
102
RTVSPropertyOp6
 70
     1
102
RTVSPropertyOp7
 70
     1
102
RTVSPropertyOp8
 70
     1
102
RTVSPropertyOp9
 70
     1
102
RTVSPropertyOp10
 70
     1
102
RTVSPropertyOp11
 70
     1
102
RTVSPropertyOp12
 70
     1
102
RTVSPropertyOp13
 70
     1
102
RTVSPropertyOp14
 70
     1
102
RTVSPropertyOp15
 70
     1
102
RTVSPropertyOp16
 70
     1
102
RTVSPropertyOp17
 70
     1
102
RTVSPropertyOp18
 70
     1
102
RTVSPropertyOp19
 70
     1
102
RTVSPropertyOp20
 70
     1
102
RTVSPropertyOp21
 70
     1
102
RTVSPropertyOp22
 70
     1
102
RTVSPropertyOp23
 70
     1
102
RTVSPropertyOp24
 70
     1
102
RTVSPropertyOp25
 70
     1
102
RTVSPropertyOp26
 70
     1
102
RTVSPropertyOp27
 70
     1
102
RTVSPropertyOp28
 70
     1
102
RTVSPropertyOp29
 70
     1
102
RTVSPropertyOp30
 70
     1
102
RTVSPropertyOp31
 70
     1
102
RTVSPropertyOp32
 70
     1
102
RTVSPropertyOp33
 70
     1
102
RTVSPropertyOp34
 70
     1
102
RTVSPropertyOp35
 70
     1
102
RTVSPropertyOp36
 70
     1
102
RTVSPropertyOp37
 70
     1
102
RTVSPropertyOp38
 70
     1
102
RTVSPropertyOp39
 70
     1
102
RTVSPropertyOp40
 70
     1
102
RTVSPropertyOp41
 70
     1
102
RTVSPropertyOp42
 70
     1
102
RTVSPropertyOp43
 70
     1
102
RTVSPropertyOp44
 70
     1
102
RTVSPropertyOp45
 70
     1
102
RTVSPropertyOp46
 70
     1
102
RTVSPropertyOp47
 70
     1
102
RTVSPropertyOp48
 70
     1
102
RTVSPropertyOp49
 70
     1
102
RTVSPropertyOp50
 70
     1
102
RTVSPropertyOp51
 70
     0
102
RTVSPropertyOp52
 70
     0
102
RTVSPropertyOp53
 70
     1
102
RTVSPropertyOp54
 70
     1
102
RTVSPropertyOp55
 70
     1
102
RTVSPropertyOp56
 70
     1
102
RTVSPropertyOp57
 70
     1
102
RTVSPost2010Prop28
280
     0
102
RTVSPost2010PropOp28
 70
     1
102
RTVSPost2010Prop29
280
     1
102
RTVSPost2010PropOp29
 70
     1
102
RTVSPost2010Prop30
280
     1
102
RTVSPost2010PropOp30
 70
     1
102
RTVSPost2010Prop31
280
     0
102
RTVSPost2010PropOp31
 70
     1
102
RTVSPost2010Prop32
280
     0
102
RTVSPost2010PropOp32
 70
     1
102
RTVSPost2010Prop33
280
     0
102
RTVSPost2010PropOp33
 70
     1
102
RTVSPost2010Prop34
280
     0
102
RTVSPost2010PropOp34
 70
     1
102
RTVSPost2010Prop35
280
     0
102
RTVSPost2010PropOp35
 70
     1
102
RTVSPost2010Prop36
280
     0
102
RTVSPost2010PropOp36
 70
     1
102
RTVSPost2010Prop37
 90
       50
102
RTVSPost2010PropOp37
 70
     1
102
RTVSPost2010Prop38
140
0.0
102
RTVSPost2010PropOp38
 70
     1
102
RTVSPost2010Prop39
140
1.0
102
RTVSPost2010PropOp39
 70
     1
102
RTVSPost2010Prop40
 90
        0
102
RTVSPost2010PropOp40
 70
     1
102
RTVSPost2010Prop41ColorIndex
 90
       18
102
RTVSPost2010Prop41ColorRGB
 90
        0
102
RTVSPost2010PropOp41
 70
     1
102
RTVSPost2010Prop42
 90
       50
102
RTVSPost2010PropOp42
 70
     1
102
RTVSPost2010Prop43
 90
        3
102
RTVSPost2010PropOp43
 70
     1
102
RTVSPost2010Prop44ColorIndex
 90
        5
102
RTVSPost2010Prop44ColorRGB
 90
      255
102
RTVSPost2010PropOp44
 70
     1
102
RTVSPost2010Prop45
280
     0
102
RTVSPost2010PropOp45
 70
     1
102
RTVSPost2010Prop46
 90
       50
102
RTVSPost2010PropOp46
 70
     1
102
RTVSPost2010Prop47
 90
       50
102
RTVSPost2010PropOp47
 70
     1
102
RTVSPost2010Prop48
 90
       50
102
RTVSPost2010PropOp48
 70
     1
102
RTVSPost2010Prop49
280
     0
102
RTVSPost2010PropOp49
 70
     1
102
RTVSPost2010Prop50
 90
       50
102
RTVSPost2010PropOp50
 70
     1
102
RTVSPost2010Prop51ColorIndex
 90
      256
102
RTVSPost2010Prop51ColorRGB
 90
-16777216
102
RTVSPost2010PropOp51
 70
     0
102
RTVSPost2010Prop52
140
1.0
102
RTVSPost2010PropOp52
 70
     0
102
RTVSPost2010Prop53
 90
        2
102
RTVSPost2010PropOp53
 70
     1
102
RTVSPost2010Prop54
  1
strokes_ogs.tif
102
RTVSPost2010PropOp54
 70
     1
102
RTVSPost2010Prop55
280
     0
102
RTVSPost2010PropOp55
 70
     1
102
RTVSPost2010Prop56
140
1.0
102
RTVSPost2010PropOp56
 70
     1
102
RTVSPost2010Prop57
140
1.0
102
RTVSPost2010PropOp57
 70
     1
  0
XRECORD
  5
630
102
{ACAD_REACTORS
330
62F
102
}
330
62F
100
AcDbXrecord
280
     1
102
RTVSPropertyOp0
 70
     1
102
RTVSPropertyOp1
 70
     1
102
RTVSPropertyOp2
 70
     1
102
RTVSPropertyOp3
 70
     1
102
RTVSPropertyOp4
 70
     1
102
RTVSPropertyOp5
 70
     1
102
RTVSPropertyOp6
 70
     1
102
RTVSPropertyOp7
 70
     1
102
RTVSPropertyOp8
 70
     1
102
RTVSPropertyOp9
 70
     1
102
RTVSPropertyOp10
 70
     1
102
RTVSPropertyOp11
 70
     1
102
RTVSPropertyOp12
 70
     1
102
RTVSPropertyOp13
 70
     1
102
RTVSPropertyOp14
 70
     1
102
RTVSPropertyOp15
 70
     1
102
RTVSPropertyOp16
 70
     1
102
RTVSPropertyOp17
 70
     1
102
RTVSPropertyOp18
 70
     1
102
RTVSPropertyOp19
 70
     1
102
RTVSPropertyOp20
 70
     1
102
RTVSPropertyOp21
 70
     1
102
RTVSPropertyOp22
 70
     1
102
RTVSPropertyOp23
 70
     1
102
RTVSPropertyOp24
 70
     1
102
RTVSPropertyOp25
 70
     1
102
RTVSPropertyOp26
 70
     1
102
RTVSPropertyOp27
 70
     1
102
RTVSPropertyOp28
 70
     1
102
RTVSPropertyOp29
 70
     1
102
RTVSPropertyOp30
 70
     1
102
RTVSPropertyOp31
 70
     1
102
RTVSPropertyOp32
 70
     1
102
RTVSPropertyOp33
 70
     1
102
RTVSPropertyOp34
 70
     1
102
RTVSPropertyOp35
 70
     1
102
RTVSPropertyOp36
 70
     1
102
RTVSPropertyOp37
 70
     1
102
RTVSPropertyOp38
 70
     1
102
RTVSPropertyOp39
 70
     1
102
RTVSPropertyOp40
 70
     1
102
RTVSPropertyOp41
 70
     1
102
RTVSPropertyOp42
 70
     1
102
RTVSPropertyOp43
 70
     1
102
RTVSPropertyOp44
 70
     1
102
RTVSPropertyOp45
 70
     1
102
RTVSPropertyOp46
 70
     1
102
RTVSPropertyOp47
 70
     1
102
RTVSPropertyOp48
 70
     1
102
RTVSPropertyOp49
 70
     1
102
RTVSPropertyOp50
 70
     1
102
RTVSPropertyOp51
 70
     0
102
RTVSPropertyOp52
 70
     0
102
RTVSPropertyOp53
 70
     1
102
RTVSPropertyOp54
 70
     1
102
RTVSPropertyOp55
 70
     1
102
RTVSPropertyOp56
 70
     1
102
RTVSPropertyOp57
 70
     1
102
RTVSPost2010Prop28
280
     0
102
RTVSPost2010PropOp28
 70
     1
102
RTVSPost2010Prop29
280
     1
102
RTVSPost2010PropOp29
 70
     1
102
RTVSPost2010Prop30
280
     1
102
RTVSPost2010PropOp30
 70
     1
102
RTVSPost2010Prop31
280
     0
102
RTVSPost2010PropOp31
 70
     1
102
RTVSPost2010Prop32
280
     0
102
RTVSPost2010PropOp32
 70
     1
102
RTVSPost2010Prop33
280
     0
102
RTVSPost2010PropOp33
 70
     1
102
RTVSPost2010Prop34
280
     0
102
RTVSPost2010PropOp34
 70
     1
102
RTVSPost2010Prop35
280
     0
102
RTVSPost2010PropOp35
 70
     1
102
RTVSPost2010Prop36
280
     0
102
RTVSPost2010PropOp36
 70
     1
102
RTVSPost2010Prop37
 90
       50
102
RTVSPost2010PropOp37
 70
     1
102
RTVSPost2010Prop38
140
0.0
102
RTVSPost2010PropOp38
 70
     1
102
RTVSPost2010Prop39
140
1.0
102
RTVSPost2010PropOp39
 70
     1
102
RTVSPost2010Prop40
 90
        0
102
RTVSPost2010PropOp40
 70
     1
102
RTVSPost2010Prop41ColorIndex
 90
       18
102
RTVSPost2010Prop41ColorRGB
 90
        0
102
RTVSPost2010PropOp41
 70
     1
102
RTVSPost2010Prop42
 90
       50
102
RTVSPost2010PropOp42
 70
     1
102
RTVSPost2010Prop43
 90
        3
102
RTVSPost2010PropOp43
 70
     1
102
RTVSPost2010Prop44ColorIndex
 90
        5
102
RTVSPost2010Prop44ColorRGB
 90
      255
102
RTVSPost2010PropOp44
 70
     1
102
RTVSPost2010Prop45
280
     0
102
RTVSPost2010PropOp45
 70
     1
102
RTVSPost2010Prop46
 90
       50
102
RTVSPost2010PropOp46
 70
     1
102
RTVSPost2010Prop47
 90
       50
102
RTVSPost2010PropOp47
 70
     1
102
RTVSPost2010Prop48
 90
       50
102
RTVSPost2010PropOp48
 70
     1
102
RTVSPost2010Prop49
280
     0
102
RTVSPost2010PropOp49
 70
     1
102
RTVSPost2010Prop50
 90
       50
102
RTVSPost2010PropOp50
 70
     1
102
RTVSPost2010Prop51ColorIndex
 90
      256
102
RTVSPost2010Prop51ColorRGB
 90
-16777216
102
RTVSPost2010PropOp51
 70
     0
102
RTVSPost2010Prop52
140
1.0
102
RTVSPost2010PropOp52
 70
     0
102
RTVSPost2010Prop53
 90
        2
102
RTVSPost2010PropOp53
 70
     1
102
RTVSPost2010Prop54
  1
strokes_ogs.tif
102
RTVSPost2010PropOp54
 70
     1
102
RTVSPost2010Prop55
280
     0
102
RTVSPost2010PropOp55
 70
     1
102
RTVSPost2010Prop56
140
1.0
102
RTVSPost2010PropOp56
 70
     1
102
RTVSPost2010Prop57
140
1.0
102
RTVSPost2010PropOp57
 70
     1
  0
XRECORD
  5
62A
102
{ACAD_REACTORS
330
629
102
}
330
629
100
AcDbXrecord
280
     1
102
RTVSPropertyOp0
 70
     1
102
RTVSPropertyOp1
 70
     1
102
RTVSPropertyOp2
 70
     1
102
RTVSPropertyOp3
 70
     1
102
RTVSPropertyOp4
 70
     1
102
RTVSPropertyOp5
 70
     1
102
RTVSPropertyOp6
 70
     1
102
RTVSPropertyOp7
 70
     1
102
RTVSPropertyOp8
 70
     1
102
RTVSPropertyOp9
 70
     1
102
RTVSPropertyOp10
 70
     1
102
RTVSPropertyOp11
 70
     1
102
RTVSPropertyOp12
 70
     1
102
RTVSPropertyOp13
 70
     1
102
RTVSPropertyOp14
 70
     1
102
RTVSPropertyOp15
 70
     1
102
RTVSPropertyOp16
 70
     1
102
RTVSPropertyOp17
 70
     1
102
RTVSPropertyOp18
 70
     1
102
RTVSPropertyOp19
 70
     1
102
RTVSPropertyOp20
 70
     1
102
RTVSPropertyOp21
 70
     1
102
RTVSPropertyOp22
 70
     1
102
RTVSPropertyOp23
 70
     1
102
RTVSPropertyOp24
 70
     1
102
RTVSPropertyOp25
 70
     1
102
RTVSPropertyOp26
 70
     1
102
RTVSPropertyOp27
 70
     1
102
RTVSPropertyOp28
 70
     1
102
RTVSPropertyOp29
 70
     1
102
RTVSPropertyOp30
 70
     1
102
RTVSPropertyOp31
 70
     1
102
RTVSPropertyOp32
 70
     1
102
RTVSPropertyOp33
 70
     1
102
RTVSPropertyOp34
 70
     1
102
RTVSPropertyOp35
 70
     1
102
RTVSPropertyOp36
 70
     1
102
RTVSPropertyOp37
 70
     1
102
RTVSPropertyOp38
 70
     1
102
RTVSPropertyOp39
 70
     1
102
RTVSPropertyOp40
 70
     1
102
RTVSPropertyOp41
 70
     1
102
RTVSPropertyOp42
 70
     1
102
RTVSPropertyOp43
 70
     1
102
RTVSPropertyOp44
 70
     1
102
RTVSPropertyOp45
 70
     1
102
RTVSPropertyOp46
 70
     1
102
RTVSPropertyOp47
 70
     1
102
RTVSPropertyOp48
 70
     1
102
RTVSPropertyOp49
 70
     1
102
RTVSPropertyOp50
 70
     1
102
RTVSPropertyOp51
 70
     0
102
RTVSPropertyOp52
 70
     0
102
RTVSPropertyOp53
 70
     1
102
RTVSPropertyOp54
 70
     1
102
RTVSPropertyOp55
 70
     1
102
RTVSPropertyOp56
 70
     1
102
RTVSPropertyOp57
 70
     1
102
RTVSPost2010Prop28
280
     0
102
RTVSPost2010PropOp28
 70
     1
102
RTVSPost2010Prop29
280
     1
102
RTVSPost2010PropOp29
 70
     1
102
RTVSPost2010Prop30
280
     1
102
RTVSPost2010PropOp30
 70
     1
102
RTVSPost2010Prop31
280
     0
102
RTVSPost2010PropOp31
 70
     1
102
RTVSPost2010Prop32
280
     0
102
RTVSPost2010PropOp32
 70
     1
102
RTVSPost2010Prop33
280
     0
102
RTVSPost2010PropOp33
 70
     1
102
RTVSPost2010Prop34
280
     0
102
RTVSPost2010PropOp34
 70
     1
102
RTVSPost2010Prop35
280
     0
102
RTVSPost2010PropOp35
 70
     1
102
RTVSPost2010Prop36
280
     0
102
RTVSPost2010PropOp36
 70
     1
102
RTVSPost2010Prop37
 90
       50
102
RTVSPost2010PropOp37
 70
     1
102
RTVSPost2010Prop38
140
0.0
102
RTVSPost2010PropOp38
 70
     1
102
RTVSPost2010Prop39
140
1.0
102
RTVSPost2010PropOp39
 70
     1
102
RTVSPost2010Prop40
 90
        0
102
RTVSPost2010PropOp40
 70
     1
102
RTVSPost2010Prop41ColorIndex
 90
       18
102
RTVSPost2010Prop41ColorRGB
 90
        0
102
RTVSPost2010PropOp41
 70
     1
102
RTVSPost2010Prop42
 90
       50
102
RTVSPost2010PropOp42
 70
     1
102
RTVSPost2010Prop43
 90
        3
102
RTVSPost2010PropOp43
 70
     1
102
RTVSPost2010Prop44ColorIndex
 90
        5
102
RTVSPost2010Prop44ColorRGB
 90
      255
102
RTVSPost2010PropOp44
 70
     1
102
RTVSPost2010Prop45
280
     0
102
RTVSPost2010PropOp45
 70
     1
102
RTVSPost2010Prop46
 90
       50
102
RTVSPost2010PropOp46
 70
     1
102
RTVSPost2010Prop47
 90
       50
102
RTVSPost2010PropOp47
 70
     1
102
RTVSPost2010Prop48
 90
       50
102
RTVSPost2010PropOp48
 70
     1
102
RTVSPost2010Prop49
280
     0
102
RTVSPost2010PropOp49
 70
     1
102
RTVSPost2010Prop50
 90
       50
102
RTVSPost2010PropOp50
 70
     1
102
RTVSPost2010Prop51ColorIndex
 90
      256
102
RTVSPost2010Prop51ColorRGB
 90
-16777216
102
RTVSPost2010PropOp51
 70
     0
102
RTVSPost2010Prop52
140
1.0
102
RTVSPost2010PropOp52
 70
     0
102
RTVSPost2010Prop53
 90
        2
102
RTVSPost2010PropOp53
 70
     1
102
RTVSPost2010Prop54
  1
strokes_ogs.tif
102
RTVSPost2010PropOp54
 70
     1
102
RTVSPost2010Prop55
280
     0
102
RTVSPost2010PropOp55
 70
     1
102
RTVSPost2010Prop56
140
1.0
102
RTVSPost2010PropOp56
 70
     1
102
RTVSPost2010Prop57
140
1.0
102
RTVSPost2010PropOp57
 70
     1
  0
XRECORD
  5
62C
102
{ACAD_REACTORS
330
62B
102
}
330
62B
100
AcDbXrecord
280
     1
102
RTVSPropertyOp0
 70
     1
102
RTVSPropertyOp1
 70
     1
102
RTVSPropertyOp2
 70
     1
102
RTVSPropertyOp3
 70
     1
102
RTVSPropertyOp4
 70
     1
102
RTVSPropertyOp5
 70
     1
102
RTVSPropertyOp6
 70
     1
102
RTVSPropertyOp7
 70
     1
102
RTVSPropertyOp8
 70
     1
102
RTVSPropertyOp9
 70
     1
102
RTVSPropertyOp10
 70
     1
102
RTVSPropertyOp11
 70
     1
102
RTVSPropertyOp12
 70
     1
102
RTVSPropertyOp13
 70
     1
102
RTVSPropertyOp14
 70
     1
102
RTVSPropertyOp15
 70
     1
102
RTVSPropertyOp16
 70
     1
102
RTVSPropertyOp17
 70
     1
102
RTVSPropertyOp18
 70
     1
102
RTVSPropertyOp19
 70
     1
102
RTVSPropertyOp20
 70
     1
102
RTVSPropertyOp21
 70
     1
102
RTVSPropertyOp22
 70
     1
102
RTVSPropertyOp23
 70
     1
102
RTVSPropertyOp24
 70
     1
102
RTVSPropertyOp25
 70
     1
102
RTVSPropertyOp26
 70
     1
102
RTVSPropertyOp27
 70
     1
102
RTVSPropertyOp28
 70
     1
102
RTVSPropertyOp29
 70
     1
102
RTVSPropertyOp30
 70
     1
102
RTVSPropertyOp31
 70
     1
102
RTVSPropertyOp32
 70
     1
102
RTVSPropertyOp33
 70
     1
102
RTVSPropertyOp34
 70
     1
102
RTVSPropertyOp35
 70
     1
102
RTVSPropertyOp36
 70
     1
102
RTVSPropertyOp37
 70
     1
102
RTVSPropertyOp38
 70
     1
102
RTVSPropertyOp39
 70
     1
102
RTVSPropertyOp40
 70
     1
102
RTVSPropertyOp41
 70
     1
102
RTVSPropertyOp42
 70
     1
102
RTVSPropertyOp43
 70
     1
102
RTVSPropertyOp44
 70
     1
102
RTVSPropertyOp45
 70
     1
102
RTVSPropertyOp46
 70
     1
102
RTVSPropertyOp47
 70
     1
102
RTVSPropertyOp48
 70
     1
102
RTVSPropertyOp49
 70
     1
102
RTVSPropertyOp50
 70
     1
102
RTVSPropertyOp51
 70
     0
102
RTVSPropertyOp52
 70
     0
102
RTVSPropertyOp53
 70
     1
102
RTVSPropertyOp54
 70
     1
102
RTVSPropertyOp55
 70
     1
102
RTVSPropertyOp56
 70
     1
102
RTVSPropertyOp57
 70
     1
102
RTVSPost2010Prop28
280
     0
102
RTVSPost2010PropOp28
 70
     1
102
RTVSPost2010Prop29
280
     1
102
RTVSPost2010PropOp29
 70
     1
102
RTVSPost2010Prop30
280
     1
102
RTVSPost2010PropOp30
 70
     1
102
RTVSPost2010Prop31
280
     0
102
RTVSPost2010PropOp31
 70
     1
102
RTVSPost2010Prop32
280
     0
102
RTVSPost2010PropOp32
 70
     1
102
RTVSPost2010Prop33
280
     0
102
RTVSPost2010PropOp33
 70
     1
102
RTVSPost2010Prop34
280
     0
102
RTVSPost2010PropOp34
 70
     1
102
RTVSPost2010Prop35
280
     0
102
RTVSPost2010PropOp35
 70
     1
102
RTVSPost2010Prop36
280
     0
102
RTVSPost2010PropOp36
 70
     1
102
RTVSPost2010Prop37
 90
       50
102
RTVSPost2010PropOp37
 70
     1
102
RTVSPost2010Prop38
140
0.0
102
RTVSPost2010PropOp38
 70
     1
102
RTVSPost2010Prop39
140
1.0
102
RTVSPost2010PropOp39
 70
     1
102
RTVSPost2010Prop40
 90
        0
102
RTVSPost2010PropOp40
 70
     1
102
RTVSPost2010Prop41ColorIndex
 90
       18
102
RTVSPost2010Prop41ColorRGB
 90
        0
102
RTVSPost2010PropOp41
 70
     1
102
RTVSPost2010Prop42
 90
       50
102
RTVSPost2010PropOp42
 70
     1
102
RTVSPost2010Prop43
 90
        3
102
RTVSPost2010PropOp43
 70
     1
102
RTVSPost2010Prop44ColorIndex
 90
        5
102
RTVSPost2010Prop44ColorRGB
 90
      255
102
RTVSPost2010PropOp44
 70
     1
102
RTVSPost2010Prop45
280
     0
102
RTVSPost2010PropOp45
 70
     1
102
RTVSPost2010Prop46
 90
       50
102
RTVSPost2010PropOp46
 70
     1
102
RTVSPost2010Prop47
 90
       50
102
RTVSPost2010PropOp47
 70
     1
102
RTVSPost2010Prop48
 90
       50
102
RTVSPost2010PropOp48
 70
     1
102
RTVSPost2010Prop49
280
     0
102
RTVSPost2010PropOp49
 70
     1
102
RTVSPost2010Prop50
 90
       50
102
RTVSPost2010PropOp50
 70
     1
102
RTVSPost2010Prop51ColorIndex
 90
      256
102
RTVSPost2010Prop51ColorRGB
 90
-16777216
102
RTVSPost2010PropOp51
 70
     0
102
RTVSPost2010Prop52
140
1.0
102
RTVSPost2010PropOp52
 70
     0
102
RTVSPost2010Prop53
 90
        2
102
RTVSPost2010PropOp53
 70
     1
102
RTVSPost2010Prop54
  1
strokes_ogs.tif
102
RTVSPost2010PropOp54
 70
     1
102
RTVSPost2010Prop55
280
     0
102
RTVSPost2010PropOp55
 70
     1
102
RTVSPost2010Prop56
140
1.0
102
RTVSPost2010PropOp56
 70
     1
102
RTVSPost2010Prop57
140
1.0
102
RTVSPost2010PropOp57
 70
     1
  0
XRECORD
  5
61C
102
{ACAD_REACTORS
330
61B
102
}
330
61B
100
AcDbXrecord
280
     1
102
RTVSPropertyOp0
 70
     1
102
RTVSPropertyOp1
 70
     1
102
RTVSPropertyOp2
 70
     1
102
RTVSPropertyOp3
 70
     1
102
RTVSPropertyOp4
 70
     1
102
RTVSPropertyOp5
 70
     1
102
RTVSPropertyOp6
 70
     1
102
RTVSPropertyOp7
 70
     1
102
RTVSPropertyOp8
 70
     1
102
RTVSPropertyOp9
 70
     1
102
RTVSPropertyOp10
 70
     1
102
RTVSPropertyOp11
 70
     1
102
RTVSPropertyOp12
 70
     1
102
RTVSPropertyOp13
 70
     1
102
RTVSPropertyOp14
 70
     1
102
RTVSPropertyOp15
 70
     1
102
RTVSPropertyOp16
 70
     1
102
RTVSPropertyOp17
 70
     1
102
RTVSPropertyOp18
 70
     1
102
RTVSPropertyOp19
 70
     1
102
RTVSPropertyOp20
 70
     1
102
RTVSPropertyOp21
 70
     1
102
RTVSPropertyOp22
 70
     1
102
RTVSPropertyOp23
 70
     1
102
RTVSPropertyOp24
 70
     1
102
RTVSPropertyOp25
 70
     1
102
RTVSPropertyOp26
 70
     1
102
RTVSPropertyOp27
 70
     1
102
RTVSPropertyOp28
 70
     1
102
RTVSPropertyOp29
 70
     1
102
RTVSPropertyOp30
 70
     1
102
RTVSPropertyOp31
 70
     1
102
RTVSPropertyOp32
 70
     1
102
RTVSPropertyOp33
 70
     1
102
RTVSPropertyOp34
 70
     1
102
RTVSPropertyOp35
 70
     1
102
RTVSPropertyOp36
 70
     1
102
RTVSPropertyOp37
 70
     1
102
RTVSPropertyOp38
 70
     1
102
RTVSPropertyOp39
 70
     1
102
RTVSPropertyOp40
 70
     1
102
RTVSPropertyOp41
 70
     1
102
RTVSPropertyOp42
 70
     1
102
RTVSPropertyOp43
 70
     1
102
RTVSPropertyOp44
 70
     1
102
RTVSPropertyOp45
 70
     1
102
RTVSPropertyOp46
 70
     1
102
RTVSPropertyOp47
 70
     1
102
RTVSPropertyOp48
 70
     1
102
RTVSPropertyOp49
 70
     1
102
RTVSPropertyOp50
 70
     1
102
RTVSPropertyOp51
 70
     0
102
RTVSPropertyOp52
 70
     0
102
RTVSPropertyOp53
 70
     1
102
RTVSPropertyOp54
 70
     1
102
RTVSPropertyOp55
 70
     1
102
RTVSPropertyOp56
 70
     1
102
RTVSPropertyOp57
 70
     1
102
RTVSPost2010Prop28
280
     0
102
RTVSPost2010PropOp28
 70
     1
102
RTVSPost2010Prop29
280
     1
102
RTVSPost2010PropOp29
 70
     1
102
RTVSPost2010Prop30
280
     1
102
RTVSPost2010PropOp30
 70
     1
102
RTVSPost2010Prop31
280
     0
102
RTVSPost2010PropOp31
 70
     1
102
RTVSPost2010Prop32
280
     0
102
RTVSPost2010PropOp32
 70
     1
102
RTVSPost2010Prop33
280
     0
102
RTVSPost2010PropOp33
 70
     1
102
RTVSPost2010Prop34
280
     0
102
RTVSPost2010PropOp34
 70
     1
102
RTVSPost2010Prop35
280
     0
102
RTVSPost2010PropOp35
 70
     1
102
RTVSPost2010Prop36
280
     0
102
RTVSPost2010PropOp36
 70
     1
102
RTVSPost2010Prop37
 90
       50
102
RTVSPost2010PropOp37
 70
     1
102
RTVSPost2010Prop38
140
0.0
102
RTVSPost2010PropOp38
 70
     1
102
RTVSPost2010Prop39
140
1.0
102
RTVSPost2010PropOp39
 70
     1
102
RTVSPost2010Prop40
 90
        0
102
RTVSPost2010PropOp40
 70
     1
102
RTVSPost2010Prop41ColorIndex
 90
       18
102
RTVSPost2010Prop41ColorRGB
 90
        0
102
RTVSPost2010PropOp41
 70
     1
102
RTVSPost2010Prop42
 90
       50
102
RTVSPost2010PropOp42
 70
     1
102
RTVSPost2010Prop43
 90
        3
102
RTVSPost2010PropOp43
 70
     1
102
RTVSPost2010Prop44ColorIndex
 90
        5
102
RTVSPost2010Prop44ColorRGB
 90
      255
102
RTVSPost2010PropOp44
 70
     1
102
RTVSPost2010Prop45
280
     0
102
RTVSPost2010PropOp45
 70
     1
102
RTVSPost2010Prop46
 90
       50
102
RTVSPost2010PropOp46
 70
     1
102
RTVSPost2010Prop47
 90
       50
102
RTVSPost2010PropOp47
 70
     1
102
RTVSPost2010Prop48
 90
       50
102
RTVSPost2010PropOp48
 70
     1
102
RTVSPost2010Prop49
280
     0
102
RTVSPost2010PropOp49
 70
     1
102
RTVSPost2010Prop50
 90
       50
102
RTVSPost2010PropOp50
 70
     1
102
RTVSPost2010Prop51ColorIndex
 90
      256
102
RTVSPost2010Prop51ColorRGB
 90
-16777216
102
RTVSPost2010PropOp51
 70
     0
102
RTVSPost2010Prop52
140
1.0
102
RTVSPost2010PropOp52
 70
     0
102
RTVSPost2010Prop53
 90
        2
102
RTVSPost2010PropOp53
 70
     1
102
RTVSPost2010Prop54
  1
strokes_ogs.tif
102
RTVSPost2010PropOp54
 70
     1
102
RTVSPost2010Prop55
280
     0
102
RTVSPost2010PropOp55
 70
     1
102
RTVSPost2010Prop56
140
1.0
102
RTVSPost2010PropOp56
 70
     1
102
RTVSPost2010Prop57
140
1.0
102
RTVSPost2010PropOp57
 70
     1
  0
XRECORD
  5
60E
102
{ACAD_REACTORS
330
60D
102
}
330
60D
100
AcDbXrecord
280
     1
102
RTVSPropertyOp0
 70
     1
102
RTVSPropertyOp1
 70
     1
102
RTVSPropertyOp2
 70
     1
102
RTVSPropertyOp3
 70
     1
102
RTVSPropertyOp4
 70
     1
102
RTVSPropertyOp5
 70
     1
102
RTVSPropertyOp6
 70
     1
102
RTVSPropertyOp7
 70
     1
102
RTVSPropertyOp8
 70
     1
102
RTVSPropertyOp9
 70
     1
102
RTVSPropertyOp10
 70
     1
102
RTVSPropertyOp11
 70
     1
102
RTVSPropertyOp12
 70
     1
102
RTVSPropertyOp13
 70
     1
102
RTVSPropertyOp14
 70
     1
102
RTVSPropertyOp15
 70
     1
102
RTVSPropertyOp16
 70
     1
102
RTVSPropertyOp17
 70
     1
102
RTVSPropertyOp18
 70
     1
102
RTVSPropertyOp19
 70
     1
102
RTVSPropertyOp20
 70
     1
102
RTVSPropertyOp21
 70
     1
102
RTVSPropertyOp22
 70
     1
102
RTVSPropertyOp23
 70
     1
102
RTVSPropertyOp24
 70
     1
102
RTVSPropertyOp25
 70
     1
102
RTVSPropertyOp26
 70
     1
102
RTVSPropertyOp27
 70
     1
102
RTVSPropertyOp28
 70
     1
102
RTVSPropertyOp29
 70
     1
102
RTVSPropertyOp30
 70
     1
102
RTVSPropertyOp31
 70
     1
102
RTVSPropertyOp32
 70
     1
102
RTVSPropertyOp33
 70
     1
102
RTVSPropertyOp34
 70
     1
102
RTVSPropertyOp35
 70
     1
102
RTVSPropertyOp36
 70
     1
102
RTVSPropertyOp37
 70
     1
102
RTVSPropertyOp38
 70
     1
102
RTVSPropertyOp39
 70
     1
102
RTVSPropertyOp40
 70
     1
102
RTVSPropertyOp41
 70
     1
102
RTVSPropertyOp42
 70
     1
102
RTVSPropertyOp43
 70
     1
102
RTVSPropertyOp44
 70
     1
102
RTVSPropertyOp45
 70
     1
102
RTVSPropertyOp46
 70
     1
102
RTVSPropertyOp47
 70
     1
102
RTVSPropertyOp48
 70
     1
102
RTVSPropertyOp49
 70
     1
102
RTVSPropertyOp50
 70
     1
102
RTVSPropertyOp51
 70
     0
102
RTVSPropertyOp52
 70
     0
102
RTVSPropertyOp53
 70
     1
102
RTVSPropertyOp54
 70
     1
102
RTVSPropertyOp55
 70
     1
102
RTVSPropertyOp56
 70
     1
102
RTVSPropertyOp57
 70
     1
102
RTVSPost2010Prop28
280
     0
102
RTVSPost2010PropOp28
 70
     1
102
RTVSPost2010Prop29
280
     1
102
RTVSPost2010PropOp29
 70
     1
102
RTVSPost2010Prop30
280
     1
102
RTVSPost2010PropOp30
 70
     1
102
RTVSPost2010Prop31
280
     0
102
RTVSPost2010PropOp31
 70
     1
102
RTVSPost2010Prop32
280
     0
102
RTVSPost2010PropOp32
 70
     1
102
RTVSPost2010Prop33
280
     0
102
RTVSPost2010PropOp33
 70
     1
102
RTVSPost2010Prop34
280
     0
102
RTVSPost2010PropOp34
 70
     1
102
RTVSPost2010Prop35
280
     0
102
RTVSPost2010PropOp35
 70
     1
102
RTVSPost2010Prop36
280
     0
102
RTVSPost2010PropOp36
 70
     1
102
RTVSPost2010Prop37
 90
       50
102
RTVSPost2010PropOp37
 70
     1
102
RTVSPost2010Prop38
140
0.0
102
RTVSPost2010PropOp38
 70
     1
102
RTVSPost2010Prop39
140
1.0
102
RTVSPost2010PropOp39
 70
     1
102
RTVSPost2010Prop40
 90
        0
102
RTVSPost2010PropOp40
 70
     1
102
RTVSPost2010Prop41ColorIndex
 90
       18
102
RTVSPost2010Prop41ColorRGB
 90
        0
102
RTVSPost2010PropOp41
 70
     1
102
RTVSPost2010Prop42
 90
       50
102
RTVSPost2010PropOp42
 70
     1
102
RTVSPost2010Prop43
 90
        3
102
RTVSPost2010PropOp43
 70
     1
102
RTVSPost2010Prop44ColorIndex
 90
        5
102
RTVSPost2010Prop44ColorRGB
 90
      255
102
RTVSPost2010PropOp44
 70
     1
102
RTVSPost2010Prop45
280
     0
102
RTVSPost2010PropOp45
 70
     1
102
RTVSPost2010Prop46
 90
       50
102
RTVSPost2010PropOp46
 70
     1
102
RTVSPost2010Prop47
 90
       50
102
RTVSPost2010PropOp47
 70
     1
102
RTVSPost2010Prop48
 90
       50
102
RTVSPost2010PropOp48
 70
     1
102
RTVSPost2010Prop49
280
     0
102
RTVSPost2010PropOp49
 70
     1
102
RTVSPost2010Prop50
 90
       50
102
RTVSPost2010PropOp50
 70
     1
102
RTVSPost2010Prop51ColorIndex
 90
      256
102
RTVSPost2010Prop51ColorRGB
 90
-16777216
102
RTVSPost2010PropOp51
 70
     0
102
RTVSPost2010Prop52
140
1.0
102
RTVSPost2010PropOp52
 70
     0
102
RTVSPost2010Prop53
 90
        2
102
RTVSPost2010PropOp53
 70
     1
102
RTVSPost2010Prop54
  1
strokes_ogs.tif
102
RTVSPost2010PropOp54
 70
     1
102
RTVSPost2010Prop55
280
     0
102
RTVSPost2010PropOp55
 70
     1
102
RTVSPost2010Prop56
140
1.0
102
RTVSPost2010PropOp56
 70
     1
102
RTVSPost2010Prop57
140
1.0
102
RTVSPost2010PropOp57
 70
     1
  0
XRECORD
  5
62E
102
{ACAD_REACTORS
330
62D
102
}
330
62D
100
AcDbXrecord
280
     1
102
RTVSPropertyOp0
 70
     1
102
RTVSPropertyOp1
 70
     1
102
RTVSPropertyOp2
 70
     1
102
RTVSPropertyOp3
 70
     1
102
RTVSPropertyOp4
 70
     1
102
RTVSPropertyOp5
 70
     1
102
RTVSPropertyOp6
 70
     1
102
RTVSPropertyOp7
 70
     1
102
RTVSPropertyOp8
 70
     1
102
RTVSPropertyOp9
 70
     1
102
RTVSPropertyOp10
 70
     1
102
RTVSPropertyOp11
 70
     1
102
RTVSPropertyOp12
 70
     1
102
RTVSPropertyOp13
 70
     1
102
RTVSPropertyOp14
 70
     1
102
RTVSPropertyOp15
 70
     1
102
RTVSPropertyOp16
 70
     1
102
RTVSPropertyOp17
 70
     1
102
RTVSPropertyOp18
 70
     1
102
RTVSPropertyOp19
 70
     1
102
RTVSPropertyOp20
 70
     1
102
RTVSPropertyOp21
 70
     1
102
RTVSPropertyOp22
 70
     1
102
RTVSPropertyOp23
 70
     1
102
RTVSPropertyOp24
 70
     1
102
RTVSPropertyOp25
 70
     1
102
RTVSPropertyOp26
 70
     1
102
RTVSPropertyOp27
 70
     1
102
RTVSPropertyOp28
 70
     1
102
RTVSPropertyOp29
 70
     1
102
RTVSPropertyOp30
 70
     1
102
RTVSPropertyOp31
 70
     1
102
RTVSPropertyOp32
 70
     1
102
RTVSPropertyOp33
 70
     1
102
RTVSPropertyOp34
 70
     1
102
RTVSPropertyOp35
 70
     1
102
RTVSPropertyOp36
 70
     1
102
RTVSPropertyOp37
 70
     1
102
RTVSPropertyOp38
 70
     1
102
RTVSPropertyOp39
 70
     1
102
RTVSPropertyOp40
 70
     1
102
RTVSPropertyOp41
 70
     1
102
RTVSPropertyOp42
 70
     1
102
RTVSPropertyOp43
 70
     1
102
RTVSPropertyOp44
 70
     1
102
RTVSPropertyOp45
 70
     1
102
RTVSPropertyOp46
 70
     1
102
RTVSPropertyOp47
 70
     1
102
RTVSPropertyOp48
 70
     1
102
RTVSPropertyOp49
 70
     1
102
RTVSPropertyOp50
 70
     1
102
RTVSPropertyOp51
 70
     0
102
RTVSPropertyOp52
 70
     0
102
RTVSPropertyOp53
 70
     1
102
RTVSPropertyOp54
 70
     1
102
RTVSPropertyOp55
 70
     1
102
RTVSPropertyOp56
 70
     1
102
RTVSPropertyOp57
 70
     1
102
RTVSPost2010Prop28
280
     0
102
RTVSPost2010PropOp28
 70
     1
102
RTVSPost2010Prop29
280
     1
102
RTVSPost2010PropOp29
 70
     1
102
RTVSPost2010Prop30
280
     1
102
RTVSPost2010PropOp30
 70
     1
102
RTVSPost2010Prop31
280
     0
102
RTVSPost2010PropOp31
 70
     1
102
RTVSPost2010Prop32
280
     0
102
RTVSPost2010PropOp32
 70
     1
102
RTVSPost2010Prop33
280
     0
102
RTVSPost2010PropOp33
 70
     1
102
RTVSPost2010Prop34
280
     0
102
RTVSPost2010PropOp34
 70
     1
102
RTVSPost2010Prop35
280
     0
102
RTVSPost2010PropOp35
 70
     1
102
RTVSPost2010Prop36
280
     0
102
RTVSPost2010PropOp36
 70
     1
102
RTVSPost2010Prop37
 90
       50
102
RTVSPost2010PropOp37
 70
     1
102
RTVSPost2010Prop38
140
0.0
102
RTVSPost2010PropOp38
 70
     1
102
RTVSPost2010Prop39
140
1.0
102
RTVSPost2010PropOp39
 70
     1
102
RTVSPost2010Prop40
 90
        0
102
RTVSPost2010PropOp40
 70
     1
102
RTVSPost2010Prop41ColorIndex
 90
       18
102
RTVSPost2010Prop41ColorRGB
 90
        0
102
RTVSPost2010PropOp41
 70
     1
102
RTVSPost2010Prop42
 90
       50
102
RTVSPost2010PropOp42
 70
     1
102
RTVSPost2010Prop43
 90
        3
102
RTVSPost2010PropOp43
 70
     1
102
RTVSPost2010Prop44ColorIndex
 90
        5
102
RTVSPost2010Prop44ColorRGB
 90
      255
102
RTVSPost2010PropOp44
 70
     1
102
RTVSPost2010Prop45
280
     0
102
RTVSPost2010PropOp45
 70
     1
102
RTVSPost2010Prop46
 90
       50
102
RTVSPost2010PropOp46
 70
     1
102
RTVSPost2010Prop47
 90
       50
102
RTVSPost2010PropOp47
 70
     1
102
RTVSPost2010Prop48
 90
       50
102
RTVSPost2010PropOp48
 70
     1
102
RTVSPost2010Prop49
280
     0
102
RTVSPost2010PropOp49
 70
     1
102
RTVSPost2010Prop50
 90
       50
102
RTVSPost2010PropOp50
 70
     1
102
RTVSPost2010Prop51ColorIndex
 90
      256
102
RTVSPost2010Prop51ColorRGB
 90
-16777216
102
RTVSPost2010PropOp51
 70
     0
102
RTVSPost2010Prop52
140
1.0
102
RTVSPost2010PropOp52
 70
     0
102
RTVSPost2010Prop53
 90
        2
102
RTVSPost2010PropOp53
 70
     1
102
RTVSPost2010Prop54
  1
strokes_ogs.tif
102
RTVSPost2010PropOp54
 70
     1
102
RTVSPost2010Prop55
280
     0
102
RTVSPost2010PropOp55
 70
     1
102
RTVSPost2010Prop56
140
1.0
102
RTVSPost2010PropOp56
 70
     1
102
RTVSPost2010Prop57
140
1.0
102
RTVSPost2010PropOp57
 70
     1
  0
ENDSEC
  0
SECTION
  2
THUMBNAILIMAGE
 90
    16364
310
28000000B4000000550000000100080000000000C43B000000000000000000000001000000010000FFFFFF000000FF0000FFFF0000FF0000FFFF0000FF000000FF00FF000000000080808000C0C0C0000000FF007F7FFF000000A5005252A50000007F003F3F7F0000004C0026264C000000260013132600003FFF007F9FFF
310
000029A5005267A500001F7F003F4F7F0000134C00262F4C000009260013172600007FFF007FBFFF000052A500527CA500003F7F003F5F7F0000264C0026394C0000132600131C260000BFFF007FDFFF00007CA5005291A500005F7F003F6F7F0000394C0026424C00001C26001321260000FFFF007FFFFF0000A5A50052A5
310
A500007F7F003F7F7F00004C4C00264C4C00002626001326260000FFBF007FFFDF0000A57C0052A59100007F5F003F7F6F00004C3900264C420000261C001326210000FF7F007FFFBF0000A5520052A57C00007F3F003F7F5F00004C2600264C39000026130013261C0000FF3F007FFF9F0000A5290052A56700007F1F003F
310
7F4F00004C1300264C2F00002609001326170000FF00007FFF7F0000A5000052A55200007F00003F7F3F00004C0000264C260000260000132613003FFF00009FFF7F0029A5000067A552001F7F00004F7F3F00134C00002F4C260009260000172613007FFF0000BFFF7F0052A500007CA552003F7F00005F7F3F00264C0000
310
394C2600132600001C261300BFFF0000DFFF7F007CA5000091A552005F7F00006F7F3F00394C0000424C26001C26000021261300FFFF0000FFFF7F00A5A50000A5A552007F7F00007F7F3F004C4C00004C4C26002626000026261300FFBF0000FFDF7F00A57C0000A59152007F5F00007F6F3F004C3900004C422600261C00
310
0026211300FF7F0000FFBF7F00A5520000A57C52007F3F00007F5F3F004C2600004C39260026130000261C1300FF3F0000FF9F7F00A5290000A56752007F1F00007F4F3F004C1300004C2F26002609000026171300FF000000FF7F7F00A5000000A55252007F0000007F3F3F004C0000004C2626002600000026131300FF00
310
3F00FF7F9F00A5002900A55267007F001F007F3F4F004C0013004C262F002600090026131700FF007F00FF7FBF00A5005200A5527C007F003F007F3F5F004C0026004C2639002600130026131C00FF00BF00FF7FDF00A5007C00A55291007F005F007F3F6F004C0039004C26420026001C0026132100FF00FF00FF7FFF00A5
310
00A500A552A5007F007F007F3F7F004C004C004C264C002600260026132600BF00FF00DF7FFF007C00A5009152A5005F007F006F3F7F0039004C0042264C001C002600211326007F00FF00BF7FFF005200A5007C52A5003F007F005F3F7F0026004C0039264C00130026001C1326003F00FF009F7FFF002900A5006752A500
310
1F007F004F3F7F0013004C002F264C000900260017132600000000002D2D2D005B5B5B0089898900B7B7B700B3B3B30000000000000000000000000000000000000000000000000000000000000000000000000000000000000000000000000000000000000000000000000000000000000000000000000000000000000000
310
00000000000000000000000000000000000000000000000000000000000000000000000000000000000000000000000000000000000000000000000000000000000000000000000000000000000000000000000000000000000000000000000000000000000000000000000000000000000000000000000000000000000000
310
00000000000000000000000000000000000000000000000000000000000000000000000000000000000000000000000000000000000000000000000000000000000000000000000000000000000000000000000000000000000000000000000000000000000000000000000000000000000000000000000000000000000000
310
00000000000000000000000000000000000000000000000000000000000000000000000000000000000000000000000000000000000000000000000000000000000000000000000000000000000000000000000000000000000000000000000000000000000000000000000000000000000000000000000000000000000000
310
00000000000000000000000000000000000000000000000000000000000000000000000000000000000000000000000000000000000000000000000000000000000000000000000000000000000000000000000000000000000000000000000000000000000000000000000000000000000000000000000000000000000000
310
00000000000000000000000000000000000000000000000000000000000000000000000000000000000000000000000000000000000000000000000000000000000000000000000000000000000000000000000000000000000000000000000000000000000000000000000000000000000000000000000000000000000000
310
00000000000000000000000000000000000000000000000000000000000000000000000000000000000000000000000000000000000000000000000000000000000000000000000000000000000000000000000000000000000000000000000000000000000000000000000000000000000000000000000000000000000000
310
00000000000000000000000000000000000000000000000000000000000000000000000000000000000000000000000000000000000000000000000000000000000000000000000000000000000000000000000000000000000000000000000000000000000000000000000000000000000000000000000000000000000000
310
00000000000000000000000000000000000000000000000000000000000000000000000000000000000000000000000000000000000000000000000000000000000000000000000000000000000000000000000000000000000000000000000000000000000000000000000000000000000000000000000000000000000000
310
00000000000000000000000000000000000000000000000000000000000000000000000000000000000000000000000000000000000000000000000000000000000000000000000000000000000000000000000000000000000000000000000000000000000000000000000000000000000000000000000000000000000000
310
00000000000000000000000000000000000000000000000000000000000000000000000000000000000000000000000000000000000000000000000000000000000000000000000000000000000000000000000000000000000000000000000000000000000000000000000000000000000000000000000000000000000000
310
00000000000000000000000000000000000000000000000000000000000000000000000000000000000000000000000000000000000000000000000000000000000000000000000000000000000000000000000000000000000000000000000000000000000000000000000000000000000000000000000000000000000000
310
00000000000000000000000000000000000000000000000000000000000000000000000000000000000000000000000000000000000000000000000000000000000000000000000000000000000000000000000000000000000000000000000000000000000000000000000000000000000000000000000000000000000000
310
00000000000000000000000000000000000000000000000000000000000000000000000000000000000000000000000000000000000000000000000000000000000000000000000000000000000000000000000000000000000000000000000000000000000000000000000000000000000000000000000000000000000000
310
00000000000000000000000000000000000000000000000000000000000000000000000000000000000000000000000000000000000000000000000000000000000000000000000000000000000000000000000000000000000000000000000000000000000000000000000000000000000000000000000000000000000000
310
00000000000000000000000000000000000000000000000000000000000000000000000000000000000000000000000000000000000000000000000000000000000000000000000000000000000000000000000000000000000000000000000000000000000000000000000000000000000000000000000000000000000000
310
00000000000000000000000000000000000000000000000000000000000000000000000000000000000000000000000000000000000000000000000000000000000000000000000000000000000000000000000000000000000000000000000000000000000000000000000000000000000000000000000000000000000000
310
00000000000000000000000000000000000000000000000000000000000000000000000000000000000000000000000000000000000000000000000000000000000000000000000000000000000000000000000000000000000000000000000000000000000000000000000000000000000000000000000000000000000000
310
00000000000000000000000000000000000000000000000000000000000000000000000000000000000000000000000000000000000000000000000000000000000000000000000000000000000000000000000000000000000000000000000000000000000000000000000000000000000000000000000000000000000000
310
00000000000000000000000000000000000000000000000000000000000000000000000000000000000000000000000000000000000000000000000000000000000000000000000000000000000000000000000000000000000000000000000000000000000000000000000000000000000000000000000000000000000000
310
00000000000000000000000000000000000000000000000000000000000000000000000000000000000000000000000000000000000000000000000000000000000000000000000000000000000000000000000000000000000000000000000000000000000000000000000000000000000000000000000000000000000000
310
00000000000000000000000000000000000000000000000000000000000000000000000000000000000000000000000000000000000000000000000000000000000000000000000000000000000000000000000000000000000000000000000000000000000000000000000000000000000000000000000000000000000000
310
00000000000000000000000000000000000000000000000000000000000000000000000000000000000000000000000000000000000000000000000000000000000000000000000000000000000000000000000000000000000000000000000000000000000000000000000000000000000000000000000000000000000000
310
00000000000000000000000000000000000000000000000000000000000000000000000000000000000100000000000000000000010000000000000000000000000000000000010000000000000000000000000000000000010000000000000000000000000000000000000000000000000000000000000000000000000000
310
00000000000000000000000000000000000000000000000000000000000000000000000000000000000000000000000000000000000000000000000000000000000000000000000000000000000000000000000000000000000000000003030303030303030303030303030300000002020202000000000000030303030303
310
00000000000000010000000303030303030000000000000000000000000000000000000000000000000000000000000000000000000000000000000000000000000000000000000000000000000000000000000000000000000000000000000000000000000000000000000000000000000000000000000000000000000000
310
00000000000000000000000000000000000000030303030303030103030003030303000000020202020000000000030303030303030303030303030303030303030303030303000000000000000000000000000000000000000000000000000000000000000000000000000000000000000000000000000000000000000000
310
00000000000000000000000000000000000000000000000000000000000000000000000000000000000000000000000000000000000000000000000000000000000000000000000000010003030303010303030301000000000000000000000000000004010103030303000000000300010103000003000003000000000000
310
00000000000000000000000000000000000000000000000000000000000000000000000000000000000000000000000000000000000000000000000000000000000000000000000000000000000000000000000000000000000000000000000000000000000000000000000000000000000000000000000000000000000000
310
03030300030103000303000000000000000000000000000000030303000000030000000003000001000000030000030300000000000000000000000000000000000000000000000000000000000000000000000000000000000000000000000000000000000000000000000000000000000000000000000000000000000000
310
00000000000000000000000000000000000000000000000000000000000000000000000000000000000000000000000000000000000303000303010303000303000000000000000000000000000003030300000003000000000300000100000003000003030000000000000000000000000000000000000000000000000000
310
00000000000000000000000000000000000000000000000000000000000000000000000000000000000000000000000000000000000000000000000000000000000000000000000000000000000000000000000000000000000000000000000000000000000000000000030303030301030303030300000000000000000000
310
00000000030303000000030000000003030303030303030000030300000000000000000000000000000000000000000000000000000000000000000000000000000000000000000000000000000000000000000000000000000000000000000000000000000000000000000000000000000000000000000000000000000000
310
00000000000000000000000000000000000000000000000000000000000000010301010101010101010301000000000000000000000000000104010101010101010303030303030103030303030303010000000000000000000000000000000000000000000000000000000000000000000000000000000000000000000000
310
00000000000000000000000000000000000000000000000000000000000000000000000000000000000000000000000000000000000000000000000000000000000000000000000000000000000000000000000000030303030301030303030300000000000000000000000000000303030000000300030003030303030303
310
03030300030300000000000000000000000000000000000000000000000000000000000000000000000000000000000000000000000000000000000000000000000000000000000000000000000000000000000000000000000000000000000000000000000000000000000000000000000000000000000000000000000000
310
00000000000000000000000303000303010303000303000000000000000000000000000003030300010003030003030300000100000003030303030000000000000000000000000000000000000000000000000000000000000000000000000000000000000000000000000000000000000000000000000000000000000000
310
00000000000000000000000000000000000000000000000000000000000000000000000000000000000000000000000000000000000000000000000000000003030303030301030303030303000000000000000000000000000303030303030303030300000000010000000003030303000000000000000000000000000000
310
00000000000000000000000000000000000000000000000000000000000000000000000000000000000000000000000000000000000000000000000000000000000000000000000000000000000000000000000000000000000000000000000000000000000000000000000000000000000000000303000303030103030303
310
03030303030300000000000000000004030303030303030303000303030103030300000303000000000000000000000000000000000000000000000000000000000000000000000000000000000000000000000000000000000000000000000000000000000000000000000000000000000000000000000000000000000000
310
00000000000000000000000000000000000000000000000000000000000000000000000000030303030101010101010101010101010101010101030300000000000000000301010303030103030000030303030303030000030303000000000000000000000000000000000000000000000000000000000000000000000000
310
00000000000000000000000000000000000000000000000000000000000000000000000000000000000000000000000000000000000000000000000000000000000000000000000000000000000000000000000000000000000003000000000300000000000100000000000303030303030000000000000000000003030303
310
03030300000303030303030300000303030000000000000000000000000000000000000000000000000000000000000000000000000000000000000000000000000000000000000000000000000000000000000000000000000000000000000000000000000000000000000000000000000000000000000000000000000000
310
00000000000000000000000000000001010101010103030303030303030303030303010101010300000000000000000000030303030103030101010303010103010101030103000000000000000000000000000000000000000000000000000000000000000000000000000000000000000000000000000000000000000000
310
00000000000000000000000000000000000000000000000000000000000000000000000000000000000000000000000000000000000000000000000000000000000000000003030303030303030000000100000003030303030303030000000000000000000000000000000303000003000303030303000003030300000000
310
00000000000000000000000000000000000000000000000000000000000000000000000000000000000000000000000000000000000000000000000000000000000000000000000000000000000000000000000000000000000000000000000000000000000000000000000000000000000000000000000000000000000000
310
00030300000001000000030300000000000000000000000000000000000000000003030300030303030303030000030303000000000000000000000000000000000000000000000000000000000000000000000000000000000000000000000000000000000000000000000000000000000000000000000000000000000000
310
00000000000000000000000000000000000000000000000000000000000000000000000000000000000000000000000000000000000003030000000100000003030000000000000000000000000000000000000000000303030303030301030303030303030000000000000000000000000000000000000000000000000000
310
00000000000000000000000000000000000000000000000000000000000000000000000000000000000000000000000000000000000000000000000000000000000000000000000000000000000000000000000000000000000000000000000000000000000000000000000303000000010000000303000000000000000000
310
00000000000000000000000003030003000303010303000003030300000000000000000000000000000000000000000000000000000000000000000000000000000000000000000000000000000000000000000000000000000000000000000000000000000000000000000000000000000000000000000000000000000000
310
00000000000000000000000000000000000000000000000000000000000000000303030000000100000003030000000000000000000000000000000000000000000300030303030301030303030303030000000000000000000000000000000000000000000000000000000000000000000000000000000000000000000000
310
00000000000000000000000000000000000000000000000000000000000000000000000000000000000000000000000000000000000000000000000000000000000000000000000000000000000000000000000000030401010000010000000303000000000000000000000000000000000000000000030000030303030303
310
03030300000300000000000000000000000000000000000000000000000000000000000000000000000000000000000000000000000000000000000000000000000000000000000000000000000000000000000000000000000000000000000000000000000000000000000000000000000000000000000000000000000000
310
00000000000000000000000003030303030103030303030000000000000000000000000000000000000000000003030303030303030303030303030000000000000000000000000000000000000000000000000000000000000000000000000000000000000000000000000000000000000000000000000000000000000000
310
00000000000000000000000000000000000000000000000000000000000000000000000000000000000000000000000000000000000000000000000000000000000000000003010300000000000000000000000000000000000000000000000000000000000000030103000000000000000000000000000000000000000000
310
00000000000000000000000000000000000000000000000000000000000000000000000000000000000000000000000000000000000000000000000000000000000000000000000000000000000000000000000000000000000000000000000000000000000000000000000000000000000000000000000000000000000000
310
00000000000000000000000000000000000000000000000000000000000000000000000000000000000000000000000000000000000000000000000000000000000000000000000000000000000000000000000000000000000000000000000000000000000000000000000000000000000000000000000000000000000000
310
00000000000000000000000000000000000000000000000000000000000000000000000000000000000000000000000000000000000000000000000000000000000000000000000000000000000000000000000000000000000000000000000000000000000000000000000000000000000000000000000000000000000000
310
00000000000000000000000000000000000000000000000000000000000000000000000000000000000000000000000000000000000000000000000000000000000000000000000000000000000000000000000000000000000000000000000000000000000000000000000000000000000000000000000000000000000000
310
00000000000000000000000000000000000000000000000000000000000000000000000000000000000000000000000000000000000000000000000000000000000000000000000000000000000000000000000000000000000000000000000000000000000000000000000000000000000000000000000000000000000000
310
00000000000000000000000000000000000000000000000000000000000000000000000000000000000000000000000000000000000000000000000000000000000000000000000000000000000000000000000000000000000000000000000000000000000000000000000000000000000000000000000000000000000000
310
00000000000000000000000000000000000000000000000000000000000000000000000000000000000000000000000000000000000000000000000000000000000000000000000000000000000000000000000000000000000000000000000000000000000000000000000000000000000000000000000000000000000000
310
00000000000000000000000000000000000000000000000000000000000000000000000000000000000000000000000000000000000000000000000000000000000000000000000000000000000000000000000000000000000000000000000000000000000000000000000000000000000000000000000000000000000000
310
00000000000000000000000000000000000000000000000000000000000000000000000000000000000000000000000000000000000000000000000000000000000000000000000000000000000000000000000000000000000000000000000000000000000000000000000000000000000000000000000000000000000000
310
00000000000000000000000000000000000000000000000000000000000000000000000000000000000000000000000000000000000000000000000000000000000000000000000000000000000000000000000000000000000000000000000000000000000000000000000000000000000000000000000000000000000000
310
00000000000000000000000000000000000000000000000000000000000000000000000000000000000000000000000000000000000000000000000000000000000000000000000000000000000000000000000000000000000000000000000000000000000000000000000000000000000000000000000000000000000000
310
00000000000000000000000000000000000000000000000000000000000000000000000000000000000000000000000000000000000000000000000000000000000000000000000000000000000000000000000000000000000000000000000000000000000000000000000000000000000000000000000000000000000000
310
00000000000000000000000000000000000000000000000000000000000000000000000000000000000000000000000000000000000000000000000000000000000000000000000000000000000000000000000000000000000000000000000000000000000000000000000000000000000000000000000000000000000000
310
00000000000000000000000000000000000000000000000000000000000000000000000000000000000000000000000000000000000000000000000000000000000000000000000000000000000000000000000000000003030303030103030003030000000000000000000000000000000000000000000000000000000000
310
00000000000000000000000000000000000000000000000000000000000000000000000000000000000000000000000000000000000000000000000000000000000000000000000000000000000000000000000000000000000000000000000000000000000000000000000000000000000000000000000000000000000000
310
00000000000000000000000000030303030303030303030300000000000000000000000000000000000000000000000000000000000000000000000000000000000000000000000000000000000000000000000000000000000000000000000000000000000000000000000000000000000000000000000000000000000000
310
00000000000000000000000000000000000000000000000000000000000000000000000000000000000000000000000000000000000000000000000000000000030301030301030303010301030303000000000000000000000000000000000000000000000000000000000000000000000000000000000000000000000000
310
00000000000000000000000000000000000000000000000000000000000000000000000000000000000000000000000000000000000000000000000000000000000000000000000000000000000000000000000000000000000000000000000000000000000000000000000000000000000000000003030000000000010000
310
00000003030303030000000000000000000000000000000000000000000000000000000000000000000000000000000000000000000000000000000000000000000000000000000000000000000000000000000000000000000000000000000000000000000000000000000000000000000000000000000000000000000000
310
00000000000000000000000000000000000000000000000000000000000000000000000000000000000000030301010101010101010101010101010101000000000000000000000000000000000000000000000000000000000000000000000000000000000000000000000000000000000000000000000000000000000000
310
00000000000000000000000000000000000000000000000000000000000000000000000000000000000000000000000000000000000000000000000000000000000000000000000000000000000000000000000000000000000000000000000003030003000000010000000300030303030300000000000000000000000000
310
00000000000000000000000000000000000000000000000000000000000000000000000000000000000000000000000000000000000000000000000000000000000000000000000000000000000000000000000000000000000000000000000000000000000000000000000000000000000000000000000000000000000000
310
00000000000000000000000000000000000000000000000303030000000100000003030300000000000000000000000000000000000000000000000000000000000000000000000000000000000000000000000000000000000000000000000000000000000000000000000000000000000000000000000000000000000000
310
00000000000000000000000000000000000000000000000000000000000000000000000000000000000000000000000000000000000000000000000000000000000000000000000000000000030303030303030303030303000000000000000000000000000000000000000000000000000000000000000000000000000000
310
00000000000000000000000000000000000000000000000000000000000000000000000000000000000000000000000000000000000000000000000000000000000000000000000000000000000000000000000000000000000000000000000000000000000000000000000000000000000000000000000000000000000000
310
00000103030100000100000003030000000000000000000000000000000000000000000000000000000000000000000000000000000000000000000000000000000000000000000000000000000000000000000000000000000000000000000000000000000000000000000000000000000000000000000000000000000000
310
00000000000000000000000000000000000000000000000000000000000000000000000000000000000000000000000000000000000000000303000000010000000303000000000000000000000000000000000000000000000000000000000000000000000000000000000000000000000000000000000000000000000000
310
00000000000000000000000000000000000000000000000000000000000000000000000000000000000000000000000000000000000000000000000000000000000000000000000000000000000000000000000000000000000000000000000000000000000000000000000000030300000001000000030300000000000000
310
00000000000000000000000000000000000000000000000000000000000000000000000000000000000000000000000000000000000000000000000000000000000000000000000000000000000000000000000000000000000000000000000000000000000000000000000000000000000000000000000000000000000000
310
00000000000000000000000000000000000000000000000000000000000000000000010303010000010000000303000000000000000000000000000000000000000000000000000000000000000000000000000000000000000000000000000000000000000000000000000000000000000000000000000000000000000000
310
00000000000000000000000000000000000000000000000000000000000000000000000000000000000000000000000000000000000000000000000000000000000000000000000000000000000000000000000000000003030300000001000000030300000000000000000000000000000000000000000000000000000000
310
00000000000000000000000000000000000000000000000000000000000000000000000000000000000000000000000000000000000000000000000000000000000000000000000000000000000000000000000000000000000000000000000000000000000000000000000000000000000000000000000000000000000000
310
00000000000000000303030303030303000000010000000303030303030303000000000000000000000000000000000000000000000000000000000000000000000000000000000000000000000000000000000000000000000000000000000000000000000000000000000000000000000000000000000000000000000000
310
00000000000000000000000000000000000000000000000000000000000000000000000000000000000000000000000000000000000000000000000000030303030303030300000301030000030303030303030300000000000000000000000000000000000000000000000000000000000000000000000000000000000000
310
00000000000000000000000000000000000000000000000000000000000000000000000000000000000000000000000000000000000000000000000000000000000000000000000000000000000000000000000000000000000000000000000000000000000000000000000000000000000101010101010101010101010101
310
01010103030303030303000000000000000000000000000000000000000000000000000000000000000000000000000000000000000000000000000000000000000000000000000000000000000000000000000000000000000000000000000000000000000000000000000000000000000000000000000000000000000000
310
00000000000000000000000000000000000000000000000000000000000000000000000000000000030303030303030300000301000000030303030303030300000000000000000000000000000000000000000000000000000000000000000000000000000000000000000000000000000000000000000000000000000000
310
00000000000000000000000000000000000000000000000000000000000000000000000000000000000000000000000000000000000000000000000000000000000000000000000000000000000000000000000000000000000000000000000000000003030000000100000003030000000000000000000000000000000000
310
00000000000000000000000000000000000000000000000000000000000000000000000000000000000000000000000000000000000000000000000000000000000000000000000000000000000000000000000000000000000000000000000000000000000000000000000000000000000000000000000000000000000000
310
00000000000000000000000000000000000000000000000001030101000001000000030300000000000000000000000000000000000000000000000000000000000000000000000000000000000000000000000000000000000000000000000000000000000000000000000000000000000000000000000000000000000000
310
00000000000000000000000000000000000000000000000000000000000000000000000000000000000000000000000000000000000000000000000000000000000000000000000000000000000303030000000100000003030000000000000000000000000000000000000000000000000000000000000000000000000000
310
00000000000000000000000000000000000000000000000000000000000000000000000000000000000000000000000000000000000000000000000000000000000000000000000000000000000000000000000000000000000000000000000000000000000000000000000000000000000000000000000000000000000000
310
00000301030300000001000000030303030000000000000000000000000000000000000000000000000000000000000000000000000000000000000000000000000000000000000000000000000000000000000000000000000000000000000000000000000000000000000000000000000000000000000000000000000000
310
00000000000000000000000000000000000000000000000000000000000000000000000000000000000000000000000000000000000000030103010100000100000003030103000000000000000000000000000000000000000000000000000000000000000000000000000000000000000000000000000000000000000000
310
00000000000000000000000000000000000000000000000000000000000000000000000000000000000000000000000000000000000000000000000000000000000000000000000000000000000000000000000000000000000000000000000000000000000000000000000003030303030303030303030303000300000000
310
00000000000000000000000000000000000000000000000000000000000000000000000000000000000000000000000000000000000000000000000000000000000000000000000000000000000000000000000000000000000000000000000000000000000000000000000000000000000000000000000000000000000000
310
00000000000000000000000000000000000000000000000000000000000000000000030303030303030303030303030303000000000000000000000000000000000000000000000000000000000000000000000000000000000000000000000000000000000000000000000000000000000000000000000000000000000000
310
00000000000000000000000000000000000000000000000000000000000000000000000000000000000000000000000000000000000000000000000000000000000000000000000000000000000000000000000000000000000000000000010000000000000000000000000000000000000000000000000000000000000000
310
00000000000000000000000000000000000000000000000000000000000000000000000000000000000000000000000000000000000000000000000000000000000000000000000000000000000000000000000000000000000000000000000000000000000000000000000000000000000000000000000000000000000000
310
00000000000000000000000000000000000000000000000000000000000000000000000000000000000000000000000000000000000000000000000000000000000000000000000000000000000000000000000000000000000000000000000000000000000000000000000000000000000000000000000000000000000000
310
00000000000000000000000000000000000000000000000000000000000000000000000000000000000000000000000000000000000000000000000000000000000000000000000000000000000000000000000000000000000000000000000000000000000000000000000000000000000000000000000000000000000000
310
00000000000000000000000000000000000000000000000000000000000000000000000000000000000000000000000000000000000000000000000000000000000000000000000000000000000000000000000000000000000000000000000000000000000000000000000000000000000000000000000000000000000000
310
00000000000000000000000000000000000000000000000000000000000000000000000000000000000000000000000000000000000000000000000000000000000000000000000000000000000000000000000000000000000000000000000000000000000000000000000000000000000000000000000000000000000000
310
00000000000000000000000000000000000000000000000000000000000000000000000000000000000000000000000000000000000000000000000000000000000000000000000000000000000000000000000000000000000000000000000000000000000000000000000000000000000000000000000000000000000000
310
00000000000000000000000000000000000000000000000000000000000000000000000000000000000000000000000000000000000000000000000000000000000000000000000000000000000000000000000000000000000000000000000000000000000000000000000000000000000000000000000000000000000000
310
00000000000000000000000000000000000000000000000000000000000000000000000000000000000000000000000000000000000000000000000000000000000000000000000000000000000000000000000000000000000000000000000000000000000000000000000000000000000000000000000000000000000000
310
00000000000000000000000000000000000000000000000000000000000000000000000000000000000000000000000000000000000000000000000000000000000000000000000000000000000000000000000000000000000000000000000000000000000000000000000000000000000000000000000000000000000000
310
00000000000000000000000000000000000000000000000000000000000000000000000000000000000000000000000000000000000000000000000000000000000000000000000000000000000000000000000000000000000000000000000000000000000000000000000000000000000000000000000000000000000000
310
00000000000000000000000000000000000000000000000000000000000000000000000000000000000000000000000000000000000000000000000000000000000000000000000000000000000000000000000000000000000000000000000000000000000000000000000000000000000000000000000000000000000000
310
00000000000000000000000000000000000000000000000000000000000000000000000000000000000000000000000000000000000000000000000000000000000000000000000000000000000000000000000000000000000000000000000000000000000000000000000000000000000000000000000000000000000000
310
00000000000000000000000000000000000000000000000000000000000000000000000000000000000000000000000000000000000000000000000000000000000000000000000000000000000000000000000000000000000000000000000000000000000000000000000000000000000000000000000000000000000000
310
00000000000000000000000000000000000000000000000000000000000000000000000000000000000000000000000000000000000000000000000000000000000000000000000000000000000000000000000000000000000000000000000000000000000000000000000000000000000000000000000000000000000000
310
00000000000000000000000000000000000000000000000000000000000000000000000000000000000000000000000000000000000000000000000000000000000000000000000000000000000000000000000000000000000000000000000000000000000000000000000000000000000000000000000000000000000000
310
00000000000000000000000000000000000000000000000000000000000000000000000000000000000000000000000000000000000000000000000000000000000000000000000000000000000000000000000000000000000000000000000000000000000000000000000000000000000000000000000000000000000000
310
00000000000000000000000000000000000000000000000000000000000000000000000000000000000000000000000000000000000000000000000000000000000000000000000000000000000000000000000000000000000000000000000000000000000000000000000000000000000000000000000000000000000000
310
000000000000000000000000000000000000000000000000000000000000000000000000000000000000000000000000000000000000000000000000000000000000000000000000000000000000000000000000000000000000000000000000000000000000000000000000
  0
ENDSEC
  0
EOF
