  0
SECTION
  2
HEADER
  9
$ACADVER
  1
AC1015
  9
$ACADMAINTVER
 70
     6
  9
$DWGCODEPAGE
  3
ANSI_932
  9
$INSBASE
 10
1251.539421943256
 20
1079.334430880233
 30
0.0
  9
$EXTMIN
 10
84.78736630872174
 20
9.608713730097861
 30
0.0
  9
$EXTMAX
 10
1081.54743619187
 20
910.4823265775428
 30
0.0
  9
$LIMMIN
 10
0.0
 20
0.0
  9
$LIMMAX
 10
816.5000000000001
 20
565.0
  9
$ORTHOMODE
 70
     1
  9
$REGENMODE
 70
     1
  9
$FILLMODE
 70
     1
  9
$QTEXTMODE
 70
     0
  9
$MIRRTEXT
 70
     1
  9
$LTSCALE
 40
20.0
  9
$ATTMODE
 70
     1
  9
$TEXTSIZE
 40
9.0
  9
$TRACEWID
 40
0.05
  9
$TEXTSTYLE
  7
KANJI
  9
$CLAYER
  8
2
  9
$CELTYPE
  6
BYLAYER
  9
$CECOLOR
 62
   256
  9
$CELTSCALE
 40
1.0
  9
$DISPSILH
 70
     0
  9
$DIMSCALE
 40
3.0
  9
$DIMASZ
 40
2.0
  9
$DIMEXO
 40
0.5
  9
$DIMDLI
 40
0.0
  9
$DIMRND
 40
0.0
  9
$DIMDLE
 40
0.0
  9
$DIMEXE
 40
1.0
  9
$DIMTP
 40
0.0
  9
$DIMTM
 40
0.0
  9
$DIMTXT
 40
3.0
  9
$DIMCEN
 40
0.09
  9
$DIMTSZ
 40
0.0
  9
$DIMTOL
 70
     0
  9
$DIMLIM
 70
     0
  9
$DIMTIH
 70
     0
  9
$DIMTOH
 70
     0
  9
$DIMSE1
 70
     0
  9
$DIMSE2
 70
     0
  9
$DIMTAD
 70
     0
  9
$DIMZIN
 70
     8
  9
$DIMBLK
  1

  9
$DIMASO
 70
     0
  9
$DIMSHO
 70
     0
  9
$DIMPOST
  1

  9
$DIMAPOST
  1

  9
$DIMALT
 70
     0
  9
$DIMALTD
 70
     2
  9
$DIMALTF
 40
25.4
  9
$DIMLFAC
 40
1.0
  9
$DIMTOFL
 70
     1
  9
$DIMTVP
 40
1.0
  9
$DIMTIX
 70
     1
  9
$DIMSOXD
 70
     1
  9
$DIMSAH
 70
     0
  9
$DIMBLK1
  1

  9
$DIMBLK2
  1

  9
$DIMSTYLE
  2
STANDARD
  9
$DIMCLRD
 70
   256
  9
$DIMCLRE
 70
   256
  9
$DIMCLRT
 70
   256
  9
$DIMTFAC
 40
1.0
  9
$DIMGAP
 40
0.09
  9
$DIMJUST
 70
     0
  9
$DIMSD1
 70
     0
  9
$DIMSD2
 70
     0
  9
$DIMTOLJ
 70
     1
  9
$DIMTZIN
 70
     0
  9
$DIMALTZ
 70
     0
  9
$DIMALTTZ
 70
     0
  9
$DIMUPT
 70
     0
  9
$DIMDEC
 70
     1
  9
$DIMTDEC
 70
     4
  9
$DIMALTU
 70
     2
  9
$DIMALTTD
 70
     2
  9
$DIMTXSTY
  7
STANDARD
  9
$DIMAUNIT
 70
     0
  9
$DIMADEC
 70
     0
  9
$DIMALTRND
 40
0.0
  9
$DIMAZIN
 70
     0
  9
$DIMDSEP
 70
    46
  9
$DIMATFIT
 70
     3
  9
$DIMFRAC
 70
     0
  9
$DIMLDRBLK
  1

  9
$DIMLUNIT
 70
     2
  9
$DIMLWD
 70
    -2
  9
$DIMLWE
 70
    -2
  9
$DIMTMOVE
 70
     0
  9
$LUNITS
 70
     2
  9
$LUPREC
 70
     3
  9
$SKETCHINC
 40
0.1
  9
$FILLETRAD
 40
1.0
  9
$AUNITS
 70
     0
  9
$AUPREC
 70
     3
  9
$MENU
  1
C:\R13\WIN\SUPPORT\ACADFULL
  9
$ELEVATION
 40
0.0
  9
$PELEVATION
 40
0.0
  9
$THICKNESS
 40
0.0
  9
$LIMCHECK
 70
     0
  9
$CHAMFERA
 40
0.0
  9
$CHAMFERB
 40
0.0
  9
$CHAMFERC
 40
0.0
  9
$CHAMFERD
 40
0.0
  9
$SKPOLY
 70
     0
  9
$TDCREATE
 40
2457445.837738611
  9
$TDUCREATE
 40
2457445.462738611
  9
$TDUPDATE
 40
2458116.47044669
  9
$TDUUPDATE
 40
2458116.09544669
  9
$TDINDWG
 40
0.0721378356
  9
$TDUSRTIMER
 40
0.0721364931
  9
$USRTIMER
 70
     1
  9
$ANGBASE
 50
0.0
  9
$ANGDIR
 70
     0
  9
$PDMODE
 70
     0
  9
$PDSIZE
 40
0.0
  9
$PLINEWID
 40
0.0
  9
$SPLFRAME
 70
     0
  9
$SPLINETYPE
 70
     6
  9
$SPLINESEGS
 70
     8
  9
$HANDSEED
  5
63F
  9
$SURFTAB1
 70
     6
  9
$SURFTAB2
 70
     6
  9
$SURFTYPE
 70
     6
  9
$SURFU
 70
     6
  9
$SURFV
 70
     6
  9
$UCSBASE
  2

  9
$UCSNAME
  2

  9
$UCSORG
 10
0.0
 20
0.0
 30
0.0
  9
$UCSXDIR
 10
1.0
 20
0.0
 30
0.0
  9
$UCSYDIR
 10
0.0
 20
1.0
 30
0.0
  9
$UCSORTHOREF
  2

  9
$UCSORTHOVIEW
 70
     0
  9
$UCSORGTOP
 10
0.0
 20
0.0
 30
0.0
  9
$UCSORGBOTTOM
 10
0.0
 20
0.0
 30
0.0
  9
$UCSORGLEFT
 10
0.0
 20
0.0
 30
0.0
  9
$UCSORGRIGHT
 10
0.0
 20
0.0
 30
0.0
  9
$UCSORGFRONT
 10
0.0
 20
0.0
 30
0.0
  9
$UCSORGBACK
 10
0.0
 20
0.0
 30
0.0
  9
$PUCSBASE
  2

  9
$PUCSNAME
  2

  9
$PUCSORG
 10
0.0
 20
0.0
 30
0.0
  9
$PUCSXDIR
 10
1.0
 20
0.0
 30
0.0
  9
$PUCSYDIR
 10
0.0
 20
1.0
 30
0.0
  9
$PUCSORTHOREF
  2

  9
$PUCSORTHOVIEW
 70
     0
  9
$PUCSORGTOP
 10
0.0
 20
0.0
 30
0.0
  9
$PUCSORGBOTTOM
 10
0.0
 20
0.0
 30
0.0
  9
$PUCSORGLEFT
 10
0.0
 20
0.0
 30
0.0
  9
$PUCSORGRIGHT
 10
0.0
 20
0.0
 30
0.0
  9
$PUCSORGFRONT
 10
0.0
 20
0.0
 30
0.0
  9
$PUCSORGBACK
 10
0.0
 20
0.0
 30
0.0
  9
$USERI1
 70
     0
  9
$USERI2
 70
     0
  9
$USERI3
 70
     0
  9
$USERI4
 70
     0
  9
$USERI5
 70
     0
  9
$USERR1
 40
0.0
  9
$USERR2
 40
0.0
  9
$USERR3
 40
0.0
  9
$USERR4
 40
2448925.372986111
  9
$USERR5
 40
0.04166667
  9
$WORLDVIEW
 70
     1
  9
$SHADEDGE
 70
     3
  9
$SHADEDIF
 70
    70
  9
$TILEMODE
 70
     1
  9
$MAXACTVP
 70
    16
  9
$PINSBASE
 10
0.0
 20
0.0
 30
0.0
  9
$PLIMCHECK
 70
     0
  9
$PEXTMIN
 10
1000000000000000E+20
 20
1000000000000000E+20
 30
1000000000000000E+20
  9
$PEXTMAX
 10
-1000000000000000E+20
 20
-1000000000000000E+20
 30
-1000000000000000E+20
  9
$PLIMMIN
 10
0.0
 20
0.0
  9
$PLIMMAX
 10
12.0
 20
9.0
  9
$UNITMODE
 70
     0
  9
$VISRETAIN
 70
     0
  9
$PLINEGEN
 70
     0
  9
$PSLTSCALE
 70
     0
  9
$TREEDEPTH
 70
  3020
  9
$CMLSTYLE
  2
STANDARD
  9
$CMLJUST
 70
     0
  9
$CMLSCALE
 40
1.0
  9
$PROXYGRAPHICS
 70
     1
  9
$MEASUREMENT
 70
     0
  9
$CELWEIGHT
370
    -1
  9
$ENDCAPS
280
     0
  9
$JOINSTYLE
280
     0
  9
$LWDISPLAY
290
     0
  9
$INSUNITS
 70
     0
  9
$HYPERLINKBASE
  1

  9
$STYLESHEET
  1

  9
$XEDIT
290
     1
  9
$CEPSNTYPE
380
     0
  9
$PSTYLEMODE
290
     1
  9
$FINGERPRINTGUID
  2
{6E30BC18-1BEA-4C02-91B0-8741100D1F84}
  9
$VERSIONGUID
  2
{9B4509A8-FD76-41CE-9100-EFC5B8898292}
  9
$EXTNAMES
290
     1
  9
$PSVPSCALE
 40
0.0
  9
$OLESTARTUP
290
     0
  0
ENDSEC
  0
SECTION
  2
CLASSES
  0
CLASS
  1
ACDBDICTIONARYWDFLT
  2
AcDbDictionaryWithDefault
  3
ObjectDBX Classes
 90
        0
280
     0
281
     0
  0
CLASS
  1
MATERIAL
  2
AcDbMaterial
  3
ObjectDBX Classes
 90
     1153
280
     0
281
     0
  0
CLASS
  1
SORTENTSTABLE
  2
AcDbSortentsTable
  3
ObjectDBX Classes
 90
        0
280
     0
281
     0
  0
CLASS
  1
VISUALSTYLE
  2
AcDbVisualStyle
  3
ObjectDBX Classes
 90
     4095
280
     0
281
     0
  0
CLASS
  1
SCALE
  2
AcDbScale
  3
ObjectDBX Classes
 90
     1153
280
     0
281
     0
  0
CLASS
  1
DICTIONARYVAR
  2
AcDbDictionaryVar
  3
ObjectDBX Classes
 90
        0
280
     0
281
     0
  0
CLASS
  1
MLEADERSTYLE
  2
AcDbMLeaderStyle
  3
ACDB_MLEADERSTYLE_CLASS
 90
     4095
280
     0
281
     0
  0
CLASS
  1
TABLESTYLE
  2
AcDbTableStyle
  3
ObjectDBX Classes
 90
     4095
280
     0
281
     0
  0
CLASS
  1
ACDBPLACEHOLDER
  2
AcDbPlaceHolder
  3
ObjectDBX Classes
 90
        0
280
     0
281
     0
  0
CLASS
  1
LAYOUT
  2
AcDbLayout
  3
ObjectDBX Classes
 90
        0
280
     0
281
     0
  0
ENDSEC
  0
SECTION
  2
TABLES
  0
TABLE
  2
VPORT
  5
29
102
{ACAD_XDICTIONARY
360
604
102
}
330
0
100
AcDbSymbolTable
 70
     1
  0
VPORT
  5
30
330
29
100
AcDbSymbolTableRecord
100
AcDbViewportTableRecord
  2
*ACTIVE
 70
     0
 10
0.0
 20
0.0
 11
1.0
 21
1.0
 12
867.0012308633923
 22
461.9257792707033
 13
0.0
 23
0.0
 14
1.0
 24
1.0
 15
50.0
 25
50.0
 16
0.0
 26
0.0
 36
1.0
 17
0.0
 27
0.0
 37
0.0
 40
957.0846382464055
 41
1.82716049382716
 42
50.0
 43
0.0
 44
0.0
 50
0.0
 51
0.0
 71
     0
 72
  5000
 73
     1
 74
     0
 75
     0
 76
     0
 77
     0
 78
     1
281
     0
 65
     1
110
0.0
120
0.0
130
0.0
111
1.0
121
0.0
131
0.0
112
0.0
122
1.0
132
0.0
 79
     0
146
0.0
1001
ACAD_NAV_VCDISPLAY
1070
     3
  0
ENDTAB
  0
TABLE
  2
LTYPE
  5
D
330
0
100
AcDbSymbolTable
 70
     2
  0
LTYPE
  5
E
330
D
100
AcDbSymbolTableRecord
100
AcDbLinetypeTableRecord
  2
BYBLOCK
 70
     0
  3

 72
    65
 73
     0
 40
0.0
  0
LTYPE
  5
F
330
D
100
AcDbSymbolTableRecord
100
AcDbLinetypeTableRecord
  2
BYLAYER
 70
     0
  3

 72
    65
 73
     0
 40
0.0
  0
LTYPE
  5
C
330
D
100
AcDbSymbolTableRecord
100
AcDbLinetypeTableRecord
  2
CONTINUOUS
 70
     0
  3
Solid line
 72
    65
 73
     0
 40
0.0
  0
LTYPE
  5
80
330
D
100
AcDbSymbolTableRecord
100
AcDbLinetypeTableRecord
  2
CENTER
 70
     0
  3
____ _ ____ _ ____ _ ____ _ ____ _ ____ _ ____
 72
    65
 73
     4
 40
2.0
 49
1.25
 74
     0
 49
-0.25
 74
     0
 49
0.25
 74
     0
 49
-0.25
 74
     0
  0
ENDTAB
  0
TABLE
  2
LAYER
  5
2
102
{ACAD_XDICTIONARY
360
3
102
}
330
0
100
AcDbSymbolTable
 70
     9
  0
LAYER
  5
1D
330
2
100
AcDbSymbolTableRecord
100
AcDbLayerTableRecord
  2
0
 70
     0
 62
     7
  6
CONTINUOUS
370
    -3
390
5
  0
LAYER
  5
365
330
2
100
AcDbSymbolTableRecord
100
AcDbLayerTableRecord
  2
1
 70
     0
 62
     9
  6
CONTINUOUS
370
    -3
390
5
  0
LAYER
  5
1
330
2
100
AcDbSymbolTableRecord
100
AcDbLayerTableRecord
  2
2
 70
     0
 62
     4
  6
CONTINUOUS
370
    -3
390
5
  0
LAYER
  5
78
330
2
100
AcDbSymbolTableRecord
100
AcDbLayerTableRecord
  2
4
 70
     0
 62
     3
  6
CONTINUOUS
370
    -3
390
5
  0
LAYER
  5
7F
330
2
100
AcDbSymbolTableRecord
100
AcDbLayerTableRecord
  2
L-CENTER
 70
     0
 62
     1
  6
CENTER
370
    -3
390
5
  0
LAYER
  5
1E3
330
2
100
AcDbSymbolTableRecord
100
AcDbLayerTableRecord
  2
3
 70
     0
 62
     2
  6
CONTINUOUS
370
    -3
390
5
  0
LAYER
  5
35D
102
{ACAD_XDICTIONARY
360
35E
102
}
330
2
100
AcDbSymbolTableRecord
100
AcDbLayerTableRecord
  2
5
 70
     0
 62
     6
  6
CONTINUOUS
370
    -3
390
5
  0
LAYER
  5
586
330
2
100
AcDbSymbolTableRecord
100
AcDbLayerTableRecord
  2
Defpoints
 70
     0
 62
     7
  6
CONTINUOUS
290
     0
370
    -3
390
5
  0
ENDTAB
  0
TABLE
  2
STYLE
  5
11
330
0
100
AcDbSymbolTable
 70
     2
  0
STYLE
  5
15
330
11
100
AcDbSymbolTableRecord
100
AcDbTextStyleTableRecord
  2
STANDARD
 70
     0
 40
0.0
 41
1.0
 50
0.0
 71
     0
 42
5.4
  3
TXT
  4

  0
STYLE
  5
10
330
11
100
AcDbSymbolTableRecord
100
AcDbTextStyleTableRecord
  2
KANJI
 70
     0
 40
0.0
 41
1.0
 50
0.0
 71
     0
 42
9.0
  3
TXT
  4
BIGFONT
  0
ENDTAB
  0
TABLE
  2
VIEW
  5
27
330
0
100
AcDbSymbolTable
 70
     0
  0
ENDTAB
  0
TABLE
  2
UCS
  5
28
330
0
100
AcDbSymbolTable
 70
     0
  0
ENDTAB
  0
TABLE
  2
APPID
  5
B
330
0
100
AcDbSymbolTable
 70
     4
  0
APPID
  5
A
330
B
100
AcDbSymbolTableRecord
100
AcDbRegAppTableRecord
  2
ACAD
 70
     0
  0
APPID
  5
22
330
B
100
AcDbSymbolTableRecord
100
AcDbRegAppTableRecord
  2
ACAD_PSEXT
 70
     0
  0
APPID
  5
31
330
B
100
AcDbSymbolTableRecord
100
AcDbRegAppTableRecord
  2
ACAD_NAV_VCDISPLAY
 70
     0
  0
APPID
  5
565
330
B
100
AcDbSymbolTableRecord
100
AcDbRegAppTableRecord
  2
ACAD_MLEADERVER
 70
     0
  0
ENDTAB
  0
TABLE
  2
DIMSTYLE
  5
14
330
0
100
AcDbSymbolTable
 70
     1
100
AcDbDimStyleTable
  0
DIMSTYLE
105
13
330
14
100
AcDbSymbolTableRecord
100
AcDbDimStyleTableRecord
  2
STANDARD
 70
     0
178
     0
340
15
  0
ENDTAB
  0
TABLE
  2
BLOCK_RECORD
  5
18
330
0
100
AcDbSymbolTable
 70
     0
  0
BLOCK_RECORD
  5
19
102
{ACAD_XDICTIONARY
360
1A
102
}
330
18
100
AcDbSymbolTableRecord
100
AcDbBlockTableRecord
  2
*MODEL_SPACE
340
1F
  0
BLOCK_RECORD
  5
23
330
18
100
AcDbSymbolTableRecord
100
AcDbBlockTableRecord
  2
*PAPER_SPACE
340
26
  0
ENDTAB
  0
ENDSEC
  0
SECTION
  2
BLOCKS
  0
BLOCK
  5
1C
330
19
100
AcDbEntity
  8
0
100
AcDbBlockBegin
  2
*MODEL_SPACE
 70
     0
 10
0.0
 20
0.0
 30
0.0
  3
*MODEL_SPACE
  1

  0
ENDBLK
  5
1E
330
19
100
AcDbEntity
  8
0
100
AcDbBlockEnd
  0
BLOCK
  5
24
330
23
100
AcDbEntity
 67
     1
  8
0
100
AcDbBlockBegin
  2
*PAPER_SPACE
 70
     0
 10
0.0
 20
0.0
 30
0.0
  3
*PAPER_SPACE
  1

  0
ENDBLK
  5
25
330
23
100
AcDbEntity
 67
     1
  8
0
100
AcDbBlockEnd
  0
ENDSEC
  0
SECTION
  2
ENTITIES
  0
LINE
  5
7E
330
19
100
AcDbEntity
  8
L-CENTER
100
AcDbLine
 10
439.4809532386594
 20
215.6087137300979
 30
0.0
 11
148.4527644081959
 21
215.6087137300979
 31
0.0
  0
LINE
  5
86
330
19
100
AcDbEntity
  8
L-CENTER
100
AcDbLine
 10
134.35989466516
 20
240.608712730098
 30
0.0
 11
535.9518841512318
 21
240.608712730098
 31
0.0
  0
LINE
  5
87
330
19
100
AcDbEntity
  8
4
100
AcDbLine
 10
253.1558904081958
 20
263.108712730098
 30
0.0
 11
230.1558894081959
 21
263.108712730098
 31
0.0
  0
LINE
  5
88
330
19
100
AcDbEntity
  8
4
100
AcDbLine
 10
253.1558904081958
 20
255.608712730098
 30
0.0
 11
253.1558904081958
 21
276.608712730098
 31
0.0
  0
LINE
  5
89
330
19
100
AcDbEntity
  8
4
100
AcDbLine
 10
254.1558894081959
 20
276.608712730098
 30
0.0
 11
253.1558904081958
 21
276.608712730098
 31
0.0
  0
LINE
  5
8A
330
19
100
AcDbEntity
  8
4
100
AcDbLine
 10
230.1558894081959
 20
262.1087137300979
 30
0.0
 11
141.155888408196
 21
262.1087137300979
 31
0.0
  0
LINE
  5
8B
330
19
100
AcDbEntity
  8
4
100
AcDbLine
 10
230.1558894081959
 20
263.108712730098
 30
0.0
 11
230.1558894081959
 21
228.1087117300981
 31
0.0
  0
LINE
  5
8C
330
19
100
AcDbEntity
  8
4
100
AcDbLine
 10
225.155888408196
 20
265.6087117300981
 30
0.0
 11
140.1558894081959
 21
265.6087117300981
 31
0.0
  0
LINE
  5
8D
330
19
100
AcDbEntity
  8
4
100
AcDbLine
 10
225.155888408196
 20
265.6087117300981
 30
0.0
 11
225.155888408196
 21
262.1087137300979
 31
0.0
  0
LINE
  5
8F
330
19
100
AcDbEntity
  8
4
100
AcDbLine
 10
155.1558894081959
 20
219.1087117300981
 30
0.0
 11
141.155888408196
 21
219.1087117300981
 31
0.0
  0
LINE
  5
90
330
19
100
AcDbEntity
  8
4
100
AcDbLine
 10
140.1558894081959
 20
265.6087117300981
 30
0.0
 11
140.1558894081959
 21
220.1087137300979
 31
0.0
  0
LINE
  5
91
330
19
100
AcDbEntity
  8
4
100
AcDbLine
 10
141.155888408196
 20
262.1087137300979
 30
0.0
 11
141.155888408196
 21
219.1087117300981
 31
0.0
  0
LINE
  5
92
330
19
100
AcDbEntity
  8
4
100
AcDbLine
 10
140.1558894081959
 20
261.1087117300981
 30
0.0
 11
141.155888408196
 21
262.1087137300979
 31
0.0
  0
LINE
  5
93
330
19
100
AcDbEntity
  8
4
100
AcDbLine
 10
141.155888408196
 20
219.1087117300981
 30
0.0
 11
140.1558894081959
 21
220.1087137300979
 31
0.0
  0
LINE
  5
94
330
19
100
AcDbEntity
  8
4
100
AcDbLine
 10
234.155888408196
 20
241.6087117300981
 30
0.0
 11
234.155888408196
 21
189.608712730098
 31
0.0
  0
LINE
  5
95
330
19
100
AcDbEntity
  8
4
100
AcDbLine
 10
234.155888408196
 20
241.6087117300981
 30
0.0
 11
234.155888408196
 21
189.608712730098
 31
0.0
  0
LINE
  5
96
330
19
100
AcDbEntity
  8
4
100
AcDbLine
 10
235.1558904081958
 20
241.6087117300981
 30
0.0
 11
234.155888408196
 21
241.6087117300981
 31
0.0
  0
LINE
  5
97
330
19
100
AcDbEntity
  8
4
100
AcDbLine
 10
234.155888408196
 20
241.6087117300981
 30
0.0
 11
235.1558904081958
 21
241.6087117300981
 31
0.0
  0
LINE
  5
98
330
19
100
AcDbEntity
  8
4
100
AcDbLine
 10
235.1558904081958
 20
189.608712730098
 30
0.0
 11
234.155888408196
 21
189.608712730098
 31
0.0
  0
LINE
  5
99
330
19
100
AcDbEntity
  8
4
100
AcDbLine
 10
234.155888408196
 20
189.608712730098
 30
0.0
 11
235.1558904081958
 21
189.608712730098
 31
0.0
  0
LINE
  5
9A
330
19
100
AcDbEntity
  8
4
100
AcDbLine
 10
347.6558904081958
 20
367.108712730098
 30
0.0
 11
347.6558904081958
 21
369.108712730098
 31
0.0
  0
LINE
  5
9B
330
19
100
AcDbEntity
  8
4
100
AcDbLine
 10
346.655888408196
 20
365.6087137300979
 30
0.0
 11
346.655888408196
 21
367.108712730098
 31
0.0
  0
LINE
  5
9C
330
19
100
AcDbEntity
  8
4
100
AcDbLine
 10
345.3783024081959
 20
369.108712730098
 30
0.0
 11
345.3783024081959
 21
373.1087117300981
 31
0.0
  0
LINE
  5
9D
330
19
100
AcDbEntity
  8
4
100
AcDbLine
 10
324.9334764081959
 20
369.108712730098
 30
0.0
 11
324.9334764081959
 21
373.1087117300981
 31
0.0
  0
LINE
  5
9E
330
19
100
AcDbEntity
  8
4
100
AcDbLine
 10
323.6558904081958
 20
365.6087137300979
 30
0.0
 11
323.6558904081958
 21
367.108712730098
 31
0.0
  0
LINE
  5
9F
330
19
100
AcDbEntity
  8
4
100
AcDbLine
 10
322.655888408196
 20
369.108712730098
 30
0.0
 11
322.655888408196
 21
367.108712730098
 31
0.0
  0
LINE
  5
A0
330
19
100
AcDbEntity
  8
4
100
AcDbLine
 10
345.3783024081959
 20
373.108711730098
 30
0.0
 11
324.9334764081959
 21
373.1087117300981
 31
0.0
  0
LINE
  5
A1
330
19
100
AcDbEntity
  8
4
100
AcDbLine
 10
347.6558904081958
 20
369.108712730098
 30
0.0
 11
322.655888408196
 21
369.108712730098
 31
0.0
  0
LINE
  5
A2
330
19
100
AcDbEntity
  8
4
100
AcDbLine
 10
347.6558904081958
 20
367.108712730098
 30
0.0
 11
322.655888408196
 21
367.108712730098
 31
0.0
  0
LINE
  5
A3
330
19
100
AcDbEntity
  8
4
100
AcDbLine
 10
351.155888408196
 20
365.6087137300979
 30
0.0
 11
319.1558904081958
 21
365.6087137300979
 31
0.0
  0
LINE
  5
A4
330
19
100
AcDbEntity
  8
L-CENTER
100
AcDbLine
 10
284.6946224533034
 20
335.8716517300977
 30
0.0
 11
243.956183408196
 21
335.8716517300977
 31
0.0
  0
LINE
  5
A5
330
19
100
AcDbEntity
  8
4
100
AcDbLine
 10
255.1558894081959
 20
329.3716517300977
 30
0.0
 11
247.1558894081959
 21
329.3716517300977
 31
0.0
  0
LINE
  5
A6
330
19
100
AcDbEntity
  8
4
100
AcDbLine
 10
255.1558894081959
 20
342.3716517300977
 30
0.0
 11
247.1558894081959
 21
342.3716517300977
 31
0.0
  0
LINE
  5
A7
330
19
100
AcDbEntity
  8
4
100
AcDbLine
 10
257.1558894081959
 20
328.6216517300977
 30
0.0
 11
255.1558894081959
 21
328.6216517300977
 31
0.0
  0
LINE
  5
A8
330
19
100
AcDbEntity
  8
4
100
AcDbLine
 10
257.1558894081959
 20
343.1216517300977
 30
0.0
 11
255.1558894081959
 21
343.1216517300977
 31
0.0
  0
LINE
  5
A9
330
19
100
AcDbEntity
  8
4
100
AcDbLine
 10
257.1558894081959
 20
359.6087137300979
 30
0.0
 11
257.1558894081959
 21
255.608712730098
 31
0.0
  0
LINE
  5
AA
330
19
100
AcDbEntity
  8
4
100
AcDbLine
 10
255.1558894081959
 20
343.1216517300977
 30
0.0
 11
255.1558894081959
 21
328.6216517300977
 31
0.0
  0
LINE
  5
AB
330
19
100
AcDbEntity
  8
4
100
AcDbLine
 10
247.1558894081959
 20
342.3716517300977
 30
0.0
 11
247.1558894081959
 21
329.3716517300977
 31
0.0
  0
LINE
  5
AC
330
19
100
AcDbEntity
  8
4
100
AcDbLine
 10
258.155888408196
 20
360.608712730098
 30
0.0
 11
270.155888408196
 21
360.608712730098
 31
0.0
  0
ARC
  5
AD
330
19
100
AcDbEntity
  8
4
100
AcDbCircle
 10
258.155888408196
 20
359.6087137300979
 30
0.0
 40
0.999999
100
AcDbArc
 50
90.0
 51
180.0
  0
LINE
  5
AE
330
19
100
AcDbEntity
  8
4
100
AcDbLine
 10
254.1558894081959
 20
255.608712730098
 30
0.0
 11
254.1558894081959
 21
285.608712730098
 31
0.0
  0
LINE
  5
AF
330
19
100
AcDbEntity
  8
4
100
AcDbLine
 10
257.1558894081959
 20
287.483712730098
 30
0.0
 11
254.1558894081959
 21
285.608712730098
 31
0.0
  0
LINE
  5
B0
330
19
100
AcDbEntity
  8
L-CENTER
100
AcDbLine
 10
1078.503059325014
 20
240.608712730098
 30
0.0
 11
819.5918110587265
 21
240.608712730098
 31
0.0
  0
LINE
  5
B1
330
19
100
AcDbEntity
  8
L-CENTER
100
AcDbLine
 10
966.2354147156982
 20
50.60871373009786
 30
0.0
 11
931.8594556680425
 21
50.60871373009786
 31
0.0
  0
LINE
  5
B2
330
19
100
AcDbEntity
  8
L-CENTER
100
AcDbLine
 10
764.0474341918705
 20
9.608713730097861
 30
0.0
 11
764.0474341918705
 21
56.60871273009798
 31
0.0
  0
LINE
  5
B3
330
19
100
AcDbEntity
  8
L-CENTER
100
AcDbLine
 10
1049.04743419187
 20
9.608713730097861
 30
0.0
 11
1049.04743419187
 21
56.60871273009798
 31
0.0
  0
ARC
  5
B4
330
19
100
AcDbEntity
  8
4
100
AcDbCircle
 10
335.1558894081959
 20
-285.3912862699021
 30
0.0
 40
649.9999470000001
100
AcDbArc
 50
84.437963
 51
95.562383
  0
LINE
  5
B5
330
19
100
AcDbEntity
  8
4
100
AcDbLine
 10
272.1558894081959
 20
361.5484087300979
 30
0.0
 11
272.1558894081959
 21
255.608712730098
 31
0.0
  0
LINE
  5
B6
330
19
100
AcDbEntity
  8
4
100
AcDbLine
 10
398.1558894081959
 20
360.608712730098
 30
0.0
 11
410.1558894081959
 21
360.608712730098
 31
0.0
  0
LINE
  5
B7
330
19
100
AcDbEntity
  8
4
100
AcDbLine
 10
398.1558894081959
 20
361.5484087300979
 30
0.0
 11
398.1558894081959
 21
255.608712730098
 31
0.0
  0
LINE
  5
B8
330
19
100
AcDbEntity
  8
4
100
AcDbLine
 10
354.155888408196
 20
364.3308817300976
 30
0.0
 11
354.155888408196
 21
365.6087137300979
 31
0.0
  0
LINE
  5
B9
330
19
100
AcDbEntity
  8
4
100
AcDbLine
 10
316.1558904081958
 20
364.3308817300976
 30
0.0
 11
316.1558904081958
 21
365.6087137300979
 31
0.0
  0
LINE
  5
BA
330
19
100
AcDbEntity
  8
4
100
AcDbLine
 10
354.155888408196
 20
365.6087137300979
 30
0.0
 11
316.1558904081958
 21
365.6087137300979
 31
0.0
  0
LINE
  5
BB
330
19
100
AcDbEntity
  8
4
100
AcDbLine
 10
411.155888408196
 20
359.6087137300979
 30
0.0
 11
411.155888408196
 21
255.608712730098
 31
0.0
  0
ARC
  5
BC
330
19
100
AcDbEntity
  8
4
100
AcDbCircle
 10
410.1558894081959
 20
359.6087137300979
 30
0.0
 40
0.999999
100
AcDbArc
 50
0.0
 51
90.0
  0
LINE
  5
BD
330
19
100
AcDbEntity
  8
4
100
AcDbLine
 10
416.1558894081959
 20
255.608712730098
 30
0.0
 11
416.1558894081959
 21
285.608712730098
 31
0.0
  0
LINE
  5
BE
330
19
100
AcDbEntity
  8
4
100
AcDbLine
 10
411.155888408196
 20
288.7337137300979
 30
0.0
 11
416.1558894081959
 21
285.608712730098
 31
0.0
  0
LINE
  5
BF
330
19
100
AcDbEntity
  8
4
100
AcDbLine
 10
272.1558894081959
 20
361.6087117300981
 30
0.0
 11
270.155888408196
 21
361.6087117300981
 31
0.0
  0
LINE
  5
C0
330
19
100
AcDbEntity
  8
4
100
AcDbLine
 10
270.155888408196
 20
255.608712730098
 30
0.0
 11
270.155888408196
 21
361.6087117300981
 31
0.0
  0
LINE
  5
C1
330
19
100
AcDbEntity
  8
4
100
AcDbLine
 10
425.0184384081958
 20
175.6087117300981
 30
0.0
 11
433.1558904081958
 21
175.6087117300981
 31
0.0
  0
LINE
  5
C2
330
19
100
AcDbEntity
  8
4
100
AcDbLine
 10
237.155888408196
 20
175.6087117300981
 30
0.0
 11
245.2933404081959
 21
175.6087117300981
 31
0.0
  0
LINE
  5
C3
330
19
100
AcDbEntity
  8
4
100
AcDbLine
 10
435.155888408196
 20
254.6087137300979
 30
0.0
 11
435.155888408196
 21
176.6087137300979
 31
0.0
  0
LINE
  5
C4
330
19
100
AcDbEntity
  8
4
100
AcDbLine
 10
435.155888408196
 20
254.6087137300979
 30
0.0
 11
433.1558904081958
 21
254.6087137300979
 31
0.0
  0
LINE
  5
C5
330
19
100
AcDbEntity
  8
4
100
AcDbLine
 10
433.1558904081958
 20
255.608712730098
 30
0.0
 11
237.155888408196
 21
255.608712730098
 31
0.0
  0
LINE
  5
C6
330
19
100
AcDbEntity
  8
4
100
AcDbLine
 10
433.1558904081958
 20
255.608712730098
 30
0.0
 11
433.1558904081958
 21
175.6087117300981
 31
0.0
  0
LINE
  5
C7
330
19
100
AcDbEntity
  8
4
100
AcDbLine
 10
235.1558904081958
 20
254.6087137300979
 30
0.0
 11
237.155888408196
 21
254.6087137300979
 31
0.0
  0
LINE
  5
C8
330
19
100
AcDbEntity
  8
4
100
AcDbLine
 10
433.1558904081958
 20
176.6087137300979
 30
0.0
 11
435.155888408196
 21
176.6087137300979
 31
0.0
  0
LINE
  5
C9
330
19
100
AcDbEntity
  8
4
100
AcDbLine
 10
235.1558904081958
 20
176.6087137300979
 30
0.0
 11
237.155888408196
 21
176.6087137300979
 31
0.0
  0
LINE
  5
CA
330
19
100
AcDbEntity
  8
4
100
AcDbLine
 10
235.1558904081958
 20
254.6087137300979
 30
0.0
 11
235.1558904081958
 21
176.6087137300979
 31
0.0
  0
LINE
  5
CB
330
19
100
AcDbEntity
  8
4
100
AcDbLine
 10
237.155888408196
 20
255.608712730098
 30
0.0
 11
237.155888408196
 21
175.6087117300981
 31
0.0
  0
LINE
  5
CC
330
19
100
AcDbEntity
  8
L-CENTER
100
AcDbLine
 10
434.6047209888939
 20
125.6087137300979
 30
0.0
 11
235.7070578274979
 21
125.6087137300979
 31
0.0
  0
LINE
  5
CD
330
19
100
AcDbEntity
  8
2
100
AcDbLine
 10
418.09926608117
 20
123.1087137300979
 30
0.0
 11
415.2125147352219
 21
123.1087137300979
 31
0.0
  0
LINE
  5
CE
330
19
100
AcDbEntity
  8
2
100
AcDbLine
 10
418.09926608117
 20
128.1087137300979
 30
0.0
 11
415.2125147352219
 21
128.1087137300979
 31
0.0
  0
LINE
  5
CF
330
19
100
AcDbEntity
  8
2
100
AcDbLine
 10
419.5426417541441
 20
125.6087137300979
 30
0.0
 11
418.09926608117
 21
123.1087137300979
 31
0.0
  0
LINE
  5
D0
330
19
100
AcDbEntity
  8
2
100
AcDbLine
 10
415.2125147352219
 20
128.1087137300979
 30
0.0
 11
413.7691390622478
 21
125.6087137300979
 31
0.0
  0
LINE
  5
D1
330
19
100
AcDbEntity
  8
4
100
AcDbLine
 10
437.6558904081958
 20
20.60871373009786
 30
0.0
 11
437.6558904081958
 21
45.60871273009798
 31
0.0
  0
LINE
  5
D2
330
19
100
AcDbEntity
  8
4
100
AcDbLine
 10
422.6558904081958
 20
20.60871373009786
 30
0.0
 11
422.6558904081958
 21
45.60871273009798
 31
0.0
  0
ARC
  5
D3
330
19
100
AcDbEntity
  8
4
100
AcDbCircle
 10
413.3199534081959
 20
43.73957173009785
 30
0.0
 40
3.446205
100
AcDbArc
 50
294.7022919999988
 51
32.84570799999885
  0
ARC
  5
D4
330
19
100
AcDbEntity
  8
4
100
AcDbCircle
 10
416.200568408196
 20
37.47785173009765
 30
0.0
 40
3.446205
100
AcDbArc
 50
114.7022700000017
 51
212.8457029999964
  0
ARC
  5
D5
330
19
100
AcDbEntity
  8
4
100
AcDbCircle
 10
410.410040408196
 20
33.73957273009773
 30
0.0
 40
3.446205
100
AcDbArc
 50
294.7022769999978
 51
32.84570799999885
  0
ARC
  5
D6
330
19
100
AcDbEntity
  8
4
100
AcDbCircle
 10
413.2904124081958
 20
27.47785273009822
 30
0.0
 40
3.446205
100
AcDbArc
 50
114.7022849999978
 51
212.8456939999982
  0
ARC
  5
D7
330
19
100
AcDbEntity
  8
4
100
AcDbCircle
 10
407.4998844081958
 20
23.73957073009797
 30
0.0
 40
3.446205
100
AcDbArc
 50
294.7022770000019
 51
32.84571700000076
  0
ARC
  5
D8
330
19
100
AcDbEntity
  8
4
100
AcDbCircle
 10
407.4998844081958
 20
23.73957073009797
 30
0.0
 40
3.446205
100
AcDbArc
 50
294.7022770000019
 51
32.84571700000076
  0
ARC
  5
D9
330
19
100
AcDbEntity
  8
4
100
AcDbCircle
 10
413.2904124081958
 20
27.47785273009822
 30
0.0
 40
3.446205
100
AcDbArc
 50
114.7022849999978
 51
212.8456939999982
  0
ARC
  5
DA
330
19
100
AcDbEntity
  8
4
100
AcDbCircle
 10
410.410040408196
 20
33.73957273009773
 30
0.0
 40
3.446205
100
AcDbArc
 50
294.7022769999978
 51
32.84570799999885
  0
ARC
  5
DB
330
19
100
AcDbEntity
  8
4
100
AcDbCircle
 10
416.200568408196
 20
37.47785173009765
 30
0.0
 40
3.446205
100
AcDbArc
 50
114.7022700000017
 51
212.8457029999964
  0
ARC
  5
DC
330
19
100
AcDbEntity
  8
4
100
AcDbCircle
 10
413.3199534081959
 20
43.73957173009785
 30
0.0
 40
3.446205
100
AcDbArc
 50
294.7022919999988
 51
32.84570799999885
  0
LINE
  5
DD
330
19
100
AcDbEntity
  8
4
100
AcDbLine
 10
410.713751408196
 20
45.60871273009798
 30
0.0
 11
453.155888408196
 21
45.60871273009798
 31
0.0
  0
ARC
  5
DE
330
19
100
AcDbEntity
  8
4
100
AcDbCircle
 10
410.713751408196
 20
55.60871173009809
 30
0.0
 40
9.999999
100
AcDbArc
 50
137.1864850000009
 51
270.0013979999993
  0
LINE
  5
DF
330
19
100
AcDbEntity
  8
4
100
AcDbLine
 10
259.5980274081958
 20
45.60871273009798
 30
0.0
 11
217.1558904081958
 21
45.60871273009798
 31
0.0
  0
ARC
  5
E0
330
19
100
AcDbEntity
  8
4
100
AcDbCircle
 10
259.5980274081958
 20
55.60871173009809
 30
0.0
 40
9.999999
100
AcDbArc
 50
270.0013980000005
 51
42.81351499999911
  0
ARC
  5
E1
330
19
100
AcDbEntity
  8
4
100
AcDbCircle
 10
28.15589040819577
 20
125.6084677300978
 30
0.0
 40
399.99996
100
AcDbArc
 50
0.0000350047194963
 51
11.66223099999995
  0
ARC
  5
E2
330
19
100
AcDbEntity
  8
4
100
AcDbCircle
 10
642.155888408196
 20
125.6084677300978
 30
0.0
 40
400.0000199999999
100
AcDbArc
 50
168.338379
 51
180.0003499992971
  0
ARC
  5
E3
330
19
100
AcDbEntity
  8
4
100
AcDbCircle
 10
335.1558894081959
 20
-181.3912882699019
 30
0.0
 40
400.0000620000001
100
AcDbArc
 50
78.337844
 51
101.662156
  0
ARC
  5
E4
330
19
100
AcDbEntity
  8
4
100
AcDbCircle
 10
415.0015944081958
 20
205.4544157300982
 30
0.0
 40
4.999953
100
AcDbArc
 50
11.66272799999969
 51
78.33727200000048
  0
ARC
  5
E5
330
19
100
AcDbEntity
  8
4
100
AcDbCircle
 10
255.3101874081958
 20
205.4544157300982
 30
0.0
 40
4.999953
100
AcDbArc
 50
101.6627279999995
 51
168.3372720000003
  0
LINE
  5
E6
330
19
100
AcDbEntity
  8
L-CENTER
100
AcDbLine
 10
240.155888408196
 20
56.60871273009798
 30
0.0
 11
240.155888408196
 21
9.608713730097861
 31
0.0
  0
LINE
  5
E7
330
19
100
AcDbEntity
  8
L-CENTER
100
AcDbLine
 10
430.1558904081958
 20
9.608713730097861
 30
0.0
 11
430.1558904081958
 21
56.60871273009798
 31
0.0
  0
LINE
  5
E8
330
19
100
AcDbEntity
  8
4
100
AcDbLine
 10
455.1558894081959
 20
20.60871373009786
 30
0.0
 11
455.1558894081959
 21
43.60871173009809
 31
0.0
  0
LINE
  5
E9
330
19
100
AcDbEntity
  8
4
100
AcDbLine
 10
455.1558894081959
 20
20.60871373009786
 30
0.0
 11
215.1558894081959
 21
20.60871373009786
 31
0.0
  0
LINE
  5
EA
330
19
100
AcDbEntity
  8
4
100
AcDbLine
 10
215.1558894081959
 20
20.60871373009786
 30
0.0
 11
215.1558894081959
 21
43.60871173009809
 31
0.0
  0
ARC
  5
EB
330
19
100
AcDbEntity
  8
4
100
AcDbCircle
 10
453.155888408196
 20
43.60871173009809
 30
0.0
 40
2.000001
100
AcDbArc
 50
0.0
 51
90.0
  0
ARC
  5
EC
330
19
100
AcDbEntity
  8
4
100
AcDbCircle
 10
217.1558904081958
 20
43.60871173009809
 30
0.0
 40
2.000001
100
AcDbArc
 50
90.0
 51
180.0
  0
LINE
  5
ED
330
19
100
AcDbEntity
  8
4
100
AcDbLine
 10
728.5474351918704
 20
32.60871373009786
 30
0.0
 11
727.0474351918704
 21
32.60871373009786
 31
0.0
  0
ARC
  5
EE
330
19
100
AcDbEntity
  8
4
100
AcDbCircle
 10
728.5474351918704
 20
29.60871373009786
 30
0.0
 40
3.0
100
AcDbArc
 50
0.0
 51
90.0
  0
LINE
  5
EF
330
19
100
AcDbEntity
  8
4
100
AcDbLine
 10
731.5474351918704
 20
43.60871173009809
 30
0.0
 11
731.5474351918704
 21
20.60871373009786
 31
0.0
  0
LINE
  5
F0
330
19
100
AcDbEntity
  8
4
100
AcDbLine
 10
733.5474331918704
 20
45.60871273009798
 30
0.0
 11
884.0474341918705
 21
45.60871273009798
 31
0.0
  0
ARC
  5
F1
330
19
100
AcDbEntity
  8
4
100
AcDbCircle
 10
733.5474331918704
 20
43.60871173009809
 30
0.0
 40
2.000001
100
AcDbArc
 50
90.0
 51
180.0
  0
LINE
  5
F2
330
19
100
AcDbEntity
  8
4
100
AcDbLine
 10
826.5474331918706
 20
35.60871373009786
 30
0.0
 11
986.5474351918704
 21
35.60871373009786
 31
0.0
  0
ARC
  5
F3
330
19
100
AcDbEntity
  8
4
100
AcDbCircle
 10
826.5474331918706
 20
25.60871173009809
 30
0.0
 40
9.999999
100
AcDbArc
 50
90.0
 51
180.0013980003158
  0
LINE
  5
F4
330
19
100
AcDbEntity
  8
4
100
AcDbLine
 10
889.0474351918704
 20
50.60871373009786
 30
0.0
 11
889.0474351918704
 21
117.1106647300983
 31
0.0
  0
ARC
  5
F5
330
19
100
AcDbEntity
  8
4
100
AcDbCircle
 10
884.0474341918705
 20
50.60871373009786
 30
0.0
 40
5.000000999999999
100
AcDbArc
 50
270.0
 51
0.0
  0
ARC
  5
F6
330
19
100
AcDbEntity
  8
4
100
AcDbCircle
 10
884.0474341918705
 20
117.1106647300983
 30
0.0
 40
5.000061
100
AcDbArc
 50
0.0
 51
83.83343699999872
  0
LINE
  5
F7
330
19
100
AcDbEntity
  8
4
100
AcDbLine
 10
1009.04743519187
 20
117.1106647300983
 30
0.0
 11
1009.04743519187
 21
50.60871373009786
 31
0.0
  0
ARC
  5
F8
330
19
100
AcDbEntity
  8
4
100
AcDbCircle
 10
1014.047433191871
 20
117.1106647300983
 30
0.0
 40
4.999941000000001
100
AcDbArc
 50
96.1668749999985
 51
180.0
  0
ARC
  5
F9
330
19
100
AcDbEntity
  8
4
100
AcDbCircle
 10
1014.047433191871
 20
50.60871373009786
 30
0.0
 40
5.000000999999999
100
AcDbArc
 50
180.0
 51
270.0
  0
ARC
  5
FA
330
19
100
AcDbEntity
  8
4
100
AcDbCircle
 10
986.5474351918704
 20
25.60871173009809
 30
0.0
 40
9.999999
100
AcDbArc
 50
0.0
 51
90.0
  0
LINE
  5
FB
330
19
100
AcDbEntity
  8
4
100
AcDbLine
 10
996.5474341918705
 20
43.60871173009809
 30
0.0
 11
996.5474341918705
 21
20.60871373009786
 31
0.0
  0
LINE
  5
FC
330
19
100
AcDbEntity
  8
4
100
AcDbLine
 10
998.5474351918704
 20
45.60871273009798
 30
0.0
 11
1079.54743519187
 21
45.60871273009798
 31
0.0
  0
ARC
  5
FD
330
19
100
AcDbEntity
  8
4
100
AcDbCircle
 10
998.5474351918704
 20
43.60871173009809
 30
0.0
 40
2.000001
100
AcDbArc
 50
90.0
 51
180.0
  0
LINE
  5
FE
330
19
100
AcDbEntity
  8
4
100
AcDbLine
 10
1081.547433191871
 20
43.60871173009809
 30
0.0
 11
1081.547433191871
 21
20.60871373009786
 31
0.0
  0
ARC
  5
FF
330
19
100
AcDbEntity
  8
4
100
AcDbCircle
 10
1079.54743519187
 20
43.60871173009809
 30
0.0
 40
2.000001
100
AcDbArc
 50
0.0
 51
90.0
  0
LINE
  5
100
330
19
100
AcDbEntity
  8
4
100
AcDbLine
 10
1068.047433191871
 20
55.60871173009809
 30
0.0
 11
1068.047433191871
 21
185.9187697300981
 31
0.0
  0
ARC
  5
101
330
19
100
AcDbEntity
  8
4
100
AcDbCircle
 10
1078.04743519187
 20
55.60871173009809
 30
0.0
 40
9.999999
100
AcDbArc
 50
180.0013980003158
 51
270.0013979999993
  0
LINE
  5
102
330
19
100
AcDbEntity
  8
4
100
AcDbLine
 10
808.0474351918704
 20
62.60871373009786
 30
0.0
 11
808.0474351918704
 21
178.5230197300982
 31
0.0
  0
LINE
  5
103
330
19
100
AcDbEntity
  8
4
100
AcDbLine
 10
744.0474331918704
 20
62.4048547300979
 30
0.0
 11
744.0474331918704
 21
177.8714077300981
 31
0.0
  0
LINE
  5
104
330
19
100
AcDbEntity
  8
4
100
AcDbLine
 10
808.0474351918704
 20
62.60871373009786
 30
0.0
 11
744.0474331918704
 21
62.60871373009786
 31
0.0
  0
LINE
  5
105
330
19
100
AcDbEntity
  8
4
100
AcDbLine
 10
727.0474351918704
 20
62.4048547300979
 30
0.0
 11
744.0474331918704
 21
62.4048547300979
 31
0.0
  0
ARC
  5
106
330
19
100
AcDbEntity
  8
4
100
AcDbCircle
 10
774.0474331918706
 20
55.60871173009809
 30
0.0
 40
200.000085
100
AcDbArc
 50
80.25625700000005
 51
99.74416900000008
  0
ARC
  5
107
330
19
100
AcDbEntity
  8
4
100
AcDbCircle
 10
807.2197981918705
 20
248.7810757300979
 30
0.0
 40
4.000088999999999
100
AcDbArc
 50
9.744023999999818
 51
80.25597599999674
  0
ARC
  5
108
330
19
100
AcDbEntity
  8
4
100
AcDbCircle
 10
774.0474331918706
 20
54.60871273009798
 30
0.0
 40
199.999962
100
AcDbArc
 50
80.50978300000006
 51
99.49071100000008
  0
ARC
  5
109
330
19
100
AcDbEntity
  8
4
100
AcDbCircle
 10
614.0474341918705
 20
215.6087137300979
 30
0.0
 40
200.000019
100
AcDbArc
 50
350.2568889999999
 51
9.744167999999995
  0
ARC
  5
10A
330
19
100
AcDbEntity
  8
4
100
AcDbCircle
 10
807.2197981918705
 20
248.7810757300979
 30
0.0
 40
4.000088999999999
100
AcDbArc
 50
9.744023999999818
 51
80.25597599999674
  0
ARC
  5
10B
330
19
100
AcDbEntity
  8
4
100
AcDbCircle
 10
613.0474351918704
 20
215.6087137300979
 30
0.0
 40
199.99998
100
AcDbArc
 50
350.510565
 51
9.49071099999999
  0
ARC
  5
10C
330
19
100
AcDbEntity
  8
4
100
AcDbCircle
 10
806.3648161918702
 20
247.9260967300979
 30
0.0
 40
4.000041
100
AcDbArc
 50
9.488754999999399
 51
80.51122799999615
  0
ARC
  5
10D
330
19
100
AcDbEntity
  8
4
100
AcDbCircle
 10
934.0474351918704
 20
215.6087137300979
 30
0.0
 40
200.000025
100
AcDbArc
 50
170.256751
 51
189.744456
  0
ARC
  5
10E
330
19
100
AcDbEntity
  8
4
100
AcDbCircle
 10
774.0471901918702
 20
375.608712730098
 30
0.0
 40
199.999944
100
AcDbArc
 50
260.2569580000001
 51
279.7448120000001
  0
ARC
  5
10F
330
19
100
AcDbEntity
  8
4
100
AcDbCircle
 10
740.8750711918703
 20
182.4363487300982
 30
0.0
 40
4.000088999999999
100
AcDbArc
 50
189.7440269999999
 51
260.2559760000034
  0
ARC
  5
110
330
19
100
AcDbEntity
  8
4
100
AcDbCircle
 10
774.0471901918702
 20
376.6087117300981
 30
0.0
 40
200.000022
100
AcDbArc
 50
260.510496
 51
279.491206
  0
ARC
  5
111
330
19
100
AcDbEntity
  8
4
100
AcDbCircle
 10
935.0474341918705
 20
215.6087137300979
 30
0.0
 40
199.999902
100
AcDbArc
 50
170.5103460000001
 51
189.4910679999999
  0
ARC
  5
112
330
19
100
AcDbEntity
  8
4
100
AcDbCircle
 10
741.7300501918705
 20
183.2913307300978
 30
0.0
 40
4.000041
100
AcDbArc
 50
189.488769000001
 51
260.5112279999962
  0
ARC
  5
113
330
19
100
AcDbEntity
  8
4
100
AcDbCircle
 10
741.7300501918705
 20
247.9260967300979
 30
0.0
 40
4.000041
100
AcDbArc
 50
99.48877200000388
 51
170.5112450000006
  0
ARC
  5
114
330
19
100
AcDbEntity
  8
4
100
AcDbCircle
 10
740.8750711918703
 20
248.7810757300979
 30
0.0
 40
4.000088999999999
100
AcDbArc
 50
99.7440239999966
 51
170.2559730000001
  0
ARC
  5
115
330
19
100
AcDbEntity
  8
4
100
AcDbCircle
 10
807.2197981918705
 20
182.4363487300982
 30
0.0
 40
4.000088999999999
100
AcDbArc
 50
279.7440240000033
 51
350.2559760000001
  0
ARC
  5
116
330
19
100
AcDbEntity
  8
4
100
AcDbCircle
 10
806.3648161918702
 20
183.2913307300978
 30
0.0
 40
4.000041
100
AcDbArc
 50
279.4887720000038
 51
350.5112309999989
  0
LINE
  5
117
330
19
100
AcDbEntity
  8
L-CENTER
100
AcDbLine
 10
818.8254631918701
 20
215.6087137300979
 30
0.0
 11
729.2694031918704
 21
215.6087137300979
 31
0.0
  0
LINE
  5
118
330
19
100
AcDbEntity
  8
L-CENTER
100
AcDbLine
 10
949.0474351918704
 20
28.41174534995002
 30
0.0
 11
949.0474351918704
 21
378.1314871844033
 31
0.0
  0
LINE
  5
119
330
19
100
AcDbEntity
  8
4
100
AcDbLine
 10
960.5474341918705
 20
365.6087137300979
 30
0.0
 11
960.5474341918705
 21
367.108712730098
 31
0.0
  0
LINE
  5
11A
330
19
100
AcDbEntity
  8
4
100
AcDbLine
 10
961.5474331918706
 20
373.1087117300981
 30
0.0
 11
961.5474331918706
 21
367.108712730098
 31
0.0
  0
LINE
  5
11B
330
19
100
AcDbEntity
  8
4
100
AcDbLine
 10
937.5474331918706
 20
365.6087137300979
 30
0.0
 11
937.5474331918706
 21
367.108712730098
 31
0.0
  0
LINE
  5
11C
330
19
100
AcDbEntity
  8
4
100
AcDbLine
 10
936.5474341918705
 20
373.1087117300981
 30
0.0
 11
961.5474331918706
 21
373.1087117300981
 31
0.0
  0
LINE
  5
11D
330
19
100
AcDbEntity
  8
4
100
AcDbLine
 10
936.5474341918705
 20
369.108712730098
 30
0.0
 11
961.5474331918706
 21
369.1087127300981
 31
0.0
  0
LINE
  5
11E
330
19
100
AcDbEntity
  8
4
100
AcDbLine
 10
936.5474341918705
 20
367.108712730098
 30
0.0
 11
961.5474331918706
 21
367.108712730098
 31
0.0
  0
LINE
  5
11F
330
19
100
AcDbEntity
  8
4
100
AcDbLine
 10
936.5474341918705
 20
367.108712730098
 30
0.0
 11
936.5474341918705
 21
373.1087117300981
 31
0.0
  0
LINE
  5
120
330
19
100
AcDbEntity
  8
4
100
AcDbLine
 10
933.0474331918706
 20
365.6087137300979
 30
0.0
 11
965.0474341918705
 21
365.6087137300979
 31
0.0
  0
LINE
  5
121
330
19
100
AcDbEntity
  8
4
100
AcDbLine
 10
942.7974331918706
 20
369.108712730098
 30
0.0
 11
942.7974331918706
 21
373.1087117300981
 31
0.0
  0
LINE
  5
122
330
19
100
AcDbEntity
  8
4
100
AcDbLine
 10
955.2974341918705
 20
369.108712730098
 30
0.0
 11
955.2974341918705
 21
373.1087117300981
 31
0.0
  0
LINE
  5
123
330
19
100
AcDbEntity
  8
4
100
AcDbLine
 10
968.0474341918705
 20
365.6087137300979
 30
0.0
 11
968.0474341918705
 21
364.3076857300982
 31
0.0
  0
LINE
  5
124
330
19
100
AcDbEntity
  8
4
100
AcDbLine
 10
968.0474341918705
 20
365.6087137300979
 30
0.0
 11
930.0474331918706
 21
365.6087137300979
 31
0.0
  0
LINE
  5
125
330
19
100
AcDbEntity
  8
4
100
AcDbLine
 10
930.0474331918706
 20
364.3076857300982
 30
0.0
 11
930.0474331918706
 21
365.6087137300979
 31
0.0
  0
LINE
  5
126
330
19
100
AcDbEntity
  8
4
100
AcDbLine
 10
725.0474341918705
 20
215.6087137300979
 30
0.0
 11
727.0474351918704
 21
215.6087137300979
 31
0.0
  0
LINE
  5
127
330
19
100
AcDbEntity
  8
4
100
AcDbLine
 10
725.0474341918705
 20
35.60871373009786
 30
0.0
 11
727.0474351918704
 21
35.60871373009786
 31
0.0
  0
LINE
  5
128
330
19
100
AcDbEntity
  8
4
100
AcDbLine
 10
734.0698951918705
 20
218.6087137300979
 30
0.0
 11
727.0474351918704
 21
218.6087137300979
 31
0.0
  0
LINE
  5
129
330
19
100
AcDbEntity
  8
4
100
AcDbLine
 10
727.0474351918704
 20
218.6087137300979
 30
0.0
 11
727.0474351918704
 21
32.60871373009786
 31
0.0
  0
LINE
  5
12A
330
19
100
AcDbEntity
  8
4
100
AcDbLine
 10
725.0474341918705
 20
215.6087137300979
 30
0.0
 11
725.0474341918705
 21
35.60871373009786
 31
0.0
  0
LINE
  5
12B
330
19
100
AcDbEntity
  8
4
100
AcDbLine
 10
827.2725301918701
 20
255.608712730098
 30
0.0
 11
774.0474331918706
 21
255.608712730098
 31
0.0
  0
CIRCLE
  5
12C
330
19
100
AcDbEntity
  8
2
100
AcDbCircle
 10
949.0474351918704
 20
50.60871373009786
 30
0.0
 40
6.500000999999999
  0
CIRCLE
  5
12D
330
19
100
AcDbEntity
  8
4
100
AcDbCircle
 10
949.0474351918704
 20
50.60871373009786
 30
0.0
 40
7.500000999999999
  0
ARC
  5
12E
330
19
100
AcDbEntity
  8
4
100
AcDbCircle
 10
949.0474351918704
 20
50.60871373009786
 30
0.0
 40
12.0
100
AcDbArc
 50
0.0
 51
180.0011650000286
  0
LINE
  5
12F
330
19
100
AcDbEntity
  8
4
100
AcDbLine
 10
937.0474351918704
 20
35.60871373009786
 30
0.0
 11
937.0474351918704
 21
50.60871373009786
 31
0.0
  0
LINE
  5
130
330
19
100
AcDbEntity
  8
4
100
AcDbLine
 10
961.0474351918704
 20
35.60871373009786
 30
0.0
 11
961.0474351918704
 21
50.60871373009786
 31
0.0
  0
LINE
  5
131
330
19
100
AcDbEntity
  8
4
100
AcDbLine
 10
996.5474341918705
 20
20.60871373009786
 30
0.0
 11
1081.547433191871
 21
20.60871373009786
 31
0.0
  0
LINE
  5
132
330
19
100
AcDbEntity
  8
4
100
AcDbLine
 10
731.5474351918704
 20
20.60871373009786
 30
0.0
 11
816.5474341918705
 21
20.60871373009786
 31
0.0
  0
LINE
  5
133
330
19
100
AcDbEntity
  8
4
100
AcDbLine
 10
1031.54743519187
 20
20.60871373009786
 30
0.0
 11
1031.54743519187
 21
45.60871273009798
 31
0.0
  0
LINE
  5
134
330
19
100
AcDbEntity
  8
4
100
AcDbLine
 10
816.5474341918705
 20
20.60871373009786
 30
0.0
 11
816.5474341918705
 21
45.60871273009798
 31
0.0
  0
LINE
  5
135
330
19
100
AcDbEntity
  8
4
100
AcDbLine
 10
781.5474331918706
 20
20.60871373009786
 30
0.0
 11
781.5474331918706
 21
45.60871273009798
 31
0.0
  0
LINE
  5
136
330
19
100
AcDbEntity
  8
4
100
AcDbLine
 10
1072.547433191871
 20
94.6087117300981
 30
0.0
 11
1073.54743519187
 21
94.6087117300981
 31
0.0
  0
LINE
  5
137
330
19
100
AcDbEntity
  8
4
100
AcDbLine
 10
1073.54743519187
 20
94.6087117300981
 30
0.0
 11
1073.54743519187
 21
156.608712730098
 31
0.0
  0
LINE
  5
138
330
19
100
AcDbEntity
  8
4
100
AcDbLine
 10
1070.04743419187
 20
84.60871273009798
 30
0.0
 11
1072.547433191871
 21
84.60871273009798
 31
0.0
  0
LINE
  5
139
330
19
100
AcDbEntity
  8
4
100
AcDbLine
 10
1072.547433191871
 20
84.60871273009798
 30
0.0
 11
1072.547433191871
 21
166.6087117300981
 31
0.0
  0
LINE
  5
13A
330
19
100
AcDbEntity
  8
4
100
AcDbLine
 10
1068.047433191871
 20
70.6087117300981
 30
0.0
 11
1070.04743419187
 21
70.6087117300981
 31
0.0
  0
LINE
  5
13B
330
19
100
AcDbEntity
  8
4
100
AcDbLine
 10
1070.04743419187
 20
70.6087117300981
 30
0.0
 11
1070.04743419187
 21
180.608712730098
 31
0.0
  0
LINE
  5
13C
330
19
100
AcDbEntity
  8
4
100
AcDbLine
 10
1068.047433191871
 20
180.608712730098
 30
0.0
 11
1070.04743419187
 21
180.608712730098
 31
0.0
  0
LINE
  5
13D
330
19
100
AcDbEntity
  8
4
100
AcDbLine
 10
1072.547433191871
 20
156.608712730098
 30
0.0
 11
1073.54743519187
 21
156.608712730098
 31
0.0
  0
LINE
  5
13E
330
19
100
AcDbEntity
  8
4
100
AcDbLine
 10
1070.04743419187
 20
166.6087117300981
 30
0.0
 11
1072.547433191871
 21
166.6087117300981
 31
0.0
  0
LINE
  5
13F
330
19
100
AcDbEntity
  8
4
100
AcDbLine
 10
976.0474351918704
 20
325.6087117300981
 30
0.0
 11
922.0474351918704
 21
325.6087117300981
 31
0.0
  0
LINE
  5
140
330
19
100
AcDbEntity
  8
4
100
AcDbLine
 10
979.0474351918704
 20
322.6087117300981
 30
0.0
 11
979.0474351918704
 21
298.6087117300981
 31
0.0
  0
ARC
  5
141
330
19
100
AcDbEntity
  8
4
100
AcDbCircle
 10
976.0474351918704
 20
322.6087117300981
 30
0.0
 40
3.0
100
AcDbArc
 50
0.0
 51
90.0
  0
LINE
  5
142
330
19
100
AcDbEntity
  8
4
100
AcDbLine
 10
976.0474351918704
 20
295.6087117300981
 30
0.0
 11
922.0474351918704
 21
295.6087117300981
 31
0.0
  0
ARC
  5
143
330
19
100
AcDbEntity
  8
4
100
AcDbCircle
 10
976.0474351918704
 20
298.6087117300981
 30
0.0
 40
3.0
100
AcDbArc
 50
270.0
 51
0.0
  0
LINE
  5
144
330
19
100
AcDbEntity
  8
4
100
AcDbLine
 10
919.0474351918704
 20
298.6087117300981
 30
0.0
 11
919.0474351918704
 21
322.6087117300981
 31
0.0
  0
ARC
  5
145
330
19
100
AcDbEntity
  8
4
100
AcDbCircle
 10
922.0474351918704
 20
298.6087117300981
 30
0.0
 40
3.0
100
AcDbArc
 50
180.0
 51
270.0
  0
ARC
  5
146
330
19
100
AcDbEntity
  8
4
100
AcDbCircle
 10
922.0474351918704
 20
322.6087117300981
 30
0.0
 40
3.0
100
AcDbArc
 50
90.0
 51
180.0
  0
LINE
  5
147
330
19
100
AcDbEntity
  8
4
100
AcDbLine
 10
1030.900950191871
 20
285.608712730098
 30
0.0
 11
999.1223851918705
 21
285.608712730098
 31
0.0
  0
ARC
  5
148
330
19
100
AcDbEntity
  8
4
100
AcDbCircle
 10
1030.900950191871
 20
282.608712730098
 30
0.0
 40
3.000038999999999
100
AcDbArc
 50
27.16350800000254
 51
90.0
  0
ARC
  5
149
330
19
100
AcDbEntity
  8
4
100
AcDbCircle
 10
999.1223851918705
 20
282.608712730098
 30
0.0
 40
2.999949
100
AcDbArc
 50
90.0
 51
187.9665730000009
  0
LINE
  5
14A
330
19
100
AcDbEntity
  8
4
100
AcDbLine
 10
898.9724821918705
 20
285.608712730098
 30
0.0
 11
867.1939171918705
 21
285.608712730098
 31
0.0
  0
ARC
  5
14B
330
19
100
AcDbEntity
  8
4
100
AcDbCircle
 10
898.9724821918705
 20
282.608712730098
 30
0.0
 40
2.999949
100
AcDbArc
 50
352.0334300000006
 51
90.0
  0
ARC
  5
14C
330
19
100
AcDbEntity
  8
4
100
AcDbCircle
 10
867.1939171918705
 20
282.608712730098
 30
0.0
 40
3.000038999999999
100
AcDbArc
 50
90.0
 51
152.8364830000038
  0
ARC
  5
14D
330
19
100
AcDbEntity
  8
4
100
AcDbCircle
 10
949.0476781918708
 20
-14.39128726990202
 30
0.0
 40
300.000033
100
AcDbArc
 50
82.67879800000006
 51
97.32242199999999
  0
ARC
  5
14E
330
19
100
AcDbEntity
  8
4
100
AcDbCircle
 10
1199.04743419187
 20
240.6089557300977
 30
0.0
 40
299.999958
100
AcDbArc
 50
171.81665
 51
188.185143
  0
ARC
  5
14F
330
19
100
AcDbEntity
  8
4
100
AcDbCircle
 10
949.0476781918708
 20
-9.391286269902139
 30
0.0
 40
300.000009
100
AcDbArc
 50
81.81608300000005
 51
98.18438500000006
  0
ARC
  5
150
330
19
100
AcDbEntity
  8
4
100
AcDbCircle
 10
907.0518271918702
 20
282.6040747300981
 30
0.0
 40
4.999899000000001
100
AcDbArc
 50
98.18312099999653
 51
171.8141099999998
  0
ARC
  5
151
330
19
100
AcDbEntity
  8
4
100
AcDbCircle
 10
1204.04743519187
 20
240.6089557300977
 30
0.0
 40
300.000063
100
AcDbArc
 50
172.679128
 51
187.322468
  0
ARC
  5
152
330
19
100
AcDbEntity
  8
4
100
AcDbCircle
 10
911.4527071918703
 20
278.2034377300979
 30
0.0
 40
4.999998
100
AcDbArc
 50
97.32176800000092
 51
172.678231
  0
ARC
  5
153
330
19
100
AcDbEntity
  8
4
100
AcDbCircle
 10
949.0471891918703
 20
490.6087117300981
 30
0.0
 40
300.000078
100
AcDbArc
 50
261.8169340000001
 51
278.1850909999999
  0
ARC
  5
154
330
19
100
AcDbEntity
  8
4
100
AcDbCircle
 10
907.0518271918702
 20
198.6131077300981
 30
0.0
 40
5.000004000000001
100
AcDbArc
 50
188.1831219999998
 51
261.8172760000008
  0
ARC
  5
155
330
19
100
AcDbEntity
  8
4
100
AcDbCircle
 10
949.0471891918703
 20
495.608712730098
 30
0.0
 40
299.99997
100
AcDbArc
 50
262.679457
 51
277.3225210000001
  0
ARC
  5
156
330
19
100
AcDbEntity
  8
4
100
AcDbCircle
 10
911.4527071918703
 20
203.0139847300977
 30
0.0
 40
4.999998
100
AcDbArc
 50
187.321769
 51
262.678231
  0
ARC
  5
157
330
19
100
AcDbEntity
  8
4
100
AcDbCircle
 10
699.0474331918704
 20
240.608712730098
 30
0.0
 40
299.999955
100
AcDbArc
 50
351.8168349999999
 51
8.18433899999992
  0
ARC
  5
158
330
19
100
AcDbEntity
  8
4
100
AcDbCircle
 10
991.0430401918704
 20
198.6131077300981
 30
0.0
 40
5.000004000000001
100
AcDbArc
 50
278.1831220000011
 51
351.817277
  0
ARC
  5
159
330
19
100
AcDbEntity
  8
4
100
AcDbCircle
 10
694.0474351918704
 20
240.608712730098
 30
0.0
 40
299.999991
100
AcDbArc
 50
352.679266
 51
7.321670000000016
  0
ARC
  5
15A
330
19
100
AcDbEntity
  8
4
100
AcDbCircle
 10
986.6421601918703
 20
203.0139847300977
 30
0.0
 40
4.999998
100
AcDbArc
 50
277.321769
 51
352.6782320000005
  0
ARC
  5
15B
330
19
100
AcDbEntity
  8
4
100
AcDbCircle
 10
986.6421601918703
 20
278.2034377300979
 30
0.0
 40
4.999998
100
AcDbArc
 50
7.321767999998227
 51
82.67823199999908
  0
ARC
  5
15C
330
19
100
AcDbEntity
  8
4
100
AcDbCircle
 10
991.0430401918704
 20
282.6043177300978
 30
0.0
 40
4.999884
100
AcDbArc
 50
8.18312100000049
 51
81.81687899999822
  0
ARC
  5
15D
330
19
100
AcDbEntity
  8
4
100
AcDbCircle
 10
949.0474351918704
 20
-235.3912882699019
 30
0.0
 40
599.99997
100
AcDbArc
 50
79.80311500000002
 51
100.197457
  0
ARC
  5
15E
330
19
100
AcDbEntity
  8
4
100
AcDbCircle
 10
1327.04743519187
 20
240.6094447300982
 30
0.0
 40
500.000094
100
AcDbArc
 50
167.118405
 51
192.6363679999999
  0
ARC
  5
15F
330
19
100
AcDbEntity
  8
4
100
AcDbCircle
 10
843.5322961918703
 20
351.1941607300982
 30
0.0
 40
4.000035
100
AcDbArc
 50
100.1988110000035
 51
167.1172990000003
  0
ARC
  5
160
330
19
100
AcDbEntity
  8
4
100
AcDbCircle
 10
949.0471891918703
 20
718.6087117300981
 30
0.0
 40
600.000024
100
AcDbArc
 50
259.7577729999999
 51
280.244147
  0
ARC
  5
161
330
19
100
AcDbEntity
  8
4
100
AcDbCircle
 10
843.0603721918703
 20
132.108225730098
 30
0.0
 40
4.000002
100
AcDbArc
 50
192.635775
 51
259.7552060000022
  0
ARC
  5
162
330
19
100
AcDbEntity
  8
4
100
AcDbCircle
 10
571.0474351918704
 20
240.608712730098
 30
0.0
 40
499.99995
100
AcDbArc
 50
347.365492
 51
12.88277500000001
  0
ARC
  5
163
330
19
100
AcDbEntity
  8
4
100
AcDbCircle
 10
1055.03473819187
 20
132.108225730098
 30
0.0
 40
3.999981
100
AcDbArc
 50
280.2413539999973
 51
347.3642250000013
  0
ARC
  5
164
330
19
100
AcDbEntity
  8
4
100
AcDbCircle
 10
1054.56257119187
 20
351.1941607300982
 30
0.0
 40
4.000014
100
AcDbArc
 50
12.88270099999846
 51
79.8046289999976
  0
LINE
  5
165
330
19
100
AcDbEntity
  8
4
100
AcDbLine
 10
961.0474351918704
 20
309.608712730098
 30
0.0
 11
961.0474351918704
 21
310.6782937300977
 31
0.0
  0
LINE
  5
166
330
19
100
AcDbEntity
  8
4
100
AcDbLine
 10
961.0474351918704
 20
310.6782937300977
 30
0.0
 11
968.6077351918705
 21
317.6087137300979
 31
0.0
  0
LINE
  5
167
330
19
100
AcDbEntity
  8
4
100
AcDbLine
 10
968.6077351918705
 20
317.6087137300979
 30
0.0
 11
961.0474351918704
 21
317.6087137300979
 31
0.0
  0
LINE
  5
168
330
19
100
AcDbEntity
  8
4
100
AcDbLine
 10
973.0474351918704
 20
317.6084677300978
 30
0.0
 11
973.0474351918704
 21
320.6087137300979
 31
0.0
  0
LINE
  5
169
330
19
100
AcDbEntity
  8
4
100
AcDbLine
 10
964.0474351918704
 20
306.608712730098
 30
0.0
 11
961.0474351918704
 21
306.608712730098
 31
0.0
  0
LINE
  5
16A
330
19
100
AcDbEntity
  8
4
100
AcDbLine
 10
961.0474351918704
 20
317.6087137300979
 30
0.0
 11
961.0474351918704
 21
320.6087137300979
 31
0.0
  0
ARC
  5
16B
330
19
100
AcDbEntity
  8
4
100
AcDbCircle
 10
967.0474351918704
 20
306.608712730098
 30
0.0
 40
3.0
100
AcDbArc
 50
180.0
 51
90.0
  0
ARC
  5
16C
330
19
100
AcDbEntity
  8
4
100
AcDbCircle
 10
967.0474351918704
 20
306.608712730098
 30
0.0
 40
5.999979000000001
100
AcDbArc
 50
180.0
 51
85.0185460000013
  0
LINE
  5
16D
330
19
100
AcDbEntity
  8
4
100
AcDbLine
 10
961.0474351918704
 20
309.608712730098
 30
0.0
 11
967.0474351918704
 21
309.608712730098
 31
0.0
  0
LINE
  5
16E
330
19
100
AcDbEntity
  8
4
100
AcDbLine
 10
967.5684301918702
 20
312.586008730098
 30
0.0
 11
973.0474351918704
 21
317.6084677300978
 31
0.0
  0
LINE
  5
16F
330
19
100
AcDbEntity
  8
4
100
AcDbLine
 10
973.0474351918704
 20
320.6087137300979
 30
0.0
 11
961.0474351918704
 21
320.6087137300979
 31
0.0
  0
LINE
  5
170
330
19
100
AcDbEntity
  8
4
100
AcDbLine
 10
943.0474351918704
 20
300.608712730098
 30
0.0
 11
955.0474351918704
 21
300.608712730098
 31
0.0
  0
LINE
  5
171
330
19
100
AcDbEntity
  8
4
100
AcDbLine
 10
946.0474351918704
 20
303.608712730098
 30
0.0
 11
955.0474351918704
 21
303.608712730098
 31
0.0
  0
LINE
  5
172
330
19
100
AcDbEntity
  8
4
100
AcDbLine
 10
943.0474351918704
 20
320.6087137300979
 30
0.0
 11
955.0474351918704
 21
320.6087137300979
 31
0.0
  0
LINE
  5
173
330
19
100
AcDbEntity
  8
4
100
AcDbLine
 10
946.0474351918704
 20
317.6087137300979
 30
0.0
 11
955.0474351918704
 21
317.6087137300979
 31
0.0
  0
LINE
  5
174
330
19
100
AcDbEntity
  8
4
100
AcDbLine
 10
946.0474351918704
 20
309.1087117300981
 30
0.0
 11
946.0474351918704
 21
303.608712730098
 31
0.0
  0
LINE
  5
175
330
19
100
AcDbEntity
  8
4
100
AcDbLine
 10
946.0474351918704
 20
317.6087137300979
 30
0.0
 11
946.0474351918704
 21
312.1087117300981
 31
0.0
  0
LINE
  5
176
330
19
100
AcDbEntity
  8
4
100
AcDbLine
 10
955.0474351918704
 20
303.608712730098
 30
0.0
 11
955.0474351918704
 21
300.608712730098
 31
0.0
  0
LINE
  5
177
330
19
100
AcDbEntity
  8
4
100
AcDbLine
 10
955.0474351918704
 20
312.1087117300981
 30
0.0
 11
955.0474351918704
 21
309.1087117300981
 31
0.0
  0
LINE
  5
178
330
19
100
AcDbEntity
  8
4
100
AcDbLine
 10
955.0474351918704
 20
320.6087137300979
 30
0.0
 11
955.0474351918704
 21
317.6087137300979
 31
0.0
  0
LINE
  5
179
330
19
100
AcDbEntity
  8
4
100
AcDbLine
 10
955.0474351918704
 20
309.1087117300981
 30
0.0
 11
946.0474351918704
 21
309.1087117300981
 31
0.0
  0
LINE
  5
17A
330
19
100
AcDbEntity
  8
4
100
AcDbLine
 10
955.0474351918704
 20
312.1087117300981
 30
0.0
 11
946.0474351918704
 21
312.1087117300981
 31
0.0
  0
LINE
  5
17B
330
19
100
AcDbEntity
  8
4
100
AcDbLine
 10
943.0474351918704
 20
300.608712730098
 30
0.0
 11
943.0474351918704
 21
320.6087137300979
 31
0.0
  0
LINE
  5
17C
330
19
100
AcDbEntity
  8
4
100
AcDbLine
 10
925.0474351918704
 20
300.608712730098
 30
0.0
 11
937.0474351918704
 21
300.608712730098
 31
0.0
  0
LINE
  5
17D
330
19
100
AcDbEntity
  8
4
100
AcDbLine
 10
928.0474351918704
 20
303.608712730098
 30
0.0
 11
937.0474351918704
 21
303.608712730098
 31
0.0
  0
LINE
  5
17E
330
19
100
AcDbEntity
  8
4
100
AcDbLine
 10
925.0474351918704
 20
320.6087137300979
 30
0.0
 11
928.0474351918704
 21
320.6087137300979
 31
0.0
  0
LINE
  5
17F
330
19
100
AcDbEntity
  8
4
100
AcDbLine
 10
937.0474351918704
 20
300.608712730098
 30
0.0
 11
937.0474351918704
 21
303.608712730098
 31
0.0
  0
LINE
  5
180
330
19
100
AcDbEntity
  8
4
100
AcDbLine
 10
928.0474351918704
 20
303.608712730098
 30
0.0
 11
928.0474351918704
 21
320.6087137300979
 31
0.0
  0
LINE
  5
181
330
19
100
AcDbEntity
  8
4
100
AcDbLine
 10
925.0474351918704
 20
300.608712730098
 30
0.0
 11
925.0474351918704
 21
320.6087137300979
 31
0.0
  0
CIRCLE
  5
182
330
19
100
AcDbEntity
  8
4
100
AcDbCircle
 10
949.0474351918704
 20
240.608712730098
 30
0.0
 40
120.0
  0
CIRCLE
  5
183
330
19
100
AcDbEntity
  8
4
100
AcDbCircle
 10
949.0474351918704
 20
240.608712730098
 30
0.0
 40
95.000001
  0
LINE
  5
184
330
19
100
AcDbEntity
  8
L-CENTER
100
AcDbLine
 10
335.1558894081959
 20
378.1314871844033
 30
0.0
 11
335.1558894081959
 21
14.01915377357011
 31
0.0
  0
LINE
  5
185
330
19
100
AcDbEntity
  8
L-CENTER
100
AcDbLine
 10
774.0474331918706
 20
260.3867437300978
 30
0.0
 11
774.0474331918706
 21
170.8306837300979
 31
0.0
  0
LINE
  5
186
330
19
100
AcDbEntity
  8
L-CENTER
100
AcDbLine
 10
695.2250648203096
 20
125.6087137300979
 30
0.0
 11
1079.470769738382
 21
125.6087137300979
 31
0.0
  0
CIRCLE
  5
187
330
19
100
AcDbEntity
  8
4
100
AcDbCircle
 10
774.0474331918706
 20
215.6087137300979
 30
0.0
 40
26.000001
  0
LINE
  5
188
330
19
100
AcDbEntity
  8
2
100
AcDbLine
 10
953.6766001918706
 20
53.28136273009795
 30
0.0
 11
949.0474351918704
 21
55.95401173009805
 31
0.0
  0
LINE
  5
189
330
19
100
AcDbEntity
  8
2
100
AcDbLine
 10
953.6766001918706
 20
47.93606173009812
 30
0.0
 11
953.6766001918706
 21
53.28136273009795
 31
0.0
  0
LINE
  5
18A
330
19
100
AcDbEntity
  8
2
100
AcDbLine
 10
949.0474351918704
 20
45.26341273009803
 30
0.0
 11
953.6766001918706
 21
47.93606173009812
 31
0.0
  0
LINE
  5
18B
330
19
100
AcDbEntity
  8
2
100
AcDbLine
 10
944.4182701918705
 20
47.93606173009812
 30
0.0
 11
949.0474351918704
 21
45.26341273009803
 31
0.0
  0
LINE
  5
18C
330
19
100
AcDbEntity
  8
2
100
AcDbLine
 10
944.4182701918705
 20
53.28136273009795
 30
0.0
 11
944.4182701918705
 21
47.93606173009812
 31
0.0
  0
LINE
  5
18D
330
19
100
AcDbEntity
  8
2
100
AcDbLine
 10
949.0474351918704
 20
55.95401173009805
 30
0.0
 11
944.4182701918705
 21
53.28136273009795
 31
0.0
  0
LINE
  5
18E
330
19
100
AcDbEntity
  8
4
100
AcDbLine
 10
436.1558904081958
 20
241.6087117300981
 30
0.0
 11
436.1558904081958
 21
189.608712730098
 31
0.0
  0
LINE
  5
18F
330
19
100
AcDbEntity
  8
4
100
AcDbLine
 10
436.1558904081958
 20
241.6087117300981
 30
0.0
 11
436.1558904081958
 21
189.608712730098
 31
0.0
  0
LINE
  5
190
330
19
100
AcDbEntity
  8
4
100
AcDbLine
 10
435.155888408196
 20
241.6087117300981
 30
0.0
 11
436.1558904081958
 21
241.6087117300981
 31
0.0
  0
LINE
  5
191
330
19
100
AcDbEntity
  8
4
100
AcDbLine
 10
436.1558904081958
 20
241.6087117300981
 30
0.0
 11
435.155888408196
 21
241.6087117300981
 31
0.0
  0
LINE
  5
192
330
19
100
AcDbEntity
  8
4
100
AcDbLine
 10
435.155888408196
 20
189.608712730098
 30
0.0
 11
436.1558904081958
 21
189.608712730098
 31
0.0
  0
LINE
  5
193
330
19
100
AcDbEntity
  8
4
100
AcDbLine
 10
436.1558904081958
 20
189.608712730098
 30
0.0
 11
435.155888408196
 21
189.608712730098
 31
0.0
  0
LINE
  5
194
330
19
100
AcDbEntity
  8
4
100
AcDbLine
 10
699.0474331918704
 20
159.7889077300977
 30
0.0
 11
699.0474331918704
 21
91.42851673009773
 31
0.0
  0
LINE
  5
195
330
19
100
AcDbEntity
  8
4
100
AcDbLine
 10
713.1474331918705
 20
213.608712730098
 30
0.0
 11
713.1474331918705
 21
37.60871173009809
 31
0.0
  0
LINE
  5
196
330
19
100
AcDbEntity
  8
4
100
AcDbLine
 10
711.6474331918705
 20
201.9397827300982
 30
0.0
 11
711.6474331918705
 21
190.4397827300982
 31
0.0
  0
LINE
  5
197
330
19
100
AcDbEntity
  8
4
100
AcDbLine
 10
705.6474331918705
 20
201.1897827300982
 30
0.0
 11
705.6474331918705
 21
191.1897827300982
 31
0.0
  0
LINE
  5
198
330
19
100
AcDbEntity
  8
4
100
AcDbLine
 10
725.0474341918705
 20
37.60871173009809
 30
0.0
 11
713.1474331918705
 21
37.60871173009809
 31
0.0
  0
LINE
  5
199
330
19
100
AcDbEntity
  8
4
100
AcDbLine
 10
713.1474331918705
 20
213.608712730098
 30
0.0
 11
725.0474341918705
 21
213.608712730098
 31
0.0
  0
LINE
  5
19A
330
19
100
AcDbEntity
  8
4
100
AcDbLine
 10
709.3963141918705
 20
87.46582573009823
 30
0.0
 11
713.1474331918705
 21
62.07423073009772
 31
0.0
  0
LINE
  5
19B
330
19
100
AcDbEntity
  8
4
100
AcDbLine
 10
709.3963141918705
 20
163.7515987300978
 30
0.0
 11
713.1474331918705
 21
189.143196730098
 31
0.0
  0
LINE
  5
19C
330
19
100
AcDbEntity
  8
4
100
AcDbLine
 10
707.8756891918704
 20
162.3743647300983
 30
0.0
 11
699.8513191918703
 21
160.7694907300977
 31
0.0
  0
LINE
  5
19D
330
19
100
AcDbEntity
  8
4
100
AcDbLine
 10
699.8513191918703
 20
90.44793673009804
 30
0.0
 11
707.8756891918704
 21
88.84306273009815
 31
0.0
  0
ARC
  5
19E
330
19
100
AcDbEntity
  8
4
100
AcDbCircle
 10
707.4834571918705
 20
164.3355247300983
 30
0.0
 40
2.000001
100
AcDbArc
 50
281.3099320000036
 51
343.0245009999996
  0
ARC
  5
19F
330
19
100
AcDbEntity
  8
4
100
AcDbCircle
 10
707.4834571918705
 20
86.88189973009776
 30
0.0
 40
2.000001
100
AcDbArc
 50
16.97549900000034
 51
78.69006799999642
  0
ARC
  5
1A0
330
19
100
AcDbEntity
  8
4
100
AcDbCircle
 10
700.0474351918704
 20
91.42851673009773
 30
0.0
 40
0.999999
100
AcDbArc
 50
180.0
 51
258.6900680000061
  0
ARC
  5
1A1
330
19
100
AcDbEntity
  8
4
100
AcDbCircle
 10
700.0474351918704
 20
159.7889077300977
 30
0.0
 40
0.999999
100
AcDbArc
 50
101.3099319999939
 51
180.0
  0
CIRCLE
  5
1A2
330
19
100
AcDbEntity
  8
4
100
AcDbCircle
 10
335.1558894081959
 20
125.6087137300979
 30
0.0
 40
87.999999
  0
CIRCLE
  5
1A3
330
19
100
AcDbEntity
  8
L-CENTER
100
AcDbCircle
 10
335.1558894081959
 20
125.6087137300979
 30
0.0
 40
81.500001
  0
LINE
  5
1A4
330
19
100
AcDbEntity
  8
4
100
AcDbLine
 10
709.0474351918704
 20
88.6087117300981
 30
0.0
 11
709.0474351918704
 21
120.6087137300979
 31
0.0
  0
LINE
  5
1A5
330
19
100
AcDbEntity
  8
4
100
AcDbLine
 10
709.0474351918704
 20
130.6087137300979
 30
0.0
 11
709.0474351918704
 21
162.608712730098
 31
0.0
  0
CIRCLE
  5
1A6
330
19
100
AcDbEntity
  8
4
100
AcDbCircle
 10
335.1558894081959
 20
125.6087137300979
 30
0.0
 40
75.0
  0
ARC
  5
1A7
330
19
100
AcDbEntity
  8
4
100
AcDbCircle
 10
335.1558894081959
 20
-39.39128626990214
 30
0.0
 40
200.000001
100
AcDbArc
 50
81.31661
 51
98.68339
  0
ARC
  5
1A8
330
19
100
AcDbEntity
  8
4
100
AcDbCircle
 10
170.1558894081959
 20
125.6087137300979
 30
0.0
 40
200.000001
100
AcDbArc
 50
351.3166100000001
 51
8.683389999999951
  0
ARC
  5
1A9
330
19
100
AcDbEntity
  8
4
100
AcDbCircle
 10
335.1558894081959
 20
290.6087137300979
 30
0.0
 40
200.000001
100
AcDbArc
 50
261.31661
 51
278.68339
  0
ARC
  5
1AA
330
19
100
AcDbEntity
  8
4
100
AcDbCircle
 10
500.1558894081959
 20
125.6087137300979
 30
0.0
 40
200.000001
100
AcDbArc
 50
171.3166100000001
 51
188.6833899999999
  0
ARC
  5
1AB
330
19
100
AcDbEntity
  8
4
100
AcDbCircle
 10
335.1558894081959
 20
-39.39128626990214
 30
0.0
 40
201.999999
100
AcDbArc
 50
80.89449799999998
 51
99.10550200000003
  0
ARC
  5
1AC
330
19
100
AcDbEntity
  8
4
100
AcDbCircle
 10
170.1558894081959
 20
125.6087137300979
 30
0.0
 40
201.999999
100
AcDbArc
 50
350.894498
 51
9.105502000000017
  0
ARC
  5
1AD
330
19
100
AcDbEntity
  8
4
100
AcDbCircle
 10
335.1558894081959
 20
290.6087137300979
 30
0.0
 40
201.999999
100
AcDbArc
 50
260.8944979999999
 51
279.105502
  0
ARC
  5
1AE
330
19
100
AcDbEntity
  8
4
100
AcDbCircle
 10
500.1558894081959
 20
125.6087137300979
 30
0.0
 40
201.999999
100
AcDbArc
 50
170.894498
 51
189.105502
  0
ARC
  5
1AF
330
19
100
AcDbEntity
  8
4
100
AcDbCircle
 10
366.6482124081958
 20
157.1010367300978
 30
0.0
 40
3.0
100
AcDbArc
 50
9.105502000001062
 51
80.89449799999912
  0
ARC
  5
1B0
330
19
100
AcDbEntity
  8
4
100
AcDbCircle
 10
303.6635664081959
 20
157.1010367300978
 30
0.0
 40
3.0
100
AcDbArc
 50
99.10550200000088
 51
170.8944979999989
  0
ARC
  5
1B1
330
19
100
AcDbEntity
  8
4
100
AcDbCircle
 10
303.6635664081959
 20
94.11638773009827
 30
0.0
 40
3.0
100
AcDbArc
 50
189.1055020000011
 51
260.8944979999989
  0
ARC
  5
1B2
330
19
100
AcDbEntity
  8
4
100
AcDbCircle
 10
366.6482124081958
 20
94.11638773009827
 30
0.0
 40
3.0
100
AcDbArc
 50
279.105502000001
 51
350.8944979999989
  0
ARC
  5
1B3
330
19
100
AcDbEntity
  8
4
100
AcDbCircle
 10
364.8978144081959
 20
95.86678573009772
 30
0.0
 40
3.0
100
AcDbArc
 50
278.6833899999978
 51
351.3166099999999
  0
ARC
  5
1B4
330
19
100
AcDbEntity
  8
4
100
AcDbCircle
 10
364.8978144081959
 20
155.3506387300977
 30
0.0
 40
3.0
100
AcDbArc
 50
8.68339000000012
 51
81.31661000000207
  0
ARC
  5
1B5
330
19
100
AcDbEntity
  8
4
100
AcDbCircle
 10
305.4139644081959
 20
155.3506387300977
 30
0.0
 40
3.0
100
AcDbArc
 50
98.68338999999794
 51
171.3166099999999
  0
ARC
  5
1B6
330
19
100
AcDbEntity
  8
4
100
AcDbCircle
 10
305.4139644081959
 20
95.86678573009772
 30
0.0
 40
3.0
100
AcDbArc
 50
188.6833900000001
 51
261.3166100000022
  0
LINE
  5
1B7
330
19
100
AcDbEntity
  8
4
100
AcDbLine
 10
314.9228964081958
 20
164.8564627300982
 30
0.0
 11
317.3108034081959
 21
194.285547730098
 31
0.0
  0
LINE
  5
1B8
330
19
100
AcDbEntity
  8
4
100
AcDbLine
 10
353.0009754081959
 20
194.285547730098
 30
0.0
 11
355.388882408196
 21
164.8564627300982
 31
0.0
  0
ARC
  5
1B9
330
19
100
AcDbEntity
  8
4
100
AcDbCircle
 10
310.9360014081958
 20
165.1799647300979
 30
0.0
 40
3.999999
100
AcDbArc
 50
276.7520120000018
 51
355.3611259999998
  0
ARC
  5
1BA
330
19
100
AcDbEntity
  8
4
100
AcDbCircle
 10
359.375777408196
 20
165.1799647300979
 30
0.0
 40
3.999999
100
AcDbArc
 50
184.6388740000002
 51
263.2479879999982
  0
ARC
  5
1BB
330
19
100
AcDbEntity
  8
4
100
AcDbCircle
 10
355.991147408196
 20
194.5281727300983
 30
0.0
 40
3.0
100
AcDbArc
 50
73.17924199999878
 51
184.6388739999995
  0
ARC
  5
1BC
330
19
100
AcDbEntity
  8
4
100
AcDbCircle
 10
314.3206314081958
 20
194.5281727300983
 30
0.0
 40
3.0
100
AcDbArc
 50
355.3611259999984
 51
106.8207580000012
  0
LINE
  5
1BD
330
19
100
AcDbEntity
  8
4
100
AcDbLine
 10
374.4036414081959
 20
145.8417037300978
 30
0.0
 11
403.8327234081958
 21
143.4537997300981
 31
0.0
  0
LINE
  5
1BE
330
19
100
AcDbEntity
  8
4
100
AcDbLine
 10
403.8327234081958
 20
107.7636247300979
 30
0.0
 11
374.4036414081959
 21
105.3757207300982
 31
0.0
  0
ARC
  5
1BF
330
19
100
AcDbEntity
  8
4
100
AcDbCircle
 10
374.727140408196
 20
149.8286017300979
 30
0.0
 40
3.999999
100
AcDbArc
 50
186.7520120000001
 51
265.3611259999998
  0
ARC
  5
1C0
330
19
100
AcDbEntity
  8
4
100
AcDbCircle
 10
374.727140408196
 20
101.3888227300981
 30
0.0
 40
3.999999
100
AcDbArc
 50
94.63887400000021
 51
173.2479879999999
  0
ARC
  5
1C1
330
19
100
AcDbEntity
  8
4
100
AcDbCircle
 10
404.0753484081959
 20
104.7734527300977
 30
0.0
 40
3.0
100
AcDbArc
 50
343.1792419999985
 51
94.6388740000017
  0
ARC
  5
1C2
330
19
100
AcDbEntity
  8
4
100
AcDbCircle
 10
404.0753484081959
 20
146.4439717300977
 30
0.0
 40
3.0
100
AcDbArc
 50
265.3611259999983
 51
16.82075800000151
  0
LINE
  5
1C3
330
19
100
AcDbEntity
  8
4
100
AcDbLine
 10
355.388882408196
 20
86.36096173009787
 30
0.0
 11
353.0009754081959
 21
56.93187973009776
 31
0.0
  0
LINE
  5
1C4
330
19
100
AcDbEntity
  8
4
100
AcDbLine
 10
317.3108034081959
 20
56.93187973009776
 30
0.0
 11
314.9228964081958
 21
86.36096173009787
 31
0.0
  0
ARC
  5
1C5
330
19
100
AcDbEntity
  8
4
100
AcDbCircle
 10
359.375777408196
 20
86.03745973009813
 30
0.0
 40
3.999999
100
AcDbArc
 50
96.7520120000017
 51
175.3611259999998
  0
ARC
  5
1C6
330
19
100
AcDbEntity
  8
4
100
AcDbCircle
 10
310.9360014081958
 20
86.03745973009813
 30
0.0
 40
3.999999
100
AcDbArc
 50
4.638874000000178
 51
83.24798799999829
  0
ARC
  5
1C7
330
19
100
AcDbEntity
  8
4
100
AcDbCircle
 10
314.3206314081958
 20
56.68925173009779
 30
0.0
 40
3.0
100
AcDbArc
 50
253.1792419999985
 51
4.638873999999549
  0
ARC
  5
1C8
330
19
100
AcDbEntity
  8
4
100
AcDbCircle
 10
355.991147408196
 20
56.68925173009779
 30
0.0
 40
3.0
100
AcDbArc
 50
175.3611260000005
 51
286.8207580000015
  0
LINE
  5
1C9
330
19
100
AcDbEntity
  8
4
100
AcDbLine
 10
295.9081374081959
 20
105.3757207300982
 30
0.0
 11
266.479055408196
 21
107.7636247300979
 31
0.0
  0
LINE
  5
1CA
330
19
100
AcDbEntity
  8
4
100
AcDbLine
 10
266.479055408196
 20
143.4537997300981
 30
0.0
 11
295.9081374081959
 21
145.8417037300978
 31
0.0
  0
ARC
  5
1CB
330
19
100
AcDbEntity
  8
4
100
AcDbCircle
 10
295.5846384081958
 20
101.3888227300981
 30
0.0
 40
3.999999
100
AcDbArc
 50
6.752012000000099
 51
85.36112599999979
  0
ARC
  5
1CC
330
19
100
AcDbEntity
  8
4
100
AcDbCircle
 10
295.5846384081958
 20
149.8286017300979
 30
0.0
 40
3.999999
100
AcDbArc
 50
274.6388740000002
 51
353.2479879999999
  0
ARC
  5
1CD
330
19
100
AcDbEntity
  8
4
100
AcDbCircle
 10
266.2364304081959
 20
146.4439717300977
 30
0.0
 40
3.0
100
AcDbArc
 50
163.1792419999985
 51
274.6388740000016
  0
ARC
  5
1CE
330
19
100
AcDbEntity
  8
4
100
AcDbCircle
 10
266.2364304081959
 20
104.7734527300977
 30
0.0
 40
3.0
100
AcDbArc
 50
85.36112599999832
 51
196.8207580000015
  0
LINE
  5
1CF
330
19
100
AcDbEntity
  8
L-CENTER
100
AcDbLine
 10
277.1558904081958
 20
147.5000977300977
 30
0.0
 11
277.1558904081958
 21
103.7173297300981
 31
0.0
  0
CIRCLE
  5
1D0
330
19
100
AcDbEntity
  8
4
100
AcDbCircle
 10
277.1558904081958
 20
125.6087137300979
 30
0.0
 40
14.000001
  0
LINE
  5
1D1
330
19
100
AcDbEntity
  8
L-CENTER
100
AcDbLine
 10
702.7945808226267
 20
196.1897827300982
 30
0.0
 11
733.1132564783537
 21
196.1897827300982
 31
0.0
  0
LINE
  5
1D2
330
19
100
AcDbEntity
  8
4
100
AcDbLine
 10
711.6474331918705
 20
190.4397827300982
 30
0.0
 11
713.1474331918705
 21
190.4397827300982
 31
0.0
  0
LINE
  5
1D3
330
19
100
AcDbEntity
  8
4
100
AcDbLine
 10
711.6474331918705
 20
201.9397827300982
 30
0.0
 11
713.1474331918705
 21
201.9397827300982
 31
0.0
  0
LINE
  5
1D4
330
19
100
AcDbEntity
  8
4
100
AcDbLine
 10
705.6474331918705
 20
191.1897827300982
 30
0.0
 11
711.6474331918705
 21
191.1897827300982
 31
0.0
  0
LINE
  5
1D5
330
19
100
AcDbEntity
  8
4
100
AcDbLine
 10
705.6474331918705
 20
201.1897827300982
 30
0.0
 11
711.6474331918705
 21
201.1897827300982
 31
0.0
  0
CIRCLE
  5
1D6
330
19
100
AcDbEntity
  8
4
100
AcDbCircle
 10
277.1558124081957
 20
125.6086987300982
 30
0.0
 40
12.500001
  0
LINE
  5
1D7
330
19
100
AcDbEntity
  8
4
100
AcDbLine
 10
277.1558124081957
 20
138.1085437300978
 30
0.0
 11
266.3306184081957
 21
131.8585447300977
 31
0.0
  0
LINE
  5
1D8
330
19
100
AcDbEntity
  8
4
100
AcDbLine
 10
287.9812524081958
 20
131.8585447300977
 30
0.0
 11
277.1558124081957
 21
138.1085437300978
 31
0.0
  0
LINE
  5
1D9
330
19
100
AcDbEntity
  8
4
100
AcDbLine
 10
287.9812524081958
 20
119.3586967300978
 30
0.0
 11
287.9812524081958
 21
131.8585447300977
 31
0.0
  0
LINE
  5
1DA
330
19
100
AcDbEntity
  8
4
100
AcDbLine
 10
277.1558124081957
 20
113.1086827300981
 30
0.0
 11
287.9812524081958
 21
119.3586967300978
 31
0.0
  0
LINE
  5
1DB
330
19
100
AcDbEntity
  8
4
100
AcDbLine
 10
266.3306184081957
 20
119.3586817300982
 30
0.0
 11
277.1558124081957
 21
113.1086827300981
 31
0.0
  0
LINE
  5
1DC
330
19
100
AcDbEntity
  8
4
100
AcDbLine
 10
266.3306184081957
 20
119.3586817300982
 30
0.0
 11
266.3306184081957
 21
131.8585447300977
 31
0.0
  0
TEXT
  5
255
330
19
100
AcDbEntity
  8
3
100
AcDbText
 10
557.7962405070749
 20
21.18004502761113
 30
0.0
 40
8.504999986533749
  1
LE3-07
  7
KANJI
100
AcDbText
  0
CIRCLE
  5
259
330
19
100
AcDbEntity
  8
4
100
AcDbCircle
 10
335.1558894081959
 20
125.6087137300979
 30
0.0
 40
25.0
  0
LINE
  5
25A
330
19
100
AcDbEntity
  8
4
100
AcDbLine
 10
698.0474331918704
 20
150.6087137300979
 30
0.0
 11
699.0474331918704
 21
150.6087137300979
 31
0.0
  0
LINE
  5
25B
330
19
100
AcDbEntity
  8
4
100
AcDbLine
 10
698.0474331918706
 20
100.6087137300979
 30
0.0
 11
699.0474331918706
 21
100.6087137300979
 31
0.0
  0
LINE
  5
25C
330
19
100
AcDbEntity
  8
4
100
AcDbLine
 10
698.0474331918704
 20
150.6087137300979
 30
0.0
 11
698.0474331918706
 21
100.6087137300979
 31
0.0
  0
LINE
  5
269
330
19
100
AcDbEntity
  8
4
100
AcDbLine
 10
411.1558894081959
 20
891.0823879101622
 30
0.0
 11
411.1558894081959
 21
653.0823879101622
 31
0.0
  0
LINE
  5
26A
330
19
100
AcDbEntity
  8
4
100
AcDbLine
 10
270.1558894081959
 20
893.0823879101622
 30
0.0
 11
270.1558894081959
 21
651.0823879101622
 31
0.0
  0
LINE
  5
26B
330
19
100
AcDbEntity
  8
L-CENTER
100
AcDbLine
 10
335.1558894081959
 20
517.1461935162351
 30
0.0
 11
335.1558894081959
 21
910.4823265775426
 31
0.0
  0
LINE
  5
26C
330
19
100
AcDbEntity
  8
4
100
AcDbLine
 10
398.1558894081959
 20
893.0823879101622
 30
0.0
 11
398.1558894081954
 21
597.0823879101622
 31
0.0
  0
LINE
  5
26D
330
19
100
AcDbEntity
  8
4
100
AcDbLine
 10
272.1558894081959
 20
893.0823879101622
 30
0.0
 11
272.1558894081957
 21
597.0823879101617
 31
0.0
  0
LINE
  5
26E
330
19
100
AcDbEntity
  8
4
100
AcDbLine
 10
250.5558894081956
 20
833.5823879101624
 30
0.0
 11
217.6048798416211
 21
853.129596975079
 31
0.0
  0
LINE
  5
26F
330
19
100
AcDbEntity
  8
L-CENTER
100
AcDbLine
 10
133.7539001413561
 20
772.0823879101622
 30
0.0
 11
536.5578786750357
 21
772.0823879101622
 31
0.0
  0
LINE
  5
270
330
19
100
AcDbEntity
  8
4
100
AcDbLine
 10
220.1558894081959
 20
904.5823879101622
 30
0.0
 11
450.1558894081959
 21
904.5823879101622
 31
0.0
  0
LINE
  5
271
330
19
100
AcDbEntity
  8
L-CENTER
100
AcDbLine
 10
240.1558894081959
 20
887.0823879101599
 30
0.0
 11
240.1558894081959
 21
857.0823879101649
 31
0.0
  0
LINE
  5
272
330
19
100
AcDbEntity
  8
4
100
AcDbLine
 10
215.1558894081959
 20
899.5823879101622
 30
0.0
 11
215.1558894081957
 21
857.4298702444476
 31
0.0
  0
CIRCLE
  5
273
330
19
100
AcDbEntity
  8
4
100
AcDbCircle
 10
240.1558894081959
 20
872.0823879101622
 30
0.0
 40
7.5
  0
ARC
  5
274
330
19
100
AcDbEntity
  8
4
100
AcDbCircle
 10
220.1558894081959
 20
899.5823879101622
 30
0.0
 40
5.0
100
AcDbArc
 50
90.0
 51
180.0
  0
LINE
  5
275
330
19
100
AcDbEntity
  8
L-CENTER
100
AcDbLine
 10
225.1558894081982
 20
872.0823879101622
 30
0.0
 11
255.1558894081932
 21
872.0823879101622
 31
0.0
  0
ARC
  5
276
330
19
100
AcDbEntity
  8
4
100
AcDbCircle
 10
220.1558894081957
 20
857.4298702444476
 30
0.0
 40
5.0
100
AcDbArc
 50
180.0
 51
239.3227199782038
  0
CIRCLE
  5
277
330
19
100
AcDbEntity
  8
4
100
AcDbCircle
 10
430.1558894081959
 20
872.0823879101622
 30
0.0
 40
7.5
  0
LINE
  5
278
330
19
100
AcDbEntity
  8
4
100
AcDbLine
 10
455.1558894081959
 20
899.5823879101622
 30
0.0
 11
455.1558894081959
 21
857.429870244448
 31
0.0
  0
LINE
  5
279
330
19
100
AcDbEntity
  8
L-CENTER
100
AcDbLine
 10
430.1558894081959
 20
887.0823879101599
 30
0.0
 11
430.1558894081959
 21
857.0823879101649
 31
0.0
  0
LINE
  5
27A
330
19
100
AcDbEntity
  8
4
100
AcDbLine
 10
398.1558894081959
 20
892.0823879101622
 30
0.0
 11
410.1558894081959
 21
892.0823879101622
 31
0.0
  0
LINE
  5
27B
330
19
100
AcDbEntity
  8
4
100
AcDbLine
 10
294.1558894081959
 20
895.5823879101622
 30
0.0
 11
376.1558894081959
 21
895.5823879101622
 31
0.0
  0
LINE
  5
27C
330
19
100
AcDbEntity
  8
4
100
AcDbLine
 10
273.1558894081959
 20
894.0823879101622
 30
0.0
 11
397.1558894081959
 21
894.0823879101622
 31
0.0
  0
LINE
  5
27D
330
19
100
AcDbEntity
  8
4
100
AcDbLine
 10
270.1558894081959
 20
893.0823879101622
 30
0.0
 11
272.1558894081959
 21
893.0823879101622
 31
0.0
  0
ARC
  5
27E
330
19
100
AcDbEntity
  8
4
100
AcDbCircle
 10
273.1558894081959
 20
893.0823879101622
 30
0.0
 40
1.0
100
AcDbArc
 50
90.0
 51
180.0
  0
LINE
  5
27F
330
19
100
AcDbEntity
  8
4
100
AcDbLine
 10
294.1558894081959
 20
894.0823879101622
 30
0.0
 11
294.1558894081959
 21
895.5823879101622
 31
0.0
  0
LINE
  5
280
330
19
100
AcDbEntity
  8
4
100
AcDbLine
 10
376.1558894081961
 20
894.0823879101622
 30
0.0
 11
376.1558894081959
 21
895.5823879101622
 31
0.0
  0
ARC
  5
281
330
19
100
AcDbEntity
  8
4
100
AcDbCircle
 10
397.1558894081959
 20
893.0823879101622
 30
0.0
 40
1.0
100
AcDbArc
 50
0.0
 51
90.0
  0
LINE
  5
282
330
19
100
AcDbEntity
  8
L-CENTER
100
AcDbLine
 10
445.1558894081932
 20
872.0823879101622
 30
0.0
 11
415.1558894081982
 21
872.0823879101622
 31
0.0
  0
ARC
  5
283
330
19
100
AcDbEntity
  8
4
100
AcDbCircle
 10
410.1558894081959
 20
891.0823879101622
 30
0.0
 40
1.0
100
AcDbArc
 50
0.0
 51
90.0
  0
ARC
  5
284
330
19
100
AcDbEntity
  8
4
100
AcDbCircle
 10
450.1558894081959
 20
899.5823879101622
 30
0.0
 40
5.0
100
AcDbArc
 50
0.0
 51
90.0
  0
CIRCLE
  5
285
330
19
100
AcDbEntity
  8
4
100
AcDbCircle
 10
335.1558894081959
 20
772.0823879101622
 30
0.0
 40
19.0
  0
LINE
  5
286
330
19
100
AcDbEntity
  8
4
100
AcDbLine
 10
416.1558894081959
 20
816.5281402686551
 30
0.0
 11
416.1558894081959
 21
727.6366355516693
 31
0.0
  0
LINE
  5
287
330
19
100
AcDbEntity
  8
4
100
AcDbLine
 10
415.6858883481991
 20
817.3761385726602
 30
0.0
 11
411.1558894081959
 21
820.2073879101622
 31
0.0
  0
LINE
  5
288
330
19
100
AcDbEntity
  8
4
100
AcDbLine
 10
452.7068989747704
 20
853.1295969750795
 30
0.0
 11
411.1558894081959
 21
828.4806929949082
 31
0.0
  0
ARC
  5
289
330
19
100
AcDbEntity
  8
4
100
AcDbCircle
 10
450.1558894081959
 20
857.429870244448
 30
0.0
 40
5.0
100
AcDbArc
 50
300.6772800217962
 51
0.0
  0
ARC
  5
28A
330
19
100
AcDbEntity
  8
4
100
AcDbCircle
 10
415.1558894081959
 20
816.5281402686551
 30
0.0
 40
1.0
100
AcDbArc
 50
0.0
 51
57.99461679191927
  0
LINE
  5
28B
330
19
100
AcDbEntity
  8
4
100
AcDbLine
 10
415.6858883481991
 20
726.7886372476642
 30
0.0
 11
411.1558894081959
 21
723.9573879101622
 31
0.0
  0
ARC
  5
28C
330
19
100
AcDbEntity
  8
4
100
AcDbCircle
 10
415.1558894081959
 20
727.6366355516693
 30
0.0
 40
1.0
100
AcDbArc
 50
302.0053832080807
 51
0.0
  0
LINE
  5
28D
330
19
100
AcDbEntity
  8
4
100
AcDbLine
 10
237.1558894081957
 20
557.3611603151962
 30
0.0
 11
335.1558894081959
 21
553.0823879101572
 31
0.0
  0
LINE
  5
28E
330
19
100
AcDbEntity
  8
4
100
AcDbLine
 10
237.1558894081959
 20
636.8036155051277
 30
0.0
 11
269.2867475702917
 21
638.2064790689446
 31
0.0
  0
LINE
  5
28F
330
19
100
AcDbEntity
  8
L-CENTER
100
AcDbLine
 10
439.4809532386594
 20
597.0823879101622
 30
0.0
 11
148.4527644081959
 21
597.0823879101615
 31
0.0
  0
LINE
  5
290
330
19
100
AcDbEntity
  8
4
100
AcDbLine
 10
428.1558894081957
 20
550.0823879101627
 30
0.0
 11
242.1558894081959
 21
550.0823879101622
 31
0.0
  0
LINE
  5
291
330
19
100
AcDbEntity
  8
4
100
AcDbLine
 10
425.1558894081957
 20
548.0823879101627
 30
0.0
 11
245.1558894081959
 21
548.0823879101622
 31
0.0
  0
LINE
  5
292
330
19
100
AcDbEntity
  8
4
100
AcDbLine
 10
237.1558894081957
 20
557.3611603151967
 30
0.0
 11
237.1558894081959
 21
636.8036155051286
 31
0.0
  0
LINE
  5
293
330
19
100
AcDbEntity
  8
4
100
AcDbLine
 10
215.1558894081959
 20
584.5823879101624
 30
0.0
 11
215.1558894081959
 21
559.5823879101622
 31
0.0
  0
LINE
  5
294
330
19
100
AcDbEntity
  8
4
100
AcDbLine
 10
235.1558894081959
 20
558.0823879101622
 30
0.0
 11
235.1558894081959
 21
636.0823879101622
 31
0.0
  0
LINE
  5
295
330
19
100
AcDbEntity
  8
4
100
AcDbLine
 10
235.1558894081959
 20
636.0823879101622
 30
0.0
 11
237.1558894081959
 21
636.0823879101622
 31
0.0
  0
LINE
  5
296
330
19
100
AcDbEntity
  8
4
100
AcDbLine
 10
234.155888408196
 20
615.8535737576199
 30
0.0
 11
223.5844608367673
 21
609.5823879101624
 31
0.0
  0
LINE
  5
298
330
19
100
AcDbEntity
  8
4
100
AcDbLine
 10
220.1558894081959
 20
554.5823879101622
 30
0.0
 11
242.1558894081959
 21
554.5823879101627
 31
0.0
  0
ARC
  5
299
330
19
100
AcDbEntity
  8
4
100
AcDbCircle
 10
220.1558894081959
 20
559.5823879101622
 30
0.0
 40
5.0
100
AcDbArc
 50
180.0
 51
270.0
  0
ARC
  5
29A
330
19
100
AcDbEntity
  8
4
100
AcDbCircle
 10
239.1558894081959
 20
554.270980373889
 30
0.0
 40
3.0
100
AcDbArc
 50
0.0
 51
87.4999999999992
  0
LINE
  5
29B
330
19
100
AcDbEntity
  8
4
100
AcDbLine
 10
242.1558894081957
 20
550.0823879101622
 30
0.0
 11
242.1558894081959
 21
554.270980373889
 31
0.0
  0
LINE
  5
29C
330
19
100
AcDbEntity
  8
4
100
AcDbLine
 10
235.1558894081959
 20
558.0823879101622
 30
0.0
 11
237.1558894081957
 21
558.0823879101622
 31
0.0
  0
LINE
  5
29D
330
19
100
AcDbEntity
  8
4
100
AcDbLine
 10
245.1558894081959
 20
548.0823879101622
 30
0.0
 11
245.1558894081959
 21
550.0823879101622
 31
0.0
  0
ARC
  5
29E
330
19
100
AcDbEntity
  8
4
100
AcDbCircle
 10
401.1558894081957
 20
641.2036237336906
 30
0.0
 40
3.0
100
AcDbArc
 50
180.0
 51
267.4999999999993
  0
LINE
  5
29F
330
19
100
AcDbEntity
  8
4
100
AcDbLine
 10
433.1558894081959
 20
557.3611603151962
 30
0.0
 11
335.1558894081959
 21
553.0823879101576
 31
0.0
  0
LINE
  5
2A0
330
19
100
AcDbEntity
  8
4
100
AcDbLine
 10
398.1558894081959
 20
652.0823879101622
 30
0.0
 11
410.1558894081959
 21
652.0823879101622
 31
0.0
  0
LINE
  5
2A1
330
19
100
AcDbEntity
  8
4
100
AcDbLine
 10
273.1558894081957
 20
650.0823879101617
 30
0.0
 11
397.1558894081959
 21
650.0823879101622
 31
0.0
  0
LINE
  5
2A2
330
19
100
AcDbEntity
  8
4
100
AcDbLine
 10
270.1558894081959
 20
651.0823879101622
 30
0.0
 11
272.1558894081957
 21
651.0823879101622
 31
0.0
  0
ARC
  5
2A3
330
19
100
AcDbEntity
  8
4
100
AcDbCircle
 10
273.1558894081957
 20
651.0823879101617
 30
0.0
 40
1.0
100
AcDbArc
 50
180.0
 51
270.0
  0
ARC
  5
2A4
330
19
100
AcDbEntity
  8
4
100
AcDbCircle
 10
269.1558894081957
 20
641.2036237336902
 30
0.0
 40
3.0
100
AcDbArc
 50
272.5000000000007
 51
0.0
  0
ARC
  5
2A5
330
19
100
AcDbEntity
  8
4
100
AcDbCircle
 10
397.1558894081959
 20
651.0823879101622
 30
0.0
 40
1.0
100
AcDbArc
 50
270.0
 51
0.0
  0
LINE
  5
2A6
330
19
100
AcDbEntity
  8
4
100
AcDbLine
 10
455.1558894081959
 20
559.5823879101627
 30
0.0
 11
455.1558894081959
 21
601.7349055758768
 31
0.0
  0
LINE
  5
2A7
330
19
100
AcDbEntity
  8
4
100
AcDbLine
 10
435.1558894081959
 20
558.0823879101622
 30
0.0
 11
435.1558894081959
 21
636.0823879101622
 31
0.0
  0
LINE
  5
2A8
330
19
100
AcDbEntity
  8
4
100
AcDbLine
 10
433.1558894081959
 20
557.3611603151967
 30
0.0
 11
433.1558894081959
 21
636.8036155051286
 31
0.0
  0
LINE
  5
2A9
330
19
100
AcDbEntity
  8
4
100
AcDbLine
 10
435.1558894081957
 20
636.0823879101622
 30
0.0
 11
433.1558894081959
 21
636.0823879101622
 31
0.0
  0
LINE
  5
2AA
330
19
100
AcDbEntity
  8
4
100
AcDbLine
 10
433.1558894081959
 20
636.8036155051286
 30
0.0
 11
401.0250312460998
 21
638.2064790689451
 31
0.0
  0
ARC
  5
2AB
330
19
100
AcDbEntity
  8
4
100
AcDbCircle
 10
410.1558894081959
 20
653.0823879101622
 30
0.0
 40
1.0
100
AcDbArc
 50
270.0
 51
0.0
  0
LINE
  5
2AC
330
19
100
AcDbEntity
  8
4
100
AcDbLine
 10
452.7068989747705
 20
606.0351788452456
 30
0.0
 11
436.155890408196
 21
615.8535737576203
 31
0.0
  0
LINE
  5
2AD
330
19
100
AcDbEntity
  8
4
100
AcDbLine
 10
435.1558894081957
 20
558.0823879101622
 30
0.0
 11
433.1558894081959
 21
558.0823879101622
 31
0.0
  0
LINE
  5
2AE
330
19
100
AcDbEntity
  8
4
100
AcDbLine
 10
428.1558894081957
 20
554.5823879101627
 30
0.0
 11
450.1558894081959
 21
554.5823879101627
 31
0.0
  0
LINE
  5
2AF
330
19
100
AcDbEntity
  8
4
100
AcDbLine
 10
428.1558894081957
 20
550.0823879101627
 30
0.0
 11
428.1558894081957
 21
554.270980373889
 31
0.0
  0
ARC
  5
2B0
330
19
100
AcDbEntity
  8
4
100
AcDbCircle
 10
431.1558894081957
 20
554.270980373889
 30
0.0
 40
3.0
100
AcDbArc
 50
92.5000000000008
 51
180.0
  0
LINE
  5
2B1
330
19
100
AcDbEntity
  8
4
100
AcDbLine
 10
425.1558894081957
 20
548.0823879101627
 30
0.0
 11
425.1558894081957
 21
550.0823879101627
 31
0.0
  0
ARC
  5
2B2
330
19
100
AcDbEntity
  8
4
100
AcDbCircle
 10
450.1558894081959
 20
559.5823879101627
 30
0.0
 40
5.0
100
AcDbArc
 50
270.0
 51
0.0
  0
LINE
  5
2B3
330
19
100
AcDbEntity
  8
4
100
AcDbLine
 10
299.4058881596427
 20
532.1823879101621
 30
0.0
 11
370.9058906567491
 21
532.1823879101621
 31
0.0
  0
LINE
  5
2B4
330
19
100
AcDbEntity
  8
4
100
AcDbLine
 10
247.1558894081959
 20
537.2823879101625
 30
0.0
 11
247.1558894081959
 21
547.7823879101625
 31
0.0
  0
ARC
  5
2B5
330
19
100
AcDbEntity
  8
4
100
AcDbCircle
 10
248.1558894081959
 20
537.2823879101625
 30
0.0
 40
1.0
100
AcDbArc
 50
180.0
 51
270.0
  0
LINE
  5
2B6
330
19
100
AcDbEntity
  8
4
100
AcDbLine
 10
300.9756933109143
 20
522.1823879101621
 30
0.0
 11
369.3360855054775
 21
522.1823879101621
 31
0.0
  0
LINE
  5
2B7
330
19
100
AcDbEntity
  8
L-CENTER
100
AcDbLine
 10
277.1558894081959
 20
521.9443835728453
 30
0.0
 11
277.1558894081959
 21
545.6507504462115
 31
0.0
  0
LINE
  5
2B8
330
19
100
AcDbEntity
  8
4
100
AcDbLine
 10
263.1558894081959
 20
532.1823879101621
 30
0.0
 11
263.1558894081959
 21
536.2823879101625
 31
0.0
  0
ARC
  5
2B9
330
19
100
AcDbEntity
  8
4
100
AcDbCircle
 10
300.9756933109143
 20
523.1823879101621
 30
0.0
 40
1.0
100
AcDbArc
 50
191.309932474024
 51
270.0
  0
LINE
  5
2BA
330
19
100
AcDbEntity
  8
4
100
AcDbLine
 10
299.9951126352234
 20
522.9862717750239
 30
0.0
 11
298.8358894081958
 21
528.7823879101625
 31
0.0
  0
ARC
  5
2BB
330
19
100
AcDbEntity
  8
4
100
AcDbCircle
 10
369.3360855054775
 20
523.1823879101621
 30
0.0
 40
1.0
100
AcDbArc
 50
270.0
 51
348.690067525976
  0
LINE
  5
2BC
330
19
100
AcDbEntity
  8
4
100
AcDbLine
 10
370.3166661811679
 20
522.9862717750239
 30
0.0
 11
371.4758894081955
 21
528.7823879101625
 31
0.0
  0
LINE
  5
2BD
330
19
100
AcDbEntity
  8
4
100
AcDbLine
 10
423.1558894081959
 20
537.2823879101625
 30
0.0
 11
423.1558894081959
 21
547.7823879101625
 31
0.0
  0
ARC
  5
2BE
330
19
100
AcDbEntity
  8
4
100
AcDbCircle
 10
422.1558894081959
 20
537.2823879101625
 30
0.0
 40
1.0
100
AcDbArc
 50
270.0
 51
0.0
  0
LINE
  5
2BF
330
19
100
AcDbEntity
  8
4
100
AcDbLine
 10
247.1558894081963
 20
547.7823879101625
 30
0.0
 11
423.1558894081959
 21
547.7823879101625
 31
0.0
  0
LINE
  5
2C0
330
19
100
AcDbEntity
  8
4
100
AcDbLine
 10
422.1558894081959
 20
536.2823879101625
 30
0.0
 11
248.1558894081959
 21
536.2823879101625
 31
0.0
  0
LINE
  5
2C1
330
19
100
AcDbEntity
  8
4
100
AcDbLine
 10
400.3044186785896
 20
536.2823879101627
 30
0.0
 11
380.9058906567491
 21
532.4026823057945
 31
0.0
  0
LINE
  5
2C2
330
19
100
AcDbEntity
  8
4
100
AcDbLine
 10
392.6558894081982
 20
536.2823879101625
 30
0.0
 11
380.9058906567491
 21
533.9323881598727
 31
0.0
  0
LINE
  5
2C3
330
19
100
AcDbEntity
  8
4
100
AcDbLine
 10
270.0073601378108
 20
536.2823879101627
 30
0.0
 11
289.4058881596427
 21
532.4026823057955
 31
0.0
  0
LINE
  5
2C4
330
19
100
AcDbEntity
  8
4
100
AcDbLine
 10
263.1558894081959
 20
532.1823879101621
 30
0.0
 11
289.4058881596427
 21
532.1823879101621
 31
0.0
  0
LINE
  5
2C5
330
19
100
AcDbEntity
  8
4
  6
ByBlock
100
AcDbLine
 10
277.6558894081945
 20
536.2823879101625
 30
0.0
 11
289.4058881596427
 21
533.932388159873
 31
0.0
  0
LINE
  5
2C6
330
19
100
AcDbEntity
  8
4
100
AcDbLine
 10
310.1558894081959
 20
521.1823879101621
 30
0.0
 11
360.1558894081959
 21
521.1823879101621
 31
0.0
  0
LINE
  5
2C7
330
19
100
AcDbEntity
  8
4
100
AcDbLine
 10
310.1558894081959
 20
521.1823879101621
 30
0.0
 11
310.1558894081959
 21
522.1823879101621
 31
0.0
  0
LINE
  5
2C8
330
19
100
AcDbEntity
  8
4
100
AcDbLine
 10
360.1558894081959
 20
521.1823879101621
 30
0.0
 11
360.1558894081959
 21
522.1823879101621
 31
0.0
  0
LINE
  5
2C9
330
19
100
AcDbEntity
  8
4
100
AcDbLine
 10
234.155888408196
 20
623.0823859101622
 30
0.0
 11
234.155888408196
 21
571.0823869101621
 31
0.0
  0
LINE
  5
2CA
330
19
100
AcDbEntity
  8
4
100
AcDbLine
 10
234.155888408196
 20
623.0823859101622
 30
0.0
 11
234.155888408196
 21
571.0823869101621
 31
0.0
  0
LINE
  5
2CB
330
19
100
AcDbEntity
  8
4
100
AcDbLine
 10
234.155888408196
 20
571.0823869101621
 30
0.0
 11
235.1558904081958
 21
571.0823869101621
 31
0.0
  0
LINE
  5
2CC
330
19
100
AcDbEntity
  8
4
100
AcDbLine
 10
235.1558904081958
 20
571.0823869101621
 30
0.0
 11
234.155888408196
 21
571.0823869101621
 31
0.0
  0
LINE
  5
2CD
330
19
100
AcDbEntity
  8
4
100
AcDbLine
 10
234.155888408196
 20
623.0823859101622
 30
0.0
 11
235.1558904081958
 21
623.0823859101622
 31
0.0
  0
LINE
  5
2CE
330
19
100
AcDbEntity
  8
4
100
AcDbLine
 10
235.1558904081958
 20
623.0823859101622
 30
0.0
 11
234.155888408196
 21
623.0823859101622
 31
0.0
  0
LINE
  5
2CF
330
19
100
AcDbEntity
  8
4
100
AcDbLine
 10
436.1558904081958
 20
623.0823859101622
 30
0.0
 11
436.1558904081958
 21
571.0823869101621
 31
0.0
  0
LINE
  5
2D0
330
19
100
AcDbEntity
  8
4
100
AcDbLine
 10
436.1558904081958
 20
623.0823859101622
 30
0.0
 11
436.1558904081958
 21
571.0823869101621
 31
0.0
  0
LINE
  5
2D1
330
19
100
AcDbEntity
  8
4
100
AcDbLine
 10
436.1558904081958
 20
571.0823869101621
 30
0.0
 11
435.155888408196
 21
571.0823869101621
 31
0.0
  0
LINE
  5
2D2
330
19
100
AcDbEntity
  8
4
100
AcDbLine
 10
435.155888408196
 20
571.0823869101621
 30
0.0
 11
436.1558904081958
 21
571.0823869101621
 31
0.0
  0
LINE
  5
2D3
330
19
100
AcDbEntity
  8
4
100
AcDbLine
 10
436.1558904081958
 20
623.0823859101622
 30
0.0
 11
435.155888408196
 21
623.0823859101622
 31
0.0
  0
LINE
  5
2D4
330
19
100
AcDbEntity
  8
4
100
AcDbLine
 10
435.155888408196
 20
623.0823859101622
 30
0.0
 11
436.1558904081958
 21
623.0823859101622
 31
0.0
  0
LINE
  5
2D5
330
19
100
AcDbEntity
  8
4
100
AcDbLine
 10
289.4058881596427
 20
530.6823879101621
 30
0.0
 11
264.6558894081959
 21
530.6823879101621
 31
0.0
  0
LINE
  5
2D6
330
19
100
AcDbEntity
  8
4
100
AcDbLine
 10
289.6558894081959
 20
528.6823879101621
 30
0.0
 11
264.6558894081959
 21
528.6823879101621
 31
0.0
  0
LINE
  5
2D7
330
19
100
AcDbEntity
  8
4
100
AcDbLine
 10
287.9812069555014
 20
524.6823879101621
 30
0.0
 11
266.3305718608904
 21
524.6823879101621
 31
0.0
  0
LINE
  5
2D8
330
19
100
AcDbEntity
  8
4
100
AcDbLine
 10
289.4058881596427
 20
532.1823879101621
 30
0.0
 11
265.6558894081959
 21
532.1823879101621
 31
0.0
  0
LWPOLYLINE
  5
2D9
330
19
100
AcDbEntity
  8
4
100
AcDbPolyline
 90
        2
 70
     0
 43
0.0
 10
287.9812069555014
 20
524.6823879101621
 10
287.9812069555014
 20
528.6823879101621
  0
LINE
  5
2DA
330
19
100
AcDbEntity
  8
4
100
AcDbLine
 10
289.6558894081959
 20
528.6823879101621
 30
0.0
 11
289.6558894081959
 21
528.7823879101625
 31
0.0
  0
LINE
  5
2DB
330
19
100
AcDbEntity
  8
4
100
AcDbLine
 10
288.6558894081959
 20
530.6823879101621
 30
0.0
 11
288.6558894081959
 21
532.1823879101621
 31
0.0
  0
LWPOLYLINE
  5
2DC
330
19
100
AcDbEntity
  8
4
100
AcDbPolyline
 90
        2
 70
     0
 43
0.0
 10
266.3305718608904
 20
528.6823879101621
 10
266.3305718608904
 20
524.6823879101621
  0
LINE
  5
2DD
330
19
100
AcDbEntity
  8
4
100
AcDbLine
 10
264.6558894081959
 20
528.6823879101621
 30
0.0
 11
264.6558894081959
 21
530.6823879101621
 31
0.0
  0
LINE
  5
2DE
330
19
100
AcDbEntity
  8
4
100
AcDbLine
 10
265.6558894081959
 20
530.6823879101621
 30
0.0
 11
265.6558894081959
 21
532.1823879101621
 31
0.0
  0
LINE
  5
2DF
330
19
100
AcDbEntity
  8
4
100
AcDbLine
 10
269.7558894081958
 20
892.0823879101622
 30
0.0
 11
269.755889408196
 21
652.0823879101622
 31
0.0
  0
LINE
  5
2E0
330
19
100
AcDbEntity
  8
4
100
AcDbLine
 10
256.755889408196
 20
653.0823879101622
 30
0.0
 11
256.755889408196
 21
891.0823879101622
 31
0.0
  0
LINE
  5
2E1
330
19
100
AcDbEntity
  8
4
100
AcDbLine
 10
253.755889408196
 20
727.6366355516693
 30
0.0
 11
253.7558894081958
 21
816.5281402686551
 31
0.0
  0
LINE
  5
2E2
330
19
100
AcDbEntity
  8
4
100
AcDbLine
 10
257.755889408196
 20
652.0823879101622
 30
0.0
 11
269.755889408196
 21
652.0823879101622
 31
0.0
  0
ARC
  5
2E3
330
19
100
AcDbEntity
  8
4
100
AcDbCircle
 10
257.755889408196
 20
653.0823879101622
 30
0.0
 40
1.0
100
AcDbArc
 50
180.0
 51
270.0
  0
LINE
  5
2E4
330
19
100
AcDbEntity
  8
4
100
AcDbLine
 10
254.2258904681928
 20
726.7886372476642
 30
0.0
 11
256.755889408196
 21
725.2073879101622
 31
0.0
  0
ARC
  5
2E5
330
19
100
AcDbEntity
  8
4
100
AcDbCircle
 10
254.755889408196
 20
727.6366355516693
 30
0.0
 40
1.0
100
AcDbArc
 50
180.0
 51
237.9946167919193
  0
LINE
  5
2E6
330
19
100
AcDbEntity
  8
4
100
AcDbLine
 10
252.755889408196
 20
736.082387910162
 30
0.0
 11
252.755889408196
 21
808.0823879101622
 31
0.0
  0
LINE
  5
2E7
330
19
100
AcDbEntity
  8
4
100
AcDbLine
 10
252.755889408196
 20
736.082387910162
 30
0.0
 11
253.7558894081963
 21
736.082387910162
 31
0.0
  0
LINE
  5
2E8
330
19
100
AcDbEntity
  8
4
100
AcDbLine
 10
252.755889408196
 20
808.0823879101622
 30
0.0
 11
253.755889408196
 21
808.082387910162
 31
0.0
  0
LINE
  5
2E9
330
19
100
AcDbEntity
  8
4
100
AcDbLine
 10
254.2258904681928
 20
817.3761385726602
 30
0.0
 11
256.755889408196
 21
818.9573879101622
 31
0.0
  0
ARC
  5
2EA
330
19
100
AcDbEntity
  8
4
100
AcDbCircle
 10
254.7558894081958
 20
816.5281402686551
 30
0.0
 40
1.0
100
AcDbArc
 50
122.0053832080807
 51
180.0
  0
LINE
  5
2EB
330
19
100
AcDbEntity
  8
4
100
AcDbLine
 10
257.755889408196
 20
892.0823879101622
 30
0.0
 11
269.7558894081958
 21
892.0823879101622
 31
0.0
  0
ARC
  5
2EC
330
19
100
AcDbEntity
  8
4
100
AcDbCircle
 10
257.755889408196
 20
891.0823879101622
 30
0.0
 40
1.0
100
AcDbArc
 50
90.0
 51
180.0
  0
LINE
  5
2FD
330
19
100
AcDbEntity
  8
4
100
AcDbLine
 10
219.1558894081959
 20
766.0823879101622
 30
0.0
 11
140.1558894081959
 21
766.0823879101622
 31
0.0
  0
LINE
  5
2FE
330
19
100
AcDbEntity
  8
4
100
AcDbLine
 10
219.1558894081959
 20
778.0823879101622
 30
0.0
 11
140.1558894081959
 21
778.0823879101622
 31
0.0
  0
LINE
  5
2FF
330
19
100
AcDbEntity
  8
4
100
AcDbLine
 10
141.1558894081959
 20
750.5823879101622
 30
0.0
 11
229.1558894081959
 21
750.5823879101622
 31
0.0
  0
LINE
  5
300
330
19
100
AcDbEntity
  8
4
100
AcDbLine
 10
141.1558894081959
 20
793.5823879101622
 30
0.0
 11
229.1558894081954
 21
793.5823879101622
 31
0.0
  0
LINE
  5
301
330
19
100
AcDbEntity
  8
4
100
AcDbLine
 10
140.1558894081959
 20
761.5823879101622
 30
0.0
 11
140.1558894081959
 21
782.5823879101622
 31
0.0
  0
LINE
  5
302
330
19
100
AcDbEntity
  8
4
100
AcDbLine
 10
140.1558894081959
 20
751.5823879101622
 30
0.0
 11
140.1558894081959
 21
792.5823879101622
 31
0.0
  0
LINE
  5
303
330
19
100
AcDbEntity
  8
4
100
AcDbLine
 10
141.1558894081959
 20
750.5823879101622
 30
0.0
 11
141.1558894081959
 21
766.0823879101622
 31
0.0
  0
LINE
  5
304
330
19
100
AcDbEntity
  8
4
100
AcDbLine
 10
141.1558894081959
 20
750.5823879101622
 30
0.0
 11
140.1558894081959
 21
751.5823879101622
 31
0.0
  0
LINE
  5
305
330
19
100
AcDbEntity
  8
4
100
AcDbLine
 10
141.1558894081959
 20
793.5823879101622
 30
0.0
 11
140.1558894081959
 21
792.5823879101622
 31
0.0
  0
LINE
  5
306
330
19
100
AcDbEntity
  8
4
100
AcDbLine
 10
141.1558894081959
 20
778.0823879101622
 30
0.0
 11
141.1558894081959
 21
793.5823879101622
 31
0.0
  0
ARC
  5
307
330
19
100
AcDbEntity
  8
4
100
AcDbCircle
 10
219.1558894081959
 20
772.0823879101622
 30
0.0
 40
6.0
100
AcDbArc
 50
0.0
 51
90.0
  0
LINE
  5
308
330
19
100
AcDbEntity
  8
4
100
AcDbLine
 10
230.1558894081959
 20
749.5823879101622
 30
0.0
 11
230.1558894081954
 21
794.5823879101622
 31
0.0
  0
LINE
  5
309
330
19
100
AcDbEntity
  8
4
100
AcDbLine
 10
252.755889408196
 20
749.5823879101622
 30
0.0
 11
230.1558894081959
 21
749.5823879101622
 31
0.0
  0
ARC
  5
30A
330
19
100
AcDbEntity
  8
4
100
AcDbCircle
 10
219.1558894081959
 20
772.0823879101622
 30
0.0
 40
6.0
100
AcDbArc
 50
270.0
 51
0.0
  0
ARC
  5
30B
330
19
100
AcDbEntity
  8
4
100
AcDbCircle
 10
229.1558894081959
 20
749.5823879101622
 30
0.0
 40
1.0
100
AcDbArc
 50
0.0
 51
90.0
  0
LINE
  5
30C
330
19
100
AcDbEntity
  8
4
100
AcDbLine
 10
252.755889408196
 20
794.5823879101622
 30
0.0
 11
230.1558894081954
 21
794.5823879101622
 31
0.0
  0
ARC
  5
30D
330
19
100
AcDbEntity
  8
4
100
AcDbCircle
 10
229.1558894081954
 20
794.5823879101622
 30
0.0
 40
1.0
100
AcDbArc
 50
270.0
 51
0.0
  0
CIRCLE
  5
30E
330
19
100
AcDbEntity
  8
4
100
AcDbCircle
 10
335.1558894081959
 20
772.0823879101622
 30
0.0
 40
12.5
  0
LWPOLYLINE
  5
30F
330
19
100
AcDbEntity
  8
4
100
AcDbPolyline
 90
        6
 70
     1
 43
0.0
 10
335.1558894081959
 20
784.5823879101622
 10
324.3305718608904
 20
778.3323879101622
 10
324.3305718608904
 20
765.8323879101622
 10
335.1558894081959
 20
759.5823879101622
 10
345.9812069555014
 20
765.8323879101622
 10
345.9812069555014
 20
778.3323879101622
  0
ARC
  5
310
330
19
100
AcDbEntity
  8
4
100
AcDbCircle
 10
335.1558894081959
 20
125.6087137300979
 30
0.0
 40
93.0
100
AcDbArc
 50
180.0
 51
0.0
  0
CIRCLE
  5
311
330
19
100
AcDbEntity
  8
4
100
AcDbCircle
 10
335.1558894081959
 20
125.6087137300979
 30
0.0
 40
90.0
  0
LINE
  5
4CD
330
19
100
AcDbEntity
  8
L-CENTER
100
AcDbLine
 10
240.1558894081959
 20
602.0823879101599
 30
0.0
 11
240.1558894081959
 21
572.0823879101649
 31
0.0
  0
ARC
  5
4CE
330
19
100
AcDbEntity
  8
4
100
AcDbCircle
 10
240.1558894081959
 20
587.0823879101622
 30
0.0
 40
7.5
100
AcDbArc
 50
199.4712206344888
 51
216.8698849134486
  0
LINE
  5
4CF
330
19
100
AcDbEntity
  8
L-CENTER
100
AcDbLine
 10
225.1558894081982
 20
587.0823879101622
 30
0.0
 11
255.1558894081932
 21
587.0823879101622
 31
0.0
  0
ARC
  5
4D0
330
19
100
AcDbEntity
  8
4
100
AcDbCircle
 10
430.1558894081959
 20
587.0823879101622
 30
0.0
 40
7.5
100
AcDbArc
 50
323.1301150865515
 51
36.86988491344843
  0
LINE
  5
4D1
330
19
100
AcDbEntity
  8
L-CENTER
100
AcDbLine
 10
430.1558894081959
 20
602.0823879101599
 30
0.0
 11
430.1558894081959
 21
572.0823879101649
 31
0.0
  0
LINE
  5
4D3
330
19
100
AcDbEntity
  8
2
100
AcDbLine
 10
711.6474331918705
 20
194.6897827300982
 30
0.0
 11
713.1474331918705
 21
196.1897827300982
 31
0.0
  0
LINE
  5
4D4
330
19
100
AcDbEntity
  8
2
100
AcDbLine
 10
711.6474331918705
 20
196.8111030736577
 30
0.0
 11
713.1474331918705
 21
198.3111030736577
 31
0.0
  0
LINE
  5
4D5
330
19
100
AcDbEntity
  8
4
100
AcDbLine
 10
711.6474331918705
 20
49.27764473009756
 30
0.0
 11
711.6474331918705
 21
60.77764473009756
 31
0.0
  0
LINE
  5
4D6
330
19
100
AcDbEntity
  8
4
100
AcDbLine
 10
705.6474331918705
 20
50.02764473009756
 30
0.0
 11
705.6474331918705
 21
60.02764473009756
 31
0.0
  0
LINE
  5
4D7
330
19
100
AcDbEntity
  8
L-CENTER
100
AcDbLine
 10
702.7945808226267
 20
55.02764473009756
 30
0.0
 11
733.1132564783537
 21
55.02764473009756
 31
0.0
  0
LINE
  5
4D8
330
19
100
AcDbEntity
  8
4
100
AcDbLine
 10
711.6474331918705
 20
60.77764473009756
 30
0.0
 11
713.1474331918705
 21
60.77764473009756
 31
0.0
  0
LINE
  5
4D9
330
19
100
AcDbEntity
  8
4
100
AcDbLine
 10
711.6474331918705
 20
49.27764473009756
 30
0.0
 11
713.1474331918705
 21
49.27764473009756
 31
0.0
  0
LINE
  5
4DA
330
19
100
AcDbEntity
  8
4
100
AcDbLine
 10
705.6474331918705
 20
60.02764473009756
 30
0.0
 11
711.6474331918705
 21
60.02764473009756
 31
0.0
  0
LINE
  5
4DB
330
19
100
AcDbEntity
  8
4
100
AcDbLine
 10
705.6474331918705
 20
50.02764473009756
 30
0.0
 11
711.6474331918705
 21
50.02764473009756
 31
0.0
  0
LINE
  5
4DC
330
19
100
AcDbEntity
  8
2
100
AcDbLine
 10
711.6474331918705
 20
56.52764473009756
 30
0.0
 11
713.1474331918705
 21
55.02764473009756
 31
0.0
  0
LINE
  5
4DD
330
19
100
AcDbEntity
  8
2
100
AcDbLine
 10
711.6474331918705
 20
54.40632438653802
 30
0.0
 11
713.1474331918705
 21
52.90632438653802
 31
0.0
  0
LINE
  5
4DE
330
19
100
AcDbEntity
  8
4
100
AcDbLine
 10
711.6474331918705
 20
131.3587137300979
 30
0.0
 11
711.6474331918705
 21
119.8587137300979
 31
0.0
  0
LINE
  5
4DF
330
19
100
AcDbEntity
  8
4
100
AcDbLine
 10
705.6474331918705
 20
130.6087137300979
 30
0.0
 11
705.6474331918705
 21
120.6087137300979
 31
0.0
  0
LINE
  5
4E0
330
19
100
AcDbEntity
  8
4
100
AcDbLine
 10
711.6474331918705
 20
119.8587137300979
 30
0.0
 11
713.1474331918705
 21
119.8587137300979
 31
0.0
  0
LINE
  5
4E1
330
19
100
AcDbEntity
  8
4
100
AcDbLine
 10
711.6474331918705
 20
131.3587137300979
 30
0.0
 11
713.1474331918705
 21
131.3587137300979
 31
0.0
  0
LINE
  5
4E2
330
19
100
AcDbEntity
  8
4
100
AcDbLine
 10
705.6474331918705
 20
120.6087137300979
 30
0.0
 11
711.6474331918705
 21
120.6087137300979
 31
0.0
  0
LINE
  5
4E3
330
19
100
AcDbEntity
  8
4
100
AcDbLine
 10
705.6474331918705
 20
130.6087137300979
 30
0.0
 11
711.6474331918705
 21
130.6087137300979
 31
0.0
  0
LINE
  5
4E4
330
19
100
AcDbEntity
  8
2
100
AcDbLine
 10
711.6474331918705
 20
124.1087137300979
 30
0.0
 11
713.1474331918705
 21
125.6087137300979
 31
0.0
  0
LINE
  5
4E5
330
19
100
AcDbEntity
  8
2
100
AcDbLine
 10
711.6474331918705
 20
126.2300340736574
 30
0.0
 11
713.1474331918705
 21
127.7300340736574
 31
0.0
  0
CIRCLE
  5
4E6
330
19
100
AcDbEntity
  8
4
100
AcDbCircle
 10
416.6558904081959
 20
125.6087137300979
 30
0.0
 40
5.75
  0
CIRCLE
  5
4E7
330
19
100
AcDbEntity
  8
4
100
AcDbCircle
 10
416.6558904081959
 20
125.6087137300979
 30
0.0
 40
5.0
  0
LINE
  5
4E8
330
19
100
AcDbEntity
  8
2
100
AcDbLine
 10
419.5426417541441
 20
125.6087137300979
 30
0.0
 11
418.09926608117
 21
128.1087137300979
 31
0.0
  0
LINE
  5
4E9
330
19
100
AcDbEntity
  8
2
100
AcDbLine
 10
415.2125147352219
 20
123.1087137300979
 30
0.0
 11
413.7691390622478
 21
125.6087137300979
 31
0.0
  0
LINE
  5
4EA
330
19
100
AcDbEntity
  8
2
100
AcDbLine
 10
295.84926458117
 20
52.5276424556406
 30
0.0
 11
297.292640254144
 21
55.0276424556406
 31
0.0
  0
LINE
  5
4EB
330
19
100
AcDbEntity
  8
2
100
AcDbLine
 10
291.5191375622477
 20
55.0276424556406
 30
0.0
 11
292.9625132352218
 21
57.5276424556406
 31
0.0
  0
LINE
  5
4EC
330
19
100
AcDbEntity
  8
2
100
AcDbLine
 10
292.9625132352218
 20
52.5276424556406
 30
0.0
 11
295.84926458117
 21
52.5276424556406
 31
0.0
  0
LINE
  5
4ED
330
19
100
AcDbEntity
  8
2
100
AcDbLine
 10
292.9625132352218
 20
57.5276424556406
 30
0.0
 11
295.84926458117
 21
57.5276424556406
 31
0.0
  0
CIRCLE
  5
4EE
330
19
100
AcDbEntity
  8
4
100
AcDbCircle
 10
294.4058889081959
 20
55.0276424556406
 30
0.0
 40
5.75
  0
CIRCLE
  5
4EF
330
19
100
AcDbEntity
  8
4
100
AcDbCircle
 10
294.4058889081959
 20
55.0276424556406
 30
0.0
 40
5.0
  0
LINE
  5
4F0
330
19
100
AcDbEntity
  8
2
100
AcDbLine
 10
292.9625132352218
 20
52.5276424556406
 30
0.0
 11
291.5191375622477
 21
55.0276424556406
 31
0.0
  0
LINE
  5
4F1
330
19
100
AcDbEntity
  8
2
100
AcDbLine
 10
297.292640254144
 20
55.0276424556406
 30
0.0
 11
295.84926458117
 21
57.5276424556406
 31
0.0
  0
LINE
  5
4F2
330
19
100
AcDbEntity
  8
L-CENTER
100
AcDbLine
 10
298.2633592475243
 20
61.7089770720475
 30
0.0
 11
290.5484185688674
 21
48.34630783923387
 31
0.0
  0
LINE
  5
4F3
330
19
100
AcDbEntity
  8
2
100
AcDbLine
 10
374.4625142352218
 20
52.5276424556406
 30
0.0
 11
373.0191385622477
 21
55.0276424556406
 31
0.0
  0
LINE
  5
4F4
330
19
100
AcDbEntity
  8
2
100
AcDbLine
 10
378.792641254144
 20
55.0276424556406
 30
0.0
 11
377.34926558117
 21
57.5276424556406
 31
0.0
  0
LINE
  5
4F5
330
19
100
AcDbEntity
  8
2
100
AcDbLine
 10
377.34926558117
 20
52.5276424556406
 30
0.0
 11
374.4625142352218
 21
52.5276424556406
 31
0.0
  0
LINE
  5
4F6
330
19
100
AcDbEntity
  8
2
100
AcDbLine
 10
377.34926558117
 20
57.5276424556406
 30
0.0
 11
374.4625142352218
 21
57.5276424556406
 31
0.0
  0
CIRCLE
  5
4F7
330
19
100
AcDbEntity
  8
4
100
AcDbCircle
 10
375.9058899081958
 20
55.0276424556406
 30
0.0
 40
5.75
  0
CIRCLE
  5
4F8
330
19
100
AcDbEntity
  8
4
100
AcDbCircle
 10
375.9058899081958
 20
55.0276424556406
 30
0.0
 40
5.0
  0
LINE
  5
4F9
330
19
100
AcDbEntity
  8
2
100
AcDbLine
 10
377.34926558117
 20
52.5276424556406
 30
0.0
 11
378.792641254144
 21
55.0276424556406
 31
0.0
  0
LINE
  5
4FA
330
19
100
AcDbEntity
  8
2
100
AcDbLine
 10
373.0191385622477
 20
55.0276424556406
 30
0.0
 11
374.4625142352218
 21
57.5276424556406
 31
0.0
  0
LINE
  5
4FB
330
19
100
AcDbEntity
  8
L-CENTER
100
AcDbLine
 10
372.0484195688675
 20
61.7089770720475
 30
0.0
 11
379.7633602475244
 21
48.34630783923387
 31
0.0
  0
LINE
  5
4FC
330
19
100
AcDbEntity
  8
2
100
AcDbLine
 10
295.84926458117
 20
198.6897850045551
 30
0.0
 11
297.292640254144
 21
196.1897850045551
 31
0.0
  0
LINE
  5
4FD
330
19
100
AcDbEntity
  8
2
100
AcDbLine
 10
291.5191375622477
 20
196.1897850045551
 30
0.0
 11
292.9625132352218
 21
193.6897850045551
 31
0.0
  0
LINE
  5
4FE
330
19
100
AcDbEntity
  8
2
100
AcDbLine
 10
292.9625132352218
 20
198.6897850045551
 30
0.0
 11
295.84926458117
 21
198.6897850045551
 31
0.0
  0
LINE
  5
4FF
330
19
100
AcDbEntity
  8
2
100
AcDbLine
 10
292.9625132352218
 20
193.6897850045551
 30
0.0
 11
295.84926458117
 21
193.6897850045551
 31
0.0
  0
CIRCLE
  5
500
330
19
100
AcDbEntity
  8
4
100
AcDbCircle
 10
294.4058889081959
 20
196.1897850045551
 30
0.0
 40
5.75
  0
CIRCLE
  5
501
330
19
100
AcDbEntity
  8
4
100
AcDbCircle
 10
294.4058889081959
 20
196.1897850045551
 30
0.0
 40
5.0
  0
LINE
  5
502
330
19
100
AcDbEntity
  8
2
100
AcDbLine
 10
292.9625132352218
 20
198.6897850045551
 30
0.0
 11
291.5191375622477
 21
196.1897850045551
 31
0.0
  0
LINE
  5
503
330
19
100
AcDbEntity
  8
2
100
AcDbLine
 10
297.292640254144
 20
196.1897850045551
 30
0.0
 11
295.84926458117
 21
193.6897850045551
 31
0.0
  0
LINE
  5
504
330
19
100
AcDbEntity
  8
L-CENTER
100
AcDbLine
 10
298.2633592475243
 20
189.5084503881483
 30
0.0
 11
290.5484185688674
 21
202.8711196209618
 31
0.0
  0
LINE
  5
505
330
19
100
AcDbEntity
  8
2
100
AcDbLine
 10
374.4625142352218
 20
198.6897850045551
 30
0.0
 11
373.0191385622477
 21
196.1897850045551
 31
0.0
  0
LINE
  5
506
330
19
100
AcDbEntity
  8
2
100
AcDbLine
 10
378.792641254144
 20
196.1897850045551
 30
0.0
 11
377.34926558117
 21
193.6897850045551
 31
0.0
  0
LINE
  5
507
330
19
100
AcDbEntity
  8
2
100
AcDbLine
 10
377.34926558117
 20
198.6897850045551
 30
0.0
 11
374.4625142352218
 21
198.6897850045551
 31
0.0
  0
LINE
  5
508
330
19
100
AcDbEntity
  8
2
100
AcDbLine
 10
377.34926558117
 20
193.6897850045551
 30
0.0
 11
374.4625142352218
 21
193.6897850045551
 31
0.0
  0
CIRCLE
  5
509
330
19
100
AcDbEntity
  8
4
100
AcDbCircle
 10
375.9058899081958
 20
196.1897850045551
 30
0.0
 40
5.75
  0
CIRCLE
  5
50A
330
19
100
AcDbEntity
  8
4
100
AcDbCircle
 10
375.9058899081958
 20
196.1897850045551
 30
0.0
 40
5.0
  0
LINE
  5
50B
330
19
100
AcDbEntity
  8
2
100
AcDbLine
 10
377.34926558117
 20
198.6897850045551
 30
0.0
 11
378.792641254144
 21
196.1897850045551
 31
0.0
  0
LINE
  5
50C
330
19
100
AcDbEntity
  8
2
100
AcDbLine
 10
373.0191385622477
 20
196.1897850045551
 30
0.0
 11
374.4625142352218
 21
193.6897850045551
 31
0.0
  0
LINE
  5
50D
330
19
100
AcDbEntity
  8
L-CENTER
100
AcDbLine
 10
372.0484195688675
 20
189.5084503881483
 30
0.0
 11
379.7633602475244
 21
202.8711196209618
 31
0.0
  0
LINE
  5
50E
330
19
100
AcDbEntity
  8
4
100
AcDbLine
 10
410.9058904081958
 20
534.7823879101625
 30
0.0
 11
422.4058904081958
 21
534.7823879101625
 31
0.0
  0
LINE
  5
50F
330
19
100
AcDbEntity
  8
4
100
AcDbLine
 10
411.6558904081958
 20
528.7823879101625
 30
0.0
 11
421.6558904081958
 21
528.7823879101625
 31
0.0
  0
LINE
  5
510
330
19
100
AcDbEntity
  8
L-CENTER
100
AcDbLine
 10
416.6558904081958
 20
525.9295355409187
 30
0.0
 11
416.6558904081958
 21
556.2482111966457
 31
0.0
  0
LINE
  5
511
330
19
100
AcDbEntity
  8
4
100
AcDbLine
 10
422.4058904081958
 20
534.7823879101625
 30
0.0
 11
422.4058904081958
 21
536.2823879101625
 31
0.0
  0
LINE
  5
512
330
19
100
AcDbEntity
  8
4
100
AcDbLine
 10
410.9058904081958
 20
534.7823879101625
 30
0.0
 11
410.9058904081958
 21
536.2823879101625
 31
0.0
  0
LINE
  5
513
330
19
100
AcDbEntity
  8
4
100
AcDbLine
 10
421.6558904081958
 20
528.7823879101625
 30
0.0
 11
421.6558904081958
 21
534.7823879101625
 31
0.0
  0
LINE
  5
514
330
19
100
AcDbEntity
  8
4
100
AcDbLine
 10
411.6558904081958
 20
528.7823879101625
 30
0.0
 11
411.6558904081958
 21
534.7823879101625
 31
0.0
  0
LINE
  5
515
330
19
100
AcDbEntity
  8
4
100
AcDbLine
 10
370.1558906567491
 20
534.7823879101625
 30
0.0
 11
381.6558906567491
 21
534.7823879101625
 31
0.0
  0
LINE
  5
516
330
19
100
AcDbEntity
  8
4
100
AcDbLine
 10
370.9058906567491
 20
528.7823879101625
 30
0.0
 11
380.9058906567491
 21
528.7823879101625
 31
0.0
  0
LINE
  5
517
330
19
100
AcDbEntity
  8
L-CENTER
100
AcDbLine
 10
375.9058906567491
 20
525.9295355409187
 30
0.0
 11
375.9058906567491
 21
556.2482111966457
 31
0.0
  0
LINE
  5
518
330
19
100
AcDbEntity
  8
4
100
AcDbLine
 10
381.6558906567491
 20
534.7823879101625
 30
0.0
 11
381.6558906567491
 21
536.2823879101625
 31
0.0
  0
LINE
  5
519
330
19
100
AcDbEntity
  8
4
100
AcDbLine
 10
370.1558906567491
 20
534.7823879101625
 30
0.0
 11
370.1558906567491
 21
536.2823879101625
 31
0.0
  0
LINE
  5
51A
330
19
100
AcDbEntity
  8
4
100
AcDbLine
 10
380.9058906567491
 20
528.7823879101625
 30
0.0
 11
380.9058906567491
 21
534.7823879101625
 31
0.0
  0
LINE
  5
51B
330
19
100
AcDbEntity
  8
4
100
AcDbLine
 10
370.9058906567491
 20
528.7823879101625
 30
0.0
 11
370.9058906567491
 21
534.7823879101625
 31
0.0
  0
LINE
  5
51C
330
19
100
AcDbEntity
  8
4
100
AcDbLine
 10
259.405888408196
 20
534.7823879101625
 30
0.0
 11
247.905888408196
 21
534.7823879101625
 31
0.0
  0
LINE
  5
51D
330
19
100
AcDbEntity
  8
4
100
AcDbLine
 10
258.655888408196
 20
528.7823879101625
 30
0.0
 11
248.655888408196
 21
528.7823879101625
 31
0.0
  0
LINE
  5
51E
330
19
100
AcDbEntity
  8
L-CENTER
100
AcDbLine
 10
253.655888408196
 20
525.9295355409187
 30
0.0
 11
253.655888408196
 21
556.2482111966457
 31
0.0
  0
LINE
  5
51F
330
19
100
AcDbEntity
  8
4
100
AcDbLine
 10
247.905888408196
 20
534.7823879101625
 30
0.0
 11
247.905888408196
 21
536.2823879101625
 31
0.0
  0
LINE
  5
520
330
19
100
AcDbEntity
  8
4
100
AcDbLine
 10
259.405888408196
 20
534.7823879101625
 30
0.0
 11
259.405888408196
 21
536.2823879101625
 31
0.0
  0
LINE
  5
521
330
19
100
AcDbEntity
  8
4
100
AcDbLine
 10
248.655888408196
 20
528.7823879101625
 30
0.0
 11
248.655888408196
 21
534.7823879101625
 31
0.0
  0
LINE
  5
522
330
19
100
AcDbEntity
  8
4
100
AcDbLine
 10
258.655888408196
 20
528.7823879101625
 30
0.0
 11
258.655888408196
 21
534.7823879101625
 31
0.0
  0
LINE
  5
523
330
19
100
AcDbEntity
  8
4
100
AcDbLine
 10
300.1558881596427
 20
534.7823879101625
 30
0.0
 11
288.6558881596427
 21
534.7823879101625
 31
0.0
  0
LINE
  5
524
330
19
100
AcDbEntity
  8
4
100
AcDbLine
 10
299.4058881596427
 20
528.7823879101625
 30
0.0
 11
289.4058881596427
 21
528.7823879101625
 31
0.0
  0
LINE
  5
525
330
19
100
AcDbEntity
  8
L-CENTER
100
AcDbLine
 10
294.4058881596427
 20
525.9295355409187
 30
0.0
 11
294.4058881596427
 21
556.2482111966457
 31
0.0
  0
LINE
  5
526
330
19
100
AcDbEntity
  8
4
100
AcDbLine
 10
288.6558881596427
 20
534.7823879101625
 30
0.0
 11
288.6558881596427
 21
536.2823879101625
 31
0.0
  0
LINE
  5
527
330
19
100
AcDbEntity
  8
4
100
AcDbLine
 10
300.1558881596427
 20
534.7823879101625
 30
0.0
 11
300.1558881596427
 21
536.2823879101625
 31
0.0
  0
LINE
  5
528
330
19
100
AcDbEntity
  8
4
100
AcDbLine
 10
289.4058881596427
 20
528.7823879101625
 30
0.0
 11
289.4058881596427
 21
534.7823879101625
 31
0.0
  0
LINE
  5
529
330
19
100
AcDbEntity
  8
4
100
AcDbLine
 10
299.4058881596427
 20
528.7823879101625
 30
0.0
 11
299.4058881596427
 21
534.7823879101625
 31
0.0
  0
LINE
  5
52A
330
19
100
AcDbEntity
  8
2
100
AcDbLine
 10
255.1558894081959
 20
333.8716517300977
 30
0.0
 11
257.1558894081959
 21
335.8716517300977
 31
0.0
  0
LINE
  5
52B
330
19
100
AcDbEntity
  8
2
100
AcDbLine
 10
255.1558894081959
 20
336.7000788548439
 30
0.0
 11
257.1558894081959
 21
338.7000788548439
 31
0.0
  0
LINE
  5
52C
330
19
100
AcDbEntity
  8
L-CENTER
100
AcDbLine
 10
284.2946224533035
 20
717.082387910162
 30
0.0
 11
243.5561834081961
 21
717.082387910162
 31
0.0
  0
LINE
  5
52D
330
19
100
AcDbEntity
  8
4
100
AcDbLine
 10
254.755889408196
 20
710.582387910162
 30
0.0
 11
246.755889408196
 21
710.582387910162
 31
0.0
  0
LINE
  5
52E
330
19
100
AcDbEntity
  8
4
100
AcDbLine
 10
254.755889408196
 20
723.582387910162
 30
0.0
 11
246.755889408196
 21
723.582387910162
 31
0.0
  0
LINE
  5
52F
330
19
100
AcDbEntity
  8
4
100
AcDbLine
 10
256.755889408196
 20
709.832387910162
 30
0.0
 11
254.755889408196
 21
709.832387910162
 31
0.0
  0
LINE
  5
530
330
19
100
AcDbEntity
  8
4
100
AcDbLine
 10
256.755889408196
 20
724.332387910162
 30
0.0
 11
254.755889408196
 21
724.332387910162
 31
0.0
  0
LINE
  5
531
330
19
100
AcDbEntity
  8
4
100
AcDbLine
 10
254.755889408196
 20
724.332387910162
 30
0.0
 11
254.755889408196
 21
709.832387910162
 31
0.0
  0
LINE
  5
532
330
19
100
AcDbEntity
  8
4
100
AcDbLine
 10
246.755889408196
 20
723.582387910162
 30
0.0
 11
246.755889408196
 21
710.582387910162
 31
0.0
  0
LINE
  5
533
330
19
100
AcDbEntity
  8
L-CENTER
100
AcDbLine
 10
284.2946224533035
 20
662.0823879101622
 30
0.0
 11
243.5561834081961
 21
662.0823879101622
 31
0.0
  0
LINE
  5
534
330
19
100
AcDbEntity
  8
4
100
AcDbLine
 10
254.755889408196
 20
655.5823879101622
 30
0.0
 11
246.755889408196
 21
655.5823879101622
 31
0.0
  0
LINE
  5
535
330
19
100
AcDbEntity
  8
4
100
AcDbLine
 10
254.755889408196
 20
668.5823879101622
 30
0.0
 11
246.755889408196
 21
668.5823879101622
 31
0.0
  0
LINE
  5
536
330
19
100
AcDbEntity
  8
4
100
AcDbLine
 10
256.755889408196
 20
654.8323879101622
 30
0.0
 11
254.755889408196
 21
654.8323879101622
 31
0.0
  0
LINE
  5
537
330
19
100
AcDbEntity
  8
4
100
AcDbLine
 10
256.755889408196
 20
669.3323879101622
 30
0.0
 11
254.755889408196
 21
669.3323879101622
 31
0.0
  0
LINE
  5
538
330
19
100
AcDbEntity
  8
4
100
AcDbLine
 10
254.755889408196
 20
669.3323879101622
 30
0.0
 11
254.755889408196
 21
654.8323879101622
 31
0.0
  0
LINE
  5
539
330
19
100
AcDbEntity
  8
4
100
AcDbLine
 10
246.755889408196
 20
668.5823879101622
 30
0.0
 11
246.755889408196
 21
655.5823879101622
 31
0.0
  0
LINE
  5
53A
330
19
100
AcDbEntity
  8
L-CENTER
100
AcDbLine
 10
284.2946224533035
 20
827.0823879101624
 30
0.0
 11
243.5561834081961
 21
827.0823879101624
 31
0.0
  0
LINE
  5
53B
330
19
100
AcDbEntity
  8
4
100
AcDbLine
 10
254.755889408196
 20
833.5823879101624
 30
0.0
 11
246.755889408196
 21
833.5823879101624
 31
0.0
  0
LINE
  5
53C
330
19
100
AcDbEntity
  8
4
100
AcDbLine
 10
254.755889408196
 20
820.5823879101624
 30
0.0
 11
246.755889408196
 21
820.5823879101624
 31
0.0
  0
LINE
  5
53D
330
19
100
AcDbEntity
  8
4
100
AcDbLine
 10
256.755889408196
 20
834.3323879101624
 30
0.0
 11
254.755889408196
 21
834.3323879101624
 31
0.0
  0
LINE
  5
53E
330
19
100
AcDbEntity
  8
4
100
AcDbLine
 10
256.755889408196
 20
819.8323879101624
 30
0.0
 11
254.755889408196
 21
819.8323879101624
 31
0.0
  0
LINE
  5
53F
330
19
100
AcDbEntity
  8
4
100
AcDbLine
 10
254.755889408196
 20
819.8323879101624
 30
0.0
 11
254.755889408196
 21
834.3323879101624
 31
0.0
  0
LINE
  5
540
330
19
100
AcDbEntity
  8
4
100
AcDbLine
 10
246.755889408196
 20
820.5823879101624
 30
0.0
 11
246.755889408196
 21
833.5823879101624
 31
0.0
  0
LINE
  5
541
330
19
100
AcDbEntity
  8
L-CENTER
100
AcDbLine
 10
284.2946224533035
 20
882.0823879101622
 30
0.0
 11
243.5561834081961
 21
882.0823879101622
 31
0.0
  0
LINE
  5
542
330
19
100
AcDbEntity
  8
4
100
AcDbLine
 10
254.755889408196
 20
888.5823879101622
 30
0.0
 11
246.755889408196
 21
888.5823879101622
 31
0.0
  0
LINE
  5
543
330
19
100
AcDbEntity
  8
4
100
AcDbLine
 10
254.755889408196
 20
875.5823879101622
 30
0.0
 11
246.755889408196
 21
875.5823879101622
 31
0.0
  0
LINE
  5
544
330
19
100
AcDbEntity
  8
4
100
AcDbLine
 10
256.755889408196
 20
889.3323879101622
 30
0.0
 11
254.755889408196
 21
889.3323879101622
 31
0.0
  0
LINE
  5
545
330
19
100
AcDbEntity
  8
4
100
AcDbLine
 10
256.755889408196
 20
874.8323879101622
 30
0.0
 11
254.755889408196
 21
874.8323879101622
 31
0.0
  0
LINE
  5
546
330
19
100
AcDbEntity
  8
4
100
AcDbLine
 10
254.755889408196
 20
874.8323879101622
 30
0.0
 11
254.755889408196
 21
889.3323879101622
 31
0.0
  0
LINE
  5
547
330
19
100
AcDbEntity
  8
4
100
AcDbLine
 10
246.755889408196
 20
875.5823879101622
 30
0.0
 11
246.755889408196
 21
888.5823879101622
 31
0.0
  0
LINE
  5
56A
330
19
100
AcDbEntity
  8
4
100
AcDbLine
 10
156.155888408196
 20
204.1087117300981
 30
0.0
 11
156.155888408196
 21
227.108712730098
 31
0.0
  0
LINE
  5
56B
330
19
100
AcDbEntity
  8
4
100
AcDbLine
 10
156.155888408196
 20
227.108712730098
 30
0.0
 11
215.1558894081959
 21
227.108712730098
 31
0.0
  0
LINE
  5
56C
330
19
100
AcDbEntity
  8
4
100
AcDbLine
 10
155.1558894081959
 20
226.1087137300979
 30
0.0
 11
156.155888408196
 21
227.108712730098
 31
0.0
  0
LINE
  5
56D
330
19
100
AcDbEntity
  8
4
100
AcDbLine
 10
155.1558894081959
 20
205.1087137300979
 30
0.0
 11
155.1558894081959
 21
230.108712730098
 31
0.0
  0
LINE
  5
56E
330
19
100
AcDbEntity
  8
4
100
AcDbLine
 10
156.155888408196
 20
204.1087117300981
 30
0.0
 11
215.1558894081959
 21
204.1087117300981
 31
0.0
  0
LINE
  5
56F
330
19
100
AcDbEntity
  8
4
100
AcDbLine
 10
156.155888408196
 20
204.1087117300981
 30
0.0
 11
155.1558894081959
 21
205.1087137300979
 31
0.0
  0
LINE
  5
570
330
19
100
AcDbEntity
  8
4
100
AcDbLine
 10
155.1558894081959
 20
230.108712730098
 30
0.0
 11
210.155888408196
 21
230.108712730098
 31
0.0
  0
LINE
  5
571
330
19
100
AcDbEntity
  8
4
100
AcDbLine
 10
234.155888408196
 20
228.1087117300981
 30
0.0
 11
215.1558894081959
 21
228.1087117300981
 31
0.0
  0
LINE
  5
572
330
19
100
AcDbEntity
  8
4
100
AcDbLine
 10
234.155888408196
 20
203.108712730098
 30
0.0
 11
215.1558894081959
 21
203.108712730098
 31
0.0
  0
LINE
  5
573
330
19
100
AcDbEntity
  8
4
100
AcDbLine
 10
215.1558894081959
 20
203.108712730098
 30
0.0
 11
215.1558894081959
 21
228.1087117300981
 31
0.0
  0
LINE
  5
574
330
19
100
AcDbEntity
  8
4
100
AcDbLine
 10
210.155888408196
 20
227.108712730098
 30
0.0
 11
210.155888408196
 21
230.108712730098
 31
0.0
  0
LINE
  5
576
330
19
100
AcDbEntity
  8
4
100
AcDbLine
 10
156.1558894081959
 20
608.5823879101624
 30
0.0
 11
214.1558894081959
 21
608.5823879101624
 31
0.0
  0
LINE
  5
577
330
19
100
AcDbEntity
  8
4
100
AcDbLine
 10
156.1558894081959
 20
585.5823879101624
 30
0.0
 11
214.1558894081959
 21
585.5823879101624
 31
0.0
  0
LINE
  5
578
330
19
100
AcDbEntity
  8
4
100
AcDbLine
 10
155.1558894081959
 20
600.5823879101624
 30
0.0
 11
206.6558894081959
 21
600.5823879101624
 31
0.0
  0
LINE
  5
579
330
19
100
AcDbEntity
  8
4
100
AcDbLine
 10
155.1558894081959
 20
593.5823879101624
 30
0.0
 11
206.6558894081959
 21
593.5823879101624
 31
0.0
  0
ARC
  5
57A
330
19
100
AcDbEntity
  8
4
100
AcDbCircle
 10
206.6558894081959
 20
597.0823879101624
 30
0.0
 40
3.5
100
AcDbArc
 50
270.0
 51
90.0
  0
LINE
  5
57B
330
19
100
AcDbEntity
  8
4
100
AcDbLine
 10
215.1558894081959
 20
609.5823879101624
 30
0.0
 11
215.1558894081959
 21
584.5823879101624
 31
0.0
  0
ARC
  5
57C
330
19
100
AcDbEntity
  8
4
100
AcDbCircle
 10
214.1558894081959
 20
584.5823879101624
 30
0.0
 40
1.0
100
AcDbArc
 50
0.0
 51
90.0
  0
ARC
  5
57D
330
19
100
AcDbEntity
  8
4
100
AcDbCircle
 10
214.1558894081959
 20
609.5823879101624
 30
0.0
 40
1.0
100
AcDbArc
 50
270.0
 51
0.0
  0
LINE
  5
57E
330
19
100
AcDbEntity
  8
4
100
AcDbLine
 10
155.1558894081959
 20
607.5823879101624
 30
0.0
 11
155.1558894081959
 21
586.5823879101624
 31
0.0
  0
LINE
  5
57F
330
19
100
AcDbEntity
  8
4
100
AcDbLine
 10
155.1558894081959
 20
607.5823879101624
 30
0.0
 11
155.1558894081959
 21
586.5823879101624
 31
0.0
  0
LINE
  5
580
330
19
100
AcDbEntity
  8
4
100
AcDbLine
 10
156.1558894081959
 20
585.5823879101624
 30
0.0
 11
155.1558894081959
 21
586.5823879101624
 31
0.0
  0
LINE
  5
581
330
19
100
AcDbEntity
  8
4
100
AcDbLine
 10
156.1558894081959
 20
593.5823879101624
 30
0.0
 11
156.1558894081959
 21
585.5823879101624
 31
0.0
  0
LINE
  5
582
330
19
100
AcDbEntity
  8
4
100
AcDbLine
 10
156.1558894081959
 20
608.5823879101624
 30
0.0
 11
156.1558894081959
 21
600.5823879101624
 31
0.0
  0
LINE
  5
583
330
19
100
AcDbEntity
  8
4
100
AcDbLine
 10
156.1558894081959
 20
608.5823879101624
 30
0.0
 11
155.1558894081959
 21
607.5823879101624
 31
0.0
  0
LINE
  5
584
330
19
100
AcDbEntity
  8
4
100
AcDbLine
 10
215.1558894081959
 20
609.5823879101624
 30
0.0
 11
234.155888408196
 21
609.5823879101624
 31
0.0
  0
LINE
  5
585
330
19
100
AcDbEntity
  8
4
100
AcDbLine
 10
215.1558894081959
 20
584.5823879101624
 30
0.0
 11
234.155888408196
 21
584.5823879101624
 31
0.0
  0
LINE
  5
59C
330
19
100
AcDbEntity
  8
4
100
AcDbLine
 10
417.1558894081958
 20
736.082387910162
 30
0.0
 11
417.1558894081958
 21
808.0823879101622
 31
0.0
  0
LINE
  5
59D
330
19
100
AcDbEntity
  8
4
100
AcDbLine
 10
417.1558894081958
 20
736.082387910162
 30
0.0
 11
416.1558894081955
 21
736.082387910162
 31
0.0
  0
LINE
  5
59E
330
19
100
AcDbEntity
  8
4
100
AcDbLine
 10
417.1558894081958
 20
808.0823879101622
 30
0.0
 11
416.1558894081958
 21
808.082387910162
 31
0.0
  0
LINE
  5
59F
330
19
100
AcDbEntity
  8
4
100
AcDbLine
 10
451.1558894081959
 20
766.0823879101622
 30
0.0
 11
530.1558894081959
 21
766.0823879101622
 31
0.0
  0
LINE
  5
5A0
330
19
100
AcDbEntity
  8
4
100
AcDbLine
 10
451.1558894081959
 20
778.0823879101622
 30
0.0
 11
530.1558894081959
 21
778.0823879101622
 31
0.0
  0
LINE
  5
5A1
330
19
100
AcDbEntity
  8
4
100
AcDbLine
 10
529.1558894081959
 20
750.5823879101622
 30
0.0
 11
441.1558894081959
 21
750.5823879101622
 31
0.0
  0
LINE
  5
5A2
330
19
100
AcDbEntity
  8
4
100
AcDbLine
 10
529.1558894081959
 20
793.5823879101622
 30
0.0
 11
441.1558894081963
 21
793.5823879101622
 31
0.0
  0
LINE
  5
5A3
330
19
100
AcDbEntity
  8
4
100
AcDbLine
 10
530.1558894081959
 20
761.5823879101622
 30
0.0
 11
530.1558894081959
 21
782.5823879101622
 31
0.0
  0
LINE
  5
5A4
330
19
100
AcDbEntity
  8
4
100
AcDbLine
 10
530.1558894081959
 20
751.5823879101622
 30
0.0
 11
530.1558894081959
 21
792.5823879101622
 31
0.0
  0
LINE
  5
5A5
330
19
100
AcDbEntity
  8
4
100
AcDbLine
 10
529.1558894081959
 20
750.5823879101622
 30
0.0
 11
529.1558894081959
 21
766.0823879101622
 31
0.0
  0
LINE
  5
5A6
330
19
100
AcDbEntity
  8
4
100
AcDbLine
 10
529.1558894081959
 20
750.5823879101622
 30
0.0
 11
530.1558894081959
 21
751.5823879101622
 31
0.0
  0
LINE
  5
5A7
330
19
100
AcDbEntity
  8
4
100
AcDbLine
 10
529.1558894081959
 20
793.5823879101622
 30
0.0
 11
530.1558894081959
 21
792.5823879101622
 31
0.0
  0
LINE
  5
5A8
330
19
100
AcDbEntity
  8
4
100
AcDbLine
 10
529.1558894081959
 20
778.0823879101622
 30
0.0
 11
529.1558894081959
 21
793.5823879101622
 31
0.0
  0
ARC
  5
5A9
330
19
100
AcDbEntity
  8
4
100
AcDbCircle
 10
451.1558894081959
 20
772.0823879101622
 30
0.0
 40
6.0
100
AcDbArc
 50
90.0
 51
180.0
  0
LINE
  5
5AA
330
19
100
AcDbEntity
  8
4
100
AcDbLine
 10
440.1558894081959
 20
749.5823879101622
 30
0.0
 11
440.1558894081963
 21
794.5823879101622
 31
0.0
  0
LINE
  5
5AB
330
19
100
AcDbEntity
  8
4
100
AcDbLine
 10
417.1558894081958
 20
749.5823879101622
 30
0.0
 11
440.1558894081959
 21
749.5823879101622
 31
0.0
  0
ARC
  5
5AC
330
19
100
AcDbEntity
  8
4
100
AcDbCircle
 10
451.1558894081959
 20
772.0823879101622
 30
0.0
 40
6.0
100
AcDbArc
 50
180.0
 51
270.0
  0
ARC
  5
5AD
330
19
100
AcDbEntity
  8
4
100
AcDbCircle
 10
441.1558894081959
 20
749.5823879101622
 30
0.0
 40
1.0
100
AcDbArc
 50
90.0
 51
180.0
  0
LINE
  5
5AE
330
19
100
AcDbEntity
  8
4
100
AcDbLine
 10
417.1558894081958
 20
794.5823879101622
 30
0.0
 11
440.1558894081963
 21
794.5823879101622
 31
0.0
  0
ARC
  5
5AF
330
19
100
AcDbEntity
  8
4
100
AcDbCircle
 10
441.1558894081963
 20
794.5823879101622
 30
0.0
 40
1.0
100
AcDbArc
 50
180.0
 51
270.0
  0
LINE
  5
5B2
330
19
100
AcDbEntity
  8
4
100
AcDbLine
 10
943.0474351918704
 20
257.608713730098
 30
0.0
 11
955.0474351918704
 21
257.608713730098
 31
0.0
  0
LINE
  5
5B3
330
19
100
AcDbEntity
  8
4
100
AcDbLine
 10
943.0474351918704
 20
265.6087117300982
 30
0.0
 11
955.0474351918704
 21
265.6087117300982
 31
0.0
  0
LINE
  5
5B4
330
19
100
AcDbEntity
  8
4
100
AcDbLine
 10
943.0474351918704
 20
265.6087117300982
 30
0.0
 11
943.0474351918704
 21
257.608713730098
 31
0.0
  0
LINE
  5
5B5
330
19
100
AcDbEntity
  8
4
100
AcDbLine
 10
955.0474351918704
 20
265.6087117300982
 30
0.0
 11
955.0474351918704
 21
257.608713730098
 31
0.0
  0
ARC
  5
5B6
330
19
100
AcDbEntity
  8
4
100
AcDbCircle
 10
949.0474351918704
 20
240.6087127300981
 30
0.0
 40
21.500001
100
AcDbArc
 50
106.2046926022397
 51
73.79530700000072
  0
CIRCLE
  5
5B8
330
19
100
AcDbEntity
  8
4
100
AcDbCircle
 10
949.0474351918704
 20
240.608712730098
 30
0.0
 40
36.0
  0
LINE
  5
5B9
330
19
100
AcDbEntity
  8
4
100
AcDbLine
 10
417.155888408196
 20
263.108712730098
 30
0.0
 11
440.1558894081959
 21
263.108712730098
 31
0.0
  0
LINE
  5
5BA
330
19
100
AcDbEntity
  8
4
100
AcDbLine
 10
417.155888408196
 20
255.608712730098
 30
0.0
 11
417.155888408196
 21
276.608712730098
 31
0.0
  0
LINE
  5
5BB
330
19
100
AcDbEntity
  8
4
100
AcDbLine
 10
416.1558894081959
 20
276.608712730098
 30
0.0
 11
417.155888408196
 21
276.608712730098
 31
0.0
  0
LINE
  5
5BC
330
19
100
AcDbEntity
  8
4
100
AcDbLine
 10
440.1558894081959
 20
262.1087137300979
 30
0.0
 11
529.1558904081958
 21
262.1087137300979
 31
0.0
  0
LINE
  5
5BD
330
19
100
AcDbEntity
  8
4
100
AcDbLine
 10
440.1558894081959
 20
263.108712730098
 30
0.0
 11
440.1558894081959
 21
218.108712730098
 31
0.0
  0
LINE
  5
5BE
330
19
100
AcDbEntity
  8
4
100
AcDbLine
 10
445.1558904081958
 20
265.6087117300981
 30
0.0
 11
530.1558894081959
 21
265.6087117300981
 31
0.0
  0
LINE
  5
5BF
330
19
100
AcDbEntity
  8
4
100
AcDbLine
 10
445.1558904081958
 20
265.6087117300981
 30
0.0
 11
445.1558904081958
 21
262.1087137300979
 31
0.0
  0
LINE
  5
5C0
330
19
100
AcDbEntity
  8
4
100
AcDbLine
 10
440.1558894081959
 20
219.1087117300981
 30
0.0
 11
529.1558904081958
 21
219.1087117300981
 31
0.0
  0
LINE
  5
5C1
330
19
100
AcDbEntity
  8
4
100
AcDbLine
 10
530.1558894081959
 20
265.6087117300981
 30
0.0
 11
530.1558894081959
 21
220.1087137300979
 31
0.0
  0
LINE
  5
5C2
330
19
100
AcDbEntity
  8
4
100
AcDbLine
 10
529.1558904081958
 20
262.1087137300979
 30
0.0
 11
529.1558904081958
 21
219.1087117300981
 31
0.0
  0
LINE
  5
5C3
330
19
100
AcDbEntity
  8
4
100
AcDbLine
 10
530.1558894081959
 20
261.1087117300981
 30
0.0
 11
529.1558904081958
 21
262.1087137300979
 31
0.0
  0
LINE
  5
5C4
330
19
100
AcDbEntity
  8
4
100
AcDbLine
 10
529.1558904081958
 20
219.1087117300981
 30
0.0
 11
530.1558894081959
 21
220.1087137300979
 31
0.0
  0
ARC
  5
5F1
330
19
100
AcDbEntity
  8
4
100
AcDbCircle
 10
450.1558894081959
 20
601.7349055758768
 30
0.0
 40
5.0
100
AcDbArc
 50
0.0
 51
59.32271997820379
  0
LINE
  5
5F2
330
19
100
AcDbEntity
  8
4
100
AcDbLine
 10
436.1558904081958
 20
218.108712730098
 30
0.0
 11
440.1558894081959
 21
218.108712730098
 31
0.0
  0
LINE
  5
5F4
330
19
100
AcDbEntity
  8
L-CENTER
100
AcDbLine
 10
84.7873663087217
 20
215.6087137300979
 30
0.0
 11
124.788952308722
 21
215.6087137300979
 31
0.0
  0
LINE
  5
5F5
330
19
100
AcDbEntity
  8
4
100
AcDbLine
 10
108.288160308722
 20
230.108712730098
 30
0.0
 11
108.288160308722
 21
223.1087137300979
 31
0.0
  0
LINE
  5
5F6
330
19
100
AcDbEntity
  8
4
100
AcDbLine
 10
101.2881583087217
 20
230.108712730098
 30
0.0
 11
101.2881583087217
 21
223.1087137300979
 31
0.0
  0
LINE
  5
5F7
330
19
100
AcDbEntity
  8
L-CENTER
100
AcDbLine
 10
104.7881593087219
 20
235.6095067300978
 30
0.0
 11
104.7881593087219
 21
195.6079207300977
 31
0.0
  0
LINE
  5
5F8
330
19
100
AcDbEntity
  8
4
100
AcDbLine
 10
101.2881583087217
 20
223.1087137300979
 30
0.0
 11
108.288160308722
 21
223.1087137300979
 31
0.0
  0
LINE
  5
5F9
330
19
100
AcDbEntity
  8
4
100
AcDbLine
 10
101.2881583087217
 20
230.108712730098
 30
0.0
 11
108.288160308722
 21
230.108712730098
 31
0.0
  0
ARC
  5
5FA
330
19
100
AcDbEntity
  8
4
100
AcDbCircle
 10
104.7881593087219
 20
215.6087137300979
 30
0.0
 40
11.499999
100
AcDbArc
 50
107.7189386956237
 51
72.28106800000003
  0
ENDSEC
  0
SECTION
  2
OBJECTS
  0
DICTIONARY
  5
7
330
0
100
AcDbDictionary
281
     1
  3
ACAD_COLOR
350
2C
  3
ACAD_GROUP
350
2A
  3
ACAD_LAYOUT
350
20
  3
ACAD_MATERIAL
350
9
  3
ACAD_MLEADERSTYLE
350
54B
  3
ACAD_MLINESTYLE
350
17
  3
ACAD_PLOTSETTINGS
350
2B
  3
ACAD_PLOTSTYLENAME
350
6
  3
ACAD_SCALELIST
350
33
  3
ACAD_TABLESTYLE
350
54A
  3
ACAD_VISUALSTYLE
350
2D
  3
ACDBHEADERROUNDTRIPXREC
350
600
  3
AcDbVariableDictionary
350
548
  3
DWGPROPS
350
603
  0
DICTIONARY
  5
604
330
29
100
AcDbDictionary
280
     1
281
     1
  3
ACAD_XREC_ROUNDTRIP
360
605
  0
DICTIONARY
  5
3
330
2
100
AcDbDictionary
280
     1
281
     1
  3
ACAD_LAYERSTATES
360
4
  0
DICTIONARY
  5
35E
330
35D
100
AcDbDictionary
280
     1
281
     1
  3
ADSK_XREC_LAYER_RECONCILED
360
35F
  0
DICTIONARY
  5
1A
330
19
100
AcDbDictionary
280
     1
281
     1
  3
ACAD_SORTENTS
360
1B
  0
DICTIONARY
  5
2C
102
{ACAD_REACTORS
330
7
102
}
330
7
100
AcDbDictionary
281
     1
  0
DICTIONARY
  5
2A
102
{ACAD_REACTORS
330
7
102
}
330
7
100
AcDbDictionary
281
     1
  0
DICTIONARY
  5
20
102
{ACAD_REACTORS
330
7
102
}
330
7
100
AcDbDictionary
281
     1
  3
Model
350
1F
  3
レイアウト1
350
26
  0
DICTIONARY
  5
9
102
{ACAD_REACTORS
330
7
102
}
330
7
100
AcDbDictionary
281
     1
  3
ByBlock
350
76
  3
ByLayer
350
12
  3
Global
350
8
  0
DICTIONARY
  5
54B
102
{ACAD_REACTORS
330
7
102
}
330
7
100
AcDbDictionary
281
     1
  3
Standard
350
564
  0
DICTIONARY
  5
17
102
{ACAD_REACTORS
330
7
102
}
330
7
100
AcDbDictionary
281
     1
  3
STANDARD
350
16
  0
DICTIONARY
  5
2B
102
{ACAD_REACTORS
330
7
102
}
330
7
100
AcDbDictionary
281
     1
  0
ACDBDICTIONARYWDFLT
  5
6
102
{ACAD_REACTORS
330
7
102
}
330
7
100
AcDbDictionary
281
     1
  3
Normal
350
5
100
AcDbDictionaryWithDefault
340
5
  0
DICTIONARY
  5
33
102
{ACAD_REACTORS
330
7
102
}
330
7
100
AcDbDictionary
281
     1
  3
*A1
350
55
  3
*A10
350
5E
  3
*A11
350
5F
  3
*A12
350
60
  3
*A13
350
61
  3
*A14
350
62
  3
*A15
350
63
  3
*A16
350
64
  3
*A17
350
65
  3
*A18
350
66
  3
*A19
350
67
  3
*A2
350
56
  3
*A20
350
68
  3
*A21
350
69
  3
*A22
350
6A
  3
*A23
350
6B
  3
*A24
350
6C
  3
*A25
350
6D
  3
*A26
350
6E
  3
*A27
350
6F
  3
*A28
350
70
  3
*A29
350
71
  3
*A3
350
57
  3
*A30
350
72
  3
*A31
350
73
  3
*A32
350
74
  3
*A33
350
75
  3
*A4
350
58
  3
*A5
350
59
  3
*A6
350
5A
  3
*A7
350
5B
  3
*A8
350
5C
  3
*A9
350
5D
  0
DICTIONARY
  5
54A
102
{ACAD_REACTORS
330
7
102
}
330
7
100
AcDbDictionary
281
     1
  3
Standard
350
567
  0
DICTIONARY
  5
2D
102
{ACAD_REACTORS
330
7
102
}
330
7
100
AcDbDictionary
281
     1
  3
2dWireframe
350
552
  3
Basic
350
554
  3
Brighten
350
557
  3
ColorChange
350
55B
  3
Conceptual
350
555
  3
Dim
350
556
  3
EdgeColorOff
350
55E
  3
Facepattern
350
55A
  3
Flat
350
54E
  3
FlatWithEdges
350
54F
  3
Gouraud
350
550
  3
GouraudWithEdges
350
551
  3
Hidden
350
553
  3
JitterOff
350
55C
  3
Linepattern
350
559
  3
OverhangOff
350
55D
  3
Realistic
350
2E
  3
Shaded
350
563
  3
Shaded with edges
350
562
  3
Shades of Gray
350
55F
  3
Sketchy
350
560
  3
Thicken
350
558
  3
Wireframe
350
2F
  3
X-Ray
350
561
  0
DICTIONARY
  5
600
102
{ACAD_REACTORS
330
7
102
}
330
7
100
AcDbDictionary
281
     1
  3
COLORDICT
350
601
  3
MATERIALDICT
350
602
  0
DICTIONARY
  5
548
102
{ACAD_REACTORS
330
7
102
}
330
7
100
AcDbDictionary
281
     1
  3
CANNOSCALE
350
549
  3
CMLEADERSTYLE
350
566
  3
CTABLESTYLE
350
568
  3
DIMASSOC
350
5FD
  3
HIDETEXT
350
5FF
  3
MSLTSCALE
350
606
  3
XCLIPFRAME
350
5FE
  0
XRECORD
  5
603
102
{ACAD_REACTORS
330
7
102
}
330
7
100
AcDbXrecord
280
     1
  1
DWGPROPS COOKIE
  2

  3

  4

  6

  7

  8
sg-d03
  9

300
=
301
=
302
=
303
=
304
=
305
=
306
=
307
=
308
=
309
=
 40
0.0
 41
2457445.462738611
 42
2458116.09544669
  1

 90
        0
  0
XRECORD
  5
605
102
{ACAD_REACTORS
330
604
102
}
330
604
100
AcDbXrecord
280
     1
102
VTR_0.000_0.000_1.000_1.000_GRIDDISPLAY
 70
     3
102
VTR_0.000_0.000_1.000_1.000_GRIDMAJOR
 70
     5
102
VTR_0.000_0.000_1.000_1.000_DEFAULTLIGHTING
280
     1
102
VTR_0.000_0.000_1.000_1.000_DEFAULTLIGHTINGTYPE
 70
     1
102
VTR_0.000_0.000_1.000_1.000_BRIGHTNESS
141
0.0
102
VTR_0.000_0.000_1.000_1.000_CONTRAST
142
0.0
  0
DICTIONARY
  5
4
102
{ACAD_REACTORS
330
3
102
}
330
3
100
AcDbDictionary
281
     1
  0
XRECORD
  5
35F
102
{ACAD_REACTORS
330
35E
102
}
330
35E
100
AcDbXrecord
280
     1
290
     1
  0
SORTENTSTABLE
  5
1B
102
{ACAD_REACTORS
330
1A
102
}
330
1A
100
AcDbSortentsTable
330
19
  0
LAYOUT
  5
1F
102
{ACAD_REACTORS
330
20
102
}
102
{ACAD_XDICTIONARY
360
21
102
}
330
20
100
AcDbPlotSettings
  1

  2
Bullzip PDF Printer.pc3
  4
A3
  6

 40
0.2
 41
0.0
 42
0.0
 43
0.0
 44
420.2
 45
297.1
 46
25.0
 47
12.0
 48
59.9999999050001
 49
0.0
140
1205.99999728
141
817.4999980924999
142
1.0
143
3.0
 70
 11936
 72
     1
 73
     0
 74
     4
  7
monochrome.ctb
 75
     0
147
0.2490196078431372
148
-59.9999999050001
149
0.0
100
AcDbLayout
  1
Model
 70
     0
 71
     0
 10
0.0
 20
0.0
 11
12.0
 21
9.0
 12
0.0
 22
0.0
 32
0.0
 14
84.78736630872174
 24
9.608713730097861
 34
0.0
 15
1081.54743619187
 25
910.4823265775428
 35
0.0
146
0.0
 13
0.0
 23
0.0
 33
0.0
 16
1.0
 26
0.0
 36
0.0
 17
0.0
 27
1.0
 37
0.0
 76
     0
330
19
331
30
1001
ACAD_PSEXT
1000
Bullzip PDF Printer.pc3
1000
Bullzip PDF Printer
1000
BULLZIP
1000
Bullzip PDF Printer 10.1.0.1871
1070
     0
  0
LAYOUT
  5
26
102
{ACAD_REACTORS
330
20
102
}
330
20
100
AcDbPlotSettings
  1

  2
OneNote 2010 に送る
  4

  6

 40
0.0
 41
0.0
 42
0.0
 43
0.0
 44
0.0
 45
0.0
 46
0.0
 47
0.0
 48
0.0
 49
0.0
140
0.0
141
0.0
142
1.0
143
1.0
 70
   688
 72
     0
 73
     0
 74
     5
  7
monochrome.ctb
 75
    16
147
1.0
148
0.0
149
0.0
100
AcDbLayout
  1
レイアウト1
 70
     0
 71
     1
 10
0.0
 20
0.0
 11
12.0
 21
9.0
 12
0.0
 22
0.0
 32
0.0
 14
1000000000000000E+20
 24
1000000000000000E+20
 34
1000000000000000E+20
 15
-1000000000000000E+20
 25
-1000000000000000E+20
 35
-1000000000000000E+20
146
0.0
 13
0.0
 23
0.0
 33
0.0
 16
1.0
 26
0.0
 36
0.0
 17
0.0
 27
1.0
 37
0.0
 76
     0
330
23
  0
MATERIAL
  5
76
102
{ACAD_REACTORS
330
9
102
}
102
{ACAD_XDICTIONARY
360
60B
102
}
330
9
100
AcDbMaterial
  1
ByBlock
 72
     0
 73
     2
 43
0.0208333333333333
 43
0.0
 43
0.0
 43
0.0
 43
0.0
 43
0.0208333333333333
 43
0.0
 43
0.0
 43
0.0
 43
0.0
 43
1.0
 43
0.0
 43
0.0
 43
0.0
 43
0.0
 43
1.0
 77
     0
 78
     2
 47
0.0208333333333333
 47
0.0
 47
0.0
 47
0.0
 47
0.0
 47
0.0208333333333333
 47
0.0
 47
0.0
 47
0.0
 47
0.0
 47
1.0
 47
0.0
 47
0.0
 47
0.0
 47
0.0
 47
1.0
171
     0
172
     2
 49
0.0208333333333333
 49
0.0
 49
0.0
 49
0.0
 49
0.0
 49
0.0208333333333333
 49
0.0
 49
0.0
 49
0.0
 49
0.0
 49
1.0
 49
0.0
 49
0.0
 49
0.0
 49
0.0
 49
1.0
175
     0
176
     2
142
0.0208333333333333
142
0.0
142
0.0
142
0.0
142
0.0
142
0.0208333333333333
142
0.0
142
0.0
142
0.0
142
0.0
142
1.0
142
0.0
142
0.0
142
0.0
142
0.0
142
1.0
179
     0
270
     2
144
0.0208333333333333
144
0.0
144
0.0
144
0.0
144
0.0
144
0.0208333333333333
144
0.0
144
0.0
144
0.0
144
0.0
144
1.0
144
0.0
144
0.0
144
0.0
144
0.0
144
1.0
274
     2
147
0.0208333333333333
147
0.0
147
0.0
147
0.0
147
0.0
147
0.0208333333333333
147
0.0
147
0.0
147
0.0
147
0.0
147
1.0
147
0.0
147
0.0
147
0.0
147
0.0
147
1.0
  0
MATERIAL
  5
12
102
{ACAD_REACTORS
330
9
102
}
102
{ACAD_XDICTIONARY
360
607
102
}
330
9
100
AcDbMaterial
  1
ByLayer
 72
     0
 73
     2
 43
0.0208333333333333
 43
0.0
 43
0.0
 43
0.0
 43
0.0
 43
0.0208333333333333
 43
0.0
 43
0.0
 43
0.0
 43
0.0
 43
1.0
 43
0.0
 43
0.0
 43
0.0
 43
0.0
 43
1.0
 77
     0
 78
     2
 47
0.0208333333333333
 47
0.0
 47
0.0
 47
0.0
 47
0.0
 47
0.0208333333333333
 47
0.0
 47
0.0
 47
0.0
 47
0.0
 47
1.0
 47
0.0
 47
0.0
 47
0.0
 47
0.0
 47
1.0
171
     0
172
     2
 49
0.0208333333333333
 49
0.0
 49
0.0
 49
0.0
 49
0.0
 49
0.0208333333333333
 49
0.0
 49
0.0
 49
0.0
 49
0.0
 49
1.0
 49
0.0
 49
0.0
 49
0.0
 49
0.0
 49
1.0
175
     0
176
     2
142
0.0208333333333333
142
0.0
142
0.0
142
0.0
142
0.0
142
0.0208333333333333
142
0.0
142
0.0
142
0.0
142
0.0
142
1.0
142
0.0
142
0.0
142
0.0
142
0.0
142
1.0
179
     0
270
     2
144
0.0208333333333333
144
0.0
144
0.0
144
0.0
144
0.0
144
0.0208333333333333
144
0.0
144
0.0
144
0.0
144
0.0
144
1.0
144
0.0
144
0.0
144
0.0
144
0.0
144
1.0
274
     2
147
0.0208333333333333
147
0.0
147
0.0
147
0.0
147
0.0
147
0.0208333333333333
147
0.0
147
0.0
147
0.0
147
0.0
147
1.0
147
0.0
147
0.0
147
0.0
147
0.0
147
1.0
  0
MATERIAL
  5
8
102
{ACAD_REACTORS
330
9
102
}
102
{ACAD_XDICTIONARY
360
609
102
}
330
9
100
AcDbMaterial
  1
Global
 72
     0
 73
     2
 43
0.0208333333333333
 43
0.0
 43
0.0
 43
0.0
 43
0.0
 43
0.0208333333333333
 43
0.0
 43
0.0
 43
0.0
 43
0.0
 43
1.0
 43
0.0
 43
0.0
 43
0.0
 43
0.0
 43
1.0
 77
     0
 78
     2
 47
0.0208333333333333
 47
0.0
 47
0.0
 47
0.0
 47
0.0
 47
0.0208333333333333
 47
0.0
 47
0.0
 47
0.0
 47
0.0
 47
1.0
 47
0.0
 47
0.0
 47
0.0
 47
0.0
 47
1.0
171
     0
172
     2
 49
0.0208333333333333
 49
0.0
 49
0.0
 49
0.0
 49
0.0
 49
0.0208333333333333
 49
0.0
 49
0.0
 49
0.0
 49
0.0
 49
1.0
 49
0.0
 49
0.0
 49
0.0
 49
0.0
 49
1.0
175
     0
176
     2
142
0.0208333333333333
142
0.0
142
0.0
142
0.0
142
0.0
142
0.0208333333333333
142
0.0
142
0.0
142
0.0
142
0.0
142
1.0
142
0.0
142
0.0
142
0.0
142
0.0
142
1.0
179
     0
270
     2
144
0.0208333333333333
144
0.0
144
0.0
144
0.0
144
0.0
144
0.0208333333333333
144
0.0
144
0.0
144
0.0
144
0.0
144
1.0
144
0.0
144
0.0
144
0.0
144
0.0
144
1.0
274
     2
147
0.0208333333333333
147
0.0
147
0.0
147
0.0
147
0.0
147
0.0208333333333333
147
0.0
147
0.0
147
0.0
147
0.0
147
1.0
147
0.0
147
0.0
147
0.0
147
0.0
147
1.0
1001
ACAD
1070
    -1
1070
     3
1070
     0
1000

1071
        0
  0
MLEADERSTYLE
  5
564
102
{ACAD_REACTORS
330
54B
102
}
102
{ACAD_XDICTIONARY
360
63D
102
}
330
54B
100
AcDbMLeaderStyle
170
     2
171
     1
172
     0
 90
        2
 40
0.0
 41
0.0
173
     1
 91
-1056964608
340
F
 92
       -2
290
     1
 42
0.09
291
     1
 43
0.36
  3
Standard
341
0
 44
0.18
300

342
10
174
     1
178
     6
175
     1
176
     0
 93
-1056964608
 45
0.18
292
     0
297
     0
 46
0.18
343
0
 94
-1056964608
 47
1.0
 49
1.0
140
1.0
293
     1
141
0.0
294
     1
177
     0
142
1.0
295
     0
296
     0
143
0.125
1001
ACAD_MLEADERVER
1070
     2
  0
MLINESTYLE
  5
16
102
{ACAD_REACTORS
330
17
102
}
330
17
100
AcDbMlineStyle
  2
STANDARD
 70
     0
  3

 62
     0
 51
90.0
 52
90.0
 71
     2
 49
0.5
 62
   256
  6
BYLAYER
 49
-0.5
 62
   256
  6
BYLAYER
  0
ACDBPLACEHOLDER
  5
5
102
{ACAD_REACTORS
330
6
102
}
330
6
  0
SCALE
  5
55
102
{ACAD_REACTORS
330
33
102
}
330
33
100
AcDbScale
 70
     0
300
1:1
140
1.0
141
1.0
290
     1
  0
SCALE
  5
5E
102
{ACAD_REACTORS
330
33
102
}
330
33
100
AcDbScale
 70
     0
300
3/8" = 1'-0"
140
0.375
141
12.0
290
     0
  0
SCALE
  5
5F
102
{ACAD_REACTORS
330
33
102
}
330
33
100
AcDbScale
 70
     0
300
1/2" = 1'-0"
140
0.5
141
12.0
290
     0
  0
SCALE
  5
60
102
{ACAD_REACTORS
330
33
102
}
330
33
100
AcDbScale
 70
     0
300
3/4" = 1'-0"
140
0.75
141
12.0
290
     0
  0
SCALE
  5
61
102
{ACAD_REACTORS
330
33
102
}
330
33
100
AcDbScale
 70
     0
300
1" = 1'-0"
140
1.0
141
12.0
290
     0
  0
SCALE
  5
62
102
{ACAD_REACTORS
330
33
102
}
330
33
100
AcDbScale
 70
     0
300
1-1/2" = 1'-0"
140
1.5
141
12.0
290
     0
  0
SCALE
  5
63
102
{ACAD_REACTORS
330
33
102
}
330
33
100
AcDbScale
 70
     0
300
3" = 1'-0"
140
3.0
141
12.0
290
     0
  0
SCALE
  5
64
102
{ACAD_REACTORS
330
33
102
}
330
33
100
AcDbScale
 70
     0
300
6" = 1'-0"
140
6.0
141
12.0
290
     0
  0
SCALE
  5
65
102
{ACAD_REACTORS
330
33
102
}
330
33
100
AcDbScale
 70
     0
300
1'-0" = 1'-0"
140
12.0
141
12.0
290
     0
  0
SCALE
  5
66
102
{ACAD_REACTORS
330
33
102
}
330
33
100
AcDbScale
 70
     0
300
1:2
140
1.0
141
2.0
290
     0
  0
SCALE
  5
67
102
{ACAD_REACTORS
330
33
102
}
330
33
100
AcDbScale
 70
     0
300
1:4
140
1.0
141
4.0
290
     0
  0
SCALE
  5
56
102
{ACAD_REACTORS
330
33
102
}
330
33
100
AcDbScale
 70
     0
300
1/128" = 1'-0"
140
0.0078125
141
12.0
290
     0
  0
SCALE
  5
68
102
{ACAD_REACTORS
330
33
102
}
330
33
100
AcDbScale
 70
     0
300
1:5
140
1.0
141
5.0
290
     0
  0
SCALE
  5
69
102
{ACAD_REACTORS
330
33
102
}
330
33
100
AcDbScale
 70
     0
300
1:8
140
1.0
141
8.0
290
     0
  0
SCALE
  5
6A
102
{ACAD_REACTORS
330
33
102
}
330
33
100
AcDbScale
 70
     0
300
1:10
140
1.0
141
10.0
290
     0
  0
SCALE
  5
6B
102
{ACAD_REACTORS
330
33
102
}
330
33
100
AcDbScale
 70
     0
300
1:16
140
1.0
141
16.0
290
     0
  0
SCALE
  5
6C
102
{ACAD_REACTORS
330
33
102
}
330
33
100
AcDbScale
 70
     0
300
1:20
140
1.0
141
20.0
290
     0
  0
SCALE
  5
6D
102
{ACAD_REACTORS
330
33
102
}
330
33
100
AcDbScale
 70
     0
300
1:30
140
1.0
141
30.0
290
     0
  0
SCALE
  5
6E
102
{ACAD_REACTORS
330
33
102
}
330
33
100
AcDbScale
 70
     0
300
1:40
140
1.0
141
40.0
290
     0
  0
SCALE
  5
6F
102
{ACAD_REACTORS
330
33
102
}
330
33
100
AcDbScale
 70
     0
300
1:50
140
1.0
141
50.0
290
     0
  0
SCALE
  5
70
102
{ACAD_REACTORS
330
33
102
}
330
33
100
AcDbScale
 70
     0
300
1:100
140
1.0
141
100.0
290
     0
  0
SCALE
  5
71
102
{ACAD_REACTORS
330
33
102
}
330
33
100
AcDbScale
 70
     0
300
2:1
140
2.0
141
1.0
290
     0
  0
SCALE
  5
57
102
{ACAD_REACTORS
330
33
102
}
330
33
100
AcDbScale
 70
     0
300
1/64" = 1'-0"
140
0.015625
141
12.0
290
     0
  0
SCALE
  5
72
102
{ACAD_REACTORS
330
33
102
}
330
33
100
AcDbScale
 70
     0
300
4:1
140
4.0
141
1.0
290
     0
  0
SCALE
  5
73
102
{ACAD_REACTORS
330
33
102
}
330
33
100
AcDbScale
 70
     0
300
8:1
140
8.0
141
1.0
290
     0
  0
SCALE
  5
74
102
{ACAD_REACTORS
330
33
102
}
330
33
100
AcDbScale
 70
     0
300
10:1
140
10.0
141
1.0
290
     0
  0
SCALE
  5
75
102
{ACAD_REACTORS
330
33
102
}
330
33
100
AcDbScale
 70
     0
300
100:1
140
100.0
141
1.0
290
     0
  0
SCALE
  5
58
102
{ACAD_REACTORS
330
33
102
}
330
33
100
AcDbScale
 70
     0
300
1/32" = 1'-0"
140
0.03125
141
12.0
290
     0
  0
SCALE
  5
59
102
{ACAD_REACTORS
330
33
102
}
330
33
100
AcDbScale
 70
     0
300
1/16" = 1'-0"
140
0.0625
141
12.0
290
     0
  0
SCALE
  5
5A
102
{ACAD_REACTORS
330
33
102
}
330
33
100
AcDbScale
 70
     0
300
3/32" = 1'-0"
140
0.09375
141
12.0
290
     0
  0
SCALE
  5
5B
102
{ACAD_REACTORS
330
33
102
}
330
33
100
AcDbScale
 70
     0
300
1/8" = 1'-0"
140
0.125
141
12.0
290
     0
  0
SCALE
  5
5C
102
{ACAD_REACTORS
330
33
102
}
330
33
100
AcDbScale
 70
     0
300
3/16" = 1'-0"
140
0.1875
141
12.0
290
     0
  0
SCALE
  5
5D
102
{ACAD_REACTORS
330
33
102
}
330
33
100
AcDbScale
 70
     0
300
1/4" = 1'-0"
140
0.25
141
12.0
290
     0
  0
TABLESTYLE
  5
567
102
{ACAD_REACTORS
330
54A
102
}
330
54A
100
AcDbTableStyle
  3
Standard
 70
     0
 71
     0
 40
0.06
 41
0.06
280
     0
281
     0
  7
STANDARD
140
0.18
170
     2
 62
     0
 63
   257
283
     0
274
    -2
284
     1
 64
     0
275
    -2
285
     1
 65
     0
276
    -2
286
     1
 66
     0
277
    -2
287
     1
 67
     0
278
    -2
288
     1
 68
     0
279
    -2
289
     1
 69
     0
  7
STANDARD
140
0.25
170
     5
 62
     0
 63
   257
283
     0
274
    -2
284
     1
 64
     0
275
    -2
285
     1
 65
     0
276
    -2
286
     1
 66
     0
277
    -2
287
     1
 67
     0
278
    -2
288
     1
 68
     0
279
    -2
289
     1
 69
     0
  7
STANDARD
140
0.18
170
     5
 62
     0
 63
   257
283
     0
274
    -2
284
     1
 64
     0
275
    -2
285
     1
 65
     0
276
    -2
286
     1
 66
     0
277
    -2
287
     1
 67
     0
278
    -2
288
     1
 68
     0
279
    -2
289
     1
 69
     0
  0
VISUALSTYLE
  5
552
102
{ACAD_REACTORS
330
2D
102
}
102
{ACAD_XDICTIONARY
360
619
102
}
330
2D
100
AcDbVisualStyle
  2
2dWireframe
 70
     4
 71
     0
 72
     2
 73
     0
 90
        0
 40
0.6
 41
30.0
 62
     5
 63
     7
 74
     1
 91
        4
 64
     7
 65
   257
 75
     1
175
     1
 42
1.0
 92
        0
 66
   257
 43
1.0
 76
     1
 77
     6
 78
     2
 67
     7
 79
     5
170
     0
171
     0
290
     0
174
     0
 93
        1
 44
0.0
173
     0
291
     0
 45
0.0
1001
ACAD
1000
AcDbSavedByObjectVersion
1070
     0
  0
VISUALSTYLE
  5
554
102
{ACAD_REACTORS
330
2D
102
}
102
{ACAD_XDICTIONARY
360
61D
102
}
330
2D
100
AcDbVisualStyle
  2
Basic
 70
     7
 71
     1
 72
     0
 73
     1
 90
        0
 40
0.6
 41
30.0
 62
     5
 63
     7
 74
     0
 91
        4
 64
     7
 65
   257
 75
     1
175
     1
 42
1.0
 92
        8
 66
     7
 43
1.0
 76
     1
 77
     6
 78
     2
 67
     7
 79
     5
170
     0
171
     0
290
     0
174
     0
 93
        1
 44
0.0
173
     0
291
     1
 45
0.0
1001
ACAD
1000
AcDbSavedByObjectVersion
1070
     0
  0
VISUALSTYLE
  5
557
102
{ACAD_REACTORS
330
2D
102
}
102
{ACAD_XDICTIONARY
360
623
102
}
330
2D
100
AcDbVisualStyle
  2
Brighten
 70
    12
 71
     2
 72
     2
 73
     0
 90
        0
 40
0.6
 41
30.0
 62
     5
 63
     7
 74
     1
 91
        4
 64
     7
 65
   257
 75
     1
175
     1
 42
1.0
 92
        8
 66
     7
 43
1.0
 76
     1
 77
     6
 78
     2
 67
     7
 79
     5
170
     0
171
     0
290
     0
174
     0
 93
        1
 44
50.0
173
     0
291
     1
 45
0.0
1001
ACAD
1000
AcDbSavedByObjectVersion
1070
     0
  0
VISUALSTYLE
  5
55B
102
{ACAD_REACTORS
330
2D
102
}
102
{ACAD_XDICTIONARY
360
62B
102
}
330
2D
100
AcDbVisualStyle
  2
ColorChange
 70
    16
 71
     2
 72
     2
 73
     3
 90
        0
 40
0.6
 41
30.0
 62
     5
 63
     8
 74
     1
 91
        4
 64
     7
 65
   257
 75
     1
175
     1
 42
1.0
 92
        8
 66
     8
 43
1.0
 76
     1
 77
     6
 78
     2
 67
     7
 79
     5
170
     0
171
     0
290
     0
174
     0
 93
        1
 44
0.0
173
     0
291
     1
 45
0.0
1001
ACAD
1000
AcDbSavedByObjectVersion
1070
     0
  0
VISUALSTYLE
  5
555
102
{ACAD_REACTORS
330
2D
102
}
102
{ACAD_XDICTIONARY
360
61F
102
}
330
2D
100
AcDbVisualStyle
  2
Conceptual
 70
     9
 71
     3
 72
     2
 73
     0
 90
        0
 40
0.6
 41
30.0
 62
     5
 63
     7
 74
     2
 91
        2
 64
     7
 65
   257
 75
     1
175
     1
 42
40.0
 92
        8
 66
     7
 43
1.0
 76
     1
 77
     6
 78
     2
 67
     7
 79
     3
170
     0
171
     0
290
     0
174
     0
 93
        1
 44
0.0
173
     0
291
     0
 45
0.0
1001
ACAD
1000
AcDbSavedByObjectVersion
1070
     0
  0
VISUALSTYLE
  5
556
102
{ACAD_REACTORS
330
2D
102
}
102
{ACAD_XDICTIONARY
360
621
102
}
330
2D
100
AcDbVisualStyle
  2
Dim
 70
    11
 71
     2
 72
     2
 73
     0
 90
        0
 40
0.6
 41
30.0
 62
     5
 63
     7
 74
     1
 91
        4
 64
     7
 65
   257
 75
     1
175
     1
 42
1.0
 92
        8
 66
     7
 43
1.0
 76
     1
 77
     6
 78
     2
 67
     7
 79
     5
170
     0
171
     0
290
     0
174
     0
 93
        1
 44
-50.0
173
     0
291
     1
 45
0.0
1001
ACAD
1000
AcDbSavedByObjectVersion
1070
     0
  0
VISUALSTYLE
  5
55E
102
{ACAD_REACTORS
330
2D
102
}
102
{ACAD_XDICTIONARY
360
631
102
}
330
2D
100
AcDbVisualStyle
  2
EdgeColorOff
 70
    22
 71
     2
 72
     2
 73
     0
 90
        0
 40
0.6
 41
30.0
 62
     5
 63
     7
 74
     1
 91
        4
 64
     7
 65
   257
 75
     1
175
     1
 42
1.0
 92
        8
 66
     7
 43
1.0
 76
     1
 77
     6
 78
     2
 67
     7
 79
     5
170
     0
171
     0
290
     0
174
     0
 93
        1
 44
0.0
173
     0
291
     1
 45
0.0
1001
ACAD
1000
AcDbSavedByObjectVersion
1070
     0
  0
VISUALSTYLE
  5
55A
102
{ACAD_REACTORS
330
2D
102
}
102
{ACAD_XDICTIONARY
360
629
102
}
330
2D
100
AcDbVisualStyle
  2
Facepattern
 70
    15
 71
     2
 72
     2
 73
     0
 90
        0
 40
0.6
 41
30.0
 62
     5
 63
     7
 74
     1
 91
        4
 64
     7
 65
   257
 75
     1
175
     1
 42
1.0
 92
        8
 66
     7
 43
1.0
 76
     1
 77
     6
 78
     2
 67
     7
 79
     5
170
     0
171
     0
290
     0
174
     0
 93
        1
 44
0.0
173
     0
291
     1
 45
0.0
1001
ACAD
1000
AcDbSavedByObjectVersion
1070
     0
  0
VISUALSTYLE
  5
54E
102
{ACAD_REACTORS
330
2D
102
}
102
{ACAD_XDICTIONARY
360
611
102
}
330
2D
100
AcDbVisualStyle
  2
Flat
 70
     0
 71
     2
 72
     1
 73
     1
 90
        2
 40
0.6
 41
30.0
 62
     5
 63
     7
 74
     0
 91
        4
 64
     7
 65
   257
 75
     1
175
     1
 42
1.0
 92
        8
 66
     7
 43
1.0
 76
     1
 77
     6
 78
     2
 67
     7
 79
     5
170
     0
171
     0
290
     0
174
     0
 93
       13
 44
0.0
173
     0
291
     1
 45
0.0
1001
ACAD
1000
AcDbSavedByObjectVersion
1070
     0
  0
VISUALSTYLE
  5
54F
102
{ACAD_REACTORS
330
2D
102
}
102
{ACAD_XDICTIONARY
360
613
102
}
330
2D
100
AcDbVisualStyle
  2
FlatWithEdges
 70
     1
 71
     2
 72
     1
 73
     1
 90
        2
 40
0.6
 41
30.0
 62
     5
 63
     7
 74
     1
 91
        4
 64
     7
 65
   257
 75
     1
175
     1
 42
1.0
 92
        0
 66
   257
 43
1.0
 76
     1
 77
     6
 78
     2
 67
     7
 79
     5
170
     0
171
     0
290
     0
174
     0
 93
       13
 44
0.0
173
     0
291
     1
 45
0.0
1001
ACAD
1000
AcDbSavedByObjectVersion
1070
     0
  0
VISUALSTYLE
  5
550
102
{ACAD_REACTORS
330
2D
102
}
102
{ACAD_XDICTIONARY
360
615
102
}
330
2D
100
AcDbVisualStyle
  2
Gouraud
 70
     2
 71
     2
 72
     2
 73
     1
 90
        2
 40
0.6
 41
30.0
 62
     5
 63
     7
 74
     0
 91
        4
 64
     7
 65
   257
 75
     1
175
     1
 42
1.0
 92
        0
 66
     7
 43
1.0
 76
     1
 77
     6
 78
     2
 67
     7
 79
     5
170
     0
171
     0
290
     0
174
     0
 93
       13
 44
0.0
173
     0
291
     1
 45
0.0
1001
ACAD
1000
AcDbSavedByObjectVersion
1070
     0
  0
VISUALSTYLE
  5
551
102
{ACAD_REACTORS
330
2D
102
}
102
{ACAD_XDICTIONARY
360
617
102
}
330
2D
100
AcDbVisualStyle
  2
GouraudWithEdges
 70
     3
 71
     2
 72
     2
 73
     1
 90
        2
 40
0.6
 41
30.0
 62
     5
 63
     7
 74
     1
 91
        4
 64
     7
 65
   257
 75
     1
175
     1
 42
1.0
 92
        0
 66
   257
 43
1.0
 76
     1
 77
     6
 78
     2
 67
     7
 79
     5
170
     0
171
     0
290
     0
174
     0
 93
       13
 44
0.0
173
     0
291
     1
 45
0.0
1001
ACAD
1000
AcDbSavedByObjectVersion
1070
     0
  0
VISUALSTYLE
  5
553
102
{ACAD_REACTORS
330
2D
102
}
102
{ACAD_XDICTIONARY
360
61B
102
}
330
2D
100
AcDbVisualStyle
  2
Hidden
 70
     6
 71
     1
 72
     2
 73
     2
 90
        0
 40
0.6
 41
30.0
 62
     5
 63
     7
 74
     2
 91
        2
 64
     7
 65
   257
 75
     2
175
     1
 42
40.0
 92
        0
 66
   257
 43
1.0
 76
     1
 77
     6
 78
     2
 67
     7
 79
     3
170
     0
171
     0
290
     0
174
     0
 93
        1
 44
0.0
173
     0
291
     0
 45
0.0
1001
ACAD
1000
AcDbSavedByObjectVersion
1070
     0
  0
VISUALSTYLE
  5
55C
102
{ACAD_REACTORS
330
2D
102
}
102
{ACAD_XDICTIONARY
360
62D
102
}
330
2D
100
AcDbVisualStyle
  2
JitterOff
 70
    20
 71
     2
 72
     2
 73
     0
 90
        0
 40
0.6
 41
30.0
 62
     5
 63
     7
 74
     1
 91
        4
 64
     7
 65
   257
 75
     1
175
     1
 42
1.0
 92
       10
 66
     7
 43
1.0
 76
     1
 77
     6
 78
     2
 67
     7
 79
     5
170
     0
171
     0
290
     0
174
     0
 93
        1
 44
0.0
173
     0
291
     1
 45
0.0
1001
ACAD
1000
AcDbSavedByObjectVersion
1070
     0
  0
VISUALSTYLE
  5
559
102
{ACAD_REACTORS
330
2D
102
}
102
{ACAD_XDICTIONARY
360
627
102
}
330
2D
100
AcDbVisualStyle
  2
Linepattern
 70
    14
 71
     2
 72
     2
 73
     0
 90
        0
 40
0.6
 41
30.0
 62
     5
 63
     7
 74
     1
 91
        4
 64
     7
 65
   257
 75
     7
175
     7
 42
1.0
 92
        8
 66
     7
 43
1.0
 76
     1
 77
     6
 78
     2
 67
     7
 79
     5
170
     0
171
     0
290
     0
174
     0
 93
        1
 44
0.0
173
     0
291
     1
 45
0.0
1001
ACAD
1000
AcDbSavedByObjectVersion
1070
     0
  0
VISUALSTYLE
  5
55D
102
{ACAD_REACTORS
330
2D
102
}
102
{ACAD_XDICTIONARY
360
62F
102
}
330
2D
100
AcDbVisualStyle
  2
OverhangOff
 70
    21
 71
     2
 72
     2
 73
     0
 90
        0
 40
0.6
 41
30.0
 62
     5
 63
     7
 74
     1
 91
        4
 64
     7
 65
   257
 75
     1
175
     1
 42
1.0
 92
        9
 66
     7
 43
1.0
 76
     1
 77
     6
 78
     2
 67
     7
 79
     5
170
     0
171
     0
290
     0
174
     0
 93
        1
 44
0.0
173
     0
291
     1
 45
0.0
1001
ACAD
1000
AcDbSavedByObjectVersion
1070
     0
  0
VISUALSTYLE
  5
2E
102
{ACAD_REACTORS
330
2D
102
}
102
{ACAD_XDICTIONARY
360
60D
102
}
330
2D
100
AcDbVisualStyle
  2
Realistic
 70
     8
 71
     2
 72
     3
 73
     0
 90
        2
 40
0.6
 41
30.0
 62
     5
 63
     7
 74
     0
 91
        0
 64
     7
 65
   257
 75
     1
175
     1
 42
1.0
 92
        8
 66
   257
 43
1.0
 76
     1
 77
     6
 78
     2
 67
     7
 79
     3
170
     0
171
     0
290
     0
174
     0
 93
       13
 44
0.0
173
     0
291
     0
 45
0.0
1001
ACAD
1000
AcDbSavedByObjectVersion
1070
     0
  0
VISUALSTYLE
  5
563
102
{ACAD_REACTORS
330
2D
102
}
102
{ACAD_XDICTIONARY
360
63B
102
}
330
2D
100
AcDbVisualStyle
  2
Shaded
 70
    27
 71
     2
 72
     2
 73
     1
 90
        2
 40
0.6
 41
30.0
 62
     5
 63
     7
 74
     0
 91
        4
 64
     7
 65
   257
 75
     1
175
     1
 42
1.0
 92
        8
 66
   257
 43
1.0
 76
     1
 77
     6
 78
     2
 67
   251
 79
     3
170
     0
171
     0
290
     0
174
     0
 93
        5
 44
0.0
173
     0
291
     0
 45
0.0
1001
ACAD
1000
AcDbSavedByObjectVersion
1070
     0
  0
VISUALSTYLE
  5
562
102
{ACAD_REACTORS
330
2D
102
}
102
{ACAD_XDICTIONARY
360
639
102
}
330
2D
100
AcDbVisualStyle
  2
Shaded with edges
 70
    26
 71
     2
 72
     2
 73
     1
 90
        2
 40
0.6
 41
30.0
 62
     5
 63
     7
 74
     1
 91
       10
 64
     7
 65
   257
 75
     2
175
     1
 42
1.0
 92
        8
 66
   257
 43
1.0
 76
     1
 77
     6
 78
     2
 67
     7
 79
     3
170
     0
171
     0
290
     0
174
     0
 93
        5
 44
0.0
173
     0
291
     0
 45
0.0
1001
ACAD
1000
AcDbSavedByObjectVersion
1070
     0
  0
VISUALSTYLE
  5
55F
102
{ACAD_REACTORS
330
2D
102
}
102
{ACAD_XDICTIONARY
360
633
102
}
330
2D
100
AcDbVisualStyle
  2
Shades of Gray
 70
    23
 71
     2
 72
     2
 73
     3
 90
        0
 40
0.6
 41
30.0
 62
     5
 63
     7
 74
     2
 91
        2
 64
     7
 65
     7
 75
     1
175
     1
 42
40.0
 92
        8
 66
     7
 43
1.0
 76
     1
 77
     6
 78
     2
 67
     7
 79
     3
170
     0
171
     0
290
     0
174
     0
 93
        1
 44
0.0
173
     0
291
     0
 45
0.0
1001
ACAD
1000
AcDbSavedByObjectVersion
1070
     0
  0
VISUALSTYLE
  5
560
102
{ACAD_REACTORS
330
2D
102
}
102
{ACAD_XDICTIONARY
360
635
102
}
330
2D
100
AcDbVisualStyle
  2
Sketchy
 70
    24
 71
     1
 72
     2
 73
     2
 90
        0
 40
0.6
 41
30.0
 62
     5
 63
     7
 74
     2
 91
        2
 64
     7
 65
     7
 75
     1
175
     1
 42
40.0
 92
       11
 66
     7
 43
1.0
 76
     1
 77
     6
 78
     2
 67
     7
 79
     6
170
     0
171
     0
290
     0
174
     0
 93
        1
 44
0.0
173
     0
291
     0
 45
0.0
1001
ACAD
1000
AcDbSavedByObjectVersion
1070
     0
  0
VISUALSTYLE
  5
558
102
{ACAD_REACTORS
330
2D
102
}
102
{ACAD_XDICTIONARY
360
625
102
}
330
2D
100
AcDbVisualStyle
  2
Thicken
 70
    13
 71
     2
 72
     2
 73
     0
 90
        0
 40
0.6
 41
30.0
 62
     5
 63
     7
 74
     1
 91
        4
 64
     7
 65
   257
 75
     1
175
     1
 42
1.0
 92
       12
 66
     7
 43
1.0
 76
     1
 77
     6
 78
     2
 67
     7
 79
     5
170
     0
171
     0
290
     0
174
     0
 93
        1
 44
0.0
173
     0
291
     1
 45
0.0
1001
ACAD
1000
AcDbSavedByObjectVersion
1070
     0
  0
VISUALSTYLE
  5
2F
102
{ACAD_REACTORS
330
2D
102
}
102
{ACAD_XDICTIONARY
360
60F
102
}
330
2D
100
AcDbVisualStyle
  2
Wireframe
 70
     5
 71
     0
 72
     2
 73
     0
 90
        0
 40
0.6
 41
30.0
 62
     5
 63
     7
 74
     1
 91
        4
 64
     7
 65
   257
 75
     1
175
     1
 42
1.0
 92
        0
 66
   257
 43
1.0
 76
     1
 77
     6
 78
     2
 67
     7
 79
     3
170
     0
171
     0
290
     0
174
     0
 93
        1
 44
0.0
173
     0
291
     0
 45
0.0
1001
ACAD
1000
AcDbSavedByObjectVersion
1070
     0
  0
VISUALSTYLE
  5
561
102
{ACAD_REACTORS
330
2D
102
}
102
{ACAD_XDICTIONARY
360
637
102
}
330
2D
100
AcDbVisualStyle
  2
X-Ray
 70
    25
 71
     2
 72
     2
 73
     1
 90
        1
 40
0.5
 41
30.0
 62
     5
 63
     7
 74
     1
 91
        0
 64
     7
 65
   257
 75
     1
175
     1
 42
1.0
 92
        8
 66
     7
 43
1.0
 76
     1
 77
     6
 78
     2
 67
     7
 79
     3
170
     0
171
     0
290
     0
174
     0
 93
       13
 44
0.0
173
     0
291
     0
 45
0.0
1001
ACAD
1000
AcDbSavedByObjectVersion
1070
     0
  0
XRECORD
  5
601
102
{ACAD_REACTORS
330
600
102
}
330
600
100
AcDbXrecord
280
     1
340
2C
  0
XRECORD
  5
602
102
{ACAD_REACTORS
330
600
102
}
330
600
100
AcDbXrecord
280
     1
340
9
  0
DICTIONARYVAR
  5
549
102
{ACAD_REACTORS
330
548
102
}
330
548
100
DictionaryVariables
280
     0
  1
1:1
  0
DICTIONARYVAR
  5
566
102
{ACAD_REACTORS
330
548
102
}
330
548
100
DictionaryVariables
280
     0
  1
Standard
  0
DICTIONARYVAR
  5
568
102
{ACAD_REACTORS
330
548
102
}
330
548
100
DictionaryVariables
280
     0
  1
Standard
  0
DICTIONARYVAR
  5
5FD
102
{ACAD_REACTORS
330
548
102
}
330
548
100
DictionaryVariables
280
     0
  1
0
  0
DICTIONARYVAR
  5
5FF
102
{ACAD_REACTORS
330
548
102
}
330
548
100
DictionaryVariables
280
     0
  1
1
  0
DICTIONARYVAR
  5
606
102
{ACAD_REACTORS
330
548
102
}
330
548
100
DictionaryVariables
280
     0
  1
1
  0
DICTIONARYVAR
  5
5FE
102
{ACAD_REACTORS
330
548
102
}
330
548
100
DictionaryVariables
280
     0
  1
0
  0
DICTIONARY
  5
21
330
1F
100
AcDbDictionary
280
     1
281
     1
  0
DICTIONARY
  5
60B
330
76
100
AcDbDictionary
280
     1
281
     1
  3
ACAD_XREC_ROUNDTRIP
360
60C
  0
DICTIONARY
  5
607
330
12
100
AcDbDictionary
280
     1
281
     1
  3
ACAD_XREC_ROUNDTRIP
360
608
  0
DICTIONARY
  5
609
330
8
100
AcDbDictionary
280
     1
281
     1
  3
ACAD_XREC_ROUNDTRIP
360
60A
  0
DICTIONARY
  5
63D
330
564
100
AcDbDictionary
280
     1
281
     1
  3
ACAD_XREC_ROUNDTRIP
360
63E
  0
DICTIONARY
  5
619
330
552
100
AcDbDictionary
280
     1
281
     1
  3
ACAD_XREC_ROUNDTRIP
360
61A
  0
DICTIONARY
  5
61D
330
554
100
AcDbDictionary
280
     1
281
     1
  3
ACAD_XREC_ROUNDTRIP
360
61E
  0
DICTIONARY
  5
623
330
557
100
AcDbDictionary
280
     1
281
     1
  3
ACAD_XREC_ROUNDTRIP
360
624
  0
DICTIONARY
  5
62B
330
55B
100
AcDbDictionary
280
     1
281
     1
  3
ACAD_XREC_ROUNDTRIP
360
62C
  0
DICTIONARY
  5
61F
330
555
100
AcDbDictionary
280
     1
281
     1
  3
ACAD_XREC_ROUNDTRIP
360
620
  0
DICTIONARY
  5
621
330
556
100
AcDbDictionary
280
     1
281
     1
  3
ACAD_XREC_ROUNDTRIP
360
622
  0
DICTIONARY
  5
631
330
55E
100
AcDbDictionary
280
     1
281
     1
  3
ACAD_XREC_ROUNDTRIP
360
632
  0
DICTIONARY
  5
629
330
55A
100
AcDbDictionary
280
     1
281
     1
  3
ACAD_XREC_ROUNDTRIP
360
62A
  0
DICTIONARY
  5
611
330
54E
100
AcDbDictionary
280
     1
281
     1
  3
ACAD_XREC_ROUNDTRIP
360
612
  0
DICTIONARY
  5
613
330
54F
100
AcDbDictionary
280
     1
281
     1
  3
ACAD_XREC_ROUNDTRIP
360
614
  0
DICTIONARY
  5
615
330
550
100
AcDbDictionary
280
     1
281
     1
  3
ACAD_XREC_ROUNDTRIP
360
616
  0
DICTIONARY
  5
617
330
551
100
AcDbDictionary
280
     1
281
     1
  3
ACAD_XREC_ROUNDTRIP
360
618
  0
DICTIONARY
  5
61B
330
553
100
AcDbDictionary
280
     1
281
     1
  3
ACAD_XREC_ROUNDTRIP
360
61C
  0
DICTIONARY
  5
62D
330
55C
100
AcDbDictionary
280
     1
281
     1
  3
ACAD_XREC_ROUNDTRIP
360
62E
  0
DICTIONARY
  5
627
330
559
100
AcDbDictionary
280
     1
281
     1
  3
ACAD_XREC_ROUNDTRIP
360
628
  0
DICTIONARY
  5
62F
330
55D
100
AcDbDictionary
280
     1
281
     1
  3
ACAD_XREC_ROUNDTRIP
360
630
  0
DICTIONARY
  5
60D
330
2E
100
AcDbDictionary
280
     1
281
     1
  3
ACAD_XREC_ROUNDTRIP
360
60E
  0
DICTIONARY
  5
63B
330
563
100
AcDbDictionary
280
     1
281
     1
  3
ACAD_XREC_ROUNDTRIP
360
63C
  0
DICTIONARY
  5
639
330
562
100
AcDbDictionary
280
     1
281
     1
  3
ACAD_XREC_ROUNDTRIP
360
63A
  0
DICTIONARY
  5
633
330
55F
100
AcDbDictionary
280
     1
281
     1
  3
ACAD_XREC_ROUNDTRIP
360
634
  0
DICTIONARY
  5
635
330
560
100
AcDbDictionary
280
     1
281
     1
  3
ACAD_XREC_ROUNDTRIP
360
636
  0
DICTIONARY
  5
625
330
558
100
AcDbDictionary
280
     1
281
     1
  3
ACAD_XREC_ROUNDTRIP
360
626
  0
DICTIONARY
  5
60F
330
2F
100
AcDbDictionary
280
     1
281
     1
  3
ACAD_XREC_ROUNDTRIP
360
610
  0
DICTIONARY
  5
637
330
561
100
AcDbDictionary
280
     1
281
     1
  3
ACAD_XREC_ROUNDTRIP
360
638
  0
XRECORD
  5
60C
102
{ACAD_REACTORS
330
60B
102
}
330
60B
100
AcDbXrecord
280
     1
102
MATERIAL
148
0.0
149
0.0
149
0.0
 93
        0
 94
      127
282
     0
 72
     0
 77
     0
171
     0
175
     0
179
     0
273
     0
  0
XRECORD
  5
608
102
{ACAD_REACTORS
330
607
102
}
330
607
100
AcDbXrecord
280
     1
102
MATERIAL
148
0.0
149
0.0
149
0.0
 93
        0
 94
      127
282
     0
 72
     0
 77
     0
171
     0
175
     0
179
     0
273
     0
  0
XRECORD
  5
60A
102
{ACAD_REACTORS
330
609
102
}
330
609
100
AcDbXrecord
280
     1
102
MATERIAL
148
0.0
149
0.0
149
0.0
 93
        0
 94
      127
282
     0
 72
     0
 77
     0
171
     0
175
     0
179
     0
273
     0
  0
XRECORD
  5
63E
102
{ACAD_REACTORS
330
63D
102
}
330
63D
100
AcDbXrecord
280
     1
102
ACAD_ROUNDTRIP_2010_MLEADER_STYLE
  0
XRECORD
  5
61A
102
{ACAD_REACTORS
330
619
102
}
330
619
100
AcDbXrecord
280
     1
102
RTVSPropertyOp0
 70
     1
102
RTVSPropertyOp1
 70
     1
102
RTVSPropertyOp2
 70
     1
102
RTVSPropertyOp3
 70
     1
102
RTVSPropertyOp4
 70
     1
102
RTVSPropertyOp5
 70
     1
102
RTVSPropertyOp6
 70
     1
102
RTVSPropertyOp7
 70
     1
102
RTVSPropertyOp8
 70
     1
102
RTVSPropertyOp9
 70
     1
102
RTVSPropertyOp10
 70
     1
102
RTVSPropertyOp11
 70
     1
102
RTVSPropertyOp12
 70
     1
102
RTVSPropertyOp13
 70
     1
102
RTVSPropertyOp14
 70
     1
102
RTVSPropertyOp15
 70
     1
102
RTVSPropertyOp16
 70
     1
102
RTVSPropertyOp17
 70
     1
102
RTVSPropertyOp18
 70
     1
102
RTVSPropertyOp19
 70
     1
102
RTVSPropertyOp20
 70
     1
102
RTVSPropertyOp21
 70
     1
102
RTVSPropertyOp22
 70
     1
102
RTVSPropertyOp23
 70
     1
102
RTVSPropertyOp24
 70
     1
102
RTVSPropertyOp25
 70
     1
102
RTVSPropertyOp26
 70
     1
102
RTVSPropertyOp27
 70
     1
102
RTVSPropertyOp28
 70
     1
102
RTVSPropertyOp29
 70
     1
102
RTVSPropertyOp30
 70
     1
102
RTVSPropertyOp31
 70
     1
102
RTVSPropertyOp32
 70
     1
102
RTVSPropertyOp33
 70
     1
102
RTVSPropertyOp34
 70
     1
102
RTVSPropertyOp35
 70
     1
102
RTVSPropertyOp36
 70
     1
102
RTVSPropertyOp37
 70
     1
102
RTVSPropertyOp38
 70
     1
102
RTVSPropertyOp39
 70
     1
102
RTVSPropertyOp40
 70
     1
102
RTVSPropertyOp41
 70
     1
102
RTVSPropertyOp42
 70
     1
102
RTVSPropertyOp43
 70
     1
102
RTVSPropertyOp44
 70
     1
102
RTVSPropertyOp45
 70
     1
102
RTVSPropertyOp46
 70
     1
102
RTVSPropertyOp47
 70
     1
102
RTVSPropertyOp48
 70
     1
102
RTVSPropertyOp49
 70
     1
102
RTVSPropertyOp50
 70
     1
102
RTVSPropertyOp51
 70
     0
102
RTVSPropertyOp52
 70
     0
102
RTVSPropertyOp53
 70
     1
102
RTVSPropertyOp54
 70
     1
102
RTVSPropertyOp55
 70
     1
102
RTVSPropertyOp56
 70
     1
102
RTVSPropertyOp57
 70
     1
102
RTVSPost2010Prop28
280
     1
102
RTVSPost2010PropOp28
 70
     1
102
RTVSPost2010Prop29
280
     1
102
RTVSPost2010PropOp29
 70
     1
102
RTVSPost2010Prop30
280
     0
102
RTVSPost2010PropOp30
 70
     1
102
RTVSPost2010Prop31
280
     0
102
RTVSPost2010PropOp31
 70
     1
102
RTVSPost2010Prop32
280
     0
102
RTVSPost2010PropOp32
 70
     1
102
RTVSPost2010Prop33
280
     0
102
RTVSPost2010PropOp33
 70
     1
102
RTVSPost2010Prop34
280
     0
102
RTVSPost2010PropOp34
 70
     1
102
RTVSPost2010Prop35
280
     0
102
RTVSPost2010PropOp35
 70
     1
102
RTVSPost2010Prop36
280
     0
102
RTVSPost2010PropOp36
 70
     1
102
RTVSPost2010Prop37
 90
       50
102
RTVSPost2010PropOp37
 70
     1
102
RTVSPost2010Prop38
140
0.0
102
RTVSPost2010PropOp38
 70
     1
102
RTVSPost2010Prop39
140
1.0
102
RTVSPost2010PropOp39
 70
     1
102
RTVSPost2010Prop40
 90
        0
102
RTVSPost2010PropOp40
 70
     1
102
RTVSPost2010Prop41ColorIndex
 90
       18
102
RTVSPost2010Prop41ColorRGB
 90
        0
102
RTVSPost2010PropOp41
 70
     1
102
RTVSPost2010Prop42
 90
       50
102
RTVSPost2010PropOp42
 70
     1
102
RTVSPost2010Prop43
 90
        3
102
RTVSPost2010PropOp43
 70
     1
102
RTVSPost2010Prop44ColorIndex
 90
        5
102
RTVSPost2010Prop44ColorRGB
 90
      255
102
RTVSPost2010PropOp44
 70
     1
102
RTVSPost2010Prop45
280
     0
102
RTVSPost2010PropOp45
 70
     1
102
RTVSPost2010Prop46
 90
       50
102
RTVSPost2010PropOp46
 70
     1
102
RTVSPost2010Prop47
 90
       50
102
RTVSPost2010PropOp47
 70
     1
102
RTVSPost2010Prop48
 90
       50
102
RTVSPost2010PropOp48
 70
     1
102
RTVSPost2010Prop49
280
     0
102
RTVSPost2010PropOp49
 70
     1
102
RTVSPost2010Prop50
 90
       50
102
RTVSPost2010PropOp50
 70
     1
102
RTVSPost2010Prop51ColorIndex
 90
      256
102
RTVSPost2010Prop51ColorRGB
 90
-16777216
102
RTVSPost2010PropOp51
 70
     0
102
RTVSPost2010Prop52
140
1.0
102
RTVSPost2010PropOp52
 70
     0
102
RTVSPost2010Prop53
 90
        2
102
RTVSPost2010PropOp53
 70
     1
102
RTVSPost2010Prop54
  1
strokes_ogs.tif
102
RTVSPost2010PropOp54
 70
     1
102
RTVSPost2010Prop55
280
     0
102
RTVSPost2010PropOp55
 70
     1
102
RTVSPost2010Prop56
140
1.0
102
RTVSPost2010PropOp56
 70
     1
102
RTVSPost2010Prop57
140
1.0
102
RTVSPost2010PropOp57
 70
     1
  0
XRECORD
  5
61E
102
{ACAD_REACTORS
330
61D
102
}
330
61D
100
AcDbXrecord
280
     1
102
RTVSPropertyOp0
 70
     1
102
RTVSPropertyOp1
 70
     1
102
RTVSPropertyOp2
 70
     1
102
RTVSPropertyOp3
 70
     1
102
RTVSPropertyOp4
 70
     1
102
RTVSPropertyOp5
 70
     1
102
RTVSPropertyOp6
 70
     1
102
RTVSPropertyOp7
 70
     1
102
RTVSPropertyOp8
 70
     1
102
RTVSPropertyOp9
 70
     1
102
RTVSPropertyOp10
 70
     1
102
RTVSPropertyOp11
 70
     1
102
RTVSPropertyOp12
 70
     1
102
RTVSPropertyOp13
 70
     1
102
RTVSPropertyOp14
 70
     1
102
RTVSPropertyOp15
 70
     1
102
RTVSPropertyOp16
 70
     1
102
RTVSPropertyOp17
 70
     1
102
RTVSPropertyOp18
 70
     1
102
RTVSPropertyOp19
 70
     1
102
RTVSPropertyOp20
 70
     1
102
RTVSPropertyOp21
 70
     1
102
RTVSPropertyOp22
 70
     1
102
RTVSPropertyOp23
 70
     1
102
RTVSPropertyOp24
 70
     1
102
RTVSPropertyOp25
 70
     1
102
RTVSPropertyOp26
 70
     1
102
RTVSPropertyOp27
 70
     1
102
RTVSPropertyOp28
 70
     1
102
RTVSPropertyOp29
 70
     1
102
RTVSPropertyOp30
 70
     1
102
RTVSPropertyOp31
 70
     1
102
RTVSPropertyOp32
 70
     1
102
RTVSPropertyOp33
 70
     1
102
RTVSPropertyOp34
 70
     1
102
RTVSPropertyOp35
 70
     1
102
RTVSPropertyOp36
 70
     1
102
RTVSPropertyOp37
 70
     1
102
RTVSPropertyOp38
 70
     1
102
RTVSPropertyOp39
 70
     1
102
RTVSPropertyOp40
 70
     1
102
RTVSPropertyOp41
 70
     1
102
RTVSPropertyOp42
 70
     1
102
RTVSPropertyOp43
 70
     1
102
RTVSPropertyOp44
 70
     1
102
RTVSPropertyOp45
 70
     1
102
RTVSPropertyOp46
 70
     1
102
RTVSPropertyOp47
 70
     1
102
RTVSPropertyOp48
 70
     1
102
RTVSPropertyOp49
 70
     1
102
RTVSPropertyOp50
 70
     1
102
RTVSPropertyOp51
 70
     0
102
RTVSPropertyOp52
 70
     0
102
RTVSPropertyOp53
 70
     1
102
RTVSPropertyOp54
 70
     1
102
RTVSPropertyOp55
 70
     1
102
RTVSPropertyOp56
 70
     1
102
RTVSPropertyOp57
 70
     1
102
RTVSPost2010Prop28
280
     0
102
RTVSPost2010PropOp28
 70
     1
102
RTVSPost2010Prop29
280
     1
102
RTVSPost2010PropOp29
 70
     1
102
RTVSPost2010Prop30
280
     1
102
RTVSPost2010PropOp30
 70
     1
102
RTVSPost2010Prop31
280
     0
102
RTVSPost2010PropOp31
 70
     1
102
RTVSPost2010Prop32
280
     0
102
RTVSPost2010PropOp32
 70
     1
102
RTVSPost2010Prop33
280
     0
102
RTVSPost2010PropOp33
 70
     1
102
RTVSPost2010Prop34
280
     0
102
RTVSPost2010PropOp34
 70
     1
102
RTVSPost2010Prop35
280
     0
102
RTVSPost2010PropOp35
 70
     1
102
RTVSPost2010Prop36
280
     0
102
RTVSPost2010PropOp36
 70
     1
102
RTVSPost2010Prop37
 90
       50
102
RTVSPost2010PropOp37
 70
     1
102
RTVSPost2010Prop38
140
0.0
102
RTVSPost2010PropOp38
 70
     1
102
RTVSPost2010Prop39
140
1.0
102
RTVSPost2010PropOp39
 70
     1
102
RTVSPost2010Prop40
 90
        0
102
RTVSPost2010PropOp40
 70
     1
102
RTVSPost2010Prop41ColorIndex
 90
       18
102
RTVSPost2010Prop41ColorRGB
 90
        0
102
RTVSPost2010PropOp41
 70
     1
102
RTVSPost2010Prop42
 90
       50
102
RTVSPost2010PropOp42
 70
     1
102
RTVSPost2010Prop43
 90
        3
102
RTVSPost2010PropOp43
 70
     1
102
RTVSPost2010Prop44ColorIndex
 90
        5
102
RTVSPost2010Prop44ColorRGB
 90
      255
102
RTVSPost2010PropOp44
 70
     1
102
RTVSPost2010Prop45
280
     0
102
RTVSPost2010PropOp45
 70
     1
102
RTVSPost2010Prop46
 90
       50
102
RTVSPost2010PropOp46
 70
     1
102
RTVSPost2010Prop47
 90
       50
102
RTVSPost2010PropOp47
 70
     1
102
RTVSPost2010Prop48
 90
       50
102
RTVSPost2010PropOp48
 70
     1
102
RTVSPost2010Prop49
280
     0
102
RTVSPost2010PropOp49
 70
     1
102
RTVSPost2010Prop50
 90
       50
102
RTVSPost2010PropOp50
 70
     1
102
RTVSPost2010Prop51ColorIndex
 90
      256
102
RTVSPost2010Prop51ColorRGB
 90
-16777216
102
RTVSPost2010PropOp51
 70
     0
102
RTVSPost2010Prop52
140
1.0
102
RTVSPost2010PropOp52
 70
     0
102
RTVSPost2010Prop53
 90
        2
102
RTVSPost2010PropOp53
 70
     1
102
RTVSPost2010Prop54
  1
strokes_ogs.tif
102
RTVSPost2010PropOp54
 70
     1
102
RTVSPost2010Prop55
280
     0
102
RTVSPost2010PropOp55
 70
     1
102
RTVSPost2010Prop56
140
1.0
102
RTVSPost2010PropOp56
 70
     1
102
RTVSPost2010Prop57
140
1.0
102
RTVSPost2010PropOp57
 70
     1
  0
XRECORD
  5
624
102
{ACAD_REACTORS
330
623
102
}
330
623
100
AcDbXrecord
280
     1
102
RTVSPropertyOp0
 70
     1
102
RTVSPropertyOp1
 70
     1
102
RTVSPropertyOp2
 70
     1
102
RTVSPropertyOp3
 70
     1
102
RTVSPropertyOp4
 70
     1
102
RTVSPropertyOp5
 70
     1
102
RTVSPropertyOp6
 70
     1
102
RTVSPropertyOp7
 70
     1
102
RTVSPropertyOp8
 70
     1
102
RTVSPropertyOp9
 70
     1
102
RTVSPropertyOp10
 70
     1
102
RTVSPropertyOp11
 70
     1
102
RTVSPropertyOp12
 70
     1
102
RTVSPropertyOp13
 70
     1
102
RTVSPropertyOp14
 70
     1
102
RTVSPropertyOp15
 70
     1
102
RTVSPropertyOp16
 70
     1
102
RTVSPropertyOp17
 70
     1
102
RTVSPropertyOp18
 70
     1
102
RTVSPropertyOp19
 70
     1
102
RTVSPropertyOp20
 70
     1
102
RTVSPropertyOp21
 70
     1
102
RTVSPropertyOp22
 70
     1
102
RTVSPropertyOp23
 70
     1
102
RTVSPropertyOp24
 70
     1
102
RTVSPropertyOp25
 70
     1
102
RTVSPropertyOp26
 70
     1
102
RTVSPropertyOp27
 70
     1
102
RTVSPropertyOp28
 70
     1
102
RTVSPropertyOp29
 70
     1
102
RTVSPropertyOp30
 70
     1
102
RTVSPropertyOp31
 70
     1
102
RTVSPropertyOp32
 70
     1
102
RTVSPropertyOp33
 70
     1
102
RTVSPropertyOp34
 70
     1
102
RTVSPropertyOp35
 70
     1
102
RTVSPropertyOp36
 70
     1
102
RTVSPropertyOp37
 70
     1
102
RTVSPropertyOp38
 70
     1
102
RTVSPropertyOp39
 70
     1
102
RTVSPropertyOp40
 70
     1
102
RTVSPropertyOp41
 70
     1
102
RTVSPropertyOp42
 70
     1
102
RTVSPropertyOp43
 70
     1
102
RTVSPropertyOp44
 70
     1
102
RTVSPropertyOp45
 70
     1
102
RTVSPropertyOp46
 70
     1
102
RTVSPropertyOp47
 70
     1
102
RTVSPropertyOp48
 70
     1
102
RTVSPropertyOp49
 70
     1
102
RTVSPropertyOp50
 70
     1
102
RTVSPropertyOp51
 70
     0
102
RTVSPropertyOp52
 70
     0
102
RTVSPropertyOp53
 70
     1
102
RTVSPropertyOp54
 70
     1
102
RTVSPropertyOp55
 70
     1
102
RTVSPropertyOp56
 70
     1
102
RTVSPropertyOp57
 70
     1
102
RTVSPost2010Prop28
280
     0
102
RTVSPost2010PropOp28
 70
     1
102
RTVSPost2010Prop29
280
     1
102
RTVSPost2010PropOp29
 70
     1
102
RTVSPost2010Prop30
280
     1
102
RTVSPost2010PropOp30
 70
     1
102
RTVSPost2010Prop31
280
     0
102
RTVSPost2010PropOp31
 70
     1
102
RTVSPost2010Prop32
280
     0
102
RTVSPost2010PropOp32
 70
     1
102
RTVSPost2010Prop33
280
     0
102
RTVSPost2010PropOp33
 70
     1
102
RTVSPost2010Prop34
280
     0
102
RTVSPost2010PropOp34
 70
     1
102
RTVSPost2010Prop35
280
     0
102
RTVSPost2010PropOp35
 70
     1
102
RTVSPost2010Prop36
280
     0
102
RTVSPost2010PropOp36
 70
     1
102
RTVSPost2010Prop37
 90
       50
102
RTVSPost2010PropOp37
 70
     1
102
RTVSPost2010Prop38
140
0.0
102
RTVSPost2010PropOp38
 70
     1
102
RTVSPost2010Prop39
140
1.0
102
RTVSPost2010PropOp39
 70
     1
102
RTVSPost2010Prop40
 90
        0
102
RTVSPost2010PropOp40
 70
     1
102
RTVSPost2010Prop41ColorIndex
 90
       18
102
RTVSPost2010Prop41ColorRGB
 90
        0
102
RTVSPost2010PropOp41
 70
     1
102
RTVSPost2010Prop42
 90
       50
102
RTVSPost2010PropOp42
 70
     1
102
RTVSPost2010Prop43
 90
        3
102
RTVSPost2010PropOp43
 70
     1
102
RTVSPost2010Prop44ColorIndex
 90
        5
102
RTVSPost2010Prop44ColorRGB
 90
      255
102
RTVSPost2010PropOp44
 70
     1
102
RTVSPost2010Prop45
280
     0
102
RTVSPost2010PropOp45
 70
     1
102
RTVSPost2010Prop46
 90
       50
102
RTVSPost2010PropOp46
 70
     1
102
RTVSPost2010Prop47
 90
       50
102
RTVSPost2010PropOp47
 70
     1
102
RTVSPost2010Prop48
 90
       50
102
RTVSPost2010PropOp48
 70
     1
102
RTVSPost2010Prop49
280
     0
102
RTVSPost2010PropOp49
 70
     1
102
RTVSPost2010Prop50
 90
       50
102
RTVSPost2010PropOp50
 70
     1
102
RTVSPost2010Prop51ColorIndex
 90
      256
102
RTVSPost2010Prop51ColorRGB
 90
-16777216
102
RTVSPost2010PropOp51
 70
     0
102
RTVSPost2010Prop52
140
1.0
102
RTVSPost2010PropOp52
 70
     0
102
RTVSPost2010Prop53
 90
        2
102
RTVSPost2010PropOp53
 70
     1
102
RTVSPost2010Prop54
  1
strokes_ogs.tif
102
RTVSPost2010PropOp54
 70
     1
102
RTVSPost2010Prop55
280
     0
102
RTVSPost2010PropOp55
 70
     1
102
RTVSPost2010Prop56
140
1.0
102
RTVSPost2010PropOp56
 70
     1
102
RTVSPost2010Prop57
140
1.0
102
RTVSPost2010PropOp57
 70
     1
  0
XRECORD
  5
62C
102
{ACAD_REACTORS
330
62B
102
}
330
62B
100
AcDbXrecord
280
     1
102
RTVSPropertyOp0
 70
     1
102
RTVSPropertyOp1
 70
     1
102
RTVSPropertyOp2
 70
     1
102
RTVSPropertyOp3
 70
     1
102
RTVSPropertyOp4
 70
     1
102
RTVSPropertyOp5
 70
     1
102
RTVSPropertyOp6
 70
     1
102
RTVSPropertyOp7
 70
     1
102
RTVSPropertyOp8
 70
     1
102
RTVSPropertyOp9
 70
     1
102
RTVSPropertyOp10
 70
     1
102
RTVSPropertyOp11
 70
     1
102
RTVSPropertyOp12
 70
     1
102
RTVSPropertyOp13
 70
     1
102
RTVSPropertyOp14
 70
     1
102
RTVSPropertyOp15
 70
     1
102
RTVSPropertyOp16
 70
     1
102
RTVSPropertyOp17
 70
     1
102
RTVSPropertyOp18
 70
     1
102
RTVSPropertyOp19
 70
     1
102
RTVSPropertyOp20
 70
     1
102
RTVSPropertyOp21
 70
     1
102
RTVSPropertyOp22
 70
     1
102
RTVSPropertyOp23
 70
     1
102
RTVSPropertyOp24
 70
     1
102
RTVSPropertyOp25
 70
     1
102
RTVSPropertyOp26
 70
     1
102
RTVSPropertyOp27
 70
     1
102
RTVSPropertyOp28
 70
     1
102
RTVSPropertyOp29
 70
     1
102
RTVSPropertyOp30
 70
     1
102
RTVSPropertyOp31
 70
     1
102
RTVSPropertyOp32
 70
     1
102
RTVSPropertyOp33
 70
     1
102
RTVSPropertyOp34
 70
     1
102
RTVSPropertyOp35
 70
     1
102
RTVSPropertyOp36
 70
     1
102
RTVSPropertyOp37
 70
     1
102
RTVSPropertyOp38
 70
     1
102
RTVSPropertyOp39
 70
     1
102
RTVSPropertyOp40
 70
     1
102
RTVSPropertyOp41
 70
     1
102
RTVSPropertyOp42
 70
     1
102
RTVSPropertyOp43
 70
     1
102
RTVSPropertyOp44
 70
     1
102
RTVSPropertyOp45
 70
     1
102
RTVSPropertyOp46
 70
     1
102
RTVSPropertyOp47
 70
     1
102
RTVSPropertyOp48
 70
     1
102
RTVSPropertyOp49
 70
     1
102
RTVSPropertyOp50
 70
     1
102
RTVSPropertyOp51
 70
     0
102
RTVSPropertyOp52
 70
     0
102
RTVSPropertyOp53
 70
     1
102
RTVSPropertyOp54
 70
     1
102
RTVSPropertyOp55
 70
     1
102
RTVSPropertyOp56
 70
     1
102
RTVSPropertyOp57
 70
     1
102
RTVSPost2010Prop28
280
     0
102
RTVSPost2010PropOp28
 70
     1
102
RTVSPost2010Prop29
280
     1
102
RTVSPost2010PropOp29
 70
     1
102
RTVSPost2010Prop30
280
     1
102
RTVSPost2010PropOp30
 70
     1
102
RTVSPost2010Prop31
280
     0
102
RTVSPost2010PropOp31
 70
     1
102
RTVSPost2010Prop32
280
     0
102
RTVSPost2010PropOp32
 70
     1
102
RTVSPost2010Prop33
280
     0
102
RTVSPost2010PropOp33
 70
     1
102
RTVSPost2010Prop34
280
     0
102
RTVSPost2010PropOp34
 70
     1
102
RTVSPost2010Prop35
280
     0
102
RTVSPost2010PropOp35
 70
     1
102
RTVSPost2010Prop36
280
     0
102
RTVSPost2010PropOp36
 70
     1
102
RTVSPost2010Prop37
 90
       50
102
RTVSPost2010PropOp37
 70
     1
102
RTVSPost2010Prop38
140
0.0
102
RTVSPost2010PropOp38
 70
     1
102
RTVSPost2010Prop39
140
1.0
102
RTVSPost2010PropOp39
 70
     1
102
RTVSPost2010Prop40
 90
        0
102
RTVSPost2010PropOp40
 70
     1
102
RTVSPost2010Prop41ColorIndex
 90
       18
102
RTVSPost2010Prop41ColorRGB
 90
        0
102
RTVSPost2010PropOp41
 70
     1
102
RTVSPost2010Prop42
 90
       50
102
RTVSPost2010PropOp42
 70
     1
102
RTVSPost2010Prop43
 90
        3
102
RTVSPost2010PropOp43
 70
     1
102
RTVSPost2010Prop44ColorIndex
 90
        5
102
RTVSPost2010Prop44ColorRGB
 90
      255
102
RTVSPost2010PropOp44
 70
     1
102
RTVSPost2010Prop45
280
     0
102
RTVSPost2010PropOp45
 70
     1
102
RTVSPost2010Prop46
 90
       50
102
RTVSPost2010PropOp46
 70
     1
102
RTVSPost2010Prop47
 90
       50
102
RTVSPost2010PropOp47
 70
     1
102
RTVSPost2010Prop48
 90
       50
102
RTVSPost2010PropOp48
 70
     1
102
RTVSPost2010Prop49
280
     0
102
RTVSPost2010PropOp49
 70
     1
102
RTVSPost2010Prop50
 90
       50
102
RTVSPost2010PropOp50
 70
     1
102
RTVSPost2010Prop51ColorIndex
 90
      256
102
RTVSPost2010Prop51ColorRGB
 90
-16777216
102
RTVSPost2010PropOp51
 70
     0
102
RTVSPost2010Prop52
140
1.0
102
RTVSPost2010PropOp52
 70
     0
102
RTVSPost2010Prop53
 90
        2
102
RTVSPost2010PropOp53
 70
     1
102
RTVSPost2010Prop54
  1
strokes_ogs.tif
102
RTVSPost2010PropOp54
 70
     1
102
RTVSPost2010Prop55
280
     0
102
RTVSPost2010PropOp55
 70
     1
102
RTVSPost2010Prop56
140
1.0
102
RTVSPost2010PropOp56
 70
     1
102
RTVSPost2010Prop57
140
1.0
102
RTVSPost2010PropOp57
 70
     1
  0
XRECORD
  5
620
102
{ACAD_REACTORS
330
61F
102
}
330
61F
100
AcDbXrecord
280
     1
102
RTVSPropertyOp0
 70
     1
102
RTVSPropertyOp1
 70
     1
102
RTVSPropertyOp2
 70
     1
102
RTVSPropertyOp3
 70
     1
102
RTVSPropertyOp4
 70
     1
102
RTVSPropertyOp5
 70
     1
102
RTVSPropertyOp6
 70
     1
102
RTVSPropertyOp7
 70
     1
102
RTVSPropertyOp8
 70
     1
102
RTVSPropertyOp9
 70
     1
102
RTVSPropertyOp10
 70
     1
102
RTVSPropertyOp11
 70
     1
102
RTVSPropertyOp12
 70
     1
102
RTVSPropertyOp13
 70
     1
102
RTVSPropertyOp14
 70
     1
102
RTVSPropertyOp15
 70
     1
102
RTVSPropertyOp16
 70
     1
102
RTVSPropertyOp17
 70
     1
102
RTVSPropertyOp18
 70
     1
102
RTVSPropertyOp19
 70
     1
102
RTVSPropertyOp20
 70
     1
102
RTVSPropertyOp21
 70
     1
102
RTVSPropertyOp22
 70
     1
102
RTVSPropertyOp23
 70
     1
102
RTVSPropertyOp24
 70
     1
102
RTVSPropertyOp25
 70
     1
102
RTVSPropertyOp26
 70
     1
102
RTVSPropertyOp27
 70
     1
102
RTVSPropertyOp28
 70
     1
102
RTVSPropertyOp29
 70
     1
102
RTVSPropertyOp30
 70
     1
102
RTVSPropertyOp31
 70
     1
102
RTVSPropertyOp32
 70
     1
102
RTVSPropertyOp33
 70
     1
102
RTVSPropertyOp34
 70
     1
102
RTVSPropertyOp35
 70
     1
102
RTVSPropertyOp36
 70
     1
102
RTVSPropertyOp37
 70
     1
102
RTVSPropertyOp38
 70
     1
102
RTVSPropertyOp39
 70
     1
102
RTVSPropertyOp40
 70
     1
102
RTVSPropertyOp41
 70
     1
102
RTVSPropertyOp42
 70
     1
102
RTVSPropertyOp43
 70
     1
102
RTVSPropertyOp44
 70
     1
102
RTVSPropertyOp45
 70
     1
102
RTVSPropertyOp46
 70
     1
102
RTVSPropertyOp47
 70
     1
102
RTVSPropertyOp48
 70
     1
102
RTVSPropertyOp49
 70
     1
102
RTVSPropertyOp50
 70
     1
102
RTVSPropertyOp51
 70
     0
102
RTVSPropertyOp52
 70
     0
102
RTVSPropertyOp53
 70
     1
102
RTVSPropertyOp54
 70
     1
102
RTVSPropertyOp55
 70
     1
102
RTVSPropertyOp56
 70
     1
102
RTVSPropertyOp57
 70
     1
102
RTVSPost2010Prop28
280
     0
102
RTVSPost2010PropOp28
 70
     1
102
RTVSPost2010Prop29
280
     1
102
RTVSPost2010PropOp29
 70
     1
102
RTVSPost2010Prop30
280
     1
102
RTVSPost2010PropOp30
 70
     1
102
RTVSPost2010Prop31
280
     0
102
RTVSPost2010PropOp31
 70
     1
102
RTVSPost2010Prop32
280
     0
102
RTVSPost2010PropOp32
 70
     1
102
RTVSPost2010Prop33
280
     0
102
RTVSPost2010PropOp33
 70
     1
102
RTVSPost2010Prop34
280
     0
102
RTVSPost2010PropOp34
 70
     1
102
RTVSPost2010Prop35
280
     0
102
RTVSPost2010PropOp35
 70
     1
102
RTVSPost2010Prop36
280
     0
102
RTVSPost2010PropOp36
 70
     1
102
RTVSPost2010Prop37
 90
       50
102
RTVSPost2010PropOp37
 70
     1
102
RTVSPost2010Prop38
140
0.0
102
RTVSPost2010PropOp38
 70
     1
102
RTVSPost2010Prop39
140
1.0
102
RTVSPost2010PropOp39
 70
     1
102
RTVSPost2010Prop40
 90
        0
102
RTVSPost2010PropOp40
 70
     1
102
RTVSPost2010Prop41ColorIndex
 90
       18
102
RTVSPost2010Prop41ColorRGB
 90
        0
102
RTVSPost2010PropOp41
 70
     1
102
RTVSPost2010Prop42
 90
       50
102
RTVSPost2010PropOp42
 70
     1
102
RTVSPost2010Prop43
 90
        3
102
RTVSPost2010PropOp43
 70
     1
102
RTVSPost2010Prop44ColorIndex
 90
        5
102
RTVSPost2010Prop44ColorRGB
 90
      255
102
RTVSPost2010PropOp44
 70
     1
102
RTVSPost2010Prop45
280
     0
102
RTVSPost2010PropOp45
 70
     1
102
RTVSPost2010Prop46
 90
       50
102
RTVSPost2010PropOp46
 70
     1
102
RTVSPost2010Prop47
 90
       50
102
RTVSPost2010PropOp47
 70
     1
102
RTVSPost2010Prop48
 90
       50
102
RTVSPost2010PropOp48
 70
     1
102
RTVSPost2010Prop49
280
     0
102
RTVSPost2010PropOp49
 70
     1
102
RTVSPost2010Prop50
 90
       50
102
RTVSPost2010PropOp50
 70
     1
102
RTVSPost2010Prop51ColorIndex
 90
      256
102
RTVSPost2010Prop51ColorRGB
 90
-16777216
102
RTVSPost2010PropOp51
 70
     0
102
RTVSPost2010Prop52
140
1.0
102
RTVSPost2010PropOp52
 70
     0
102
RTVSPost2010Prop53
 90
        2
102
RTVSPost2010PropOp53
 70
     1
102
RTVSPost2010Prop54
  1
strokes_ogs.tif
102
RTVSPost2010PropOp54
 70
     1
102
RTVSPost2010Prop55
280
     0
102
RTVSPost2010PropOp55
 70
     1
102
RTVSPost2010Prop56
140
1.0
102
RTVSPost2010PropOp56
 70
     1
102
RTVSPost2010Prop57
140
1.0
102
RTVSPost2010PropOp57
 70
     1
  0
XRECORD
  5
622
102
{ACAD_REACTORS
330
621
102
}
330
621
100
AcDbXrecord
280
     1
102
RTVSPropertyOp0
 70
     1
102
RTVSPropertyOp1
 70
     1
102
RTVSPropertyOp2
 70
     1
102
RTVSPropertyOp3
 70
     1
102
RTVSPropertyOp4
 70
     1
102
RTVSPropertyOp5
 70
     1
102
RTVSPropertyOp6
 70
     1
102
RTVSPropertyOp7
 70
     1
102
RTVSPropertyOp8
 70
     1
102
RTVSPropertyOp9
 70
     1
102
RTVSPropertyOp10
 70
     1
102
RTVSPropertyOp11
 70
     1
102
RTVSPropertyOp12
 70
     1
102
RTVSPropertyOp13
 70
     1
102
RTVSPropertyOp14
 70
     1
102
RTVSPropertyOp15
 70
     1
102
RTVSPropertyOp16
 70
     1
102
RTVSPropertyOp17
 70
     1
102
RTVSPropertyOp18
 70
     1
102
RTVSPropertyOp19
 70
     1
102
RTVSPropertyOp20
 70
     1
102
RTVSPropertyOp21
 70
     1
102
RTVSPropertyOp22
 70
     1
102
RTVSPropertyOp23
 70
     1
102
RTVSPropertyOp24
 70
     1
102
RTVSPropertyOp25
 70
     1
102
RTVSPropertyOp26
 70
     1
102
RTVSPropertyOp27
 70
     1
102
RTVSPropertyOp28
 70
     1
102
RTVSPropertyOp29
 70
     1
102
RTVSPropertyOp30
 70
     1
102
RTVSPropertyOp31
 70
     1
102
RTVSPropertyOp32
 70
     1
102
RTVSPropertyOp33
 70
     1
102
RTVSPropertyOp34
 70
     1
102
RTVSPropertyOp35
 70
     1
102
RTVSPropertyOp36
 70
     1
102
RTVSPropertyOp37
 70
     1
102
RTVSPropertyOp38
 70
     1
102
RTVSPropertyOp39
 70
     1
102
RTVSPropertyOp40
 70
     1
102
RTVSPropertyOp41
 70
     1
102
RTVSPropertyOp42
 70
     1
102
RTVSPropertyOp43
 70
     1
102
RTVSPropertyOp44
 70
     1
102
RTVSPropertyOp45
 70
     1
102
RTVSPropertyOp46
 70
     1
102
RTVSPropertyOp47
 70
     1
102
RTVSPropertyOp48
 70
     1
102
RTVSPropertyOp49
 70
     1
102
RTVSPropertyOp50
 70
     1
102
RTVSPropertyOp51
 70
     0
102
RTVSPropertyOp52
 70
     0
102
RTVSPropertyOp53
 70
     1
102
RTVSPropertyOp54
 70
     1
102
RTVSPropertyOp55
 70
     1
102
RTVSPropertyOp56
 70
     1
102
RTVSPropertyOp57
 70
     1
102
RTVSPost2010Prop28
280
     0
102
RTVSPost2010PropOp28
 70
     1
102
RTVSPost2010Prop29
280
     1
102
RTVSPost2010PropOp29
 70
     1
102
RTVSPost2010Prop30
280
     1
102
RTVSPost2010PropOp30
 70
     1
102
RTVSPost2010Prop31
280
     0
102
RTVSPost2010PropOp31
 70
     1
102
RTVSPost2010Prop32
280
     0
102
RTVSPost2010PropOp32
 70
     1
102
RTVSPost2010Prop33
280
     0
102
RTVSPost2010PropOp33
 70
     1
102
RTVSPost2010Prop34
280
     0
102
RTVSPost2010PropOp34
 70
     1
102
RTVSPost2010Prop35
280
     0
102
RTVSPost2010PropOp35
 70
     1
102
RTVSPost2010Prop36
280
     0
102
RTVSPost2010PropOp36
 70
     1
102
RTVSPost2010Prop37
 90
       50
102
RTVSPost2010PropOp37
 70
     1
102
RTVSPost2010Prop38
140
0.0
102
RTVSPost2010PropOp38
 70
     1
102
RTVSPost2010Prop39
140
1.0
102
RTVSPost2010PropOp39
 70
     1
102
RTVSPost2010Prop40
 90
        0
102
RTVSPost2010PropOp40
 70
     1
102
RTVSPost2010Prop41ColorIndex
 90
       18
102
RTVSPost2010Prop41ColorRGB
 90
        0
102
RTVSPost2010PropOp41
 70
     1
102
RTVSPost2010Prop42
 90
       50
102
RTVSPost2010PropOp42
 70
     1
102
RTVSPost2010Prop43
 90
        3
102
RTVSPost2010PropOp43
 70
     1
102
RTVSPost2010Prop44ColorIndex
 90
        5
102
RTVSPost2010Prop44ColorRGB
 90
      255
102
RTVSPost2010PropOp44
 70
     1
102
RTVSPost2010Prop45
280
     0
102
RTVSPost2010PropOp45
 70
     1
102
RTVSPost2010Prop46
 90
       50
102
RTVSPost2010PropOp46
 70
     1
102
RTVSPost2010Prop47
 90
       50
102
RTVSPost2010PropOp47
 70
     1
102
RTVSPost2010Prop48
 90
       50
102
RTVSPost2010PropOp48
 70
     1
102
RTVSPost2010Prop49
280
     0
102
RTVSPost2010PropOp49
 70
     1
102
RTVSPost2010Prop50
 90
       50
102
RTVSPost2010PropOp50
 70
     1
102
RTVSPost2010Prop51ColorIndex
 90
      256
102
RTVSPost2010Prop51ColorRGB
 90
-16777216
102
RTVSPost2010PropOp51
 70
     0
102
RTVSPost2010Prop52
140
1.0
102
RTVSPost2010PropOp52
 70
     0
102
RTVSPost2010Prop53
 90
        2
102
RTVSPost2010PropOp53
 70
     1
102
RTVSPost2010Prop54
  1
strokes_ogs.tif
102
RTVSPost2010PropOp54
 70
     1
102
RTVSPost2010Prop55
280
     0
102
RTVSPost2010PropOp55
 70
     1
102
RTVSPost2010Prop56
140
1.0
102
RTVSPost2010PropOp56
 70
     1
102
RTVSPost2010Prop57
140
1.0
102
RTVSPost2010PropOp57
 70
     1
  0
XRECORD
  5
632
102
{ACAD_REACTORS
330
631
102
}
330
631
100
AcDbXrecord
280
     1
102
RTVSPropertyOp0
 70
     0
102
RTVSPropertyOp1
 70
     0
102
RTVSPropertyOp2
 70
     0
102
RTVSPropertyOp3
 70
     0
102
RTVSPropertyOp4
 70
     0
102
RTVSPropertyOp5
 70
     0
102
RTVSPropertyOp6
 70
     0
102
RTVSPropertyOp7
 70
     0
102
RTVSPropertyOp8
 70
     0
102
RTVSPropertyOp9
 70
     0
102
RTVSPropertyOp10
 70
     0
102
RTVSPropertyOp11
 70
     0
102
RTVSPropertyOp12
 70
     0
102
RTVSPropertyOp13
 70
     0
102
RTVSPropertyOp14
 70
     0
102
RTVSPropertyOp15
 70
     0
102
RTVSPropertyOp16
 70
     0
102
RTVSPropertyOp17
 70
     0
102
RTVSPropertyOp18
 70
     0
102
RTVSPropertyOp19
 70
     0
102
RTVSPropertyOp20
 70
     0
102
RTVSPropertyOp21
 70
     0
102
RTVSPropertyOp22
 70
     0
102
RTVSPropertyOp23
 70
     0
102
RTVSPropertyOp24
 70
     0
102
RTVSPropertyOp25
 70
     0
102
RTVSPropertyOp26
 70
     0
102
RTVSPropertyOp27
 70
     0
102
RTVSPropertyOp28
 70
     1
102
RTVSPropertyOp29
 70
     1
102
RTVSPropertyOp30
 70
     1
102
RTVSPropertyOp31
 70
     1
102
RTVSPropertyOp32
 70
     1
102
RTVSPropertyOp33
 70
     1
102
RTVSPropertyOp34
 70
     1
102
RTVSPropertyOp35
 70
     1
102
RTVSPropertyOp36
 70
     1
102
RTVSPropertyOp37
 70
     1
102
RTVSPropertyOp38
 70
     1
102
RTVSPropertyOp39
 70
     1
102
RTVSPropertyOp40
 70
     1
102
RTVSPropertyOp41
 70
     1
102
RTVSPropertyOp42
 70
     1
102
RTVSPropertyOp43
 70
     1
102
RTVSPropertyOp44
 70
     1
102
RTVSPropertyOp45
 70
     1
102
RTVSPropertyOp46
 70
     1
102
RTVSPropertyOp47
 70
     1
102
RTVSPropertyOp48
 70
     1
102
RTVSPropertyOp49
 70
     1
102
RTVSPropertyOp50
 70
     1
102
RTVSPropertyOp51
 70
     0
102
RTVSPropertyOp52
 70
     0
102
RTVSPropertyOp53
 70
     1
102
RTVSPropertyOp54
 70
     1
102
RTVSPropertyOp55
 70
     1
102
RTVSPropertyOp56
 70
     1
102
RTVSPropertyOp57
 70
     1
102
RTVSPost2010Prop28
280
     0
102
RTVSPost2010PropOp28
 70
     1
102
RTVSPost2010Prop29
280
     1
102
RTVSPost2010PropOp29
 70
     1
102
RTVSPost2010Prop30
280
     1
102
RTVSPost2010PropOp30
 70
     1
102
RTVSPost2010Prop31
280
     0
102
RTVSPost2010PropOp31
 70
     1
102
RTVSPost2010Prop32
280
     0
102
RTVSPost2010PropOp32
 70
     1
102
RTVSPost2010Prop33
280
     0
102
RTVSPost2010PropOp33
 70
     1
102
RTVSPost2010Prop34
280
     0
102
RTVSPost2010PropOp34
 70
     1
102
RTVSPost2010Prop35
280
     0
102
RTVSPost2010PropOp35
 70
     1
102
RTVSPost2010Prop36
280
     0
102
RTVSPost2010PropOp36
 70
     1
102
RTVSPost2010Prop37
 90
       50
102
RTVSPost2010PropOp37
 70
     1
102
RTVSPost2010Prop38
140
0.0
102
RTVSPost2010PropOp38
 70
     1
102
RTVSPost2010Prop39
140
1.0
102
RTVSPost2010PropOp39
 70
     1
102
RTVSPost2010Prop40
 90
        0
102
RTVSPost2010PropOp40
 70
     1
102
RTVSPost2010Prop41ColorIndex
 90
       18
102
RTVSPost2010Prop41ColorRGB
 90
        0
102
RTVSPost2010PropOp41
 70
     1
102
RTVSPost2010Prop42
 90
       50
102
RTVSPost2010PropOp42
 70
     1
102
RTVSPost2010Prop43
 90
        3
102
RTVSPost2010PropOp43
 70
     1
102
RTVSPost2010Prop44ColorIndex
 90
        5
102
RTVSPost2010Prop44ColorRGB
 90
      255
102
RTVSPost2010PropOp44
 70
     1
102
RTVSPost2010Prop45
280
     0
102
RTVSPost2010PropOp45
 70
     1
102
RTVSPost2010Prop46
 90
       50
102
RTVSPost2010PropOp46
 70
     1
102
RTVSPost2010Prop47
 90
       50
102
RTVSPost2010PropOp47
 70
     1
102
RTVSPost2010Prop48
 90
       50
102
RTVSPost2010PropOp48
 70
     1
102
RTVSPost2010Prop49
280
     0
102
RTVSPost2010PropOp49
 70
     1
102
RTVSPost2010Prop50
 90
       50
102
RTVSPost2010PropOp50
 70
     1
102
RTVSPost2010Prop51ColorIndex
 90
      256
102
RTVSPost2010Prop51ColorRGB
 90
-16777216
102
RTVSPost2010PropOp51
 70
     0
102
RTVSPost2010Prop52
140
1.0
102
RTVSPost2010PropOp52
 70
     0
102
RTVSPost2010Prop53
 90
        2
102
RTVSPost2010PropOp53
 70
     1
102
RTVSPost2010Prop54
  1
strokes_ogs.tif
102
RTVSPost2010PropOp54
 70
     1
102
RTVSPost2010Prop55
280
     0
102
RTVSPost2010PropOp55
 70
     1
102
RTVSPost2010Prop56
140
1.0
102
RTVSPost2010PropOp56
 70
     1
102
RTVSPost2010Prop57
140
1.0
102
RTVSPost2010PropOp57
 70
     1
  0
XRECORD
  5
62A
102
{ACAD_REACTORS
330
629
102
}
330
629
100
AcDbXrecord
280
     1
102
RTVSPropertyOp0
 70
     1
102
RTVSPropertyOp1
 70
     1
102
RTVSPropertyOp2
 70
     1
102
RTVSPropertyOp3
 70
     1
102
RTVSPropertyOp4
 70
     1
102
RTVSPropertyOp5
 70
     1
102
RTVSPropertyOp6
 70
     1
102
RTVSPropertyOp7
 70
     1
102
RTVSPropertyOp8
 70
     1
102
RTVSPropertyOp9
 70
     1
102
RTVSPropertyOp10
 70
     1
102
RTVSPropertyOp11
 70
     1
102
RTVSPropertyOp12
 70
     1
102
RTVSPropertyOp13
 70
     1
102
RTVSPropertyOp14
 70
     1
102
RTVSPropertyOp15
 70
     1
102
RTVSPropertyOp16
 70
     1
102
RTVSPropertyOp17
 70
     1
102
RTVSPropertyOp18
 70
     1
102
RTVSPropertyOp19
 70
     1
102
RTVSPropertyOp20
 70
     1
102
RTVSPropertyOp21
 70
     1
102
RTVSPropertyOp22
 70
     1
102
RTVSPropertyOp23
 70
     1
102
RTVSPropertyOp24
 70
     1
102
RTVSPropertyOp25
 70
     1
102
RTVSPropertyOp26
 70
     1
102
RTVSPropertyOp27
 70
     1
102
RTVSPropertyOp28
 70
     1
102
RTVSPropertyOp29
 70
     1
102
RTVSPropertyOp30
 70
     1
102
RTVSPropertyOp31
 70
     1
102
RTVSPropertyOp32
 70
     1
102
RTVSPropertyOp33
 70
     1
102
RTVSPropertyOp34
 70
     1
102
RTVSPropertyOp35
 70
     1
102
RTVSPropertyOp36
 70
     1
102
RTVSPropertyOp37
 70
     1
102
RTVSPropertyOp38
 70
     1
102
RTVSPropertyOp39
 70
     1
102
RTVSPropertyOp40
 70
     1
102
RTVSPropertyOp41
 70
     1
102
RTVSPropertyOp42
 70
     1
102
RTVSPropertyOp43
 70
     1
102
RTVSPropertyOp44
 70
     1
102
RTVSPropertyOp45
 70
     1
102
RTVSPropertyOp46
 70
     1
102
RTVSPropertyOp47
 70
     1
102
RTVSPropertyOp48
 70
     1
102
RTVSPropertyOp49
 70
     1
102
RTVSPropertyOp50
 70
     1
102
RTVSPropertyOp51
 70
     0
102
RTVSPropertyOp52
 70
     0
102
RTVSPropertyOp53
 70
     1
102
RTVSPropertyOp54
 70
     1
102
RTVSPropertyOp55
 70
     1
102
RTVSPropertyOp56
 70
     1
102
RTVSPropertyOp57
 70
     1
102
RTVSPost2010Prop28
280
     0
102
RTVSPost2010PropOp28
 70
     1
102
RTVSPost2010Prop29
280
     1
102
RTVSPost2010PropOp29
 70
     1
102
RTVSPost2010Prop30
280
     1
102
RTVSPost2010PropOp30
 70
     1
102
RTVSPost2010Prop31
280
     0
102
RTVSPost2010PropOp31
 70
     1
102
RTVSPost2010Prop32
280
     0
102
RTVSPost2010PropOp32
 70
     1
102
RTVSPost2010Prop33
280
     0
102
RTVSPost2010PropOp33
 70
     1
102
RTVSPost2010Prop34
280
     0
102
RTVSPost2010PropOp34
 70
     1
102
RTVSPost2010Prop35
280
     0
102
RTVSPost2010PropOp35
 70
     1
102
RTVSPost2010Prop36
280
     0
102
RTVSPost2010PropOp36
 70
     1
102
RTVSPost2010Prop37
 90
       50
102
RTVSPost2010PropOp37
 70
     1
102
RTVSPost2010Prop38
140
0.0
102
RTVSPost2010PropOp38
 70
     1
102
RTVSPost2010Prop39
140
1.0
102
RTVSPost2010PropOp39
 70
     1
102
RTVSPost2010Prop40
 90
        0
102
RTVSPost2010PropOp40
 70
     1
102
RTVSPost2010Prop41ColorIndex
 90
       18
102
RTVSPost2010Prop41ColorRGB
 90
        0
102
RTVSPost2010PropOp41
 70
     1
102
RTVSPost2010Prop42
 90
       50
102
RTVSPost2010PropOp42
 70
     1
102
RTVSPost2010Prop43
 90
        3
102
RTVSPost2010PropOp43
 70
     1
102
RTVSPost2010Prop44ColorIndex
 90
        5
102
RTVSPost2010Prop44ColorRGB
 90
      255
102
RTVSPost2010PropOp44
 70
     1
102
RTVSPost2010Prop45
280
     0
102
RTVSPost2010PropOp45
 70
     1
102
RTVSPost2010Prop46
 90
       50
102
RTVSPost2010PropOp46
 70
     1
102
RTVSPost2010Prop47
 90
       50
102
RTVSPost2010PropOp47
 70
     1
102
RTVSPost2010Prop48
 90
       50
102
RTVSPost2010PropOp48
 70
     1
102
RTVSPost2010Prop49
280
     0
102
RTVSPost2010PropOp49
 70
     1
102
RTVSPost2010Prop50
 90
       50
102
RTVSPost2010PropOp50
 70
     1
102
RTVSPost2010Prop51ColorIndex
 90
      256
102
RTVSPost2010Prop51ColorRGB
 90
-16777216
102
RTVSPost2010PropOp51
 70
     0
102
RTVSPost2010Prop52
140
1.0
102
RTVSPost2010PropOp52
 70
     0
102
RTVSPost2010Prop53
 90
        2
102
RTVSPost2010PropOp53
 70
     1
102
RTVSPost2010Prop54
  1
strokes_ogs.tif
102
RTVSPost2010PropOp54
 70
     1
102
RTVSPost2010Prop55
280
     0
102
RTVSPost2010PropOp55
 70
     1
102
RTVSPost2010Prop56
140
1.0
102
RTVSPost2010PropOp56
 70
     1
102
RTVSPost2010Prop57
140
1.0
102
RTVSPost2010PropOp57
 70
     1
  0
XRECORD
  5
612
102
{ACAD_REACTORS
330
611
102
}
330
611
100
AcDbXrecord
280
     1
102
RTVSPropertyOp0
 70
     1
102
RTVSPropertyOp1
 70
     1
102
RTVSPropertyOp2
 70
     1
102
RTVSPropertyOp3
 70
     1
102
RTVSPropertyOp4
 70
     1
102
RTVSPropertyOp5
 70
     1
102
RTVSPropertyOp6
 70
     1
102
RTVSPropertyOp7
 70
     1
102
RTVSPropertyOp8
 70
     1
102
RTVSPropertyOp9
 70
     1
102
RTVSPropertyOp10
 70
     1
102
RTVSPropertyOp11
 70
     1
102
RTVSPropertyOp12
 70
     1
102
RTVSPropertyOp13
 70
     1
102
RTVSPropertyOp14
 70
     1
102
RTVSPropertyOp15
 70
     1
102
RTVSPropertyOp16
 70
     1
102
RTVSPropertyOp17
 70
     1
102
RTVSPropertyOp18
 70
     1
102
RTVSPropertyOp19
 70
     1
102
RTVSPropertyOp20
 70
     1
102
RTVSPropertyOp21
 70
     1
102
RTVSPropertyOp22
 70
     1
102
RTVSPropertyOp23
 70
     1
102
RTVSPropertyOp24
 70
     1
102
RTVSPropertyOp25
 70
     1
102
RTVSPropertyOp26
 70
     1
102
RTVSPropertyOp27
 70
     1
102
RTVSPropertyOp28
 70
     1
102
RTVSPropertyOp29
 70
     1
102
RTVSPropertyOp30
 70
     1
102
RTVSPropertyOp31
 70
     1
102
RTVSPropertyOp32
 70
     1
102
RTVSPropertyOp33
 70
     1
102
RTVSPropertyOp34
 70
     1
102
RTVSPropertyOp35
 70
     1
102
RTVSPropertyOp36
 70
     1
102
RTVSPropertyOp37
 70
     1
102
RTVSPropertyOp38
 70
     1
102
RTVSPropertyOp39
 70
     1
102
RTVSPropertyOp40
 70
     1
102
RTVSPropertyOp41
 70
     1
102
RTVSPropertyOp42
 70
     1
102
RTVSPropertyOp43
 70
     1
102
RTVSPropertyOp44
 70
     1
102
RTVSPropertyOp45
 70
     1
102
RTVSPropertyOp46
 70
     1
102
RTVSPropertyOp47
 70
     1
102
RTVSPropertyOp48
 70
     1
102
RTVSPropertyOp49
 70
     1
102
RTVSPropertyOp50
 70
     1
102
RTVSPropertyOp51
 70
     0
102
RTVSPropertyOp52
 70
     0
102
RTVSPropertyOp53
 70
     1
102
RTVSPropertyOp54
 70
     1
102
RTVSPropertyOp55
 70
     1
102
RTVSPropertyOp56
 70
     1
102
RTVSPropertyOp57
 70
     1
102
RTVSPost2010Prop28
280
     0
102
RTVSPost2010PropOp28
 70
     1
102
RTVSPost2010Prop29
280
     1
102
RTVSPost2010PropOp29
 70
     1
102
RTVSPost2010Prop30
280
     1
102
RTVSPost2010PropOp30
 70
     1
102
RTVSPost2010Prop31
280
     0
102
RTVSPost2010PropOp31
 70
     1
102
RTVSPost2010Prop32
280
     0
102
RTVSPost2010PropOp32
 70
     1
102
RTVSPost2010Prop33
280
     0
102
RTVSPost2010PropOp33
 70
     1
102
RTVSPost2010Prop34
280
     0
102
RTVSPost2010PropOp34
 70
     1
102
RTVSPost2010Prop35
280
     0
102
RTVSPost2010PropOp35
 70
     1
102
RTVSPost2010Prop36
280
     0
102
RTVSPost2010PropOp36
 70
     1
102
RTVSPost2010Prop37
 90
       50
102
RTVSPost2010PropOp37
 70
     1
102
RTVSPost2010Prop38
140
0.0
102
RTVSPost2010PropOp38
 70
     1
102
RTVSPost2010Prop39
140
1.0
102
RTVSPost2010PropOp39
 70
     1
102
RTVSPost2010Prop40
 90
        0
102
RTVSPost2010PropOp40
 70
     1
102
RTVSPost2010Prop41ColorIndex
 90
       18
102
RTVSPost2010Prop41ColorRGB
 90
        0
102
RTVSPost2010PropOp41
 70
     1
102
RTVSPost2010Prop42
 90
       50
102
RTVSPost2010PropOp42
 70
     1
102
RTVSPost2010Prop43
 90
        3
102
RTVSPost2010PropOp43
 70
     1
102
RTVSPost2010Prop44ColorIndex
 90
        5
102
RTVSPost2010Prop44ColorRGB
 90
      255
102
RTVSPost2010PropOp44
 70
     1
102
RTVSPost2010Prop45
280
     0
102
RTVSPost2010PropOp45
 70
     1
102
RTVSPost2010Prop46
 90
       50
102
RTVSPost2010PropOp46
 70
     1
102
RTVSPost2010Prop47
 90
       50
102
RTVSPost2010PropOp47
 70
     1
102
RTVSPost2010Prop48
 90
       50
102
RTVSPost2010PropOp48
 70
     1
102
RTVSPost2010Prop49
280
     0
102
RTVSPost2010PropOp49
 70
     1
102
RTVSPost2010Prop50
 90
       50
102
RTVSPost2010PropOp50
 70
     1
102
RTVSPost2010Prop51ColorIndex
 90
      256
102
RTVSPost2010Prop51ColorRGB
 90
-16777216
102
RTVSPost2010PropOp51
 70
     0
102
RTVSPost2010Prop52
140
1.0
102
RTVSPost2010PropOp52
 70
     0
102
RTVSPost2010Prop53
 90
        2
102
RTVSPost2010PropOp53
 70
     1
102
RTVSPost2010Prop54
  1
strokes_ogs.tif
102
RTVSPost2010PropOp54
 70
     1
102
RTVSPost2010Prop55
280
     0
102
RTVSPost2010PropOp55
 70
     1
102
RTVSPost2010Prop56
140
1.0
102
RTVSPost2010PropOp56
 70
     1
102
RTVSPost2010Prop57
140
1.0
102
RTVSPost2010PropOp57
 70
     1
  0
XRECORD
  5
614
102
{ACAD_REACTORS
330
613
102
}
330
613
100
AcDbXrecord
280
     1
102
RTVSPropertyOp0
 70
     1
102
RTVSPropertyOp1
 70
     1
102
RTVSPropertyOp2
 70
     1
102
RTVSPropertyOp3
 70
     1
102
RTVSPropertyOp4
 70
     1
102
RTVSPropertyOp5
 70
     1
102
RTVSPropertyOp6
 70
     1
102
RTVSPropertyOp7
 70
     1
102
RTVSPropertyOp8
 70
     1
102
RTVSPropertyOp9
 70
     1
102
RTVSPropertyOp10
 70
     1
102
RTVSPropertyOp11
 70
     1
102
RTVSPropertyOp12
 70
     1
102
RTVSPropertyOp13
 70
     1
102
RTVSPropertyOp14
 70
     1
102
RTVSPropertyOp15
 70
     1
102
RTVSPropertyOp16
 70
     1
102
RTVSPropertyOp17
 70
     1
102
RTVSPropertyOp18
 70
     1
102
RTVSPropertyOp19
 70
     1
102
RTVSPropertyOp20
 70
     1
102
RTVSPropertyOp21
 70
     1
102
RTVSPropertyOp22
 70
     1
102
RTVSPropertyOp23
 70
     1
102
RTVSPropertyOp24
 70
     1
102
RTVSPropertyOp25
 70
     1
102
RTVSPropertyOp26
 70
     1
102
RTVSPropertyOp27
 70
     1
102
RTVSPropertyOp28
 70
     1
102
RTVSPropertyOp29
 70
     1
102
RTVSPropertyOp30
 70
     1
102
RTVSPropertyOp31
 70
     1
102
RTVSPropertyOp32
 70
     1
102
RTVSPropertyOp33
 70
     1
102
RTVSPropertyOp34
 70
     1
102
RTVSPropertyOp35
 70
     1
102
RTVSPropertyOp36
 70
     1
102
RTVSPropertyOp37
 70
     1
102
RTVSPropertyOp38
 70
     1
102
RTVSPropertyOp39
 70
     1
102
RTVSPropertyOp40
 70
     1
102
RTVSPropertyOp41
 70
     1
102
RTVSPropertyOp42
 70
     1
102
RTVSPropertyOp43
 70
     1
102
RTVSPropertyOp44
 70
     1
102
RTVSPropertyOp45
 70
     1
102
RTVSPropertyOp46
 70
     1
102
RTVSPropertyOp47
 70
     1
102
RTVSPropertyOp48
 70
     1
102
RTVSPropertyOp49
 70
     1
102
RTVSPropertyOp50
 70
     1
102
RTVSPropertyOp51
 70
     0
102
RTVSPropertyOp52
 70
     0
102
RTVSPropertyOp53
 70
     1
102
RTVSPropertyOp54
 70
     1
102
RTVSPropertyOp55
 70
     1
102
RTVSPropertyOp56
 70
     1
102
RTVSPropertyOp57
 70
     1
102
RTVSPost2010Prop28
280
     0
102
RTVSPost2010PropOp28
 70
     1
102
RTVSPost2010Prop29
280
     1
102
RTVSPost2010PropOp29
 70
     1
102
RTVSPost2010Prop30
280
     1
102
RTVSPost2010PropOp30
 70
     1
102
RTVSPost2010Prop31
280
     0
102
RTVSPost2010PropOp31
 70
     1
102
RTVSPost2010Prop32
280
     0
102
RTVSPost2010PropOp32
 70
     1
102
RTVSPost2010Prop33
280
     0
102
RTVSPost2010PropOp33
 70
     1
102
RTVSPost2010Prop34
280
     0
102
RTVSPost2010PropOp34
 70
     1
102
RTVSPost2010Prop35
280
     0
102
RTVSPost2010PropOp35
 70
     1
102
RTVSPost2010Prop36
280
     0
102
RTVSPost2010PropOp36
 70
     1
102
RTVSPost2010Prop37
 90
       50
102
RTVSPost2010PropOp37
 70
     1
102
RTVSPost2010Prop38
140
0.0
102
RTVSPost2010PropOp38
 70
     1
102
RTVSPost2010Prop39
140
1.0
102
RTVSPost2010PropOp39
 70
     1
102
RTVSPost2010Prop40
 90
        0
102
RTVSPost2010PropOp40
 70
     1
102
RTVSPost2010Prop41ColorIndex
 90
       18
102
RTVSPost2010Prop41ColorRGB
 90
        0
102
RTVSPost2010PropOp41
 70
     1
102
RTVSPost2010Prop42
 90
       50
102
RTVSPost2010PropOp42
 70
     1
102
RTVSPost2010Prop43
 90
        3
102
RTVSPost2010PropOp43
 70
     1
102
RTVSPost2010Prop44ColorIndex
 90
        5
102
RTVSPost2010Prop44ColorRGB
 90
      255
102
RTVSPost2010PropOp44
 70
     1
102
RTVSPost2010Prop45
280
     0
102
RTVSPost2010PropOp45
 70
     1
102
RTVSPost2010Prop46
 90
       50
102
RTVSPost2010PropOp46
 70
     1
102
RTVSPost2010Prop47
 90
       50
102
RTVSPost2010PropOp47
 70
     1
102
RTVSPost2010Prop48
 90
       50
102
RTVSPost2010PropOp48
 70
     1
102
RTVSPost2010Prop49
280
     0
102
RTVSPost2010PropOp49
 70
     1
102
RTVSPost2010Prop50
 90
       50
102
RTVSPost2010PropOp50
 70
     1
102
RTVSPost2010Prop51ColorIndex
 90
      256
102
RTVSPost2010Prop51ColorRGB
 90
-16777216
102
RTVSPost2010PropOp51
 70
     0
102
RTVSPost2010Prop52
140
1.0
102
RTVSPost2010PropOp52
 70
     0
102
RTVSPost2010Prop53
 90
        2
102
RTVSPost2010PropOp53
 70
     1
102
RTVSPost2010Prop54
  1
strokes_ogs.tif
102
RTVSPost2010PropOp54
 70
     1
102
RTVSPost2010Prop55
280
     0
102
RTVSPost2010PropOp55
 70
     1
102
RTVSPost2010Prop56
140
1.0
102
RTVSPost2010PropOp56
 70
     1
102
RTVSPost2010Prop57
140
1.0
102
RTVSPost2010PropOp57
 70
     1
  0
XRECORD
  5
616
102
{ACAD_REACTORS
330
615
102
}
330
615
100
AcDbXrecord
280
     1
102
RTVSPropertyOp0
 70
     1
102
RTVSPropertyOp1
 70
     1
102
RTVSPropertyOp2
 70
     1
102
RTVSPropertyOp3
 70
     1
102
RTVSPropertyOp4
 70
     1
102
RTVSPropertyOp5
 70
     1
102
RTVSPropertyOp6
 70
     1
102
RTVSPropertyOp7
 70
     1
102
RTVSPropertyOp8
 70
     1
102
RTVSPropertyOp9
 70
     1
102
RTVSPropertyOp10
 70
     1
102
RTVSPropertyOp11
 70
     1
102
RTVSPropertyOp12
 70
     1
102
RTVSPropertyOp13
 70
     1
102
RTVSPropertyOp14
 70
     1
102
RTVSPropertyOp15
 70
     1
102
RTVSPropertyOp16
 70
     1
102
RTVSPropertyOp17
 70
     1
102
RTVSPropertyOp18
 70
     1
102
RTVSPropertyOp19
 70
     1
102
RTVSPropertyOp20
 70
     1
102
RTVSPropertyOp21
 70
     1
102
RTVSPropertyOp22
 70
     1
102
RTVSPropertyOp23
 70
     1
102
RTVSPropertyOp24
 70
     1
102
RTVSPropertyOp25
 70
     1
102
RTVSPropertyOp26
 70
     1
102
RTVSPropertyOp27
 70
     1
102
RTVSPropertyOp28
 70
     1
102
RTVSPropertyOp29
 70
     1
102
RTVSPropertyOp30
 70
     1
102
RTVSPropertyOp31
 70
     1
102
RTVSPropertyOp32
 70
     1
102
RTVSPropertyOp33
 70
     1
102
RTVSPropertyOp34
 70
     1
102
RTVSPropertyOp35
 70
     1
102
RTVSPropertyOp36
 70
     1
102
RTVSPropertyOp37
 70
     1
102
RTVSPropertyOp38
 70
     1
102
RTVSPropertyOp39
 70
     1
102
RTVSPropertyOp40
 70
     1
102
RTVSPropertyOp41
 70
     1
102
RTVSPropertyOp42
 70
     1
102
RTVSPropertyOp43
 70
     1
102
RTVSPropertyOp44
 70
     1
102
RTVSPropertyOp45
 70
     1
102
RTVSPropertyOp46
 70
     1
102
RTVSPropertyOp47
 70
     1
102
RTVSPropertyOp48
 70
     1
102
RTVSPropertyOp49
 70
     1
102
RTVSPropertyOp50
 70
     1
102
RTVSPropertyOp51
 70
     0
102
RTVSPropertyOp52
 70
     0
102
RTVSPropertyOp53
 70
     1
102
RTVSPropertyOp54
 70
     1
102
RTVSPropertyOp55
 70
     1
102
RTVSPropertyOp56
 70
     1
102
RTVSPropertyOp57
 70
     1
102
RTVSPost2010Prop28
280
     0
102
RTVSPost2010PropOp28
 70
     1
102
RTVSPost2010Prop29
280
     1
102
RTVSPost2010PropOp29
 70
     1
102
RTVSPost2010Prop30
280
     1
102
RTVSPost2010PropOp30
 70
     1
102
RTVSPost2010Prop31
280
     0
102
RTVSPost2010PropOp31
 70
     1
102
RTVSPost2010Prop32
280
     0
102
RTVSPost2010PropOp32
 70
     1
102
RTVSPost2010Prop33
280
     0
102
RTVSPost2010PropOp33
 70
     1
102
RTVSPost2010Prop34
280
     0
102
RTVSPost2010PropOp34
 70
     1
102
RTVSPost2010Prop35
280
     0
102
RTVSPost2010PropOp35
 70
     1
102
RTVSPost2010Prop36
280
     0
102
RTVSPost2010PropOp36
 70
     1
102
RTVSPost2010Prop37
 90
       50
102
RTVSPost2010PropOp37
 70
     1
102
RTVSPost2010Prop38
140
0.0
102
RTVSPost2010PropOp38
 70
     1
102
RTVSPost2010Prop39
140
1.0
102
RTVSPost2010PropOp39
 70
     1
102
RTVSPost2010Prop40
 90
        0
102
RTVSPost2010PropOp40
 70
     1
102
RTVSPost2010Prop41ColorIndex
 90
       18
102
RTVSPost2010Prop41ColorRGB
 90
        0
102
RTVSPost2010PropOp41
 70
     1
102
RTVSPost2010Prop42
 90
       50
102
RTVSPost2010PropOp42
 70
     1
102
RTVSPost2010Prop43
 90
        3
102
RTVSPost2010PropOp43
 70
     1
102
RTVSPost2010Prop44ColorIndex
 90
        5
102
RTVSPost2010Prop44ColorRGB
 90
      255
102
RTVSPost2010PropOp44
 70
     1
102
RTVSPost2010Prop45
280
     0
102
RTVSPost2010PropOp45
 70
     1
102
RTVSPost2010Prop46
 90
       50
102
RTVSPost2010PropOp46
 70
     1
102
RTVSPost2010Prop47
 90
       50
102
RTVSPost2010PropOp47
 70
     1
102
RTVSPost2010Prop48
 90
       50
102
RTVSPost2010PropOp48
 70
     1
102
RTVSPost2010Prop49
280
     0
102
RTVSPost2010PropOp49
 70
     1
102
RTVSPost2010Prop50
 90
       50
102
RTVSPost2010PropOp50
 70
     1
102
RTVSPost2010Prop51ColorIndex
 90
      256
102
RTVSPost2010Prop51ColorRGB
 90
-16777216
102
RTVSPost2010PropOp51
 70
     0
102
RTVSPost2010Prop52
140
1.0
102
RTVSPost2010PropOp52
 70
     0
102
RTVSPost2010Prop53
 90
        2
102
RTVSPost2010PropOp53
 70
     1
102
RTVSPost2010Prop54
  1
strokes_ogs.tif
102
RTVSPost2010PropOp54
 70
     1
102
RTVSPost2010Prop55
280
     0
102
RTVSPost2010PropOp55
 70
     1
102
RTVSPost2010Prop56
140
1.0
102
RTVSPost2010PropOp56
 70
     1
102
RTVSPost2010Prop57
140
1.0
102
RTVSPost2010PropOp57
 70
     1
  0
XRECORD
  5
618
102
{ACAD_REACTORS
330
617
102
}
330
617
100
AcDbXrecord
280
     1
102
RTVSPropertyOp0
 70
     1
102
RTVSPropertyOp1
 70
     1
102
RTVSPropertyOp2
 70
     1
102
RTVSPropertyOp3
 70
     1
102
RTVSPropertyOp4
 70
     1
102
RTVSPropertyOp5
 70
     1
102
RTVSPropertyOp6
 70
     1
102
RTVSPropertyOp7
 70
     1
102
RTVSPropertyOp8
 70
     1
102
RTVSPropertyOp9
 70
     1
102
RTVSPropertyOp10
 70
     1
102
RTVSPropertyOp11
 70
     1
102
RTVSPropertyOp12
 70
     1
102
RTVSPropertyOp13
 70
     1
102
RTVSPropertyOp14
 70
     1
102
RTVSPropertyOp15
 70
     1
102
RTVSPropertyOp16
 70
     1
102
RTVSPropertyOp17
 70
     1
102
RTVSPropertyOp18
 70
     1
102
RTVSPropertyOp19
 70
     1
102
RTVSPropertyOp20
 70
     1
102
RTVSPropertyOp21
 70
     1
102
RTVSPropertyOp22
 70
     1
102
RTVSPropertyOp23
 70
     1
102
RTVSPropertyOp24
 70
     1
102
RTVSPropertyOp25
 70
     1
102
RTVSPropertyOp26
 70
     1
102
RTVSPropertyOp27
 70
     1
102
RTVSPropertyOp28
 70
     1
102
RTVSPropertyOp29
 70
     1
102
RTVSPropertyOp30
 70
     1
102
RTVSPropertyOp31
 70
     1
102
RTVSPropertyOp32
 70
     1
102
RTVSPropertyOp33
 70
     1
102
RTVSPropertyOp34
 70
     1
102
RTVSPropertyOp35
 70
     1
102
RTVSPropertyOp36
 70
     1
102
RTVSPropertyOp37
 70
     1
102
RTVSPropertyOp38
 70
     1
102
RTVSPropertyOp39
 70
     1
102
RTVSPropertyOp40
 70
     1
102
RTVSPropertyOp41
 70
     1
102
RTVSPropertyOp42
 70
     1
102
RTVSPropertyOp43
 70
     1
102
RTVSPropertyOp44
 70
     1
102
RTVSPropertyOp45
 70
     1
102
RTVSPropertyOp46
 70
     1
102
RTVSPropertyOp47
 70
     1
102
RTVSPropertyOp48
 70
     1
102
RTVSPropertyOp49
 70
     1
102
RTVSPropertyOp50
 70
     1
102
RTVSPropertyOp51
 70
     0
102
RTVSPropertyOp52
 70
     0
102
RTVSPropertyOp53
 70
     1
102
RTVSPropertyOp54
 70
     1
102
RTVSPropertyOp55
 70
     1
102
RTVSPropertyOp56
 70
     1
102
RTVSPropertyOp57
 70
     1
102
RTVSPost2010Prop28
280
     0
102
RTVSPost2010PropOp28
 70
     1
102
RTVSPost2010Prop29
280
     1
102
RTVSPost2010PropOp29
 70
     1
102
RTVSPost2010Prop30
280
     1
102
RTVSPost2010PropOp30
 70
     1
102
RTVSPost2010Prop31
280
     0
102
RTVSPost2010PropOp31
 70
     1
102
RTVSPost2010Prop32
280
     0
102
RTVSPost2010PropOp32
 70
     1
102
RTVSPost2010Prop33
280
     0
102
RTVSPost2010PropOp33
 70
     1
102
RTVSPost2010Prop34
280
     0
102
RTVSPost2010PropOp34
 70
     1
102
RTVSPost2010Prop35
280
     0
102
RTVSPost2010PropOp35
 70
     1
102
RTVSPost2010Prop36
280
     0
102
RTVSPost2010PropOp36
 70
     1
102
RTVSPost2010Prop37
 90
       50
102
RTVSPost2010PropOp37
 70
     1
102
RTVSPost2010Prop38
140
0.0
102
RTVSPost2010PropOp38
 70
     1
102
RTVSPost2010Prop39
140
1.0
102
RTVSPost2010PropOp39
 70
     1
102
RTVSPost2010Prop40
 90
        0
102
RTVSPost2010PropOp40
 70
     1
102
RTVSPost2010Prop41ColorIndex
 90
       18
102
RTVSPost2010Prop41ColorRGB
 90
        0
102
RTVSPost2010PropOp41
 70
     1
102
RTVSPost2010Prop42
 90
       50
102
RTVSPost2010PropOp42
 70
     1
102
RTVSPost2010Prop43
 90
        3
102
RTVSPost2010PropOp43
 70
     1
102
RTVSPost2010Prop44ColorIndex
 90
        5
102
RTVSPost2010Prop44ColorRGB
 90
      255
102
RTVSPost2010PropOp44
 70
     1
102
RTVSPost2010Prop45
280
     0
102
RTVSPost2010PropOp45
 70
     1
102
RTVSPost2010Prop46
 90
       50
102
RTVSPost2010PropOp46
 70
     1
102
RTVSPost2010Prop47
 90
       50
102
RTVSPost2010PropOp47
 70
     1
102
RTVSPost2010Prop48
 90
       50
102
RTVSPost2010PropOp48
 70
     1
102
RTVSPost2010Prop49
280
     0
102
RTVSPost2010PropOp49
 70
     1
102
RTVSPost2010Prop50
 90
       50
102
RTVSPost2010PropOp50
 70
     1
102
RTVSPost2010Prop51ColorIndex
 90
      256
102
RTVSPost2010Prop51ColorRGB
 90
-16777216
102
RTVSPost2010PropOp51
 70
     0
102
RTVSPost2010Prop52
140
1.0
102
RTVSPost2010PropOp52
 70
     0
102
RTVSPost2010Prop53
 90
        2
102
RTVSPost2010PropOp53
 70
     1
102
RTVSPost2010Prop54
  1
strokes_ogs.tif
102
RTVSPost2010PropOp54
 70
     1
102
RTVSPost2010Prop55
280
     0
102
RTVSPost2010PropOp55
 70
     1
102
RTVSPost2010Prop56
140
1.0
102
RTVSPost2010PropOp56
 70
     1
102
RTVSPost2010Prop57
140
1.0
102
RTVSPost2010PropOp57
 70
     1
  0
XRECORD
  5
61C
102
{ACAD_REACTORS
330
61B
102
}
330
61B
100
AcDbXrecord
280
     1
102
RTVSPropertyOp0
 70
     1
102
RTVSPropertyOp1
 70
     1
102
RTVSPropertyOp2
 70
     1
102
RTVSPropertyOp3
 70
     1
102
RTVSPropertyOp4
 70
     1
102
RTVSPropertyOp5
 70
     1
102
RTVSPropertyOp6
 70
     1
102
RTVSPropertyOp7
 70
     1
102
RTVSPropertyOp8
 70
     1
102
RTVSPropertyOp9
 70
     1
102
RTVSPropertyOp10
 70
     1
102
RTVSPropertyOp11
 70
     1
102
RTVSPropertyOp12
 70
     1
102
RTVSPropertyOp13
 70
     1
102
RTVSPropertyOp14
 70
     1
102
RTVSPropertyOp15
 70
     1
102
RTVSPropertyOp16
 70
     1
102
RTVSPropertyOp17
 70
     1
102
RTVSPropertyOp18
 70
     1
102
RTVSPropertyOp19
 70
     1
102
RTVSPropertyOp20
 70
     1
102
RTVSPropertyOp21
 70
     1
102
RTVSPropertyOp22
 70
     1
102
RTVSPropertyOp23
 70
     1
102
RTVSPropertyOp24
 70
     1
102
RTVSPropertyOp25
 70
     1
102
RTVSPropertyOp26
 70
     1
102
RTVSPropertyOp27
 70
     1
102
RTVSPropertyOp28
 70
     1
102
RTVSPropertyOp29
 70
     1
102
RTVSPropertyOp30
 70
     1
102
RTVSPropertyOp31
 70
     1
102
RTVSPropertyOp32
 70
     1
102
RTVSPropertyOp33
 70
     1
102
RTVSPropertyOp34
 70
     1
102
RTVSPropertyOp35
 70
     1
102
RTVSPropertyOp36
 70
     1
102
RTVSPropertyOp37
 70
     1
102
RTVSPropertyOp38
 70
     1
102
RTVSPropertyOp39
 70
     1
102
RTVSPropertyOp40
 70
     1
102
RTVSPropertyOp41
 70
     1
102
RTVSPropertyOp42
 70
     1
102
RTVSPropertyOp43
 70
     1
102
RTVSPropertyOp44
 70
     1
102
RTVSPropertyOp45
 70
     1
102
RTVSPropertyOp46
 70
     1
102
RTVSPropertyOp47
 70
     1
102
RTVSPropertyOp48
 70
     1
102
RTVSPropertyOp49
 70
     1
102
RTVSPropertyOp50
 70
     1
102
RTVSPropertyOp51
 70
     0
102
RTVSPropertyOp52
 70
     0
102
RTVSPropertyOp53
 70
     1
102
RTVSPropertyOp54
 70
     1
102
RTVSPropertyOp55
 70
     1
102
RTVSPropertyOp56
 70
     1
102
RTVSPropertyOp57
 70
     1
102
RTVSPost2010Prop28
280
     0
102
RTVSPost2010PropOp28
 70
     1
102
RTVSPost2010Prop29
280
     1
102
RTVSPost2010PropOp29
 70
     1
102
RTVSPost2010Prop30
280
     1
102
RTVSPost2010PropOp30
 70
     1
102
RTVSPost2010Prop31
280
     0
102
RTVSPost2010PropOp31
 70
     1
102
RTVSPost2010Prop32
280
     0
102
RTVSPost2010PropOp32
 70
     1
102
RTVSPost2010Prop33
280
     0
102
RTVSPost2010PropOp33
 70
     1
102
RTVSPost2010Prop34
280
     0
102
RTVSPost2010PropOp34
 70
     1
102
RTVSPost2010Prop35
280
     0
102
RTVSPost2010PropOp35
 70
     1
102
RTVSPost2010Prop36
280
     0
102
RTVSPost2010PropOp36
 70
     1
102
RTVSPost2010Prop37
 90
       50
102
RTVSPost2010PropOp37
 70
     1
102
RTVSPost2010Prop38
140
0.0
102
RTVSPost2010PropOp38
 70
     1
102
RTVSPost2010Prop39
140
1.0
102
RTVSPost2010PropOp39
 70
     1
102
RTVSPost2010Prop40
 90
        0
102
RTVSPost2010PropOp40
 70
     1
102
RTVSPost2010Prop41ColorIndex
 90
       18
102
RTVSPost2010Prop41ColorRGB
 90
        0
102
RTVSPost2010PropOp41
 70
     1
102
RTVSPost2010Prop42
 90
       50
102
RTVSPost2010PropOp42
 70
     1
102
RTVSPost2010Prop43
 90
        3
102
RTVSPost2010PropOp43
 70
     1
102
RTVSPost2010Prop44ColorIndex
 90
        5
102
RTVSPost2010Prop44ColorRGB
 90
      255
102
RTVSPost2010PropOp44
 70
     1
102
RTVSPost2010Prop45
280
     0
102
RTVSPost2010PropOp45
 70
     1
102
RTVSPost2010Prop46
 90
       50
102
RTVSPost2010PropOp46
 70
     1
102
RTVSPost2010Prop47
 90
       50
102
RTVSPost2010PropOp47
 70
     1
102
RTVSPost2010Prop48
 90
       50
102
RTVSPost2010PropOp48
 70
     1
102
RTVSPost2010Prop49
280
     0
102
RTVSPost2010PropOp49
 70
     1
102
RTVSPost2010Prop50
 90
       50
102
RTVSPost2010PropOp50
 70
     1
102
RTVSPost2010Prop51ColorIndex
 90
      256
102
RTVSPost2010Prop51ColorRGB
 90
-16777216
102
RTVSPost2010PropOp51
 70
     0
102
RTVSPost2010Prop52
140
1.0
102
RTVSPost2010PropOp52
 70
     0
102
RTVSPost2010Prop53
 90
        2
102
RTVSPost2010PropOp53
 70
     1
102
RTVSPost2010Prop54
  1
strokes_ogs.tif
102
RTVSPost2010PropOp54
 70
     1
102
RTVSPost2010Prop55
280
     0
102
RTVSPost2010PropOp55
 70
     1
102
RTVSPost2010Prop56
140
1.0
102
RTVSPost2010PropOp56
 70
     1
102
RTVSPost2010Prop57
140
1.0
102
RTVSPost2010PropOp57
 70
     1
  0
XRECORD
  5
62E
102
{ACAD_REACTORS
330
62D
102
}
330
62D
100
AcDbXrecord
280
     1
102
RTVSPropertyOp0
 70
     0
102
RTVSPropertyOp1
 70
     0
102
RTVSPropertyOp2
 70
     0
102
RTVSPropertyOp3
 70
     0
102
RTVSPropertyOp4
 70
     0
102
RTVSPropertyOp5
 70
     0
102
RTVSPropertyOp6
 70
     0
102
RTVSPropertyOp7
 70
     0
102
RTVSPropertyOp8
 70
     0
102
RTVSPropertyOp9
 70
     0
102
RTVSPropertyOp10
 70
     0
102
RTVSPropertyOp11
 70
     0
102
RTVSPropertyOp12
 70
     0
102
RTVSPropertyOp13
 70
     0
102
RTVSPropertyOp14
 70
     0
102
RTVSPropertyOp15
 70
     0
102
RTVSPropertyOp16
 70
     0
102
RTVSPropertyOp17
 70
     0
102
RTVSPropertyOp18
 70
     0
102
RTVSPropertyOp19
 70
     0
102
RTVSPropertyOp20
 70
     0
102
RTVSPropertyOp21
 70
     0
102
RTVSPropertyOp22
 70
     0
102
RTVSPropertyOp23
 70
     0
102
RTVSPropertyOp24
 70
     0
102
RTVSPropertyOp25
 70
     0
102
RTVSPropertyOp26
 70
     0
102
RTVSPropertyOp27
 70
     0
102
RTVSPropertyOp28
 70
     1
102
RTVSPropertyOp29
 70
     1
102
RTVSPropertyOp30
 70
     1
102
RTVSPropertyOp31
 70
     1
102
RTVSPropertyOp32
 70
     1
102
RTVSPropertyOp33
 70
     1
102
RTVSPropertyOp34
 70
     1
102
RTVSPropertyOp35
 70
     1
102
RTVSPropertyOp36
 70
     1
102
RTVSPropertyOp37
 70
     1
102
RTVSPropertyOp38
 70
     1
102
RTVSPropertyOp39
 70
     1
102
RTVSPropertyOp40
 70
     1
102
RTVSPropertyOp41
 70
     1
102
RTVSPropertyOp42
 70
     1
102
RTVSPropertyOp43
 70
     1
102
RTVSPropertyOp44
 70
     1
102
RTVSPropertyOp45
 70
     1
102
RTVSPropertyOp46
 70
     1
102
RTVSPropertyOp47
 70
     1
102
RTVSPropertyOp48
 70
     1
102
RTVSPropertyOp49
 70
     1
102
RTVSPropertyOp50
 70
     1
102
RTVSPropertyOp51
 70
     0
102
RTVSPropertyOp52
 70
     0
102
RTVSPropertyOp53
 70
     1
102
RTVSPropertyOp54
 70
     1
102
RTVSPropertyOp55
 70
     1
102
RTVSPropertyOp56
 70
     1
102
RTVSPropertyOp57
 70
     1
102
RTVSPost2010Prop28
280
     0
102
RTVSPost2010PropOp28
 70
     1
102
RTVSPost2010Prop29
280
     1
102
RTVSPost2010PropOp29
 70
     1
102
RTVSPost2010Prop30
280
     1
102
RTVSPost2010PropOp30
 70
     1
102
RTVSPost2010Prop31
280
     0
102
RTVSPost2010PropOp31
 70
     1
102
RTVSPost2010Prop32
280
     0
102
RTVSPost2010PropOp32
 70
     1
102
RTVSPost2010Prop33
280
     0
102
RTVSPost2010PropOp33
 70
     1
102
RTVSPost2010Prop34
280
     0
102
RTVSPost2010PropOp34
 70
     1
102
RTVSPost2010Prop35
280
     0
102
RTVSPost2010PropOp35
 70
     1
102
RTVSPost2010Prop36
280
     0
102
RTVSPost2010PropOp36
 70
     1
102
RTVSPost2010Prop37
 90
       50
102
RTVSPost2010PropOp37
 70
     1
102
RTVSPost2010Prop38
140
0.0
102
RTVSPost2010PropOp38
 70
     1
102
RTVSPost2010Prop39
140
1.0
102
RTVSPost2010PropOp39
 70
     1
102
RTVSPost2010Prop40
 90
        0
102
RTVSPost2010PropOp40
 70
     1
102
RTVSPost2010Prop41ColorIndex
 90
       18
102
RTVSPost2010Prop41ColorRGB
 90
        0
102
RTVSPost2010PropOp41
 70
     1
102
RTVSPost2010Prop42
 90
       50
102
RTVSPost2010PropOp42
 70
     1
102
RTVSPost2010Prop43
 90
        3
102
RTVSPost2010PropOp43
 70
     1
102
RTVSPost2010Prop44ColorIndex
 90
        5
102
RTVSPost2010Prop44ColorRGB
 90
      255
102
RTVSPost2010PropOp44
 70
     1
102
RTVSPost2010Prop45
280
     0
102
RTVSPost2010PropOp45
 70
     1
102
RTVSPost2010Prop46
 90
       50
102
RTVSPost2010PropOp46
 70
     1
102
RTVSPost2010Prop47
 90
       50
102
RTVSPost2010PropOp47
 70
     1
102
RTVSPost2010Prop48
 90
       50
102
RTVSPost2010PropOp48
 70
     1
102
RTVSPost2010Prop49
280
     0
102
RTVSPost2010PropOp49
 70
     1
102
RTVSPost2010Prop50
 90
       50
102
RTVSPost2010PropOp50
 70
     1
102
RTVSPost2010Prop51ColorIndex
 90
      256
102
RTVSPost2010Prop51ColorRGB
 90
-16777216
102
RTVSPost2010PropOp51
 70
     0
102
RTVSPost2010Prop52
140
1.0
102
RTVSPost2010PropOp52
 70
     0
102
RTVSPost2010Prop53
 90
        2
102
RTVSPost2010PropOp53
 70
     1
102
RTVSPost2010Prop54
  1
strokes_ogs.tif
102
RTVSPost2010PropOp54
 70
     1
102
RTVSPost2010Prop55
280
     0
102
RTVSPost2010PropOp55
 70
     1
102
RTVSPost2010Prop56
140
1.0
102
RTVSPost2010PropOp56
 70
     1
102
RTVSPost2010Prop57
140
1.0
102
RTVSPost2010PropOp57
 70
     1
  0
XRECORD
  5
628
102
{ACAD_REACTORS
330
627
102
}
330
627
100
AcDbXrecord
280
     1
102
RTVSPropertyOp0
 70
     1
102
RTVSPropertyOp1
 70
     1
102
RTVSPropertyOp2
 70
     1
102
RTVSPropertyOp3
 70
     1
102
RTVSPropertyOp4
 70
     1
102
RTVSPropertyOp5
 70
     1
102
RTVSPropertyOp6
 70
     1
102
RTVSPropertyOp7
 70
     1
102
RTVSPropertyOp8
 70
     1
102
RTVSPropertyOp9
 70
     1
102
RTVSPropertyOp10
 70
     1
102
RTVSPropertyOp11
 70
     1
102
RTVSPropertyOp12
 70
     1
102
RTVSPropertyOp13
 70
     1
102
RTVSPropertyOp14
 70
     1
102
RTVSPropertyOp15
 70
     1
102
RTVSPropertyOp16
 70
     1
102
RTVSPropertyOp17
 70
     1
102
RTVSPropertyOp18
 70
     1
102
RTVSPropertyOp19
 70
     1
102
RTVSPropertyOp20
 70
     1
102
RTVSPropertyOp21
 70
     1
102
RTVSPropertyOp22
 70
     1
102
RTVSPropertyOp23
 70
     1
102
RTVSPropertyOp24
 70
     1
102
RTVSPropertyOp25
 70
     1
102
RTVSPropertyOp26
 70
     1
102
RTVSPropertyOp27
 70
     1
102
RTVSPropertyOp28
 70
     1
102
RTVSPropertyOp29
 70
     1
102
RTVSPropertyOp30
 70
     1
102
RTVSPropertyOp31
 70
     1
102
RTVSPropertyOp32
 70
     1
102
RTVSPropertyOp33
 70
     1
102
RTVSPropertyOp34
 70
     1
102
RTVSPropertyOp35
 70
     1
102
RTVSPropertyOp36
 70
     1
102
RTVSPropertyOp37
 70
     1
102
RTVSPropertyOp38
 70
     1
102
RTVSPropertyOp39
 70
     1
102
RTVSPropertyOp40
 70
     1
102
RTVSPropertyOp41
 70
     1
102
RTVSPropertyOp42
 70
     1
102
RTVSPropertyOp43
 70
     1
102
RTVSPropertyOp44
 70
     1
102
RTVSPropertyOp45
 70
     1
102
RTVSPropertyOp46
 70
     1
102
RTVSPropertyOp47
 70
     1
102
RTVSPropertyOp48
 70
     1
102
RTVSPropertyOp49
 70
     1
102
RTVSPropertyOp50
 70
     1
102
RTVSPropertyOp51
 70
     0
102
RTVSPropertyOp52
 70
     0
102
RTVSPropertyOp53
 70
     1
102
RTVSPropertyOp54
 70
     1
102
RTVSPropertyOp55
 70
     1
102
RTVSPropertyOp56
 70
     1
102
RTVSPropertyOp57
 70
     1
102
RTVSPost2010Prop28
280
     0
102
RTVSPost2010PropOp28
 70
     1
102
RTVSPost2010Prop29
280
     1
102
RTVSPost2010PropOp29
 70
     1
102
RTVSPost2010Prop30
280
     1
102
RTVSPost2010PropOp30
 70
     1
102
RTVSPost2010Prop31
280
     0
102
RTVSPost2010PropOp31
 70
     1
102
RTVSPost2010Prop32
280
     0
102
RTVSPost2010PropOp32
 70
     1
102
RTVSPost2010Prop33
280
     0
102
RTVSPost2010PropOp33
 70
     1
102
RTVSPost2010Prop34
280
     0
102
RTVSPost2010PropOp34
 70
     1
102
RTVSPost2010Prop35
280
     0
102
RTVSPost2010PropOp35
 70
     1
102
RTVSPost2010Prop36
280
     0
102
RTVSPost2010PropOp36
 70
     1
102
RTVSPost2010Prop37
 90
       50
102
RTVSPost2010PropOp37
 70
     1
102
RTVSPost2010Prop38
140
0.0
102
RTVSPost2010PropOp38
 70
     1
102
RTVSPost2010Prop39
140
1.0
102
RTVSPost2010PropOp39
 70
     1
102
RTVSPost2010Prop40
 90
        0
102
RTVSPost2010PropOp40
 70
     1
102
RTVSPost2010Prop41ColorIndex
 90
       18
102
RTVSPost2010Prop41ColorRGB
 90
        0
102
RTVSPost2010PropOp41
 70
     1
102
RTVSPost2010Prop42
 90
       50
102
RTVSPost2010PropOp42
 70
     1
102
RTVSPost2010Prop43
 90
        3
102
RTVSPost2010PropOp43
 70
     1
102
RTVSPost2010Prop44ColorIndex
 90
        5
102
RTVSPost2010Prop44ColorRGB
 90
      255
102
RTVSPost2010PropOp44
 70
     1
102
RTVSPost2010Prop45
280
     0
102
RTVSPost2010PropOp45
 70
     1
102
RTVSPost2010Prop46
 90
       50
102
RTVSPost2010PropOp46
 70
     1
102
RTVSPost2010Prop47
 90
       50
102
RTVSPost2010PropOp47
 70
     1
102
RTVSPost2010Prop48
 90
       50
102
RTVSPost2010PropOp48
 70
     1
102
RTVSPost2010Prop49
280
     0
102
RTVSPost2010PropOp49
 70
     1
102
RTVSPost2010Prop50
 90
       50
102
RTVSPost2010PropOp50
 70
     1
102
RTVSPost2010Prop51ColorIndex
 90
      256
102
RTVSPost2010Prop51ColorRGB
 90
-16777216
102
RTVSPost2010PropOp51
 70
     0
102
RTVSPost2010Prop52
140
1.0
102
RTVSPost2010PropOp52
 70
     0
102
RTVSPost2010Prop53
 90
        2
102
RTVSPost2010PropOp53
 70
     1
102
RTVSPost2010Prop54
  1
strokes_ogs.tif
102
RTVSPost2010PropOp54
 70
     1
102
RTVSPost2010Prop55
280
     0
102
RTVSPost2010PropOp55
 70
     1
102
RTVSPost2010Prop56
140
1.0
102
RTVSPost2010PropOp56
 70
     1
102
RTVSPost2010Prop57
140
1.0
102
RTVSPost2010PropOp57
 70
     1
  0
XRECORD
  5
630
102
{ACAD_REACTORS
330
62F
102
}
330
62F
100
AcDbXrecord
280
     1
102
RTVSPropertyOp0
 70
     0
102
RTVSPropertyOp1
 70
     0
102
RTVSPropertyOp2
 70
     0
102
RTVSPropertyOp3
 70
     0
102
RTVSPropertyOp4
 70
     0
102
RTVSPropertyOp5
 70
     0
102
RTVSPropertyOp6
 70
     0
102
RTVSPropertyOp7
 70
     0
102
RTVSPropertyOp8
 70
     0
102
RTVSPropertyOp9
 70
     0
102
RTVSPropertyOp10
 70
     0
102
RTVSPropertyOp11
 70
     0
102
RTVSPropertyOp12
 70
     0
102
RTVSPropertyOp13
 70
     0
102
RTVSPropertyOp14
 70
     0
102
RTVSPropertyOp15
 70
     0
102
RTVSPropertyOp16
 70
     0
102
RTVSPropertyOp17
 70
     0
102
RTVSPropertyOp18
 70
     0
102
RTVSPropertyOp19
 70
     0
102
RTVSPropertyOp20
 70
     0
102
RTVSPropertyOp21
 70
     0
102
RTVSPropertyOp22
 70
     0
102
RTVSPropertyOp23
 70
     0
102
RTVSPropertyOp24
 70
     0
102
RTVSPropertyOp25
 70
     0
102
RTVSPropertyOp26
 70
     0
102
RTVSPropertyOp27
 70
     0
102
RTVSPropertyOp28
 70
     1
102
RTVSPropertyOp29
 70
     1
102
RTVSPropertyOp30
 70
     1
102
RTVSPropertyOp31
 70
     1
102
RTVSPropertyOp32
 70
     1
102
RTVSPropertyOp33
 70
     1
102
RTVSPropertyOp34
 70
     1
102
RTVSPropertyOp35
 70
     1
102
RTVSPropertyOp36
 70
     1
102
RTVSPropertyOp37
 70
     1
102
RTVSPropertyOp38
 70
     1
102
RTVSPropertyOp39
 70
     1
102
RTVSPropertyOp40
 70
     1
102
RTVSPropertyOp41
 70
     1
102
RTVSPropertyOp42
 70
     1
102
RTVSPropertyOp43
 70
     1
102
RTVSPropertyOp44
 70
     1
102
RTVSPropertyOp45
 70
     1
102
RTVSPropertyOp46
 70
     1
102
RTVSPropertyOp47
 70
     1
102
RTVSPropertyOp48
 70
     1
102
RTVSPropertyOp49
 70
     1
102
RTVSPropertyOp50
 70
     1
102
RTVSPropertyOp51
 70
     0
102
RTVSPropertyOp52
 70
     0
102
RTVSPropertyOp53
 70
     1
102
RTVSPropertyOp54
 70
     1
102
RTVSPropertyOp55
 70
     1
102
RTVSPropertyOp56
 70
     1
102
RTVSPropertyOp57
 70
     1
102
RTVSPost2010Prop28
280
     0
102
RTVSPost2010PropOp28
 70
     1
102
RTVSPost2010Prop29
280
     1
102
RTVSPost2010PropOp29
 70
     1
102
RTVSPost2010Prop30
280
     1
102
RTVSPost2010PropOp30
 70
     1
102
RTVSPost2010Prop31
280
     0
102
RTVSPost2010PropOp31
 70
     1
102
RTVSPost2010Prop32
280
     0
102
RTVSPost2010PropOp32
 70
     1
102
RTVSPost2010Prop33
280
     0
102
RTVSPost2010PropOp33
 70
     1
102
RTVSPost2010Prop34
280
     0
102
RTVSPost2010PropOp34
 70
     1
102
RTVSPost2010Prop35
280
     0
102
RTVSPost2010PropOp35
 70
     1
102
RTVSPost2010Prop36
280
     0
102
RTVSPost2010PropOp36
 70
     1
102
RTVSPost2010Prop37
 90
       50
102
RTVSPost2010PropOp37
 70
     1
102
RTVSPost2010Prop38
140
0.0
102
RTVSPost2010PropOp38
 70
     1
102
RTVSPost2010Prop39
140
1.0
102
RTVSPost2010PropOp39
 70
     1
102
RTVSPost2010Prop40
 90
        0
102
RTVSPost2010PropOp40
 70
     1
102
RTVSPost2010Prop41ColorIndex
 90
       18
102
RTVSPost2010Prop41ColorRGB
 90
        0
102
RTVSPost2010PropOp41
 70
     1
102
RTVSPost2010Prop42
 90
       50
102
RTVSPost2010PropOp42
 70
     1
102
RTVSPost2010Prop43
 90
        3
102
RTVSPost2010PropOp43
 70
     1
102
RTVSPost2010Prop44ColorIndex
 90
        5
102
RTVSPost2010Prop44ColorRGB
 90
      255
102
RTVSPost2010PropOp44
 70
     1
102
RTVSPost2010Prop45
280
     0
102
RTVSPost2010PropOp45
 70
     1
102
RTVSPost2010Prop46
 90
       50
102
RTVSPost2010PropOp46
 70
     1
102
RTVSPost2010Prop47
 90
       50
102
RTVSPost2010PropOp47
 70
     1
102
RTVSPost2010Prop48
 90
       50
102
RTVSPost2010PropOp48
 70
     1
102
RTVSPost2010Prop49
280
     0
102
RTVSPost2010PropOp49
 70
     1
102
RTVSPost2010Prop50
 90
       50
102
RTVSPost2010PropOp50
 70
     1
102
RTVSPost2010Prop51ColorIndex
 90
      256
102
RTVSPost2010Prop51ColorRGB
 90
-16777216
102
RTVSPost2010PropOp51
 70
     0
102
RTVSPost2010Prop52
140
1.0
102
RTVSPost2010PropOp52
 70
     0
102
RTVSPost2010Prop53
 90
        2
102
RTVSPost2010PropOp53
 70
     1
102
RTVSPost2010Prop54
  1
strokes_ogs.tif
102
RTVSPost2010PropOp54
 70
     1
102
RTVSPost2010Prop55
280
     0
102
RTVSPost2010PropOp55
 70
     1
102
RTVSPost2010Prop56
140
1.0
102
RTVSPost2010PropOp56
 70
     1
102
RTVSPost2010Prop57
140
1.0
102
RTVSPost2010PropOp57
 70
     1
  0
XRECORD
  5
60E
102
{ACAD_REACTORS
330
60D
102
}
330
60D
100
AcDbXrecord
280
     1
102
RTVSPropertyOp0
 70
     1
102
RTVSPropertyOp1
 70
     1
102
RTVSPropertyOp2
 70
     1
102
RTVSPropertyOp3
 70
     1
102
RTVSPropertyOp4
 70
     1
102
RTVSPropertyOp5
 70
     1
102
RTVSPropertyOp6
 70
     1
102
RTVSPropertyOp7
 70
     1
102
RTVSPropertyOp8
 70
     1
102
RTVSPropertyOp9
 70
     1
102
RTVSPropertyOp10
 70
     1
102
RTVSPropertyOp11
 70
     1
102
RTVSPropertyOp12
 70
     1
102
RTVSPropertyOp13
 70
     1
102
RTVSPropertyOp14
 70
     1
102
RTVSPropertyOp15
 70
     1
102
RTVSPropertyOp16
 70
     1
102
RTVSPropertyOp17
 70
     1
102
RTVSPropertyOp18
 70
     1
102
RTVSPropertyOp19
 70
     1
102
RTVSPropertyOp20
 70
     1
102
RTVSPropertyOp21
 70
     1
102
RTVSPropertyOp22
 70
     1
102
RTVSPropertyOp23
 70
     1
102
RTVSPropertyOp24
 70
     1
102
RTVSPropertyOp25
 70
     1
102
RTVSPropertyOp26
 70
     1
102
RTVSPropertyOp27
 70
     1
102
RTVSPropertyOp28
 70
     1
102
RTVSPropertyOp29
 70
     1
102
RTVSPropertyOp30
 70
     1
102
RTVSPropertyOp31
 70
     1
102
RTVSPropertyOp32
 70
     1
102
RTVSPropertyOp33
 70
     1
102
RTVSPropertyOp34
 70
     1
102
RTVSPropertyOp35
 70
     1
102
RTVSPropertyOp36
 70
     1
102
RTVSPropertyOp37
 70
     1
102
RTVSPropertyOp38
 70
     1
102
RTVSPropertyOp39
 70
     1
102
RTVSPropertyOp40
 70
     1
102
RTVSPropertyOp41
 70
     1
102
RTVSPropertyOp42
 70
     1
102
RTVSPropertyOp43
 70
     1
102
RTVSPropertyOp44
 70
     1
102
RTVSPropertyOp45
 70
     1
102
RTVSPropertyOp46
 70
     1
102
RTVSPropertyOp47
 70
     1
102
RTVSPropertyOp48
 70
     1
102
RTVSPropertyOp49
 70
     1
102
RTVSPropertyOp50
 70
     1
102
RTVSPropertyOp51
 70
     0
102
RTVSPropertyOp52
 70
     0
102
RTVSPropertyOp53
 70
     1
102
RTVSPropertyOp54
 70
     1
102
RTVSPropertyOp55
 70
     1
102
RTVSPropertyOp56
 70
     1
102
RTVSPropertyOp57
 70
     1
102
RTVSPost2010Prop28
280
     0
102
RTVSPost2010PropOp28
 70
     1
102
RTVSPost2010Prop29
280
     1
102
RTVSPost2010PropOp29
 70
     1
102
RTVSPost2010Prop30
280
     1
102
RTVSPost2010PropOp30
 70
     1
102
RTVSPost2010Prop31
280
     0
102
RTVSPost2010PropOp31
 70
     1
102
RTVSPost2010Prop32
280
     0
102
RTVSPost2010PropOp32
 70
     1
102
RTVSPost2010Prop33
280
     0
102
RTVSPost2010PropOp33
 70
     1
102
RTVSPost2010Prop34
280
     0
102
RTVSPost2010PropOp34
 70
     1
102
RTVSPost2010Prop35
280
     0
102
RTVSPost2010PropOp35
 70
     1
102
RTVSPost2010Prop36
280
     0
102
RTVSPost2010PropOp36
 70
     1
102
RTVSPost2010Prop37
 90
       50
102
RTVSPost2010PropOp37
 70
     1
102
RTVSPost2010Prop38
140
0.0
102
RTVSPost2010PropOp38
 70
     1
102
RTVSPost2010Prop39
140
1.0
102
RTVSPost2010PropOp39
 70
     1
102
RTVSPost2010Prop40
 90
        0
102
RTVSPost2010PropOp40
 70
     1
102
RTVSPost2010Prop41ColorIndex
 90
       18
102
RTVSPost2010Prop41ColorRGB
 90
        0
102
RTVSPost2010PropOp41
 70
     1
102
RTVSPost2010Prop42
 90
       50
102
RTVSPost2010PropOp42
 70
     1
102
RTVSPost2010Prop43
 90
        3
102
RTVSPost2010PropOp43
 70
     1
102
RTVSPost2010Prop44ColorIndex
 90
        5
102
RTVSPost2010Prop44ColorRGB
 90
      255
102
RTVSPost2010PropOp44
 70
     1
102
RTVSPost2010Prop45
280
     0
102
RTVSPost2010PropOp45
 70
     1
102
RTVSPost2010Prop46
 90
       50
102
RTVSPost2010PropOp46
 70
     1
102
RTVSPost2010Prop47
 90
       50
102
RTVSPost2010PropOp47
 70
     1
102
RTVSPost2010Prop48
 90
       50
102
RTVSPost2010PropOp48
 70
     1
102
RTVSPost2010Prop49
280
     0
102
RTVSPost2010PropOp49
 70
     1
102
RTVSPost2010Prop50
 90
       50
102
RTVSPost2010PropOp50
 70
     1
102
RTVSPost2010Prop51ColorIndex
 90
      256
102
RTVSPost2010Prop51ColorRGB
 90
-16777216
102
RTVSPost2010PropOp51
 70
     0
102
RTVSPost2010Prop52
140
1.0
102
RTVSPost2010PropOp52
 70
     0
102
RTVSPost2010Prop53
 90
        2
102
RTVSPost2010PropOp53
 70
     1
102
RTVSPost2010Prop54
  1
strokes_ogs.tif
102
RTVSPost2010PropOp54
 70
     1
102
RTVSPost2010Prop55
280
     0
102
RTVSPost2010PropOp55
 70
     1
102
RTVSPost2010Prop56
140
1.0
102
RTVSPost2010PropOp56
 70
     1
102
RTVSPost2010Prop57
140
1.0
102
RTVSPost2010PropOp57
 70
     1
  0
XRECORD
  5
63C
102
{ACAD_REACTORS
330
63B
102
}
330
63B
100
AcDbXrecord
280
     1
102
RTVSPropertyOp0
 70
     1
102
RTVSPropertyOp1
 70
     1
102
RTVSPropertyOp2
 70
     1
102
RTVSPropertyOp3
 70
     1
102
RTVSPropertyOp4
 70
     1
102
RTVSPropertyOp5
 70
     1
102
RTVSPropertyOp6
 70
     1
102
RTVSPropertyOp7
 70
     1
102
RTVSPropertyOp8
 70
     1
102
RTVSPropertyOp9
 70
     1
102
RTVSPropertyOp10
 70
     1
102
RTVSPropertyOp11
 70
     1
102
RTVSPropertyOp12
 70
     1
102
RTVSPropertyOp13
 70
     1
102
RTVSPropertyOp14
 70
     1
102
RTVSPropertyOp15
 70
     1
102
RTVSPropertyOp16
 70
     1
102
RTVSPropertyOp17
 70
     1
102
RTVSPropertyOp18
 70
     1
102
RTVSPropertyOp19
 70
     1
102
RTVSPropertyOp20
 70
     1
102
RTVSPropertyOp21
 70
     1
102
RTVSPropertyOp22
 70
     1
102
RTVSPropertyOp23
 70
     1
102
RTVSPropertyOp24
 70
     1
102
RTVSPropertyOp25
 70
     1
102
RTVSPropertyOp26
 70
     1
102
RTVSPropertyOp27
 70
     1
102
RTVSPropertyOp28
 70
     1
102
RTVSPropertyOp29
 70
     1
102
RTVSPropertyOp30
 70
     1
102
RTVSPropertyOp31
 70
     1
102
RTVSPropertyOp32
 70
     1
102
RTVSPropertyOp33
 70
     1
102
RTVSPropertyOp34
 70
     1
102
RTVSPropertyOp35
 70
     1
102
RTVSPropertyOp36
 70
     1
102
RTVSPropertyOp37
 70
     1
102
RTVSPropertyOp38
 70
     1
102
RTVSPropertyOp39
 70
     1
102
RTVSPropertyOp40
 70
     1
102
RTVSPropertyOp41
 70
     1
102
RTVSPropertyOp42
 70
     1
102
RTVSPropertyOp43
 70
     1
102
RTVSPropertyOp44
 70
     1
102
RTVSPropertyOp45
 70
     1
102
RTVSPropertyOp46
 70
     1
102
RTVSPropertyOp47
 70
     1
102
RTVSPropertyOp48
 70
     1
102
RTVSPropertyOp49
 70
     1
102
RTVSPropertyOp50
 70
     1
102
RTVSPropertyOp51
 70
     0
102
RTVSPropertyOp52
 70
     0
102
RTVSPropertyOp53
 70
     1
102
RTVSPropertyOp54
 70
     1
102
RTVSPropertyOp55
 70
     1
102
RTVSPropertyOp56
 70
     1
102
RTVSPropertyOp57
 70
     1
102
RTVSPost2010Prop28
280
     0
102
RTVSPost2010PropOp28
 70
     1
102
RTVSPost2010Prop29
280
     1
102
RTVSPost2010PropOp29
 70
     1
102
RTVSPost2010Prop30
280
     1
102
RTVSPost2010PropOp30
 70
     1
102
RTVSPost2010Prop31
280
     0
102
RTVSPost2010PropOp31
 70
     1
102
RTVSPost2010Prop32
280
     0
102
RTVSPost2010PropOp32
 70
     1
102
RTVSPost2010Prop33
280
     0
102
RTVSPost2010PropOp33
 70
     1
102
RTVSPost2010Prop34
280
     0
102
RTVSPost2010PropOp34
 70
     1
102
RTVSPost2010Prop35
280
     0
102
RTVSPost2010PropOp35
 70
     1
102
RTVSPost2010Prop36
280
     0
102
RTVSPost2010PropOp36
 70
     1
102
RTVSPost2010Prop37
 90
       50
102
RTVSPost2010PropOp37
 70
     1
102
RTVSPost2010Prop38
140
0.0
102
RTVSPost2010PropOp38
 70
     1
102
RTVSPost2010Prop39
140
1.0
102
RTVSPost2010PropOp39
 70
     1
102
RTVSPost2010Prop40
 90
        0
102
RTVSPost2010PropOp40
 70
     1
102
RTVSPost2010Prop41ColorIndex
 90
       18
102
RTVSPost2010Prop41ColorRGB
 90
        0
102
RTVSPost2010PropOp41
 70
     1
102
RTVSPost2010Prop42
 90
       50
102
RTVSPost2010PropOp42
 70
     1
102
RTVSPost2010Prop43
 90
        3
102
RTVSPost2010PropOp43
 70
     1
102
RTVSPost2010Prop44ColorIndex
 90
        5
102
RTVSPost2010Prop44ColorRGB
 90
      255
102
RTVSPost2010PropOp44
 70
     1
102
RTVSPost2010Prop45
280
     0
102
RTVSPost2010PropOp45
 70
     1
102
RTVSPost2010Prop46
 90
       50
102
RTVSPost2010PropOp46
 70
     1
102
RTVSPost2010Prop47
 90
       50
102
RTVSPost2010PropOp47
 70
     1
102
RTVSPost2010Prop48
 90
       50
102
RTVSPost2010PropOp48
 70
     1
102
RTVSPost2010Prop49
280
     0
102
RTVSPost2010PropOp49
 70
     1
102
RTVSPost2010Prop50
 90
       50
102
RTVSPost2010PropOp50
 70
     1
102
RTVSPost2010Prop51ColorIndex
 90
      256
102
RTVSPost2010Prop51ColorRGB
 90
-16777216
102
RTVSPost2010PropOp51
 70
     0
102
RTVSPost2010Prop52
140
1.0
102
RTVSPost2010PropOp52
 70
     0
102
RTVSPost2010Prop53
 90
        2
102
RTVSPost2010PropOp53
 70
     1
102
RTVSPost2010Prop54
  1
strokes_ogs.tif
102
RTVSPost2010PropOp54
 70
     1
102
RTVSPost2010Prop55
280
     0
102
RTVSPost2010PropOp55
 70
     1
102
RTVSPost2010Prop56
140
1.0
102
RTVSPost2010PropOp56
 70
     1
102
RTVSPost2010Prop57
140
1.0
102
RTVSPost2010PropOp57
 70
     1
  0
XRECORD
  5
63A
102
{ACAD_REACTORS
330
639
102
}
330
639
100
AcDbXrecord
280
     1
102
RTVSPropertyOp0
 70
     1
102
RTVSPropertyOp1
 70
     1
102
RTVSPropertyOp2
 70
     1
102
RTVSPropertyOp3
 70
     1
102
RTVSPropertyOp4
 70
     1
102
RTVSPropertyOp5
 70
     1
102
RTVSPropertyOp6
 70
     1
102
RTVSPropertyOp7
 70
     1
102
RTVSPropertyOp8
 70
     1
102
RTVSPropertyOp9
 70
     1
102
RTVSPropertyOp10
 70
     1
102
RTVSPropertyOp11
 70
     1
102
RTVSPropertyOp12
 70
     1
102
RTVSPropertyOp13
 70
     1
102
RTVSPropertyOp14
 70
     1
102
RTVSPropertyOp15
 70
     1
102
RTVSPropertyOp16
 70
     1
102
RTVSPropertyOp17
 70
     1
102
RTVSPropertyOp18
 70
     1
102
RTVSPropertyOp19
 70
     1
102
RTVSPropertyOp20
 70
     1
102
RTVSPropertyOp21
 70
     1
102
RTVSPropertyOp22
 70
     1
102
RTVSPropertyOp23
 70
     1
102
RTVSPropertyOp24
 70
     1
102
RTVSPropertyOp25
 70
     1
102
RTVSPropertyOp26
 70
     1
102
RTVSPropertyOp27
 70
     1
102
RTVSPropertyOp28
 70
     1
102
RTVSPropertyOp29
 70
     1
102
RTVSPropertyOp30
 70
     1
102
RTVSPropertyOp31
 70
     1
102
RTVSPropertyOp32
 70
     1
102
RTVSPropertyOp33
 70
     1
102
RTVSPropertyOp34
 70
     1
102
RTVSPropertyOp35
 70
     1
102
RTVSPropertyOp36
 70
     1
102
RTVSPropertyOp37
 70
     1
102
RTVSPropertyOp38
 70
     1
102
RTVSPropertyOp39
 70
     1
102
RTVSPropertyOp40
 70
     1
102
RTVSPropertyOp41
 70
     1
102
RTVSPropertyOp42
 70
     1
102
RTVSPropertyOp43
 70
     1
102
RTVSPropertyOp44
 70
     1
102
RTVSPropertyOp45
 70
     1
102
RTVSPropertyOp46
 70
     1
102
RTVSPropertyOp47
 70
     1
102
RTVSPropertyOp48
 70
     1
102
RTVSPropertyOp49
 70
     1
102
RTVSPropertyOp50
 70
     1
102
RTVSPropertyOp51
 70
     0
102
RTVSPropertyOp52
 70
     0
102
RTVSPropertyOp53
 70
     1
102
RTVSPropertyOp54
 70
     1
102
RTVSPropertyOp55
 70
     1
102
RTVSPropertyOp56
 70
     1
102
RTVSPropertyOp57
 70
     1
102
RTVSPost2010Prop28
280
     0
102
RTVSPost2010PropOp28
 70
     1
102
RTVSPost2010Prop29
280
     1
102
RTVSPost2010PropOp29
 70
     1
102
RTVSPost2010Prop30
280
     1
102
RTVSPost2010PropOp30
 70
     1
102
RTVSPost2010Prop31
280
     0
102
RTVSPost2010PropOp31
 70
     1
102
RTVSPost2010Prop32
280
     0
102
RTVSPost2010PropOp32
 70
     1
102
RTVSPost2010Prop33
280
     0
102
RTVSPost2010PropOp33
 70
     1
102
RTVSPost2010Prop34
280
     0
102
RTVSPost2010PropOp34
 70
     1
102
RTVSPost2010Prop35
280
     0
102
RTVSPost2010PropOp35
 70
     1
102
RTVSPost2010Prop36
280
     0
102
RTVSPost2010PropOp36
 70
     1
102
RTVSPost2010Prop37
 90
       50
102
RTVSPost2010PropOp37
 70
     1
102
RTVSPost2010Prop38
140
0.0
102
RTVSPost2010PropOp38
 70
     1
102
RTVSPost2010Prop39
140
1.0
102
RTVSPost2010PropOp39
 70
     1
102
RTVSPost2010Prop40
 90
        0
102
RTVSPost2010PropOp40
 70
     1
102
RTVSPost2010Prop41ColorIndex
 90
       18
102
RTVSPost2010Prop41ColorRGB
 90
        0
102
RTVSPost2010PropOp41
 70
     1
102
RTVSPost2010Prop42
 90
       50
102
RTVSPost2010PropOp42
 70
     1
102
RTVSPost2010Prop43
 90
        3
102
RTVSPost2010PropOp43
 70
     1
102
RTVSPost2010Prop44ColorIndex
 90
        5
102
RTVSPost2010Prop44ColorRGB
 90
      255
102
RTVSPost2010PropOp44
 70
     1
102
RTVSPost2010Prop45
280
     0
102
RTVSPost2010PropOp45
 70
     1
102
RTVSPost2010Prop46
 90
       50
102
RTVSPost2010PropOp46
 70
     1
102
RTVSPost2010Prop47
 90
       50
102
RTVSPost2010PropOp47
 70
     1
102
RTVSPost2010Prop48
 90
       50
102
RTVSPost2010PropOp48
 70
     1
102
RTVSPost2010Prop49
280
     0
102
RTVSPost2010PropOp49
 70
     1
102
RTVSPost2010Prop50
 90
       50
102
RTVSPost2010PropOp50
 70
     1
102
RTVSPost2010Prop51ColorIndex
 90
      256
102
RTVSPost2010Prop51ColorRGB
 90
-16777216
102
RTVSPost2010PropOp51
 70
     0
102
RTVSPost2010Prop52
140
1.0
102
RTVSPost2010PropOp52
 70
     0
102
RTVSPost2010Prop53
 90
        2
102
RTVSPost2010PropOp53
 70
     1
102
RTVSPost2010Prop54
  1
strokes_ogs.tif
102
RTVSPost2010PropOp54
 70
     1
102
RTVSPost2010Prop55
280
     0
102
RTVSPost2010PropOp55
 70
     1
102
RTVSPost2010Prop56
140
1.0
102
RTVSPost2010PropOp56
 70
     1
102
RTVSPost2010Prop57
140
1.0
102
RTVSPost2010PropOp57
 70
     1
  0
XRECORD
  5
634
102
{ACAD_REACTORS
330
633
102
}
330
633
100
AcDbXrecord
280
     1
102
RTVSPropertyOp0
 70
     1
102
RTVSPropertyOp1
 70
     1
102
RTVSPropertyOp2
 70
     1
102
RTVSPropertyOp3
 70
     1
102
RTVSPropertyOp4
 70
     1
102
RTVSPropertyOp5
 70
     1
102
RTVSPropertyOp6
 70
     1
102
RTVSPropertyOp7
 70
     1
102
RTVSPropertyOp8
 70
     1
102
RTVSPropertyOp9
 70
     1
102
RTVSPropertyOp10
 70
     1
102
RTVSPropertyOp11
 70
     1
102
RTVSPropertyOp12
 70
     1
102
RTVSPropertyOp13
 70
     1
102
RTVSPropertyOp14
 70
     1
102
RTVSPropertyOp15
 70
     1
102
RTVSPropertyOp16
 70
     1
102
RTVSPropertyOp17
 70
     1
102
RTVSPropertyOp18
 70
     1
102
RTVSPropertyOp19
 70
     1
102
RTVSPropertyOp20
 70
     1
102
RTVSPropertyOp21
 70
     1
102
RTVSPropertyOp22
 70
     1
102
RTVSPropertyOp23
 70
     1
102
RTVSPropertyOp24
 70
     1
102
RTVSPropertyOp25
 70
     1
102
RTVSPropertyOp26
 70
     1
102
RTVSPropertyOp27
 70
     1
102
RTVSPropertyOp28
 70
     1
102
RTVSPropertyOp29
 70
     1
102
RTVSPropertyOp30
 70
     1
102
RTVSPropertyOp31
 70
     1
102
RTVSPropertyOp32
 70
     1
102
RTVSPropertyOp33
 70
     1
102
RTVSPropertyOp34
 70
     1
102
RTVSPropertyOp35
 70
     1
102
RTVSPropertyOp36
 70
     1
102
RTVSPropertyOp37
 70
     1
102
RTVSPropertyOp38
 70
     1
102
RTVSPropertyOp39
 70
     1
102
RTVSPropertyOp40
 70
     1
102
RTVSPropertyOp41
 70
     1
102
RTVSPropertyOp42
 70
     1
102
RTVSPropertyOp43
 70
     1
102
RTVSPropertyOp44
 70
     1
102
RTVSPropertyOp45
 70
     1
102
RTVSPropertyOp46
 70
     1
102
RTVSPropertyOp47
 70
     1
102
RTVSPropertyOp48
 70
     1
102
RTVSPropertyOp49
 70
     1
102
RTVSPropertyOp50
 70
     1
102
RTVSPropertyOp51
 70
     0
102
RTVSPropertyOp52
 70
     0
102
RTVSPropertyOp53
 70
     1
102
RTVSPropertyOp54
 70
     1
102
RTVSPropertyOp55
 70
     1
102
RTVSPropertyOp56
 70
     1
102
RTVSPropertyOp57
 70
     1
102
RTVSPost2010Prop28
280
     0
102
RTVSPost2010PropOp28
 70
     1
102
RTVSPost2010Prop29
280
     1
102
RTVSPost2010PropOp29
 70
     1
102
RTVSPost2010Prop30
280
     1
102
RTVSPost2010PropOp30
 70
     1
102
RTVSPost2010Prop31
280
     0
102
RTVSPost2010PropOp31
 70
     1
102
RTVSPost2010Prop32
280
     0
102
RTVSPost2010PropOp32
 70
     1
102
RTVSPost2010Prop33
280
     0
102
RTVSPost2010PropOp33
 70
     1
102
RTVSPost2010Prop34
280
     0
102
RTVSPost2010PropOp34
 70
     1
102
RTVSPost2010Prop35
280
     0
102
RTVSPost2010PropOp35
 70
     1
102
RTVSPost2010Prop36
280
     0
102
RTVSPost2010PropOp36
 70
     1
102
RTVSPost2010Prop37
 90
       50
102
RTVSPost2010PropOp37
 70
     1
102
RTVSPost2010Prop38
140
0.0
102
RTVSPost2010PropOp38
 70
     1
102
RTVSPost2010Prop39
140
1.0
102
RTVSPost2010PropOp39
 70
     1
102
RTVSPost2010Prop40
 90
        0
102
RTVSPost2010PropOp40
 70
     1
102
RTVSPost2010Prop41ColorIndex
 90
       18
102
RTVSPost2010Prop41ColorRGB
 90
        0
102
RTVSPost2010PropOp41
 70
     1
102
RTVSPost2010Prop42
 90
       50
102
RTVSPost2010PropOp42
 70
     1
102
RTVSPost2010Prop43
 90
        3
102
RTVSPost2010PropOp43
 70
     1
102
RTVSPost2010Prop44ColorIndex
 90
        5
102
RTVSPost2010Prop44ColorRGB
 90
      255
102
RTVSPost2010PropOp44
 70
     1
102
RTVSPost2010Prop45
280
     0
102
RTVSPost2010PropOp45
 70
     1
102
RTVSPost2010Prop46
 90
       50
102
RTVSPost2010PropOp46
 70
     1
102
RTVSPost2010Prop47
 90
       50
102
RTVSPost2010PropOp47
 70
     1
102
RTVSPost2010Prop48
 90
       50
102
RTVSPost2010PropOp48
 70
     1
102
RTVSPost2010Prop49
280
     0
102
RTVSPost2010PropOp49
 70
     1
102
RTVSPost2010Prop50
 90
       50
102
RTVSPost2010PropOp50
 70
     1
102
RTVSPost2010Prop51ColorIndex
 90
      256
102
RTVSPost2010Prop51ColorRGB
 90
-16777216
102
RTVSPost2010PropOp51
 70
     0
102
RTVSPost2010Prop52
140
1.0
102
RTVSPost2010PropOp52
 70
     0
102
RTVSPost2010Prop53
 90
        2
102
RTVSPost2010PropOp53
 70
     1
102
RTVSPost2010Prop54
  1
strokes_ogs.tif
102
RTVSPost2010PropOp54
 70
     1
102
RTVSPost2010Prop55
280
     0
102
RTVSPost2010PropOp55
 70
     1
102
RTVSPost2010Prop56
140
1.0
102
RTVSPost2010PropOp56
 70
     1
102
RTVSPost2010Prop57
140
1.0
102
RTVSPost2010PropOp57
 70
     1
  0
XRECORD
  5
636
102
{ACAD_REACTORS
330
635
102
}
330
635
100
AcDbXrecord
280
     1
102
RTVSPropertyOp0
 70
     1
102
RTVSPropertyOp1
 70
     1
102
RTVSPropertyOp2
 70
     1
102
RTVSPropertyOp3
 70
     1
102
RTVSPropertyOp4
 70
     1
102
RTVSPropertyOp5
 70
     1
102
RTVSPropertyOp6
 70
     1
102
RTVSPropertyOp7
 70
     1
102
RTVSPropertyOp8
 70
     1
102
RTVSPropertyOp9
 70
     1
102
RTVSPropertyOp10
 70
     1
102
RTVSPropertyOp11
 70
     1
102
RTVSPropertyOp12
 70
     1
102
RTVSPropertyOp13
 70
     1
102
RTVSPropertyOp14
 70
     1
102
RTVSPropertyOp15
 70
     1
102
RTVSPropertyOp16
 70
     1
102
RTVSPropertyOp17
 70
     1
102
RTVSPropertyOp18
 70
     1
102
RTVSPropertyOp19
 70
     1
102
RTVSPropertyOp20
 70
     1
102
RTVSPropertyOp21
 70
     1
102
RTVSPropertyOp22
 70
     1
102
RTVSPropertyOp23
 70
     1
102
RTVSPropertyOp24
 70
     1
102
RTVSPropertyOp25
 70
     1
102
RTVSPropertyOp26
 70
     1
102
RTVSPropertyOp27
 70
     1
102
RTVSPropertyOp28
 70
     1
102
RTVSPropertyOp29
 70
     1
102
RTVSPropertyOp30
 70
     1
102
RTVSPropertyOp31
 70
     1
102
RTVSPropertyOp32
 70
     1
102
RTVSPropertyOp33
 70
     1
102
RTVSPropertyOp34
 70
     1
102
RTVSPropertyOp35
 70
     1
102
RTVSPropertyOp36
 70
     1
102
RTVSPropertyOp37
 70
     1
102
RTVSPropertyOp38
 70
     1
102
RTVSPropertyOp39
 70
     1
102
RTVSPropertyOp40
 70
     1
102
RTVSPropertyOp41
 70
     1
102
RTVSPropertyOp42
 70
     1
102
RTVSPropertyOp43
 70
     1
102
RTVSPropertyOp44
 70
     1
102
RTVSPropertyOp45
 70
     1
102
RTVSPropertyOp46
 70
     1
102
RTVSPropertyOp47
 70
     1
102
RTVSPropertyOp48
 70
     1
102
RTVSPropertyOp49
 70
     1
102
RTVSPropertyOp50
 70
     1
102
RTVSPropertyOp51
 70
     0
102
RTVSPropertyOp52
 70
     0
102
RTVSPropertyOp53
 70
     1
102
RTVSPropertyOp54
 70
     1
102
RTVSPropertyOp55
 70
     1
102
RTVSPropertyOp56
 70
     1
102
RTVSPropertyOp57
 70
     1
102
RTVSPost2010Prop28
280
     0
102
RTVSPost2010PropOp28
 70
     1
102
RTVSPost2010Prop29
280
     1
102
RTVSPost2010PropOp29
 70
     1
102
RTVSPost2010Prop30
280
     1
102
RTVSPost2010PropOp30
 70
     1
102
RTVSPost2010Prop31
280
     0
102
RTVSPost2010PropOp31
 70
     1
102
RTVSPost2010Prop32
280
     0
102
RTVSPost2010PropOp32
 70
     1
102
RTVSPost2010Prop33
280
     0
102
RTVSPost2010PropOp33
 70
     1
102
RTVSPost2010Prop34
280
     0
102
RTVSPost2010PropOp34
 70
     1
102
RTVSPost2010Prop35
280
     0
102
RTVSPost2010PropOp35
 70
     1
102
RTVSPost2010Prop36
280
     0
102
RTVSPost2010PropOp36
 70
     1
102
RTVSPost2010Prop37
 90
       50
102
RTVSPost2010PropOp37
 70
     1
102
RTVSPost2010Prop38
140
0.0
102
RTVSPost2010PropOp38
 70
     1
102
RTVSPost2010Prop39
140
1.0
102
RTVSPost2010PropOp39
 70
     1
102
RTVSPost2010Prop40
 90
        0
102
RTVSPost2010PropOp40
 70
     1
102
RTVSPost2010Prop41ColorIndex
 90
       18
102
RTVSPost2010Prop41ColorRGB
 90
        0
102
RTVSPost2010PropOp41
 70
     1
102
RTVSPost2010Prop42
 90
       50
102
RTVSPost2010PropOp42
 70
     1
102
RTVSPost2010Prop43
 90
        3
102
RTVSPost2010PropOp43
 70
     1
102
RTVSPost2010Prop44ColorIndex
 90
        5
102
RTVSPost2010Prop44ColorRGB
 90
      255
102
RTVSPost2010PropOp44
 70
     1
102
RTVSPost2010Prop45
280
     0
102
RTVSPost2010PropOp45
 70
     1
102
RTVSPost2010Prop46
 90
       50
102
RTVSPost2010PropOp46
 70
     1
102
RTVSPost2010Prop47
 90
       50
102
RTVSPost2010PropOp47
 70
     1
102
RTVSPost2010Prop48
 90
       50
102
RTVSPost2010PropOp48
 70
     1
102
RTVSPost2010Prop49
280
     0
102
RTVSPost2010PropOp49
 70
     1
102
RTVSPost2010Prop50
 90
       50
102
RTVSPost2010PropOp50
 70
     1
102
RTVSPost2010Prop51ColorIndex
 90
      256
102
RTVSPost2010Prop51ColorRGB
 90
-16777216
102
RTVSPost2010PropOp51
 70
     0
102
RTVSPost2010Prop52
140
1.0
102
RTVSPost2010PropOp52
 70
     0
102
RTVSPost2010Prop53
 90
        2
102
RTVSPost2010PropOp53
 70
     1
102
RTVSPost2010Prop54
  1
strokes_ogs.tif
102
RTVSPost2010PropOp54
 70
     1
102
RTVSPost2010Prop55
280
     0
102
RTVSPost2010PropOp55
 70
     1
102
RTVSPost2010Prop56
140
1.0
102
RTVSPost2010PropOp56
 70
     1
102
RTVSPost2010Prop57
140
1.0
102
RTVSPost2010PropOp57
 70
     1
  0
XRECORD
  5
626
102
{ACAD_REACTORS
330
625
102
}
330
625
100
AcDbXrecord
280
     1
102
RTVSPropertyOp0
 70
     1
102
RTVSPropertyOp1
 70
     1
102
RTVSPropertyOp2
 70
     1
102
RTVSPropertyOp3
 70
     1
102
RTVSPropertyOp4
 70
     1
102
RTVSPropertyOp5
 70
     1
102
RTVSPropertyOp6
 70
     1
102
RTVSPropertyOp7
 70
     1
102
RTVSPropertyOp8
 70
     1
102
RTVSPropertyOp9
 70
     1
102
RTVSPropertyOp10
 70
     1
102
RTVSPropertyOp11
 70
     1
102
RTVSPropertyOp12
 70
     1
102
RTVSPropertyOp13
 70
     1
102
RTVSPropertyOp14
 70
     1
102
RTVSPropertyOp15
 70
     1
102
RTVSPropertyOp16
 70
     1
102
RTVSPropertyOp17
 70
     1
102
RTVSPropertyOp18
 70
     1
102
RTVSPropertyOp19
 70
     1
102
RTVSPropertyOp20
 70
     1
102
RTVSPropertyOp21
 70
     1
102
RTVSPropertyOp22
 70
     1
102
RTVSPropertyOp23
 70
     1
102
RTVSPropertyOp24
 70
     1
102
RTVSPropertyOp25
 70
     1
102
RTVSPropertyOp26
 70
     1
102
RTVSPropertyOp27
 70
     1
102
RTVSPropertyOp28
 70
     1
102
RTVSPropertyOp29
 70
     1
102
RTVSPropertyOp30
 70
     1
102
RTVSPropertyOp31
 70
     1
102
RTVSPropertyOp32
 70
     1
102
RTVSPropertyOp33
 70
     1
102
RTVSPropertyOp34
 70
     1
102
RTVSPropertyOp35
 70
     1
102
RTVSPropertyOp36
 70
     1
102
RTVSPropertyOp37
 70
     1
102
RTVSPropertyOp38
 70
     1
102
RTVSPropertyOp39
 70
     1
102
RTVSPropertyOp40
 70
     1
102
RTVSPropertyOp41
 70
     1
102
RTVSPropertyOp42
 70
     1
102
RTVSPropertyOp43
 70
     1
102
RTVSPropertyOp44
 70
     1
102
RTVSPropertyOp45
 70
     1
102
RTVSPropertyOp46
 70
     1
102
RTVSPropertyOp47
 70
     1
102
RTVSPropertyOp48
 70
     1
102
RTVSPropertyOp49
 70
     1
102
RTVSPropertyOp50
 70
     1
102
RTVSPropertyOp51
 70
     0
102
RTVSPropertyOp52
 70
     0
102
RTVSPropertyOp53
 70
     1
102
RTVSPropertyOp54
 70
     1
102
RTVSPropertyOp55
 70
     1
102
RTVSPropertyOp56
 70
     1
102
RTVSPropertyOp57
 70
     1
102
RTVSPost2010Prop28
280
     0
102
RTVSPost2010PropOp28
 70
     1
102
RTVSPost2010Prop29
280
     1
102
RTVSPost2010PropOp29
 70
     1
102
RTVSPost2010Prop30
280
     1
102
RTVSPost2010PropOp30
 70
     1
102
RTVSPost2010Prop31
280
     0
102
RTVSPost2010PropOp31
 70
     1
102
RTVSPost2010Prop32
280
     0
102
RTVSPost2010PropOp32
 70
     1
102
RTVSPost2010Prop33
280
     0
102
RTVSPost2010PropOp33
 70
     1
102
RTVSPost2010Prop34
280
     0
102
RTVSPost2010PropOp34
 70
     1
102
RTVSPost2010Prop35
280
     0
102
RTVSPost2010PropOp35
 70
     1
102
RTVSPost2010Prop36
280
     0
102
RTVSPost2010PropOp36
 70
     1
102
RTVSPost2010Prop37
 90
       50
102
RTVSPost2010PropOp37
 70
     1
102
RTVSPost2010Prop38
140
0.0
102
RTVSPost2010PropOp38
 70
     1
102
RTVSPost2010Prop39
140
1.0
102
RTVSPost2010PropOp39
 70
     1
102
RTVSPost2010Prop40
 90
        0
102
RTVSPost2010PropOp40
 70
     1
102
RTVSPost2010Prop41ColorIndex
 90
       18
102
RTVSPost2010Prop41ColorRGB
 90
        0
102
RTVSPost2010PropOp41
 70
     1
102
RTVSPost2010Prop42
 90
       50
102
RTVSPost2010PropOp42
 70
     1
102
RTVSPost2010Prop43
 90
        3
102
RTVSPost2010PropOp43
 70
     1
102
RTVSPost2010Prop44ColorIndex
 90
        5
102
RTVSPost2010Prop44ColorRGB
 90
      255
102
RTVSPost2010PropOp44
 70
     1
102
RTVSPost2010Prop45
280
     0
102
RTVSPost2010PropOp45
 70
     1
102
RTVSPost2010Prop46
 90
       50
102
RTVSPost2010PropOp46
 70
     1
102
RTVSPost2010Prop47
 90
       50
102
RTVSPost2010PropOp47
 70
     1
102
RTVSPost2010Prop48
 90
       50
102
RTVSPost2010PropOp48
 70
     1
102
RTVSPost2010Prop49
280
     0
102
RTVSPost2010PropOp49
 70
     1
102
RTVSPost2010Prop50
 90
       50
102
RTVSPost2010PropOp50
 70
     1
102
RTVSPost2010Prop51ColorIndex
 90
      256
102
RTVSPost2010Prop51ColorRGB
 90
-16777216
102
RTVSPost2010PropOp51
 70
     0
102
RTVSPost2010Prop52
140
1.0
102
RTVSPost2010PropOp52
 70
     0
102
RTVSPost2010Prop53
 90
        2
102
RTVSPost2010PropOp53
 70
     1
102
RTVSPost2010Prop54
  1
strokes_ogs.tif
102
RTVSPost2010PropOp54
 70
     1
102
RTVSPost2010Prop55
280
     0
102
RTVSPost2010PropOp55
 70
     1
102
RTVSPost2010Prop56
140
1.0
102
RTVSPost2010PropOp56
 70
     1
102
RTVSPost2010Prop57
140
1.0
102
RTVSPost2010PropOp57
 70
     1
  0
XRECORD
  5
610
102
{ACAD_REACTORS
330
60F
102
}
330
60F
100
AcDbXrecord
280
     1
102
RTVSPropertyOp0
 70
     1
102
RTVSPropertyOp1
 70
     1
102
RTVSPropertyOp2
 70
     1
102
RTVSPropertyOp3
 70
     1
102
RTVSPropertyOp4
 70
     1
102
RTVSPropertyOp5
 70
     1
102
RTVSPropertyOp6
 70
     1
102
RTVSPropertyOp7
 70
     1
102
RTVSPropertyOp8
 70
     1
102
RTVSPropertyOp9
 70
     1
102
RTVSPropertyOp10
 70
     1
102
RTVSPropertyOp11
 70
     1
102
RTVSPropertyOp12
 70
     1
102
RTVSPropertyOp13
 70
     1
102
RTVSPropertyOp14
 70
     1
102
RTVSPropertyOp15
 70
     1
102
RTVSPropertyOp16
 70
     1
102
RTVSPropertyOp17
 70
     1
102
RTVSPropertyOp18
 70
     1
102
RTVSPropertyOp19
 70
     1
102
RTVSPropertyOp20
 70
     1
102
RTVSPropertyOp21
 70
     1
102
RTVSPropertyOp22
 70
     1
102
RTVSPropertyOp23
 70
     1
102
RTVSPropertyOp24
 70
     1
102
RTVSPropertyOp25
 70
     1
102
RTVSPropertyOp26
 70
     1
102
RTVSPropertyOp27
 70
     1
102
RTVSPropertyOp28
 70
     1
102
RTVSPropertyOp29
 70
     1
102
RTVSPropertyOp30
 70
     1
102
RTVSPropertyOp31
 70
     1
102
RTVSPropertyOp32
 70
     1
102
RTVSPropertyOp33
 70
     1
102
RTVSPropertyOp34
 70
     1
102
RTVSPropertyOp35
 70
     1
102
RTVSPropertyOp36
 70
     1
102
RTVSPropertyOp37
 70
     1
102
RTVSPropertyOp38
 70
     1
102
RTVSPropertyOp39
 70
     1
102
RTVSPropertyOp40
 70
     1
102
RTVSPropertyOp41
 70
     1
102
RTVSPropertyOp42
 70
     1
102
RTVSPropertyOp43
 70
     1
102
RTVSPropertyOp44
 70
     1
102
RTVSPropertyOp45
 70
     1
102
RTVSPropertyOp46
 70
     1
102
RTVSPropertyOp47
 70
     1
102
RTVSPropertyOp48
 70
     1
102
RTVSPropertyOp49
 70
     1
102
RTVSPropertyOp50
 70
     1
102
RTVSPropertyOp51
 70
     0
102
RTVSPropertyOp52
 70
     0
102
RTVSPropertyOp53
 70
     1
102
RTVSPropertyOp54
 70
     1
102
RTVSPropertyOp55
 70
     1
102
RTVSPropertyOp56
 70
     1
102
RTVSPropertyOp57
 70
     1
102
RTVSPost2010Prop28
280
     0
102
RTVSPost2010PropOp28
 70
     1
102
RTVSPost2010Prop29
280
     1
102
RTVSPost2010PropOp29
 70
     1
102
RTVSPost2010Prop30
280
     1
102
RTVSPost2010PropOp30
 70
     1
102
RTVSPost2010Prop31
280
     0
102
RTVSPost2010PropOp31
 70
     1
102
RTVSPost2010Prop32
280
     0
102
RTVSPost2010PropOp32
 70
     1
102
RTVSPost2010Prop33
280
     0
102
RTVSPost2010PropOp33
 70
     1
102
RTVSPost2010Prop34
280
     0
102
RTVSPost2010PropOp34
 70
     1
102
RTVSPost2010Prop35
280
     0
102
RTVSPost2010PropOp35
 70
     1
102
RTVSPost2010Prop36
280
     0
102
RTVSPost2010PropOp36
 70
     1
102
RTVSPost2010Prop37
 90
       50
102
RTVSPost2010PropOp37
 70
     1
102
RTVSPost2010Prop38
140
0.0
102
RTVSPost2010PropOp38
 70
     1
102
RTVSPost2010Prop39
140
1.0
102
RTVSPost2010PropOp39
 70
     1
102
RTVSPost2010Prop40
 90
        0
102
RTVSPost2010PropOp40
 70
     1
102
RTVSPost2010Prop41ColorIndex
 90
       18
102
RTVSPost2010Prop41ColorRGB
 90
        0
102
RTVSPost2010PropOp41
 70
     1
102
RTVSPost2010Prop42
 90
       50
102
RTVSPost2010PropOp42
 70
     1
102
RTVSPost2010Prop43
 90
        3
102
RTVSPost2010PropOp43
 70
     1
102
RTVSPost2010Prop44ColorIndex
 90
        5
102
RTVSPost2010Prop44ColorRGB
 90
      255
102
RTVSPost2010PropOp44
 70
     1
102
RTVSPost2010Prop45
280
     0
102
RTVSPost2010PropOp45
 70
     1
102
RTVSPost2010Prop46
 90
       50
102
RTVSPost2010PropOp46
 70
     1
102
RTVSPost2010Prop47
 90
       50
102
RTVSPost2010PropOp47
 70
     1
102
RTVSPost2010Prop48
 90
       50
102
RTVSPost2010PropOp48
 70
     1
102
RTVSPost2010Prop49
280
     0
102
RTVSPost2010PropOp49
 70
     1
102
RTVSPost2010Prop50
 90
       50
102
RTVSPost2010PropOp50
 70
     1
102
RTVSPost2010Prop51ColorIndex
 90
      256
102
RTVSPost2010Prop51ColorRGB
 90
-16777216
102
RTVSPost2010PropOp51
 70
     0
102
RTVSPost2010Prop52
140
1.0
102
RTVSPost2010PropOp52
 70
     0
102
RTVSPost2010Prop53
 90
        2
102
RTVSPost2010PropOp53
 70
     1
102
RTVSPost2010Prop54
  1
strokes_ogs.tif
102
RTVSPost2010PropOp54
 70
     1
102
RTVSPost2010Prop55
280
     0
102
RTVSPost2010PropOp55
 70
     1
102
RTVSPost2010Prop56
140
1.0
102
RTVSPost2010PropOp56
 70
     1
102
RTVSPost2010Prop57
140
1.0
102
RTVSPost2010PropOp57
 70
     1
  0
XRECORD
  5
638
102
{ACAD_REACTORS
330
637
102
}
330
637
100
AcDbXrecord
280
     1
102
RTVSPropertyOp0
 70
     1
102
RTVSPropertyOp1
 70
     1
102
RTVSPropertyOp2
 70
     1
102
RTVSPropertyOp3
 70
     1
102
RTVSPropertyOp4
 70
     1
102
RTVSPropertyOp5
 70
     1
102
RTVSPropertyOp6
 70
     1
102
RTVSPropertyOp7
 70
     1
102
RTVSPropertyOp8
 70
     1
102
RTVSPropertyOp9
 70
     1
102
RTVSPropertyOp10
 70
     1
102
RTVSPropertyOp11
 70
     1
102
RTVSPropertyOp12
 70
     1
102
RTVSPropertyOp13
 70
     1
102
RTVSPropertyOp14
 70
     1
102
RTVSPropertyOp15
 70
     1
102
RTVSPropertyOp16
 70
     1
102
RTVSPropertyOp17
 70
     1
102
RTVSPropertyOp18
 70
     1
102
RTVSPropertyOp19
 70
     1
102
RTVSPropertyOp20
 70
     1
102
RTVSPropertyOp21
 70
     1
102
RTVSPropertyOp22
 70
     1
102
RTVSPropertyOp23
 70
     1
102
RTVSPropertyOp24
 70
     1
102
RTVSPropertyOp25
 70
     1
102
RTVSPropertyOp26
 70
     1
102
RTVSPropertyOp27
 70
     1
102
RTVSPropertyOp28
 70
     1
102
RTVSPropertyOp29
 70
     1
102
RTVSPropertyOp30
 70
     1
102
RTVSPropertyOp31
 70
     1
102
RTVSPropertyOp32
 70
     1
102
RTVSPropertyOp33
 70
     1
102
RTVSPropertyOp34
 70
     1
102
RTVSPropertyOp35
 70
     1
102
RTVSPropertyOp36
 70
     1
102
RTVSPropertyOp37
 70
     1
102
RTVSPropertyOp38
 70
     1
102
RTVSPropertyOp39
 70
     1
102
RTVSPropertyOp40
 70
     1
102
RTVSPropertyOp41
 70
     1
102
RTVSPropertyOp42
 70
     1
102
RTVSPropertyOp43
 70
     1
102
RTVSPropertyOp44
 70
     1
102
RTVSPropertyOp45
 70
     1
102
RTVSPropertyOp46
 70
     1
102
RTVSPropertyOp47
 70
     1
102
RTVSPropertyOp48
 70
     1
102
RTVSPropertyOp49
 70
     1
102
RTVSPropertyOp50
 70
     1
102
RTVSPropertyOp51
 70
     0
102
RTVSPropertyOp52
 70
     0
102
RTVSPropertyOp53
 70
     1
102
RTVSPropertyOp54
 70
     1
102
RTVSPropertyOp55
 70
     1
102
RTVSPropertyOp56
 70
     1
102
RTVSPropertyOp57
 70
     1
102
RTVSPost2010Prop28
280
     0
102
RTVSPost2010PropOp28
 70
     1
102
RTVSPost2010Prop29
280
     1
102
RTVSPost2010PropOp29
 70
     1
102
RTVSPost2010Prop30
280
     1
102
RTVSPost2010PropOp30
 70
     1
102
RTVSPost2010Prop31
280
     0
102
RTVSPost2010PropOp31
 70
     1
102
RTVSPost2010Prop32
280
     0
102
RTVSPost2010PropOp32
 70
     1
102
RTVSPost2010Prop33
280
     0
102
RTVSPost2010PropOp33
 70
     1
102
RTVSPost2010Prop34
280
     0
102
RTVSPost2010PropOp34
 70
     1
102
RTVSPost2010Prop35
280
     0
102
RTVSPost2010PropOp35
 70
     1
102
RTVSPost2010Prop36
280
     0
102
RTVSPost2010PropOp36
 70
     1
102
RTVSPost2010Prop37
 90
       50
102
RTVSPost2010PropOp37
 70
     1
102
RTVSPost2010Prop38
140
0.0
102
RTVSPost2010PropOp38
 70
     1
102
RTVSPost2010Prop39
140
1.0
102
RTVSPost2010PropOp39
 70
     1
102
RTVSPost2010Prop40
 90
        0
102
RTVSPost2010PropOp40
 70
     1
102
RTVSPost2010Prop41ColorIndex
 90
       18
102
RTVSPost2010Prop41ColorRGB
 90
        0
102
RTVSPost2010PropOp41
 70
     1
102
RTVSPost2010Prop42
 90
       50
102
RTVSPost2010PropOp42
 70
     1
102
RTVSPost2010Prop43
 90
        3
102
RTVSPost2010PropOp43
 70
     1
102
RTVSPost2010Prop44ColorIndex
 90
        5
102
RTVSPost2010Prop44ColorRGB
 90
      255
102
RTVSPost2010PropOp44
 70
     1
102
RTVSPost2010Prop45
280
     0
102
RTVSPost2010PropOp45
 70
     1
102
RTVSPost2010Prop46
 90
       50
102
RTVSPost2010PropOp46
 70
     1
102
RTVSPost2010Prop47
 90
       50
102
RTVSPost2010PropOp47
 70
     1
102
RTVSPost2010Prop48
 90
       50
102
RTVSPost2010PropOp48
 70
     1
102
RTVSPost2010Prop49
280
     0
102
RTVSPost2010PropOp49
 70
     1
102
RTVSPost2010Prop50
 90
       50
102
RTVSPost2010PropOp50
 70
     1
102
RTVSPost2010Prop51ColorIndex
 90
      256
102
RTVSPost2010Prop51ColorRGB
 90
-16777216
102
RTVSPost2010PropOp51
 70
     0
102
RTVSPost2010Prop52
140
1.0
102
RTVSPost2010PropOp52
 70
     0
102
RTVSPost2010Prop53
 90
        2
102
RTVSPost2010PropOp53
 70
     1
102
RTVSPost2010Prop54
  1
strokes_ogs.tif
102
RTVSPost2010PropOp54
 70
     1
102
RTVSPost2010Prop55
280
     0
102
RTVSPost2010PropOp55
 70
     1
102
RTVSPost2010Prop56
140
1.0
102
RTVSPost2010PropOp56
 70
     1
102
RTVSPost2010Prop57
140
1.0
102
RTVSPost2010PropOp57
 70
     1
  0
ENDSEC
  0
SECTION
  2
THUMBNAILIMAGE
 90
    16364
310
28000000B4000000550000000100080000000000C43B000000000000000000000001000000010000FFFFFF000000FF0000FFFF0000FF0000FFFF0000FF000000FF00FF000000000080808000C0C0C0000000FF007F7FFF000000A5005252A50000007F003F3F7F0000004C0026264C000000260013132600003FFF007F9FFF
310
000029A5005267A500001F7F003F4F7F0000134C00262F4C000009260013172600007FFF007FBFFF000052A500527CA500003F7F003F5F7F0000264C0026394C0000132600131C260000BFFF007FDFFF00007CA5005291A500005F7F003F6F7F0000394C0026424C00001C26001321260000FFFF007FFFFF0000A5A50052A5
310
A500007F7F003F7F7F00004C4C00264C4C00002626001326260000FFBF007FFFDF0000A57C0052A59100007F5F003F7F6F00004C3900264C420000261C001326210000FF7F007FFFBF0000A5520052A57C00007F3F003F7F5F00004C2600264C39000026130013261C0000FF3F007FFF9F0000A5290052A56700007F1F003F
310
7F4F00004C1300264C2F00002609001326170000FF00007FFF7F0000A5000052A55200007F00003F7F3F00004C0000264C260000260000132613003FFF00009FFF7F0029A5000067A552001F7F00004F7F3F00134C00002F4C260009260000172613007FFF0000BFFF7F0052A500007CA552003F7F00005F7F3F00264C0000
310
394C2600132600001C261300BFFF0000DFFF7F007CA5000091A552005F7F00006F7F3F00394C0000424C26001C26000021261300FFFF0000FFFF7F00A5A50000A5A552007F7F00007F7F3F004C4C00004C4C26002626000026261300FFBF0000FFDF7F00A57C0000A59152007F5F00007F6F3F004C3900004C422600261C00
310
0026211300FF7F0000FFBF7F00A5520000A57C52007F3F00007F5F3F004C2600004C39260026130000261C1300FF3F0000FF9F7F00A5290000A56752007F1F00007F4F3F004C1300004C2F26002609000026171300FF000000FF7F7F00A5000000A55252007F0000007F3F3F004C0000004C2626002600000026131300FF00
310
3F00FF7F9F00A5002900A55267007F001F007F3F4F004C0013004C262F002600090026131700FF007F00FF7FBF00A5005200A5527C007F003F007F3F5F004C0026004C2639002600130026131C00FF00BF00FF7FDF00A5007C00A55291007F005F007F3F6F004C0039004C26420026001C0026132100FF00FF00FF7FFF00A5
310
00A500A552A5007F007F007F3F7F004C004C004C264C002600260026132600BF00FF00DF7FFF007C00A5009152A5005F007F006F3F7F0039004C0042264C001C002600211326007F00FF00BF7FFF005200A5007C52A5003F007F005F3F7F0026004C0039264C00130026001C1326003F00FF009F7FFF002900A5006752A500
310
1F007F004F3F7F0013004C002F264C000900260017132600000000002D2D2D005B5B5B0089898900B7B7B700B3B3B30000000000000000000000000000000000000000000000000000000000000000000000000000000000000000000000000000000000000000000000000000000000000000000000000000000000000000
310
00000000000000000000000000000000000000000000000000000000000000000000000000000000000000000000000000000000000000000000000000000000000000000000000000000000000000000000000000000000000000000000000000000000000000000000000000000000000000000000000000000000000000
310
00000000000000000100000000000000000000000000000000010000000000000000000000000000000000000000000000000000000000010000000000000000000000000000000000000000000000000100000000000000000000000000000000000000000000000000000000000000000000000000000000000000000000
310
00000000000000000000000000000000000000000000000000000000000000000000000000000000000000000000000000000000000000000000000303030303030303030303010303030303030303030300000000000000000002020202000000000000000000000003030303030303030300000000000000000000000000
310
00000303030303030303000000000000000000000000000000000000000000000000000000000000000000000000000000000000000000000000000000000000000000000000000000000000000000000000000000000000000000000000000000000000000000000000000000000000030001000000000000000303030000
310
00000303010303000000000000000000020202020200000000000000000000030000010300000003000000000000000000000100000003030000030100000300000000000000000000000000000000000000000000000000000000000000000000000000000000000000000000000000000000000000000000000000000000
310
00000000000000000000000000000000000000000000000000000000000000000000000000000300010000000003030303030303030300000301030300000000000000000000000000000000000000000000030303000001030000000303030303030303030303040303030303000003010000030000000000000000000000
310
00000000000000000000000000000000000000000000000000000000000000000000000000000000000000000000000000000000000000000000000000000000000000000000000000000000000000000000000000000000000000030301030303030103030303030304010303030103030000000000000000000000000000
310
00000000000000010401010303030303030303030303030303000000030404010000030303030303030300000000000000000000000000000000000000000000000000000000000000000000000000000000000000000000000000000000000000000000000000000000000000000000000000000000000000000000000000
310
00000000000000000000000000000000000000000000030101030300010300010303030000000000000000000000000000000000000000000000000000030303030303030303030000000000000300000000030300000000030000000003000000000000000000000000000000000000000000000000000000000000000000
310
00000000000000000000000000000000000000000000000000000000000000000000000000000000000000000000000000000000000000000000000000000000000000000000000000000301030000030001030000030303030000000000000000000000000000000000000000000000000003030303000000000003000000
310
00000003000000000100000000000300000000030000000000000000000000000000000000000000000000000000000000000000000000000000000000000000000000000000000000000000000000000000000000000000000000000000000000000000000000000000000000000000000000000000000000000000000003
310
03030000000303030303000003010300000000000000000000000000000000000000000000000000030303030000000000030000000000000300000000010000000000030000000003000000000000000000000000000000000000000000000000000000000000000000000000000000000000000000000000000000000000
310
00000000000000000000000000000000000000000000000000000000000000000000000000000000000000000000000000000000030103000003030303030303000003030300000000000000000000000000000000000000000000000303030303000000000003000000000000030000000001000000000003000000000300
310
00000000000000000000000000000000000000000000000000000000000000000000000000000000000000000000000000000000000000000000000000000000000000000000000000000000000000000000000000000000000000000000000000000000000000000003030303030303030103000303030303030000000000
310
00000000000000000000000000000000000003030303030000000000030000000000000300000000010000000000030000000003000000000000000000000000000000000000000000000000000000000000000000000000000000000000000000000000000000000000000000000000000000000000000000000000000000
310
00000000000000000000000000000000000000000000000000000000000000030303030303030001000303000003040300000000000000000000000000000000000000000000000304030303000000000003000000030303030303030303030303030303030300000300000000000000000000000000000000000000000000
310
00000000000000000000000000000000000000000000000000000000000000000000000000000000000000000000000000000000000000000000000000000000000000000000000000000000000000000000000103030301030303010101030301010304030100000000000000000000000000000000000000000000030401
310
01010101010101010101010101010101010101010101010101010101010101010000000000000000000000000000000000000000000000000000000000000000000000000000000000000000000000000000000000000000000000000000000000000000000000000000000000000000000000000000000000000000000000
310
00000000000000000000030303030303030001030303030303010300000000000000000000000000000000000000000000000303030303000000000003000003000003000000000303030000000003000000030300000000000000000000000000000000000000000000000000000000000000000000000000000000000000
310
00000000000000000000000000000000000000000000000000000000000000000000000000000000000000000000000000000000000000000000000000000003030301030300030303000300000303030000000000000000000000000000000000000000000000030303030300000000000300030000030000000303000100
310
03030300000300000003000000000000000000000000000000000000000000000000000000000000000000000000000000000000000000000000000000000000000000000000000000000000000000000000000000000000000000000000000000000000000000000000000000000000000000000301030000030303030303
310
03000301030300000000000000000000000000000000000000000000000303030303000000000003000300030000030300000001000000000300000300000300000000000000000000000000000000000000000000000000000000000000000000000000000000000000000000000000000000000000000000000000000000
310
00000000000000000000000000000000000000000000000000000000000000000000000000000000000303030103000003000100030000030303030300000000000000000000000000000000000000000000000303030303030103030300030003000300000000000100000000000300000300030000000000000000000000
310
00000000000000000000000000000000000000000000000000000000000000000000000000000000000000000000000000000000000000000000000000000000000000000000000000000000000000000000000000000000000000000000030300030301000300010300010303030003030000000000000000000000000000
310
00000000000000000003030303000303000003000303000003000000030303030303000000030000030300000000000000000000000000000000000000000000000000000000000000000000000000000000000000000000000000000000000000000000000000000000000000000000000000000000000000000000000000
310
00000000000000000100000000000000000000000303000003010303030303030401030000030300000000000000000000000000000000000000000000010401010003030103030300030000030000030303030303030303000000030003030000000000000000000000000000000000000000000000000000000000000000
310
00000000000000000000000000000000000000000000000000000000000000000000000000000000000000000000000000000000000000000000000003030300000003030303030303030303030303030301010103030303030303030000000000000000000000000000000000000000000000030303000300010003030003
310
00030000000303000303030300030000000300000300000000000000000000000000000000000000000000000000000000000000000000000000000000000000000000000000000000000000000000000000000000000000000000000000000000000000000000000000000000000000000303030103030301010101030103
310
01010101030303030303030301010101030303030303030303030000000000000000000000000000000003030303010101030101030003000000030003030303030303030000030000030000000000000000000000000000000000000000000000000000000000000000000000000000000000000000000000000000000000
310
00000000000000000000000000000000000000000000000000000000000000000000000000000000030300030303030303030303030000000000000000010000000000000003030000000000000003000000000000000000000000000000000003000300010303030303000300000003030303010003030303000000030003
310
00000000000000000000000000000000000000000000000000000000000000000000000000000000000000000000000000000000000000000000000000000000000000000000000000000000000000000000000000000000000000000000000003030101010101010303010101010101010101010101010101010303010101
310
01010101030100000000000000000000000000000000030000030303000303030103010101030303010101030303030101010301030100000000000000000000000000000000000000000000000000000000000000000000000000000000000000000000000000000000000000000000000000000000000000000000000000
310
00000000000000000000000000000000000000000000030300000000000003030303030303030303010303030303030303030000000000000003000000000000000000000000000000000003030303010303030303000300000003030003030303030303000000030003000000000000000000000000000000000000000000
310
00000000000000000000000000000000000000000000000000000000000000000000000000000000000000000000000000000000000000000000000000000000000000000000000000000003030303030303030303030303000000000001000000000300030303030303030303030300000000000000000000000000000000
310
00000000000100000000030003000000030003030303030303030000030000030000000000000000000000000000000000000000000000000000000000000000000000000000000000000000000000000000000000000000000000000000000000000000000000000000000000000000000000000000000000000000000000
310
00000000000000000000000303030000000000010000000003000300000000000000000000000000000000000000000000000000000000000000000000000003000300000003030003030303000303000003000003000000000000000000000000000000000000000000000000000000000000000000000000000000000000
310
00000000000000000000000000000000000000000000000000000000000000000000000000000000000000000000000000000000000000000000000000000000000303000000000001000000000300030000000000000000000000000000000000000000000000000000000000000000000000000300000303030303030303
310
03030303030303030003030000000000000000000000000000000000000000000000000000000000000000000000000000000000000000000000000000000000000000000000000000000000000000000000000000000000000000000000000000000000000000000000000000000000000000000000030300000000000100
310
00000003000300000000000000000000000000000000000000000000000000000000000000000000000003030000030000000303030303030000000300000303000000000000000000000000000000000000000000000000000000000000000000000000000000000000000000000000000000000000000000000000000000
310
00000000000000000000000000000000000000000000000000000000000000000000000000000000000000000303000000000001000000000300030000000000000000000000000000000000000000000000000000000000000000000000000300030003000000030003030303000003000003000300000000000000000000
310
00000000000000000000000000000000000000000000000000000000000000000000000000000000000000000000000000000000000000000000000000000000000000000000000000000000000000000000000000000000000000000000000000030300000000000100000000030003000000000000000000000000000000
310
00000000000000000000000000000000000000000003000300000303000303030303030003000003000300000000000000000000000000000000000000000000000000000000000000000000000000000000000000000000000000000000000000000000000000000000000000000000000000000000000000000000000000
310
00000000000000000000000000000000000000000000030403010000000001000000000300030000000000000000000000000000000000000000000000000000000000000000000000000300000300000003030303030303030000030000030000000000000000000000000000000000000000000000000000000000000000
310
00000000000000000000000000000000000000000000000000000000000000000000000000000000000000000000000000000000000000000000000000000000000000000000000000000003040300000000000100000000030003000000000000000000000000000000000000000000000000000000000000000000000000
310
00030000030303000000010000000003030000000300000000000000000000000000000000000000000000000000000000000000000000000000000000000000000000000000000000000000000000000000000000000000000000000000000000000000000000000000000000000000000000000000000000000000000000
310
00000303000000000001000000000303030000000000000000000000000000000000000000000000000000000000000000000000000003030303000003030303030303030003030303030000000000000000000000000000000000000000000000000000000000000000000000000000000000000000000000000000000000
310
00000000000000000000000000000000000000000000000000000000000000000000000000000000000000000000000000000000000000000303030303030103030303030000000000000000000000000000000000000000000000000000000000000000000000000000000000000003030303030303030303030000000000
310
00000000000000000000000000000000000000000000000000000000000000000000000000000000000000000000000000000000000000000000000000000000000000000000000000000000000000000000000000000000000000000000000000000000000000000000000000000000000003010300000000000000000000
310
00000000000000000000000000000000000000000000000000000000000000000000000000000000000303030000000000000000000000000000000000000000000000000000000000000000000000000000000000000000000000000000000000000000000000000000000000000000000000000000000000000000000000
310
00000000000000000000000000000000000000000000000000000000000000000000000000000000000000000000000000000000000000000000000000000000000000000000000000000000000000000000000000000000000000000000000000000000000000000000000000000000000000000000000000000000000000
310
00000000000000000000000000000000000000000000000000000000000000000000000000000000000000000000000000000000000000000000000000000000000000000000000000000000000000000000000000000000000000000000000000000000000000000000000000000000000000000000000000000000000000
310
00000000000000000000000000000000000000000000000000000000000000000000000000000000000000000000000000000000000000000000000000000000000000000000000000000000000000000000000000000000000000000000000000000000000000000000000000000000000000000000000000000000000000
310
00000000000000000000000000000000000000000000000000000000000000000000000000000000000000000000000000000000000000000000000000000000000000000000000000000000000000000000000000000000000000000000000000000000000000000000000000000000000000000000000000000000000000
310
00000000000000000000000000000000000000000000000000000000000000000000000000000000000000000000000000000000000000000000000000000000000000000000000000000000000000000000000000000000000000000000000000000000000000000000000000000000000000000000000000000000000000
310
00000000000000000000000000000000000000000000000000000000000000000000000000000000000000000000000000000000000000000000000000000000000000000000000000000000000000000000000000000000000000000000000000000000000000000000000000000000000000000000000000000000000000
310
00000000000000000000000000000000000000000000000000000000000000000000000000000000000000000000000000000000000000000000000000000000000000000000000000000000000000000000000000000000000000000000000000000000000000000000000000000000000000000000000000000000000000
310
00000000000000000000000000000000000000000000000000000000000000000000000000000000000000000000000000000000000000000000000000000000000000000000000000000000000000000000000000000000000000000000000000000000000000000000000000000000000000000000000000000000000000
310
00000000000000000000000000000000000000000000000000000000000000000000000000000000000000000000000000000000000000000000000000000000000000000000000000000000000000000000000000000000000000000000000000000000000000000000000000000000000000000000000000000000000000
310
00000000000000000000000000000000000000000000000000000000000000000000000000000000000000000000000000000000000000000000000000000000000000000000000000000000000000000000000000000000000000000000000000000000000000000000000000000000000000000000000000000000000000
310
00000000000000000000000000000000000000000000000000000000000000000000000000000000000000000000000000000000000000000000000000000000000000000000000000000000000000000000000000000000000000000000000000000000000000000000000000000000000000000000000000000000000000
310
00000000000000000000000000000000000000000000000000000000000000000000000000000000000000000000000000000000000000000000000000000000000000000000000000000000000000000000000000000000000000000000000000000000000000000000000000000000000000000000000000000000000000
310
00000000000000000000000000000000000000000000000000000000000000000000000000000000000000000000000000000000000000000000000000000000000000000000000000000000000000000000000000000000000000000000000000000000000000000000000000000000000000000000000000000000000000
310
00000000000000000000000000000000000000000000000000000000000000000000000000000000000000000000000000000000000000000000000000000000000000000000000000000000000000000000000000000000000000000000000000000000000000000000000000000000000000000000000000000000000000
310
00000000000000000000000000000000000000000000000000000000000000000000000000000000000000000000000000000000000000000000000000000000000000000000000000000000000000000000000000000000000000000000000000000000000000000000000000000000000000000000000000000000000000
310
00000000000000000000000000000000000000000000000000000000000000000000000000000000000000000000000000000000000000000000000000000000000000000000000000000000000000000000000000000000000000000000000000000000000000000000000000000000000000000100000000000000000000
310
00000000000000000000000000000000000000000000000000000000000000000000000000000000000000000000000000000000000000000000000000000000000000000000000000000000000000000000000000000000000000000000000000000000000000000000000000000000000000000000000000000000000000
310
00000000000000000000000000000000000000000000000000000000000000000000030303030303030303030303030000030000000000000000000000000000000000000000000000000000000000000000000000000000000000000000000000000000000000000000000000000000000000000000000000000000000000
310
00000000000000000000000000000000000000000000000000000000000000000000000000000000000000000000000000000000000000000000000000000000000000000000000000000000000000000000000000000003030303030303030303030303030303030000000000000000000000000000000000000000000000
310
00000000000000000000000000000000000000000000000000000000000000000000000000000000000000000000000000000000000000000000000000000000000000000000000000000000000000000000000000000000000000000000000000000000000000000000000000000000000000000000000000000000000000
310
00000000000000000000000000030103030103030303030301030303010300000000000000000000000000000000000000000000000000000000000000000000000000000000000000000000000000000000000000000000000000000000000000000000000000000000000000000000000000000000000000000000000000
310
00000000000000000000000000000000000000000000000000000000000000000000000000000000000000000000000000000000000000000000000000000003030303010303010303030303030103030301030303000000000000000000000000000000000000000000000000000000000000000000000000000000000000
310
00000000000000000000000000000000000000000000000000000000000000000000000000000000000000000000000000000000000000000000000000000000000000000000000000000000000000000000000000000000000000000000000000000000000000000000000000000000000000000300010000000000000000
310
01000000000000000103030000000000000000000000000000000000000000000000000000000000000000000000000000000000000000000000000000000000000000000000000000000000000000000000000000000000000000000000000000000000000000000000000000000000000000000000000000000000000000
310
00000000000000000000000000000000000000000000000000000000000000000000000000030303030303030300000000000000000100000000000000010303000000000000000000000000000000000000000000000000000000000000000000000000000000000000000000000000000000000000000000000000000000
310
00000000000000000000000000000000000000000000000000000000000000000000000000000000000000000000000000000000000000000000000000000000000000000000000000000000000000000000000000000000000003030303030301010101000000000000010000000000000001030300000000000000000000
310
00000000000000000000000000000000000000000000000000000000000000000000000000000000000000000000000000000000000000000000000000000000000000000000000000000000000000000000000000000000000000000000000000000000000000000000000000000000000000000000000000000000000000
310
00000000000000000000000000000001030303030303010101010101010101010101010101010101010303000000000000000000000000000000000000000000000000000000000000000000000000000000000000000000000000000000000000000000000000000000000000000000000000000000000000000000000000
310
00000000000000000000000000000000000000000000000000000000000000000000000000000000000000000000000000000000000000000000000000000000000000000003030303030303030000030000000000010000000003000003030000000000000000000000000000000000000000000000000000000000000000
310
00000000000000000000000000000000000000000000000000000000000000000000000000000000000000000000000000000000000000000000000000000000000000000000000000000000000000000000000000000000000000000000000000000000000000000000000000000000000000000000000000000000000000
310
00000300000300000000000100000000030000030300000000000000000000000000000000000000000000000000000000000000000000000000000000000000000000000000000000000000000000000000000000000000000000000000000000000000000000000000000000000000000000000000000000000000000000
310
00000000000000000000000000000000000000000000000000000000000000000000000000000000000000000000000000000000000000030303030000000000010000000003030303030000000000000000000000000000000000000000000000000000000000000000000000000000000000000000000000000000000000
310
00000000000000000000000000000000000000000000000000000000000000000000000000000000000000000000000000000000000000000000000000000000000000000000000000000000000000000000000000000000000000000000000000000000000000000000000000000303030303030303030303030303030000
310
00000000000000000000000000000000000000000000000000000000000000000000000000000000000000000000000000000000000000000000000000000000000000000000000000000000000000000000000000000000000000000000000000000000000000000000000000000000000000000000000000000000000000
310
00000000000000000000000000000000000000000000000000000000000000000000000303010100000000010000000003000300000000000000000000000000000000000000000000000000000000000000000000000000000000000000000000000000000000000000000000000000000000000000000000000000000000
310
00000000000000000000000000000000000000000000000000000000000000000000000000000000000000000000000000000000000000000000000000000000000000000000000000000000000000000000000000000000030303000000000001000000000300030000000000000000000000000000000000000000000000
310
00000000000000000000000000000000000000000000000000000000000000000000000000000000000000000000000000000000000000000000000000000000000000000000000000000000000000000000000000000000000000000000000000000000000000000000000000000000000000000000000000000000000000
310
00000000000000000000000000000003030000000000010000000003000300000000000000000000000000000000000000000000000000000000000000000000000000000000000000000000000000000000000000000000000000000000000000000000000000000000000000000000000000000000000000000000000000
310
00000000000000000000000000000000000000000000000000000000000000000000000000000000000000000000000000000000000000000000000000000000000000000303000000000001000000000300030000000000000000000000000000000000000000000000000000000000000000000000000000000000000000
310
00000000000000000000000000000000000000000000000000000000000000000000000000000000000000000000000000000000000000000000000000000000000000000000000000000000000000000000000000000000000000000000000000000000000000000000000000000000000000000000000000030300000000
310
00010000000003000300000000000000000000000000000000000000000000000000000000000000000000000000000000000000000000000000000000000000000000000000000000000000000000000000000000000000000000000000000000000000000000000000000000000000000000000000000000000000000000
310
00000000000000000000000000000000000000000000000000000000000000000000000000000000000000000000030301010000000001000000000300030000000000000000000000000000000000000000000000000000000000000000000000000000000000000000000000000000000000000000000000000000000000
310
00000000000000000000000000000000000000000000000000000000000000000000000000000000000000000000000000000000000000000000000000000000000000000000000000000000000000000000000000000000000000000000000000000003030300000000000100000000030003000000000000000000000000
310
00000000000000000000000000000000000000000000000000000000000000000000000000000000000000000000000000000000000000000000000000000000000000000000000000000000000000000000000000000000000000000000000000000000000000000000000000000000000000000000000000000000000000
310
00000000000000000000000000000000000000000000000000030303000000000001000000000300030000000000000000000000000000000000000000000000000000000000000000000000000000000000000000000000000000000000000000000000000000000000000000000000000000000000000000000000000000
310
00000000000000000000000000000000000000000000000000000000000000000000000000000000000000000000000000000000000000000000000000000000000000000303030303030303030303030300000000030300000000030003030303030303030303030000000000000000000000000000000000000000000000
310
00000000000000000000000000000000000000000000000000000000000000000000000000000000000000000000000000000000000000000000000000000000000000000000000000000000000000000000000000000000000000000000000000000000000000000000000000000000000000000000000000030300000000
310
00000300030303000000030303030000000300030003000000000000000300000000000000000000000000000000000000000000000000000000000000000000000000000000000000000000000000000000000000000000000000000000000000000000000000000000000000000000000000000000000000000000000000
310
00000000000000000000000000000000000000000000000000000000000000000000000000000000000000000000000303030303030303030103030301010103030103010101010103010303030303030303030100000000000000000000000000000000000000000000000000000000000000000000000000000000000000
310
00000000000000000000000000000000000000000000000000000000000000000000000000000000000000000000000000000000000000000000000000000000000000000000000000000000000000000000000000000000000000000000000000000000030303030303030303000303030000000303030300000003000300
310
03030303030303030300000000000000000000000000000000000000000000000000000000000000000000000000000000000000000000000000000000000000000000000000000000000000000000000000000000000000000000000000000000000000000000000000000000000000000000000000000000000000000000
310
00000000000000000000000000000000000000000000000000000303030303030303030303030300000000030303000000030003030303030303030303030000000000000000000000000000000000000000000000000000000000000000000000000000000000000000000000000000000000000000000000000000000000
310
00000000000000000000000000000000000000000000000000000000000000000000000000000000000000000000000000000000000000000000000000000000000000000000000000000000000000000000000000000000000303030000000000010000000003000300000000000000000000000000000000000000000000
310
00000000000000000000000000000000000000000000000000000000000000000000000000000000000000000000000000000000000000000000000000000000000000000000000000000000000000000000000000000000000000000000000000000000000000000000000000000000000000000000000000000000000000
310
00000000000000000000000000000003030300000000000100000000030003000000000000000000000000000000000000000000000000000000000000000000000000000000000000000000000000000000000000000000000000000000000000000000000000000000000000000000000000000000000000000000000000
310
00000000000000000000000000000000000000000000000000000000000000000000000000000000000000000000000000000000000000000000000000000000000000000303010100000000010000000003000300000000000000000000000000000000000000000000000000000000000000000000000000000000000000
310
00000000000000000000000000000000000000000000000000000000000000000000000000000000000000000000000000000000000000000000000000000000000000000000000000000000000000000000000000000000000000000000000000000000000000000000000000000000000000000000000003030303000000
310
00000100000000030003030300000000000000000000000000000000000000000000000000000000000000000000000000000000000000000000000000000000000000000000000000000000000000000000000000000000000000000000000000000000000000000000000000000000000000000000000000000000000000
310
00000000000000000000000000000000000000000000000000000000000000000000000000000000000000000303000003030000000000010000000003000300000300000000000000000000000000000000000000000000000000000000000000000000000000000000000000000000000000000000000000000000000000
310
00000000000000000000000000000000000000000000000000000000000000000000000000000000000000000000000000000000000000000000000000000000000000000000000000000000000000000000000000000000000000000000000000030003030303000000000001000000000300030103030000000000000000
310
00000000000000000000000000000000000000000000000000000000000000000000000000000000000000000000000000000000000000000000000000000000000000000000000000000000000000000000000000000000000000000000000000000000000000000000000000000000000000000000000000000000000000
310
00000000000000000000000000000000000000000000000301010303030000000000010000000003000101010100000000000000000000000000000000000000000000000000000000000000000000000000000000000000000000000000000000000000000000000000000000000000000000000000000000000000000000
310
00000000000000000000000000000000000000000000000000000000000000000000000000000000000000000000000000000000000000000000000000000000000000000000000000000000030003030301010000000001000000000300030100030000000000000000000000000000000000000000000000000000000000
310
00000000000000000000000000000000000000000000000000000000000000000000000000000000000000000000000000000000000000000000000000000000000000000000000000000000000000000000000000000000000000000000000000000000000000000000000000000000000000000000000000000000000000
310
00000300000003030303030303030303030303030300000300000000000000000000000000000000000000000000000000000000000000000000000000000000000000000000000000000000000000000000000000000000000000000000000000000000000000000000000000000000000000000000000000000000000000
310
00000000000000000000000000000000000000000000000000000000000000000000000000000000000000000000000000000000000000030303030303030303030303030303030303030303030000000000000000000000000000000000000000000000000000000000000000000000000000000000000000000000000000
310
00000000000000000000000000000000000000000000000000000000000000000000000000000000000000000000000000000000000000000000000000000000000000000000000000000000000000000000000000000000000000000000000000000000000000000000000000000000000000000000000000000000000000
310
00000000000000000000000000000000000000000000000000000000000000000000000000000000000000000000000000000000000000000000000000000000000000000000000000000000000000000000000000000000000000000000000000000000000000000000000000000000000000000000000000000000000000
310
00000000000000000000000000000000000000000000000000000000000000000000000000000000000000000000000000000000000000000000000000000000000000000000000000000000000000000000000000000000000000000000000000000000000000000000000000000000000000000000000000000000000000
310
00000000000000000000000000000000000000000000000000000000000000000000000000000000000000000000000000000000000000000000000000000000000000000000000000000000000000000000000000000000000000000000000000000000000000000000000000000000000000000000000000000000000000
310
000000000000000000000000000000000000000000000000000000000000000000000000000000000000000000000000000000000000000000000000000000000000000000000000000000000000000000000000000000000000000000000000000000000000000000000000
  0
ENDSEC
  0
EOF
