  0
SECTION
  2
HEADER
  9
$ACADVER
  1
AC1015
  9
$ACADMAINTVER
 70
     6
  9
$DWGCODEPAGE
  3
ANSI_932
  9
$INSBASE
 10
987.0415304316334
 20
1111.038562985326
 30
0.0
  9
$EXTMIN
 10
99.12674029839468
 20
353.8703738664901
 30
0.0
  9
$EXTMAX
 10
1009.010363155387
 20
1266.496684343694
 30
0.0
  9
$LIMMIN
 10
0.0
 20
0.0
  9
$LIMMAX
 10
816.5000000000001
 20
565.0
  9
$ORTHOMODE
 70
     1
  9
$REGENMODE
 70
     1
  9
$FILLMODE
 70
     1
  9
$QTEXTMODE
 70
     0
  9
$MIRRTEXT
 70
     1
  9
$LTSCALE
 40
5.0
  9
$ATTMODE
 70
     1
  9
$TEXTSIZE
 40
7.5
  9
$TRACEWID
 40
0.05
  9
$TEXTSTYLE
  7
KANJI
  9
$CLAYER
  8
2
  9
$CELTYPE
  6
BYLAYER
  9
$CECOLOR
 62
   256
  9
$CELTSCALE
 40
1.0
  9
$DISPSILH
 70
     0
  9
$DIMSCALE
 40
3.0
  9
$DIMASZ
 40
2.0
  9
$DIMEXO
 40
0.5
  9
$DIMDLI
 40
0.0
  9
$DIMRND
 40
0.0
  9
$DIMDLE
 40
0.0
  9
$DIMEXE
 40
1.0
  9
$DIMTP
 40
0.0
  9
$DIMTM
 40
0.0
  9
$DIMTXT
 40
3.0
  9
$DIMCEN
 40
0.09
  9
$DIMTSZ
 40
0.0
  9
$DIMTOL
 70
     0
  9
$DIMLIM
 70
     0
  9
$DIMTIH
 70
     0
  9
$DIMTOH
 70
     0
  9
$DIMSE1
 70
     0
  9
$DIMSE2
 70
     0
  9
$DIMTAD
 70
     1
  9
$DIMZIN
 70
     8
  9
$DIMBLK
  1

  9
$DIMASO
 70
     0
  9
$DIMSHO
 70
     0
  9
$DIMPOST
  1

  9
$DIMAPOST
  1

  9
$DIMALT
 70
     0
  9
$DIMALTD
 70
     2
  9
$DIMALTF
 40
25.4
  9
$DIMLFAC
 40
1.0
  9
$DIMTOFL
 70
     1
  9
$DIMTVP
 40
1.0
  9
$DIMTIX
 70
     1
  9
$DIMSOXD
 70
     1
  9
$DIMSAH
 70
     0
  9
$DIMBLK1
  1

  9
$DIMBLK2
  1

  9
$DIMSTYLE
  2
STANDARD
  9
$DIMCLRD
 70
   256
  9
$DIMCLRE
 70
   256
  9
$DIMCLRT
 70
   256
  9
$DIMTFAC
 40
1.0
  9
$DIMGAP
 40
1.0
  9
$DIMJUST
 70
     0
  9
$DIMSD1
 70
     0
  9
$DIMSD2
 70
     0
  9
$DIMTOLJ
 70
     1
  9
$DIMTZIN
 70
     0
  9
$DIMALTZ
 70
     0
  9
$DIMALTTZ
 70
     0
  9
$DIMUPT
 70
     0
  9
$DIMDEC
 70
     1
  9
$DIMTDEC
 70
     4
  9
$DIMALTU
 70
     2
  9
$DIMALTTD
 70
     2
  9
$DIMTXSTY
  7
STANDARD
  9
$DIMAUNIT
 70
     0
  9
$DIMADEC
 70
     0
  9
$DIMALTRND
 40
0.0
  9
$DIMAZIN
 70
     0
  9
$DIMDSEP
 70
    46
  9
$DIMATFIT
 70
     3
  9
$DIMFRAC
 70
     0
  9
$DIMLDRBLK
  1

  9
$DIMLUNIT
 70
     2
  9
$DIMLWD
 70
    -2
  9
$DIMLWE
 70
    -2
  9
$DIMTMOVE
 70
     0
  9
$LUNITS
 70
     2
  9
$LUPREC
 70
     3
  9
$SKETCHINC
 40
0.1
  9
$FILLETRAD
 40
1.0
  9
$AUNITS
 70
     0
  9
$AUPREC
 70
     3
  9
$MENU
  1
C:\R13\WIN\SUPPORT\ACADFULL
  9
$ELEVATION
 40
0.0
  9
$PELEVATION
 40
0.0
  9
$THICKNESS
 40
0.0
  9
$LIMCHECK
 70
     0
  9
$CHAMFERA
 40
0.0
  9
$CHAMFERB
 40
0.0
  9
$CHAMFERC
 40
0.0
  9
$CHAMFERD
 40
0.0
  9
$SKPOLY
 70
     0
  9
$TDCREATE
 40
2449813.131805555
  9
$TDUCREATE
 40
2449812.756805555
  9
$TDUPDATE
 40
2457897.681854699
  9
$TDUUPDATE
 40
2457897.306854699
  9
$TDINDWG
 40
1.6884882523
  9
$TDUSRTIMER
 40
1.6884882523
  9
$USRTIMER
 70
     1
  9
$ANGBASE
 50
0.0
  9
$ANGDIR
 70
     0
  9
$PDMODE
 70
     0
  9
$PDSIZE
 40
0.0
  9
$PLINEWID
 40
0.0
  9
$SPLFRAME
 70
     0
  9
$SPLINETYPE
 70
     6
  9
$SPLINESEGS
 70
     8
  9
$HANDSEED
  5
325
  9
$SURFTAB1
 70
     6
  9
$SURFTAB2
 70
     6
  9
$SURFTYPE
 70
     6
  9
$SURFU
 70
     6
  9
$SURFV
 70
     6
  9
$UCSBASE
  2

  9
$UCSNAME
  2

  9
$UCSORG
 10
0.0
 20
0.0
 30
0.0
  9
$UCSXDIR
 10
1.0
 20
0.0
 30
0.0
  9
$UCSYDIR
 10
0.0
 20
1.0
 30
0.0
  9
$UCSORTHOREF
  2

  9
$UCSORTHOVIEW
 70
     0
  9
$UCSORGTOP
 10
0.0
 20
0.0
 30
0.0
  9
$UCSORGBOTTOM
 10
0.0
 20
0.0
 30
0.0
  9
$UCSORGLEFT
 10
0.0
 20
0.0
 30
0.0
  9
$UCSORGRIGHT
 10
0.0
 20
0.0
 30
0.0
  9
$UCSORGFRONT
 10
0.0
 20
0.0
 30
0.0
  9
$UCSORGBACK
 10
0.0
 20
0.0
 30
0.0
  9
$PUCSBASE
  2

  9
$PUCSNAME
  2

  9
$PUCSORG
 10
0.0
 20
0.0
 30
0.0
  9
$PUCSXDIR
 10
1.0
 20
0.0
 30
0.0
  9
$PUCSYDIR
 10
0.0
 20
1.0
 30
0.0
  9
$PUCSORTHOREF
  2

  9
$PUCSORTHOVIEW
 70
     0
  9
$PUCSORGTOP
 10
0.0
 20
0.0
 30
0.0
  9
$PUCSORGBOTTOM
 10
0.0
 20
0.0
 30
0.0
  9
$PUCSORGLEFT
 10
0.0
 20
0.0
 30
0.0
  9
$PUCSORGRIGHT
 10
0.0
 20
0.0
 30
0.0
  9
$PUCSORGFRONT
 10
0.0
 20
0.0
 30
0.0
  9
$PUCSORGBACK
 10
0.0
 20
0.0
 30
0.0
  9
$USERI1
 70
     0
  9
$USERI2
 70
     0
  9
$USERI3
 70
     0
  9
$USERI4
 70
     0
  9
$USERI5
 70
     0
  9
$USERR1
 40
0.0
  9
$USERR2
 40
0.0
  9
$USERR3
 40
0.0
  9
$USERR4
 40
2448925.372986111
  9
$USERR5
 40
0.04166667
  9
$WORLDVIEW
 70
     1
  9
$SHADEDGE
 70
     3
  9
$SHADEDIF
 70
    70
  9
$TILEMODE
 70
     1
  9
$MAXACTVP
 70
    16
  9
$PINSBASE
 10
0.0
 20
0.0
 30
0.0
  9
$PLIMCHECK
 70
     0
  9
$PEXTMIN
 10
1.000000000000000E+20
 20
1.000000000000000E+20
 30
1.000000000000000E+20
  9
$PEXTMAX
 10
-1.000000000000000E+20
 20
-1.000000000000000E+20
 30
-1.000000000000000E+20
  9
$PLIMMIN
 10
0.0
 20
0.0
  9
$PLIMMAX
 10
12.0
 20
9.0
  9
$UNITMODE
 70
     0
  9
$VISRETAIN
 70
     0
  9
$PLINEGEN
 70
     0
  9
$PSLTSCALE
 70
     0
  9
$TREEDEPTH
 70
  3020
  9
$CMLSTYLE
  2
STANDARD
  9
$CMLJUST
 70
     0
  9
$CMLSCALE
 40
1.0
  9
$PROXYGRAPHICS
 70
     1
  9
$MEASUREMENT
 70
     0
  9
$CELWEIGHT
370
    -1
  9
$ENDCAPS
280
     0
  9
$JOINSTYLE
280
     0
  9
$LWDISPLAY
290
     0
  9
$INSUNITS
 70
     0
  9
$HYPERLINKBASE
  1

  9
$STYLESHEET
  1
monochrome.ctb
  9
$XEDIT
290
     1
  9
$CEPSNTYPE
380
     0
  9
$PSTYLEMODE
290
     1
  9
$FINGERPRINTGUID
  2
{CC6F0F94-EFE3-4AFA-94CD-75FE5F8A39E0}
  9
$VERSIONGUID
  2
{EB7849A9-EC17-4582-91B1-ADD0ADB08FE9}
  9
$EXTNAMES
290
     1
  9
$PSVPSCALE
 40
0.0
  9
$OLESTARTUP
290
     0
  0
ENDSEC
  0
SECTION
  2
CLASSES
  0
CLASS
  1
ACDBDICTIONARYWDFLT
  2
AcDbDictionaryWithDefault
  3
ObjectDBX Classes
 90
        0
280
     0
281
     0
  0
CLASS
  1
MATERIAL
  2
AcDbMaterial
  3
ObjectDBX Classes
 90
     1153
280
     0
281
     0
  0
CLASS
  1
SORTENTSTABLE
  2
AcDbSortentsTable
  3
ObjectDBX Classes
 90
        0
280
     0
281
     0
  0
CLASS
  1
SCALE
  2
AcDbScale
  3
ObjectDBX Classes
 90
     1153
280
     0
281
     0
  0
CLASS
  1
DICTIONARYVAR
  2
AcDbDictionaryVar
  3
ObjectDBX Classes
 90
        0
280
     0
281
     0
  0
CLASS
  1
VISUALSTYLE
  2
AcDbVisualStyle
  3
ObjectDBX Classes
 90
     4095
280
     0
281
     0
  0
CLASS
  1
TABLESTYLE
  2
AcDbTableStyle
  3
ObjectDBX Classes
 90
     4095
280
     0
281
     0
  0
CLASS
  1
MLEADERSTYLE
  2
AcDbMLeaderStyle
  3
ACDB_MLEADERSTYLE_CLASS
 90
     4095
280
     0
281
     0
  0
CLASS
  1
ACDBPLACEHOLDER
  2
AcDbPlaceHolder
  3
ObjectDBX Classes
 90
        0
280
     0
281
     0
  0
CLASS
  1
LAYOUT
  2
AcDbLayout
  3
ObjectDBX Classes
 90
        0
280
     0
281
     0
  0
ENDSEC
  0
SECTION
  2
TABLES
  0
TABLE
  2
VPORT
  5
2D
102
{ACAD_XDICTIONARY
360
2EA
102
}
330
0
100
AcDbSymbolTable
 70
     1
  0
VPORT
  5
33
330
2D
100
AcDbSymbolTableRecord
100
AcDbViewportTableRecord
  2
*ACTIVE
 70
     0
 10
0.0
 20
0.0
 11
1.0
 21
1.0
 12
741.7420187225614
 22
791.7820352727347
 13
0.0
 23
0.0
 14
1.0
 24
1.0
 15
50.0
 25
50.0
 16
0.0
 26
0.0
 36
1.0
 17
0.0
 27
0.0
 37
0.0
 40
1325.281752498051
 41
1.846965699208443
 42
50.0
 43
0.0
 44
0.0
 50
0.0
 51
0.0
 71
     0
 72
  5000
 73
     1
 74
     0
 75
     0
 76
     0
 77
     0
 78
     0
281
     0
 65
     1
110
0.0
120
0.0
130
0.0
111
1.0
121
0.0
131
0.0
112
0.0
122
1.0
132
0.0
 79
     0
146
0.0
1001
ACAD_NAV_VCDISPLAY
1070
     3
  0
ENDTAB
  0
TABLE
  2
LTYPE
  5
D
330
0
100
AcDbSymbolTable
 70
     2
  0
LTYPE
  5
E
330
D
100
AcDbSymbolTableRecord
100
AcDbLinetypeTableRecord
  2
BYBLOCK
 70
     0
  3

 72
    65
 73
     0
 40
0.0
  0
LTYPE
  5
F
330
D
100
AcDbSymbolTableRecord
100
AcDbLinetypeTableRecord
  2
BYLAYER
 70
     0
  3

 72
    65
 73
     0
 40
0.0
  0
LTYPE
  5
C
330
D
100
AcDbSymbolTableRecord
100
AcDbLinetypeTableRecord
  2
CONTINUOUS
 70
     0
  3
Solid line
 72
    65
 73
     0
 40
0.0
  0
LTYPE
  5
72
330
D
100
AcDbSymbolTableRecord
100
AcDbLinetypeTableRecord
  2
CENTER
 70
     0
  3
____ _ ____ _ ____ _ ____ _ ____ _ ____ _ ____
 72
    65
 73
     4
 40
2.0
 49
1.25
 74
     0
 49
-0.25
 74
     0
 49
0.25
 74
     0
 49
-0.25
 74
     0
  0
ENDTAB
  0
TABLE
  2
LAYER
  5
2
102
{ACAD_XDICTIONARY
360
3
102
}
330
0
100
AcDbSymbolTable
 70
     7
  0
LAYER
  5
1D
102
{ACAD_XDICTIONARY
360
1E
102
}
330
2
100
AcDbSymbolTableRecord
100
AcDbLayerTableRecord
  2
0
 70
     0
 62
     7
  6
CONTINUOUS
370
    -3
390
7
  0
LAYER
  5
1
102
{ACAD_XDICTIONARY
360
5
102
}
330
2
100
AcDbSymbolTableRecord
100
AcDbLayerTableRecord
  2
2
 70
     0
 62
     4
  6
CONTINUOUS
370
    -3
390
7
  0
LAYER
  5
6B
102
{ACAD_XDICTIONARY
360
6C
102
}
330
2
100
AcDbSymbolTableRecord
100
AcDbLayerTableRecord
  2
4
 70
     0
 62
     3
  6
CONTINUOUS
370
    -3
390
7
  0
LAYER
  5
6F
102
{ACAD_XDICTIONARY
360
70
102
}
330
2
100
AcDbSymbolTableRecord
100
AcDbLayerTableRecord
  2
L-CENTER
 70
     0
 62
     1
  6
CENTER
370
    -3
390
7
  0
LAYER
  5
A3
330
2
100
AcDbSymbolTableRecord
100
AcDbLayerTableRecord
  2
3
 70
     0
 62
     2
  6
CONTINUOUS
370
    -3
390
7
  0
ENDTAB
  0
TABLE
  2
STYLE
  5
11
330
0
100
AcDbSymbolTable
 70
     2
  0
STYLE
  5
15
330
11
100
AcDbSymbolTableRecord
100
AcDbTextStyleTableRecord
  2
STANDARD
 70
     0
 40
0.0
 41
1.0
 50
0.0
 71
     0
 42
4.5
  3
TXT
  4

  0
STYLE
  5
10
330
11
100
AcDbSymbolTableRecord
100
AcDbTextStyleTableRecord
  2
KANJI
 70
     0
 40
0.0
 41
1.0
 50
0.0
 71
     0
 42
7.5
  3
TXT
  4
BIGFONT
  0
ENDTAB
  0
TABLE
  2
VIEW
  5
2B
330
0
100
AcDbSymbolTable
 70
     0
  0
ENDTAB
  0
TABLE
  2
UCS
  5
2C
330
0
100
AcDbSymbolTable
 70
     0
  0
ENDTAB
  0
TABLE
  2
APPID
  5
26
330
0
100
AcDbSymbolTable
 70
     4
  0
APPID
  5
32
330
26
100
AcDbSymbolTableRecord
100
AcDbRegAppTableRecord
  2
ACAD
 70
     0
  0
APPID
  5
25
330
26
100
AcDbSymbolTableRecord
100
AcDbRegAppTableRecord
  2
ACAD_PSEXT
 70
     0
  0
APPID
  5
34
330
26
100
AcDbSymbolTableRecord
100
AcDbRegAppTableRecord
  2
ACAD_NAV_VCDISPLAY
 70
     0
  0
APPID
  5
2E1
330
26
100
AcDbSymbolTableRecord
100
AcDbRegAppTableRecord
  2
ACAD_MLEADERVER
 70
     0
  0
ENDTAB
  0
TABLE
  2
DIMSTYLE
  5
14
330
0
100
AcDbSymbolTable
 70
     1
100
AcDbDimStyleTable
  0
DIMSTYLE
105
13
330
14
100
AcDbSymbolTableRecord
100
AcDbDimStyleTableRecord
  2
STANDARD
 70
     0
178
     0
340
15
  0
ENDTAB
  0
TABLE
  2
BLOCK_RECORD
  5
18
330
0
100
AcDbSymbolTable
 70
     0
  0
BLOCK_RECORD
  5
19
102
{ACAD_XDICTIONARY
360
1A
102
}
330
18
100
AcDbSymbolTableRecord
100
AcDbBlockTableRecord
  2
*MODEL_SPACE
340
21
  0
BLOCK_RECORD
  5
27
330
18
100
AcDbSymbolTableRecord
100
AcDbBlockTableRecord
  2
*PAPER_SPACE
340
2A
  0
ENDTAB
  0
ENDSEC
  0
SECTION
  2
BLOCKS
  0
BLOCK
  5
1C
330
19
100
AcDbEntity
  8
0
100
AcDbBlockBegin
  2
*MODEL_SPACE
 70
     0
 10
0.0
 20
0.0
 30
0.0
  3
*MODEL_SPACE
  1

  0
ENDBLK
  5
20
330
19
100
AcDbEntity
  8
0
100
AcDbBlockEnd
  0
BLOCK
  5
28
330
27
100
AcDbEntity
 67
     1
  8
0
100
AcDbBlockBegin
  2
*PAPER_SPACE
 70
     0
 10
0.0
 20
0.0
 30
0.0
  3
*PAPER_SPACE
  1

  0
ENDBLK
  5
29
330
27
100
AcDbEntity
 67
     1
  8
0
100
AcDbBlockEnd
  0
ENDSEC
  0
SECTION
  2
ENTITIES
  0
ARC
  5
6A
330
19
100
AcDbEntity
  8
4
100
AcDbCircle
 10
127.8192052983948
 20
587.2725511296462
 30
0.0
 40
18.999999
100
AcDbArc
 50
105.257522999998
 51
74.74247700000197
  0
LINE
  5
6E
330
19
100
AcDbEntity
  8
L-CENTER
 48
3.0
100
AcDbLine
 10
127.8192052983948
 20
615.9650161296463
 30
0.0
 11
127.8192052983948
 21
558.5800861296462
 31
0.0
  0
ARC
  5
73
330
19
100
AcDbEntity
  8
4
100
AcDbCircle
 10
231.3649235800983
 20
487.2723091296464
 30
0.0
 40
148.5
100
AcDbArc
 50
350.1620600000003
 51
9.837939999999621
  0
ARC
  5
74
330
19
100
AcDbEntity
  8
4
100
AcDbCircle
 10
231.3649235800983
 20
487.2723091296464
 30
0.0
 40
150.0
100
AcDbArc
 50
349.7512469999999
 51
10.24875300000003
  0
CIRCLE
  5
75
330
19
100
AcDbEntity
  8
4
100
AcDbCircle
 10
299.8649225800982
 20
487.2723091296464
 30
0.0
 40
14.000001
  0
LINE
  5
76
330
19
100
AcDbEntity
  8
L-CENTER
 48
3.0
100
AcDbLine
 10
299.8649225800982
 20
468.5340745158373
 30
0.0
 11
299.8649225800982
 21
506.0105437434554
 31
0.0
  0
ARC
  5
77
330
19
100
AcDbEntity
  8
4
100
AcDbCircle
 10
468.3649235800983
 20
487.2723091296464
 30
0.0
 40
148.5
100
AcDbArc
 50
170.1620600000004
 51
189.8379399999996
  0
ARC
  5
78
330
19
100
AcDbEntity
  8
4
100
AcDbCircle
 10
468.3649235800983
 20
487.2723091296464
 30
0.0
 40
150.0
100
AcDbArc
 50
169.751247
 51
190.2487529999999
  0
CIRCLE
  5
79
330
19
100
AcDbEntity
  8
4
100
AcDbCircle
 10
299.8649225800982
 20
487.2723091296464
 30
0.0
 40
12.500001
  0
LINE
  5
7A
330
19
100
AcDbEntity
  8
4
100
AcDbLine
 10
310.6903625800983
 20
481.0223071296462
 30
0.0
 11
310.6903625800983
 21
493.5223081296465
 31
0.0
  0
LINE
  5
7B
330
19
100
AcDbEntity
  8
4
100
AcDbLine
 10
289.0397285800982
 20
481.0223071296462
 30
0.0
 11
289.0397285800982
 21
493.5223081296465
 31
0.0
  0
CIRCLE
  5
7C
330
19
100
AcDbEntity
  8
4
100
AcDbCircle
 10
349.8649235800983
 20
487.2723091296464
 30
0.0
 40
78.0
  0
CIRCLE
  5
7D
330
19
100
AcDbEntity
  8
4
100
AcDbCircle
 10
349.8649235800983
 20
487.2723091296464
 30
0.0
 40
66.0
  0
LINE
  5
7E
330
19
100
AcDbEntity
  8
L-CENTER
 48
3.0
100
AcDbLine
 10
349.8649235800983
 20
713.7932175542394
 30
0.0
 11
349.8649235800983
 21
392.7218944306892
 31
0.0
  0
CIRCLE
  5
7F
330
19
100
AcDbEntity
  8
4
100
AcDbCircle
 10
349.8649235800983
 20
487.2723091296464
 30
0.0
 40
80.000001
  0
CIRCLE
  5
80
330
19
100
AcDbEntity
  8
L-CENTER
 48
3.0
100
AcDbCircle
 10
349.8649235800983
 20
487.2723091296464
 30
0.0
 40
72.999999
  0
ARC
  5
81
330
19
100
AcDbEntity
  8
4
100
AcDbCircle
 10
349.8649235800983
 20
487.2723091296464
 30
0.0
 40
82.000008
100
AcDbArc
 50
180.0
 51
221.6579060000037
  0
ARC
  5
82
330
19
100
AcDbEntity
  8
4
100
AcDbCircle
 10
349.8649235800983
 20
487.2723091296464
 30
0.0
 40
82.000008
100
AcDbArc
 50
318.3420939999962
 51
0.0
  0
ARC
  5
83
330
19
100
AcDbEntity
  8
4
100
AcDbCircle
 10
374.7253415800983
 20
462.4118881296465
 30
0.0
 40
3.0
100
AcDbArc
 50
279.8379400000042
 51
350.1620600000002
  0
ARC
  5
84
330
19
100
AcDbEntity
  8
4
100
AcDbCircle
 10
376.0194755800983
 20
461.1177571296464
 30
0.0
 40
3.0
100
AcDbArc
 50
280.2487530000006
 51
349.7512470000005
  0
LINE
  5
85
330
19
100
AcDbEntity
  8
4
100
AcDbLine
 10
454.8649235800983
 20
397.2723091296464
 30
0.0
 11
244.8649235800983
 21
397.2723091296464
 31
0.0
  0
LINE
  5
86
330
19
100
AcDbEntity
  8
L-CENTER
 48
3.0
100
AcDbLine
 10
264.8649245800982
 20
390.2723091296464
 30
0.0
 11
264.8649245800982
 21
424.2723071296462
 31
0.0
  0
LINE
  5
87
330
19
100
AcDbEntity
  8
4
100
AcDbLine
 10
244.8649235800983
 20
397.2723091296464
 30
0.0
 11
244.8649235800983
 21
416.2723081296465
 31
0.0
  0
LINE
  5
88
330
19
100
AcDbEntity
  8
4
100
AcDbLine
 10
299.8649225800982
 20
474.7723081296465
 30
0.0
 11
310.6903625800983
 21
481.0223071296462
 31
0.0
  0
LINE
  5
89
330
19
100
AcDbEntity
  8
4
100
AcDbLine
 10
316.5774065800983
 20
468.1331311296465
 30
0.0
 11
290.1504455800982
 21
471.2488741296463
 31
0.0
  0
LINE
  5
8A
330
19
100
AcDbEntity
  8
L-CENTER
 48
3.0
100
AcDbLine
 10
308.8649885800983
 20
416.2583341296463
 30
0.0
 11
317.864861058122
 21
431.846573055832
 31
0.0
  0
LINE
  5
8B
330
19
100
AcDbEntity
  8
4
100
AcDbLine
 10
284.8649225800982
 20
417.2723071296462
 30
0.0
 11
245.8649225800982
 21
417.2723071296462
 31
0.0
  0
ARC
  5
8C
330
19
100
AcDbEntity
  8
4
100
AcDbCircle
 10
245.8649225800982
 20
416.2723081296465
 30
0.0
 40
0.999999
100
AcDbArc
 50
90.0
 51
180.0
  0
ARC
  5
8D
330
19
100
AcDbEntity
  8
4
100
AcDbCircle
 10
284.8649225800982
 20
429.4449151296465
 30
0.0
 40
5.000013
100
AcDbArc
 50
0.0
 51
41.65885800000436
  0
ARC
  5
8E
330
19
100
AcDbEntity
  8
4
100
AcDbCircle
 10
284.8649225800982
 20
422.2723081296465
 30
0.0
 40
5.000000999999999
100
AcDbArc
 50
270.0
 51
0.0
  0
LINE
  5
8F
330
19
100
AcDbEntity
  8
4
100
AcDbLine
 10
289.8649235800983
 20
422.2723081296465
 30
0.0
 11
289.8649235800983
 21
429.4449151296465
 31
0.0
  0
ARC
  5
90
330
19
100
AcDbEntity
  8
4
100
AcDbCircle
 10
289.7991785800982
 20
468.2695111296464
 30
0.0
 40
3.0
100
AcDbArc
 50
83.27585999999454
 51
197.5556339999983
  0
LINE
  5
91
330
19
100
AcDbEntity
  8
4
100
AcDbLine
 10
289.0397285800982
 20
481.0223071296462
 30
0.0
 11
299.8649225800982
 21
474.7723081296465
 31
0.0
  0
LINE
  5
92
330
19
100
AcDbEntity
  8
4
100
AcDbLine
 10
330.7257485800983
 20
453.9847921296466
 30
0.0
 11
333.8414915800981
 21
427.5578311296465
 31
0.0
  0
LINE
  5
93
330
19
100
AcDbEntity
  8
4
100
AcDbLine
 10
369.0040985800983
 20
453.9847921296466
 30
0.0
 11
365.8883585800984
 21
427.5578311296465
 31
0.0
  0
ARC
  5
94
330
19
100
AcDbEntity
  8
4
100
AcDbCircle
 10
330.8621255800983
 20
427.2065641296463
 30
0.0
 40
3.0
100
AcDbArc
 50
252.4443659999982
 51
6.724139999998882
  0
ARC
  5
95
330
19
100
AcDbEntity
  8
4
100
AcDbCircle
 10
368.8677215800983
 20
427.2065641296463
 30
0.0
 40
3.0
100
AcDbArc
 50
173.2758600000011
 51
287.5556340000017
  0
ARC
  5
96
330
19
100
AcDbEntity
  8
4
100
AcDbCircle
 10
349.8649235800983
 20
605.7723091296464
 30
0.0
 40
148.5
100
AcDbArc
 50
260.1620599999958
 51
279.8379400000042
  0
ARC
  5
97
330
19
100
AcDbEntity
  8
4
100
AcDbCircle
 10
349.8649235800983
 20
605.7723091296464
 30
0.0
 40
150.0
100
AcDbArc
 50
259.7512469999994
 51
280.2487530000006
  0
ARC
  5
98
330
19
100
AcDbEntity
  8
4
100
AcDbCircle
 10
326.7532625800984
 20
453.5164351296462
 30
0.0
 40
3.999999
100
AcDbArc
 50
6.724139999998447
 51
81.36868499999424
  0
ARC
  5
99
330
19
100
AcDbEntity
  8
4
100
AcDbCircle
 10
325.0045055800983
 20
462.4118881296465
 30
0.0
 40
3.0
100
AcDbArc
 50
189.8379399999998
 51
260.1620599999958
  0
ARC
  5
9A
330
19
100
AcDbEntity
  8
4
100
AcDbCircle
 10
316.1090495800981
 20
464.1606451296464
 30
0.0
 40
3.999999
100
AcDbArc
 50
8.631314999998255
 51
83.27585999999418
  0
ARC
  5
9B
330
19
100
AcDbEntity
  8
4
100
AcDbCircle
 10
323.7103715800984
 20
461.1177571296464
 30
0.0
 40
3.0
100
AcDbArc
 50
190.2487529999995
 51
259.7512469999994
  0
ARC
  5
9C
330
19
100
AcDbEntity
  8
4
100
AcDbCircle
 10
372.9765845800982
 20
453.5164351296462
 30
0.0
 40
3.999999
100
AcDbArc
 50
98.63131500000577
 51
173.2758600000016
  0
LINE
  5
9D
330
19
100
AcDbEntity
  8
4
100
AcDbLine
 10
122.8192042983947
 20
609.7725511296462
 30
0.0
 11
132.8192062983947
 21
609.7725511296462
 31
0.0
  0
LINE
  5
9E
330
19
100
AcDbEntity
  8
4
100
AcDbLine
 10
122.8192042983947
 20
601.7725501296463
 30
0.0
 11
132.8192062983947
 21
601.7725501296463
 31
0.0
  0
LINE
  5
9F
330
19
100
AcDbEntity
  8
L-CENTER
 48
3.0
100
AcDbLine
 10
99.12674029839471
 20
587.2725511296462
 30
0.0
 11
156.5116702983949
 21
587.2725511296462
 31
0.0
  0
LINE
  5
A0
330
19
100
AcDbEntity
  8
4
100
AcDbLine
 10
122.8192042983947
 20
609.7725511296462
 30
0.0
 11
122.8192042983947
 21
601.7725501296463
 31
0.0
  0
LINE
  5
A1
330
19
100
AcDbEntity
  8
4
100
AcDbLine
 10
132.8192062983947
 20
609.7725511296462
 30
0.0
 11
132.8192062983947
 21
601.7725501296463
 31
0.0
  0
TEXT
  5
A2
330
19
100
AcDbEntity
  8
3
100
AcDbText
 10
471.9085078030355
 20
353.8703738664901
 30
0.0
 40
9.0
  1
LE2-00
  7
KANJI
 72
     1
 11
495.9085078030355
 21
353.8703738664901
 31
0.0
100
AcDbText
  0
LINE
  5
A4
330
19
100
AcDbEntity
  8
L-CENTER
 48
3.0
100
AcDbLine
 10
434.8649225800982
 20
424.2723071296462
 30
0.0
 11
434.8649225800982
 21
390.2723091296464
 31
0.0
  0
LINE
  5
A5
330
19
100
AcDbEntity
  8
4
100
AcDbLine
 10
454.8649235800983
 20
397.2723091296464
 30
0.0
 11
454.8649235800983
 21
416.2723081296465
 31
0.0
  0
LINE
  5
A6
330
19
100
AcDbEntity
  8
4
100
AcDbLine
 10
414.8649245800984
 20
417.2723071296462
 30
0.0
 11
453.8649245800982
 21
417.2723071296462
 31
0.0
  0
ARC
  5
A7
330
19
100
AcDbEntity
  8
4
100
AcDbCircle
 10
414.8649245800984
 20
422.2723081296465
 30
0.0
 40
5.000000999999999
100
AcDbArc
 50
180.0
 51
270.0
  0
ARC
  5
A8
330
19
100
AcDbEntity
  8
4
100
AcDbCircle
 10
414.8649245800984
 20
429.4449151296465
 30
0.0
 40
5.000013
100
AcDbArc
 50
138.3411419999956
 51
180.0
  0
LINE
  5
A9
330
19
100
AcDbEntity
  8
L-CENTER
 48
3.0
100
AcDbLine
 10
390.8648585800984
 20
416.2583341296463
 30
0.0
 11
381.8649861020746
 21
431.8465730558319
 31
0.0
  0
LINE
  5
AA
330
19
100
AcDbEntity
  8
4
100
AcDbLine
 10
409.8649235800983
 20
429.4449151296465
 30
0.0
 11
409.8649235800983
 21
422.2723081296465
 31
0.0
  0
ARC
  5
AB
330
19
100
AcDbEntity
  8
4
100
AcDbCircle
 10
409.9306685800984
 20
468.2695111296464
 30
0.0
 40
3.0
100
AcDbArc
 50
342.4443660000017
 51
96.72414000000548
  0
ARC
  5
AC
330
19
100
AcDbEntity
  8
4
100
AcDbCircle
 10
383.6207975800983
 20
464.1606451296464
 30
0.0
 40
3.999999
100
AcDbArc
 50
96.72414000000583
 51
171.3686850000017
  0
LINE
  5
AD
330
19
100
AcDbEntity
  8
4
100
AcDbLine
 10
383.1524405800983
 20
468.1331311296465
 30
0.0
 11
409.5794015800984
 21
471.2488741296463
 31
0.0
  0
ARC
  5
AE
330
19
100
AcDbEntity
  8
4
100
AcDbCircle
 10
453.8649245800982
 20
416.2723081296465
 30
0.0
 40
0.999999
100
AcDbArc
 50
0.0
 51
90.0
  0
ARC
  5
AF
330
19
100
AcDbEntity
  8
4
100
AcDbCircle
 10
349.8649235800983
 20
201.2725531296463
 30
0.0
 40
499.999947
100
AcDbArc
 50
83.64640700000233
 51
96.35359299999766
  0
LINE
  5
B0
330
19
100
AcDbEntity
  8
L-CENTER
 48
3.0
100
AcDbLine
 10
432.0081005290402
 20
587.2725511296462
 30
0.0
 11
174.3861695800983
 21
587.2725511296462
 31
0.0
  0
LINE
  5
B1
330
19
100
AcDbEntity
  8
4
100
AcDbLine
 10
435.8649245800982
 20
598.2723091296464
 30
0.0
 11
263.8649225800982
 21
598.2723091296464
 31
0.0
  0
ARC
  5
B2
330
19
100
AcDbEntity
  8
4
100
AcDbCircle
 10
349.8649235800983
 20
269.2723081296465
 30
0.0
 40
299.999943
100
AcDbArc
 50
76.50280999999941
 51
103.4971900000006
  0
ARC
  5
B3
330
19
100
AcDbEntity
  8
4
100
AcDbCircle
 10
374.7253415800983
 20
512.1327271296461
 30
0.0
 40
3.0
100
AcDbArc
 50
9.837939999999772
 51
80.16205999999578
  0
ARC
  5
B4
330
19
100
AcDbEntity
  8
4
100
AcDbCircle
 10
376.0194755800983
 20
513.4268611296463
 30
0.0
 40
3.0
100
AcDbArc
 50
10.24875300000057
 51
79.75124699999942
  0
LINE
  5
B5
330
19
100
AcDbEntity
  8
L-CENTER
 48
3.0
100
AcDbLine
 10
436.1033285800984
 20
487.2723091296464
 30
0.0
 11
263.6265185800983
 21
487.2723091296464
 31
0.0
  0
LINE
  5
B6
330
19
100
AcDbEntity
  8
L-CENTER
 48
3.0
100
AcDbLine
 10
484.9717342384303
 20
563.2723081296465
 30
0.0
 11
256.7730425800983
 21
563.2723081296465
 31
0.0
  0
LINE
  5
B7
330
19
100
AcDbEntity
  8
4
100
AcDbLine
 10
277.8649235800983
 20
629.9998471296462
 30
0.0
 11
271.8649235800983
 21
627.2725531296462
 31
0.0
  0
LINE
  5
B8
330
19
100
AcDbEntity
  8
4
100
AcDbLine
 10
277.8649235800983
 20
598.2723091296464
 30
0.0
 11
277.8649235800983
 21
695.2725511296462
 31
0.0
  0
LINE
  5
B9
330
19
100
AcDbEntity
  8
4
100
AcDbLine
 10
289.8649235800983
 20
695.2725511296462
 30
0.0
 11
289.8649235800983
 21
598.2723091296464
 31
0.0
  0
LINE
  5
BA
330
19
100
AcDbEntity
  8
4
100
AcDbLine
 10
291.8649245800982
 20
598.2723091296464
 30
0.0
 11
291.8649245800982
 21
695.2198651296462
 31
0.0
  0
LINE
  5
BB
330
19
100
AcDbEntity
  8
4
100
AcDbLine
 10
254.8649225800982
 20
609.7725511296462
 30
0.0
 11
179.8649225800982
 21
609.7725511296462
 31
0.0
  0
LINE
  5
BC
330
19
100
AcDbEntity
  8
4
100
AcDbLine
 10
259.8649235800983
 20
606.2725531296462
 30
0.0
 11
180.8649245800982
 21
606.2725531296462
 31
0.0
  0
LINE
  5
BD
330
19
100
AcDbEntity
  8
4
100
AcDbLine
 10
259.8649235800983
 20
568.2725521296463
 30
0.0
 11
180.8649245800982
 21
568.2725521296463
 31
0.0
  0
LINE
  5
BE
330
19
100
AcDbEntity
  8
4
100
AcDbLine
 10
180.8649245800982
 20
606.2725531296462
 30
0.0
 11
180.8649245800982
 21
568.2725521296463
 31
0.0
  0
LINE
  5
BF
330
19
100
AcDbEntity
  8
4
100
AcDbLine
 10
179.8649225800982
 20
609.7725511296462
 30
0.0
 11
179.8649225800982
 21
569.2725511296462
 31
0.0
  0
LINE
  5
C0
330
19
100
AcDbEntity
  8
4
100
AcDbLine
 10
180.8649245800982
 20
568.2725521296463
 30
0.0
 11
179.8649225800982
 21
569.2725511296462
 31
0.0
  0
LINE
  5
C1
330
19
100
AcDbEntity
  8
4
100
AcDbLine
 10
180.8649245800982
 20
606.2725531296462
 30
0.0
 11
179.8649225800982
 21
605.2725511296462
 31
0.0
  0
LINE
  5
C2
330
19
100
AcDbEntity
  8
L-CENTER
 48
3.0
100
AcDbLine
 10
308.8649885800983
 20
558.2862811296466
 30
0.0
 11
317.8648597590839
 21
542.6980444534609
 31
0.0
  0
ARC
  5
C3
330
19
100
AcDbEntity
  8
4
100
AcDbCircle
 10
567.8651675800984
 20
487.2720631296463
 30
0.0
 40
299.99997
100
AcDbArc
 50
166.5028099999972
 51
180.0
  0
LINE
  5
C4
330
19
100
AcDbEntity
  8
4
100
AcDbLine
 10
262.8649235800983
 20
539.7723091296464
 30
0.0
 11
262.8649235800983
 21
586.7723071296462
 31
0.0
  0
LINE
  5
C5
330
19
100
AcDbEntity
  8
4
100
AcDbLine
 10
263.8649225800982
 20
598.2723091296464
 30
0.0
 11
263.8649225800982
 21
528.2723071296462
 31
0.0
  0
LINE
  5
C6
330
19
100
AcDbEntity
  8
4
100
AcDbLine
 10
316.5774065800983
 20
506.4114841296464
 30
0.0
 11
290.1504455800982
 21
503.2957411296463
 31
0.0
  0
LINE
  5
C7
330
19
100
AcDbEntity
  8
4
100
AcDbLine
 10
310.6903625800983
 20
493.5223081296465
 30
0.0
 11
299.8649225800982
 21
499.7723071296462
 31
0.0
  0
ARC
  5
C8
330
19
100
AcDbEntity
  8
4
100
AcDbCircle
 10
289.7991785800982
 20
506.2751071296464
 30
0.0
 40
3.0
100
AcDbArc
 50
162.4443660000017
 51
276.7241400000055
  0
LINE
  5
C9
330
19
100
AcDbEntity
  8
4
100
AcDbLine
 10
299.8649225800982
 20
499.7723071296462
 30
0.0
 11
289.0397285800982
 21
493.5223081296465
 31
0.0
  0
LINE
  5
CA
330
19
100
AcDbEntity
  8
4
100
AcDbLine
 10
262.8649235800983
 20
539.7723091296464
 30
0.0
 11
263.8649225800982
 21
539.7723091296464
 31
0.0
  0
LINE
  5
CB
330
19
100
AcDbEntity
  8
4
100
AcDbLine
 10
263.8649225800982
 20
528.2723071296462
 30
0.0
 11
267.2575085800981
 21
528.2723071296462
 31
0.0
  0
ARC
  5
CC
330
19
100
AcDbEntity
  8
4
100
AcDbCircle
 10
267.2575085800981
 20
525.2723071296462
 30
0.0
 40
3.0
100
AcDbArc
 50
352.7953719999994
 51
90.0
  0
ARC
  5
CD
330
19
100
AcDbEntity
  8
4
100
AcDbCircle
 10
349.8649235800983
 20
368.7723091296464
 30
0.0
 40
150.0
100
AcDbArc
 50
79.75124699999938
 51
100.2487530000006
  0
ARC
  5
CE
330
19
100
AcDbEntity
  8
4
100
AcDbCircle
 10
326.7532625800984
 20
521.0281831296463
 30
0.0
 40
3.999999
100
AcDbArc
 50
278.6313150000058
 51
353.2758600000024
  0
ARC
  5
CF
330
19
100
AcDbEntity
  8
4
100
AcDbCircle
 10
372.9765845800982
 20
521.0281831296463
 30
0.0
 40
3.999999
100
AcDbArc
 50
186.7241399999976
 51
261.3686849999942
  0
ARC
  5
D0
330
19
100
AcDbEntity
  8
4
100
AcDbCircle
 10
349.8649235800983
 20
368.7723091296464
 30
0.0
 40
148.5
100
AcDbArc
 50
80.1620599999958
 51
99.83794000000421
  0
ARC
  5
D1
330
19
100
AcDbEntity
  8
4
100
AcDbCircle
 10
325.0045055800983
 20
512.1327271296461
 30
0.0
 40
3.0
100
AcDbArc
 50
99.83794000000421
 51
170.1620600000002
  0
ARC
  5
D2
330
19
100
AcDbEntity
  8
4
100
AcDbCircle
 10
316.1090495800981
 20
510.3839701296463
 30
0.0
 40
3.999999
100
AcDbArc
 50
276.7241400000058
 51
351.3686850000017
  0
ARC
  5
D3
330
19
100
AcDbEntity
  8
4
100
AcDbCircle
 10
323.7103715800984
 20
513.4268611296463
 30
0.0
 40
3.0
100
AcDbArc
 50
100.2487530000006
 51
169.7512469999994
  0
ARC
  5
D4
330
19
100
AcDbEntity
  8
4
100
AcDbCircle
 10
330.8621255800983
 20
547.3380511296466
 30
0.0
 40
3.0
100
AcDbArc
 50
353.2758600000011
 51
107.555634000002
  0
LINE
  5
D5
330
19
100
AcDbEntity
  8
4
100
AcDbLine
 10
330.7257485800983
 20
520.5598261296461
 30
0.0
 11
333.8414915800981
 21
546.9867841296461
 31
0.0
  0
LINE
  5
D6
330
19
100
AcDbEntity
  8
4
100
AcDbLine
 10
369.0040985800983
 20
520.5598261296461
 30
0.0
 11
365.8883585800984
 21
546.9867841296461
 31
0.0
  0
ARC
  5
D7
330
19
100
AcDbEntity
  8
4
100
AcDbCircle
 10
368.8677215800983
 20
547.3380511296466
 30
0.0
 40
3.0
100
AcDbArc
 50
72.44436599999797
 51
186.7241399999989
  0
LINE
  5
D8
330
19
100
AcDbEntity
  8
4
100
AcDbLine
 10
259.8649235800983
 20
607.2725521296463
 30
0.0
 11
259.8649235800983
 21
567.2725531296462
 31
0.0
  0
ARC
  5
D9
330
19
100
AcDbEntity
  8
4
100
AcDbCircle
 10
281.0128715800984
 20
556.1248471296462
 30
0.0
 40
4.999914
100
AcDbArc
 50
103.4974730000048
 51
166.5025269999993
  0
LINE
  5
DA
330
19
100
AcDbEntity
  8
4
100
AcDbLine
 10
262.8649235800983
 20
586.7723071296462
 30
0.0
 11
263.8649225800982
 21
586.7723071296462
 31
0.0
  0
LINE
  5
DB
330
19
100
AcDbEntity
  8
4
100
AcDbLine
 10
262.8649235800983
 20
567.2725531296462
 30
0.0
 11
259.8649235800983
 21
567.2725531296462
 31
0.0
  0
LINE
  5
DC
330
19
100
AcDbEntity
  8
4
100
AcDbLine
 10
271.8649235800983
 20
598.2723091296464
 30
0.0
 11
271.8649235800983
 21
627.2725531296462
 31
0.0
  0
LINE
  5
DD
330
19
100
AcDbEntity
  8
4
100
AcDbLine
 10
270.8649245800982
 20
607.2725521296463
 30
0.0
 11
259.8649235800983
 21
607.2725521296463
 31
0.0
  0
LINE
  5
DE
330
19
100
AcDbEntity
  8
4
100
AcDbLine
 10
254.8649225800982
 20
609.7725511296462
 30
0.0
 11
254.8649225800982
 21
606.2725531296462
 31
0.0
  0
LINE
  5
DF
330
19
100
AcDbEntity
  8
4
100
AcDbLine
 10
270.8649245800982
 20
598.2723091296464
 30
0.0
 11
270.8649245800982
 21
618.2725531296462
 31
0.0
  0
LINE
  5
E0
330
19
100
AcDbEntity
  8
4
100
AcDbLine
 10
271.8649235800983
 20
618.2725531296462
 30
0.0
 11
270.8649245800982
 21
618.2725531296462
 31
0.0
  0
LINE
  5
E1
330
19
100
AcDbEntity
  8
4
100
AcDbLine
 10
361.3649225800982
 20
702.2725531296467
 30
0.0
 11
361.3649225800982
 21
703.7725531296467
 31
0.0
  0
LINE
  5
E2
330
19
100
AcDbEntity
  8
4
100
AcDbLine
 10
338.3649245800982
 20
702.2725531296467
 30
0.0
 11
338.3649245800982
 21
703.7725531296467
 31
0.0
  0
LINE
  5
E3
330
19
100
AcDbEntity
  8
4
100
AcDbLine
 10
277.8649235800983
 20
695.2725511296462
 30
0.0
 11
289.8649235800983
 21
695.2725511296462
 31
0.0
  0
ARC
  5
E4
330
19
100
AcDbEntity
  8
4
100
AcDbCircle
 10
294.8649245800982
 20
695.2198651296462
 30
0.0
 40
3.0
100
AcDbArc
 50
96.35359299999772
 51
180.0
  0
LINE
  5
E5
330
19
100
AcDbEntity
  8
4
100
AcDbLine
 10
289.8649235800983
 20
695.2725511296462
 30
0.0
 11
291.8649245800982
 21
695.2725511296462
 31
0.0
  0
LINE
  5
E6
330
19
100
AcDbEntity
  8
4
100
AcDbLine
 10
361.3649225800982
 20
702.2725531296467
 30
0.0
 11
338.3649245800982
 21
702.2725531296467
 31
0.0
  0
LINE
  5
E7
330
19
100
AcDbEntity
  8
4
100
AcDbLine
 10
363.8649245800982
 20
702.2725531296467
 30
0.0
 11
335.8649225800982
 21
702.2725531296467
 31
0.0
  0
LINE
  5
E8
330
19
100
AcDbEntity
  8
4
100
AcDbLine
 10
335.8649225800982
 20
701.0765071296466
 30
0.0
 11
335.8649225800982
 21
702.2725531296467
 31
0.0
  0
LINE
  5
E9
330
19
100
AcDbEntity
  8
4
100
AcDbLine
 10
363.8649245800982
 20
701.0765071296466
 30
0.0
 11
363.8649245800982
 21
702.2725531296467
 31
0.0
  0
LINE
  5
EA
330
19
100
AcDbEntity
  8
4
100
AcDbLine
 10
360.6901175800983
 20
709.7725531296467
 30
0.0
 11
339.0394835800982
 21
709.7725531296467
 31
0.0
  0
LINE
  5
EB
330
19
100
AcDbEntity
  8
4
100
AcDbLine
 10
362.3649245800982
 20
705.7725511296462
 30
0.0
 11
337.3649225800982
 21
705.7725511296462
 31
0.0
  0
LINE
  5
EC
330
19
100
AcDbEntity
  8
4
100
AcDbLine
 10
362.3649245800982
 20
703.7725531296467
 30
0.0
 11
337.3649225800982
 21
703.7725531296467
 31
0.0
  0
LINE
  5
ED
330
19
100
AcDbEntity
  8
4
100
AcDbLine
 10
337.3649225800982
 20
703.7725531296467
 30
0.0
 11
337.3649225800982
 21
705.7725511296462
 31
0.0
  0
LINE
  5
EE
330
19
100
AcDbEntity
  8
4
100
AcDbLine
 10
339.0394835800982
 20
705.7725511296462
 30
0.0
 11
339.0394835800982
 21
709.7725531296467
 31
0.0
  0
LINE
  5
EF
330
19
100
AcDbEntity
  8
4
100
AcDbLine
 10
362.3649245800982
 20
703.7725531296467
 30
0.0
 11
362.3649245800982
 21
705.7725511296462
 31
0.0
  0
LINE
  5
F0
330
19
100
AcDbEntity
  8
4
100
AcDbLine
 10
360.6901175800983
 20
705.7725511296462
 30
0.0
 11
360.6901175800983
 21
709.7725531296467
 31
0.0
  0
LINE
  5
F1
330
19
100
AcDbEntity
  8
4
100
AcDbLine
 10
419.8649225800982
 20
630.9090271296466
 30
0.0
 11
427.8649235800983
 21
627.2725531296462
 31
0.0
  0
LINE
  5
F2
330
19
100
AcDbEntity
  8
4
100
AcDbLine
 10
419.8649225800982
 20
694.2725521296461
 30
0.0
 11
419.8649225800982
 21
598.2723091296464
 31
0.0
  0
LINE
  5
F3
330
19
100
AcDbEntity
  8
4
100
AcDbLine
 10
407.8649225800982
 20
695.2198651296462
 30
0.0
 11
407.8649225800982
 21
598.2723091296464
 31
0.0
  0
LINE
  5
F4
330
19
100
AcDbEntity
  8
4
100
AcDbLine
 10
478.8649235800983
 20
554.2723081296465
 30
0.0
 11
479.8649225800982
 21
555.2723071296462
 31
0.0
  0
LINE
  5
F5
330
19
100
AcDbEntity
  8
4
100
AcDbLine
 10
478.8649235800983
 20
572.2723081296465
 30
0.0
 11
478.8649235800983
 21
554.2723081296465
 31
0.0
  0
LINE
  5
F6
330
19
100
AcDbEntity
  8
4
100
AcDbLine
 10
444.8649245800982
 20
573.2723071296462
 30
0.0
 11
444.8649245800982
 21
553.2723091296464
 31
0.0
  0
LINE
  5
F7
330
19
100
AcDbEntity
  8
L-CENTER
 48
3.0
100
AcDbLine
 10
390.8648585800984
 20
558.2862811296466
 30
0.0
 11
381.8649874011125
 21
542.6980444534609
 31
0.0
  0
ARC
  5
F8
330
19
100
AcDbEntity
  8
4
100
AcDbCircle
 10
131.8646795800983
 20
487.2720631296463
 30
0.0
 40
300.000027
100
AcDbArc
 50
0.000047004096946
 51
13.49728000000262
  0
LINE
  5
F9
330
19
100
AcDbEntity
  8
4
100
AcDbLine
 10
436.8649235800983
 20
539.7723091296464
 30
0.0
 11
436.8649235800983
 21
586.7723071296462
 31
0.0
  0
LINE
  5
FA
330
19
100
AcDbEntity
  8
4
100
AcDbLine
 10
435.8649245800982
 20
528.2723071296462
 30
0.0
 11
435.8649245800982
 21
598.2723091296464
 31
0.0
  0
LINE
  5
FB
330
19
100
AcDbEntity
  8
4
100
AcDbLine
 10
478.8649235800983
 20
554.2723081296465
 30
0.0
 11
444.8649245800982
 21
554.2723081296465
 31
0.0
  0
ARC
  5
FC
330
19
100
AcDbEntity
  8
4
100
AcDbCircle
 10
409.9306685800984
 20
506.2751071296464
 30
0.0
 40
3.0
100
AcDbArc
 50
263.2758599999945
 51
17.55563399999829
  0
ARC
  5
FD
330
19
100
AcDbEntity
  8
4
100
AcDbCircle
 10
383.6207975800983
 20
510.3839701296463
 30
0.0
 40
3.999999
100
AcDbArc
 50
188.6313149999982
 51
263.2758599999942
  0
LINE
  5
FE
330
19
100
AcDbEntity
  8
4
100
AcDbLine
 10
383.1524405800983
 20
506.4114841296464
 30
0.0
 11
409.5794015800984
 21
503.2957411296463
 31
0.0
  0
LINE
  5
FF
330
19
100
AcDbEntity
  8
4
100
AcDbLine
 10
444.8649245800982
 20
553.2723091296464
 30
0.0
 11
436.8649235800983
 21
553.2723091296464
 31
0.0
  0
LINE
  5
100
330
19
100
AcDbEntity
  8
4
100
AcDbLine
 10
436.8649235800983
 20
539.7723091296464
 30
0.0
 11
435.8649245800982
 21
539.7723091296464
 31
0.0
  0
ARC
  5
101
330
19
100
AcDbEntity
  8
4
100
AcDbCircle
 10
432.4723955800982
 20
525.2723071296462
 30
0.0
 40
3.0
100
AcDbArc
 50
90.0
 51
187.2046260000008
  0
LINE
  5
102
330
19
100
AcDbEntity
  8
4
100
AcDbLine
 10
432.4723955800982
 20
528.2723071296462
 30
0.0
 11
435.8649245800982
 21
528.2723071296462
 31
0.0
  0
LINE
  5
103
330
19
100
AcDbEntity
  8
4
100
AcDbLine
 10
478.8649235800983
 20
572.2723081296465
 30
0.0
 11
444.8649245800982
 21
572.2723081296465
 31
0.0
  0
LINE
  5
104
330
19
100
AcDbEntity
  8
4
100
AcDbLine
 10
436.8649235800983
 20
586.7723071296462
 30
0.0
 11
435.8649245800982
 21
586.7723071296462
 31
0.0
  0
LINE
  5
105
330
19
100
AcDbEntity
  8
4
100
AcDbLine
 10
444.8649245800982
 20
573.2723071296462
 30
0.0
 11
436.8649235800983
 21
573.2723071296462
 31
0.0
  0
ARC
  5
106
330
19
100
AcDbEntity
  8
4
100
AcDbCircle
 10
418.7169755800983
 20
556.1248471296462
 30
0.0
 40
4.999914
100
AcDbArc
 50
13.49747300000073
 51
76.50252699999518
  0
LINE
  5
107
330
19
100
AcDbEntity
  8
4
100
AcDbLine
 10
427.8649235800983
 20
598.2723091296464
 30
0.0
 11
427.8649235800983
 21
627.2725531296462
 31
0.0
  0
LINE
  5
108
330
19
100
AcDbEntity
  8
4
100
AcDbLine
 10
479.8649225800982
 20
571.2723091296464
 30
0.0
 11
478.8649235800983
 21
572.2723081296465
 31
0.0
  0
LINE
  5
109
330
19
100
AcDbEntity
  8
4
100
AcDbLine
 10
479.8649225800982
 20
574.2723091296464
 30
0.0
 11
479.8649225800982
 21
555.2723071296462
 31
0.0
  0
LINE
  5
10A
330
19
100
AcDbEntity
  8
4
100
AcDbLine
 10
447.8649245800982
 20
574.2723091296464
 30
0.0
 11
447.8649245800982
 21
572.2723081296465
 31
0.0
  0
LINE
  5
10B
330
19
100
AcDbEntity
  8
4
100
AcDbLine
 10
479.8649225800982
 20
574.2723091296464
 30
0.0
 11
447.8649245800982
 21
574.2723091296464
 31
0.0
  0
LINE
  5
10C
330
19
100
AcDbEntity
  8
4
100
AcDbLine
 10
418.8649235800983
 20
695.2725511296462
 30
0.0
 11
407.8649225800982
 21
695.2725511296462
 31
0.0
  0
ARC
  5
10D
330
19
100
AcDbEntity
  8
4
100
AcDbCircle
 10
404.8649225800982
 20
695.2198651296462
 30
0.0
 40
3.0
100
AcDbArc
 50
0.0
 51
83.64640700000228
  0
ARC
  5
10E
330
19
100
AcDbEntity
  8
4
100
AcDbCircle
 10
418.8649235800983
 20
694.2725521296461
 30
0.0
 40
0.999999
100
AcDbArc
 50
0.0
 51
90.0
  0
LINE
  5
10F
330
19
100
AcDbEntity
  8
4
100
AcDbLine
 10
689.9908025800983
 20
458.1097291296462
 30
0.0
 11
689.9908025800983
 21
516.4348861296464
 31
0.0
  0
CIRCLE
  5
110
330
19
100
AcDbEntity
  8
4
100
AcDbCircle
 10
893.3908025800984
 20
587.2723081296465
 30
0.0
 40
108.0
  0
ARC
  5
111
330
19
100
AcDbEntity
  8
4
100
AcDbCircle
 10
893.3905595800984
 20
977.2723081296465
 30
0.0
 40
500.000085
100
AcDbArc
 50
258.7027030000034
 51
281.2981799999938
  0
LINE
  5
112
330
19
100
AcDbEntity
  8
4
100
AcDbLine
 10
709.3908035800982
 20
397.2723091296464
 30
0.0
 11
709.3908035800982
 21
567.2723071296462
 31
0.0
  0
LINE
  5
113
330
19
100
AcDbEntity
  8
4
100
AcDbLine
 10
698.0908985800984
 20
409.2723091296464
 30
0.0
 11
698.0908985800984
 21
565.2723091296464
 31
0.0
  0
LINE
  5
114
330
19
100
AcDbEntity
  8
L-CENTER
 48
3.0
100
AcDbLine
 10
743.3908025800984
 20
524.8734361296467
 30
0.0
 11
743.3908025800984
 21
601.6711801296462
 31
0.0
  0
LINE
  5
115
330
19
100
AcDbEntity
  8
L-CENTER
 48
3.0
100
AcDbLine
 10
893.3908025800984
 20
713.7932175542394
 30
0.0
 11
893.3908025800984
 21
403.476868005683
 31
0.0
  0
LINE
  5
116
330
19
100
AcDbEntity
  8
4
100
AcDbLine
 10
768.390801580098
 20
527.8562851296465
 30
0.0
 11
768.390801580098
 21
417.2723071296462
 31
0.0
  0
LINE
  5
117
330
19
100
AcDbEntity
  8
4
100
AcDbLine
 10
718.3908035800982
 20
527.8562851296465
 30
0.0
 11
718.3908035800982
 21
434.3794861296462
 31
0.0
  0
LINE
  5
118
330
19
100
AcDbEntity
  8
4
100
AcDbLine
 10
707.8908035800982
 20
407.2723081296465
 30
0.0
 11
707.8908035800982
 21
567.2723071296462
 31
0.0
  0
LINE
  5
119
330
19
100
AcDbEntity
  8
4
100
AcDbLine
 10
997.0399715800986
 20
417.2723071296462
 30
0.0
 11
997.0399715800986
 21
537.2723071296462
 31
0.0
  0
LINE
  5
11A
330
19
100
AcDbEntity
  8
4
100
AcDbLine
 10
1000.390803580098
 20
537.2723071296462
 30
0.0
 11
1000.390803580098
 21
437.2723081296465
 31
0.0
  0
LINE
  5
11B
330
19
100
AcDbEntity
  8
4
100
AcDbLine
 10
928.3908035800982
 20
409.2723091296464
 30
0.0
 11
783.390801580098
 21
409.2723091296464
 31
0.0
  0
LINE
  5
11C
330
19
100
AcDbEntity
  8
4
100
AcDbLine
 10
709.3908035800982
 20
417.2723071296462
 30
0.0
 11
840.390801580098
 21
417.2723071296462
 31
0.0
  0
ARC
  5
11D
330
19
100
AcDbEntity
  8
4
100
AcDbCircle
 10
783.390801580098
 20
404.2723081296465
 30
0.0
 40
5.000000999999999
100
AcDbArc
 50
90.0
 51
180.0
  0
LINE
  5
11E
330
19
100
AcDbEntity
  8
4
100
AcDbLine
 10
778.3908035800982
 20
416.2723081296465
 30
0.0
 11
778.3908035800982
 21
397.2723091296464
 31
0.0
  0
LINE
  5
11F
330
19
100
AcDbEntity
  8
L-CENTER
 48
3.0
100
AcDbLine
 10
738.390801580098
 20
424.2723071296462
 30
0.0
 11
738.390801580098
 21
390.2723091296464
 31
0.0
  0
LINE
  5
120
330
19
100
AcDbEntity
  8
4
100
AcDbLine
 10
753.390801580098
 20
416.2723081296465
 30
0.0
 11
753.390801580098
 21
397.2723091296464
 31
0.0
  0
LINE
  5
121
330
19
100
AcDbEntity
  8
4
100
AcDbLine
 10
709.3908035800982
 20
397.2723091296464
 30
0.0
 11
778.3908035800982
 21
397.2723091296464
 31
0.0
  0
LINE
  5
122
330
19
100
AcDbEntity
  8
4
100
AcDbLine
 10
707.8908035800982
 20
407.2723081296465
 30
0.0
 11
709.3908035800982
 21
407.2723081296465
 31
0.0
  0
ARC
  5
123
330
19
100
AcDbEntity
  8
4
100
AcDbCircle
 10
715.3908035800982
 20
434.3794861296462
 30
0.0
 40
3.0
100
AcDbArc
 50
270.0
 51
0.0
  0
LINE
  5
124
330
19
100
AcDbEntity
  8
4
100
AcDbLine
 10
718.3908035800982
 20
434.3572681296466
 30
0.0
 11
768.390801580098
 21
434.3572681296466
 31
0.0
  0
LINE
  5
125
330
19
100
AcDbEntity
  8
4
100
AcDbLine
 10
709.3908035800982
 20
431.3794861296462
 30
0.0
 11
715.3908035800982
 21
431.3794861296462
 31
0.0
  0
LINE
  5
126
330
19
100
AcDbEntity
  8
4
100
AcDbLine
 10
698.0908985800984
 20
409.2723091296464
 30
0.0
 11
707.8908035800982
 21
409.2723091296464
 31
0.0
  0
LINE
  5
127
330
19
100
AcDbEntity
  8
4
100
AcDbLine
 10
698.0908985800984
 20
455.8275811296464
 30
0.0
 11
690.8152145800982
 21
457.1252671296463
 31
0.0
  0
ARC
  5
128
330
19
100
AcDbEntity
  8
4
100
AcDbCircle
 10
690.9908015800984
 20
458.1097291296462
 30
0.0
 40
0.999999
100
AcDbArc
 50
180.0
 51
259.8871190000029
  0
ARC
  5
129
330
19
100
AcDbEntity
  8
4
100
AcDbCircle
 10
752.3908025800984
 20
416.2723081296465
 30
0.0
 40
0.999999
100
AcDbArc
 50
0.0
 51
90.0
  0
ARC
  5
12A
330
19
100
AcDbEntity
  8
4
100
AcDbCircle
 10
777.390801580098
 20
416.2723081296465
 30
0.0
 40
0.999999
100
AcDbArc
 50
0.0
 51
90.0
  0
LINE
  5
12B
330
19
100
AcDbEntity
  8
4
100
AcDbLine
 10
843.390801580098
 20
477.0722371296463
 30
0.0
 11
843.390801580098
 21
420.2723071296462
 31
0.0
  0
ARC
  5
12C
330
19
100
AcDbEntity
  8
4
100
AcDbCircle
 10
840.390801580098
 20
420.2723071296462
 30
0.0
 40
3.0
100
AcDbArc
 50
270.0
 51
0.0
  0
ARC
  5
12D
330
19
100
AcDbEntity
  8
4
100
AcDbCircle
 10
840.390801580098
 20
477.0722371296463
 30
0.0
 40
3.0
100
AcDbArc
 50
0.0
 51
83.95167199999858
  0
LINE
  5
12E
330
19
100
AcDbEntity
  8
L-CENTER
 48
3.0
100
AcDbLine
 10
878.8398268593141
 20
424.2723091296464
 30
0.0
 11
907.9417783008826
 21
424.2723091296464
 31
0.0
  0
CIRCLE
  5
12F
330
19
100
AcDbEntity
  8
2
100
AcDbCircle
 10
893.3908025800984
 20
424.2723091296464
 30
0.0
 40
5.000000999999999
  0
CIRCLE
  5
130
330
19
100
AcDbEntity
  8
4
100
AcDbCircle
 10
893.3908025800984
 20
424.2723091296464
 30
0.0
 40
5.500000999999999
  0
ARC
  5
131
330
19
100
AcDbEntity
  8
4
100
AcDbCircle
 10
893.3908025800984
 20
424.2723091296464
 30
0.0
 40
12.0
100
AcDbArc
 50
0.0
 51
180.0011699998292
  0
LINE
  5
132
330
19
100
AcDbEntity
  8
4
100
AcDbLine
 10
881.3908025800984
 20
409.2723091296464
 30
0.0
 11
881.3908025800984
 21
424.2723091296464
 31
0.0
  0
LINE
  5
133
330
19
100
AcDbEntity
  8
2
100
AcDbLine
 10
896.7209285800982
 20
422.3496571296462
 30
0.0
 11
893.3908025800984
 21
420.4270081296465
 31
0.0
  0
LINE
  5
134
330
19
100
AcDbEntity
  8
2
100
AcDbLine
 10
890.0606765800985
 20
422.3496571296462
 30
0.0
 11
893.3908025800984
 21
420.4270081296465
 31
0.0
  0
LINE
  5
135
330
19
100
AcDbEntity
  8
2
100
AcDbLine
 10
893.3908025800984
 20
428.1176071296461
 30
0.0
 11
890.0606765800985
 21
426.1949581296465
 31
0.0
  0
LINE
  5
136
330
19
100
AcDbEntity
  8
2
100
AcDbLine
 10
890.0606765800985
 20
426.1949581296465
 30
0.0
 11
890.0606765800985
 21
422.3496571296462
 31
0.0
  0
LINE
  5
137
330
19
100
AcDbEntity
  8
2
100
AcDbLine
 10
896.7209285800982
 20
426.1949581296465
 30
0.0
 11
896.7209285800982
 21
422.3496571296462
 31
0.0
  0
LINE
  5
138
330
19
100
AcDbEntity
  8
2
100
AcDbLine
 10
893.3908025800984
 20
428.1176071296461
 30
0.0
 11
896.7209285800982
 21
426.1949581296465
 31
0.0
  0
LINE
  5
139
330
19
100
AcDbEntity
  8
4
100
AcDbLine
 10
905.3908025800984
 20
409.2723091296464
 30
0.0
 11
905.3908025800984
 21
424.2723091296464
 31
0.0
  0
LINE
  5
13A
330
19
100
AcDbEntity
  8
L-CENTER
 48
3.0
100
AcDbLine
 10
973.3908035800982
 20
424.2723071296462
 30
0.0
 11
973.3908035800982
 21
390.2723091296464
 31
0.0
  0
LINE
  5
13B
330
19
100
AcDbEntity
  8
4
100
AcDbLine
 10
1003.390803580098
 20
416.2723081296465
 30
0.0
 11
1003.390803580098
 21
397.2723091296464
 31
0.0
  0
ARC
  5
13C
330
19
100
AcDbEntity
  8
4
100
AcDbCircle
 10
928.3908035800982
 20
404.2723081296465
 30
0.0
 40
5.000000999999999
100
AcDbArc
 50
0.0
 51
90.0
  0
LINE
  5
13D
330
19
100
AcDbEntity
  8
4
100
AcDbLine
 10
933.3908015800985
 20
416.2723081296465
 30
0.0
 11
933.3908015800985
 21
397.2723091296464
 31
0.0
  0
LINE
  5
13E
330
19
100
AcDbEntity
  8
4
100
AcDbLine
 10
958.3908035800982
 20
416.2723081296465
 30
0.0
 11
958.3908035800982
 21
397.2723091296464
 31
0.0
  0
LINE
  5
13F
330
19
100
AcDbEntity
  8
4
100
AcDbLine
 10
933.3908015800985
 20
397.2723091296464
 30
0.0
 11
1003.390803580098
 21
397.2723091296464
 31
0.0
  0
LINE
  5
140
330
19
100
AcDbEntity
  8
4
100
AcDbLine
 10
934.3908035800982
 20
417.2723071296462
 30
0.0
 11
1002.390801580098
 21
417.2723071296462
 31
0.0
  0
LINE
  5
141
330
19
100
AcDbEntity
  8
4
100
AcDbLine
 10
943.3908035800982
 20
477.0722881296465
 30
0.0
 11
943.3908035800982
 21
420.2723071296462
 31
0.0
  0
ARC
  5
142
330
19
100
AcDbEntity
  8
4
100
AcDbCircle
 10
946.3908035800982
 20
420.2723071296462
 30
0.0
 40
3.0
100
AcDbArc
 50
180.0
 51
270.0
  0
ARC
  5
143
330
19
100
AcDbEntity
  8
4
100
AcDbCircle
 10
934.3908035800982
 20
416.2723081296465
 30
0.0
 40
0.999999
100
AcDbArc
 50
90.0
 51
180.0
  0
ARC
  5
144
330
19
100
AcDbEntity
  8
4
100
AcDbCircle
 10
959.3908025800984
 20
416.2723081296465
 30
0.0
 40
0.999999
100
AcDbArc
 50
90.0
 51
180.0
  0
ARC
  5
145
330
19
100
AcDbEntity
  8
4
100
AcDbCircle
 10
946.3908035800982
 20
477.0722881296465
 30
0.0
 40
3.0
100
AcDbArc
 50
96.04838399999949
 51
180.0
  0
LINE
  5
146
330
19
100
AcDbEntity
  8
4
100
AcDbLine
 10
997.0399715800986
 20
437.2723081296465
 30
0.0
 11
1000.390803580098
 21
437.2723081296465
 31
0.0
  0
ARC
  5
147
330
19
100
AcDbEntity
  8
4
100
AcDbCircle
 10
1002.390801580098
 20
416.2723081296465
 30
0.0
 40
0.999999
100
AcDbArc
 50
0.0
 51
90.0
  0
ARC
  5
148
330
19
100
AcDbEntity
  8
4
100
AcDbCircle
 10
922.3908035800982
 20
633.8814391296462
 30
0.0
 40
3.000048
100
AcDbArc
 50
264.5083770000047
 51
0.0
  0
LINE
  5
149
330
19
100
AcDbEntity
  8
L-CENTER
 48
3.0
100
AcDbLine
 10
1007.198409580098
 20
487.2723091296464
 30
0.0
 11
686.294883580098
 21
487.2723091296464
 31
0.0
  0
ARC
  5
14A
330
19
100
AcDbEntity
  8
4
100
AcDbCircle
 10
893.3908025800984
 20
201.2723071296463
 30
0.0
 40
500.00001
100
AcDbArc
 50
78.95542499999537
 51
101.0445930000044
  0
LINE
  5
14B
330
19
100
AcDbEntity
  8
L-CENTER
 48
3.0
100
AcDbLine
 10
1009.010363155387
 20
587.2723081296465
 30
0.0
 11
777.7712420048101
 21
587.2723081296465
 31
0.0
  0
CIRCLE
  5
14C
330
19
100
AcDbEntity
  8
4
100
AcDbCircle
 10
893.3908025800984
 20
587.2723081296465
 30
0.0
 40
84.999999
  0
ARC
  5
14D
330
19
100
AcDbEntity
  8
4
100
AcDbCircle
 10
893.3905595800984
 20
847.2723091296464
 30
0.0
 40
299.999952
100
AcDbArc
 50
263.5517170000049
 51
276.4490809999984
  0
ARC
  5
14E
330
19
100
AcDbEntity
  8
4
100
AcDbCircle
 10
893.3905595800984
 20
842.2723081296465
 30
0.0
 40
299.999952
100
AcDbArc
 50
262.6788439999937
 51
277.3218609999996
  0
ARC
  5
14F
330
19
100
AcDbEntity
  8
4
100
AcDbCircle
 10
893.3908025800984
 20
327.2723071296462
 30
0.0
 40
300.000048
100
AcDbArc
 50
83.55148600000035
 51
96.44917300000007
  0
ARC
  5
150
330
19
100
AcDbEntity
  8
4
100
AcDbCircle
 10
893.3908025800984
 20
332.2723081296465
 30
0.0
 40
299.999892
100
AcDbArc
 50
82.67856100000606
 51
97.3217689999975
  0
ARC
  5
151
330
19
100
AcDbEntity
  8
4
100
AcDbCircle
 10
855.7960745800983
 20
624.8670331296464
 30
0.0
 40
4.999998
100
AcDbArc
 50
97.32176800000352
 51
172.6782310000013
  0
ARC
  5
152
330
19
100
AcDbEntity
  8
4
100
AcDbCircle
 10
1283.390802580098
 20
587.2730401296465
 30
0.0
 40
500.000022
100
AcDbArc
 50
168.3648440000005
 51
191.2985260000003
  0
ARC
  5
153
330
19
100
AcDbEntity
  8
4
100
AcDbCircle
 10
743.3908025800984
 20
563.2723081296465
 30
0.0
 40
9.0
100
AcDbArc
 50
106.1276199999946
 51
73.87238000000544
  0
CIRCLE
  5
154
330
19
100
AcDbEntity
  8
4
100
AcDbCircle
 10
743.3908025800984
 20
563.2723081296465
 30
0.0
 40
23.499999
  0
ARC
  5
155
330
19
100
AcDbEntity
  8
4
100
AcDbCircle
 10
628.3908035800982
 20
563.2723081296465
 30
0.0
 40
149.999958
100
AcDbArc
 50
348.5856020000009
 51
11.41478200000154
  0
ARC
  5
156
330
19
100
AcDbEntity
  8
4
100
AcDbCircle
 10
860.3908025800984
 20
563.2723081296465
 30
0.0
 40
150.000084
100
AcDbArc
 50
168.4243679999975
 51
191.5756049999981
  0
ARC
  5
157
330
19
100
AcDbEntity
  8
4
100
AcDbCircle
 10
715.3908035800982
 20
527.8562851296465
 30
0.0
 40
3.0
100
AcDbArc
 50
0.0
 51
79.45506399999536
  0
ARC
  5
158
330
19
100
AcDbEntity
  8
4
100
AcDbCircle
 10
743.3908025800984
 20
678.2723071296462
 30
0.0
 40
149.999934
100
AcDbArc
 50
259.4121409999991
 51
281.414691
  0
LINE
  5
159
330
19
100
AcDbEntity
  8
4
100
AcDbLine
 10
698.0908985800984
 20
518.7170341296464
 30
0.0
 11
690.8152145800982
 21
517.4193481296463
 31
0.0
  0
ARC
  5
15A
330
19
100
AcDbEntity
  8
4
100
AcDbCircle
 10
690.9908015800984
 20
516.4348861296464
 30
0.0
 40
0.999999
100
AcDbArc
 50
100.1128809999965
 51
180.0
  0
ARC
  5
15B
330
19
100
AcDbEntity
  8
4
100
AcDbCircle
 10
716.380584580098
 20
533.7751501296464
 30
0.0
 40
3.0
100
AcDbArc
 50
191.575604999999
 51
259.4121409999991
  0
ARC
  5
15C
330
19
100
AcDbEntity
  8
4
100
AcDbCircle
 10
771.390801580098
 20
527.8562851296465
 30
0.0
 40
3.0
100
AcDbArc
 50
100.5449360000047
 51
180.0
  0
ARC
  5
15D
330
19
100
AcDbEntity
  8
4
100
AcDbCircle
 10
772.4833325800982
 20
534.1797781296461
 30
0.0
 40
3.000018
100
AcDbArc
 50
281.415092000004
 51
348.5849079999986
  0
ARC
  5
15E
330
19
100
AcDbEntity
  8
4
100
AcDbCircle
 10
743.3908025800984
 20
448.2723091296464
 30
0.0
 40
150.0
100
AcDbArc
 50
78.58569300000404
 51
100.5878490000002
  0
LINE
  5
15F
330
19
100
AcDbEntity
  8
L-CENTER
 48
3.0
100
AcDbLine
 10
781.7896745800981
 20
563.2723081296465
 30
0.0
 11
704.9919305800986
 21
563.2723081296465
 31
0.0
  0
LINE
  5
160
330
19
100
AcDbEntity
  8
4
100
AcDbLine
 10
710.4440585800985
 20
567.2723071296462
 30
0.0
 11
707.8908035800982
 21
567.2723071296462
 31
0.0
  0
LINE
  5
161
330
19
100
AcDbEntity
  8
4
100
AcDbLine
 10
698.0908985800984
 20
565.2723091296464
 30
0.0
 11
707.8908035800982
 21
565.2723091296464
 31
0.0
  0
ARC
  5
162
330
19
100
AcDbEntity
  8
4
100
AcDbCircle
 10
716.3805995800985
 20
592.7695351296463
 30
0.0
 40
3.0
100
AcDbArc
 50
100.5878490000002
 51
168.4243679999988
  0
LINE
  5
163
330
19
100
AcDbEntity
  8
4
100
AcDbLine
 10
740.8908035800982
 20
574.2723091296464
 30
0.0
 11
745.890801580098
 21
574.2723091296464
 31
0.0
  0
LINE
  5
164
330
19
100
AcDbEntity
  8
4
100
AcDbLine
 10
740.8908035800982
 20
569.2723081296465
 30
0.0
 11
745.890801580098
 21
569.2723081296465
 31
0.0
  0
LINE
  5
165
330
19
100
AcDbEntity
  8
4
100
AcDbLine
 10
740.8908035800982
 20
574.2723091296464
 30
0.0
 11
740.8908035800982
 21
569.2723081296465
 31
0.0
  0
LINE
  5
166
330
19
100
AcDbEntity
  8
4
100
AcDbLine
 10
745.890801580098
 20
574.2723091296464
 30
0.0
 11
745.890801580098
 21
569.2723081296465
 31
0.0
  0
LINE
  5
167
330
19
100
AcDbEntity
  8
4
100
AcDbLine
 10
773.823288580098
 20
598.2723091296464
 30
0.0
 11
743.3908025800984
 21
598.2723091296464
 31
0.0
  0
ARC
  5
168
330
19
100
AcDbEntity
  8
4
100
AcDbCircle
 10
772.4833325800982
 20
592.3648381296464
 30
0.0
 40
3.000018
100
AcDbArc
 50
11.41509200000148
 51
78.58490799999598
  0
ARC
  5
169
330
19
100
AcDbEntity
  8
4
100
AcDbCircle
 10
773.823288580098
 20
608.2723081296465
 30
0.0
 40
9.999999
100
AcDbArc
 50
270.0
 51
357.6401770000001
  0
ARC
  5
16A
330
19
100
AcDbEntity
  8
4
100
AcDbCircle
 10
1153.390803580098
 20
587.2727971296463
 30
0.0
 40
300.000075
100
AcDbArc
 50
173.5515779999987
 51
186.4493589999994
  0
ARC
  5
16B
330
19
100
AcDbEntity
  8
4
100
AcDbCircle
 10
1148.390802580098
 20
587.2727971296463
 30
0.0
 40
299.999973
100
AcDbArc
 50
172.6787060000015
 51
187.3221450000001
  0
ARC
  5
16C
330
19
100
AcDbEntity
  8
4
100
AcDbCircle
 10
855.7960745800983
 20
549.6775801296462
 30
0.0
 40
4.999998
100
AcDbArc
 50
187.3217689999987
 51
262.6782319999965
  0
ARC
  5
16D
330
19
100
AcDbEntity
  8
4
100
AcDbCircle
 10
860.2575005800982
 20
554.1390061296463
 30
0.0
 40
4.999908
100
AcDbArc
 50
186.4511099999991
 51
263.5516789999975
  0
ARC
  5
16E
330
19
100
AcDbEntity
  8
4
100
AcDbCircle
 10
796.0221485800985
 20
489.9034111296462
 30
0.0
 40
3.000012
100
AcDbArc
 50
191.2962089999987
 51
258.7037909999981
  0
ARC
  5
16F
330
19
100
AcDbEntity
  8
4
100
AcDbCircle
 10
860.2575005800982
 20
620.4056071296461
 30
0.0
 40
4.99992
100
AcDbArc
 50
96.45111000000296
 51
173.548890000001
  0
LINE
  5
170
330
19
100
AcDbEntity
  8
4
100
AcDbLine
 10
818.3908025800984
 20
627.2723071296462
 30
0.0
 11
851.0695145800983
 21
627.2723071296462
 31
0.0
  0
LINE
  5
171
330
19
100
AcDbEntity
  8
4
100
AcDbLine
 10
904.8908015800985
 20
702.2723071296466
 30
0.0
 11
904.8908015800985
 21
703.7723071296466
 31
0.0
  0
LINE
  5
172
330
19
100
AcDbEntity
  8
4
100
AcDbLine
 10
881.8908035800982
 20
702.2723071296466
 30
0.0
 11
881.8908035800982
 21
703.7723071296466
 31
0.0
  0
ARC
  5
173
330
19
100
AcDbEntity
  8
4
100
AcDbCircle
 10
798.5621975800982
 20
687.1041151296463
 30
0.0
 40
5.000000999999999
100
AcDbArc
 50
101.0445930000039
 51
168.3648440000001
  0
ARC
  5
174
330
19
100
AcDbEntity
  8
4
100
AcDbCircle
 10
864.3908015800985
 20
663.9729901296462
 30
0.0
 40
3.000024
100
AcDbArc
 50
110.7121219999968
 51
180.0
  0
LINE
  5
175
330
19
100
AcDbEntity
  8
4
100
AcDbLine
 10
887.3908025800984
 20
660.2723071296462
 30
0.0
 11
899.3908025800984
 21
660.2723071296462
 31
0.0
  0
LINE
  5
176
330
19
100
AcDbEntity
  8
4
100
AcDbLine
 10
887.3908025800984
 20
640.2723091296464
 30
0.0
 11
899.3908025800984
 21
640.2723091296464
 31
0.0
  0
LINE
  5
177
330
19
100
AcDbEntity
  8
4
100
AcDbLine
 10
868.3908035800982
 20
660.2723071296462
 30
0.0
 11
870.3908015800985
 21
660.2723071296462
 31
0.0
  0
LINE
  5
178
330
19
100
AcDbEntity
  8
4
100
AcDbLine
 10
868.3908035800982
 20
640.2723091296464
 30
0.0
 11
880.3908035800982
 21
640.2723091296464
 31
0.0
  0
LINE
  5
179
330
19
100
AcDbEntity
  8
4
100
AcDbLine
 10
870.3908015800985
 20
642.2723071296462
 30
0.0
 11
880.3908035800982
 21
642.2723071296462
 31
0.0
  0
LINE
  5
17A
330
19
100
AcDbEntity
  8
4
100
AcDbLine
 10
880.3908035800982
 20
642.2723071296462
 30
0.0
 11
880.3908035800982
 21
640.2723091296464
 31
0.0
  0
LINE
  5
17B
330
19
100
AcDbEntity
  8
4
100
AcDbLine
 10
870.3908015800985
 20
642.2723071296462
 30
0.0
 11
870.3908015800985
 21
660.2723071296462
 31
0.0
  0
LINE
  5
17C
330
19
100
AcDbEntity
  8
4
100
AcDbLine
 10
868.3908035800982
 20
640.2723091296464
 30
0.0
 11
868.3908035800982
 21
660.2723071296462
 31
0.0
  0
LINE
  5
17D
330
19
100
AcDbEntity
  8
4
100
AcDbLine
 10
861.3908015800985
 20
633.8814391296462
 30
0.0
 11
861.3908015800985
 21
663.9729901296462
 31
0.0
  0
LINE
  5
17E
330
19
100
AcDbEntity
  8
4
100
AcDbLine
 10
887.3908025800984
 20
640.2723091296464
 30
0.0
 11
887.3908025800984
 21
660.2723071296462
 31
0.0
  0
ARC
  5
17F
330
19
100
AcDbEntity
  8
4
100
AcDbCircle
 10
864.3908015800985
 20
633.8814391296462
 30
0.0
 40
3.000048
100
AcDbArc
 50
180.0
 51
275.4916040000027
  0
LINE
  5
180
330
19
100
AcDbEntity
  8
4
100
AcDbLine
 10
899.3908025800984
 20
658.2723091296464
 30
0.0
 11
889.3908035800982
 21
658.2723091296464
 31
0.0
  0
LINE
  5
181
330
19
100
AcDbEntity
  8
4
100
AcDbLine
 10
899.3908025800984
 20
660.2723071296462
 30
0.0
 11
899.3908025800984
 21
658.2723091296464
 31
0.0
  0
LINE
  5
182
330
19
100
AcDbEntity
  8
4
100
AcDbLine
 10
918.3908015800985
 20
642.2723071296462
 30
0.0
 11
918.3908015800985
 21
640.2723091296464
 31
0.0
  0
ARC
  5
183
330
19
100
AcDbEntity
  8
4
100
AcDbCircle
 10
914.2308905800983
 20
655.0557541296464
 30
0.0
 40
1.999983
100
AcDbArc
 50
310.5792859999931
 51
23.06265799999727
  0
ARC
  5
184
330
19
100
AcDbEntity
  8
4
100
AcDbCircle
 10
916.3908035800982
 20
654.2723071296462
 30
0.0
 40
2.000019
100
AcDbArc
 50
310.5792859999933
 51
0.0
  0
LINE
  5
185
330
19
100
AcDbEntity
  8
4
100
AcDbLine
 10
899.3908025800984
 20
642.2723071296462
 30
0.0
 11
889.3908035800982
 21
642.2723071296462
 31
0.0
  0
LINE
  5
186
330
19
100
AcDbEntity
  8
4
100
AcDbLine
 10
899.3908025800984
 20
642.2723071296462
 30
0.0
 11
899.3908025800984
 21
640.2723091296464
 31
0.0
  0
LINE
  5
187
330
19
100
AcDbEntity
  8
4
100
AcDbLine
 10
899.3908025800984
 20
649.2723091296464
 30
0.0
 11
889.3908035800982
 21
649.2723091296464
 31
0.0
  0
LINE
  5
188
330
19
100
AcDbEntity
  8
4
100
AcDbLine
 10
899.3908025800984
 20
651.2723071296462
 30
0.0
 11
889.3908035800982
 21
651.2723071296462
 31
0.0
  0
LINE
  5
189
330
19
100
AcDbEntity
  8
4
100
AcDbLine
 10
899.3908025800984
 20
651.2723071296462
 30
0.0
 11
899.3908025800984
 21
649.2723091296464
 31
0.0
  0
LINE
  5
18A
330
19
100
AcDbEntity
  8
4
100
AcDbLine
 10
908.3908025800984
 20
643.8665461296464
 30
0.0
 11
908.3908025800984
 21
642.2723071296462
 31
0.0
  0
LINE
  5
18B
330
19
100
AcDbEntity
  8
4
100
AcDbLine
 10
906.3908015800985
 20
644.7867121296465
 30
0.0
 11
906.3908015800985
 21
640.2723091296464
 31
0.0
  0
ARC
  5
18C
330
19
100
AcDbEntity
  8
4
100
AcDbCircle
 10
908.3908025800984
 20
644.7867121296465
 30
0.0
 40
2.000019
100
AcDbArc
 50
130.5793080000026
 51
180.0
  0
ARC
  5
18D
330
19
100
AcDbEntity
  8
4
100
AcDbCircle
 10
910.3908035800982
 20
643.8665461296464
 30
0.0
 40
2.000019
100
AcDbArc
 50
130.5793080000026
 51
180.0
  0
LINE
  5
18E
330
19
100
AcDbEntity
  8
4
100
AcDbLine
 10
906.3908015800985
 20
654.2723071296462
 30
0.0
 11
908.3908025800984
 21
654.2723071296462
 31
0.0
  0
LINE
  5
18F
330
19
100
AcDbEntity
  8
4
100
AcDbLine
 10
907.0897775800981
 20
646.3057561296466
 30
0.0
 11
915.531915580098
 21
653.5367131296464
 31
0.0
  0
LINE
  5
190
330
19
100
AcDbEntity
  8
4
100
AcDbLine
 10
909.0897755800984
 20
645.3855901296463
 30
0.0
 11
917.6918285800984
 21
652.7532661296461
 31
0.0
  0
LINE
  5
191
330
19
100
AcDbEntity
  8
4
100
AcDbLine
 10
908.3908025800984
 20
642.2723071296462
 30
0.0
 11
918.3908015800985
 21
642.2723071296462
 31
0.0
  0
LINE
  5
192
330
19
100
AcDbEntity
  8
4
100
AcDbLine
 10
918.3908015800985
 20
640.2723091296464
 30
0.0
 11
906.3908015800985
 21
640.2723091296464
 31
0.0
  0
LINE
  5
193
330
19
100
AcDbEntity
  8
4
100
AcDbLine
 10
889.3908035800982
 20
642.2723071296462
 30
0.0
 11
889.3908035800982
 21
658.2723091296464
 31
0.0
  0
ARC
  5
194
330
19
100
AcDbEntity
  8
4
100
AcDbCircle
 10
912.3908015800985
 20
654.2723071296462
 30
0.0
 40
6.0
100
AcDbArc
 50
0.0
 51
180.0
  0
ARC
  5
195
330
19
100
AcDbEntity
  8
4
100
AcDbCircle
 10
912.3908015800985
 20
654.2723071296462
 30
0.0
 40
4.000041
100
AcDbArc
 50
23.06128899999868
 51
180.0
  0
LINE
  5
196
330
19
100
AcDbEntity
  8
4
100
AcDbLine
 10
907.3908035800982
 20
702.2723071296466
 30
0.0
 11
879.3908015800985
 21
702.2723071296466
 31
0.0
  0
LINE
  5
197
330
19
100
AcDbEntity
  8
4
100
AcDbLine
 10
879.3908015800985
 20
701.0762641296462
 30
0.0
 11
879.3908015800985
 21
702.2723071296466
 31
0.0
  0
LINE
  5
198
330
19
100
AcDbEntity
  8
4
100
AcDbLine
 10
907.3908035800982
 20
701.0762641296462
 30
0.0
 11
907.3908035800982
 21
702.2723071296466
 31
0.0
  0
LINE
  5
199
330
19
100
AcDbEntity
  8
4
100
AcDbLine
 10
880.8908015800985
 20
709.7723071296466
 30
0.0
 11
905.8908035800982
 21
709.7723071296466
 31
0.0
  0
LINE
  5
19A
330
19
100
AcDbEntity
  8
4
100
AcDbLine
 10
880.8908015800985
 20
705.7723081296465
 30
0.0
 11
905.8908035800982
 21
705.7723081296465
 31
0.0
  0
LINE
  5
19B
330
19
100
AcDbEntity
  8
4
100
AcDbLine
 10
880.8908015800985
 20
703.7723071296466
 30
0.0
 11
905.8908035800982
 21
703.7723071296466
 31
0.0
  0
LINE
  5
19C
330
19
100
AcDbEntity
  8
4
100
AcDbLine
 10
887.1408035800982
 20
705.7723081296465
 30
0.0
 11
887.1408035800982
 21
709.7723071296466
 31
0.0
  0
LINE
  5
19D
330
19
100
AcDbEntity
  8
4
100
AcDbLine
 10
880.8908015800985
 20
703.7723071296466
 30
0.0
 11
880.8908015800985
 21
709.7723071296466
 31
0.0
  0
LINE
  5
19E
330
19
100
AcDbEntity
  8
4
100
AcDbLine
 10
899.6408015800985
 20
705.7723081296465
 30
0.0
 11
899.6408015800985
 21
709.7723071296466
 31
0.0
  0
LINE
  5
19F
330
19
100
AcDbEntity
  8
4
100
AcDbLine
 10
905.8908035800982
 20
703.7723071296466
 30
0.0
 11
905.8908035800982
 21
709.7723071296466
 31
0.0
  0
ARC
  5
1A0
330
19
100
AcDbEntity
  8
4
100
AcDbCircle
 10
930.9855275800983
 20
624.8670331296464
 30
0.0
 40
4.999998
100
AcDbArc
 50
7.321768000000922
 51
82.67823199999651
  0
ARC
  5
1A1
330
19
100
AcDbEntity
  8
4
100
AcDbCircle
 10
503.3908025800984
 20
587.2723081296465
 30
0.0
 40
500.000019
100
AcDbArc
 50
0.0000279928409948
 51
11.63524599999836
  0
ARC
  5
1A2
330
19
100
AcDbEntity
  8
4
100
AcDbCircle
 10
638.3908025800984
 20
587.2723081296465
 30
0.0
 40
300.0
100
AcDbArc
 50
352.6785610000005
 51
7.321715999999709
  0
ARC
  5
1A3
330
19
100
AcDbEntity
  8
4
100
AcDbCircle
 10
633.390801580098
 20
587.2723081296465
 30
0.0
 40
299.999925
100
AcDbArc
 50
353.551387999999
 51
6.449079999999971
  0
ARC
  5
1A4
330
19
100
AcDbEntity
  8
4
100
AcDbCircle
 10
803.3908025800984
 20
587.2723081296465
 30
0.0
 40
199.999968
100
AcDbArc
 50
345.5228439999968
 51
0.0
  0
ARC
  5
1A5
330
19
100
AcDbEntity
  8
4
100
AcDbCircle
 10
930.9855275800983
 20
549.6775801296462
 30
0.0
 40
4.999998
100
AcDbArc
 50
277.3217680000035
 51
352.6782319999991
  0
ARC
  5
1A6
330
19
100
AcDbEntity
  8
4
100
AcDbCircle
 10
926.5241045800985
 20
554.1390061296463
 30
0.0
 40
4.99992
100
AcDbArc
 50
276.4510990000011
 51
353.5488880000005
  0
ARC
  5
1A7
330
19
100
AcDbEntity
  8
4
100
AcDbCircle
 10
990.7594535800981
 20
489.9036541296464
 30
0.0
 40
3.00006
100
AcDbArc
 50
281.3007969999966
 51
348.6992249999996
  0
ARC
  5
1A8
330
19
100
AcDbEntity
  8
4
100
AcDbCircle
 10
503.3908025800984
 20
587.2723081296465
 30
0.0
 40
500.000022
100
AcDbArc
 50
348.7021330000017
 51
350.8584530000015
  0
LINE
  5
1A9
330
19
100
AcDbEntity
  8
4
100
AcDbLine
 10
997.0399715800986
 20
537.2723071296462
 30
0.0
 11
1000.390803580098
 21
537.2723071296462
 31
0.0
  0
LINE
  5
1AA
330
19
100
AcDbEntity
  8
4
100
AcDbLine
 10
935.7120905800984
 20
627.2723071296462
 30
0.0
 11
968.3908025800984
 21
627.2723071296462
 31
0.0
  0
ARC
  5
1AB
330
19
100
AcDbEntity
  8
4
100
AcDbCircle
 10
926.5241045800985
 20
620.4056071296461
 30
0.0
 40
4.99992
100
AcDbArc
 50
6.451111999999518
 51
83.5489009999989
  0
ARC
  5
1AC
330
19
100
AcDbEntity
  8
4
100
AcDbCircle
 10
988.219251580098
 20
687.1041451296462
 30
0.0
 40
5.000000999999999
100
AcDbArc
 50
11.6352459999988
 51
78.95542499999496
  0
ARC
  5
1AD
330
19
100
AcDbEntity
  8
4
100
AcDbCircle
 10
922.3908035800982
 20
663.9729901296462
 30
0.0
 40
3.000024
100
AcDbArc
 50
0.0
 51
69.28787800000323
  0
LINE
  5
1AE
330
19
100
AcDbEntity
  8
4
100
AcDbLine
 10
925.3908035800982
 20
633.8814391296462
 30
0.0
 11
925.3908035800982
 21
663.9729901296462
 31
0.0
  0
CIRCLE
  5
1AF
330
19
100
AcDbEntity
  8
4
100
AcDbCircle
 10
349.8649235800983
 20
487.2723091296464
 30
0.0
 40
23.5
  0
LINE
  5
1B0
330
19
100
AcDbEntity
  8
4
100
AcDbLine
 10
688.9908025800983
 20
510.7723091296464
 30
0.0
 11
689.9908025800983
 21
510.7723091296464
 31
0.0
  0
LINE
  5
1B1
330
19
100
AcDbEntity
  8
4
100
AcDbLine
 10
688.9908025800983
 20
463.7723091296464
 30
0.0
 11
689.9908025800983
 21
463.7723091296464
 31
0.0
  0
LINE
  5
1B2
330
19
100
AcDbEntity
  8
4
100
AcDbLine
 10
688.9908025800983
 20
463.7723091296463
 30
0.0
 11
688.9908025800983
 21
510.7723091296464
 31
0.0
  0
LINE
  5
1B3
330
19
100
AcDbEntity
  8
4
100
AcDbLine
 10
419.8649235800983
 20
1254.746684343694
 30
0.0
 11
419.8649235800979
 21
1040.746684343694
 31
0.0
  0
LINE
  5
1B4
330
19
100
AcDbEntity
  8
4
100
AcDbLine
 10
289.8649235800983
 20
1255.746684343694
 30
0.0
 11
289.8649235800979
 21
1039.746684343694
 31
0.0
  0
LINE
  5
1B5
330
19
100
AcDbEntity
  8
4
100
AcDbLine
 10
407.8649235800979
 20
1255.746684343694
 30
0.0
 11
407.8649235800979
 21
997.7466843436944
 31
0.0
  0
LINE
  5
1B6
330
19
100
AcDbEntity
  8
4
100
AcDbLine
 10
291.8649235800983
 20
1255.746684343694
 30
0.0
 11
291.8649235800981
 21
997.7466843436944
 31
0.0
  0
LINE
  5
1B7
330
19
100
AcDbEntity
  8
L-CENTER
 48
3.0
100
AcDbLine
 10
349.8649235800983
 20
940.3730219682689
 30
0.0
 11
349.8649235800983
 21
1266.496684343694
 31
0.0
  0
LINE
  5
1B8
330
19
100
AcDbEntity
  8
4
100
AcDbLine
 10
247.8649235800983
 20
1257.746684343694
 30
0.0
 11
451.8649235800981
 21
1257.746684343694
 31
0.0
  0
LINE
  5
1B9
330
19
100
AcDbEntity
  8
L-CENTER
 48
3.0
100
AcDbLine
 10
174.3861695800983
 20
1147.746684343694
 30
0.0
 11
432.0081005290402
 21
1147.746684343694
 31
0.0
  0
LINE
  5
1BA
330
19
100
AcDbEntity
  8
4
100
AcDbLine
 10
244.8649235800983
 20
1214.617148301615
 30
0.0
 11
244.8649235800983
 21
1254.746684343694
 31
0.0
  0
ARC
  5
1BB
330
19
100
AcDbEntity
  8
4
100
AcDbCircle
 10
247.8649235800983
 20
1254.746684343694
 30
0.0
 40
3.0
100
AcDbArc
 50
90.0
 51
180.0
  0
LINE
  5
1BC
330
19
100
AcDbEntity
  8
4
100
AcDbLine
 10
289.8649235800983
 20
1255.746684343694
 30
0.0
 11
291.8649235800983
 21
1255.746684343694
 31
0.0
  0
ARC
  5
1BD
330
19
100
AcDbEntity
  8
4
100
AcDbCircle
 10
293.8649235800983
 20
1255.746684343694
 30
0.0
 40
2.0
100
AcDbArc
 50
90.0
 51
180.0
  0
LINE
  5
1BE
330
19
100
AcDbEntity
  8
4
100
AcDbLine
 10
269.964923580098
 20
1200.442762775067
 30
0.0
 11
246.5444519290293
 21
1211.923386133434
 31
0.0
  0
CIRCLE
  5
1BF
330
19
100
AcDbEntity
  8
4
100
AcDbCircle
 10
264.8649235800983
 20
1227.746684343694
 30
0.0
 40
7.5
  0
LINE
  5
1C0
330
19
100
AcDbEntity
  8
L-CENTER
 48
3.0
100
AcDbLine
 10
264.8649235800983
 20
1242.746684343692
 30
0.0
 11
264.8649235800983
 21
1212.746684343697
 31
0.0
  0
ARC
  5
1C1
330
19
100
AcDbEntity
  8
4
100
AcDbCircle
 10
247.8649235800983
 20
1214.617148301615
 30
0.0
 40
3.0
100
AcDbArc
 50
180.0
 51
243.8860873697146
  0
LINE
  5
1C2
330
19
100
AcDbEntity
  8
L-CENTER
 48
3.0
100
AcDbLine
 10
279.8649235800958
 20
1227.746684343694
 30
0.0
 11
249.8649235801008
 21
1227.746684343694
 31
0.0
  0
CIRCLE
  5
1C3
330
19
100
AcDbEntity
  8
4
100
AcDbCircle
 10
349.8649235800983
 20
1147.746684343694
 30
0.0
 40
14.0
  0
LINE
  5
1C4
330
19
100
AcDbEntity
  8
4
100
AcDbLine
 10
454.8649235800981
 20
1254.746684343694
 30
0.0
 11
454.8649235800983
 21
1214.617148301615
 31
0.0
  0
ARC
  5
1C5
330
19
100
AcDbEntity
  8
4
100
AcDbCircle
 10
451.8649235800981
 20
1254.746684343694
 30
0.0
 40
3.0
100
AcDbArc
 50
0.0
 51
90.0
  0
ARC
  5
1C6
330
19
100
AcDbEntity
  8
4
100
AcDbCircle
 10
418.8649235800983
 20
1254.746684343694
 30
0.0
 40
1.0
100
AcDbArc
 50
0.0
 51
90.0
  0
LINE
  5
1C7
330
19
100
AcDbEntity
  8
4
100
AcDbLine
 10
407.8649235800983
 20
1255.746684343694
 30
0.0
 11
418.8649235800983
 21
1255.746684343694
 31
0.0
  0
ARC
  5
1C8
330
19
100
AcDbEntity
  8
4
100
AcDbCircle
 10
405.8649235800979
 20
1255.746684343694
 30
0.0
 40
2.0
100
AcDbArc
 50
0.0
 51
90.0
  0
LINE
  5
1C9
330
19
100
AcDbEntity
  8
4
100
AcDbLine
 10
427.8649235800979
 20
1108.390597614021
 30
0.0
 11
427.8649235800981
 21
1187.102771073368
 31
0.0
  0
LINE
  5
1CA
330
19
100
AcDbEntity
  8
4
100
AcDbLine
 10
453.1853952311674
 20
1211.923386133434
 30
0.0
 11
419.8649235800983
 21
1195.589821598596
 31
0.0
  0
ARC
  5
1CB
330
19
100
AcDbEntity
  8
4
100
AcDbCircle
 10
451.8649235800983
 20
1214.617148301615
 30
0.0
 40
3.0
100
AcDbArc
 50
296.1139126302854
 51
0.0
  0
CIRCLE
  5
1CC
330
19
100
AcDbEntity
  8
4
100
AcDbCircle
 10
434.8649235800983
 20
1227.746684343694
 30
0.0
 40
7.5
  0
LINE
  5
1CD
330
19
100
AcDbEntity
  8
L-CENTER
 48
3.0
100
AcDbLine
 10
434.8649235800983
 20
1242.746684343692
 30
0.0
 11
434.8649235800983
 21
1212.746684343697
 31
0.0
  0
LINE
  5
1CE
330
19
100
AcDbEntity
  8
L-CENTER
 48
3.0
100
AcDbLine
 10
449.8649235800958
 20
1227.746684343694
 30
0.0
 11
419.8649235801008
 21
1227.746684343694
 31
0.0
  0
ARC
  5
1CF
330
19
100
AcDbEntity
  8
4
100
AcDbCircle
 10
426.8649235800981
 20
1187.102771073368
 30
0.0
 40
1.0
100
AcDbArc
 50
0.0
 51
65.55604521958891
  0
LINE
  5
1D0
330
19
100
AcDbEntity
  8
4
100
AcDbLine
 10
427.2787265243994
 20
1188.01313755083
 30
0.0
 11
419.8649235800983
 21
1191.383047980058
 31
0.0
  0
LINE
  5
1D1
330
19
100
AcDbEntity
  8
L-CENTER
 48
3.0
100
AcDbLine
 10
484.9717342384303
 20
997.7466843436944
 30
0.0
 11
256.7730425800983
 21
997.7466843436944
 31
0.0
  0
LINE
  5
1D2
330
19
100
AcDbEntity
  8
4
100
AcDbLine
 10
267.8649235800983
 20
963.7466843436944
 30
0.0
 11
431.8649235800983
 21
963.7466843436944
 31
0.0
  0
LINE
  5
1D3
330
19
100
AcDbEntity
  8
4
100
AcDbLine
 10
269.8649235800983
 20
962.2466843436944
 30
0.0
 11
429.8649235800983
 21
962.2466843436944
 31
0.0
  0
LINE
  5
1D4
330
19
100
AcDbEntity
  8
4
100
AcDbLine
 10
451.8649235800983
 20
964.7466843436944
 30
0.0
 11
247.8649235800983
 21
964.7466843436944
 31
0.0
  0
LINE
  5
1D5
330
19
100
AcDbEntity
  8
4
100
AcDbLine
 10
293.8649235800981
 20
1037.746684343694
 30
0.0
 11
405.8649235800979
 21
1037.746684343694
 31
0.0
  0
LINE
  5
1D6
330
19
100
AcDbEntity
  8
4
100
AcDbLine
 10
288.8649235800981
 20
1032.746684343694
 30
0.0
 11
263.8649235800983
 21
1032.746684343694
 31
0.0
  0
LINE
  5
1D7
330
19
100
AcDbEntity
  8
4
100
AcDbLine
 10
244.8649235800983
 20
1005.876220385773
 30
0.0
 11
244.8649235800983
 21
967.7466843436944
 31
0.0
  0
LINE
  5
1D8
330
19
100
AcDbEntity
  8
4
100
AcDbLine
 10
263.8649235800983
 20
964.7466843436944
 30
0.0
 11
263.8649235800983
 21
1032.746684343694
 31
0.0
  0
ARC
  5
1D9
330
19
100
AcDbEntity
  8
4
100
AcDbCircle
 10
264.8649235800983
 20
992.7466843436944
 30
0.0
 40
7.5
100
AcDbArc
 50
105.4660099534196
 51
254.5339900465804
  0
ARC
  5
1DA
330
19
100
AcDbEntity
  8
4
100
AcDbCircle
 10
247.8649235800983
 20
1005.876220385773
 30
0.0
 40
3.0
100
AcDbArc
 50
116.1139126302854
 51
180.0
  0
LINE
  5
1DB
330
19
100
AcDbEntity
  8
4
100
AcDbLine
 10
262.8649235800983
 20
1016.570213755459
 30
0.0
 11
246.5444519290293
 21
1008.569982553954
 31
0.0
  0
LINE
  5
1DC
330
19
100
AcDbEntity
  8
4
100
AcDbLine
 10
269.8649235800983
 20
962.2466843436944
 30
0.0
 11
269.8649235800983
 21
962.7466843436944
 31
0.0
  0
ARC
  5
1DD
330
19
100
AcDbEntity
  8
4
100
AcDbCircle
 10
266.8649235800983
 20
963.7466843436944
 30
0.0
 40
1.0
100
AcDbArc
 50
0.0
 51
90.0
  0
ARC
  5
1DE
330
19
100
AcDbEntity
  8
4
100
AcDbCircle
 10
268.8649235800983
 20
962.7466843436944
 30
0.0
 40
1.0
100
AcDbArc
 50
0.0
 51
90.0
  0
ARC
  5
1DF
330
19
100
AcDbEntity
  8
4
100
AcDbCircle
 10
247.8649235800983
 20
967.7466843436944
 30
0.0
 40
3.0
100
AcDbArc
 50
180.0
 51
270.0
  0
ARC
  5
1E0
330
19
100
AcDbEntity
  8
4
100
AcDbCircle
 10
293.8649235800981
 20
1039.746684343694
 30
0.0
 40
2.0
100
AcDbArc
 50
180.0
 51
270.0
  0
LINE
  5
1E1
330
19
100
AcDbEntity
  8
4
100
AcDbLine
 10
289.8649235800979
 20
1039.746684343694
 30
0.0
 11
291.8649235800981
 21
1039.746684343694
 31
0.0
  0
ARC
  5
1E2
330
19
100
AcDbEntity
  8
4
100
AcDbCircle
 10
288.8649235800981
 20
1035.746684343694
 30
0.0
 40
3.0
100
AcDbArc
 50
270.0
 51
0.0
  0
LINE
  5
1E3
330
19
100
AcDbEntity
  8
4
100
AcDbLine
 10
454.8649235800983
 20
988.7466843436945
 30
0.0
 11
454.8649235800983
 21
967.7466843436944
 31
0.0
  0
LINE
  5
1E4
330
19
100
AcDbEntity
  8
4
100
AcDbLine
 10
435.8649235800983
 20
964.7466843436944
 30
0.0
 11
435.8649235800983
 21
1032.746684343694
 31
0.0
  0
LINE
  5
1E5
330
19
100
AcDbEntity
  8
4
100
AcDbLine
 10
435.8649235800983
 20
1032.746684343694
 30
0.0
 11
410.8649235800979
 21
1032.746684343694
 31
0.0
  0
ARC
  5
1E6
330
19
100
AcDbEntity
  8
4
100
AcDbCircle
 10
405.8649235800979
 20
1039.746684343694
 30
0.0
 40
2.0
100
AcDbArc
 50
270.0
 51
0.0
  0
ARC
  5
1E7
330
19
100
AcDbEntity
  8
4
100
AcDbCircle
 10
410.8649235800979
 20
1036.746684343694
 30
0.0
 40
3.0
100
AcDbArc
 50
90.0
 51
179.9999999999998
  0
ARC
  5
1E8
330
19
100
AcDbEntity
  8
4
100
AcDbCircle
 10
418.8649235800979
 20
1040.746684343694
 30
0.0
 40
1.0
100
AcDbArc
 50
270.0
 51
0.0
  0
LINE
  5
1E9
330
19
100
AcDbEntity
  8
4
100
AcDbLine
 10
407.8649235800979
 20
1039.746684343694
 30
0.0
 11
418.8649235800979
 21
1039.746684343694
 31
0.0
  0
ARC
  5
1EA
330
19
100
AcDbEntity
  8
4
100
AcDbCircle
 10
410.8649235800979
 20
1035.746684343694
 30
0.0
 40
3.0
100
AcDbArc
 50
179.9999999999998
 51
270.0
  0
ARC
  5
1EB
330
19
100
AcDbEntity
  8
4
100
AcDbCircle
 10
451.8649235800983
 20
1005.876220385774
 30
0.0
 40
3.0
100
AcDbArc
 50
16.86721507564175
 51
63.88608736971463
  0
ARC
  5
1EC
330
19
100
AcDbEntity
  8
4
100
AcDbCircle
 10
434.8649235800983
 20
992.7466843436944
 30
0.0
 40
7.5
100
AcDbArc
 50
285.4660099534196
 51
318.1896851042243
  0
LINE
  5
1ED
330
19
100
AcDbEntity
  8
4
100
AcDbLine
 10
436.8649235800985
 20
1016.570213755459
 30
0.0
 11
453.1853952311674
 21
1008.569982553955
 31
0.0
  0
LINE
  5
1EE
330
19
100
AcDbEntity
  8
4
100
AcDbLine
 10
429.8649235800983
 20
962.2466843436944
 30
0.0
 11
429.8649235800983
 21
962.7466843436944
 31
0.0
  0
ARC
  5
1EF
330
19
100
AcDbEntity
  8
4
100
AcDbCircle
 10
432.8649235800983
 20
963.7466843436944
 30
0.0
 40
1.0
100
AcDbArc
 50
90.0
 51
180.0
  0
ARC
  5
1F0
330
19
100
AcDbEntity
  8
4
100
AcDbCircle
 10
430.8649235800983
 20
962.7466843436944
 30
0.0
 40
1.0
100
AcDbArc
 50
90.0
 51
180.0
  0
ARC
  5
1F1
330
19
100
AcDbEntity
  8
4
100
AcDbCircle
 10
451.8649235800983
 20
967.7466843436944
 30
0.0
 40
3.0
100
AcDbArc
 50
270.0
 51
0.0
  0
LINE
  5
1F2
330
19
100
AcDbEntity
  8
4
100
AcDbLine
 10
271.8649235800983
 20
961.9466843436944
 30
0.0
 11
427.8649235800983
 21
961.9466843436944
 31
0.0
  0
LINE
  5
1F3
330
19
100
AcDbEntity
  8
4
100
AcDbLine
 10
285.8649235800983
 20
951.4466843436944
 30
0.0
 11
309.1149241695912
 21
951.4466843436936
 31
0.0
  0
LINE
  5
1F4
330
19
100
AcDbEntity
  8
4
100
AcDbLine
 10
271.8649235800983
 20
953.4466843436944
 30
0.0
 11
271.8649235800983
 21
962.2466843436944
 31
0.0
  0
ARC
  5
1F5
330
19
100
AcDbEntity
  8
4
100
AcDbCircle
 10
272.8649235800983
 20
953.4466843436946
 30
0.0
 40
1.0
100
AcDbArc
 50
180.0
 51
270.0
  0
LINE
  5
1F6
330
19
100
AcDbEntity
  8
4
100
AcDbLine
 10
285.8649235800983
 20
951.4466843436944
 30
0.0
 11
285.8649235800983
 21
952.4466843436944
 31
0.0
  0
LINE
  5
1F7
330
19
100
AcDbEntity
  8
4
100
AcDbLine
 10
326.3649235800983
 20
943.3466843436936
 30
0.0
 11
373.3649235800983
 21
943.3466843436945
 31
0.0
  0
LINE
  5
1F8
330
19
100
AcDbEntity
  8
4
100
AcDbLine
 10
320.6967406332644
 20
944.346684343694
 30
0.0
 11
379.0331065269318
 21
944.346684343694
 31
0.0
  0
LINE
  5
1F9
330
19
100
AcDbEntity
  8
4
100
AcDbLine
 10
326.3649235800983
 20
943.3466843436936
 30
0.0
 11
326.3649235800983
 21
944.346684343694
 31
0.0
  0
ARC
  5
1FA
330
19
100
AcDbEntity
  8
4
100
AcDbCircle
 10
316.6754819231094
 20
950.5860451172382
 30
0.0
 40
2.0
100
AcDbArc
 50
10.49147701233268
 51
25.03025927191928
  0
LINE
  5
1FB
330
19
100
AcDbEntity
  8
4
100
AcDbLine
 10
318.6420459330782
 20
950.9502236376024
 30
0.0
 11
319.7134586282803
 21
945.1645950835114
 31
0.0
  0
ARC
  5
1FC
330
19
100
AcDbEntity
  8
4
100
AcDbCircle
 10
320.6967406332649
 20
945.3466843436943
 30
0.0
 40
1.0
100
AcDbArc
 50
190.4914770123327
 51
270.0
  0
LINE
  5
1FD
330
19
100
AcDbEntity
  8
L-CENTER
 48
3.0
100
AcDbLine
 10
299.8649235800983
 20
941.1585209793725
 30
0.0
 11
299.8649235800983
 21
967.346684343694
 31
0.0
  0
LINE
  5
1FE
330
19
100
AcDbEntity
  8
4
  6
Continuous
 62
     3
100
AcDbLine
 10
317.6149241695912
 20
951.5081280854231
 30
0.0
 11
318.4876508547911
 21
951.4322388084497
 31
0.0
  0
LINE
  5
1FF
330
19
100
AcDbEntity
  8
4
100
AcDbLine
 10
373.3649235800983
 20
943.3466843436945
 30
0.0
 11
373.3649235800983
 21
944.3466843436945
 31
0.0
  0
LINE
  5
200
330
19
100
AcDbEntity
  8
4
100
AcDbLine
 10
426.8649235800983
 20
952.4466843436944
 30
0.0
 11
272.8649235800983
 21
952.4466843436944
 31
0.0
  0
LINE
  5
201
330
19
100
AcDbEntity
  8
4
100
AcDbLine
 10
427.8649235800983
 20
953.4466843436944
 30
0.0
 11
427.8649235800983
 21
962.2466843436944
 31
0.0
  0
ARC
  5
202
330
19
100
AcDbEntity
  8
4
100
AcDbCircle
 10
426.8649235800983
 20
953.4466843436946
 30
0.0
 40
1.0
100
AcDbArc
 50
270.0
 51
0.0
  0
LINE
  5
203
330
19
100
AcDbEntity
  8
4
100
AcDbLine
 10
436.8649235800983
 20
1021.246683343694
 30
0.0
 11
435.8649245800982
 21
1021.246683343694
 31
0.0
  0
LINE
  5
204
330
19
100
AcDbEntity
  8
4
100
AcDbLine
 10
436.8649235800983
 20
974.2466853436943
 30
0.0
 11
435.8649245800982
 21
974.2466853436943
 31
0.0
  0
LINE
  5
205
330
19
100
AcDbEntity
  8
4
100
AcDbLine
 10
436.8649235800983
 20
974.2466853436943
 30
0.0
 11
436.8649235800983
 21
1021.246683343694
 31
0.0
  0
LINE
  5
206
330
19
100
AcDbEntity
  8
4
100
AcDbLine
 10
262.8649235800983
 20
1021.246683343694
 30
0.0
 11
263.8649225800984
 21
1021.246683343694
 31
0.0
  0
LINE
  5
207
330
19
100
AcDbEntity
  8
4
100
AcDbLine
 10
262.8649235800983
 20
974.2466853436943
 30
0.0
 11
263.8649225800984
 21
974.2466853436943
 31
0.0
  0
LINE
  5
208
330
19
100
AcDbEntity
  8
4
100
AcDbLine
 10
262.8649235800983
 20
974.2466853436943
 30
0.0
 11
262.8649235800983
 21
1021.246683343694
 31
0.0
  0
LINE
  5
209
330
19
100
AcDbEntity
  8
L-CENTER
 48
3.0
100
AcDbLine
 10
689.8101024216967
 20
550.4921627915537
 30
0.0
 11
717.1956415419363
 21
550.4921627915537
 31
0.0
  0
LINE
  5
20A
330
19
100
AcDbEntity
  8
4
 48
3.0
100
AcDbLine
 10
691.7908985800982
 20
546.2421627915537
 30
0.0
 11
698.0908985800984
 21
546.2421627915537
 31
0.0
  0
LINE
  5
20B
330
19
100
AcDbEntity
  8
4
 48
3.0
100
AcDbLine
 10
691.7908985800982
 20
554.7421627915537
 30
0.0
 11
698.0908985800984
 21
554.7421627915537
 31
0.0
  0
LINE
  5
20C
330
19
100
AcDbEntity
  8
4
100
AcDbLine
 10
309.1149241695912
 20
949.946684343694
 30
0.0
 11
287.3649235800983
 21
949.946684343694
 31
0.0
  0
LINE
  5
20D
330
19
100
AcDbEntity
  8
4
100
AcDbLine
 10
310.6902411274039
 20
943.946684343694
 30
0.0
 11
289.0396060327928
 21
943.946684343694
 31
0.0
  0
LINE
  5
20E
330
19
100
AcDbEntity
  8
4
100
AcDbLine
 10
309.1149241695912
 20
951.446684343694
 30
0.0
 11
288.3649235800983
 21
951.446684343694
 31
0.0
  0
LINE
  5
20F
330
19
100
AcDbEntity
  8
4
100
AcDbLine
 10
309.1149241695912
 20
947.9466843436938
 30
0.0
 11
287.3649235800983
 21
947.946684343694
 31
0.0
  0
LWPOLYLINE
  5
210
330
19
100
AcDbEntity
  8
4
100
AcDbPolyline
 90
        2
 70
     0
 43
0.0
 10
310.6902411274039
 20
943.946684343694
 10
310.6902411274039
 20
946.1466843436942
  0
LINE
  5
211
330
19
100
AcDbEntity
  8
4
100
AcDbLine
 10
288.3649235800983
 20
949.946684343694
 30
0.0
 11
288.3649235800983
 21
951.446684343694
 31
0.0
  0
LINE
  5
212
330
19
100
AcDbEntity
  8
4
100
AcDbLine
 10
287.3649235800983
 20
947.946684343694
 30
0.0
 11
287.3649235800983
 21
949.946684343694
 31
0.0
  0
LWPOLYLINE
  5
213
330
19
100
AcDbEntity
  8
4
100
AcDbPolyline
 90
        2
 70
     0
 43
0.0
 10
289.0396060327928
 20
947.946684343694
 10
289.0396060327928
 20
943.946684343694
  0
CIRCLE
  5
214
330
19
100
AcDbEntity
  8
4
100
AcDbCircle
 10
349.8649235800983
 20
1147.746684343694
 30
0.0
 40
12.5
  0
LWPOLYLINE
  5
215
330
19
100
AcDbEntity
  8
4
100
AcDbPolyline
 90
        6
 70
     1
 43
0.0
 10
349.8649235800983
 20
1160.246684343694
 10
339.0396060327928
 20
1153.996684343694
 10
339.0396060327928
 20
1141.496684343694
 10
349.8649235800983
 20
1135.246684343694
 10
360.6902411274039
 20
1141.496684343694
 10
360.6902411274039
 20
1153.996684343694
  0
LINE
  5
216
330
19
100
AcDbEntity
  8
4
100
AcDbLine
 10
1001.390803580098
 20
514.7723091296464
 30
0.0
 11
1000.390803580098
 21
514.7723091296464
 31
0.0
  0
LINE
  5
217
330
19
100
AcDbEntity
  8
4
100
AcDbLine
 10
1001.390803580098
 20
459.7723091296464
 30
0.0
 11
1000.390803580098
 21
459.7723091296463
 31
0.0
  0
LINE
  5
218
330
19
100
AcDbEntity
  8
4
100
AcDbLine
 10
1001.390803580098
 20
514.7723091296463
 30
0.0
 11
1001.390803580098
 21
459.7723091296463
 31
0.0
  0
LINE
  5
219
330
19
100
AcDbEntity
  8
4
100
AcDbLine
 10
270.4649235800985
 20
1116.746684343694
 30
0.0
 11
270.4649235800982
 21
1178.746684343694
 31
0.0
  0
LINE
  5
21A
330
19
100
AcDbEntity
  8
4
100
AcDbLine
 10
277.4649235800973
 20
1040.746684343694
 30
0.0
 11
277.4649235800982
 21
1254.746684343694
 31
0.0
  0
LINE
  5
21B
330
19
100
AcDbEntity
  8
4
100
AcDbLine
 10
289.464923580098
 20
1255.746684343694
 30
0.0
 11
289.4649235800982
 21
1039.746684343694
 31
0.0
  0
LINE
  5
21C
330
19
100
AcDbEntity
  8
4
100
AcDbLine
 10
271.4649235800982
 20
1108.390597614021
 30
0.0
 11
271.4649235800982
 21
1187.102771073368
 31
0.0
  0
LINE
  5
21D
330
19
100
AcDbEntity
  8
4
100
AcDbLine
 10
278.4649235800982
 20
1039.746684343694
 30
0.0
 11
289.8649235800979
 21
1039.746684343694
 31
0.0
  0
ARC
  5
21E
330
19
100
AcDbEntity
  8
4
100
AcDbCircle
 10
278.4649235800982
 20
1040.746684343694
 30
0.0
 40
1.0
100
AcDbArc
 50
180.0
 51
270.0
  0
LINE
  5
21F
330
19
100
AcDbEntity
  8
4
100
AcDbLine
 10
272.0511206357971
 20
1107.480231136559
 30
0.0
 11
277.4649235800975
 21
1105.019411616422
 31
0.0
  0
LINE
  5
220
330
19
100
AcDbEntity
  8
4
100
AcDbLine
 10
270.4649235800985
 20
1116.746684343694
 30
0.0
 11
271.4649235800982
 21
1116.746684343694
 31
0.0
  0
ARC
  5
221
330
19
100
AcDbEntity
  8
4
100
AcDbCircle
 10
272.4649235800982
 20
1108.390597614021
 30
0.0
 40
1.0
100
AcDbArc
 50
180.0
 51
245.5560452195889
  0
LINE
  5
222
330
19
100
AcDbEntity
  8
4
100
AcDbLine
 10
272.0511206357969
 20
1188.01313755083
 30
0.0
 11
277.464923580098
 21
1190.473957070967
 31
0.0
  0
LINE
  5
223
330
19
100
AcDbEntity
  8
4
100
AcDbLine
 10
270.4649235800982
 20
1178.746684343694
 30
0.0
 11
271.4649235800982
 21
1178.746684343694
 31
0.0
  0
ARC
  5
224
330
19
100
AcDbEntity
  8
4
100
AcDbCircle
 10
272.4649235800982
 20
1187.102771073368
 30
0.0
 40
1.0
100
AcDbArc
 50
114.4439547804111
 51
180.0
  0
LINE
  5
225
330
19
100
AcDbEntity
  8
4
100
AcDbLine
 10
278.4649235800982
 20
1255.746684343694
 30
0.0
 11
289.8649235800983
 21
1255.746684343694
 31
0.0
  0
ARC
  5
226
330
19
100
AcDbEntity
  8
4
100
AcDbCircle
 10
278.4649235800982
 20
1254.746684343694
 30
0.0
 40
1.0
100
AcDbArc
 50
90.0
 51
180.0
  0
LINE
  5
227
330
19
100
AcDbEntity
  8
4
100
AcDbLine
 10
450.3649235800985
 20
1000.246684343694
 30
0.0
 11
479.8649235800985
 21
1000.246684343694
 31
0.0
  0
LINE
  5
228
330
19
100
AcDbEntity
  8
4
100
AcDbLine
 10
450.3649235800985
 20
995.2466843436944
 30
0.0
 11
479.8649235800985
 21
995.2466843436944
 31
0.0
  0
LINE
  5
229
330
19
100
AcDbEntity
  8
4
100
AcDbLine
 10
445.8649235800985
 20
1006.746684343694
 30
0.0
 11
478.8649235800985
 21
1006.746684343694
 31
0.0
  0
LINE
  5
22A
330
19
100
AcDbEntity
  8
4
100
AcDbLine
 10
445.8649235800985
 20
988.7466843436944
 30
0.0
 11
478.8649235800985
 21
988.7466843436944
 31
0.0
  0
ARC
  5
22B
330
19
100
AcDbEntity
  8
4
100
AcDbCircle
 10
450.3649235800985
 20
997.7466843436944
 30
0.0
 40
2.5
100
AcDbArc
 50
90.0
 51
270.0
  0
ARC
  5
22C
330
19
100
AcDbEntity
  8
4
100
AcDbCircle
 10
445.8649235800985
 20
1007.746684343694
 30
0.0
 40
1.0
100
AcDbArc
 50
180.0
 51
270.0
  0
ARC
  5
22D
330
19
100
AcDbEntity
  8
4
100
AcDbCircle
 10
445.8649235800985
 20
987.7466843436944
 30
0.0
 40
1.0
100
AcDbArc
 50
90.0
 51
180.0
  0
LINE
  5
22E
330
19
100
AcDbEntity
  8
4
100
AcDbLine
 10
444.8649235800985
 20
987.7466843436944
 30
0.0
 11
444.8649235800985
 21
1007.746684343694
 31
0.0
  0
LINE
  5
22F
330
19
100
AcDbEntity
  8
4
100
AcDbLine
 10
478.8649235800985
 20
1006.746684343694
 30
0.0
 11
479.8649235800985
 21
1005.746684343694
 31
0.0
  0
LINE
  5
230
330
19
100
AcDbEntity
  8
4
100
AcDbLine
 10
478.8649235800985
 20
1006.746684343694
 30
0.0
 11
478.8649235800985
 21
1000.246684343694
 31
0.0
  0
LINE
  5
231
330
19
100
AcDbEntity
  8
4
100
AcDbLine
 10
478.8649235800985
 20
988.7466843436944
 30
0.0
 11
479.8649235800985
 21
989.7466843436944
 31
0.0
  0
LINE
  5
232
330
19
100
AcDbEntity
  8
4
100
AcDbLine
 10
478.8649235800985
 20
995.2466843436944
 30
0.0
 11
478.8649235800985
 21
988.7466843436946
 31
0.0
  0
LINE
  5
233
330
19
100
AcDbEntity
  8
4
100
AcDbLine
 10
479.8649235800985
 20
1005.746684343694
 30
0.0
 11
479.8649235800985
 21
989.7466843436944
 31
0.0
  0
LINE
  5
234
330
19
100
AcDbEntity
  8
4
100
AcDbLine
 10
436.8649235800983
 20
1007.746684343694
 30
0.0
 11
444.8649235800985
 21
1007.746684343694
 31
0.0
  0
LINE
  5
235
330
19
100
AcDbEntity
  8
4
100
AcDbLine
 10
436.8649235800983
 20
987.7466843436943
 30
0.0
 11
444.8649235800985
 21
987.7466843436944
 31
0.0
  0
ARC
  5
236
330
19
100
AcDbEntity
  8
4
100
AcDbCircle
 10
249.8649235800983
 20
1147.746684343694
 30
0.0
 40
5.0
100
AcDbArc
 50
359.9999999999998
 51
90.0
  0
ARC
  5
237
330
19
100
AcDbEntity
  8
4
100
AcDbCircle
 10
249.8649235800983
 20
1147.746684343694
 30
0.0
 40
5.0
100
AcDbArc
 50
270.0
 51
0.0
  0
LINE
  5
238
330
19
100
AcDbEntity
  8
4
100
AcDbLine
 10
258.8649235800983
 20
1166.746684343694
 30
0.0
 11
180.8649235800983
 21
1166.746684343694
 31
0.0
  0
LINE
  5
239
330
19
100
AcDbEntity
  8
4
100
AcDbLine
 10
258.8649235800983
 20
1128.746684343694
 30
0.0
 11
180.8649235800983
 21
1128.746684343694
 31
0.0
  0
LINE
  5
23A
330
19
100
AcDbEntity
  8
4
100
AcDbLine
 10
249.8649235800983
 20
1152.746684343694
 30
0.0
 11
179.8649235800983
 21
1152.746684343694
 31
0.0
  0
LINE
  5
23B
330
19
100
AcDbEntity
  8
4
100
AcDbLine
 10
249.8649235800983
 20
1142.746684343694
 30
0.0
 11
179.8649235800983
 21
1142.746684343694
 31
0.0
  0
LINE
  5
23C
330
19
100
AcDbEntity
  8
4
100
AcDbLine
 10
180.8649235800983
 20
1128.746684343694
 30
0.0
 11
179.8649235800983
 21
1129.746684343694
 31
0.0
  0
LINE
  5
23D
330
19
100
AcDbEntity
  8
4
100
AcDbLine
 10
180.8649235800983
 20
1128.746684343694
 30
0.0
 11
180.8649235800983
 21
1142.746684343694
 31
0.0
  0
LINE
  5
23E
330
19
100
AcDbEntity
  8
4
100
AcDbLine
 10
179.8649235800983
 20
1165.746684343694
 30
0.0
 11
180.8649235800983
 21
1166.746684343694
 31
0.0
  0
LINE
  5
23F
330
19
100
AcDbEntity
  8
4
100
AcDbLine
 10
179.8649235800983
 20
1129.746684343694
 30
0.0
 11
179.8649235800983
 21
1165.746684343694
 31
0.0
  0
LINE
  5
240
330
19
100
AcDbEntity
  8
4
100
AcDbLine
 10
180.8649235800983
 20
1152.746684343694
 30
0.0
 11
180.8649235800983
 21
1166.746684343694
 31
0.0
  0
LINE
  5
241
330
19
100
AcDbEntity
  8
4
100
AcDbLine
 10
270.4649235800985
 20
1127.746684343694
 30
0.0
 11
259.8649235800983
 21
1127.746684343694
 31
0.0
  0
LINE
  5
242
330
19
100
AcDbEntity
  8
4
100
AcDbLine
 10
270.4649235800982
 20
1167.746684343694
 30
0.0
 11
259.8649235800983
 21
1167.746684343694
 31
0.0
  0
LINE
  5
243
330
19
100
AcDbEntity
  8
4
100
AcDbLine
 10
254.8649235800983
 20
1147.746684343694
 30
0.0
 11
254.8649235800983
 21
1147.746684343694
 31
0.0
  0
ARC
  5
244
330
19
100
AcDbEntity
  8
4
100
AcDbCircle
 10
258.8649235800983
 20
1127.746684343694
 30
0.0
 40
1.0
100
AcDbArc
 50
0.0
 51
90.0
  0
ARC
  5
245
330
19
100
AcDbEntity
  8
4
100
AcDbCircle
 10
258.8649235800983
 20
1167.746684343694
 30
0.0
 40
1.0
100
AcDbArc
 50
270.0
 51
0.0
  0
LINE
  5
246
330
19
100
AcDbEntity
  8
4
100
AcDbLine
 10
259.8649235800983
 20
1127.746684343694
 30
0.0
 11
259.8649235800983
 21
1167.746684343694
 31
0.0
  0
LINE
  5
247
330
19
100
AcDbEntity
  8
L-CENTER
 48
3.0
100
AcDbLine
 10
266.8660620563451
 20
673.008823104306
 30
0.0
 11
296.8087809962853
 21
673.008823104306
 31
0.0
  0
LINE
  5
248
330
19
100
AcDbEntity
  8
4
 48
3.0
100
AcDbLine
 10
276.3649235800983
 20
667.258823104306
 30
0.0
 11
277.8649235800983
 21
667.258823104306
 31
0.0
  0
LINE
  5
249
330
19
100
AcDbEntity
  8
4
 48
3.0
100
AcDbLine
 10
276.3649235800983
 20
678.758823104306
 30
0.0
 11
277.8649235800983
 21
678.758823104306
 31
0.0
  0
LINE
  5
24A
330
19
100
AcDbEntity
  8
4
 48
3.0
100
AcDbLine
 10
270.3649235800983
 20
668.008823104306
 30
0.0
 11
276.3649235800983
 21
668.008823104306
 31
0.0
  0
LINE
  5
24B
330
19
100
AcDbEntity
  8
4
 48
3.0
100
AcDbLine
 10
270.3649235800983
 20
678.008823104306
 30
0.0
 11
276.3649235800983
 21
678.008823104306
 31
0.0
  0
LINE
  5
24C
330
19
100
AcDbEntity
  8
L-CENTER
 48
3.0
100
AcDbLine
 10
266.8660620563451
 20
1246.746684343695
 30
0.0
 11
296.8087809962853
 21
1246.746684343695
 31
0.0
  0
LINE
  5
24D
330
19
100
AcDbEntity
  8
L-CENTER
 48
3.0
100
AcDbLine
 10
266.8660620563451
 20
1197.246684343694
 30
0.0
 11
296.8087809962853
 21
1197.246684343694
 31
0.0
  0
LINE
  5
24E
330
19
100
AcDbEntity
  8
4
100
AcDbLine
 10
276.3649235800983
 20
667.258823104306
 30
0.0
 11
276.3649235800983
 21
678.758823104306
 31
0.0
  0
LINE
  5
24F
330
19
100
AcDbEntity
  8
4
100
AcDbLine
 10
270.3649235800983
 20
678.008823104306
 30
0.0
 11
270.3649235800983
 21
668.008823104306
 31
0.0
  0
CIRCLE
  5
250
330
19
100
AcDbEntity
  8
4
100
AcDbCircle
 10
386.3649229906052
 20
550.4921627915535
 30
0.0
 40
4.25
  0
LINE
  5
251
330
19
100
AcDbEntity
  8
2
100
AcDbLine
 10
384.3649229906052
 20
551.646863329933
 30
0.0
 11
384.3649229906052
 21
549.3374622531744
 31
0.0
  0
LINE
  5
252
330
19
100
AcDbEntity
  8
2
100
AcDbLine
 10
388.3649229906052
 20
549.3374622531744
 30
0.0
 11
388.3649229906052
 21
551.646863329933
 31
0.0
  0
LINE
  5
253
330
19
100
AcDbEntity
  8
2
100
AcDbLine
 10
384.3649229906052
 20
549.3374622531744
 30
0.0
 11
386.3649229906052
 21
548.1827617147953
 31
0.0
  0
LINE
  5
254
330
19
100
AcDbEntity
  8
2
100
AcDbLine
 10
386.3649229906052
 20
548.1827617147953
 30
0.0
 11
388.3649229906052
 21
549.3374622531744
 31
0.0
  0
LINE
  5
255
330
19
100
AcDbEntity
  8
2
100
AcDbLine
 10
386.3649229906052
 20
552.8015638683121
 30
0.0
 11
384.3649229906052
 21
551.646863329933
 31
0.0
  0
LINE
  5
256
330
19
100
AcDbEntity
  8
2
100
AcDbLine
 10
388.3649229906052
 20
551.646863329933
 30
0.0
 11
386.3649229906052
 21
552.8015638683121
 31
0.0
  0
CIRCLE
  5
257
330
19
100
AcDbEntity
  8
4
100
AcDbCircle
 10
313.3649241695909
 20
550.4921627915535
 30
0.0
 40
4.25
  0
LINE
  5
258
330
19
100
AcDbEntity
  8
2
100
AcDbLine
 10
311.3649241695909
 20
551.646863329933
 30
0.0
 11
311.3649241695909
 21
549.3374622531744
 31
0.0
  0
LINE
  5
259
330
19
100
AcDbEntity
  8
2
100
AcDbLine
 10
315.3649241695909
 20
549.3374622531744
 30
0.0
 11
315.3649241695909
 21
551.646863329933
 31
0.0
  0
LINE
  5
25A
330
19
100
AcDbEntity
  8
2
100
AcDbLine
 10
311.3649241695909
 20
549.3374622531744
 30
0.0
 11
313.3649241695909
 21
548.1827617147953
 31
0.0
  0
LINE
  5
25B
330
19
100
AcDbEntity
  8
2
100
AcDbLine
 10
313.3649241695909
 20
548.1827617147953
 30
0.0
 11
315.3649241695909
 21
549.3374622531744
 31
0.0
  0
LINE
  5
25C
330
19
100
AcDbEntity
  8
2
100
AcDbLine
 10
313.3649241695909
 20
552.8015638683121
 30
0.0
 11
311.3649241695909
 21
551.646863329933
 31
0.0
  0
LINE
  5
25D
330
19
100
AcDbEntity
  8
2
100
AcDbLine
 10
315.3649241695909
 20
551.646863329933
 30
0.0
 11
313.3649241695909
 21
552.8015638683121
 31
0.0
  0
CIRCLE
  5
25E
330
19
100
AcDbEntity
  8
4
100
AcDbCircle
 10
276.8649245800982
 20
487.2723091296461
 30
0.0
 40
4.25
  0
LINE
  5
25F
330
19
100
AcDbEntity
  8
2
100
AcDbLine
 10
274.8649245800982
 20
488.4270096680257
 30
0.0
 11
274.8649245800982
 21
486.1176085912671
 31
0.0
  0
LINE
  5
260
330
19
100
AcDbEntity
  8
2
100
AcDbLine
 10
278.8649245800982
 20
486.1176085912671
 30
0.0
 11
278.8649245800982
 21
488.4270096680257
 31
0.0
  0
LINE
  5
261
330
19
100
AcDbEntity
  8
2
100
AcDbLine
 10
274.8649245800982
 20
486.1176085912671
 30
0.0
 11
276.8649245800982
 21
484.962908052888
 31
0.0
  0
LINE
  5
262
330
19
100
AcDbEntity
  8
2
100
AcDbLine
 10
276.8649245800982
 20
484.962908052888
 30
0.0
 11
278.8649245800982
 21
486.1176085912671
 31
0.0
  0
LINE
  5
263
330
19
100
AcDbEntity
  8
2
100
AcDbLine
 10
276.8649245800982
 20
489.5817102064048
 30
0.0
 11
274.8649245800982
 21
488.4270096680257
 31
0.0
  0
LINE
  5
264
330
19
100
AcDbEntity
  8
2
100
AcDbLine
 10
278.8649245800982
 20
488.4270096680257
 30
0.0
 11
276.8649245800982
 21
489.5817102064048
 31
0.0
  0
CIRCLE
  5
265
330
19
100
AcDbEntity
  8
4
100
AcDbCircle
 10
422.864922580098
 20
487.2723091296461
 30
0.0
 40
4.25
  0
LINE
  5
266
330
19
100
AcDbEntity
  8
2
100
AcDbLine
 10
420.864922580098
 20
488.4270096680257
 30
0.0
 11
420.864922580098
 21
486.1176085912671
 31
0.0
  0
LINE
  5
267
330
19
100
AcDbEntity
  8
2
100
AcDbLine
 10
424.864922580098
 20
486.1176085912671
 30
0.0
 11
424.864922580098
 21
488.4270096680257
 31
0.0
  0
LINE
  5
268
330
19
100
AcDbEntity
  8
2
100
AcDbLine
 10
420.864922580098
 20
486.1176085912671
 30
0.0
 11
422.864922580098
 21
484.962908052888
 31
0.0
  0
LINE
  5
269
330
19
100
AcDbEntity
  8
2
100
AcDbLine
 10
422.864922580098
 20
484.962908052888
 30
0.0
 11
424.864922580098
 21
486.1176085912671
 31
0.0
  0
LINE
  5
26A
330
19
100
AcDbEntity
  8
2
100
AcDbLine
 10
422.864922580098
 20
489.5817102064048
 30
0.0
 11
420.864922580098
 21
488.4270096680257
 31
0.0
  0
LINE
  5
26B
330
19
100
AcDbEntity
  8
2
100
AcDbLine
 10
424.864922580098
 20
488.4270096680257
 30
0.0
 11
422.864922580098
 21
489.5817102064048
 31
0.0
  0
CIRCLE
  5
26C
330
19
100
AcDbEntity
  8
4
100
AcDbCircle
 10
386.3649216915671
 20
424.0524547177388
 30
0.0
 40
4.25
  0
LINE
  5
26D
330
19
100
AcDbEntity
  8
2
100
AcDbLine
 10
384.3649216915671
 20
425.2071552561183
 30
0.0
 11
384.3649216915671
 21
422.8977541793597
 31
0.0
  0
LINE
  5
26E
330
19
100
AcDbEntity
  8
2
100
AcDbLine
 10
388.3649216915671
 20
422.8977541793597
 30
0.0
 11
388.3649216915671
 21
425.2071552561183
 31
0.0
  0
LINE
  5
26F
330
19
100
AcDbEntity
  8
2
100
AcDbLine
 10
384.3649216915671
 20
422.8977541793597
 30
0.0
 11
386.3649216915671
 21
421.7430536409806
 31
0.0
  0
LINE
  5
270
330
19
100
AcDbEntity
  8
2
100
AcDbLine
 10
386.3649216915671
 20
421.7430536409806
 30
0.0
 11
388.3649216915671
 21
422.8977541793597
 31
0.0
  0
LINE
  5
271
330
19
100
AcDbEntity
  8
2
100
AcDbLine
 10
386.3649216915671
 20
426.3618557944974
 30
0.0
 11
384.3649216915671
 21
425.2071552561183
 31
0.0
  0
LINE
  5
272
330
19
100
AcDbEntity
  8
2
100
AcDbLine
 10
388.3649216915671
 20
425.2071552561183
 30
0.0
 11
386.3649216915671
 21
426.3618557944974
 31
0.0
  0
CIRCLE
  5
273
330
19
100
AcDbEntity
  8
4
100
AcDbCircle
 10
313.3649254686288
 20
424.052454717739
 30
0.0
 40
4.25
  0
LINE
  5
274
330
19
100
AcDbEntity
  8
2
100
AcDbLine
 10
311.3649254686288
 20
425.2071552561185
 30
0.0
 11
311.3649254686288
 21
422.8977541793599
 31
0.0
  0
LINE
  5
275
330
19
100
AcDbEntity
  8
2
100
AcDbLine
 10
315.3649254686288
 20
422.8977541793599
 30
0.0
 11
315.3649254686288
 21
425.2071552561185
 31
0.0
  0
LINE
  5
276
330
19
100
AcDbEntity
  8
2
100
AcDbLine
 10
311.3649254686288
 20
422.8977541793599
 30
0.0
 11
313.3649254686288
 21
421.7430536409809
 31
0.0
  0
LINE
  5
277
330
19
100
AcDbEntity
  8
2
100
AcDbLine
 10
313.3649254686288
 20
421.7430536409809
 30
0.0
 11
315.3649254686288
 21
422.8977541793599
 31
0.0
  0
LINE
  5
278
330
19
100
AcDbEntity
  8
2
100
AcDbLine
 10
313.3649254686288
 20
426.3618557944976
 30
0.0
 11
311.3649254686288
 21
425.2071552561185
 31
0.0
  0
LINE
  5
279
330
19
100
AcDbEntity
  8
2
100
AcDbLine
 10
315.3649254686288
 20
425.2071552561185
 30
0.0
 11
313.3649254686288
 21
426.3618557944976
 31
0.0
  0
LINE
  5
27A
330
19
100
AcDbEntity
  8
4
100
AcDbLine
 10
691.7908985800982
 20
554.7421627915537
 30
0.0
 11
691.7908985800982
 21
546.2421627915537
 31
0.0
  0
LINE
  5
27B
330
19
100
AcDbEntity
  8
4
100
AcDbLine
 10
696.7908985800982
 20
546.2421627915537
 30
0.0
 11
696.7908985800982
 21
554.7421627915537
 31
0.0
  0
LINE
  5
27C
330
19
100
AcDbEntity
  8
2
100
AcDbLine
 10
696.7908985800982
 20
549.1921627915535
 30
0.0
 11
698.0908985800984
 21
550.4921627915537
 31
0.0
  0
LINE
  5
27D
330
19
100
AcDbEntity
  8
2
100
AcDbLine
 10
696.7908985800982
 20
551.0306404226385
 30
0.0
 11
698.0908985800984
 21
552.3306404226387
 31
0.0
  0
LINE
  5
27E
330
19
100
AcDbEntity
  8
L-CENTER
 48
3.0
100
AcDbLine
 10
689.8101024216967
 20
424.052455467739
 30
0.0
 11
717.1956415419363
 21
424.052455467739
 31
0.0
  0
LINE
  5
27F
330
19
100
AcDbEntity
  8
4
 48
3.0
100
AcDbLine
 10
691.7908985800982
 20
428.302455467739
 30
0.0
 11
698.0908985800984
 21
428.302455467739
 31
0.0
  0
LINE
  5
280
330
19
100
AcDbEntity
  8
4
 48
3.0
100
AcDbLine
 10
691.7908985800982
 20
419.802455467739
 30
0.0
 11
698.0908985800984
 21
419.802455467739
 31
0.0
  0
LINE
  5
281
330
19
100
AcDbEntity
  8
4
100
AcDbLine
 10
691.7908985800982
 20
419.802455467739
 30
0.0
 11
691.7908985800982
 21
428.302455467739
 31
0.0
  0
LINE
  5
282
330
19
100
AcDbEntity
  8
4
100
AcDbLine
 10
696.7908985800982
 20
428.302455467739
 30
0.0
 11
696.7908985800982
 21
419.802455467739
 31
0.0
  0
LINE
  5
283
330
19
100
AcDbEntity
  8
2
100
AcDbLine
 10
696.7908985800982
 20
425.3524554677392
 30
0.0
 11
698.0908985800984
 21
424.052455467739
 31
0.0
  0
LINE
  5
284
330
19
100
AcDbEntity
  8
2
100
AcDbLine
 10
696.7908985800982
 20
423.5139778366542
 30
0.0
 11
698.0908985800984
 21
422.2139778366541
 31
0.0
  0
LINE
  5
285
330
19
100
AcDbEntity
  8
4
 48
3.0
100
AcDbLine
 10
691.7908985800982
 20
483.0223091296464
 30
0.0
 11
698.0908985800984
 21
483.0223091296464
 31
0.0
  0
LINE
  5
286
330
19
100
AcDbEntity
  8
4
 48
3.0
100
AcDbLine
 10
691.7908985800982
 20
491.5223091296464
 30
0.0
 11
698.0908985800984
 21
491.5223091296464
 31
0.0
  0
LINE
  5
287
330
19
100
AcDbEntity
  8
4
100
AcDbLine
 10
691.7908985800982
 20
491.5223091296464
 30
0.0
 11
691.7908985800982
 21
483.0223091296464
 31
0.0
  0
LINE
  5
288
330
19
100
AcDbEntity
  8
4
100
AcDbLine
 10
696.7908985800982
 20
483.0223091296464
 30
0.0
 11
696.7908985800982
 21
491.5223091296464
 31
0.0
  0
LINE
  5
289
330
19
100
AcDbEntity
  8
2
100
AcDbLine
 10
696.7908985800982
 20
485.9723091296462
 30
0.0
 11
698.0908985800984
 21
487.2723091296464
 31
0.0
  0
LINE
  5
28A
330
19
100
AcDbEntity
  8
2
100
AcDbLine
 10
696.7908985800982
 20
487.8107867607312
 30
0.0
 11
698.0908985800984
 21
489.1107867607313
 31
0.0
  0
LINE
  5
28B
330
19
100
AcDbEntity
  8
2
100
AcDbLine
 10
276.3649235800983
 20
671.508823104306
 30
0.0
 11
277.8649235800983
 21
673.008823104306
 31
0.0
  0
LINE
  5
28C
330
19
100
AcDbEntity
  8
2
100
AcDbLine
 10
276.3649235800983
 20
673.6301434478656
 30
0.0
 11
277.8649235800983
 21
675.1301434478656
 31
0.0
  0
LINE
  5
28D
330
19
100
AcDbEntity
  8
4
 48
3.0
100
AcDbLine
 10
275.9649235800982
 20
1240.996684343695
 30
0.0
 11
277.4649235800982
 21
1240.996684343695
 31
0.0
  0
LINE
  5
28E
330
19
100
AcDbEntity
  8
4
 48
3.0
100
AcDbLine
 10
275.9649235800982
 20
1252.496684343695
 30
0.0
 11
277.4649235800982
 21
1252.496684343695
 31
0.0
  0
LINE
  5
28F
330
19
100
AcDbEntity
  8
4
 48
3.0
100
AcDbLine
 10
269.9649235800982
 20
1241.746684343695
 30
0.0
 11
275.9649235800982
 21
1241.746684343695
 31
0.0
  0
LINE
  5
290
330
19
100
AcDbEntity
  8
4
 48
3.0
100
AcDbLine
 10
269.9649235800982
 20
1251.746684343695
 30
0.0
 11
275.9649235800982
 21
1251.746684343695
 31
0.0
  0
LINE
  5
291
330
19
100
AcDbEntity
  8
4
100
AcDbLine
 10
275.9649235800982
 20
1240.996684343695
 30
0.0
 11
275.9649235800982
 21
1252.496684343695
 31
0.0
  0
LINE
  5
292
330
19
100
AcDbEntity
  8
4
100
AcDbLine
 10
269.9649235800982
 20
1251.746684343695
 30
0.0
 11
269.9649235800982
 21
1241.746684343695
 31
0.0
  0
LINE
  5
293
330
19
100
AcDbEntity
  8
4
 48
3.0
100
AcDbLine
 10
275.964923580098
 20
1191.496684343694
 30
0.0
 11
277.464923580098
 21
1191.496684343694
 31
0.0
  0
LINE
  5
294
330
19
100
AcDbEntity
  8
4
 48
3.0
100
AcDbLine
 10
275.964923580098
 20
1202.996684343694
 30
0.0
 11
277.464923580098
 21
1202.996684343694
 31
0.0
  0
LINE
  5
295
330
19
100
AcDbEntity
  8
4
 48
3.0
100
AcDbLine
 10
269.964923580098
 20
1192.246684343694
 30
0.0
 11
275.964923580098
 21
1192.246684343694
 31
0.0
  0
LINE
  5
296
330
19
100
AcDbEntity
  8
4
 48
3.0
100
AcDbLine
 10
269.964923580098
 20
1202.246684343694
 30
0.0
 11
275.964923580098
 21
1202.246684343694
 31
0.0
  0
LINE
  5
297
330
19
100
AcDbEntity
  8
4
100
AcDbLine
 10
275.964923580098
 20
1191.496684343694
 30
0.0
 11
275.964923580098
 21
1202.996684343694
 31
0.0
  0
LINE
  5
298
330
19
100
AcDbEntity
  8
4
100
AcDbLine
 10
269.964923580098
 20
1202.246684343694
 30
0.0
 11
269.964923580098
 21
1192.246684343694
 31
0.0
  0
LINE
  5
299
330
19
100
AcDbEntity
  8
L-CENTER
 48
3.0
100
AcDbLine
 10
266.8660620563451
 20
1048.746684343694
 30
0.0
 11
296.8087809962853
 21
1048.746684343694
 31
0.0
  0
LINE
  5
29A
330
19
100
AcDbEntity
  8
L-CENTER
 48
3.0
100
AcDbLine
 10
266.8660620563451
 20
1098.246684343694
 30
0.0
 11
296.8087809962853
 21
1098.246684343694
 31
0.0
  0
LINE
  5
29B
330
19
100
AcDbEntity
  8
4
 48
3.0
100
AcDbLine
 10
275.9649235800982
 20
1054.496684343694
 30
0.0
 11
277.4649235800982
 21
1054.496684343694
 31
0.0
  0
LINE
  5
29C
330
19
100
AcDbEntity
  8
4
 48
3.0
100
AcDbLine
 10
275.9649235800982
 20
1042.996684343694
 30
0.0
 11
277.4649235800982
 21
1042.996684343694
 31
0.0
  0
LINE
  5
29D
330
19
100
AcDbEntity
  8
4
 48
3.0
100
AcDbLine
 10
269.9649235800982
 20
1053.746684343694
 30
0.0
 11
275.9649235800982
 21
1053.746684343694
 31
0.0
  0
LINE
  5
29E
330
19
100
AcDbEntity
  8
4
 48
3.0
100
AcDbLine
 10
269.9649235800982
 20
1043.746684343694
 30
0.0
 11
275.9649235800982
 21
1043.746684343694
 31
0.0
  0
LINE
  5
29F
330
19
100
AcDbEntity
  8
4
100
AcDbLine
 10
275.9649235800982
 20
1054.496684343694
 30
0.0
 11
275.9649235800982
 21
1042.996684343694
 31
0.0
  0
LINE
  5
2A0
330
19
100
AcDbEntity
  8
4
100
AcDbLine
 10
269.9649235800982
 20
1043.746684343694
 30
0.0
 11
269.9649235800982
 21
1053.746684343694
 31
0.0
  0
LINE
  5
2A1
330
19
100
AcDbEntity
  8
4
 48
3.0
100
AcDbLine
 10
275.964923580098
 20
1103.996684343694
 30
0.0
 11
277.464923580098
 21
1103.996684343694
 31
0.0
  0
LINE
  5
2A2
330
19
100
AcDbEntity
  8
4
 48
3.0
100
AcDbLine
 10
275.964923580098
 20
1092.496684343694
 30
0.0
 11
277.464923580098
 21
1092.496684343694
 31
0.0
  0
LINE
  5
2A3
330
19
100
AcDbEntity
  8
4
 48
3.0
100
AcDbLine
 10
269.964923580098
 20
1103.246684343694
 30
0.0
 11
275.964923580098
 21
1103.246684343694
 31
0.0
  0
LINE
  5
2A4
330
19
100
AcDbEntity
  8
4
 48
3.0
100
AcDbLine
 10
269.964923580098
 20
1093.246684343694
 30
0.0
 11
275.964923580098
 21
1093.246684343694
 31
0.0
  0
LINE
  5
2A5
330
19
100
AcDbEntity
  8
4
100
AcDbLine
 10
275.964923580098
 20
1103.996684343694
 30
0.0
 11
275.964923580098
 21
1092.496684343694
 31
0.0
  0
LINE
  5
2A6
330
19
100
AcDbEntity
  8
4
100
AcDbLine
 10
269.964923580098
 20
1093.246684343694
 30
0.0
 11
269.964923580098
 21
1103.246684343694
 31
0.0
  0
ARC
  5
2A7
330
19
100
AcDbEntity
  8
4
100
AcDbCircle
 10
426.8649235800981
 20
1108.390597614021
 30
0.0
 40
1.0
100
AcDbArc
 50
294.443954780409
 51
0.0
  0
LINE
  5
2A8
330
19
100
AcDbEntity
  8
4
100
AcDbLine
 10
427.2787265243994
 20
1107.480231136559
 30
0.0
 11
419.8649235800983
 21
1104.110320707331
 31
0.0
  0
LINE
  5
2A9
330
19
100
AcDbEntity
  8
L-CENTER
 48
3.0
100
AcDbLine
 10
276.8649245800984
 20
944.1658881852927
 30
0.0
 11
276.8649245800984
 21
971.5514273055323
 31
0.0
  0
LINE
  5
2AA
330
19
100
AcDbEntity
  8
4
 48
3.0
100
AcDbLine
 10
281.1149245800984
 20
946.1466843436942
 30
0.0
 11
281.1149245800984
 21
952.4466843436944
 31
0.0
  0
LINE
  5
2AB
330
19
100
AcDbEntity
  8
4
 48
3.0
100
AcDbLine
 10
272.6149245800984
 20
946.1466843436942
 30
0.0
 11
272.6149245800984
 21
952.4466843436944
 31
0.0
  0
LINE
  5
2AC
330
19
100
AcDbEntity
  8
4
100
AcDbLine
 10
272.6149245800984
 20
946.1466843436942
 30
0.0
 11
281.1149245800984
 21
946.1466843436942
 31
0.0
  0
LINE
  5
2AD
330
19
100
AcDbEntity
  8
4
100
AcDbLine
 10
281.1149245800984
 20
951.1466843436942
 30
0.0
 11
272.6149245800984
 21
951.1466843436942
 31
0.0
  0
LINE
  5
2AE
330
19
100
AcDbEntity
  8
L-CENTER
 48
3.0
100
AcDbLine
 10
313.3649241695912
 20
944.1658881852927
 30
0.0
 11
313.3649241695912
 21
971.5514273055323
 31
0.0
  0
LINE
  5
2AF
330
19
100
AcDbEntity
  8
4
 48
3.0
100
AcDbLine
 10
317.6149241695912
 20
946.1466843436942
 30
0.0
 11
317.6149241695912
 21
952.4466843436944
 31
0.0
  0
LINE
  5
2B0
330
19
100
AcDbEntity
  8
4
 48
3.0
100
AcDbLine
 10
309.1149241695912
 20
946.1466843436942
 30
0.0
 11
309.1149241695912
 21
952.4466843436944
 31
0.0
  0
LINE
  5
2B1
330
19
100
AcDbEntity
  8
4
100
AcDbLine
 10
309.1149241695912
 20
946.1466843436942
 30
0.0
 11
317.6149241695912
 21
946.1466843436942
 31
0.0
  0
LINE
  5
2B2
330
19
100
AcDbEntity
  8
4
100
AcDbLine
 10
317.6149241695912
 20
951.1466843436942
 30
0.0
 11
309.1149241695912
 21
951.1466843436942
 31
0.0
  0
LINE
  5
2B3
330
19
100
AcDbEntity
  8
L-CENTER
 48
3.0
100
AcDbLine
 10
422.8649225800982
 20
944.1658881852927
 30
0.0
 11
422.8649225800982
 21
971.5514273055323
 31
0.0
  0
LINE
  5
2B4
330
19
100
AcDbEntity
  8
4
 48
3.0
100
AcDbLine
 10
418.6149225800982
 20
946.1466843436942
 30
0.0
 11
418.6149225800982
 21
952.4466843436944
 31
0.0
  0
LINE
  5
2B5
330
19
100
AcDbEntity
  8
4
 48
3.0
100
AcDbLine
 10
427.1149225800982
 20
946.1466843436942
 30
0.0
 11
427.1149225800982
 21
952.4466843436944
 31
0.0
  0
LINE
  5
2B6
330
19
100
AcDbEntity
  8
4
100
AcDbLine
 10
427.1149225800982
 20
946.1466843436942
 30
0.0
 11
418.6149225800982
 21
946.1466843436942
 31
0.0
  0
LINE
  5
2B7
330
19
100
AcDbEntity
  8
4
100
AcDbLine
 10
418.6149225800982
 20
951.1466843436942
 30
0.0
 11
427.1149225800982
 21
951.1466843436942
 31
0.0
  0
LINE
  5
2B8
330
19
100
AcDbEntity
  8
L-CENTER
 48
3.0
100
AcDbLine
 10
386.3649229906055
 20
944.1658881852927
 30
0.0
 11
386.3649229906055
 21
971.5514273055323
 31
0.0
  0
LINE
  5
2B9
330
19
100
AcDbEntity
  8
4
 48
3.0
100
AcDbLine
 10
382.1149229906055
 20
946.1466843436942
 30
0.0
 11
382.1149229906055
 21
952.4466843436944
 31
0.0
  0
LINE
  5
2BA
330
19
100
AcDbEntity
  8
4
 48
3.0
100
AcDbLine
 10
390.6149229906055
 20
946.1466843436942
 30
0.0
 11
390.6149229906055
 21
952.4466843436944
 31
0.0
  0
LINE
  5
2BB
330
19
100
AcDbEntity
  8
4
100
AcDbLine
 10
390.6149229906055
 20
946.1466843436942
 30
0.0
 11
382.1149229906055
 21
946.1466843436942
 31
0.0
  0
LINE
  5
2BC
330
19
100
AcDbEntity
  8
4
100
AcDbLine
 10
382.1149229906055
 20
951.1466843436942
 30
0.0
 11
390.6149229906055
 21
951.1466843436942
 31
0.0
  0
ARC
  5
2BD
330
19
100
AcDbEntity
  8
4
100
AcDbCircle
 10
383.0543652370873
 20
950.5860451172382
 30
0.0
 40
2.0
100
AcDbArc
 50
154.9697407280803
 51
169.5085229876659
  0
LINE
  5
2BE
330
19
100
AcDbEntity
  8
4
100
AcDbLine
 10
381.0878012271185
 20
950.9502236376024
 30
0.0
 11
380.0163885319164
 21
945.1645950835114
 31
0.0
  0
ARC
  5
2BF
330
19
100
AcDbEntity
  8
4
100
AcDbCircle
 10
379.0331065269318
 20
945.3466843436943
 30
0.0
 40
1.0
100
AcDbArc
 50
270.0
 51
349.508522987666
  0
LINE
  5
2C0
330
19
100
AcDbEntity
  8
4
  6
Continuous
 62
     3
100
AcDbLine
 10
382.1149229906055
 20
951.5081280854231
 30
0.0
 11
381.2421963054055
 21
951.4322388084497
 31
0.0
  0
ENDSEC
  0
SECTION
  2
OBJECTS
  0
DICTIONARY
  5
9
330
0
100
AcDbDictionary
281
     1
  3
ACAD_COLOR
350
30
  3
ACAD_GROUP
350
2E
  3
ACAD_LAYOUT
350
22
  3
ACAD_MATERIAL
350
B
  3
ACAD_MLEADERSTYLE
350
2C4
  3
ACAD_MLINESTYLE
350
17
  3
ACAD_PLOTSETTINGS
350
2F
  3
ACAD_PLOTSTYLENAME
350
8
  3
ACAD_SCALELIST
350
36
  3
ACAD_TABLESTYLE
350
2C3
  3
ACAD_VISUALSTYLE
350
31
  3
ACDBHEADERROUNDTRIPXREC
350
2E6
  3
AcDbVariableDictionary
350
2C1
  3
DWGPROPS
350
2E9
  0
DICTIONARY
  5
2EA
330
2D
100
AcDbDictionary
280
     1
281
     1
  3
ACAD_XREC_ROUNDTRIP
360
2EB
  0
DICTIONARY
  5
3
330
2
100
AcDbDictionary
280
     1
281
     1
  3
ACAD_LAYERSTATES
360
4
  0
DICTIONARY
  5
1E
330
1D
100
AcDbDictionary
280
     1
281
     1
  3
ADSK_XREC_LAYER_RECONCILED
360
1F
  0
DICTIONARY
  5
5
330
1
100
AcDbDictionary
280
     1
281
     1
  3
ADSK_XREC_LAYER_RECONCILED
360
6
  0
DICTIONARY
  5
6C
330
6B
100
AcDbDictionary
280
     1
281
     1
  3
ADSK_XREC_LAYER_RECONCILED
360
6D
  0
DICTIONARY
  5
70
330
6F
100
AcDbDictionary
280
     1
281
     1
  3
ADSK_XREC_LAYER_RECONCILED
360
71
  0
DICTIONARY
  5
1A
330
19
100
AcDbDictionary
280
     1
281
     1
  3
ACAD_SORTENTS
360
1B
  0
DICTIONARY
  5
30
102
{ACAD_REACTORS
330
9
102
}
330
9
100
AcDbDictionary
281
     1
  0
DICTIONARY
  5
2E
102
{ACAD_REACTORS
330
9
102
}
330
9
100
AcDbDictionary
281
     1
  0
DICTIONARY
  5
22
102
{ACAD_REACTORS
330
9
102
}
330
9
100
AcDbDictionary
281
     1
  3
Model
350
21
  3
レイアウト1
350
2A
  0
DICTIONARY
  5
B
102
{ACAD_REACTORS
330
9
102
}
330
9
100
AcDbDictionary
281
     1
  3
ByBlock
350
69
  3
ByLayer
350
12
  3
Global
350
A
  0
DICTIONARY
  5
2C4
102
{ACAD_REACTORS
330
9
102
}
330
9
100
AcDbDictionary
281
     1
  3
Standard
350
2E0
  0
DICTIONARY
  5
17
102
{ACAD_REACTORS
330
9
102
}
330
9
100
AcDbDictionary
281
     1
  3
STANDARD
350
16
  0
DICTIONARY
  5
2F
102
{ACAD_REACTORS
330
9
102
}
330
9
100
AcDbDictionary
281
     1
  0
ACDBDICTIONARYWDFLT
  5
8
102
{ACAD_REACTORS
330
9
102
}
330
9
100
AcDbDictionary
281
     1
  3
Normal
350
7
100
AcDbDictionaryWithDefault
340
7
  0
DICTIONARY
  5
36
102
{ACAD_REACTORS
330
9
102
}
330
9
100
AcDbDictionary
281
     1
  3
*A1
350
58
  3
*A10
350
61
  3
*A11
350
62
  3
*A12
350
63
  3
*A13
350
64
  3
*A14
350
65
  3
*A15
350
66
  3
*A16
350
67
  3
*A17
350
68
  3
*A2
350
59
  3
*A3
350
5A
  3
*A4
350
5B
  3
*A5
350
5C
  3
*A6
350
5D
  3
*A7
350
5E
  3
*A8
350
5F
  3
*A9
350
60
  0
DICTIONARY
  5
2C3
102
{ACAD_REACTORS
330
9
102
}
330
9
100
AcDbDictionary
281
     1
  3
Standard
350
2DF
  0
DICTIONARY
  5
31
102
{ACAD_REACTORS
330
9
102
}
330
9
100
AcDbDictionary
281
     1
  3
2dWireframe
350
2CB
  3
Basic
350
2CE
  3
Brighten
350
2D2
  3
ColorChange
350
2D6
  3
Conceptual
350
2D0
  3
Dim
350
2D1
  3
EdgeColorOff
350
2D9
  3
Facepattern
350
2D5
  3
Flat
350
2C7
  3
FlatWithEdges
350
2C8
  3
Gouraud
350
2C9
  3
GouraudWithEdges
350
2CA
  3
Hidden
350
2CD
  3
JitterOff
350
2D7
  3
Linepattern
350
2D4
  3
OverhangOff
350
2D8
  3
Realistic
350
2CF
  3
Shaded
350
2DE
  3
Shaded with edges
350
2DD
  3
Shades of Gray
350
2DA
  3
Sketchy
350
2DB
  3
Thicken
350
2D3
  3
Wireframe
350
2CC
  3
X-Ray
350
2DC
  0
DICTIONARY
  5
2E6
102
{ACAD_REACTORS
330
9
102
}
330
9
100
AcDbDictionary
281
     1
  3
COLORDICT
350
2E7
  3
MATERIALDICT
350
2E8
  0
DICTIONARY
  5
2C1
102
{ACAD_REACTORS
330
9
102
}
330
9
100
AcDbDictionary
281
     1
  3
CANNOSCALE
350
2C2
  3
CMLEADERSTYLE
350
2E3
  3
CTABLESTYLE
350
2E2
  3
DIMASSOC
350
2E4
  3
HIDETEXT
350
2E5
  3
MSLTSCALE
350
2EC
  0
XRECORD
  5
2E9
102
{ACAD_REACTORS
330
9
102
}
330
9
100
AcDbXrecord
280
     1
  1
DWGPROPS COOKIE
  2

  3

  4

  6

  7

  8
sg-d04
  9

300
=
301
=
302
=
303
=
304
=
305
=
306
=
307
=
308
=
309
=
 40
0.0
 41
2449812.756805555
 42
2457897.306854699
  1

 90
        0
  0
XRECORD
  5
2EB
102
{ACAD_REACTORS
330
2EA
102
}
330
2EA
100
AcDbXrecord
280
     1
102
VTR_0.000_0.000_1.000_1.000_GRIDDISPLAY
 70
     3
102
VTR_0.000_0.000_1.000_1.000_GRIDMAJOR
 70
     5
102
VTR_0.000_0.000_1.000_1.000_DEFAULTLIGHTING
280
     1
102
VTR_0.000_0.000_1.000_1.000_DEFAULTLIGHTINGTYPE
 70
     1
102
VTR_0.000_0.000_1.000_1.000_BRIGHTNESS
141
0.0
102
VTR_0.000_0.000_1.000_1.000_CONTRAST
142
0.0
  0
DICTIONARY
  5
4
102
{ACAD_REACTORS
330
3
102
}
330
3
100
AcDbDictionary
281
     1
  0
XRECORD
  5
1F
102
{ACAD_REACTORS
330
1E
102
}
330
1E
100
AcDbXrecord
280
     1
290
     1
  0
XRECORD
  5
6
102
{ACAD_REACTORS
330
5
102
}
330
5
100
AcDbXrecord
280
     1
290
     1
  0
XRECORD
  5
6D
102
{ACAD_REACTORS
330
6C
102
}
330
6C
100
AcDbXrecord
280
     1
290
     1
  0
XRECORD
  5
71
102
{ACAD_REACTORS
330
70
102
}
330
70
100
AcDbXrecord
280
     1
290
     1
  0
SORTENTSTABLE
  5
1B
102
{ACAD_REACTORS
330
1A
102
}
330
1A
100
AcDbSortentsTable
330
19
  0
LAYOUT
  5
21
102
{ACAD_REACTORS
330
22
102
}
102
{ACAD_XDICTIONARY
360
23
102
}
330
22
100
AcDbPlotSettings
  1

  2
Bullzip PDF Printer.pc3
  4
A3
  6

 40
0.2
 41
0.0
 42
0.0
 43
0.0
 44
420.2
 45
297.1
 46
25.0
 47
12.0
 48
57.49999988333332
 49
10.0
140
1203.499997258333
141
827.4999980924998
142
1.0
143
3.0
 70
 11936
 72
     1
 73
     0
 74
     4
  7
monochrome.ctb
 75
     0
147
0.4
148
-57.49999988333332
149
-10.0
100
AcDbLayout
  1
Model
 70
     0
 71
     0
 10
0.0
 20
0.0
 11
12.0
 21
9.0
 12
0.0
 22
0.0
 32
0.0
 14
99.12674029839468
 24
353.8703738664901
 34
0.0
 15
1009.010363155387
 25
1266.496684343694
 35
0.0
146
0.0
 13
0.0
 23
0.0
 33
0.0
 16
1.0
 26
0.0
 36
0.0
 17
0.0
 27
1.0
 37
0.0
 76
     0
330
19
331
33
1001
ACAD_PSEXT
1000
Bullzip PDF Printer.pc3
1000
Bullzip PDF Printer
1000
BULLZIP
1000
Bullzip PDF Printer 10.1.0.1871
1070
     0
  0
LAYOUT
  5
2A
102
{ACAD_REACTORS
330
22
102
}
330
22
100
AcDbPlotSettings
  1

  2
RICOH imagio Neo 250 RP-GL/2
  4

  6

 40
0.0
 41
0.0
 42
0.0
 43
0.0
 44
0.0
 45
0.0
 46
0.0
 47
0.0
 48
0.0
 49
0.0
140
0.0
141
0.0
142
1.0
143
1.0
 70
   688
 72
     0
 73
     0
 74
     5
  7
monochrome.ctb
 75
    16
147
1.0
148
0.0
149
0.0
100
AcDbLayout
  1
レイアウト1
 70
     0
 71
     1
 10
0.0
 20
0.0
 11
12.0
 21
9.0
 12
0.0
 22
0.0
 32
0.0
 14
1.000000000000000E+20
 24
1.000000000000000E+20
 34
1.000000000000000E+20
 15
-1.000000000000000E+20
 25
-1.000000000000000E+20
 35
-1.000000000000000E+20
146
0.0
 13
0.0
 23
0.0
 33
0.0
 16
1.0
 26
0.0
 36
0.0
 17
0.0
 27
1.0
 37
0.0
 76
     0
330
27
  0
MATERIAL
  5
69
102
{ACAD_REACTORS
330
B
102
}
102
{ACAD_XDICTIONARY
360
2F1
102
}
330
B
100
AcDbMaterial
  1
BYBLOCK
 72
     0
 73
     2
 43
0.0208333333333333
 43
0.0
 43
0.0
 43
0.0
 43
0.0
 43
0.0208333333333333
 43
0.0
 43
0.0
 43
0.0
 43
0.0
 43
1.0
 43
0.0
 43
0.0
 43
0.0
 43
0.0
 43
1.0
 77
     0
 78
     2
 47
0.0208333333333333
 47
0.0
 47
0.0
 47
0.0
 47
0.0
 47
0.0208333333333333
 47
0.0
 47
0.0
 47
0.0
 47
0.0
 47
1.0
 47
0.0
 47
0.0
 47
0.0
 47
0.0
 47
1.0
171
     0
172
     2
 49
0.0208333333333333
 49
0.0
 49
0.0
 49
0.0
 49
0.0
 49
0.0208333333333333
 49
0.0
 49
0.0
 49
0.0
 49
0.0
 49
1.0
 49
0.0
 49
0.0
 49
0.0
 49
0.0
 49
1.0
175
     0
176
     2
142
0.0208333333333333
142
0.0
142
0.0
142
0.0
142
0.0
142
0.0208333333333333
142
0.0
142
0.0
142
0.0
142
0.0
142
1.0
142
0.0
142
0.0
142
0.0
142
0.0
142
1.0
179
     0
270
     2
144
0.0208333333333333
144
0.0
144
0.0
144
0.0
144
0.0
144
0.0208333333333333
144
0.0
144
0.0
144
0.0
144
0.0
144
1.0
144
0.0
144
0.0
144
0.0
144
0.0
144
1.0
274
     2
147
0.0208333333333333
147
0.0
147
0.0
147
0.0
147
0.0
147
0.0208333333333333
147
0.0
147
0.0
147
0.0
147
0.0
147
1.0
147
0.0
147
0.0
147
0.0
147
0.0
147
1.0
  0
MATERIAL
  5
12
102
{ACAD_REACTORS
330
B
102
}
102
{ACAD_XDICTIONARY
360
2ED
102
}
330
B
100
AcDbMaterial
  1
BYLAYER
 72
     0
 73
     2
 43
0.0208333333333333
 43
0.0
 43
0.0
 43
0.0
 43
0.0
 43
0.0208333333333333
 43
0.0
 43
0.0
 43
0.0
 43
0.0
 43
1.0
 43
0.0
 43
0.0
 43
0.0
 43
0.0
 43
1.0
 77
     0
 78
     2
 47
0.0208333333333333
 47
0.0
 47
0.0
 47
0.0
 47
0.0
 47
0.0208333333333333
 47
0.0
 47
0.0
 47
0.0
 47
0.0
 47
1.0
 47
0.0
 47
0.0
 47
0.0
 47
0.0
 47
1.0
171
     0
172
     2
 49
0.0208333333333333
 49
0.0
 49
0.0
 49
0.0
 49
0.0
 49
0.0208333333333333
 49
0.0
 49
0.0
 49
0.0
 49
0.0
 49
1.0
 49
0.0
 49
0.0
 49
0.0
 49
0.0
 49
1.0
175
     0
176
     2
142
0.0208333333333333
142
0.0
142
0.0
142
0.0
142
0.0
142
0.0208333333333333
142
0.0
142
0.0
142
0.0
142
0.0
142
1.0
142
0.0
142
0.0
142
0.0
142
0.0
142
1.0
179
     0
270
     2
144
0.0208333333333333
144
0.0
144
0.0
144
0.0
144
0.0
144
0.0208333333333333
144
0.0
144
0.0
144
0.0
144
0.0
144
1.0
144
0.0
144
0.0
144
0.0
144
0.0
144
1.0
274
     2
147
0.0208333333333333
147
0.0
147
0.0
147
0.0
147
0.0
147
0.0208333333333333
147
0.0
147
0.0
147
0.0
147
0.0
147
1.0
147
0.0
147
0.0
147
0.0
147
0.0
147
1.0
  0
MATERIAL
  5
A
102
{ACAD_REACTORS
330
B
102
}
102
{ACAD_XDICTIONARY
360
2EF
102
}
330
B
100
AcDbMaterial
  1
GLOBAL
 72
     0
 73
     2
 43
0.0208333333333333
 43
0.0
 43
0.0
 43
0.0
 43
0.0
 43
0.0208333333333333
 43
0.0
 43
0.0
 43
0.0
 43
0.0
 43
1.0
 43
0.0
 43
0.0
 43
0.0
 43
0.0
 43
1.0
 77
     0
 78
     2
 47
0.0208333333333333
 47
0.0
 47
0.0
 47
0.0
 47
0.0
 47
0.0208333333333333
 47
0.0
 47
0.0
 47
0.0
 47
0.0
 47
1.0
 47
0.0
 47
0.0
 47
0.0
 47
0.0
 47
1.0
171
     0
172
     2
 49
0.0208333333333333
 49
0.0
 49
0.0
 49
0.0
 49
0.0
 49
0.0208333333333333
 49
0.0
 49
0.0
 49
0.0
 49
0.0
 49
1.0
 49
0.0
 49
0.0
 49
0.0
 49
0.0
 49
1.0
175
     0
176
     2
142
0.0208333333333333
142
0.0
142
0.0
142
0.0
142
0.0
142
0.0208333333333333
142
0.0
142
0.0
142
0.0
142
0.0
142
1.0
142
0.0
142
0.0
142
0.0
142
0.0
142
1.0
179
     0
270
     2
144
0.0208333333333333
144
0.0
144
0.0
144
0.0
144
0.0
144
0.0208333333333333
144
0.0
144
0.0
144
0.0
144
0.0
144
1.0
144
0.0
144
0.0
144
0.0
144
0.0
144
1.0
274
     2
147
0.0208333333333333
147
0.0
147
0.0
147
0.0
147
0.0
147
0.0208333333333333
147
0.0
147
0.0
147
0.0
147
0.0
147
1.0
147
0.0
147
0.0
147
0.0
147
0.0
147
1.0
  0
MLEADERSTYLE
  5
2E0
102
{ACAD_REACTORS
330
2C4
102
}
102
{ACAD_XDICTIONARY
360
323
102
}
330
2C4
100
AcDbMLeaderStyle
170
     2
171
     1
172
     0
 90
        2
 40
0.0
 41
0.0
173
     1
 91
-1056964608
340
F
 92
       -2
290
     1
 42
0.09
291
     1
 43
0.36
  3
Standard
341
0
 44
0.18
300

342
10
174
     1
178
     6
175
     1
176
     0
 93
-1056964608
 45
0.18
292
     0
297
     0
 46
0.18
343
0
 94
-1056964608
 47
1.0
 49
1.0
140
1.0
293
     1
141
0.0
294
     1
177
     0
142
1.0
295
     0
296
     0
143
0.125
1001
ACAD_MLEADERVER
1070
     2
  0
MLINESTYLE
  5
16
102
{ACAD_REACTORS
330
17
102
}
330
17
100
AcDbMlineStyle
  2
STANDARD
 70
     0
  3

 62
     0
 51
90.0
 52
90.0
 71
     2
 49
0.5
 62
   256
  6
BYLAYER
 49
-0.5
 62
   256
  6
BYLAYER
  0
ACDBPLACEHOLDER
  5
7
102
{ACAD_REACTORS
330
8
102
}
330
8
  0
SCALE
  5
58
102
{ACAD_REACTORS
330
36
102
}
330
36
100
AcDbScale
 70
     0
300
1:1
140
1.0
141
1.0
290
     1
  0
SCALE
  5
61
102
{ACAD_REACTORS
330
36
102
}
330
36
100
AcDbScale
 70
     0
300
3/8" = 1'-0"
140
0.375
141
12.0
290
     0
  0
SCALE
  5
62
102
{ACAD_REACTORS
330
36
102
}
330
36
100
AcDbScale
 70
     0
300
1/2" = 1'-0"
140
0.5
141
12.0
290
     0
  0
SCALE
  5
63
102
{ACAD_REACTORS
330
36
102
}
330
36
100
AcDbScale
 70
     0
300
3/4" = 1'-0"
140
0.75
141
12.0
290
     0
  0
SCALE
  5
64
102
{ACAD_REACTORS
330
36
102
}
330
36
100
AcDbScale
 70
     0
300
1" = 1'-0"
140
1.0
141
12.0
290
     0
  0
SCALE
  5
65
102
{ACAD_REACTORS
330
36
102
}
330
36
100
AcDbScale
 70
     0
300
1-1/2" = 1'-0"
140
1.5
141
12.0
290
     0
  0
SCALE
  5
66
102
{ACAD_REACTORS
330
36
102
}
330
36
100
AcDbScale
 70
     0
300
3" = 1'-0"
140
3.0
141
12.0
290
     0
  0
SCALE
  5
67
102
{ACAD_REACTORS
330
36
102
}
330
36
100
AcDbScale
 70
     0
300
6" = 1'-0"
140
6.0
141
12.0
290
     0
  0
SCALE
  5
68
102
{ACAD_REACTORS
330
36
102
}
330
36
100
AcDbScale
 70
     0
300
1'-0" = 1'-0"
140
12.0
141
12.0
290
     0
  0
SCALE
  5
59
102
{ACAD_REACTORS
330
36
102
}
330
36
100
AcDbScale
 70
     0
300
1/128" = 1'-0"
140
0.0078125
141
12.0
290
     0
  0
SCALE
  5
5A
102
{ACAD_REACTORS
330
36
102
}
330
36
100
AcDbScale
 70
     0
300
1/64" = 1'-0"
140
0.015625
141
12.0
290
     0
  0
SCALE
  5
5B
102
{ACAD_REACTORS
330
36
102
}
330
36
100
AcDbScale
 70
     0
300
1/32" = 1'-0"
140
0.03125
141
12.0
290
     0
  0
SCALE
  5
5C
102
{ACAD_REACTORS
330
36
102
}
330
36
100
AcDbScale
 70
     0
300
1/16" = 1'-0"
140
0.0625
141
12.0
290
     0
  0
SCALE
  5
5D
102
{ACAD_REACTORS
330
36
102
}
330
36
100
AcDbScale
 70
     0
300
3/32" = 1'-0"
140
0.09375
141
12.0
290
     0
  0
SCALE
  5
5E
102
{ACAD_REACTORS
330
36
102
}
330
36
100
AcDbScale
 70
     0
300
1/8" = 1'-0"
140
0.125
141
12.0
290
     0
  0
SCALE
  5
5F
102
{ACAD_REACTORS
330
36
102
}
330
36
100
AcDbScale
 70
     0
300
3/16" = 1'-0"
140
0.1875
141
12.0
290
     0
  0
SCALE
  5
60
102
{ACAD_REACTORS
330
36
102
}
330
36
100
AcDbScale
 70
     0
300
1/4" = 1'-0"
140
0.25
141
12.0
290
     0
  0
TABLESTYLE
  5
2DF
102
{ACAD_REACTORS
330
2C3
102
}
330
2C3
100
AcDbTableStyle
  3
Standard
 70
     0
 71
     0
 40
0.06
 41
0.06
280
     0
281
     0
  7
STANDARD
140
0.18
170
     2
 62
     0
 63
   257
283
     0
274
    -2
284
     1
 64
     0
275
    -2
285
     1
 65
     0
276
    -2
286
     1
 66
     0
277
    -2
287
     1
 67
     0
278
    -2
288
     1
 68
     0
279
    -2
289
     1
 69
     0
  7
STANDARD
140
0.25
170
     5
 62
     0
 63
   257
283
     0
274
    -2
284
     1
 64
     0
275
    -2
285
     1
 65
     0
276
    -2
286
     1
 66
     0
277
    -2
287
     1
 67
     0
278
    -2
288
     1
 68
     0
279
    -2
289
     1
 69
     0
  7
STANDARD
140
0.18
170
     5
 62
     0
 63
   257
283
     0
274
    -2
284
     1
 64
     0
275
    -2
285
     1
 65
     0
276
    -2
286
     1
 66
     0
277
    -2
287
     1
 67
     0
278
    -2
288
     1
 68
     0
279
    -2
289
     1
 69
     0
  0
VISUALSTYLE
  5
2CB
102
{ACAD_REACTORS
330
31
102
}
102
{ACAD_XDICTIONARY
360
2FB
102
}
330
31
100
AcDbVisualStyle
  2
2dWireframe
 70
     4
 71
     0
 72
     2
 73
     0
 90
        0
 40
0.6
 41
30.0
 62
     5
 63
     7
 74
     1
 91
        4
 64
     7
 65
   257
 75
     1
175
     1
 42
1.0
 92
        0
 66
   257
 43
1.0
 76
     1
 77
     6
 78
     2
 67
     7
 79
     5
170
     0
171
     0
290
     0
174
     0
 93
        1
 44
0.0
173
     0
291
     0
 45
0.0
1001
ACAD
1000
AcDbSavedByObjectVersion
1070
     0
  0
VISUALSTYLE
  5
2CE
102
{ACAD_REACTORS
330
31
102
}
102
{ACAD_XDICTIONARY
360
301
102
}
330
31
100
AcDbVisualStyle
  2
Basic
 70
     7
 71
     1
 72
     0
 73
     1
 90
        0
 40
0.6
 41
30.0
 62
     5
 63
     7
 74
     0
 91
        4
 64
     7
 65
   257
 75
     1
175
     1
 42
1.0
 92
        8
 66
     7
 43
1.0
 76
     1
 77
     6
 78
     2
 67
     7
 79
     5
170
     0
171
     0
290
     0
174
     0
 93
        1
 44
0.0
173
     0
291
     1
 45
0.0
1001
ACAD
1000
AcDbSavedByObjectVersion
1070
     0
  0
VISUALSTYLE
  5
2D2
102
{ACAD_REACTORS
330
31
102
}
102
{ACAD_XDICTIONARY
360
309
102
}
330
31
100
AcDbVisualStyle
  2
Brighten
 70
    12
 71
     2
 72
     2
 73
     0
 90
        0
 40
0.6
 41
30.0
 62
     5
 63
     7
 74
     1
 91
        4
 64
     7
 65
   257
 75
     1
175
     1
 42
1.0
 92
        8
 66
     7
 43
1.0
 76
     1
 77
     6
 78
     2
 67
     7
 79
     5
170
     0
171
     0
290
     0
174
     0
 93
        1
 44
50.0
173
     0
291
     1
 45
0.0
1001
ACAD
1000
AcDbSavedByObjectVersion
1070
     0
  0
VISUALSTYLE
  5
2D6
102
{ACAD_REACTORS
330
31
102
}
102
{ACAD_XDICTIONARY
360
311
102
}
330
31
100
AcDbVisualStyle
  2
ColorChange
 70
    16
 71
     2
 72
     2
 73
     3
 90
        0
 40
0.6
 41
30.0
 62
     5
 63
     8
 74
     1
 91
        4
 64
     7
 65
   257
 75
     1
175
     1
 42
1.0
 92
        8
 66
     8
 43
1.0
 76
     1
 77
     6
 78
     2
 67
     7
 79
     5
170
     0
171
     0
290
     0
174
     0
 93
        1
 44
0.0
173
     0
291
     1
 45
0.0
1001
ACAD
1000
AcDbSavedByObjectVersion
1070
     0
  0
VISUALSTYLE
  5
2D0
102
{ACAD_REACTORS
330
31
102
}
102
{ACAD_XDICTIONARY
360
305
102
}
330
31
100
AcDbVisualStyle
  2
Conceptual
 70
     9
 71
     3
 72
     2
 73
     0
 90
        0
 40
0.6
 41
30.0
 62
     5
 63
     7
 74
     2
 91
        2
 64
     7
 65
   257
 75
     1
175
     1
 42
40.0
 92
        8
 66
     7
 43
1.0
 76
     1
 77
     6
 78
     2
 67
     7
 79
     3
170
     0
171
     0
290
     0
174
     0
 93
        1
 44
0.0
173
     0
291
     0
 45
0.0
1001
ACAD
1000
AcDbSavedByObjectVersion
1070
     0
  0
VISUALSTYLE
  5
2D1
102
{ACAD_REACTORS
330
31
102
}
102
{ACAD_XDICTIONARY
360
307
102
}
330
31
100
AcDbVisualStyle
  2
Dim
 70
    11
 71
     2
 72
     2
 73
     0
 90
        0
 40
0.6
 41
30.0
 62
     5
 63
     7
 74
     1
 91
        4
 64
     7
 65
   257
 75
     1
175
     1
 42
1.0
 92
        8
 66
     7
 43
1.0
 76
     1
 77
     6
 78
     2
 67
     7
 79
     5
170
     0
171
     0
290
     0
174
     0
 93
        1
 44
-50.0
173
     0
291
     1
 45
0.0
1001
ACAD
1000
AcDbSavedByObjectVersion
1070
     0
  0
VISUALSTYLE
  5
2D9
102
{ACAD_REACTORS
330
31
102
}
102
{ACAD_XDICTIONARY
360
317
102
}
330
31
100
AcDbVisualStyle
  2
EdgeColorOff
 70
    22
 71
     2
 72
     2
 73
     0
 90
        0
 40
0.6
 41
30.0
 62
     5
 63
     7
 74
     1
 91
        4
 64
     7
 65
   257
 75
     1
175
     1
 42
1.0
 92
        8
 66
     7
 43
1.0
 76
     1
 77
     6
 78
     2
 67
     7
 79
     5
170
     0
171
     0
290
     0
174
     0
 93
        1
 44
0.0
173
     0
291
     1
 45
0.0
1001
ACAD
1000
AcDbSavedByObjectVersion
1070
     0
  0
VISUALSTYLE
  5
2D5
102
{ACAD_REACTORS
330
31
102
}
102
{ACAD_XDICTIONARY
360
30F
102
}
330
31
100
AcDbVisualStyle
  2
Facepattern
 70
    15
 71
     2
 72
     2
 73
     0
 90
        0
 40
0.6
 41
30.0
 62
     5
 63
     7
 74
     1
 91
        4
 64
     7
 65
   257
 75
     1
175
     1
 42
1.0
 92
        8
 66
     7
 43
1.0
 76
     1
 77
     6
 78
     2
 67
     7
 79
     5
170
     0
171
     0
290
     0
174
     0
 93
        1
 44
0.0
173
     0
291
     1
 45
0.0
1001
ACAD
1000
AcDbSavedByObjectVersion
1070
     0
  0
VISUALSTYLE
  5
2C7
102
{ACAD_REACTORS
330
31
102
}
102
{ACAD_XDICTIONARY
360
2F3
102
}
330
31
100
AcDbVisualStyle
  2
Flat
 70
     0
 71
     2
 72
     1
 73
     1
 90
        2
 40
0.6
 41
30.0
 62
     5
 63
     7
 74
     0
 91
        4
 64
     7
 65
   257
 75
     1
175
     1
 42
1.0
 92
        8
 66
     7
 43
1.0
 76
     1
 77
     6
 78
     2
 67
     7
 79
     5
170
     0
171
     0
290
     0
174
     0
 93
       13
 44
0.0
173
     0
291
     1
 45
0.0
1001
ACAD
1000
AcDbSavedByObjectVersion
1070
     0
  0
VISUALSTYLE
  5
2C8
102
{ACAD_REACTORS
330
31
102
}
102
{ACAD_XDICTIONARY
360
2F5
102
}
330
31
100
AcDbVisualStyle
  2
FlatWithEdges
 70
     1
 71
     2
 72
     1
 73
     1
 90
        2
 40
0.6
 41
30.0
 62
     5
 63
     7
 74
     1
 91
        4
 64
     7
 65
   257
 75
     1
175
     1
 42
1.0
 92
        0
 66
   257
 43
1.0
 76
     1
 77
     6
 78
     2
 67
     7
 79
     5
170
     0
171
     0
290
     0
174
     0
 93
       13
 44
0.0
173
     0
291
     1
 45
0.0
1001
ACAD
1000
AcDbSavedByObjectVersion
1070
     0
  0
VISUALSTYLE
  5
2C9
102
{ACAD_REACTORS
330
31
102
}
102
{ACAD_XDICTIONARY
360
2F7
102
}
330
31
100
AcDbVisualStyle
  2
Gouraud
 70
     2
 71
     2
 72
     2
 73
     1
 90
        2
 40
0.6
 41
30.0
 62
     5
 63
     7
 74
     0
 91
        4
 64
     7
 65
   257
 75
     1
175
     1
 42
1.0
 92
        0
 66
     7
 43
1.0
 76
     1
 77
     6
 78
     2
 67
     7
 79
     5
170
     0
171
     0
290
     0
174
     0
 93
       13
 44
0.0
173
     0
291
     1
 45
0.0
1001
ACAD
1000
AcDbSavedByObjectVersion
1070
     0
  0
VISUALSTYLE
  5
2CA
102
{ACAD_REACTORS
330
31
102
}
102
{ACAD_XDICTIONARY
360
2F9
102
}
330
31
100
AcDbVisualStyle
  2
GouraudWithEdges
 70
     3
 71
     2
 72
     2
 73
     1
 90
        2
 40
0.6
 41
30.0
 62
     5
 63
     7
 74
     1
 91
        4
 64
     7
 65
   257
 75
     1
175
     1
 42
1.0
 92
        0
 66
   257
 43
1.0
 76
     1
 77
     6
 78
     2
 67
     7
 79
     5
170
     0
171
     0
290
     0
174
     0
 93
       13
 44
0.0
173
     0
291
     1
 45
0.0
1001
ACAD
1000
AcDbSavedByObjectVersion
1070
     0
  0
VISUALSTYLE
  5
2CD
102
{ACAD_REACTORS
330
31
102
}
102
{ACAD_XDICTIONARY
360
2FF
102
}
330
31
100
AcDbVisualStyle
  2
Hidden
 70
     6
 71
     1
 72
     2
 73
     2
 90
        0
 40
0.6
 41
30.0
 62
     5
 63
     7
 74
     2
 91
        2
 64
     7
 65
   257
 75
     2
175
     1
 42
40.0
 92
        0
 66
   257
 43
1.0
 76
     1
 77
     6
 78
     2
 67
     7
 79
     3
170
     0
171
     0
290
     0
174
     0
 93
        1
 44
0.0
173
     0
291
     0
 45
0.0
1001
ACAD
1000
AcDbSavedByObjectVersion
1070
     0
  0
VISUALSTYLE
  5
2D7
102
{ACAD_REACTORS
330
31
102
}
102
{ACAD_XDICTIONARY
360
313
102
}
330
31
100
AcDbVisualStyle
  2
JitterOff
 70
    20
 71
     2
 72
     2
 73
     0
 90
        0
 40
0.6
 41
30.0
 62
     5
 63
     7
 74
     1
 91
        4
 64
     7
 65
   257
 75
     1
175
     1
 42
1.0
 92
       10
 66
     7
 43
1.0
 76
     1
 77
     6
 78
     2
 67
     7
 79
     5
170
     0
171
     0
290
     0
174
     0
 93
        1
 44
0.0
173
     0
291
     1
 45
0.0
1001
ACAD
1000
AcDbSavedByObjectVersion
1070
     0
  0
VISUALSTYLE
  5
2D4
102
{ACAD_REACTORS
330
31
102
}
102
{ACAD_XDICTIONARY
360
30D
102
}
330
31
100
AcDbVisualStyle
  2
Linepattern
 70
    14
 71
     2
 72
     2
 73
     0
 90
        0
 40
0.6
 41
30.0
 62
     5
 63
     7
 74
     1
 91
        4
 64
     7
 65
   257
 75
     7
175
     7
 42
1.0
 92
        8
 66
     7
 43
1.0
 76
     1
 77
     6
 78
     2
 67
     7
 79
     5
170
     0
171
     0
290
     0
174
     0
 93
        1
 44
0.0
173
     0
291
     1
 45
0.0
1001
ACAD
1000
AcDbSavedByObjectVersion
1070
     0
  0
VISUALSTYLE
  5
2D8
102
{ACAD_REACTORS
330
31
102
}
102
{ACAD_XDICTIONARY
360
315
102
}
330
31
100
AcDbVisualStyle
  2
OverhangOff
 70
    21
 71
     2
 72
     2
 73
     0
 90
        0
 40
0.6
 41
30.0
 62
     5
 63
     7
 74
     1
 91
        4
 64
     7
 65
   257
 75
     1
175
     1
 42
1.0
 92
        9
 66
     7
 43
1.0
 76
     1
 77
     6
 78
     2
 67
     7
 79
     5
170
     0
171
     0
290
     0
174
     0
 93
        1
 44
0.0
173
     0
291
     1
 45
0.0
1001
ACAD
1000
AcDbSavedByObjectVersion
1070
     0
  0
VISUALSTYLE
  5
2CF
102
{ACAD_REACTORS
330
31
102
}
102
{ACAD_XDICTIONARY
360
303
102
}
330
31
100
AcDbVisualStyle
  2
Realistic
 70
     8
 71
     2
 72
     3
 73
     0
 90
        2
 40
0.6
 41
30.0
 62
     5
 63
     7
 74
     0
 91
        0
 64
     7
 65
   257
 75
     1
175
     1
 42
1.0
 92
        8
 66
   257
 43
1.0
 76
     1
 77
     6
 78
     2
 67
     7
 79
     3
170
     0
171
     0
290
     0
174
     0
 93
       13
 44
0.0
173
     0
291
     0
 45
0.0
1001
ACAD
1000
AcDbSavedByObjectVersion
1070
     0
  0
VISUALSTYLE
  5
2DE
102
{ACAD_REACTORS
330
31
102
}
102
{ACAD_XDICTIONARY
360
321
102
}
330
31
100
AcDbVisualStyle
  2
Shaded
 70
    27
 71
     2
 72
     2
 73
     1
 90
        2
 40
0.6
 41
30.0
 62
     5
 63
     7
 74
     0
 91
        4
 64
     7
 65
   257
 75
     1
175
     1
 42
1.0
 92
        8
 66
   257
 43
1.0
 76
     1
 77
     6
 78
     2
 67
   251
 79
     3
170
     0
171
     0
290
     0
174
     0
 93
        5
 44
0.0
173
     0
291
     0
 45
0.0
1001
ACAD
1000
AcDbSavedByObjectVersion
1070
     0
  0
VISUALSTYLE
  5
2DD
102
{ACAD_REACTORS
330
31
102
}
102
{ACAD_XDICTIONARY
360
31F
102
}
330
31
100
AcDbVisualStyle
  2
Shaded with edges
 70
    26
 71
     2
 72
     2
 73
     1
 90
        2
 40
0.6
 41
30.0
 62
     5
 63
     7
 74
     1
 91
       10
 64
     7
 65
   257
 75
     2
175
     1
 42
1.0
 92
        8
 66
   257
 43
1.0
 76
     1
 77
     6
 78
     2
 67
     7
 79
     3
170
     0
171
     0
290
     0
174
     0
 93
        5
 44
0.0
173
     0
291
     0
 45
0.0
1001
ACAD
1000
AcDbSavedByObjectVersion
1070
     0
  0
VISUALSTYLE
  5
2DA
102
{ACAD_REACTORS
330
31
102
}
102
{ACAD_XDICTIONARY
360
319
102
}
330
31
100
AcDbVisualStyle
  2
Shades of Gray
 70
    23
 71
     2
 72
     2
 73
     3
 90
        0
 40
0.6
 41
30.0
 62
     5
 63
     7
 74
     2
 91
        2
 64
     7
 65
     7
 75
     1
175
     1
 42
40.0
 92
        8
 66
     7
 43
1.0
 76
     1
 77
     6
 78
     2
 67
     7
 79
     3
170
     0
171
     0
290
     0
174
     0
 93
        1
 44
0.0
173
     0
291
     0
 45
0.0
1001
ACAD
1000
AcDbSavedByObjectVersion
1070
     0
  0
VISUALSTYLE
  5
2DB
102
{ACAD_REACTORS
330
31
102
}
102
{ACAD_XDICTIONARY
360
31B
102
}
330
31
100
AcDbVisualStyle
  2
Sketchy
 70
    24
 71
     1
 72
     2
 73
     2
 90
        0
 40
0.6
 41
30.0
 62
     5
 63
     7
 74
     2
 91
        2
 64
     7
 65
     7
 75
     1
175
     1
 42
40.0
 92
       11
 66
     7
 43
1.0
 76
     1
 77
     6
 78
     2
 67
     7
 79
     6
170
     0
171
     0
290
     0
174
     0
 93
        1
 44
0.0
173
     0
291
     0
 45
0.0
1001
ACAD
1000
AcDbSavedByObjectVersion
1070
     0
  0
VISUALSTYLE
  5
2D3
102
{ACAD_REACTORS
330
31
102
}
102
{ACAD_XDICTIONARY
360
30B
102
}
330
31
100
AcDbVisualStyle
  2
Thicken
 70
    13
 71
     2
 72
     2
 73
     0
 90
        0
 40
0.6
 41
30.0
 62
     5
 63
     7
 74
     1
 91
        4
 64
     7
 65
   257
 75
     1
175
     1
 42
1.0
 92
       12
 66
     7
 43
1.0
 76
     1
 77
     6
 78
     2
 67
     7
 79
     5
170
     0
171
     0
290
     0
174
     0
 93
        1
 44
0.0
173
     0
291
     1
 45
0.0
1001
ACAD
1000
AcDbSavedByObjectVersion
1070
     0
  0
VISUALSTYLE
  5
2CC
102
{ACAD_REACTORS
330
31
102
}
102
{ACAD_XDICTIONARY
360
2FD
102
}
330
31
100
AcDbVisualStyle
  2
Wireframe
 70
     5
 71
     0
 72
     2
 73
     0
 90
        0
 40
0.6
 41
30.0
 62
     5
 63
     7
 74
     1
 91
        4
 64
     7
 65
   257
 75
     1
175
     1
 42
1.0
 92
        0
 66
   257
 43
1.0
 76
     1
 77
     6
 78
     2
 67
     7
 79
     5
170
     0
171
     0
290
     0
174
     0
 93
        1
 44
0.0
173
     0
291
     0
 45
0.0
1001
ACAD
1000
AcDbSavedByObjectVersion
1070
     0
  0
VISUALSTYLE
  5
2DC
102
{ACAD_REACTORS
330
31
102
}
102
{ACAD_XDICTIONARY
360
31D
102
}
330
31
100
AcDbVisualStyle
  2
X-Ray
 70
    25
 71
     2
 72
     2
 73
     1
 90
        1
 40
0.5
 41
30.0
 62
     5
 63
     7
 74
     1
 91
        0
 64
     7
 65
   257
 75
     1
175
     1
 42
1.0
 92
        8
 66
     7
 43
1.0
 76
     1
 77
     6
 78
     2
 67
     7
 79
     3
170
     0
171
     0
290
     0
174
     0
 93
       13
 44
0.0
173
     0
291
     0
 45
0.0
1001
ACAD
1000
AcDbSavedByObjectVersion
1070
     0
  0
XRECORD
  5
2E7
102
{ACAD_REACTORS
330
2E6
102
}
330
2E6
100
AcDbXrecord
280
     1
340
30
  0
XRECORD
  5
2E8
102
{ACAD_REACTORS
330
2E6
102
}
330
2E6
100
AcDbXrecord
280
     1
340
B
  0
DICTIONARYVAR
  5
2C2
102
{ACAD_REACTORS
330
2C1
102
}
330
2C1
100
DictionaryVariables
280
     0
  1
1:1
  0
DICTIONARYVAR
  5
2E3
102
{ACAD_REACTORS
330
2C1
102
}
330
2C1
100
DictionaryVariables
280
     0
  1
Standard
  0
DICTIONARYVAR
  5
2E2
102
{ACAD_REACTORS
330
2C1
102
}
330
2C1
100
DictionaryVariables
280
     0
  1
Standard
  0
DICTIONARYVAR
  5
2E4
102
{ACAD_REACTORS
330
2C1
102
}
330
2C1
100
DictionaryVariables
280
     0
  1
0
  0
DICTIONARYVAR
  5
2E5
102
{ACAD_REACTORS
330
2C1
102
}
330
2C1
100
DictionaryVariables
280
     0
  1
1
  0
DICTIONARYVAR
  5
2EC
102
{ACAD_REACTORS
330
2C1
102
}
330
2C1
100
DictionaryVariables
280
     0
  1
1
  0
DICTIONARY
  5
23
330
21
100
AcDbDictionary
280
     1
281
     1
  3
ADSK_XREC_LAYOUTTHUMBNAIL
360
24
  0
DICTIONARY
  5
2F1
330
69
100
AcDbDictionary
280
     1
281
     1
  3
ACAD_XREC_ROUNDTRIP
360
2F2
  0
DICTIONARY
  5
2ED
330
12
100
AcDbDictionary
280
     1
281
     1
  3
ACAD_XREC_ROUNDTRIP
360
2EE
  0
DICTIONARY
  5
2EF
330
A
100
AcDbDictionary
280
     1
281
     1
  3
ACAD_XREC_ROUNDTRIP
360
2F0
  0
DICTIONARY
  5
323
330
2E0
100
AcDbDictionary
280
     1
281
     1
  3
ACAD_XREC_ROUNDTRIP
360
324
  0
DICTIONARY
  5
2FB
330
2CB
100
AcDbDictionary
280
     1
281
     1
  3
ACAD_XREC_ROUNDTRIP
360
2FC
  0
DICTIONARY
  5
301
330
2CE
100
AcDbDictionary
280
     1
281
     1
  3
ACAD_XREC_ROUNDTRIP
360
302
  0
DICTIONARY
  5
309
330
2D2
100
AcDbDictionary
280
     1
281
     1
  3
ACAD_XREC_ROUNDTRIP
360
30A
  0
DICTIONARY
  5
311
330
2D6
100
AcDbDictionary
280
     1
281
     1
  3
ACAD_XREC_ROUNDTRIP
360
312
  0
DICTIONARY
  5
305
330
2D0
100
AcDbDictionary
280
     1
281
     1
  3
ACAD_XREC_ROUNDTRIP
360
306
  0
DICTIONARY
  5
307
330
2D1
100
AcDbDictionary
280
     1
281
     1
  3
ACAD_XREC_ROUNDTRIP
360
308
  0
DICTIONARY
  5
317
330
2D9
100
AcDbDictionary
280
     1
281
     1
  3
ACAD_XREC_ROUNDTRIP
360
318
  0
DICTIONARY
  5
30F
330
2D5
100
AcDbDictionary
280
     1
281
     1
  3
ACAD_XREC_ROUNDTRIP
360
310
  0
DICTIONARY
  5
2F3
330
2C7
100
AcDbDictionary
280
     1
281
     1
  3
ACAD_XREC_ROUNDTRIP
360
2F4
  0
DICTIONARY
  5
2F5
330
2C8
100
AcDbDictionary
280
     1
281
     1
  3
ACAD_XREC_ROUNDTRIP
360
2F6
  0
DICTIONARY
  5
2F7
330
2C9
100
AcDbDictionary
280
     1
281
     1
  3
ACAD_XREC_ROUNDTRIP
360
2F8
  0
DICTIONARY
  5
2F9
330
2CA
100
AcDbDictionary
280
     1
281
     1
  3
ACAD_XREC_ROUNDTRIP
360
2FA
  0
DICTIONARY
  5
2FF
330
2CD
100
AcDbDictionary
280
     1
281
     1
  3
ACAD_XREC_ROUNDTRIP
360
300
  0
DICTIONARY
  5
313
330
2D7
100
AcDbDictionary
280
     1
281
     1
  3
ACAD_XREC_ROUNDTRIP
360
314
  0
DICTIONARY
  5
30D
330
2D4
100
AcDbDictionary
280
     1
281
     1
  3
ACAD_XREC_ROUNDTRIP
360
30E
  0
DICTIONARY
  5
315
330
2D8
100
AcDbDictionary
280
     1
281
     1
  3
ACAD_XREC_ROUNDTRIP
360
316
  0
DICTIONARY
  5
303
330
2CF
100
AcDbDictionary
280
     1
281
     1
  3
ACAD_XREC_ROUNDTRIP
360
304
  0
DICTIONARY
  5
321
330
2DE
100
AcDbDictionary
280
     1
281
     1
  3
ACAD_XREC_ROUNDTRIP
360
322
  0
DICTIONARY
  5
31F
330
2DD
100
AcDbDictionary
280
     1
281
     1
  3
ACAD_XREC_ROUNDTRIP
360
320
  0
DICTIONARY
  5
319
330
2DA
100
AcDbDictionary
280
     1
281
     1
  3
ACAD_XREC_ROUNDTRIP
360
31A
  0
DICTIONARY
  5
31B
330
2DB
100
AcDbDictionary
280
     1
281
     1
  3
ACAD_XREC_ROUNDTRIP
360
31C
  0
DICTIONARY
  5
30B
330
2D3
100
AcDbDictionary
280
     1
281
     1
  3
ACAD_XREC_ROUNDTRIP
360
30C
  0
DICTIONARY
  5
2FD
330
2CC
100
AcDbDictionary
280
     1
281
     1
  3
ACAD_XREC_ROUNDTRIP
360
2FE
  0
DICTIONARY
  5
31D
330
2DC
100
AcDbDictionary
280
     1
281
     1
  3
ACAD_XREC_ROUNDTRIP
360
31E
  0
XRECORD
  5
24
102
{ACAD_REACTORS
330
23
102
}
330
23
100
AcDbXrecord
280
     1
310
28000000000100009F0000000100080000000000009F0000000000000000000000010000000000003028210000000000C8C8C8000000000000000000000000000000000000000000000000000000000000000000330000006600000099000000CC000000FF00000000330000333300006633000099330000CC330000FF3300
310
0000660000336600006666000099660000CC660000FF66000000990000339900006699000099990000CC990000FF99000000CC000033CC000066CC000099CC0000CCCC0000FFCC000000FF000033FF000066FF000099FF0000CCFF0000FFFF000000003300330033006600330099003300CC003300FF003300003333003333
310
33006633330099333300CC333300FF33330000663300336633006666330099663300CC663300FF66330000993300339933006699330099993300CC993300FF99330000CC330033CC330066CC330099CC3300CCCC3300FFCC330000FF330033FF330066FF330099FF3300CCFF3300FFFF330000006600330066006600660099
310
006600CC006600FF00660000336600333366006633660099336600CC336600FF33660000666600336666006666660099666600CC666600FF66660000996600339966006699660099996600CC996600FF99660000CC660033CC660066CC660099CC6600CCCC6600FFCC660000FF660033FF660066FF660099FF6600CCFF6600
310
FFFF660000009900330099006600990099009900CC009900FF00990000339900333399006633990099339900CC339900FF33990000669900336699006666990099669900CC669900FF66990000999900339999006699990099999900CC999900FF99990000CC990033CC990066CC990099CC9900CCCC9900FFCC990000FF99
310
0033FF990066FF990099FF9900CCFF9900FFFF99000000CC003300CC006600CC009900CC00CC00CC00FF00CC000033CC003333CC006633CC009933CC00CC33CC00FF33CC000066CC003366CC006666CC009966CC00CC66CC00FF66CC000099CC003399CC006699CC009999CC00CC99CC00FF99CC0000CCCC0033CCCC0066CC
310
CC0099CCCC00CCCCCC00FFCCCC0000FFCC0033FFCC0066FFCC0099FFCC00CCFFCC00FFFFCC000000FF003300FF006600FF009900FF00CC00FF00FF00FF000033FF003333FF006633FF009933FF00CC33FF00FF33FF000066FF003366FF006666FF009966FF00CC66FF00FF66FF000099FF003399FF006699FF009999FF00CC
310
99FF00FF99FF0000CCFF0033CCFF0066CCFF0099CCFF00CCCCFF00FFCCFF0000FFFF0033FFFF0066FFFF0099FFFF00CCFFFF00FFFFFF00000000000D0D0D001A1A1A00282828003535350043434300505050005D5D5D006B6B6B00787878008686860093939300A1A1A100AEAEAE00BBBBBB00C9C9C900D6D6D600E4E4E400
310
F1F1F100FFFFFF000000000000000000000000000000000000000000000000000000000000000000000000000000000000000000000000000000000000000000000000000000000000000000000000000000000000000000000000000000000000000000000000000000000000000000000000000000000000000000000000
310
00000000000000000000000000000000000000000000000000000000000000000000000000000000000000000000000000000000000000000000000000000000000000000000000000000000000000000000000000000000000000000000000000000000000000000000000000000000000000000000000000000000000000
310
00000000000000000000000000000000000000000000000000000000000000000000000000000000000000000000000000000000000000000000000000000000000000000000000000000000000000000000000000000000000000000000000000000000000000000000000000000000000000000000000000000000000000
310
00000000000000000000000000000000000000000000000000000000000000000000000000000000000000000000000000000000000000000000000000000000000000000000000000000000000000000000000000000000000000000000000000000000000000000000000000000000000000000000000000000000000000
310
00000000000000000000000000000000000000000000000000000000000000000000000000000000000000000000000000000000000000000000000000000000000000000000000000000000000000000000000000000000000000000000000000000000000000000000000000000000000000000000000000000000000000
310
00000000000000000000000000000000000000000000000000000000000000000000000000000000000000000000000000000000000000000000000000000000000000000000000000000000000000000000000000000000000000000000000000000000000000000000000000000000000000000000000000000000000000
310
00000000000000000000000000000000000000000000000000000000000000000000000000000000000000000000000000000000000000000000000000000000000000000000000000000000000000000000000000000000000000000000000000000000000000000000000000000000000000000000000000000000000000
310
00000000000000000000000000000000000000000000000000000000000000000000000000000000000000000000000000000000000000000000000000000000000000000000000000000000000000000000000000000000000000000000000000000000000000000000000000000000000000000000000000000000000000
310
00000000000000000000000000000000000000000000000000000000000000000000000000000000000000000000000000000000000000000000000000000000000000000000000000000000000000000000000000000000000000000000000000000000000000000000000000000000000000000000000000000000000000
310
00000000000000000000000000000000000000000000000000000000000000000000000000000000000000000000000000000000000000000000000000000000000000000000000000000000000000000000000000000000000000000000000000000000000000000000000000000000000000000000000000000000000000
310
00000000000000000000000000000000000000000000000000000000000000000000000000000000000000000000000000000000000000000000000000000000000000000000000000000000000000000000000000000000000000000000000000000000000000000000000000000000000000000000000000000000000000
310
00000000000000000000000000000000000000000000000000000000000000000000000000000000000000000000000000000000000000000000000000000000000000000000000000000000000000000000000000000000000000000000000000000000000000000000000000000000000000000000000000000000000000
310
00000000000000000000000000000000000000000000000000000000000000000000000000000000000000000000000000000000000000000000000000000000000000000000000000000000000000000000000000000000000000000000000000000000000000000000000000000000000000000000000000000000000000
310
00000000000000000000000000000000000000000000000000000000000000000000000000000000000000000000000000000000000000000000000000000000000000000000000000000000000000000000000000000000000000000000000000000000000000000000000000000000000000000000000000000000000000
310
00000000000000000000000000000000000000000000000000000000000000000000000000000000000000000000000000000000000000000000000000000000000000000000000000000000000000000000000000000000000000000000000000000000000000000000000000000000000000000000000000000000000000
310
00000000000000000000000000000000000000000000000000000000000000000000000000000000000000000000000000000000000000000000000000000000000000000000000000000000000000000000000000000000000000000000000000000000000000000000000000000000000000000000000000000000000000
310
00000000000000000000000000000000000000000000000000000000000000000000000000000000000000000000000000000000000000000000000000000000000000000000000000000000000000000000000000000000000000000000000000000000000000000000000000000000000000000000000000000000000000
310
00000000000000000000000000000000000000000000000000000000000000000000000000000000000000000000000000000000000000000000000000000000000000000000000000000000000000000000000000000000000000000000000000000000000000000000000000000000000000000000000000000000000000
310
00000000000000000000000000000000000000000000000000000000000000000000000000000000000000000000000000000000000000000000000000000000000000000000000000000000000000000000000000000000000000000000000000000000000000000000000000000000000000000000000000000000000000
310
00000000000000000000000000000000000000000000000000000000000000000000000000000000000000000000000000000000000000000000000000000000000000000000000000000000000000000000000000000000000000000000000000000000000000000000000000000000000000000000000000000000000000
310
00000000000000000000000000000000000000000000000000000000000000000000000000000000000000000000000000000000000000000000000000000000000000000000000000000000000000000000000000000000000000000000000000000000000000000000000000000000000000000000000000000000000000
310
00000000000000000000000000000000000000000000000000000000000000000000000000000000000000000000000000000000000000000000000000000000000000000000000000000000000000000000000000000000000000000000000000000000000000000000000000000000000000000000000000000000000000
310
00000000000000000000000000000000000000000000000000000000000000000000000000000000000000000000000000000000000000000000000000000000000000000000000000000000000000000000000000000000000000000000000000000000000000000000000000000000000000000000000000000000000000
310
00000000000000000000000000000000000000000000000000000000000000000000000000000000000000000000000000000000000000000000000000000000000000000000000000000000000000000000000000000000000000000000000000000000000000000000000000000000000000000000000000000000000000
310
00000000000000000000000000000000000000000000000000000000000000000000000000000000000000000000000000000000000000000000000000000000000000000000000000000000000000000000000000000000000000000000000000000000000000000000000000000000000000000000000000000000000000
310
00000000000000000000000000000000000000000000000000000000000000000000000000000000000000000000000000000000000000000000000000000000000000000000000000000000000000000000000000000000000000000000000000000000000000000000000000000000000000000000000000000000000000
310
00000000000000000000000000000000000000000000000000000000000000000000000000000000000000000000000000000000000000000000000000000000000000000000000000000000000000000000000000000000000000000000000000000000000000000000000000000000000000000000000000000000000000
310
00000000000000000000000000000000000000000000000000000000000000000000000000000000000000000000000000000000000000000000000000000000000000000000000000000000000000000000000000000000000000000000000000000000000000000000000000000000000000000000000000000000000000
310
00000000000000000000000000000000000000000000000000000000000000000000000000000000000000000000000000000000000000000000000000000000000000000000000000000000000000000000000000000000000000000000000000000000000000000000000000000000000000000000000000000000000000
310
00000000000000000000000000000000000000000000000000000000000000000000000000000000000000000000000000000000000000000000000000000000000000000000000000000000000000000000000000000000000000000000000000000000000000000000000000000000000000000000000000000000000000
310
00000000000000000000000000000000000000000000000000000000000000000000000000000000000000000000000000000000000000000000000000000000000000000000000000000000000000000000000000000000000000000000000000000000000000000000000000000000000000000000000000000000000000
310
00000000000000000000000000000000000000000000000000000000000000000000000000000000000000000000000000000000000000000000000000000000000000000000000000000000000000000000000000000000000000000000000000000000000000000000000000000000000000000000000000000000000000
310
00000000000000000000000000000000000000000000000000000000000000000000000000000000000000000000000000000000000000000000000000000000000000000000000000000000000000000000000000000000000000000000000000000000000000000000000000000000000000000000000000000000000000
310
00000000000000000000000000000000000000000000000000000000000000000000000000000000000000000000000000000000000000000000000000000000000000000000000000000000000000000000000000000000000000000000000000000000000000000000000000000000000000000000000000000000000000
310
00000000000000000000000000000000000000000000000000000000000000000000000000000000000000000000000000000000000000000000000000000000000000000000000000000000000000000000000000000000000000000000000000000000000000000000000000000000000000000000000000000000000000
310
00000000000000000000000000000000000000000000000000000000000000000000000000000000000000000000000000000000000000000000000000000000000000000000000000000000000000000000000000000000000000000000000000000000000000000000000000000000000000000000000000000000000000
310
00000000000000000000000000000000000000000000000000000000000000000000000000000000000000000000000000000000000000000000000000000000000000000000000000000000000000000000000000000000000000000000000000000000000000000000000000000000000000000000000000000000000000
310
00000000000000000000000000000000000000000000000000000000000000000000000000000000000000000000000000000000000000000000000000000000000000000000000000000000000000000000000000000000000000000000000000000000000000000000000000000000000000000000000000000000000000
310
00000000000000000000000000000000000000000000000000000000000000000000000000000000000000000000000000000000000000000000000000000000000000000000000000000000000000000000000000000000000000000000000000000000000000000000000000000000000000000000000000000000000000
310
00000000000000000000000000000000000000000000000000000000000000000000000000000000000000000000000000000000000000000000000000000000000000000000000000000000000000000000000000000000000000000000000000000000000000000000000000000000000000000000000000000000000000
310
00000000000000000000000000000000000000000000000000000000000000000000000000000000000000000000000000000000000000000000000000000000000000000000000000000000000000000000000000000000000000000000000000000000000000000000000000000000000000000000000000000000000000
310
00000000000000000000000000000000000000000000000000000000000000000000000000000000000000000000000000000000000000000000000000000000000000000000000000000000000000000000000000000000000000000000000000000000000000000000000000000000000000000000000000000000000000
310
00000000000000000000000000000000000000000000000000000000000000000000000000000000000000000000000000000000000000000000000000000000000000000000000000000000000000000000000000000000000000000000000000000000000000000000000000000000000000000000000000000000000000
310
00000000000000000000000000000000000000000000000000000000000000000000000000000000000000000000000000000000000000000000000000000000000000000000000000000000000000000000000000000000000000000000000000000000000000000000000000000000000000000000000000000000000000
310
00000000000000000000000000000000000000000000000000000000000000000000000000000000000000000000000000000000000000000000000000000000000000000000000000000000000000000000000000000000000000000000000000000000000000000000000000000000000000000000000000000000000000
310
00000000000000000000000000000000000000000000000000000000000000000000000000000000000000000000000000000000000000000000000000000000000000000000000000000000000000000000000000000000000000000000000000000000000000000000000000000000000000000000000000000000000000
310
00000000000000000000000000000000000000000000000000000000000000000000000000000000000000000000000000000000000000000000000000000000000000000000000000000000000000000000000000000000000000000000000000000000000000000000000000000000000000000000000000000000000000
310
00000000000000000000000000000000000000000000000000000000000000000000000000000000000000000000000000000000000000000000000000000000000000000000000000000000000000000000000000000000000000000000000000000000000000000000000000000000000000000000000000000000000000
310
00000000000000000000000000000000000000000000000000000000000000000000000000000000000000000000000000000000000000000000000000000000000000000000000000000000000000000000000000000000000000000000000000000000000000000000000000000000000000000000000000000000000000
310
00000000000000000000000000000000000000000000000000000000000000000000000000000000000000000000000000000000000000000000000000000000000000000000000000000000000000000000000000000000000000000000000000000000000000000000000000000000000000000000000000000000000000
310
00000000000000000000000000000000000000000000000000000000000000000000000000000000000000000000000000000000000000000000000000000000000000000000000000000000000000000000000000000000000000000000000000000000000000000000000000000000000000000000000000000000000000
310
00000000000000000000000000000000000000000000000000000000000000000000000000000000000000000000000000000000000000000000000000000000000000000000000000000000000000000000000000000000000000000000000000000000000000000000000000000000000000000000000000000000000000
310
00000000000000000000000000000000000000000000000000000000000000000000000000000000000000000000000000000000000000000000000000000000000000000000000000000000000000000000000000000000000000000000000000000000000000000000000000000000000000000000000000000000000000
310
00000000000000000000F5F5F5F5F5F5F5F5F5F5F5F5F5F5F5F5F5F5F5F5F5F5F5F5F5F5F5F5F5F5F5F5F5F5F5F5F5F5F5F5F5F5F5F5F5F5F5F5F5F5F5F5F5F5F5F5F5F5F5F5F5F5F5F5F5F5F5F5F5F5F5F5F5F5F5F5F5F5F5F5F5F5F5F5F5F5F5F5F5F5F5F5F5F5F5F5F5F5F5F5F5F5F5F5F5F5F5F5F5F5F5F5F5F5F5F5F5
310
F5F5F5F5F5F5F5F50000000000000000000000000000000000000000000000000000000000000000000000000000000000000000000000000000000000000000000000000000000000000000000000000000000000000000000000000000000000000000000000000000000000000000000000000000000000000000000000
310
000000000000000000000000F50000DCDCDCDCDCDCDCDCDCDCDCDCDCDCDCDCDCDCDCDCDCDCDCDCDCDCDCDCDCDCDCDCDCDCDCDCDCDCDCDCDCDCDCDCDCDCDCDCDCDCDCDCDCDCDCDCDCDCDCDCDCDCDCDCDC00F5000000000000000000000000BEBEBEBEBEBEBEBEBEBEBEBEBEBEBEBEBE2D2D2D2D2D2D28282828282828282828
310
282828282828282828F5000000000000000000000000000000000000000000000000000000000000000000000000000000000000000000000000000000000000000000000000000000000000000000000000000000000000000000000000000000000000000000000000000000000000000000000000000000000000000000
310
0000000000000000000000000000F50000DCDC00DCDCDCDCDCDCDCDCDC00DCDCDCDCDCDCDCDCDCDCDCDCDCDCDCDCDCDCDCDCDCDCDCDCDCDCDCDCDCDCDCDCDCDCDCDCDCDCDCDCDCDCDCDCDCDCDCDCDCDCDCDC00F5000000000000000000000000F0BEBEBEBEF00000BEBEBEBEBEBEBEBEBE2D2D2D2D2D2D2828282828282828
310
2828282828282828282828F500000000000000000000000000000000000000000000000000000000000000000000000000000000000000000000000000000000000000000000000000000000000000000000000000000000000000000000000000000000000000000000000000000000000000000000000000000000000000
310
00000000000000000000000000000000F50000DCDCDCDCDCDCDCDCDCDCDCDCDCDCDCDCDCDCDCDCDCDCDCDCDCDCDCDCDCDCDCDCDCDCDCDCDCDCDCDCDCDCDC0000000000000000000000000000000000000000000000F5000000000000000000000000F0BEBEBEBEF02D2DBEBEBEBEBEBEBEBEF0F0F0F0F0F0F0F0F0F0F0F0F0
310
F0F0F0F0F0F0F0F0F0F0F0F0F0F50000000000000000000000000000000000000000000000000000000000000000000000000000000000000000000000000000000000000000000000000000000000000000000000000000000000000000000000000000000000000000000000000000000000000000000000000000000000
310
000000000000000000000000000000000000F50000DCDC00DCDCDCDCDCDCDCDC00DCDC00DC00DCDCDCDCDCDC00000000DC00DC000000DCDC00DCDCDCDCDC00000000000000000000000000000000000000000000000000F5000000000000000000000000F0BEBEBEBEF000002D2D2D2D2D2D0000F0BEBEBEBEBEBEF0282828
310
282828282828282828282828280000F5000000000000000000000000000000000000000000000000000000000000000000000000000000000000000000000000000000000000000000000000000000000000000000000000000000000000000000000000000000000000000000000000000000000000000000000000000000
310
0000000000000000000000000000000000000000F500F5F5F5F5F5F5F5F5F5F5F5F5F5F5F5F5F5F5F5BEF5F5F5F5F5F5F5F5F5BEF5F5F5F5F5F5F5F5F5F5F5F5F5F5F500000000000000000000000000000000000000000000F5000000000000000000000000BEBEBEBEBEBEBEBEBEBEBEBEBEBEBEBEBEBEBEBEBEBEBEF028
310
2828002828280028002828280028280000F500000000000000000000000000000000000000000000000000000000000000000000000000000000000000000000000000000000000000000000000000000000000000000000000000000000000000000000000000000000000000000000000000000000000000000000000000
310
00000000000000000000000000000000000000000000F500F5DCDCDCDCDCDCDCDC00F5DCDCDCDCF5DCDCDCBE00DCDCDCF500DCDCDCBEDCDCDCDCF500DCDC00F5DCDCDCDCF500000000000000000000000000000000000000000000F5000000000000000000000000F0BEBEBEBEF0BEBEBEBEBEBEBEBEBEBEF0F0F0F0F0F0F0
310
F0F0F0F0F0F0F0F0F0F0F0F0F0F0F0F0F0F0F0F50000000000000000000000000000000000000000000000000000000000000000000000000000000000000000000000000000000000000000000000000000000000000000000000000000000000000000000000000000000000000000000000000000000000000000000000
310
000000000000000000000000000000000000000000000000F500F5DCDCDCDCDC00DCDC00F5DCDCDCDCF5DCDCDCBE00DCDCDCF500DCDCDCBE00DCDCDCF500DCDC00F5DCDCDCDCF500000000000000000000000000000000000000000000F5000000000000000000000000F0BEBEBEBEF000000000000000000000F0BEBE0000
310
BEBEF0282828282828002828282828282800000000F5000000000000000000000000000000000000000000000000000000000000000000000000000000000000000000000000000000000000000000000000000000000000000000000000000000000000000000000000000000000000000000000000000000000000000000
310
0000000000000000000000000000000000000000000000000000F500F5F5F5F5F5F5F5F5F5F5F5F5F5F5F5F5F5F5F5F5F5F5F5F5F5F5F5F5F5F5F5F5F5F5F5F5F5F5F5F5F5F5F5F5F500000000000000000000000000000000000000000000F5000000000000000000000000BEBEBEBEBEBEBEBEBEBEBEBEBEBEBEBEBEBEBE
310
0000BEBEF0282828282828282828282828282800000000F500000000000000000000000000000000000000000000000000000000000000000000000000000000000000000000000000000000000000000000000000000000000000000000000000000000000000000000000000000000000000000000000000000000000000
310
00000000000000000000000000000000000000000000000000000000F500F5000000000000000000F500000000BEBEBEBEBEBEBEBEBEBEBEBEBEBEBEBEBEBEBEBE00DCDC00F500DCDC00F500000000000000000000000000000000000000000000F5000000000000000000000000F0F0F0F0F0F0F0F0F0F0F0F0F0F0F0F0F0
310
F0F0F0F0F0F0F0F0F0F0F0F0F0F0F0F0F0F0F0F0F0F0F0F0F0F50000000000000000000000000000000000000000000000000000000000000000000000000000000000000000000000000000000000000000000000000000000000000000000000000000000000000000000000000000000000000000000000000000000000
310
000000000000000000000000000000000000000000000000000000000000F500F50000DCDC00DCDC0000F5DCDCDCDCF5DCDCDCDCDCDCDCDCF5DCDCDCDCDCDCDCDCDCF5DCDCDCDCF5DCDCDCDCF500000000000000000000000000000000000000000000F5DCDCDCDCDCDCDCDCDCDCDC00F0F0F0F0F0F0F0F0F0F0F0F0F0F0F0
310
F0F0F0F0F0F0F0F0F0F0F0F0F0F0F0F0F0F0F0F0F0F0F0F0F0F0F0F5000000000000000000000000000000000000000000000000000000000000000000000000000000000000000000000000000000000000000000000000000000000000000000000000000000000000000000000000000000000000000000000000000000
310
0000000000000000000000000000000000000000000000000000000000000000F500F50000DCDC00DCDC0000F5DCDCDCDCBEBEBEBEBEBEBEBEBEBEBEBEBEBEBEBEBEBEBEBEDCDCDCDCF5DCDCDCDCF500000000000000000000000000000000000000000000F5DCDCDCDCDCDCDCDCDCDCDC00F0000000000000000000000000
310
282828F0BEBEBEBEBEBEF0000000000000000000000000000000000000F500000000000000000000000000000000000000000000000000000000000000000000000000000000000000000000000000000000000000000000000000000000000000000000000000000000000000000000000000000000000000000000000000
310
00000000000000000000000000000000000000000000000000000000000000000000F500F5000000000000000000F500000000F500DCDCDCDCDCDCDCDCDCDCDCDCDCDCDCDC00F500000000F500000000F500000000000000000000000000000000000000000000F5DCDCDCDCDC00000000000000F000000000000000000000
310
0000282828F0BEBEBEBEBEBEF0000000000000000000000000000000000000F50000000000000000000000000000000000000000000000000000000000000000000000000000000000000000000000000000000000000000000000000000000000000000000000000000000000000000000000000000000000000000000000
310
000000000000000000000000000000000000000000000000000000000000000000000000F500F5F5F5F5F5F5F5F5F5F5F5F5F5F5F5F5F5F5F5F5F5F5F5F5F5F5F5F5F5F5F5F5F5F5F5F5F5F5F5F5F5F5F5F5F500000000000000000000000000000000000000000000F5F0F0F0F0F0F0F0F0F0F0F0F0F0F0F0F0F0F0F0F0F0
310
F0F0F0F0F0F0F0F0F0F0F0F0F0F0F0F0F0F0F0F0F0F0F0F0F0F0F0F0F0F0F0F0F0F5000000000000000000000000000000000000000000000000000000000000000000000000000000000000000000000000000000000000000000000000000000000000000000000000000000000000000000000000000000000000000000
310
0000000000000000000000000000000000000000000000000000000000000000000000000000F50000000000000000000000000000000000000000000000000000000000000000000000000000000000000000000000000000002D2D2D2D2D2D2D2D2D2D2D00000000002D2D2D2D2D2D2D2D2D2D000000000000000000F0F0
310
F0F0F0F0F0F0F0F0F0F0F0F0F0F0F000F0F0F0F0F0F0F0F0F0F0F0F0F0F0F0F0F0F000F500000000000000000000000000000000000000000000000000000000000000000000000000000000000000000000000000000000000000000000000000000000000000000000000000000000000000000000000000000000000000
310
00000000000000000000000000000000000000000000000000000000000000000000000000000000F500000000000000000000000000000000000000000000000000000000000000000000000000000000000000000000000000000000DCDC0000DCDCDCDCDC000000000000DCDC0000DCDCDCDCDCDC000000000000000000
310
F0282828282828282800002800000000F000F000002828282828002828000028280000F000F50000000000000000000000000000000000000000000000000000000000000000000000000000000000000000000000000000000000000000000000000000000000000000000000000000000000000000000000000000000000
310
000000000000000000000000000000000000000000000000000000000000000000000000000000000000F500000000000000000000000000000000000000000000000000000000000000000000000000000000000000000000000000000000000000000000000000000000002D000000000000000000000000000000000000
310
0000F0282828282828282800282828000000F000F000002828282828002828282828282800F000F5000000000000000000000000000000000000000000000000000000000000000000000000000000000000000000000000000000000000000000000000000000000000000000000000000000000000000000000000000000
310
0000000000000000000000000000000000000000000000000000000000000000000000000000000000000000F50000000000000000000000000000000000000000000000000000000000000000000000000000000000000000000000000000002D00000000000000000000000000DC2D000000000000000000000000000000
310
00000000F0F0F0F0F0F0F0F0F0F0F0F0F0F0F0F0F000F0F0F02828282828F0F0F0F0F0F0F0F0F0F000F500000000000000000000000000000000000000000000000000000000000000000000000000000000000000000000000000000000000000000000000000000000000000000000000000000000000000000000000000
310
00000000000000000000000000000000000000000000000000000000000000000000000000000000000000000000F5000000000000000000000000000000000000000000000000000000000000000000000000000000000000000000000000000000DC2D000000000000000000000000DCDC2D00000000002DDCDCDCDCDCDC
310
00000000000000000000000000000000000000000000000000000000000000000000000000000000000000F50000000000000000000000000000000000000000000000000000000000000000000000000000000000000000000000000000000000000000000000000000000000000000000000000000000000000000000000
310
000000000000000000000000000000000000000000000000000000000000000000000000000000000000000000000000F5000000000000000000000000000000000000000000000000000000000000000000000000000000000000000000000000000000DCDC2D000000000000000000000000DCDC2D0000BE2D00DCDCDCDC
310
DCDC000000000000000000000000000000000000000000000000F0F0F0F0F0F0F0F0F0F0F0F0F0F0F0F0F0F000F5000000000000000000000000000000000000000000000000000000000000000000000000000000000000000000000000000000000000000000000000000000000000000000000000000000000000000000
310
0000000000000000000000000000000000000000000000000000000000000000000000000000000000000000000000000000F500000000000000000000000000000000000000000000000000000000000000000000000000000000000000000000000000000000DCDC2D2D28BE000000000000000000DCDC2D28BE28000000
310
00000000000000000000000000000000000000000000000000000000F0BEBEBEBEBEBEBEBEBE00BEBEBEBEBEBEF000F500000000000000000000000000000000000000000000000000000000000000000000000000000000000000000000000000000000000000000000000000000000000000000000000000000000000000
310
00000000000000000000000000000000000000000000000000000000000000000000000000000000000000000000000000000000F50000000000000000000000000000000000000000000000000000000000000000000000000000000000000000000000000000000000DCDC2D2DBE2800002D000000000000002D2DBE2D28
310
000000000000000000000000000000000000000000000000000000000000F0F0F0F0F0F0F0F0F0F0F0F0F0F0F0F0F0F000F50000000000000000000000000000000000000000000000000000000000000000000000000000000000000000000000000000000000000000000000000000000000000000000000000000000000
310
000000000000000000000000000000000000000000000000000000000000000000000000000000000000000000000000000000000000F5000000000000002D2D2D2D2D2D2D2D000000000000000000000000000000000000000000000000000000000000000000000000002D2DBEBEBEBEBEBEDC2D00000000002DBEBEBEBE
310
BEBEBEDCDC2D0000000000000000000000000000000000000000000000000000F0BEBEBEBEBEBEBE000000000000000000F000F5000000000000000000000000000000000000000000000000000000000000000000000000000000000000000000000000000000000000000000000000000000000000000000000000000000
310
0000000000000000000000000000000000000000000000000000000000000000000000000000000000000000000000000000000000000000F500000000000000DCDCDCDCDCDCDC002D0000000000000000000000000000000000000000000000000000000000000000000000002D2D2D2D28282D2D2D2D2D000000002D0028
310
2DBE2D2800002D2D0000000000000000000000000000000000000000000000000000F0BEBEBEBEBEBEBE000000000000000000F000F500000000000000000000000000000000000000000000000000000000000000000000000000000000000000000000000000000000000000000000000000000000000000000000000000
310
00000000000000000000000000000000000000000000000000000000000000000000000000000000000000000000000000000000000000000000F500000000000000DCDC0000DC00DC00002D00000000000000000000000000000000000000000000000000000000000000000000002D2D2D2D28282D2D2D2D2D0000002D2D
310
2D2D2D2D282D2D2D2D2D0000000000000000000000000000000000000000000000000000F0F0F0F0F0F0F0F0F0F0F0F0F0F0F0F0F0F000F50000000000000000000000000000000000000000000000000000000000000000000000000000000000000000000000000000000000000000000000000000000000000000000000
310
000000000000000000000000000000000000000000000000000000000000000000000000000000000000000000000000000000000000000000000000F5000000000000000000000000002D2D2D2D2D2D2D2D2D2D2D2D2D2D2D2D2D2D2D2D2D2D2D2D2D2D2D2D0000000000000000000000DC2D00002D2D0000002D00000000
310
DC2D000028BE282D2D2D2D2D0000002D2D2D2D2D2D2D2D2D2D2D2D2D2D2D2D2D2D2D2D2D2D00F000000000000000000000000000000000F000F5000000000000000000000000000000000000000000000000000000000000000000000000000000000000000000000000000000000000000000000000000000000000000000
310
0000000000000000000000000000000000000000000000000000000000000000000000000000000000000000000000000000000000000000000000000000F5000000000000000000000000002D0000002D00000000000000DCDCDC0000000000000000000000002D00002D2D2D2D2D2D0000DCDC2D00002D2D000000000000
310
00DCDC2D00002D002D000000002D0000002D2D00000000000000DCDCDCDC00000000000000002D00F000000000000000000000000000000000F000F500000000000000000000000000000000000000000000000000000000000000000000000000000000000000000000000000000000000000000000000000000000000000
310
00000000000000000000000000000000000000000000000000000000000000000000000000000000000000000000000000000000000000000000000000000000F5000000000000000000000000002D000000002D000000000000DCDCDC0000000000000000000000002D002DDCDCDCDCDCDC0000000000002D2D2D2D2D0000
310
000000DCDC2D00002D002D00000000000000002D0000000000000000DCDCDCDC00000000000000002D00F000000000000000000000000000000000F000F50000000000000000000000000000000000000000000000000000000000000000000000000000000000000000000000000000000000000000000000000000000000
310
000000000000000000000000000000000000000000000000000000000000000000000000000000000000000000000000000000000000000000000000000000000000F5000000000000000000000000002D0000002D2D2D2D2D2D2D2D2D2D2D2D2D2D2D2D2D2D2D000000002D2D00000000000000000000000000000000DC00
310
0000000000000000002D2D2D2D2D2D0000000000002D00002D2D2D2D2D2D2D2D2D2D2D2D2D2D2D2D00002D00F000000000000000000000000000000000F000F5000000000000000000000000000000000000000000000000000000000000000000000000000000000000000000000000000000000000000000000000000000
310
0000000000000000000000000000000000000000000000000000000000000000000000000000000000000000000000000000000000000000000000000000000000000000F5000000000000000000000000002D0000002D00002D00000000DCDCDC000000000000002D0000002D2D0000000000000000000000000000000000
310
DCDC00000000000000000000000000DCDC0000000000002D00002D000000000000DCDCDC00000000002D00002D00F0BEBEBEBE000000000000000000000000F000F500000000000000000000000000000000000000000000000000000000000000000000000000000000000000000000000000000000000000000000000000
310
00000000000000000000000000000000000000000000000000000000000000000000000000000000000000000000000000000000000000000000000000000000000000000000F5000000000000000000000000002D0000002D0000002D000000DCDCDC000000000000002D00002D002D000000000000000000000000000000
310
000000000000000000000000000000000000000000000000002D00002D000000000000DCDCDC00000000002D00002D00F0F0F0F0F0F0F0F0F0F0F0F0F0F0F0F0F0F000F50000000000000000000000000000000000000000000000000000000000000000000000000000000000000000000000000000000000000000000000
310
000000000000000000000000000000000000000000000000000000000000000000000000000000000000000000000000000000000000000000000000000000000000000000000000F5000000000000000000000000002D0000002D000000002D0000000000000000000000002D002D00002D00000000000000000000000000
310
0000000000000000000000000000000000000000000000000000002D00002D00000000000000000000000000002D00002D00F000282828282828282828282828002800F000F5000000000000000000000000000000000000000000000000000000000000000000000000000000000000000000000000000000000000000000
310
0000000000000000000000000000000000000000000000000000000000000000000000000000000000000000000000000000000000000000000000000000000000000000000000000000F5000000000000000000000000002D000000BE00000000002D0000000000000000000000BE2D0000002D0000000000000000000000
310
00000000000000000000000000000000000000000000000000000000002D0000BE00000000000000BE000000000000BE00002D00F000282828282828282828282828282828F000F500000000000000000000000000000000000000000000000000000000000000000000000000000000000000000000000000000000000000
310
00000000000000000000000000000000000000000000000000000000000000000000000000000000000000000000000000000000000000000000000000000000000000000000000000000000F5000000002D2D2D2D2D2D2D2D00282828282828282828002D0000BE00000000002828282828282828282D2D2D2D0000000000
310
000000000000000000000000000000000000002D2D2D2D2D2D2D2D2D2D2D2D2828282828282828282828282828282828282828282800F000000028282828282828000028002800F000F50000000000000000000000000000000000000000000000000000000000000000000000000000000000000000000000000000000000
310
000000000000000000000000000000000000000000000000000000000000000000000000000000000000000000000000000000000000000000000000000000000000000000000000000000000000F500000000DCDCDCDCDCDCDCDC2D28000000BE000000282828282828282828282828282828280000002800DCDC2D000000
310
000000000000000000000000000000000000000000002D00002D00002D00000000280000BE00000000000000BE000000000000BE00002800F0F0F0F0F0F0F0F0F0F0F0F0F0F0F0F0F0F000F5000000000000000000000000000000000000000000000000000000000000000000000000000000000000000000000000000000
310
0000000000000000000000000000000000000000000000000000000000000000000000000000000000000000000000000000000000000000000000000000000000000000000000000000000000000000F500000000000000000000000000282D0000BE000000002800002828282800002800282828280000002800DCDC2D00
310
0000000000000000000000000000000000000000000000002D00002D00002D00000000280000BE00000000000000BE000000000000BE0000280000000000000000000000000000000000000000F500000000000000000000000000000000000000000000000000000000000000000000000000000000000000000000000000
310
00000000000000000000000000000000000000000000000000000000000000000000000000000000000000000000000000000000000000000000000000000000000000000000000000000000000000000000F500000000000000000000000000282828282828282828280000282828BE0000282828282828282828282D2D2D
310
2D000000000000000000000000000000000000000000000000002D00002D00002D00000000282828282828282828282828282828282828282828280000000000000000000000000000000000000000F50000000000000000000000000000000000000000000000000000000000000000000000000000000000000000000000
310
000000000000000000000000000000000000000000000000000000000000000000000000000000000000000000000000000000000000000000000000000000000000000000000000000000000000000000000000F5000000000000000000000000002800002DBE0000002828000028282828000028280000BE000000280000
310
000000000000000000000000000000000000000000000000000000002D00002D00DC2D000000000000002800002800000000BE000000280000280000000000000000000000000000000000000000000000F5000000000000000000000000000000000000000000000000000000000000000000000000000000000000000000
310
0000000000000000000000000000000000000000000000000000000000000000000000000000000000000000000000000000000000000000000000000000000000000000000000000000000000000000000000000000F50000000000000000000000002828000000002D00002828000028BE00280000282800000000000028
310
2828000000000000000000000000000000000000000000000000000000002D00002D00DC2D00000000000000002800280000282828280000280000280000000000000000000000000000000000000000000000F500000000000000000000000000000000000000000000000000000000000000000000000000000000000000
310
00000000000000000000000000000000000000000000000000000000000000000000000000000000000000000000000000000000000000000000000000000000000000000000000000000000000000000000000000000000F5000000000000000000000000282800000000002D2D2828000028BE0028000028280000000000
310
00280028000000000000000000000000000000000000000000000000000000002D00002D00DC2D000000000000000028002828282800BE282828280028000000000000000000000000000000000000000000000000F50000000000000000000000000000000000000000000000000000000000000000000000000000000000
310
000000000000000000000000000000000000000000000000000000000000000000000000000000000000000000000000000000000000000000000000000000000000000000000000000000000000000000000000000000000000F50000000000000000000000002828000000000000002828000028BE002800002828000000
310
000000280028000000000000000000000000000000000000000000000000000000002D00002D00002D000000000000000028002828282828BE282828280028000000000000000000000000000000000000000000000000F5000000000000000000000000000000000000000000000000000000000000000000000000000000
310
0000000000000000000000000000000000000000000000000000000000000000000000000000000000000000000000000000000000000000000000000000000000000000000000000000000000000000000000000000000000000000F500000000000000000000000028280000000000000028280000282828280000282800
310
0000000000280028000000000000000000000000000000000000000000000000000000002D00002D00002D000000000000000028002828280000BE002828280028000000000000000000000000000000000000000000000000F500000000000000000000000000000000000000000000000000000000000000000000000000
310
00000000000000000000000000000000000000000000000000000000000000000000000000000000000000000000000000000000000000000000000000000000000000000000000000000000000000000000000000000000000000000000F500000000000000000000000028280000000000000028282D2828282828000028
310
28000000000000280028282828282828282828000000000000000000000000000000000000002D00002D00002D000000000000000028282828000028BE280028002828000000000000000000000000000000000000000000000000F50000000000000000000000000000000000000000000000000000000000000000000000
310
000000000000000000000000000000000000000000000000000000000000000000000000000000000000000000000000000000000000000000000000000000000000000000000000000000000000000000000000000000000000000000000000F50000000000000000000000002828000000000028282828282828BE282828
310
282828282800000000280028002800000000000028000000000000000000000000000000000000002D00002D00002D000000000000000028280028002828BE280028282828280000000000000000000000000000000000000000000000F5000000000000000000000000000000000000000000000000000000000000000000
310
0000000000000000000000000000000000000000000000000000000000000000000000000000000000000000000000000000000000000000000000000000000000000000000000000000000000000000000000000000000000000000000000000000F50000000000000000000000BEBEBEBEBEBEBEBEBEBEBEBEBEBEBEBEBE
310
BEBEBEBEBEBEBEBEBEBEBEBEBEBEBEBEBEBEBEBEBEBEBE002D2D2D2D00000000000000000000000000002D00DC2D00002D2D2D2D2D2D2D2DBEBEBEBEBEBEBEBEBEBEBEBEBEBEBEBE0000000000000000000000000000000000000000000000F500000000000000000000000000000000000000000000000000000000000000
310
00000000000000000000000000000000000000000000000000000000000000000000000000000000000000000000000000000000000000000000000000000000000000000000000000000000000000000000000000000000000000000000000000000000F50000000000000000000000002828280000000028280028282828
310
BE2828282828002828000000282800280028282828282828280000DCDC0000000000000000000000000000002D00DC2D00002D0000000000000000282800282D2828BE282D28282828282800000000000000000000000000000000000000000000F50000000000000000000000000000000000000000000000000000000000
310
000000000000000000000000000000000000000000000000000000000000000000000000000000000000000000000000000000000000000000000000000000000000000000000000000000000000000000000000000000000000000000000000000000000000F5000000000000000000000000282828000000280028282800
310
282828282828002828282828000000280028282828282828282828000000000000000000000000000000000000002D00DC2D00002D000000000000000028282828282D28BE2D2D282828282828BE000000000000000000000000000000000000000000F5000000000000000000000000000000000000000000000000000000
310
0000000000000000000000000000000000000000000000000000000000000000000000000000000000000000000000000000000000000000000000000000000000000000000000000000000000000000000000000000000000000000000000000000000000000000F500000000000000000000000028282800282800282800
310
0000282828282828000000282800280000282828002D0000000000002D000000000000000000000000000000000000002D00002D00002D00000000000000282828282828282DBE282800282828280000000000000000000000000000000000000000000000F500000000000000000000000000000000000000000000000000
310
00000000000000000000000000000000000000000000000000000000000000000000000000000000000000000000000000000000000000000000000000000000000000000000000000000000000000000000000000000000000000000000000000000000000000000000F50000000000000000000000002828280028002800
310
000000280000BE000028000000002828002800282828002D0000000000002D000000000000000000000000000000000000002D00002D00002D000000000000002828280028280028BE282828002828282800000000000000000000000000000000000000000000F50000000000000000000000000000000000000000000000
310
000000000000000000000000000000000000000000000000000000000000000000000000000000000000000000000000000000000000000000000000000000000000000000000000000000000000000000000000000000000000000000000000000000000000000000000000F5000000000000000000000000282800280028
310
0000000000280000BE000000280000000028282828002828002D2D2D2D2D2D2D2D000000000000000000000000000000000000002D00002D00DC2D00000000000000282828000028282828282800002828282800000000000000000000000000000000000000000000F5000000000000000000000000000000000000000000
310
0000000000000000000000000000000000000000000000000000000000000000000000000000000000000000000000000000000000000000000000000000000000000000000000000000000000000000000000000000000000000000000000000000000000000000000000000000F50000000000000000000000002D282828
310
28280000000000280000BE00000028000000000028282800280000000000DCDC00002D000000000000000000000000000000000000002D00002D00DC2D000000000000280028280000000000BE000000002828280028000000000000000000000000000000000000000000F500000000000000000000000000000000000000
310
00000000000000000000000000000000000000000000000000000000000000000000000000000000000000000000000000000000000000000000000000000000000000000000000000000000000000000000000000000000000000000000000000000000000000000000000000000000F50000000000000000000000002D28
310
2800280000000000282828282828282828280000000000280028280000000000000000002D0000000000000000000000000000000000DCDC2D00002D00DC2D000000000028280028280000000000BE000000002828280028280000000000000000000000000000000000000000F50000000000000000000000000000000000
310
000000000000000000000000000000000000000000000000000000000000000000000000000000000000000000000000000000000000000000000000000000000000000000000000000000000000000000000000000000000000000000000000000000000000000000000000000000000000F5000000000000000000000000
310
2D28282800000000002828282800BE00002828282800000000282828280000000000000000002D0000000000000000000000000000000000DCDC2D00002D00002D000000000028280028280000000000BE000000002828280028280000000000000000000000000000000000000000F5000000000000000000000000000000
310
0000000000000000000000000000000000000000000000000000000000000000000000000000000000000000000000000000000000000000000000000000000000000000000000000000000000000000000000000000000000000000000000000000000000000000000000000000000000000000F500000000000000000000
310
00002D28002800000028282800000000BE00000000282828280000002828280000000000000000002D0000000000000000000000000000000000DCDC2D00002D00002D000000000028280028280000000000BE00000000282828002828000000002D2D2D00000000000000000000000000F500000000000000000000000000
310
00000000000000000000000000000000000000000000000000000000000000000000000000000000000000000000000000000000000000000000000000000000000000000000000000000000000000000000000000000000000000000000000000000000000000000000000000000000000000000000F50000000000000000
310
000000002D28002828282800002800000000BE00000000002800002828282800280000000000000000002D000000000000000000000000000000000000002D00002D00002D000000000028282828280000000000BE000000002828282828282828282D2D282D28282800000000000000000000F50000000000000000000000
310
000000000000000000000000000000000000000000000000000000000000000000000000000000000000000000000000000000000000000000000000000000000000000000000000000000000000000000000000000000000000000000000000000000000000000000000000000000000000000000000000F5000000000000
310
0000000000002D28282800000000002800000000BE00000000002800000000002800280000000000000000002D000000000000000000000000000000000000002D00002D00002D000000000028280028280000000000BE000000002828280028280028000000002D2D002800000000000000000000F5000000000000000000
310
0000000000000000000000000000000000000000000000000000000000000000000000000000000000000000000000000000000000000000000000000000000000000000000000000000000000000000000000000000000000000000000000000000000000000000000000000000000000000000000000000000F500000000
310
00000000000000002D28280000000000002800000000BE00000000002800000000002800280000000000000000002D000000000000000000000000000000000000002D00002D00002D000000000028280028280000000000BE00000000282828282828002800000000002D002800000000000000000000F500000000000000
310
00000000000000000000000000000000000000000000000000000000000000000000000000000000000000000000000000000000000000000000000000000000000000000000000000000000000000000000000000000000000000000000000000000000000000000000000000000000000000000000000000000000F50000
310
000000000000000000BEBEBEBEBEBEBEBEBEBEBEBEBEBEBEBEBEBEBEBEBEBEBEBEBEBEBEBEBEBEBE00000000000000002D000000000000000000000000000000000000002D00002D2D2D2D2D2D2D2DBEBEBEBEBEBEBEBEBEBEBEBEBEBEBEBEBEBEBEBEBEBEBEBEBEBEBEBEBE2DBEBE002DDCDC2D0000000000F50000000000
310
000000000000000000000000000000000000000000000000000000000000000000000000000000000000000000000000000000000000000000000000000000000000000000000000000000000000000000000000000000000000000000000000000000000000000000000000000000000000000000000000000000000000F5
310
0000000000000000000000002D28280000000000002800000000BE00000000002800000000002800280000000000000000002D000000000000000000000000000000000000002D00002D000000000000000028280028280000000000BE00000000282828002828002800000000002D00280000DCDC000000000000F5000000
310
00000000000000000000000000000000000000000000000000000000000000000000000000000000000000000000000000000000000000000000000000000000000000000000000000000000000000000000000000000000000000000000000000000000000000000000000000000000000000000000000000000000000000
310
00F50000000000000000000000002D28002828280000002800000000BE00000000002800000028282800280000000000000000002D000000000000000000000000000000000000002D00002D000000000000000028280028280000000000BE000000002828280028282828282828282828282800000000000000000000F500
310
00000000000000000000000000000000000000000000000000000000000000000000000000000000000000000000000000000000000000000000000000000000000000000000000000000000000000000000000000000000000000000000000000000000000000000000000000000000000000000000000000000000000000
310
000000F50000000000000000000000002D28002800002828282800000000BE00000000282828282800002828280000000000000000002D000000000000000000000000000000000000002D00002D000000000000000028282828280000000000BE00000000282828282828002D000000000000002D00000000000000000000
310
F5000000000000000000000000000000000000000000000000000000000000000000000000000000000000000000000000000000000000000000000000000000000000000000000000000000000000000000000000000000000000000000000000000000000000000000000000000000000000000000000000000000000000
310
0000000000F50000000000000000000000002D28282800000000002828000000BE00000000282800000000002828280000000000000000002D000000000000000000000000000000000000002D00002D000000000000000028280028280000000000BE00000000282828002828002D000000000000002D0000000000000000
310
0000F500000000000000000000000000000000000000000000000000000000000000000000000000000000000000000000000000000000000000000000000000000000000000000000000000000000000000000000000000000000000000000000000000000000000000000000000000000000000000000000000000000000
310
00000000000000F50000000000000000000000002D282800280000000028282828282828282828280000000000280028280000000000000000002D000000000000000000000000000000000000002D00002D000000000000000028280028280000000000BE00000000282828002828002D2D2D2D2D2D2D2D2D000000000000
310
00000000F50000000000000000000000000000000000000000000000000000000000000000000000000000000000000000000000000000000000000000000000000000000000000000000000000000000000000000000000000000000000000000000000000000000000000000000000000000000000000000000000000000
310
000000000000000000F50000000000000000000000002D28282828000000000028282828BE28282828280000000028282828280000000000000000002D000000000000000000000000000000000000002D00DC2D00000000000000002D280028280000000000BE00000000282828002800002D2D00DCDCDC002D2D00000000
310
000000000000F5000000000000000000000000000000000000000000000000000000000000000000000000000000000000000000000000000000000000000000000000000000000000000000000000000000000000000000000000000000000000000000000000000000000000000000000000000000000000000000000000
310
0000000000000000000000F50000000000000000000000002D28002800280000000028280028BE28280028280000000028002800280000000000000000002D000000000000000000000000000000000000002D00DC2D00000000000000002D282828280000000000BE0000000028282828000000000000DCDCDC00002D0000
310
0000000000000000F500000000000000000000000000000000000000000000000000000000000000000000000000000000000000000000000000000000000000000000000000000000000000000000000000000000000000000000000000000000000000000000000000000000000000000000000000000000000000000000
310
00000000000000000000000000F50000000000000000000000002D28002828282800000028280028BE00002828280000002800280028000000000000000000002D000000000000000000000000000000000000002D00DC2D00000000000000002D282828280000000000BE000000002828282800000000000000000000002D
310
00000000000000000000F50000000000000000000000000000000000000000000000000000000000000000000000000000000000000000000000000000000000000000000000000000000000000000000000000000000000000000000000000000000000000000000000000000000000000000000000000000000000000000
310
000000000000000000000000000000F50000000000000000000000002D00280028282828280028282828BE28282828280028280028000028000000000000000000002D000000000000000000000000000000000000002D00002D00000000000000002D282828280000000000BE000000002828280000000000000000000000
310
002D00000000000000000000F5000000000000000000000000000000000000000000000000000000000000000000000000000000000000000000000000000000000000000000000000000000000000000000000000000000000000000000000000000000000000000000000000000000000000000000000000000000000000
310
0000000000000000000000000000000000F50000000000000000000000002D00280000282800282800002800BE00002800002828002828000028000000000000000000002D000000000000000000000000000000000000002D00002D00000000000000002D000028280000000000BE00000000282828280000000000000000
310
0000002D00000000000000000000F500000000000000000000000000000000000000000000000000000000000000000000000000000000000000000000000000000000000000000000000000000000000000000000000000000000000000000000000000000000000000000000000000000000000000000000000000000000
310
00000000000000000000000000000000000000F50000000000000000000000002D00280000002828280028282828BE00282828280028280000000028000000000000000000002D000000000000000000000000000000000000002D00002D00000000000000002D000028280000000000BE000000BE282828BEBE0000000000
310
00000000002D00000000000000000000F50000000000000000000000000000000000000000000000000000000000000000000000000000000000000000000000000000000000000000000000000000000000000000000000000000000000000000000000000000000000000000000000000000000000000000000000000000
310
000000000000000000000000000000000000000000F50000000000000000000000002D002828282800002828280000282828000000282828000028282828000000000000000000002D000000000000000000000000000000000000002D00002D00000000000000002D000028280000000000BE000000002828280000000000
310
000000000000002D00000000000000000000F5000000000000000000000000000000000000000000000000000000000000000000000000000000000000000000000000000000000000000000000000000000000000000000000000000000000000000000000000000000000000000000000000000000000000000000000000
310
0000000000000000000000000000000000000000000000F50000000000000000000000002D000000000028282828282828282828282828282828282800000000000000000000000000002D000000000000000000000000000000000000002D00002D00000000000000002D0000282828282828282828282828282828000000
310
0000000000000000002D00000000000000000000F500000000000000000000000000000000000000000000000000000000000000000000000000000000000000000000000000000000000000000000000000000000000000000000000000000000000000000000000000000000000000000000000000000000000000000000
310
00000000000000000000000000000000000000000000000000F50000000000000000000000002D000000000000000000002D28282828282800000000000000000000000000000000000000002D0000000000000000000000000000000000002D2D2D2D2D2D2D2D2D2D2D2D2D2D2D2D2D2D2D2D282828BE2828000000000000
310
00000000000000000000002D00000000000000000000F50000000000000000000000000000000000000000000000000000000000000000000000000000000000000000000000000000000000000000000000000000000000000000000000000000000000000000000000000000000000000000000000000000000000000000
310
000000000000000000000000000000000000000000000000000000F50000000000000000000000002D000000002D2D2D2D2D2D000000BE00000000000000000000000000000000000000000000002D000000000000000000000000000000000000000000000000000000000000002D000000000000000000BE000000000000
310
000000000000000000000000002D00000000000000000000F5000000000000000000000000000000000000000000000000000000000000000000000000000000000000000000000000000000000000000000000000000000000000000000000000000000000000000000000000000000000000000000000000000000000000
310
0000000000000000000000000000000000000000000000000000000000F500000000000000000000002D2D2D2D2D2D0000000000000000002D00000000000000000000000000000000000000000000002D000000000000000000000000000000000000000000000000000000000000002D0000000000000000002D00000000
310
0000000000000000000000000000002D00000000000000000000F500000000000000000000000000000000000000000000000000000000000000000000000000000000000000000000000000000000000000000000000000000000000000000000000000000000000000000000000000000000000000000000000000000000
310
00000000000000000000000000000000000000000000000000000000000000F50000002DDCDCDCDC2D2D2D002D000000000000000000000000002D00000000000000000000000000000000000000000000002D000000000000000000000000000000000000000000000000000000000000002D0000000000000000002D0000
310
00000000000000000000000000000000002D00000000000000000000F50000000000000000000000000000000000000000000000000000000000000000000000000000000000000000000000000000000000000000000000000000000000000000000000000000000000000000000000000000000000000000000000000000
310
000000000000000000000000000000000000000000000000000000000000000000F5000000DCDCDCDCDC000000002D000000000000000000000000002D00000000000000000000000000000000000000000000002D000000000000000000000000000000000000000000000000000000000000002D0000000000000000002D
310
000000000000000000000000000000000000002D00000000000000000000F5000000000000000000000000000000000000000000000000000000000000000000000000000000000000000000000000000000000000000000000000000000000000000000000000000000000000000000000000000000000000000000000000
310
0000000000000000000000000000000000000000000000000000000000000000000000F50000000000000000000000002D000000000000000000000000002D00000000000000000000000000000000000000000000002D000000000000000000000000000000000000000000000000000000000000002D0000000000000000
310
002D000000000000000000000000000000000000002D00000000000000000000F500000000000000000000000000000000000000000000000000000000000000000000000000000000000000000000000000000000000000000000000000000000000000000000000000000000000000000000000000000000000000000000
310
00000000000000000000000000000000000000000000000000000000000000000000000000F50000000000000000000000002D2D2D2D2D2D2D2D2D2D2D2D2D2D2D2D2D2D2D2D2D2D2D2D2D2D2D2D2D2D2D2D2D2D2D2D2D2D2D000000000000000000000000000000000000000000000000000000000000002D2D2D2D2D2D2D
310
2D2D2D2D2D2D2D2D2D2D2D2D2D2D2D2D2D2D2D2D2D2D2D2D00000000000000000000F50000000000000000000000000000000000000000000000000000000000000000000000000000000000000000000000000000000000000000000000000000000000000000000000000000000000000000000000000000000000000000
310
000000000000000000000000000000000000000000000000000000000000000000000000000000F50000000000000000000000002D0000000000DCDCDC00000000000000000000000000000000DCDCDC000000000000000000002D000000000000000000000000000000000000000000000000000000000000002D000000DC
310
DC00000000000000000000000000DCDCDC00000000000000002D00000000000000000000F5000000000000000000000000000000000000000000000000000000000000000000000000000000000000000000000000000000000000000000000000000000000000000000000000000000000000000000000000000000000000
310
0000000000000000000000000000000000000000000000000000000000000000000000000000000000F50000000000000000000000002D000000000000000000000000000000000000000000000000000000000000000000000000002D000000000000000000000000000000000000000000000000000000000000002D0000
310
0000000000000000000000000000000000000000000000000000002D00000000000000000000F500000000000000000000000000000000000000000000000000000000000000000000000000000000000000000000000000000000000000000000000000000000000000000000000000000000000000000000000000000000
310
00000000000000000000000000000000000000000000000000000000000000000000000000000000000000F50000000000000000000000002D2D2D2D2D2D2D2D2D2D2D2D2D2D2D2D2D2D2D2D2D2D2D2D2D2D2D2D2D2D2D2D2D2D2D2D2D2D2D000000000000000000000000000000000000000000000000000000000000002D
310
2D2D2D2D2D2D2D2D2D2D2D2D2D2D2D2D2D2D2D2D2D2D2D2D2D2D2D2D2D2D00000000000000000000F50000000000000000000000000000000000000000000000000000000000000000000000000000000000000000000000000000000000000000000000000000000000000000000000000000000000000000000000000000
310
000000000000000000000000000000000000000000000000000000000000000000000000000000000000000000F5000000000000000000000000000000000000000000000000000000000000DCDCDC000000000000000000000000000000000000000000000000000000000000000000000000000000000000000000000000
310
0000000000000000000000000000DCDCDCDC000000000000000000000000000000000000000000000000F5000000000000000000000000000000000000000000000000000000000000000000000000000000000000000000000000000000000000000000000000000000000000000000000000000000000000000000000000
310
0000000000000000000000000000000000000000000000000000000000000000000000000000000000000000000000F500000000000000000000000000000000000000000000000000000000000000000000000000000000000000000000000000000000000000000000000000000000000000000000000000000000000000
310
0000000000000000000000000000000000DCDCDC000000000000000000000000000000000000000000000000F500000000000000000000000000000000000000000000000000000000000000000000000000000000000000000000000000000000000000000000000000000000000000000000000000000000000000000000
310
00000000000000000000000000000000000000000000000000000000000000000000000000000000000000000000000000F50000000000000000000000000000000000000000000000000000000000000000000000000000000000000000000000000000000000000000000000000000000000000000000000000000000000
310
00000000000000000000000000000000000000000000000000000000000000000000000000000000000000000000F50000000000000000000000000000000000000000000000000000000000000000000000000000000000000000000000000000000000000000000000000000000000000000000000000000000000000000
310
000000000000000000000000000000000000000000000000000000000000000000000000000000000000000000000000000000F5000000000000000000000000000000000000000000000000000000000000000000000000000000000000000000000000000000000000000000000000000000000000000000000000000000
310
000000000000000000000000000000000000000000000000000000000000000000000000000000000000000000000000F5000000000000000000000000000000000000000000000000000000000000000000000000000000000000000000000000000000000000000000000000000000000000000000000000000000000000
310
0000000000000000000000000000000000000000000000000000000000000000000000000000000000000000000000000000000000F500000000000000000000000000000000000000000000000000000000000000000000000000000000000000000000000000000000000000000000000000000000000000000000000000
310
0000000000000000000000000000000000000000000000000000000000000000000000000000000000000000000000000000F500000000000000000000000000000000000000000000000000000000000000000000000000000000000000000000000000000000000000000000000000000000000000000000000000000000
310
00000000000000000000000000000000000000000000000000000000000000000000000000000000000000000000000000000000000000F50000000000000000000000000000000000000000000000000000000000000000000000000000000000000000000000000000000000000000000000000000000000000000000000
310
00000000000000000000000000000000000000000000000000000000000000000000000000000000000000000000000000000000F50000000000000000000000000000000000000000000000000000000000000000000000000000000000000000000000000000000000000000000000000000000000000000000000000000
310
000000000000000000000000000000000000000000000000000000000000000000000000000000000000000000000000000000000000000000F5F5F5F5F5F5F5F5F5F5F5F5F5F5F5F5F5F5F5F5F5F5F5F5F5F5F5F5F5F5F5F5F5F5F5F5F5F5F5F5F5F5F5F5F5F5F5F5F5F5F5F5F5F5F5F5F5F5F5F5F5F5F5F5F5F5F5F5F5F5
310
F5F5F5F5F5F5F5F5F5F5F5F5F5F5F5F5F5F5F5F5F5F5F5F5F5F5F5F5F5F5F5F5F5F5F5F5F5F5F5F5F5F5F5F5F5F5F5F5F5F5F5F5F5F5F5000000000000000000000000000000000000000000000000000000000000000000000000000000000000000000000000000000000000000000000000000000000000000000000000
310
00000000000000000000000000000000000000000000000000000000000000000000000000000000000000000000000000000000000000000000000000000000000000000000000000000000000000000000000000000000000000000000000000000000000000000000000000000000000000000000000000000000000000
310
00000000000000000000000000000000000000000000000000000000000000000000000000000000000000000000000000000000000000000000000000000000000000000000000000000000000000000000000000000000000000000000000000000000000000000000000000000000000000000000000000000000000000
310
00000000000000000000000000000000000000000000000000000000000000000000000000000000000000000000000000000000000000000000000000000000000000000000000000000000000000000000000000000000000000000000000000000000000000000000000000000000000000000000000000000000000000
310
00000000000000000000000000000000000000000000000000000000000000000000000000000000000000000000000000000000000000000000000000000000000000000000000000000000000000000000000000000000000000000000000000000000000000000000000000000000000000000000000000000000000000
310
00000000000000000000000000000000000000000000000000000000000000000000000000000000000000000000000000000000000000000000000000000000000000000000000000000000000000000000000000000000000000000000000000000000000000000000000000000000000000000000000000000000000000
310
00000000000000000000000000000000000000000000000000000000000000000000000000000000000000000000000000000000000000000000000000000000000000000000000000000000000000000000000000000000000000000000000000000000000000000000000000000000000000000000000000000000000000
310
00000000000000000000000000000000000000000000000000000000000000000000000000000000000000000000000000000000000000000000000000000000000000000000000000000000000000000000000000000000000000000000000000000000000000000000000000000000000000000000000000000000000000
310
00000000000000000000000000000000000000000000000000000000000000000000000000000000000000000000000000000000000000000000000000000000000000000000000000000000000000000000000000000000000000000000000000000000000000000000000000000000000000000000000000000000000000
310
00000000000000000000000000000000000000000000000000000000000000000000000000000000000000000000000000000000000000000000000000000000000000000000000000000000000000000000000000000000000000000000000000000000000000000000000000000000000000000000000000000000000000
310
00000000000000000000000000000000000000000000000000000000000000000000000000000000000000000000000000000000000000000000000000000000000000000000000000000000000000000000000000000000000000000000000000000000000000000000000000000000000000000000000000000000000000
310
00000000000000000000000000000000000000000000000000000000000000000000000000000000000000000000000000000000000000000000000000000000000000000000000000000000000000000000000000000000000000000000000000000000000000000000000000000000000000000000000000000000000000
310
00000000000000000000000000000000000000000000000000000000000000000000000000000000000000000000000000000000000000000000000000000000000000000000000000000000000000000000000000000000000000000000000000000000000000000000000000000000000000000000000000000000000000
310
00000000000000000000000000000000000000000000000000000000000000000000000000000000000000000000000000000000000000000000000000000000000000000000000000000000000000000000000000000000000000000000000000000000000000000000000000000000000000000000000000000000000000
310
00000000000000000000000000000000000000000000000000000000000000000000000000000000000000000000000000000000000000000000000000000000000000000000000000000000000000000000000000000000000000000000000000000000000000000000000000000000000000000000000000000000000000
310
00000000000000000000000000000000000000000000000000000000000000000000000000000000000000000000000000000000000000000000000000000000000000000000000000000000000000000000000000000000000000000000000000000000000000000000000000000000000000000000000000000000000000
310
00000000000000000000000000000000000000000000000000000000000000000000000000000000000000000000000000000000000000000000000000000000000000000000000000000000000000000000000000000000000000000000000000000000000000000000000000000000000000000000000000000000000000
310
000000000000000000000000000000000000000000000000000000000000000000000000000000000000000000000000000000000000000000000000000000000000000000000000000000000000000000000000000000000028282828282828282828000000BE000000002828282828282828282800000000000000000000
310
00000000000000000000000000000000000000000000000000000000000000000000000000000000000000000000000000000000000000000000000000000000000000000000000000000000000000000000000000000000000000000000000000000000000000000000000000000000000000000000000000000000000000
310
0000000000000000000000000000000000000000000000000000000000000000000000000000000000000000000000000000000000000000000000000000000000000000000000000000000000000000000000000000000000000028000000BE0000002828282828282828282828280000BE00000000280000000000000000
310
00000000000000000000000000000000000000000000000000000000000000000000000000000000000000000000000000000000000000000000000000000000000000000000000000000000000000000000000000000000000000000000000000000000000000000000000000000000000000000000000000000000000000
310
00000000000000000000000000000000000000000000000000000000000000000000000000000000000000000000000000000000000000000000000000000000000000000000000000000000000000000000000000000000000000000028000028BE2800282828282828282828282828282800282800000028000000000000
310
00000000000000000000000000000000000000000000000000000000000000000000000000000000000000000000000000000000000000000000000000000000000000000000000000000000000000000000000000000000000000000000000000000000000000000000000000000000000000000000000000000000000000
310
0000000000000000000000000000000000000000000000000000000000000000000000000000000000000000000000000000000000000000000000000000000000000000000000000000000000000000000000000000000000000000000000280000BEBEBEBE000028282828BE28282828280000BEBEBEBE00002800000000
310
00000000000000000000000000000000000000000000000000000000000000000000000000000000000000000000000000000000000000000000000000000000000000000000000000000000000000000000000000000000000000000000000000000000000000000000000000000000000000000000000000000000000000
310
00000000000000000000000000000000000000000000000000000000000000000000000000000000000000000000000000000000000000000000000000000000000000000000000000000000000000000000000000000000000000000000000000282828282828282828282828282828282828282828282828282828280000
310
00000000000000000000000000000000000000000000000000000000000000000000000000000000000000000000000000000000000000000000000000000000000000000000000000000000000000000000000000000000000000000000000000000000000000000000000000000000000000000000000000000000000000
310
00000000000000000000000000000000000000000000000000000000000000000000000000000000000000000000000000000000000000000000000000000000000000000000000000000000000000000000000000000000000000000000000000002828282828282828282828282828282828282828282828282828282828
310
28000000000000000000000000000000000000000000000000000000000000000000000000000000000000000000000000000000000000000000000000000000000000000000000000000000000000000000000000000000000000000000000000000000000000000000000000000000000000000000000000000000000000
310
000000000000000000000000000000000000000000000000000000000000000000000000000000000000000000000000000000000000000000000000000000000000000000000000000000000000000000000000000000000000000000000000000000002828000000000000000000000000BE000000000000000000000000
310
00282800000000000000000000000000000000000000000000000000000000000000000000000000000000000000000000000000000000000000000000000000000000000000000000000000000000000000000000000000000000000000000000000000000000000000000000000000000000000000000000000000000000
310
0000000000000000000000000000000000000000000000000000000000000000000000000000000000000000000000000000000000000000000000000000000000000000000000000000000000000000000000000000000000000000000000000000000000002828000000000000000000000000BE00000000000000000000
310
00000028280000000000000000000000000000000000000000000000000000000000000000000000000000000000000000000000000000000000000000000000000000000000000000000000000000000000000000000000000000000000000000000000000000000000000000000000000000000000000000000000000000
310
00000000000000000000000000000000000000000000000000000000000000000000000000000000000000000000000000000000000000000000000000000000000000000000000000000000000000000000000000000000000000000000000000000000000000002828000000000000000000000028BE2828000000000000
310
00000000002828000000000000000000000000000000000000000000000000000000000000000000000000000000000000000000000000000000000000000000000000000000000000000000000000000000000000000000000000000000000000000000000000000000000000000000000000000000000000000000000000
310
000000000000000000000000000000000000000000000000000000000000000000000000000000000000000000000000000000000000000000000000000000000000000000000000000000000000000000000000000000000000000000000000000000000000000000002828000000000000000000002828BE282828000000
310
00000000000000282828282828282828282800000000000000000000000000000000000000000000000000000000000000000000000000000000000000000000000000000000000000000000000000000000000000000000000000000000000000000000000000000000000000000000000000000000000000000000000000
310
0000000000000000000000000000000000000000000000000000000000000000000000000000000000000000000000000000000000000000000000000000000000000000000000000000000000000000000000000000000000000000000000000000000000000000000000002828000000000000000000002828BE00282800
310
00000000000000000028280028282828282828280000000000000000000000000000000000000000000000000000000000000000000000000000000000000000000000000000000000000000000000000000000000000000000000000000000000000000000000000000000000000000000000000000000000000000000000
310
00000000000000000000000000000000000000000000000000000000000000000000000000000000000000000000000000000000000000000000000000000000000000000000000000000000000000000000000000000000000000000000000000000000000000000000000000BEBEBEBEBEBEBEBEBEBEBEBEBEBEBEBEBEBE
310
BEBEBEBEBEBEBEBEBEBEBEBEBEBEBEBEBEBEBEBEBEBEBE0000000000000000000000000000000000000000000000000000000000000000000000000000000000000000000000000000000000000000000000000000000000000000000000000000000000000000000000000000000000000000000000000000000000000000
310
000000000000000000000000000000000000000000000000000000000000000000000000000000000000000000000000000000000000000000000000000000000000000000000000000000000000000000000000000000000000000000000000000000000000000000000000000000002828000000000000000000002828BE
310
28282800000000000000000000282800282828282828282800000000000000000000000000000000000000000000000000000000000000000000000000000000000000000000000000000000000000000000000000000000000000000000000000000000000000000000000000000000000000000000000000000000000000
310
00000000000000000000000000000000000000000000000000000000000000000000000000000000000000000000000000000000000000000000000000000000000000000000000000000000000000000000000000000000000000000000000000000000000000000000000000000000000028280000000000000000000000
310
28BE2828000000000000000000000028282828000000000000000000000000000000000000000000000000000000000000000000000000000000000000000000000000000000000000000000000000000000000000000000000000000000000000000000000000000000000000000000000000000000000000000000000000
310
00000000000000000000000000000000000000000000000000000000000000000000000000000000000000000000000000000000000000000000000000000000000000000000000000000000000000000000000000000000000000000000000000000000000000000000000000000000000000002828000000000000000000
310
000000BE000000000000000000000000002828000000000000000000000000000000000000000000000000000000000000000000000000000000000000000000000000000000000000000000000000000000000000000000000000000000000000000000000000000000000000000000000000000000000000000000000000
310
000000000000000000000000000000000000000000000000000000000000000000000000000000000000000000000000000000000000000000000000000000000000000000000000000000000000000000000000000000000000000000000000000000000000000000000000000000000000000000002828BE0000000000BE
310
0000000000BE000000000000BE0000000000BE282800000000000000000000000000000000000000000000000000000000000000000000000000000000000000000000000000000000000000000000000000000000000000000000000000000000000000000000000000000000000000000000000000000000000000000000
310
00000000000000000000000000000000000000000000000000000000000000000000000000000000000000000000000000000000000000000000000000000000000000000000000000000000000000000000000000000000000000000000000000000000000000000000000000000000000000000000000028282828282828
310
28282828282828282828282828282828282828282828280000000000000000000000000000000000000000000000000000000000000000000000000000000000000000000000000000000000000000000000000000000000000000000000000000000000000000000000000000000000000000000000000000000000000000
310
00000000000000000000000000000000000000000000000000000000000000000000000000000000000000000000000000000000000000000000000000000000000000000000000000000000000000000000000000000000000000000000000000000000000000000000000000000000000000000000000000000028282828
310
28282828282828282828282828282828282828282828282800000000000000000000000000000000000000000000000000000000000000000000000000000000000000000000000000000000000000000000000000000000000000000000000000000000000000000000000000000000000000000000000000000000000000
310
00000000000000000000000000000000000000000000000000000000000000000000000000000000000000000000000000000000000000000000000000000000000000000000000000000000000000000000000000000000000000000000000000000000000000000000000000000000000000000000000000000000002828
310
2828282828282828282828BE28282828282828BEBEBEBE2828280000000000000000000000000000000000000000000000000000000000000000000000000000000000000000000000000000000000000000000000000000000000000000000000000000000000000000000000000000000000000000000000000000000000
310
00000000000000000000000000000000000000000000000000000000000000000000000000000000000000000000000000000000000000000000000000000000000000000000000000000000000000000000000000000000000000000000000000000000000000000000000000000000000000000000000000000000000000
310
28BE0028282828282828282828BE282828282828BE28BE280000BE28000000000000000000000000000000000000000000000000000000000000000000000000000000000000000000000000000000000000000000000000000000000000000000000000000000000000000000000000000000000000000000000000000000
310
00000000000000000000000000000000000000000000000000000000000000000000000000000000000000000000000000000000000000000000000000000000000000000000000000000000000000000000000000000000000000000000000000000000000000000000000000000000000000000000000000000000000000
310
000028BE0000BE0000282800000000BE0000000000282800BE000000BE2800000000000000000000000000000000000000000000000000000000000000000000000000000000000000000000000000000000000000000000000000000000000000000000000000000000000000000000000000000000000000000000000000
310
00000000000000000000000000000000000000000000000000000000000000000000000000000000000000000000000000000000000000000000000000000000000000000000000000000000000000000000000000000000000000000000000000000000000000000000000000000000000000000000000000000000000000
310
0000000028282828282828282828282828BE28282828282828282828282828280000000000000000000000000000000000000000000000000000000000000000000000000000000000000000000000000000000000000000000000000000000000000000000000000000000000000000000000000000000000000000000000
310
00000000000000000000000000000000000000000000000000000000000000000000000000000000000000000000000000000000000000000000000000000000000000000000000000000000000000000000000000000000000000000000000000000000000000000000000000000000000000000000000000000000000000
310
00000000000000000000000000000000002800BE0000280000000000000000000000000000000000000000000000000000000000000000000000000000000000000000000000000000000000000000000000000000000000000000000000000000000000000000000000000000000000000000000000000000000000000000
310
00000000000000000000000000000000000000000000000000000000000000000000000000000000000000000000000000000000000000000000000000000000000000000000000000000000000000000000000000000000000000000000000000000000000000000000000000000000000000000000000000000000000000
310
000000000000000000000000000000000000002828BE282828000000000000000000000000000000000000000000000000000000000000000000000000000000000000000000000000000000000000000000000000000000000000000000000000000000000000000000000000000000000000000000000000000000000000
310
00000000000000000000000000000000000000000000000000000000000000000000000000000000000000000000000000000000000000000000000000000000000000000000000000000000000000000000000000000000000000000000000000000000000000000000000000000000000000000000000000000000000000
310
0000000000000000000000000000000000000000002800BE28002800000000000000000000000000000000000000000000000000000000000000000000000000000000000000000000000000000000000000000000000000000000000000000000000000000000000000000000000000000000000000000000000000000000
310
00000000000000000000000000000000000000000000000000000000000000000000000000000000000000000000000000000000000000000000000000000000000000000000000000000000000000000000000000000000000000000000000000000000000000000000000000000000000000000000000000000000000000
310
00000000000000000000000000000000000000000000002800BE2800280000000000000000000000000000000000000000000000000000000000000000000000000000000000000000000000000000000000000000000000000000000000000000000000000000000000000000000000000000000000000000000000000000
310
00000000000000000000000000000000000000000000000000000000000000000000000000000000000000000000000000000000000000000000000000000000000000000000000000000000000000000000000000000000000000000000000000000000000000000000000000000000000000000000000000000000000000
310
000000000000000000000000000000000000000000000000002800BE280028000000000000000000000000000000000000000000000000000000000000000000000000000000000000000000000000000000000000000000000000000000000000000000000000000000000000000000000000000000000000000000000000
310
00000000000000000000000000000000000000000000000000000000000000000000000000000000000000000000000000000000000000000000000000000000000000000000000000000000000000000000000000000000000000000000000000000000000000000000000000000000000000000000000000000000000000
310
0000000000000000000000000000000000000000000000000000002800BE28002800000000000000000000000000000000000000000000000000000000000000000000000000000000000000000000000000000000000000000000000000000000000000000000000000000000000000000000000000000000000000000000
310
00000000000000000000000000000000000000000000000000000000000000000000000000000000000000000000000000000000000000000000000000000000000000000000000000000000000000000000000000000000000000000000000000000000000000000000000000000000000000000000000000000000000000
310
00000000000000000000000000000000000000000000000000000000002800BE2800280000000000000000000000000000000000000000000000000000000000000000000000000000000000000000000000000000000000000000000000000000000000000000000000000000000000000000000000000000000000000000
310
00000000000000000000000000000000000000000000000000000000000000000000000000000000000000000000000000000000000000000000000000000000000000000000000000000000000000000000000000000000000000000000000000000000000000000000000000000000000000000000000000000000000000
310
000000000000000000000000000000000000000000000000000000000000002800BE280028000000000000000000000000000000000000000000000000000000000000000000000000000000000000000000000000000000000000000000000000000000000000000000000000000000000000000000000000000000000000
310
00000000000000000000000000000000000000000000000000000000000000000000000000000000000000000000000000000000000000000000000000000000000000000000000000000000000000000000000000000000000000000000000000000000000000000000000000000000000000000000000000000000000000
310
0000000000000000000000000000000000000000000000000000000000000000002828BE28282800000000000000000000000000000000000000000000000000000000000000000000000000000000000000000000000000000000000000000000000000000000000000000000000000000000000000000000000000000000
310
00000000000000000000000000000000000000000000000000000000000000000000000000000000000000000000000000000000000000000000000000000000000000000000000000000000000000000000000000000000000000000000000000000000000000000000000000000000000000000000000000000000000000
310
00000000000000000000000000000000000000000000000000000000000000000000002828BE2828000000000000000000000000000000000000000000000000000000000000000000000000000000000000000000000000000000000000000000000000000000000000000000000000000000000000000000000000000000
310
00000000000000000000000000000000000000000000000000000000000000000000000000000000000000000000000000000000000000000000000000000000000000000000000000000000000000000000000000000000000000000000000000000000000000000000000000000000000000000000000000000000000000
310
00000000000000000000000000000000000000000000000000000000000000000000000000000000000000000000000000000000000000000000000000000000000000000000000000000000000000000000000000000000000000000000000000000000000000000000000000000000000000000000000000000000000000
310
00000000000000000000000000000000000000000000000000000000000000000000000000000000000000000000000000000000000000000000000000000000000000000000000000000000000000000000000000000000000000000000000000000000000000000000000000000000000000000000000000000000000000
310
00000000000000000000000000000000000000000000000000000000000000000000000000000000000000000000000000000000000000000000000000000000000000000000000000000000000000000000000000000000000000000000000000000000000000000000000000000000000000000000000000000000000000
310
00000000000000000000000000000000000000000000000000000000000000000000000000000000000000000000000000000000000000000000000000000000000000000000000000000000000000000000000000000000000000000000000000000000000000000000000000000000000000000000000000000000000000
310
00000000000000000000000000000000000000000000000000000000000000000000000000000000000000000000000000000000000000000000000000000000000000000000000000000000000000000000000000000000000000000000000000000000000000000000000000000000000000000000000000000000000000
310
00000000000000000000000000000000000000000000000000000000000000000000000000000000000000000000000000000000000000000000000000000000000000000000000000000000000000000000000000000000000000000000000000000000000000000000000000000000000000000000000000000000000000
310
00000000000000000000000000000000000000000000000000000000000000000000000000000000000000000000000000000000000000000000000000000000000000000000000000000000000000000000000000000000000000000000000000000000000000000000000000000000000000000000000000000000000000
310
00000000000000000000000000000000000000000000000000000000000000000000000000000000000000000000000000000000000000000000000000000000000000000000000000000000000000000000000000000000000000000000000000000000000000000000000000000000000000000000000000000000000000
310
00000000000000000000000000000000000000000000000000000000000000000000000000000000000000000000000000000000000000000000000000000000000000000000000000000000000000000000000000000000000000000000000000000000000000000000000000000000000000000000000000000000000000
310
00000000000000000000000000000000000000000000000000000000000000000000000000000000000000000000000000000000000000000000000000000000000000000000000000000000000000000000000000000000000000000000000000000000000000000000000000000000
  0
XRECORD
  5
2F2
102
{ACAD_REACTORS
330
2F1
102
}
330
2F1
100
AcDbXrecord
280
     1
102
MATERIAL
148
0.0
149
0.0
149
0.0
 93
        0
 94
      127
282
     0
 72
     0
 77
     0
171
     0
175
     0
179
     0
273
     0
  0
XRECORD
  5
2EE
102
{ACAD_REACTORS
330
2ED
102
}
330
2ED
100
AcDbXrecord
280
     1
102
MATERIAL
148
0.0
149
0.0
149
0.0
 93
        0
 94
      127
282
     0
 72
     0
 77
     0
171
     0
175
     0
179
     0
273
     0
  0
XRECORD
  5
2F0
102
{ACAD_REACTORS
330
2EF
102
}
330
2EF
100
AcDbXrecord
280
     1
102
MATERIAL
148
0.0
149
0.0
149
0.0
 93
        0
 94
      127
282
     0
 72
     0
 77
     0
171
     0
175
     0
179
     0
273
     0
  0
XRECORD
  5
324
102
{ACAD_REACTORS
330
323
102
}
330
323
100
AcDbXrecord
280
     1
102
ACAD_ROUNDTRIP_2010_MLEADER_STYLE
  0
XRECORD
  5
2FC
102
{ACAD_REACTORS
330
2FB
102
}
330
2FB
100
AcDbXrecord
280
     1
102
RTVSPropertyOp0
 70
     1
102
RTVSPropertyOp1
 70
     1
102
RTVSPropertyOp2
 70
     1
102
RTVSPropertyOp3
 70
     1
102
RTVSPropertyOp4
 70
     1
102
RTVSPropertyOp5
 70
     1
102
RTVSPropertyOp6
 70
     1
102
RTVSPropertyOp7
 70
     1
102
RTVSPropertyOp8
 70
     1
102
RTVSPropertyOp9
 70
     1
102
RTVSPropertyOp10
 70
     1
102
RTVSPropertyOp11
 70
     1
102
RTVSPropertyOp12
 70
     1
102
RTVSPropertyOp13
 70
     1
102
RTVSPropertyOp14
 70
     1
102
RTVSPropertyOp15
 70
     1
102
RTVSPropertyOp16
 70
     1
102
RTVSPropertyOp17
 70
     1
102
RTVSPropertyOp18
 70
     1
102
RTVSPropertyOp19
 70
     1
102
RTVSPropertyOp20
 70
     1
102
RTVSPropertyOp21
 70
     1
102
RTVSPropertyOp22
 70
     1
102
RTVSPropertyOp23
 70
     1
102
RTVSPropertyOp24
 70
     1
102
RTVSPropertyOp25
 70
     1
102
RTVSPropertyOp26
 70
     1
102
RTVSPropertyOp27
 70
     1
102
RTVSPropertyOp28
 70
     1
102
RTVSPropertyOp29
 70
     1
102
RTVSPropertyOp30
 70
     1
102
RTVSPropertyOp31
 70
     1
102
RTVSPropertyOp32
 70
     1
102
RTVSPropertyOp33
 70
     1
102
RTVSPropertyOp34
 70
     1
102
RTVSPropertyOp35
 70
     1
102
RTVSPropertyOp36
 70
     1
102
RTVSPropertyOp37
 70
     1
102
RTVSPropertyOp38
 70
     1
102
RTVSPropertyOp39
 70
     1
102
RTVSPropertyOp40
 70
     1
102
RTVSPropertyOp41
 70
     1
102
RTVSPropertyOp42
 70
     1
102
RTVSPropertyOp43
 70
     1
102
RTVSPropertyOp44
 70
     1
102
RTVSPropertyOp45
 70
     1
102
RTVSPropertyOp46
 70
     1
102
RTVSPropertyOp47
 70
     1
102
RTVSPropertyOp48
 70
     1
102
RTVSPropertyOp49
 70
     1
102
RTVSPropertyOp50
 70
     1
102
RTVSPropertyOp51
 70
     0
102
RTVSPropertyOp52
 70
     0
102
RTVSPropertyOp53
 70
     1
102
RTVSPropertyOp54
 70
     1
102
RTVSPropertyOp55
 70
     1
102
RTVSPropertyOp56
 70
     1
102
RTVSPropertyOp57
 70
     1
102
RTVSPost2010Prop28
280
     1
102
RTVSPost2010PropOp28
 70
     1
102
RTVSPost2010Prop29
280
     1
102
RTVSPost2010PropOp29
 70
     1
102
RTVSPost2010Prop30
280
     0
102
RTVSPost2010PropOp30
 70
     1
102
RTVSPost2010Prop31
280
     0
102
RTVSPost2010PropOp31
 70
     1
102
RTVSPost2010Prop32
280
     0
102
RTVSPost2010PropOp32
 70
     1
102
RTVSPost2010Prop33
280
     0
102
RTVSPost2010PropOp33
 70
     1
102
RTVSPost2010Prop34
280
     0
102
RTVSPost2010PropOp34
 70
     1
102
RTVSPost2010Prop35
280
     0
102
RTVSPost2010PropOp35
 70
     1
102
RTVSPost2010Prop36
280
     0
102
RTVSPost2010PropOp36
 70
     1
102
RTVSPost2010Prop37
 90
       50
102
RTVSPost2010PropOp37
 70
     1
102
RTVSPost2010Prop38
140
0.0
102
RTVSPost2010PropOp38
 70
     1
102
RTVSPost2010Prop39
140
1.0
102
RTVSPost2010PropOp39
 70
     1
102
RTVSPost2010Prop40
 90
        0
102
RTVSPost2010PropOp40
 70
     1
102
RTVSPost2010Prop41ColorIndex
 90
       18
102
RTVSPost2010Prop41ColorRGB
 90
        0
102
RTVSPost2010PropOp41
 70
     1
102
RTVSPost2010Prop42
 90
       50
102
RTVSPost2010PropOp42
 70
     1
102
RTVSPost2010Prop43
 90
        3
102
RTVSPost2010PropOp43
 70
     1
102
RTVSPost2010Prop44ColorIndex
 90
        5
102
RTVSPost2010Prop44ColorRGB
 90
      255
102
RTVSPost2010PropOp44
 70
     1
102
RTVSPost2010Prop45
280
     0
102
RTVSPost2010PropOp45
 70
     1
102
RTVSPost2010Prop46
 90
       50
102
RTVSPost2010PropOp46
 70
     1
102
RTVSPost2010Prop47
 90
       50
102
RTVSPost2010PropOp47
 70
     1
102
RTVSPost2010Prop48
 90
       50
102
RTVSPost2010PropOp48
 70
     1
102
RTVSPost2010Prop49
280
     0
102
RTVSPost2010PropOp49
 70
     1
102
RTVSPost2010Prop50
 90
       50
102
RTVSPost2010PropOp50
 70
     1
102
RTVSPost2010Prop51ColorIndex
 90
      256
102
RTVSPost2010Prop51ColorRGB
 90
-16777216
102
RTVSPost2010PropOp51
 70
     0
102
RTVSPost2010Prop52
140
1.0
102
RTVSPost2010PropOp52
 70
     0
102
RTVSPost2010Prop53
 90
        2
102
RTVSPost2010PropOp53
 70
     1
102
RTVSPost2010Prop54
  1
strokes_ogs.tif
102
RTVSPost2010PropOp54
 70
     1
102
RTVSPost2010Prop55
280
     0
102
RTVSPost2010PropOp55
 70
     1
102
RTVSPost2010Prop56
140
1.0
102
RTVSPost2010PropOp56
 70
     1
102
RTVSPost2010Prop57
140
1.0
102
RTVSPost2010PropOp57
 70
     1
  0
XRECORD
  5
302
102
{ACAD_REACTORS
330
301
102
}
330
301
100
AcDbXrecord
280
     1
102
RTVSPropertyOp0
 70
     1
102
RTVSPropertyOp1
 70
     1
102
RTVSPropertyOp2
 70
     1
102
RTVSPropertyOp3
 70
     1
102
RTVSPropertyOp4
 70
     1
102
RTVSPropertyOp5
 70
     1
102
RTVSPropertyOp6
 70
     1
102
RTVSPropertyOp7
 70
     1
102
RTVSPropertyOp8
 70
     1
102
RTVSPropertyOp9
 70
     1
102
RTVSPropertyOp10
 70
     1
102
RTVSPropertyOp11
 70
     1
102
RTVSPropertyOp12
 70
     1
102
RTVSPropertyOp13
 70
     1
102
RTVSPropertyOp14
 70
     1
102
RTVSPropertyOp15
 70
     1
102
RTVSPropertyOp16
 70
     1
102
RTVSPropertyOp17
 70
     1
102
RTVSPropertyOp18
 70
     1
102
RTVSPropertyOp19
 70
     1
102
RTVSPropertyOp20
 70
     1
102
RTVSPropertyOp21
 70
     1
102
RTVSPropertyOp22
 70
     1
102
RTVSPropertyOp23
 70
     1
102
RTVSPropertyOp24
 70
     1
102
RTVSPropertyOp25
 70
     1
102
RTVSPropertyOp26
 70
     1
102
RTVSPropertyOp27
 70
     1
102
RTVSPropertyOp28
 70
     1
102
RTVSPropertyOp29
 70
     1
102
RTVSPropertyOp30
 70
     1
102
RTVSPropertyOp31
 70
     1
102
RTVSPropertyOp32
 70
     1
102
RTVSPropertyOp33
 70
     1
102
RTVSPropertyOp34
 70
     1
102
RTVSPropertyOp35
 70
     1
102
RTVSPropertyOp36
 70
     1
102
RTVSPropertyOp37
 70
     1
102
RTVSPropertyOp38
 70
     1
102
RTVSPropertyOp39
 70
     1
102
RTVSPropertyOp40
 70
     1
102
RTVSPropertyOp41
 70
     1
102
RTVSPropertyOp42
 70
     1
102
RTVSPropertyOp43
 70
     1
102
RTVSPropertyOp44
 70
     1
102
RTVSPropertyOp45
 70
     1
102
RTVSPropertyOp46
 70
     1
102
RTVSPropertyOp47
 70
     1
102
RTVSPropertyOp48
 70
     1
102
RTVSPropertyOp49
 70
     1
102
RTVSPropertyOp50
 70
     1
102
RTVSPropertyOp51
 70
     0
102
RTVSPropertyOp52
 70
     0
102
RTVSPropertyOp53
 70
     1
102
RTVSPropertyOp54
 70
     1
102
RTVSPropertyOp55
 70
     1
102
RTVSPropertyOp56
 70
     1
102
RTVSPropertyOp57
 70
     1
102
RTVSPost2010Prop28
280
     0
102
RTVSPost2010PropOp28
 70
     1
102
RTVSPost2010Prop29
280
     1
102
RTVSPost2010PropOp29
 70
     1
102
RTVSPost2010Prop30
280
     1
102
RTVSPost2010PropOp30
 70
     1
102
RTVSPost2010Prop31
280
     0
102
RTVSPost2010PropOp31
 70
     1
102
RTVSPost2010Prop32
280
     0
102
RTVSPost2010PropOp32
 70
     1
102
RTVSPost2010Prop33
280
     0
102
RTVSPost2010PropOp33
 70
     1
102
RTVSPost2010Prop34
280
     0
102
RTVSPost2010PropOp34
 70
     1
102
RTVSPost2010Prop35
280
     0
102
RTVSPost2010PropOp35
 70
     1
102
RTVSPost2010Prop36
280
     0
102
RTVSPost2010PropOp36
 70
     1
102
RTVSPost2010Prop37
 90
       50
102
RTVSPost2010PropOp37
 70
     1
102
RTVSPost2010Prop38
140
0.0
102
RTVSPost2010PropOp38
 70
     1
102
RTVSPost2010Prop39
140
1.0
102
RTVSPost2010PropOp39
 70
     1
102
RTVSPost2010Prop40
 90
        0
102
RTVSPost2010PropOp40
 70
     1
102
RTVSPost2010Prop41ColorIndex
 90
       18
102
RTVSPost2010Prop41ColorRGB
 90
        0
102
RTVSPost2010PropOp41
 70
     1
102
RTVSPost2010Prop42
 90
       50
102
RTVSPost2010PropOp42
 70
     1
102
RTVSPost2010Prop43
 90
        3
102
RTVSPost2010PropOp43
 70
     1
102
RTVSPost2010Prop44ColorIndex
 90
        5
102
RTVSPost2010Prop44ColorRGB
 90
      255
102
RTVSPost2010PropOp44
 70
     1
102
RTVSPost2010Prop45
280
     0
102
RTVSPost2010PropOp45
 70
     1
102
RTVSPost2010Prop46
 90
       50
102
RTVSPost2010PropOp46
 70
     1
102
RTVSPost2010Prop47
 90
       50
102
RTVSPost2010PropOp47
 70
     1
102
RTVSPost2010Prop48
 90
       50
102
RTVSPost2010PropOp48
 70
     1
102
RTVSPost2010Prop49
280
     0
102
RTVSPost2010PropOp49
 70
     1
102
RTVSPost2010Prop50
 90
       50
102
RTVSPost2010PropOp50
 70
     1
102
RTVSPost2010Prop51ColorIndex
 90
      256
102
RTVSPost2010Prop51ColorRGB
 90
-16777216
102
RTVSPost2010PropOp51
 70
     0
102
RTVSPost2010Prop52
140
1.0
102
RTVSPost2010PropOp52
 70
     0
102
RTVSPost2010Prop53
 90
        2
102
RTVSPost2010PropOp53
 70
     1
102
RTVSPost2010Prop54
  1
strokes_ogs.tif
102
RTVSPost2010PropOp54
 70
     1
102
RTVSPost2010Prop55
280
     0
102
RTVSPost2010PropOp55
 70
     1
102
RTVSPost2010Prop56
140
1.0
102
RTVSPost2010PropOp56
 70
     1
102
RTVSPost2010Prop57
140
1.0
102
RTVSPost2010PropOp57
 70
     1
  0
XRECORD
  5
30A
102
{ACAD_REACTORS
330
309
102
}
330
309
100
AcDbXrecord
280
     1
102
RTVSPropertyOp0
 70
     1
102
RTVSPropertyOp1
 70
     1
102
RTVSPropertyOp2
 70
     1
102
RTVSPropertyOp3
 70
     1
102
RTVSPropertyOp4
 70
     1
102
RTVSPropertyOp5
 70
     1
102
RTVSPropertyOp6
 70
     1
102
RTVSPropertyOp7
 70
     1
102
RTVSPropertyOp8
 70
     1
102
RTVSPropertyOp9
 70
     1
102
RTVSPropertyOp10
 70
     1
102
RTVSPropertyOp11
 70
     1
102
RTVSPropertyOp12
 70
     1
102
RTVSPropertyOp13
 70
     1
102
RTVSPropertyOp14
 70
     1
102
RTVSPropertyOp15
 70
     1
102
RTVSPropertyOp16
 70
     1
102
RTVSPropertyOp17
 70
     1
102
RTVSPropertyOp18
 70
     1
102
RTVSPropertyOp19
 70
     1
102
RTVSPropertyOp20
 70
     1
102
RTVSPropertyOp21
 70
     1
102
RTVSPropertyOp22
 70
     1
102
RTVSPropertyOp23
 70
     1
102
RTVSPropertyOp24
 70
     1
102
RTVSPropertyOp25
 70
     1
102
RTVSPropertyOp26
 70
     1
102
RTVSPropertyOp27
 70
     1
102
RTVSPropertyOp28
 70
     1
102
RTVSPropertyOp29
 70
     1
102
RTVSPropertyOp30
 70
     1
102
RTVSPropertyOp31
 70
     1
102
RTVSPropertyOp32
 70
     1
102
RTVSPropertyOp33
 70
     1
102
RTVSPropertyOp34
 70
     1
102
RTVSPropertyOp35
 70
     1
102
RTVSPropertyOp36
 70
     1
102
RTVSPropertyOp37
 70
     1
102
RTVSPropertyOp38
 70
     1
102
RTVSPropertyOp39
 70
     1
102
RTVSPropertyOp40
 70
     1
102
RTVSPropertyOp41
 70
     1
102
RTVSPropertyOp42
 70
     1
102
RTVSPropertyOp43
 70
     1
102
RTVSPropertyOp44
 70
     1
102
RTVSPropertyOp45
 70
     1
102
RTVSPropertyOp46
 70
     1
102
RTVSPropertyOp47
 70
     1
102
RTVSPropertyOp48
 70
     1
102
RTVSPropertyOp49
 70
     1
102
RTVSPropertyOp50
 70
     1
102
RTVSPropertyOp51
 70
     0
102
RTVSPropertyOp52
 70
     0
102
RTVSPropertyOp53
 70
     1
102
RTVSPropertyOp54
 70
     1
102
RTVSPropertyOp55
 70
     1
102
RTVSPropertyOp56
 70
     1
102
RTVSPropertyOp57
 70
     1
102
RTVSPost2010Prop28
280
     0
102
RTVSPost2010PropOp28
 70
     1
102
RTVSPost2010Prop29
280
     1
102
RTVSPost2010PropOp29
 70
     1
102
RTVSPost2010Prop30
280
     1
102
RTVSPost2010PropOp30
 70
     1
102
RTVSPost2010Prop31
280
     0
102
RTVSPost2010PropOp31
 70
     1
102
RTVSPost2010Prop32
280
     0
102
RTVSPost2010PropOp32
 70
     1
102
RTVSPost2010Prop33
280
     0
102
RTVSPost2010PropOp33
 70
     1
102
RTVSPost2010Prop34
280
     0
102
RTVSPost2010PropOp34
 70
     1
102
RTVSPost2010Prop35
280
     0
102
RTVSPost2010PropOp35
 70
     1
102
RTVSPost2010Prop36
280
     0
102
RTVSPost2010PropOp36
 70
     1
102
RTVSPost2010Prop37
 90
       50
102
RTVSPost2010PropOp37
 70
     1
102
RTVSPost2010Prop38
140
0.0
102
RTVSPost2010PropOp38
 70
     1
102
RTVSPost2010Prop39
140
1.0
102
RTVSPost2010PropOp39
 70
     1
102
RTVSPost2010Prop40
 90
        0
102
RTVSPost2010PropOp40
 70
     1
102
RTVSPost2010Prop41ColorIndex
 90
       18
102
RTVSPost2010Prop41ColorRGB
 90
        0
102
RTVSPost2010PropOp41
 70
     1
102
RTVSPost2010Prop42
 90
       50
102
RTVSPost2010PropOp42
 70
     1
102
RTVSPost2010Prop43
 90
        3
102
RTVSPost2010PropOp43
 70
     1
102
RTVSPost2010Prop44ColorIndex
 90
        5
102
RTVSPost2010Prop44ColorRGB
 90
      255
102
RTVSPost2010PropOp44
 70
     1
102
RTVSPost2010Prop45
280
     0
102
RTVSPost2010PropOp45
 70
     1
102
RTVSPost2010Prop46
 90
       50
102
RTVSPost2010PropOp46
 70
     1
102
RTVSPost2010Prop47
 90
       50
102
RTVSPost2010PropOp47
 70
     1
102
RTVSPost2010Prop48
 90
       50
102
RTVSPost2010PropOp48
 70
     1
102
RTVSPost2010Prop49
280
     0
102
RTVSPost2010PropOp49
 70
     1
102
RTVSPost2010Prop50
 90
       50
102
RTVSPost2010PropOp50
 70
     1
102
RTVSPost2010Prop51ColorIndex
 90
      256
102
RTVSPost2010Prop51ColorRGB
 90
-16777216
102
RTVSPost2010PropOp51
 70
     0
102
RTVSPost2010Prop52
140
1.0
102
RTVSPost2010PropOp52
 70
     0
102
RTVSPost2010Prop53
 90
        2
102
RTVSPost2010PropOp53
 70
     1
102
RTVSPost2010Prop54
  1
strokes_ogs.tif
102
RTVSPost2010PropOp54
 70
     1
102
RTVSPost2010Prop55
280
     0
102
RTVSPost2010PropOp55
 70
     1
102
RTVSPost2010Prop56
140
1.0
102
RTVSPost2010PropOp56
 70
     1
102
RTVSPost2010Prop57
140
1.0
102
RTVSPost2010PropOp57
 70
     1
  0
XRECORD
  5
312
102
{ACAD_REACTORS
330
311
102
}
330
311
100
AcDbXrecord
280
     1
102
RTVSPropertyOp0
 70
     1
102
RTVSPropertyOp1
 70
     1
102
RTVSPropertyOp2
 70
     1
102
RTVSPropertyOp3
 70
     1
102
RTVSPropertyOp4
 70
     1
102
RTVSPropertyOp5
 70
     1
102
RTVSPropertyOp6
 70
     1
102
RTVSPropertyOp7
 70
     1
102
RTVSPropertyOp8
 70
     1
102
RTVSPropertyOp9
 70
     1
102
RTVSPropertyOp10
 70
     1
102
RTVSPropertyOp11
 70
     1
102
RTVSPropertyOp12
 70
     1
102
RTVSPropertyOp13
 70
     1
102
RTVSPropertyOp14
 70
     1
102
RTVSPropertyOp15
 70
     1
102
RTVSPropertyOp16
 70
     1
102
RTVSPropertyOp17
 70
     1
102
RTVSPropertyOp18
 70
     1
102
RTVSPropertyOp19
 70
     1
102
RTVSPropertyOp20
 70
     1
102
RTVSPropertyOp21
 70
     1
102
RTVSPropertyOp22
 70
     1
102
RTVSPropertyOp23
 70
     1
102
RTVSPropertyOp24
 70
     1
102
RTVSPropertyOp25
 70
     1
102
RTVSPropertyOp26
 70
     1
102
RTVSPropertyOp27
 70
     1
102
RTVSPropertyOp28
 70
     1
102
RTVSPropertyOp29
 70
     1
102
RTVSPropertyOp30
 70
     1
102
RTVSPropertyOp31
 70
     1
102
RTVSPropertyOp32
 70
     1
102
RTVSPropertyOp33
 70
     1
102
RTVSPropertyOp34
 70
     1
102
RTVSPropertyOp35
 70
     1
102
RTVSPropertyOp36
 70
     1
102
RTVSPropertyOp37
 70
     1
102
RTVSPropertyOp38
 70
     1
102
RTVSPropertyOp39
 70
     1
102
RTVSPropertyOp40
 70
     1
102
RTVSPropertyOp41
 70
     1
102
RTVSPropertyOp42
 70
     1
102
RTVSPropertyOp43
 70
     1
102
RTVSPropertyOp44
 70
     1
102
RTVSPropertyOp45
 70
     1
102
RTVSPropertyOp46
 70
     1
102
RTVSPropertyOp47
 70
     1
102
RTVSPropertyOp48
 70
     1
102
RTVSPropertyOp49
 70
     1
102
RTVSPropertyOp50
 70
     1
102
RTVSPropertyOp51
 70
     0
102
RTVSPropertyOp52
 70
     0
102
RTVSPropertyOp53
 70
     1
102
RTVSPropertyOp54
 70
     1
102
RTVSPropertyOp55
 70
     1
102
RTVSPropertyOp56
 70
     1
102
RTVSPropertyOp57
 70
     1
102
RTVSPost2010Prop28
280
     0
102
RTVSPost2010PropOp28
 70
     1
102
RTVSPost2010Prop29
280
     1
102
RTVSPost2010PropOp29
 70
     1
102
RTVSPost2010Prop30
280
     1
102
RTVSPost2010PropOp30
 70
     1
102
RTVSPost2010Prop31
280
     0
102
RTVSPost2010PropOp31
 70
     1
102
RTVSPost2010Prop32
280
     0
102
RTVSPost2010PropOp32
 70
     1
102
RTVSPost2010Prop33
280
     0
102
RTVSPost2010PropOp33
 70
     1
102
RTVSPost2010Prop34
280
     0
102
RTVSPost2010PropOp34
 70
     1
102
RTVSPost2010Prop35
280
     0
102
RTVSPost2010PropOp35
 70
     1
102
RTVSPost2010Prop36
280
     0
102
RTVSPost2010PropOp36
 70
     1
102
RTVSPost2010Prop37
 90
       50
102
RTVSPost2010PropOp37
 70
     1
102
RTVSPost2010Prop38
140
0.0
102
RTVSPost2010PropOp38
 70
     1
102
RTVSPost2010Prop39
140
1.0
102
RTVSPost2010PropOp39
 70
     1
102
RTVSPost2010Prop40
 90
        0
102
RTVSPost2010PropOp40
 70
     1
102
RTVSPost2010Prop41ColorIndex
 90
       18
102
RTVSPost2010Prop41ColorRGB
 90
        0
102
RTVSPost2010PropOp41
 70
     1
102
RTVSPost2010Prop42
 90
       50
102
RTVSPost2010PropOp42
 70
     1
102
RTVSPost2010Prop43
 90
        3
102
RTVSPost2010PropOp43
 70
     1
102
RTVSPost2010Prop44ColorIndex
 90
        5
102
RTVSPost2010Prop44ColorRGB
 90
      255
102
RTVSPost2010PropOp44
 70
     1
102
RTVSPost2010Prop45
280
     0
102
RTVSPost2010PropOp45
 70
     1
102
RTVSPost2010Prop46
 90
       50
102
RTVSPost2010PropOp46
 70
     1
102
RTVSPost2010Prop47
 90
       50
102
RTVSPost2010PropOp47
 70
     1
102
RTVSPost2010Prop48
 90
       50
102
RTVSPost2010PropOp48
 70
     1
102
RTVSPost2010Prop49
280
     0
102
RTVSPost2010PropOp49
 70
     1
102
RTVSPost2010Prop50
 90
       50
102
RTVSPost2010PropOp50
 70
     1
102
RTVSPost2010Prop51ColorIndex
 90
      256
102
RTVSPost2010Prop51ColorRGB
 90
-16777216
102
RTVSPost2010PropOp51
 70
     0
102
RTVSPost2010Prop52
140
1.0
102
RTVSPost2010PropOp52
 70
     0
102
RTVSPost2010Prop53
 90
        2
102
RTVSPost2010PropOp53
 70
     1
102
RTVSPost2010Prop54
  1
strokes_ogs.tif
102
RTVSPost2010PropOp54
 70
     1
102
RTVSPost2010Prop55
280
     0
102
RTVSPost2010PropOp55
 70
     1
102
RTVSPost2010Prop56
140
1.0
102
RTVSPost2010PropOp56
 70
     1
102
RTVSPost2010Prop57
140
1.0
102
RTVSPost2010PropOp57
 70
     1
  0
XRECORD
  5
306
102
{ACAD_REACTORS
330
305
102
}
330
305
100
AcDbXrecord
280
     1
102
RTVSPropertyOp0
 70
     1
102
RTVSPropertyOp1
 70
     1
102
RTVSPropertyOp2
 70
     1
102
RTVSPropertyOp3
 70
     1
102
RTVSPropertyOp4
 70
     1
102
RTVSPropertyOp5
 70
     1
102
RTVSPropertyOp6
 70
     1
102
RTVSPropertyOp7
 70
     1
102
RTVSPropertyOp8
 70
     1
102
RTVSPropertyOp9
 70
     1
102
RTVSPropertyOp10
 70
     1
102
RTVSPropertyOp11
 70
     1
102
RTVSPropertyOp12
 70
     1
102
RTVSPropertyOp13
 70
     1
102
RTVSPropertyOp14
 70
     1
102
RTVSPropertyOp15
 70
     1
102
RTVSPropertyOp16
 70
     1
102
RTVSPropertyOp17
 70
     1
102
RTVSPropertyOp18
 70
     1
102
RTVSPropertyOp19
 70
     1
102
RTVSPropertyOp20
 70
     1
102
RTVSPropertyOp21
 70
     1
102
RTVSPropertyOp22
 70
     1
102
RTVSPropertyOp23
 70
     1
102
RTVSPropertyOp24
 70
     1
102
RTVSPropertyOp25
 70
     1
102
RTVSPropertyOp26
 70
     1
102
RTVSPropertyOp27
 70
     1
102
RTVSPropertyOp28
 70
     1
102
RTVSPropertyOp29
 70
     1
102
RTVSPropertyOp30
 70
     1
102
RTVSPropertyOp31
 70
     1
102
RTVSPropertyOp32
 70
     1
102
RTVSPropertyOp33
 70
     1
102
RTVSPropertyOp34
 70
     1
102
RTVSPropertyOp35
 70
     1
102
RTVSPropertyOp36
 70
     1
102
RTVSPropertyOp37
 70
     1
102
RTVSPropertyOp38
 70
     1
102
RTVSPropertyOp39
 70
     1
102
RTVSPropertyOp40
 70
     1
102
RTVSPropertyOp41
 70
     1
102
RTVSPropertyOp42
 70
     1
102
RTVSPropertyOp43
 70
     1
102
RTVSPropertyOp44
 70
     1
102
RTVSPropertyOp45
 70
     1
102
RTVSPropertyOp46
 70
     1
102
RTVSPropertyOp47
 70
     1
102
RTVSPropertyOp48
 70
     1
102
RTVSPropertyOp49
 70
     1
102
RTVSPropertyOp50
 70
     1
102
RTVSPropertyOp51
 70
     0
102
RTVSPropertyOp52
 70
     0
102
RTVSPropertyOp53
 70
     1
102
RTVSPropertyOp54
 70
     1
102
RTVSPropertyOp55
 70
     1
102
RTVSPropertyOp56
 70
     1
102
RTVSPropertyOp57
 70
     1
102
RTVSPost2010Prop28
280
     0
102
RTVSPost2010PropOp28
 70
     1
102
RTVSPost2010Prop29
280
     1
102
RTVSPost2010PropOp29
 70
     1
102
RTVSPost2010Prop30
280
     1
102
RTVSPost2010PropOp30
 70
     1
102
RTVSPost2010Prop31
280
     0
102
RTVSPost2010PropOp31
 70
     1
102
RTVSPost2010Prop32
280
     0
102
RTVSPost2010PropOp32
 70
     1
102
RTVSPost2010Prop33
280
     0
102
RTVSPost2010PropOp33
 70
     1
102
RTVSPost2010Prop34
280
     0
102
RTVSPost2010PropOp34
 70
     1
102
RTVSPost2010Prop35
280
     0
102
RTVSPost2010PropOp35
 70
     1
102
RTVSPost2010Prop36
280
     0
102
RTVSPost2010PropOp36
 70
     1
102
RTVSPost2010Prop37
 90
       50
102
RTVSPost2010PropOp37
 70
     1
102
RTVSPost2010Prop38
140
0.0
102
RTVSPost2010PropOp38
 70
     1
102
RTVSPost2010Prop39
140
1.0
102
RTVSPost2010PropOp39
 70
     1
102
RTVSPost2010Prop40
 90
        0
102
RTVSPost2010PropOp40
 70
     1
102
RTVSPost2010Prop41ColorIndex
 90
       18
102
RTVSPost2010Prop41ColorRGB
 90
        0
102
RTVSPost2010PropOp41
 70
     1
102
RTVSPost2010Prop42
 90
       50
102
RTVSPost2010PropOp42
 70
     1
102
RTVSPost2010Prop43
 90
        3
102
RTVSPost2010PropOp43
 70
     1
102
RTVSPost2010Prop44ColorIndex
 90
        5
102
RTVSPost2010Prop44ColorRGB
 90
      255
102
RTVSPost2010PropOp44
 70
     1
102
RTVSPost2010Prop45
280
     0
102
RTVSPost2010PropOp45
 70
     1
102
RTVSPost2010Prop46
 90
       50
102
RTVSPost2010PropOp46
 70
     1
102
RTVSPost2010Prop47
 90
       50
102
RTVSPost2010PropOp47
 70
     1
102
RTVSPost2010Prop48
 90
       50
102
RTVSPost2010PropOp48
 70
     1
102
RTVSPost2010Prop49
280
     0
102
RTVSPost2010PropOp49
 70
     1
102
RTVSPost2010Prop50
 90
       50
102
RTVSPost2010PropOp50
 70
     1
102
RTVSPost2010Prop51ColorIndex
 90
      256
102
RTVSPost2010Prop51ColorRGB
 90
-16777216
102
RTVSPost2010PropOp51
 70
     0
102
RTVSPost2010Prop52
140
1.0
102
RTVSPost2010PropOp52
 70
     0
102
RTVSPost2010Prop53
 90
        2
102
RTVSPost2010PropOp53
 70
     1
102
RTVSPost2010Prop54
  1
strokes_ogs.tif
102
RTVSPost2010PropOp54
 70
     1
102
RTVSPost2010Prop55
280
     0
102
RTVSPost2010PropOp55
 70
     1
102
RTVSPost2010Prop56
140
1.0
102
RTVSPost2010PropOp56
 70
     1
102
RTVSPost2010Prop57
140
1.0
102
RTVSPost2010PropOp57
 70
     1
  0
XRECORD
  5
308
102
{ACAD_REACTORS
330
307
102
}
330
307
100
AcDbXrecord
280
     1
102
RTVSPropertyOp0
 70
     1
102
RTVSPropertyOp1
 70
     1
102
RTVSPropertyOp2
 70
     1
102
RTVSPropertyOp3
 70
     1
102
RTVSPropertyOp4
 70
     1
102
RTVSPropertyOp5
 70
     1
102
RTVSPropertyOp6
 70
     1
102
RTVSPropertyOp7
 70
     1
102
RTVSPropertyOp8
 70
     1
102
RTVSPropertyOp9
 70
     1
102
RTVSPropertyOp10
 70
     1
102
RTVSPropertyOp11
 70
     1
102
RTVSPropertyOp12
 70
     1
102
RTVSPropertyOp13
 70
     1
102
RTVSPropertyOp14
 70
     1
102
RTVSPropertyOp15
 70
     1
102
RTVSPropertyOp16
 70
     1
102
RTVSPropertyOp17
 70
     1
102
RTVSPropertyOp18
 70
     1
102
RTVSPropertyOp19
 70
     1
102
RTVSPropertyOp20
 70
     1
102
RTVSPropertyOp21
 70
     1
102
RTVSPropertyOp22
 70
     1
102
RTVSPropertyOp23
 70
     1
102
RTVSPropertyOp24
 70
     1
102
RTVSPropertyOp25
 70
     1
102
RTVSPropertyOp26
 70
     1
102
RTVSPropertyOp27
 70
     1
102
RTVSPropertyOp28
 70
     1
102
RTVSPropertyOp29
 70
     1
102
RTVSPropertyOp30
 70
     1
102
RTVSPropertyOp31
 70
     1
102
RTVSPropertyOp32
 70
     1
102
RTVSPropertyOp33
 70
     1
102
RTVSPropertyOp34
 70
     1
102
RTVSPropertyOp35
 70
     1
102
RTVSPropertyOp36
 70
     1
102
RTVSPropertyOp37
 70
     1
102
RTVSPropertyOp38
 70
     1
102
RTVSPropertyOp39
 70
     1
102
RTVSPropertyOp40
 70
     1
102
RTVSPropertyOp41
 70
     1
102
RTVSPropertyOp42
 70
     1
102
RTVSPropertyOp43
 70
     1
102
RTVSPropertyOp44
 70
     1
102
RTVSPropertyOp45
 70
     1
102
RTVSPropertyOp46
 70
     1
102
RTVSPropertyOp47
 70
     1
102
RTVSPropertyOp48
 70
     1
102
RTVSPropertyOp49
 70
     1
102
RTVSPropertyOp50
 70
     1
102
RTVSPropertyOp51
 70
     0
102
RTVSPropertyOp52
 70
     0
102
RTVSPropertyOp53
 70
     1
102
RTVSPropertyOp54
 70
     1
102
RTVSPropertyOp55
 70
     1
102
RTVSPropertyOp56
 70
     1
102
RTVSPropertyOp57
 70
     1
102
RTVSPost2010Prop28
280
     0
102
RTVSPost2010PropOp28
 70
     1
102
RTVSPost2010Prop29
280
     1
102
RTVSPost2010PropOp29
 70
     1
102
RTVSPost2010Prop30
280
     1
102
RTVSPost2010PropOp30
 70
     1
102
RTVSPost2010Prop31
280
     0
102
RTVSPost2010PropOp31
 70
     1
102
RTVSPost2010Prop32
280
     0
102
RTVSPost2010PropOp32
 70
     1
102
RTVSPost2010Prop33
280
     0
102
RTVSPost2010PropOp33
 70
     1
102
RTVSPost2010Prop34
280
     0
102
RTVSPost2010PropOp34
 70
     1
102
RTVSPost2010Prop35
280
     0
102
RTVSPost2010PropOp35
 70
     1
102
RTVSPost2010Prop36
280
     0
102
RTVSPost2010PropOp36
 70
     1
102
RTVSPost2010Prop37
 90
       50
102
RTVSPost2010PropOp37
 70
     1
102
RTVSPost2010Prop38
140
0.0
102
RTVSPost2010PropOp38
 70
     1
102
RTVSPost2010Prop39
140
1.0
102
RTVSPost2010PropOp39
 70
     1
102
RTVSPost2010Prop40
 90
        0
102
RTVSPost2010PropOp40
 70
     1
102
RTVSPost2010Prop41ColorIndex
 90
       18
102
RTVSPost2010Prop41ColorRGB
 90
        0
102
RTVSPost2010PropOp41
 70
     1
102
RTVSPost2010Prop42
 90
       50
102
RTVSPost2010PropOp42
 70
     1
102
RTVSPost2010Prop43
 90
        3
102
RTVSPost2010PropOp43
 70
     1
102
RTVSPost2010Prop44ColorIndex
 90
        5
102
RTVSPost2010Prop44ColorRGB
 90
      255
102
RTVSPost2010PropOp44
 70
     1
102
RTVSPost2010Prop45
280
     0
102
RTVSPost2010PropOp45
 70
     1
102
RTVSPost2010Prop46
 90
       50
102
RTVSPost2010PropOp46
 70
     1
102
RTVSPost2010Prop47
 90
       50
102
RTVSPost2010PropOp47
 70
     1
102
RTVSPost2010Prop48
 90
       50
102
RTVSPost2010PropOp48
 70
     1
102
RTVSPost2010Prop49
280
     0
102
RTVSPost2010PropOp49
 70
     1
102
RTVSPost2010Prop50
 90
       50
102
RTVSPost2010PropOp50
 70
     1
102
RTVSPost2010Prop51ColorIndex
 90
      256
102
RTVSPost2010Prop51ColorRGB
 90
-16777216
102
RTVSPost2010PropOp51
 70
     0
102
RTVSPost2010Prop52
140
1.0
102
RTVSPost2010PropOp52
 70
     0
102
RTVSPost2010Prop53
 90
        2
102
RTVSPost2010PropOp53
 70
     1
102
RTVSPost2010Prop54
  1
strokes_ogs.tif
102
RTVSPost2010PropOp54
 70
     1
102
RTVSPost2010Prop55
280
     0
102
RTVSPost2010PropOp55
 70
     1
102
RTVSPost2010Prop56
140
1.0
102
RTVSPost2010PropOp56
 70
     1
102
RTVSPost2010Prop57
140
1.0
102
RTVSPost2010PropOp57
 70
     1
  0
XRECORD
  5
318
102
{ACAD_REACTORS
330
317
102
}
330
317
100
AcDbXrecord
280
     1
102
RTVSPropertyOp0
 70
     0
102
RTVSPropertyOp1
 70
     0
102
RTVSPropertyOp2
 70
     0
102
RTVSPropertyOp3
 70
     0
102
RTVSPropertyOp4
 70
     0
102
RTVSPropertyOp5
 70
     0
102
RTVSPropertyOp6
 70
     0
102
RTVSPropertyOp7
 70
     0
102
RTVSPropertyOp8
 70
     0
102
RTVSPropertyOp9
 70
     0
102
RTVSPropertyOp10
 70
     0
102
RTVSPropertyOp11
 70
     0
102
RTVSPropertyOp12
 70
     0
102
RTVSPropertyOp13
 70
     0
102
RTVSPropertyOp14
 70
     0
102
RTVSPropertyOp15
 70
     0
102
RTVSPropertyOp16
 70
     0
102
RTVSPropertyOp17
 70
     0
102
RTVSPropertyOp18
 70
     0
102
RTVSPropertyOp19
 70
     0
102
RTVSPropertyOp20
 70
     0
102
RTVSPropertyOp21
 70
     0
102
RTVSPropertyOp22
 70
     0
102
RTVSPropertyOp23
 70
     0
102
RTVSPropertyOp24
 70
     0
102
RTVSPropertyOp25
 70
     0
102
RTVSPropertyOp26
 70
     0
102
RTVSPropertyOp27
 70
     0
102
RTVSPropertyOp28
 70
     1
102
RTVSPropertyOp29
 70
     1
102
RTVSPropertyOp30
 70
     1
102
RTVSPropertyOp31
 70
     1
102
RTVSPropertyOp32
 70
     1
102
RTVSPropertyOp33
 70
     1
102
RTVSPropertyOp34
 70
     1
102
RTVSPropertyOp35
 70
     1
102
RTVSPropertyOp36
 70
     1
102
RTVSPropertyOp37
 70
     1
102
RTVSPropertyOp38
 70
     1
102
RTVSPropertyOp39
 70
     1
102
RTVSPropertyOp40
 70
     1
102
RTVSPropertyOp41
 70
     1
102
RTVSPropertyOp42
 70
     1
102
RTVSPropertyOp43
 70
     1
102
RTVSPropertyOp44
 70
     1
102
RTVSPropertyOp45
 70
     1
102
RTVSPropertyOp46
 70
     1
102
RTVSPropertyOp47
 70
     1
102
RTVSPropertyOp48
 70
     1
102
RTVSPropertyOp49
 70
     1
102
RTVSPropertyOp50
 70
     1
102
RTVSPropertyOp51
 70
     0
102
RTVSPropertyOp52
 70
     0
102
RTVSPropertyOp53
 70
     1
102
RTVSPropertyOp54
 70
     1
102
RTVSPropertyOp55
 70
     1
102
RTVSPropertyOp56
 70
     1
102
RTVSPropertyOp57
 70
     1
102
RTVSPost2010Prop28
280
     0
102
RTVSPost2010PropOp28
 70
     1
102
RTVSPost2010Prop29
280
     1
102
RTVSPost2010PropOp29
 70
     1
102
RTVSPost2010Prop30
280
     1
102
RTVSPost2010PropOp30
 70
     1
102
RTVSPost2010Prop31
280
     0
102
RTVSPost2010PropOp31
 70
     1
102
RTVSPost2010Prop32
280
     0
102
RTVSPost2010PropOp32
 70
     1
102
RTVSPost2010Prop33
280
     0
102
RTVSPost2010PropOp33
 70
     1
102
RTVSPost2010Prop34
280
     0
102
RTVSPost2010PropOp34
 70
     1
102
RTVSPost2010Prop35
280
     0
102
RTVSPost2010PropOp35
 70
     1
102
RTVSPost2010Prop36
280
     0
102
RTVSPost2010PropOp36
 70
     1
102
RTVSPost2010Prop37
 90
       50
102
RTVSPost2010PropOp37
 70
     1
102
RTVSPost2010Prop38
140
0.0
102
RTVSPost2010PropOp38
 70
     1
102
RTVSPost2010Prop39
140
1.0
102
RTVSPost2010PropOp39
 70
     1
102
RTVSPost2010Prop40
 90
        0
102
RTVSPost2010PropOp40
 70
     1
102
RTVSPost2010Prop41ColorIndex
 90
       18
102
RTVSPost2010Prop41ColorRGB
 90
        0
102
RTVSPost2010PropOp41
 70
     1
102
RTVSPost2010Prop42
 90
       50
102
RTVSPost2010PropOp42
 70
     1
102
RTVSPost2010Prop43
 90
        3
102
RTVSPost2010PropOp43
 70
     1
102
RTVSPost2010Prop44ColorIndex
 90
        5
102
RTVSPost2010Prop44ColorRGB
 90
      255
102
RTVSPost2010PropOp44
 70
     1
102
RTVSPost2010Prop45
280
     0
102
RTVSPost2010PropOp45
 70
     1
102
RTVSPost2010Prop46
 90
       50
102
RTVSPost2010PropOp46
 70
     1
102
RTVSPost2010Prop47
 90
       50
102
RTVSPost2010PropOp47
 70
     1
102
RTVSPost2010Prop48
 90
       50
102
RTVSPost2010PropOp48
 70
     1
102
RTVSPost2010Prop49
280
     0
102
RTVSPost2010PropOp49
 70
     1
102
RTVSPost2010Prop50
 90
       50
102
RTVSPost2010PropOp50
 70
     1
102
RTVSPost2010Prop51ColorIndex
 90
      256
102
RTVSPost2010Prop51ColorRGB
 90
-16777216
102
RTVSPost2010PropOp51
 70
     0
102
RTVSPost2010Prop52
140
1.0
102
RTVSPost2010PropOp52
 70
     0
102
RTVSPost2010Prop53
 90
        2
102
RTVSPost2010PropOp53
 70
     1
102
RTVSPost2010Prop54
  1
strokes_ogs.tif
102
RTVSPost2010PropOp54
 70
     1
102
RTVSPost2010Prop55
280
     0
102
RTVSPost2010PropOp55
 70
     1
102
RTVSPost2010Prop56
140
1.0
102
RTVSPost2010PropOp56
 70
     1
102
RTVSPost2010Prop57
140
1.0
102
RTVSPost2010PropOp57
 70
     1
  0
XRECORD
  5
310
102
{ACAD_REACTORS
330
30F
102
}
330
30F
100
AcDbXrecord
280
     1
102
RTVSPropertyOp0
 70
     1
102
RTVSPropertyOp1
 70
     1
102
RTVSPropertyOp2
 70
     1
102
RTVSPropertyOp3
 70
     1
102
RTVSPropertyOp4
 70
     1
102
RTVSPropertyOp5
 70
     1
102
RTVSPropertyOp6
 70
     1
102
RTVSPropertyOp7
 70
     1
102
RTVSPropertyOp8
 70
     1
102
RTVSPropertyOp9
 70
     1
102
RTVSPropertyOp10
 70
     1
102
RTVSPropertyOp11
 70
     1
102
RTVSPropertyOp12
 70
     1
102
RTVSPropertyOp13
 70
     1
102
RTVSPropertyOp14
 70
     1
102
RTVSPropertyOp15
 70
     1
102
RTVSPropertyOp16
 70
     1
102
RTVSPropertyOp17
 70
     1
102
RTVSPropertyOp18
 70
     1
102
RTVSPropertyOp19
 70
     1
102
RTVSPropertyOp20
 70
     1
102
RTVSPropertyOp21
 70
     1
102
RTVSPropertyOp22
 70
     1
102
RTVSPropertyOp23
 70
     1
102
RTVSPropertyOp24
 70
     1
102
RTVSPropertyOp25
 70
     1
102
RTVSPropertyOp26
 70
     1
102
RTVSPropertyOp27
 70
     1
102
RTVSPropertyOp28
 70
     1
102
RTVSPropertyOp29
 70
     1
102
RTVSPropertyOp30
 70
     1
102
RTVSPropertyOp31
 70
     1
102
RTVSPropertyOp32
 70
     1
102
RTVSPropertyOp33
 70
     1
102
RTVSPropertyOp34
 70
     1
102
RTVSPropertyOp35
 70
     1
102
RTVSPropertyOp36
 70
     1
102
RTVSPropertyOp37
 70
     1
102
RTVSPropertyOp38
 70
     1
102
RTVSPropertyOp39
 70
     1
102
RTVSPropertyOp40
 70
     1
102
RTVSPropertyOp41
 70
     1
102
RTVSPropertyOp42
 70
     1
102
RTVSPropertyOp43
 70
     1
102
RTVSPropertyOp44
 70
     1
102
RTVSPropertyOp45
 70
     1
102
RTVSPropertyOp46
 70
     1
102
RTVSPropertyOp47
 70
     1
102
RTVSPropertyOp48
 70
     1
102
RTVSPropertyOp49
 70
     1
102
RTVSPropertyOp50
 70
     1
102
RTVSPropertyOp51
 70
     0
102
RTVSPropertyOp52
 70
     0
102
RTVSPropertyOp53
 70
     1
102
RTVSPropertyOp54
 70
     1
102
RTVSPropertyOp55
 70
     1
102
RTVSPropertyOp56
 70
     1
102
RTVSPropertyOp57
 70
     1
102
RTVSPost2010Prop28
280
     0
102
RTVSPost2010PropOp28
 70
     1
102
RTVSPost2010Prop29
280
     1
102
RTVSPost2010PropOp29
 70
     1
102
RTVSPost2010Prop30
280
     1
102
RTVSPost2010PropOp30
 70
     1
102
RTVSPost2010Prop31
280
     0
102
RTVSPost2010PropOp31
 70
     1
102
RTVSPost2010Prop32
280
     0
102
RTVSPost2010PropOp32
 70
     1
102
RTVSPost2010Prop33
280
     0
102
RTVSPost2010PropOp33
 70
     1
102
RTVSPost2010Prop34
280
     0
102
RTVSPost2010PropOp34
 70
     1
102
RTVSPost2010Prop35
280
     0
102
RTVSPost2010PropOp35
 70
     1
102
RTVSPost2010Prop36
280
     0
102
RTVSPost2010PropOp36
 70
     1
102
RTVSPost2010Prop37
 90
       50
102
RTVSPost2010PropOp37
 70
     1
102
RTVSPost2010Prop38
140
0.0
102
RTVSPost2010PropOp38
 70
     1
102
RTVSPost2010Prop39
140
1.0
102
RTVSPost2010PropOp39
 70
     1
102
RTVSPost2010Prop40
 90
        0
102
RTVSPost2010PropOp40
 70
     1
102
RTVSPost2010Prop41ColorIndex
 90
       18
102
RTVSPost2010Prop41ColorRGB
 90
        0
102
RTVSPost2010PropOp41
 70
     1
102
RTVSPost2010Prop42
 90
       50
102
RTVSPost2010PropOp42
 70
     1
102
RTVSPost2010Prop43
 90
        3
102
RTVSPost2010PropOp43
 70
     1
102
RTVSPost2010Prop44ColorIndex
 90
        5
102
RTVSPost2010Prop44ColorRGB
 90
      255
102
RTVSPost2010PropOp44
 70
     1
102
RTVSPost2010Prop45
280
     0
102
RTVSPost2010PropOp45
 70
     1
102
RTVSPost2010Prop46
 90
       50
102
RTVSPost2010PropOp46
 70
     1
102
RTVSPost2010Prop47
 90
       50
102
RTVSPost2010PropOp47
 70
     1
102
RTVSPost2010Prop48
 90
       50
102
RTVSPost2010PropOp48
 70
     1
102
RTVSPost2010Prop49
280
     0
102
RTVSPost2010PropOp49
 70
     1
102
RTVSPost2010Prop50
 90
       50
102
RTVSPost2010PropOp50
 70
     1
102
RTVSPost2010Prop51ColorIndex
 90
      256
102
RTVSPost2010Prop51ColorRGB
 90
-16777216
102
RTVSPost2010PropOp51
 70
     0
102
RTVSPost2010Prop52
140
1.0
102
RTVSPost2010PropOp52
 70
     0
102
RTVSPost2010Prop53
 90
        2
102
RTVSPost2010PropOp53
 70
     1
102
RTVSPost2010Prop54
  1
strokes_ogs.tif
102
RTVSPost2010PropOp54
 70
     1
102
RTVSPost2010Prop55
280
     0
102
RTVSPost2010PropOp55
 70
     1
102
RTVSPost2010Prop56
140
1.0
102
RTVSPost2010PropOp56
 70
     1
102
RTVSPost2010Prop57
140
1.0
102
RTVSPost2010PropOp57
 70
     1
  0
XRECORD
  5
2F4
102
{ACAD_REACTORS
330
2F3
102
}
330
2F3
100
AcDbXrecord
280
     1
102
RTVSPropertyOp0
 70
     1
102
RTVSPropertyOp1
 70
     1
102
RTVSPropertyOp2
 70
     1
102
RTVSPropertyOp3
 70
     1
102
RTVSPropertyOp4
 70
     1
102
RTVSPropertyOp5
 70
     1
102
RTVSPropertyOp6
 70
     1
102
RTVSPropertyOp7
 70
     1
102
RTVSPropertyOp8
 70
     1
102
RTVSPropertyOp9
 70
     1
102
RTVSPropertyOp10
 70
     1
102
RTVSPropertyOp11
 70
     1
102
RTVSPropertyOp12
 70
     1
102
RTVSPropertyOp13
 70
     1
102
RTVSPropertyOp14
 70
     1
102
RTVSPropertyOp15
 70
     1
102
RTVSPropertyOp16
 70
     1
102
RTVSPropertyOp17
 70
     1
102
RTVSPropertyOp18
 70
     1
102
RTVSPropertyOp19
 70
     1
102
RTVSPropertyOp20
 70
     1
102
RTVSPropertyOp21
 70
     1
102
RTVSPropertyOp22
 70
     1
102
RTVSPropertyOp23
 70
     1
102
RTVSPropertyOp24
 70
     1
102
RTVSPropertyOp25
 70
     1
102
RTVSPropertyOp26
 70
     1
102
RTVSPropertyOp27
 70
     1
102
RTVSPropertyOp28
 70
     1
102
RTVSPropertyOp29
 70
     1
102
RTVSPropertyOp30
 70
     1
102
RTVSPropertyOp31
 70
     1
102
RTVSPropertyOp32
 70
     1
102
RTVSPropertyOp33
 70
     1
102
RTVSPropertyOp34
 70
     1
102
RTVSPropertyOp35
 70
     1
102
RTVSPropertyOp36
 70
     1
102
RTVSPropertyOp37
 70
     1
102
RTVSPropertyOp38
 70
     1
102
RTVSPropertyOp39
 70
     1
102
RTVSPropertyOp40
 70
     1
102
RTVSPropertyOp41
 70
     1
102
RTVSPropertyOp42
 70
     1
102
RTVSPropertyOp43
 70
     1
102
RTVSPropertyOp44
 70
     1
102
RTVSPropertyOp45
 70
     1
102
RTVSPropertyOp46
 70
     1
102
RTVSPropertyOp47
 70
     1
102
RTVSPropertyOp48
 70
     1
102
RTVSPropertyOp49
 70
     1
102
RTVSPropertyOp50
 70
     1
102
RTVSPropertyOp51
 70
     0
102
RTVSPropertyOp52
 70
     0
102
RTVSPropertyOp53
 70
     1
102
RTVSPropertyOp54
 70
     1
102
RTVSPropertyOp55
 70
     1
102
RTVSPropertyOp56
 70
     1
102
RTVSPropertyOp57
 70
     1
102
RTVSPost2010Prop28
280
     0
102
RTVSPost2010PropOp28
 70
     1
102
RTVSPost2010Prop29
280
     1
102
RTVSPost2010PropOp29
 70
     1
102
RTVSPost2010Prop30
280
     1
102
RTVSPost2010PropOp30
 70
     1
102
RTVSPost2010Prop31
280
     0
102
RTVSPost2010PropOp31
 70
     1
102
RTVSPost2010Prop32
280
     0
102
RTVSPost2010PropOp32
 70
     1
102
RTVSPost2010Prop33
280
     0
102
RTVSPost2010PropOp33
 70
     1
102
RTVSPost2010Prop34
280
     0
102
RTVSPost2010PropOp34
 70
     1
102
RTVSPost2010Prop35
280
     0
102
RTVSPost2010PropOp35
 70
     1
102
RTVSPost2010Prop36
280
     0
102
RTVSPost2010PropOp36
 70
     1
102
RTVSPost2010Prop37
 90
       50
102
RTVSPost2010PropOp37
 70
     1
102
RTVSPost2010Prop38
140
0.0
102
RTVSPost2010PropOp38
 70
     1
102
RTVSPost2010Prop39
140
1.0
102
RTVSPost2010PropOp39
 70
     1
102
RTVSPost2010Prop40
 90
        0
102
RTVSPost2010PropOp40
 70
     1
102
RTVSPost2010Prop41ColorIndex
 90
       18
102
RTVSPost2010Prop41ColorRGB
 90
        0
102
RTVSPost2010PropOp41
 70
     1
102
RTVSPost2010Prop42
 90
       50
102
RTVSPost2010PropOp42
 70
     1
102
RTVSPost2010Prop43
 90
        3
102
RTVSPost2010PropOp43
 70
     1
102
RTVSPost2010Prop44ColorIndex
 90
        5
102
RTVSPost2010Prop44ColorRGB
 90
      255
102
RTVSPost2010PropOp44
 70
     1
102
RTVSPost2010Prop45
280
     0
102
RTVSPost2010PropOp45
 70
     1
102
RTVSPost2010Prop46
 90
       50
102
RTVSPost2010PropOp46
 70
     1
102
RTVSPost2010Prop47
 90
       50
102
RTVSPost2010PropOp47
 70
     1
102
RTVSPost2010Prop48
 90
       50
102
RTVSPost2010PropOp48
 70
     1
102
RTVSPost2010Prop49
280
     0
102
RTVSPost2010PropOp49
 70
     1
102
RTVSPost2010Prop50
 90
       50
102
RTVSPost2010PropOp50
 70
     1
102
RTVSPost2010Prop51ColorIndex
 90
      256
102
RTVSPost2010Prop51ColorRGB
 90
-16777216
102
RTVSPost2010PropOp51
 70
     0
102
RTVSPost2010Prop52
140
1.0
102
RTVSPost2010PropOp52
 70
     0
102
RTVSPost2010Prop53
 90
        2
102
RTVSPost2010PropOp53
 70
     1
102
RTVSPost2010Prop54
  1
strokes_ogs.tif
102
RTVSPost2010PropOp54
 70
     1
102
RTVSPost2010Prop55
280
     0
102
RTVSPost2010PropOp55
 70
     1
102
RTVSPost2010Prop56
140
1.0
102
RTVSPost2010PropOp56
 70
     1
102
RTVSPost2010Prop57
140
1.0
102
RTVSPost2010PropOp57
 70
     1
  0
XRECORD
  5
2F6
102
{ACAD_REACTORS
330
2F5
102
}
330
2F5
100
AcDbXrecord
280
     1
102
RTVSPropertyOp0
 70
     1
102
RTVSPropertyOp1
 70
     1
102
RTVSPropertyOp2
 70
     1
102
RTVSPropertyOp3
 70
     1
102
RTVSPropertyOp4
 70
     1
102
RTVSPropertyOp5
 70
     1
102
RTVSPropertyOp6
 70
     1
102
RTVSPropertyOp7
 70
     1
102
RTVSPropertyOp8
 70
     1
102
RTVSPropertyOp9
 70
     1
102
RTVSPropertyOp10
 70
     1
102
RTVSPropertyOp11
 70
     1
102
RTVSPropertyOp12
 70
     1
102
RTVSPropertyOp13
 70
     1
102
RTVSPropertyOp14
 70
     1
102
RTVSPropertyOp15
 70
     1
102
RTVSPropertyOp16
 70
     1
102
RTVSPropertyOp17
 70
     1
102
RTVSPropertyOp18
 70
     1
102
RTVSPropertyOp19
 70
     1
102
RTVSPropertyOp20
 70
     1
102
RTVSPropertyOp21
 70
     1
102
RTVSPropertyOp22
 70
     1
102
RTVSPropertyOp23
 70
     1
102
RTVSPropertyOp24
 70
     1
102
RTVSPropertyOp25
 70
     1
102
RTVSPropertyOp26
 70
     1
102
RTVSPropertyOp27
 70
     1
102
RTVSPropertyOp28
 70
     1
102
RTVSPropertyOp29
 70
     1
102
RTVSPropertyOp30
 70
     1
102
RTVSPropertyOp31
 70
     1
102
RTVSPropertyOp32
 70
     1
102
RTVSPropertyOp33
 70
     1
102
RTVSPropertyOp34
 70
     1
102
RTVSPropertyOp35
 70
     1
102
RTVSPropertyOp36
 70
     1
102
RTVSPropertyOp37
 70
     1
102
RTVSPropertyOp38
 70
     1
102
RTVSPropertyOp39
 70
     1
102
RTVSPropertyOp40
 70
     1
102
RTVSPropertyOp41
 70
     1
102
RTVSPropertyOp42
 70
     1
102
RTVSPropertyOp43
 70
     1
102
RTVSPropertyOp44
 70
     1
102
RTVSPropertyOp45
 70
     1
102
RTVSPropertyOp46
 70
     1
102
RTVSPropertyOp47
 70
     1
102
RTVSPropertyOp48
 70
     1
102
RTVSPropertyOp49
 70
     1
102
RTVSPropertyOp50
 70
     1
102
RTVSPropertyOp51
 70
     0
102
RTVSPropertyOp52
 70
     0
102
RTVSPropertyOp53
 70
     1
102
RTVSPropertyOp54
 70
     1
102
RTVSPropertyOp55
 70
     1
102
RTVSPropertyOp56
 70
     1
102
RTVSPropertyOp57
 70
     1
102
RTVSPost2010Prop28
280
     0
102
RTVSPost2010PropOp28
 70
     1
102
RTVSPost2010Prop29
280
     1
102
RTVSPost2010PropOp29
 70
     1
102
RTVSPost2010Prop30
280
     1
102
RTVSPost2010PropOp30
 70
     1
102
RTVSPost2010Prop31
280
     0
102
RTVSPost2010PropOp31
 70
     1
102
RTVSPost2010Prop32
280
     0
102
RTVSPost2010PropOp32
 70
     1
102
RTVSPost2010Prop33
280
     0
102
RTVSPost2010PropOp33
 70
     1
102
RTVSPost2010Prop34
280
     0
102
RTVSPost2010PropOp34
 70
     1
102
RTVSPost2010Prop35
280
     0
102
RTVSPost2010PropOp35
 70
     1
102
RTVSPost2010Prop36
280
     0
102
RTVSPost2010PropOp36
 70
     1
102
RTVSPost2010Prop37
 90
       50
102
RTVSPost2010PropOp37
 70
     1
102
RTVSPost2010Prop38
140
0.0
102
RTVSPost2010PropOp38
 70
     1
102
RTVSPost2010Prop39
140
1.0
102
RTVSPost2010PropOp39
 70
     1
102
RTVSPost2010Prop40
 90
        0
102
RTVSPost2010PropOp40
 70
     1
102
RTVSPost2010Prop41ColorIndex
 90
       18
102
RTVSPost2010Prop41ColorRGB
 90
        0
102
RTVSPost2010PropOp41
 70
     1
102
RTVSPost2010Prop42
 90
       50
102
RTVSPost2010PropOp42
 70
     1
102
RTVSPost2010Prop43
 90
        3
102
RTVSPost2010PropOp43
 70
     1
102
RTVSPost2010Prop44ColorIndex
 90
        5
102
RTVSPost2010Prop44ColorRGB
 90
      255
102
RTVSPost2010PropOp44
 70
     1
102
RTVSPost2010Prop45
280
     0
102
RTVSPost2010PropOp45
 70
     1
102
RTVSPost2010Prop46
 90
       50
102
RTVSPost2010PropOp46
 70
     1
102
RTVSPost2010Prop47
 90
       50
102
RTVSPost2010PropOp47
 70
     1
102
RTVSPost2010Prop48
 90
       50
102
RTVSPost2010PropOp48
 70
     1
102
RTVSPost2010Prop49
280
     0
102
RTVSPost2010PropOp49
 70
     1
102
RTVSPost2010Prop50
 90
       50
102
RTVSPost2010PropOp50
 70
     1
102
RTVSPost2010Prop51ColorIndex
 90
      256
102
RTVSPost2010Prop51ColorRGB
 90
-16777216
102
RTVSPost2010PropOp51
 70
     0
102
RTVSPost2010Prop52
140
1.0
102
RTVSPost2010PropOp52
 70
     0
102
RTVSPost2010Prop53
 90
        2
102
RTVSPost2010PropOp53
 70
     1
102
RTVSPost2010Prop54
  1
strokes_ogs.tif
102
RTVSPost2010PropOp54
 70
     1
102
RTVSPost2010Prop55
280
     0
102
RTVSPost2010PropOp55
 70
     1
102
RTVSPost2010Prop56
140
1.0
102
RTVSPost2010PropOp56
 70
     1
102
RTVSPost2010Prop57
140
1.0
102
RTVSPost2010PropOp57
 70
     1
  0
XRECORD
  5
2F8
102
{ACAD_REACTORS
330
2F7
102
}
330
2F7
100
AcDbXrecord
280
     1
102
RTVSPropertyOp0
 70
     1
102
RTVSPropertyOp1
 70
     1
102
RTVSPropertyOp2
 70
     1
102
RTVSPropertyOp3
 70
     1
102
RTVSPropertyOp4
 70
     1
102
RTVSPropertyOp5
 70
     1
102
RTVSPropertyOp6
 70
     1
102
RTVSPropertyOp7
 70
     1
102
RTVSPropertyOp8
 70
     1
102
RTVSPropertyOp9
 70
     1
102
RTVSPropertyOp10
 70
     1
102
RTVSPropertyOp11
 70
     1
102
RTVSPropertyOp12
 70
     1
102
RTVSPropertyOp13
 70
     1
102
RTVSPropertyOp14
 70
     1
102
RTVSPropertyOp15
 70
     1
102
RTVSPropertyOp16
 70
     1
102
RTVSPropertyOp17
 70
     1
102
RTVSPropertyOp18
 70
     1
102
RTVSPropertyOp19
 70
     1
102
RTVSPropertyOp20
 70
     1
102
RTVSPropertyOp21
 70
     1
102
RTVSPropertyOp22
 70
     1
102
RTVSPropertyOp23
 70
     1
102
RTVSPropertyOp24
 70
     1
102
RTVSPropertyOp25
 70
     1
102
RTVSPropertyOp26
 70
     1
102
RTVSPropertyOp27
 70
     1
102
RTVSPropertyOp28
 70
     1
102
RTVSPropertyOp29
 70
     1
102
RTVSPropertyOp30
 70
     1
102
RTVSPropertyOp31
 70
     1
102
RTVSPropertyOp32
 70
     1
102
RTVSPropertyOp33
 70
     1
102
RTVSPropertyOp34
 70
     1
102
RTVSPropertyOp35
 70
     1
102
RTVSPropertyOp36
 70
     1
102
RTVSPropertyOp37
 70
     1
102
RTVSPropertyOp38
 70
     1
102
RTVSPropertyOp39
 70
     1
102
RTVSPropertyOp40
 70
     1
102
RTVSPropertyOp41
 70
     1
102
RTVSPropertyOp42
 70
     1
102
RTVSPropertyOp43
 70
     1
102
RTVSPropertyOp44
 70
     1
102
RTVSPropertyOp45
 70
     1
102
RTVSPropertyOp46
 70
     1
102
RTVSPropertyOp47
 70
     1
102
RTVSPropertyOp48
 70
     1
102
RTVSPropertyOp49
 70
     1
102
RTVSPropertyOp50
 70
     1
102
RTVSPropertyOp51
 70
     0
102
RTVSPropertyOp52
 70
     0
102
RTVSPropertyOp53
 70
     1
102
RTVSPropertyOp54
 70
     1
102
RTVSPropertyOp55
 70
     1
102
RTVSPropertyOp56
 70
     1
102
RTVSPropertyOp57
 70
     1
102
RTVSPost2010Prop28
280
     0
102
RTVSPost2010PropOp28
 70
     1
102
RTVSPost2010Prop29
280
     1
102
RTVSPost2010PropOp29
 70
     1
102
RTVSPost2010Prop30
280
     1
102
RTVSPost2010PropOp30
 70
     1
102
RTVSPost2010Prop31
280
     0
102
RTVSPost2010PropOp31
 70
     1
102
RTVSPost2010Prop32
280
     0
102
RTVSPost2010PropOp32
 70
     1
102
RTVSPost2010Prop33
280
     0
102
RTVSPost2010PropOp33
 70
     1
102
RTVSPost2010Prop34
280
     0
102
RTVSPost2010PropOp34
 70
     1
102
RTVSPost2010Prop35
280
     0
102
RTVSPost2010PropOp35
 70
     1
102
RTVSPost2010Prop36
280
     0
102
RTVSPost2010PropOp36
 70
     1
102
RTVSPost2010Prop37
 90
       50
102
RTVSPost2010PropOp37
 70
     1
102
RTVSPost2010Prop38
140
0.0
102
RTVSPost2010PropOp38
 70
     1
102
RTVSPost2010Prop39
140
1.0
102
RTVSPost2010PropOp39
 70
     1
102
RTVSPost2010Prop40
 90
        0
102
RTVSPost2010PropOp40
 70
     1
102
RTVSPost2010Prop41ColorIndex
 90
       18
102
RTVSPost2010Prop41ColorRGB
 90
        0
102
RTVSPost2010PropOp41
 70
     1
102
RTVSPost2010Prop42
 90
       50
102
RTVSPost2010PropOp42
 70
     1
102
RTVSPost2010Prop43
 90
        3
102
RTVSPost2010PropOp43
 70
     1
102
RTVSPost2010Prop44ColorIndex
 90
        5
102
RTVSPost2010Prop44ColorRGB
 90
      255
102
RTVSPost2010PropOp44
 70
     1
102
RTVSPost2010Prop45
280
     0
102
RTVSPost2010PropOp45
 70
     1
102
RTVSPost2010Prop46
 90
       50
102
RTVSPost2010PropOp46
 70
     1
102
RTVSPost2010Prop47
 90
       50
102
RTVSPost2010PropOp47
 70
     1
102
RTVSPost2010Prop48
 90
       50
102
RTVSPost2010PropOp48
 70
     1
102
RTVSPost2010Prop49
280
     0
102
RTVSPost2010PropOp49
 70
     1
102
RTVSPost2010Prop50
 90
       50
102
RTVSPost2010PropOp50
 70
     1
102
RTVSPost2010Prop51ColorIndex
 90
      256
102
RTVSPost2010Prop51ColorRGB
 90
-16777216
102
RTVSPost2010PropOp51
 70
     0
102
RTVSPost2010Prop52
140
1.0
102
RTVSPost2010PropOp52
 70
     0
102
RTVSPost2010Prop53
 90
        2
102
RTVSPost2010PropOp53
 70
     1
102
RTVSPost2010Prop54
  1
strokes_ogs.tif
102
RTVSPost2010PropOp54
 70
     1
102
RTVSPost2010Prop55
280
     0
102
RTVSPost2010PropOp55
 70
     1
102
RTVSPost2010Prop56
140
1.0
102
RTVSPost2010PropOp56
 70
     1
102
RTVSPost2010Prop57
140
1.0
102
RTVSPost2010PropOp57
 70
     1
  0
XRECORD
  5
2FA
102
{ACAD_REACTORS
330
2F9
102
}
330
2F9
100
AcDbXrecord
280
     1
102
RTVSPropertyOp0
 70
     1
102
RTVSPropertyOp1
 70
     1
102
RTVSPropertyOp2
 70
     1
102
RTVSPropertyOp3
 70
     1
102
RTVSPropertyOp4
 70
     1
102
RTVSPropertyOp5
 70
     1
102
RTVSPropertyOp6
 70
     1
102
RTVSPropertyOp7
 70
     1
102
RTVSPropertyOp8
 70
     1
102
RTVSPropertyOp9
 70
     1
102
RTVSPropertyOp10
 70
     1
102
RTVSPropertyOp11
 70
     1
102
RTVSPropertyOp12
 70
     1
102
RTVSPropertyOp13
 70
     1
102
RTVSPropertyOp14
 70
     1
102
RTVSPropertyOp15
 70
     1
102
RTVSPropertyOp16
 70
     1
102
RTVSPropertyOp17
 70
     1
102
RTVSPropertyOp18
 70
     1
102
RTVSPropertyOp19
 70
     1
102
RTVSPropertyOp20
 70
     1
102
RTVSPropertyOp21
 70
     1
102
RTVSPropertyOp22
 70
     1
102
RTVSPropertyOp23
 70
     1
102
RTVSPropertyOp24
 70
     1
102
RTVSPropertyOp25
 70
     1
102
RTVSPropertyOp26
 70
     1
102
RTVSPropertyOp27
 70
     1
102
RTVSPropertyOp28
 70
     1
102
RTVSPropertyOp29
 70
     1
102
RTVSPropertyOp30
 70
     1
102
RTVSPropertyOp31
 70
     1
102
RTVSPropertyOp32
 70
     1
102
RTVSPropertyOp33
 70
     1
102
RTVSPropertyOp34
 70
     1
102
RTVSPropertyOp35
 70
     1
102
RTVSPropertyOp36
 70
     1
102
RTVSPropertyOp37
 70
     1
102
RTVSPropertyOp38
 70
     1
102
RTVSPropertyOp39
 70
     1
102
RTVSPropertyOp40
 70
     1
102
RTVSPropertyOp41
 70
     1
102
RTVSPropertyOp42
 70
     1
102
RTVSPropertyOp43
 70
     1
102
RTVSPropertyOp44
 70
     1
102
RTVSPropertyOp45
 70
     1
102
RTVSPropertyOp46
 70
     1
102
RTVSPropertyOp47
 70
     1
102
RTVSPropertyOp48
 70
     1
102
RTVSPropertyOp49
 70
     1
102
RTVSPropertyOp50
 70
     1
102
RTVSPropertyOp51
 70
     0
102
RTVSPropertyOp52
 70
     0
102
RTVSPropertyOp53
 70
     1
102
RTVSPropertyOp54
 70
     1
102
RTVSPropertyOp55
 70
     1
102
RTVSPropertyOp56
 70
     1
102
RTVSPropertyOp57
 70
     1
102
RTVSPost2010Prop28
280
     0
102
RTVSPost2010PropOp28
 70
     1
102
RTVSPost2010Prop29
280
     1
102
RTVSPost2010PropOp29
 70
     1
102
RTVSPost2010Prop30
280
     1
102
RTVSPost2010PropOp30
 70
     1
102
RTVSPost2010Prop31
280
     0
102
RTVSPost2010PropOp31
 70
     1
102
RTVSPost2010Prop32
280
     0
102
RTVSPost2010PropOp32
 70
     1
102
RTVSPost2010Prop33
280
     0
102
RTVSPost2010PropOp33
 70
     1
102
RTVSPost2010Prop34
280
     0
102
RTVSPost2010PropOp34
 70
     1
102
RTVSPost2010Prop35
280
     0
102
RTVSPost2010PropOp35
 70
     1
102
RTVSPost2010Prop36
280
     0
102
RTVSPost2010PropOp36
 70
     1
102
RTVSPost2010Prop37
 90
       50
102
RTVSPost2010PropOp37
 70
     1
102
RTVSPost2010Prop38
140
0.0
102
RTVSPost2010PropOp38
 70
     1
102
RTVSPost2010Prop39
140
1.0
102
RTVSPost2010PropOp39
 70
     1
102
RTVSPost2010Prop40
 90
        0
102
RTVSPost2010PropOp40
 70
     1
102
RTVSPost2010Prop41ColorIndex
 90
       18
102
RTVSPost2010Prop41ColorRGB
 90
        0
102
RTVSPost2010PropOp41
 70
     1
102
RTVSPost2010Prop42
 90
       50
102
RTVSPost2010PropOp42
 70
     1
102
RTVSPost2010Prop43
 90
        3
102
RTVSPost2010PropOp43
 70
     1
102
RTVSPost2010Prop44ColorIndex
 90
        5
102
RTVSPost2010Prop44ColorRGB
 90
      255
102
RTVSPost2010PropOp44
 70
     1
102
RTVSPost2010Prop45
280
     0
102
RTVSPost2010PropOp45
 70
     1
102
RTVSPost2010Prop46
 90
       50
102
RTVSPost2010PropOp46
 70
     1
102
RTVSPost2010Prop47
 90
       50
102
RTVSPost2010PropOp47
 70
     1
102
RTVSPost2010Prop48
 90
       50
102
RTVSPost2010PropOp48
 70
     1
102
RTVSPost2010Prop49
280
     0
102
RTVSPost2010PropOp49
 70
     1
102
RTVSPost2010Prop50
 90
       50
102
RTVSPost2010PropOp50
 70
     1
102
RTVSPost2010Prop51ColorIndex
 90
      256
102
RTVSPost2010Prop51ColorRGB
 90
-16777216
102
RTVSPost2010PropOp51
 70
     0
102
RTVSPost2010Prop52
140
1.0
102
RTVSPost2010PropOp52
 70
     0
102
RTVSPost2010Prop53
 90
        2
102
RTVSPost2010PropOp53
 70
     1
102
RTVSPost2010Prop54
  1
strokes_ogs.tif
102
RTVSPost2010PropOp54
 70
     1
102
RTVSPost2010Prop55
280
     0
102
RTVSPost2010PropOp55
 70
     1
102
RTVSPost2010Prop56
140
1.0
102
RTVSPost2010PropOp56
 70
     1
102
RTVSPost2010Prop57
140
1.0
102
RTVSPost2010PropOp57
 70
     1
  0
XRECORD
  5
300
102
{ACAD_REACTORS
330
2FF
102
}
330
2FF
100
AcDbXrecord
280
     1
102
RTVSPropertyOp0
 70
     1
102
RTVSPropertyOp1
 70
     1
102
RTVSPropertyOp2
 70
     1
102
RTVSPropertyOp3
 70
     1
102
RTVSPropertyOp4
 70
     1
102
RTVSPropertyOp5
 70
     1
102
RTVSPropertyOp6
 70
     1
102
RTVSPropertyOp7
 70
     1
102
RTVSPropertyOp8
 70
     1
102
RTVSPropertyOp9
 70
     1
102
RTVSPropertyOp10
 70
     1
102
RTVSPropertyOp11
 70
     1
102
RTVSPropertyOp12
 70
     1
102
RTVSPropertyOp13
 70
     1
102
RTVSPropertyOp14
 70
     1
102
RTVSPropertyOp15
 70
     1
102
RTVSPropertyOp16
 70
     1
102
RTVSPropertyOp17
 70
     1
102
RTVSPropertyOp18
 70
     1
102
RTVSPropertyOp19
 70
     1
102
RTVSPropertyOp20
 70
     1
102
RTVSPropertyOp21
 70
     1
102
RTVSPropertyOp22
 70
     1
102
RTVSPropertyOp23
 70
     1
102
RTVSPropertyOp24
 70
     1
102
RTVSPropertyOp25
 70
     1
102
RTVSPropertyOp26
 70
     1
102
RTVSPropertyOp27
 70
     1
102
RTVSPropertyOp28
 70
     1
102
RTVSPropertyOp29
 70
     1
102
RTVSPropertyOp30
 70
     1
102
RTVSPropertyOp31
 70
     1
102
RTVSPropertyOp32
 70
     1
102
RTVSPropertyOp33
 70
     1
102
RTVSPropertyOp34
 70
     1
102
RTVSPropertyOp35
 70
     1
102
RTVSPropertyOp36
 70
     1
102
RTVSPropertyOp37
 70
     1
102
RTVSPropertyOp38
 70
     1
102
RTVSPropertyOp39
 70
     1
102
RTVSPropertyOp40
 70
     1
102
RTVSPropertyOp41
 70
     1
102
RTVSPropertyOp42
 70
     1
102
RTVSPropertyOp43
 70
     1
102
RTVSPropertyOp44
 70
     1
102
RTVSPropertyOp45
 70
     1
102
RTVSPropertyOp46
 70
     1
102
RTVSPropertyOp47
 70
     1
102
RTVSPropertyOp48
 70
     1
102
RTVSPropertyOp49
 70
     1
102
RTVSPropertyOp50
 70
     1
102
RTVSPropertyOp51
 70
     0
102
RTVSPropertyOp52
 70
     0
102
RTVSPropertyOp53
 70
     1
102
RTVSPropertyOp54
 70
     1
102
RTVSPropertyOp55
 70
     1
102
RTVSPropertyOp56
 70
     1
102
RTVSPropertyOp57
 70
     1
102
RTVSPost2010Prop28
280
     0
102
RTVSPost2010PropOp28
 70
     1
102
RTVSPost2010Prop29
280
     1
102
RTVSPost2010PropOp29
 70
     1
102
RTVSPost2010Prop30
280
     1
102
RTVSPost2010PropOp30
 70
     1
102
RTVSPost2010Prop31
280
     0
102
RTVSPost2010PropOp31
 70
     1
102
RTVSPost2010Prop32
280
     0
102
RTVSPost2010PropOp32
 70
     1
102
RTVSPost2010Prop33
280
     0
102
RTVSPost2010PropOp33
 70
     1
102
RTVSPost2010Prop34
280
     0
102
RTVSPost2010PropOp34
 70
     1
102
RTVSPost2010Prop35
280
     0
102
RTVSPost2010PropOp35
 70
     1
102
RTVSPost2010Prop36
280
     0
102
RTVSPost2010PropOp36
 70
     1
102
RTVSPost2010Prop37
 90
       50
102
RTVSPost2010PropOp37
 70
     1
102
RTVSPost2010Prop38
140
0.0
102
RTVSPost2010PropOp38
 70
     1
102
RTVSPost2010Prop39
140
1.0
102
RTVSPost2010PropOp39
 70
     1
102
RTVSPost2010Prop40
 90
        0
102
RTVSPost2010PropOp40
 70
     1
102
RTVSPost2010Prop41ColorIndex
 90
       18
102
RTVSPost2010Prop41ColorRGB
 90
        0
102
RTVSPost2010PropOp41
 70
     1
102
RTVSPost2010Prop42
 90
       50
102
RTVSPost2010PropOp42
 70
     1
102
RTVSPost2010Prop43
 90
        3
102
RTVSPost2010PropOp43
 70
     1
102
RTVSPost2010Prop44ColorIndex
 90
        5
102
RTVSPost2010Prop44ColorRGB
 90
      255
102
RTVSPost2010PropOp44
 70
     1
102
RTVSPost2010Prop45
280
     0
102
RTVSPost2010PropOp45
 70
     1
102
RTVSPost2010Prop46
 90
       50
102
RTVSPost2010PropOp46
 70
     1
102
RTVSPost2010Prop47
 90
       50
102
RTVSPost2010PropOp47
 70
     1
102
RTVSPost2010Prop48
 90
       50
102
RTVSPost2010PropOp48
 70
     1
102
RTVSPost2010Prop49
280
     0
102
RTVSPost2010PropOp49
 70
     1
102
RTVSPost2010Prop50
 90
       50
102
RTVSPost2010PropOp50
 70
     1
102
RTVSPost2010Prop51ColorIndex
 90
      256
102
RTVSPost2010Prop51ColorRGB
 90
-16777216
102
RTVSPost2010PropOp51
 70
     0
102
RTVSPost2010Prop52
140
1.0
102
RTVSPost2010PropOp52
 70
     0
102
RTVSPost2010Prop53
 90
        2
102
RTVSPost2010PropOp53
 70
     1
102
RTVSPost2010Prop54
  1
strokes_ogs.tif
102
RTVSPost2010PropOp54
 70
     1
102
RTVSPost2010Prop55
280
     0
102
RTVSPost2010PropOp55
 70
     1
102
RTVSPost2010Prop56
140
1.0
102
RTVSPost2010PropOp56
 70
     1
102
RTVSPost2010Prop57
140
1.0
102
RTVSPost2010PropOp57
 70
     1
  0
XRECORD
  5
314
102
{ACAD_REACTORS
330
313
102
}
330
313
100
AcDbXrecord
280
     1
102
RTVSPropertyOp0
 70
     0
102
RTVSPropertyOp1
 70
     0
102
RTVSPropertyOp2
 70
     0
102
RTVSPropertyOp3
 70
     0
102
RTVSPropertyOp4
 70
     0
102
RTVSPropertyOp5
 70
     0
102
RTVSPropertyOp6
 70
     0
102
RTVSPropertyOp7
 70
     0
102
RTVSPropertyOp8
 70
     0
102
RTVSPropertyOp9
 70
     0
102
RTVSPropertyOp10
 70
     0
102
RTVSPropertyOp11
 70
     0
102
RTVSPropertyOp12
 70
     0
102
RTVSPropertyOp13
 70
     0
102
RTVSPropertyOp14
 70
     0
102
RTVSPropertyOp15
 70
     0
102
RTVSPropertyOp16
 70
     0
102
RTVSPropertyOp17
 70
     0
102
RTVSPropertyOp18
 70
     0
102
RTVSPropertyOp19
 70
     0
102
RTVSPropertyOp20
 70
     0
102
RTVSPropertyOp21
 70
     0
102
RTVSPropertyOp22
 70
     0
102
RTVSPropertyOp23
 70
     0
102
RTVSPropertyOp24
 70
     0
102
RTVSPropertyOp25
 70
     0
102
RTVSPropertyOp26
 70
     0
102
RTVSPropertyOp27
 70
     0
102
RTVSPropertyOp28
 70
     1
102
RTVSPropertyOp29
 70
     1
102
RTVSPropertyOp30
 70
     1
102
RTVSPropertyOp31
 70
     1
102
RTVSPropertyOp32
 70
     1
102
RTVSPropertyOp33
 70
     1
102
RTVSPropertyOp34
 70
     1
102
RTVSPropertyOp35
 70
     1
102
RTVSPropertyOp36
 70
     1
102
RTVSPropertyOp37
 70
     1
102
RTVSPropertyOp38
 70
     1
102
RTVSPropertyOp39
 70
     1
102
RTVSPropertyOp40
 70
     1
102
RTVSPropertyOp41
 70
     1
102
RTVSPropertyOp42
 70
     1
102
RTVSPropertyOp43
 70
     1
102
RTVSPropertyOp44
 70
     1
102
RTVSPropertyOp45
 70
     1
102
RTVSPropertyOp46
 70
     1
102
RTVSPropertyOp47
 70
     1
102
RTVSPropertyOp48
 70
     1
102
RTVSPropertyOp49
 70
     1
102
RTVSPropertyOp50
 70
     1
102
RTVSPropertyOp51
 70
     0
102
RTVSPropertyOp52
 70
     0
102
RTVSPropertyOp53
 70
     1
102
RTVSPropertyOp54
 70
     1
102
RTVSPropertyOp55
 70
     1
102
RTVSPropertyOp56
 70
     1
102
RTVSPropertyOp57
 70
     1
102
RTVSPost2010Prop28
280
     0
102
RTVSPost2010PropOp28
 70
     1
102
RTVSPost2010Prop29
280
     1
102
RTVSPost2010PropOp29
 70
     1
102
RTVSPost2010Prop30
280
     1
102
RTVSPost2010PropOp30
 70
     1
102
RTVSPost2010Prop31
280
     0
102
RTVSPost2010PropOp31
 70
     1
102
RTVSPost2010Prop32
280
     0
102
RTVSPost2010PropOp32
 70
     1
102
RTVSPost2010Prop33
280
     0
102
RTVSPost2010PropOp33
 70
     1
102
RTVSPost2010Prop34
280
     0
102
RTVSPost2010PropOp34
 70
     1
102
RTVSPost2010Prop35
280
     0
102
RTVSPost2010PropOp35
 70
     1
102
RTVSPost2010Prop36
280
     0
102
RTVSPost2010PropOp36
 70
     1
102
RTVSPost2010Prop37
 90
       50
102
RTVSPost2010PropOp37
 70
     1
102
RTVSPost2010Prop38
140
0.0
102
RTVSPost2010PropOp38
 70
     1
102
RTVSPost2010Prop39
140
1.0
102
RTVSPost2010PropOp39
 70
     1
102
RTVSPost2010Prop40
 90
        0
102
RTVSPost2010PropOp40
 70
     1
102
RTVSPost2010Prop41ColorIndex
 90
       18
102
RTVSPost2010Prop41ColorRGB
 90
        0
102
RTVSPost2010PropOp41
 70
     1
102
RTVSPost2010Prop42
 90
       50
102
RTVSPost2010PropOp42
 70
     1
102
RTVSPost2010Prop43
 90
        3
102
RTVSPost2010PropOp43
 70
     1
102
RTVSPost2010Prop44ColorIndex
 90
        5
102
RTVSPost2010Prop44ColorRGB
 90
      255
102
RTVSPost2010PropOp44
 70
     1
102
RTVSPost2010Prop45
280
     0
102
RTVSPost2010PropOp45
 70
     1
102
RTVSPost2010Prop46
 90
       50
102
RTVSPost2010PropOp46
 70
     1
102
RTVSPost2010Prop47
 90
       50
102
RTVSPost2010PropOp47
 70
     1
102
RTVSPost2010Prop48
 90
       50
102
RTVSPost2010PropOp48
 70
     1
102
RTVSPost2010Prop49
280
     0
102
RTVSPost2010PropOp49
 70
     1
102
RTVSPost2010Prop50
 90
       50
102
RTVSPost2010PropOp50
 70
     1
102
RTVSPost2010Prop51ColorIndex
 90
      256
102
RTVSPost2010Prop51ColorRGB
 90
-16777216
102
RTVSPost2010PropOp51
 70
     0
102
RTVSPost2010Prop52
140
1.0
102
RTVSPost2010PropOp52
 70
     0
102
RTVSPost2010Prop53
 90
        2
102
RTVSPost2010PropOp53
 70
     1
102
RTVSPost2010Prop54
  1
strokes_ogs.tif
102
RTVSPost2010PropOp54
 70
     1
102
RTVSPost2010Prop55
280
     0
102
RTVSPost2010PropOp55
 70
     1
102
RTVSPost2010Prop56
140
1.0
102
RTVSPost2010PropOp56
 70
     1
102
RTVSPost2010Prop57
140
1.0
102
RTVSPost2010PropOp57
 70
     1
  0
XRECORD
  5
30E
102
{ACAD_REACTORS
330
30D
102
}
330
30D
100
AcDbXrecord
280
     1
102
RTVSPropertyOp0
 70
     1
102
RTVSPropertyOp1
 70
     1
102
RTVSPropertyOp2
 70
     1
102
RTVSPropertyOp3
 70
     1
102
RTVSPropertyOp4
 70
     1
102
RTVSPropertyOp5
 70
     1
102
RTVSPropertyOp6
 70
     1
102
RTVSPropertyOp7
 70
     1
102
RTVSPropertyOp8
 70
     1
102
RTVSPropertyOp9
 70
     1
102
RTVSPropertyOp10
 70
     1
102
RTVSPropertyOp11
 70
     1
102
RTVSPropertyOp12
 70
     1
102
RTVSPropertyOp13
 70
     1
102
RTVSPropertyOp14
 70
     1
102
RTVSPropertyOp15
 70
     1
102
RTVSPropertyOp16
 70
     1
102
RTVSPropertyOp17
 70
     1
102
RTVSPropertyOp18
 70
     1
102
RTVSPropertyOp19
 70
     1
102
RTVSPropertyOp20
 70
     1
102
RTVSPropertyOp21
 70
     1
102
RTVSPropertyOp22
 70
     1
102
RTVSPropertyOp23
 70
     1
102
RTVSPropertyOp24
 70
     1
102
RTVSPropertyOp25
 70
     1
102
RTVSPropertyOp26
 70
     1
102
RTVSPropertyOp27
 70
     1
102
RTVSPropertyOp28
 70
     1
102
RTVSPropertyOp29
 70
     1
102
RTVSPropertyOp30
 70
     1
102
RTVSPropertyOp31
 70
     1
102
RTVSPropertyOp32
 70
     1
102
RTVSPropertyOp33
 70
     1
102
RTVSPropertyOp34
 70
     1
102
RTVSPropertyOp35
 70
     1
102
RTVSPropertyOp36
 70
     1
102
RTVSPropertyOp37
 70
     1
102
RTVSPropertyOp38
 70
     1
102
RTVSPropertyOp39
 70
     1
102
RTVSPropertyOp40
 70
     1
102
RTVSPropertyOp41
 70
     1
102
RTVSPropertyOp42
 70
     1
102
RTVSPropertyOp43
 70
     1
102
RTVSPropertyOp44
 70
     1
102
RTVSPropertyOp45
 70
     1
102
RTVSPropertyOp46
 70
     1
102
RTVSPropertyOp47
 70
     1
102
RTVSPropertyOp48
 70
     1
102
RTVSPropertyOp49
 70
     1
102
RTVSPropertyOp50
 70
     1
102
RTVSPropertyOp51
 70
     0
102
RTVSPropertyOp52
 70
     0
102
RTVSPropertyOp53
 70
     1
102
RTVSPropertyOp54
 70
     1
102
RTVSPropertyOp55
 70
     1
102
RTVSPropertyOp56
 70
     1
102
RTVSPropertyOp57
 70
     1
102
RTVSPost2010Prop28
280
     0
102
RTVSPost2010PropOp28
 70
     1
102
RTVSPost2010Prop29
280
     1
102
RTVSPost2010PropOp29
 70
     1
102
RTVSPost2010Prop30
280
     1
102
RTVSPost2010PropOp30
 70
     1
102
RTVSPost2010Prop31
280
     0
102
RTVSPost2010PropOp31
 70
     1
102
RTVSPost2010Prop32
280
     0
102
RTVSPost2010PropOp32
 70
     1
102
RTVSPost2010Prop33
280
     0
102
RTVSPost2010PropOp33
 70
     1
102
RTVSPost2010Prop34
280
     0
102
RTVSPost2010PropOp34
 70
     1
102
RTVSPost2010Prop35
280
     0
102
RTVSPost2010PropOp35
 70
     1
102
RTVSPost2010Prop36
280
     0
102
RTVSPost2010PropOp36
 70
     1
102
RTVSPost2010Prop37
 90
       50
102
RTVSPost2010PropOp37
 70
     1
102
RTVSPost2010Prop38
140
0.0
102
RTVSPost2010PropOp38
 70
     1
102
RTVSPost2010Prop39
140
1.0
102
RTVSPost2010PropOp39
 70
     1
102
RTVSPost2010Prop40
 90
        0
102
RTVSPost2010PropOp40
 70
     1
102
RTVSPost2010Prop41ColorIndex
 90
       18
102
RTVSPost2010Prop41ColorRGB
 90
        0
102
RTVSPost2010PropOp41
 70
     1
102
RTVSPost2010Prop42
 90
       50
102
RTVSPost2010PropOp42
 70
     1
102
RTVSPost2010Prop43
 90
        3
102
RTVSPost2010PropOp43
 70
     1
102
RTVSPost2010Prop44ColorIndex
 90
        5
102
RTVSPost2010Prop44ColorRGB
 90
      255
102
RTVSPost2010PropOp44
 70
     1
102
RTVSPost2010Prop45
280
     0
102
RTVSPost2010PropOp45
 70
     1
102
RTVSPost2010Prop46
 90
       50
102
RTVSPost2010PropOp46
 70
     1
102
RTVSPost2010Prop47
 90
       50
102
RTVSPost2010PropOp47
 70
     1
102
RTVSPost2010Prop48
 90
       50
102
RTVSPost2010PropOp48
 70
     1
102
RTVSPost2010Prop49
280
     0
102
RTVSPost2010PropOp49
 70
     1
102
RTVSPost2010Prop50
 90
       50
102
RTVSPost2010PropOp50
 70
     1
102
RTVSPost2010Prop51ColorIndex
 90
      256
102
RTVSPost2010Prop51ColorRGB
 90
-16777216
102
RTVSPost2010PropOp51
 70
     0
102
RTVSPost2010Prop52
140
1.0
102
RTVSPost2010PropOp52
 70
     0
102
RTVSPost2010Prop53
 90
        2
102
RTVSPost2010PropOp53
 70
     1
102
RTVSPost2010Prop54
  1
strokes_ogs.tif
102
RTVSPost2010PropOp54
 70
     1
102
RTVSPost2010Prop55
280
     0
102
RTVSPost2010PropOp55
 70
     1
102
RTVSPost2010Prop56
140
1.0
102
RTVSPost2010PropOp56
 70
     1
102
RTVSPost2010Prop57
140
1.0
102
RTVSPost2010PropOp57
 70
     1
  0
XRECORD
  5
316
102
{ACAD_REACTORS
330
315
102
}
330
315
100
AcDbXrecord
280
     1
102
RTVSPropertyOp0
 70
     0
102
RTVSPropertyOp1
 70
     0
102
RTVSPropertyOp2
 70
     0
102
RTVSPropertyOp3
 70
     0
102
RTVSPropertyOp4
 70
     0
102
RTVSPropertyOp5
 70
     0
102
RTVSPropertyOp6
 70
     0
102
RTVSPropertyOp7
 70
     0
102
RTVSPropertyOp8
 70
     0
102
RTVSPropertyOp9
 70
     0
102
RTVSPropertyOp10
 70
     0
102
RTVSPropertyOp11
 70
     0
102
RTVSPropertyOp12
 70
     0
102
RTVSPropertyOp13
 70
     0
102
RTVSPropertyOp14
 70
     0
102
RTVSPropertyOp15
 70
     0
102
RTVSPropertyOp16
 70
     0
102
RTVSPropertyOp17
 70
     0
102
RTVSPropertyOp18
 70
     0
102
RTVSPropertyOp19
 70
     0
102
RTVSPropertyOp20
 70
     0
102
RTVSPropertyOp21
 70
     0
102
RTVSPropertyOp22
 70
     0
102
RTVSPropertyOp23
 70
     0
102
RTVSPropertyOp24
 70
     0
102
RTVSPropertyOp25
 70
     0
102
RTVSPropertyOp26
 70
     0
102
RTVSPropertyOp27
 70
     0
102
RTVSPropertyOp28
 70
     1
102
RTVSPropertyOp29
 70
     1
102
RTVSPropertyOp30
 70
     1
102
RTVSPropertyOp31
 70
     1
102
RTVSPropertyOp32
 70
     1
102
RTVSPropertyOp33
 70
     1
102
RTVSPropertyOp34
 70
     1
102
RTVSPropertyOp35
 70
     1
102
RTVSPropertyOp36
 70
     1
102
RTVSPropertyOp37
 70
     1
102
RTVSPropertyOp38
 70
     1
102
RTVSPropertyOp39
 70
     1
102
RTVSPropertyOp40
 70
     1
102
RTVSPropertyOp41
 70
     1
102
RTVSPropertyOp42
 70
     1
102
RTVSPropertyOp43
 70
     1
102
RTVSPropertyOp44
 70
     1
102
RTVSPropertyOp45
 70
     1
102
RTVSPropertyOp46
 70
     1
102
RTVSPropertyOp47
 70
     1
102
RTVSPropertyOp48
 70
     1
102
RTVSPropertyOp49
 70
     1
102
RTVSPropertyOp50
 70
     1
102
RTVSPropertyOp51
 70
     0
102
RTVSPropertyOp52
 70
     0
102
RTVSPropertyOp53
 70
     1
102
RTVSPropertyOp54
 70
     1
102
RTVSPropertyOp55
 70
     1
102
RTVSPropertyOp56
 70
     1
102
RTVSPropertyOp57
 70
     1
102
RTVSPost2010Prop28
280
     0
102
RTVSPost2010PropOp28
 70
     1
102
RTVSPost2010Prop29
280
     1
102
RTVSPost2010PropOp29
 70
     1
102
RTVSPost2010Prop30
280
     1
102
RTVSPost2010PropOp30
 70
     1
102
RTVSPost2010Prop31
280
     0
102
RTVSPost2010PropOp31
 70
     1
102
RTVSPost2010Prop32
280
     0
102
RTVSPost2010PropOp32
 70
     1
102
RTVSPost2010Prop33
280
     0
102
RTVSPost2010PropOp33
 70
     1
102
RTVSPost2010Prop34
280
     0
102
RTVSPost2010PropOp34
 70
     1
102
RTVSPost2010Prop35
280
     0
102
RTVSPost2010PropOp35
 70
     1
102
RTVSPost2010Prop36
280
     0
102
RTVSPost2010PropOp36
 70
     1
102
RTVSPost2010Prop37
 90
       50
102
RTVSPost2010PropOp37
 70
     1
102
RTVSPost2010Prop38
140
0.0
102
RTVSPost2010PropOp38
 70
     1
102
RTVSPost2010Prop39
140
1.0
102
RTVSPost2010PropOp39
 70
     1
102
RTVSPost2010Prop40
 90
        0
102
RTVSPost2010PropOp40
 70
     1
102
RTVSPost2010Prop41ColorIndex
 90
       18
102
RTVSPost2010Prop41ColorRGB
 90
        0
102
RTVSPost2010PropOp41
 70
     1
102
RTVSPost2010Prop42
 90
       50
102
RTVSPost2010PropOp42
 70
     1
102
RTVSPost2010Prop43
 90
        3
102
RTVSPost2010PropOp43
 70
     1
102
RTVSPost2010Prop44ColorIndex
 90
        5
102
RTVSPost2010Prop44ColorRGB
 90
      255
102
RTVSPost2010PropOp44
 70
     1
102
RTVSPost2010Prop45
280
     0
102
RTVSPost2010PropOp45
 70
     1
102
RTVSPost2010Prop46
 90
       50
102
RTVSPost2010PropOp46
 70
     1
102
RTVSPost2010Prop47
 90
       50
102
RTVSPost2010PropOp47
 70
     1
102
RTVSPost2010Prop48
 90
       50
102
RTVSPost2010PropOp48
 70
     1
102
RTVSPost2010Prop49
280
     0
102
RTVSPost2010PropOp49
 70
     1
102
RTVSPost2010Prop50
 90
       50
102
RTVSPost2010PropOp50
 70
     1
102
RTVSPost2010Prop51ColorIndex
 90
      256
102
RTVSPost2010Prop51ColorRGB
 90
-16777216
102
RTVSPost2010PropOp51
 70
     0
102
RTVSPost2010Prop52
140
1.0
102
RTVSPost2010PropOp52
 70
     0
102
RTVSPost2010Prop53
 90
        2
102
RTVSPost2010PropOp53
 70
     1
102
RTVSPost2010Prop54
  1
strokes_ogs.tif
102
RTVSPost2010PropOp54
 70
     1
102
RTVSPost2010Prop55
280
     0
102
RTVSPost2010PropOp55
 70
     1
102
RTVSPost2010Prop56
140
1.0
102
RTVSPost2010PropOp56
 70
     1
102
RTVSPost2010Prop57
140
1.0
102
RTVSPost2010PropOp57
 70
     1
  0
XRECORD
  5
304
102
{ACAD_REACTORS
330
303
102
}
330
303
100
AcDbXrecord
280
     1
102
RTVSPropertyOp0
 70
     1
102
RTVSPropertyOp1
 70
     1
102
RTVSPropertyOp2
 70
     1
102
RTVSPropertyOp3
 70
     1
102
RTVSPropertyOp4
 70
     1
102
RTVSPropertyOp5
 70
     1
102
RTVSPropertyOp6
 70
     1
102
RTVSPropertyOp7
 70
     1
102
RTVSPropertyOp8
 70
     1
102
RTVSPropertyOp9
 70
     1
102
RTVSPropertyOp10
 70
     1
102
RTVSPropertyOp11
 70
     1
102
RTVSPropertyOp12
 70
     1
102
RTVSPropertyOp13
 70
     1
102
RTVSPropertyOp14
 70
     1
102
RTVSPropertyOp15
 70
     1
102
RTVSPropertyOp16
 70
     1
102
RTVSPropertyOp17
 70
     1
102
RTVSPropertyOp18
 70
     1
102
RTVSPropertyOp19
 70
     1
102
RTVSPropertyOp20
 70
     1
102
RTVSPropertyOp21
 70
     1
102
RTVSPropertyOp22
 70
     1
102
RTVSPropertyOp23
 70
     1
102
RTVSPropertyOp24
 70
     1
102
RTVSPropertyOp25
 70
     1
102
RTVSPropertyOp26
 70
     1
102
RTVSPropertyOp27
 70
     1
102
RTVSPropertyOp28
 70
     1
102
RTVSPropertyOp29
 70
     1
102
RTVSPropertyOp30
 70
     1
102
RTVSPropertyOp31
 70
     1
102
RTVSPropertyOp32
 70
     1
102
RTVSPropertyOp33
 70
     1
102
RTVSPropertyOp34
 70
     1
102
RTVSPropertyOp35
 70
     1
102
RTVSPropertyOp36
 70
     1
102
RTVSPropertyOp37
 70
     1
102
RTVSPropertyOp38
 70
     1
102
RTVSPropertyOp39
 70
     1
102
RTVSPropertyOp40
 70
     1
102
RTVSPropertyOp41
 70
     1
102
RTVSPropertyOp42
 70
     1
102
RTVSPropertyOp43
 70
     1
102
RTVSPropertyOp44
 70
     1
102
RTVSPropertyOp45
 70
     1
102
RTVSPropertyOp46
 70
     1
102
RTVSPropertyOp47
 70
     1
102
RTVSPropertyOp48
 70
     1
102
RTVSPropertyOp49
 70
     1
102
RTVSPropertyOp50
 70
     1
102
RTVSPropertyOp51
 70
     0
102
RTVSPropertyOp52
 70
     0
102
RTVSPropertyOp53
 70
     1
102
RTVSPropertyOp54
 70
     1
102
RTVSPropertyOp55
 70
     1
102
RTVSPropertyOp56
 70
     1
102
RTVSPropertyOp57
 70
     1
102
RTVSPost2010Prop28
280
     0
102
RTVSPost2010PropOp28
 70
     1
102
RTVSPost2010Prop29
280
     1
102
RTVSPost2010PropOp29
 70
     1
102
RTVSPost2010Prop30
280
     1
102
RTVSPost2010PropOp30
 70
     1
102
RTVSPost2010Prop31
280
     0
102
RTVSPost2010PropOp31
 70
     1
102
RTVSPost2010Prop32
280
     0
102
RTVSPost2010PropOp32
 70
     1
102
RTVSPost2010Prop33
280
     0
102
RTVSPost2010PropOp33
 70
     1
102
RTVSPost2010Prop34
280
     0
102
RTVSPost2010PropOp34
 70
     1
102
RTVSPost2010Prop35
280
     0
102
RTVSPost2010PropOp35
 70
     1
102
RTVSPost2010Prop36
280
     0
102
RTVSPost2010PropOp36
 70
     1
102
RTVSPost2010Prop37
 90
       50
102
RTVSPost2010PropOp37
 70
     1
102
RTVSPost2010Prop38
140
0.0
102
RTVSPost2010PropOp38
 70
     1
102
RTVSPost2010Prop39
140
1.0
102
RTVSPost2010PropOp39
 70
     1
102
RTVSPost2010Prop40
 90
        0
102
RTVSPost2010PropOp40
 70
     1
102
RTVSPost2010Prop41ColorIndex
 90
       18
102
RTVSPost2010Prop41ColorRGB
 90
        0
102
RTVSPost2010PropOp41
 70
     1
102
RTVSPost2010Prop42
 90
       50
102
RTVSPost2010PropOp42
 70
     1
102
RTVSPost2010Prop43
 90
        3
102
RTVSPost2010PropOp43
 70
     1
102
RTVSPost2010Prop44ColorIndex
 90
        5
102
RTVSPost2010Prop44ColorRGB
 90
      255
102
RTVSPost2010PropOp44
 70
     1
102
RTVSPost2010Prop45
280
     0
102
RTVSPost2010PropOp45
 70
     1
102
RTVSPost2010Prop46
 90
       50
102
RTVSPost2010PropOp46
 70
     1
102
RTVSPost2010Prop47
 90
       50
102
RTVSPost2010PropOp47
 70
     1
102
RTVSPost2010Prop48
 90
       50
102
RTVSPost2010PropOp48
 70
     1
102
RTVSPost2010Prop49
280
     0
102
RTVSPost2010PropOp49
 70
     1
102
RTVSPost2010Prop50
 90
       50
102
RTVSPost2010PropOp50
 70
     1
102
RTVSPost2010Prop51ColorIndex
 90
      256
102
RTVSPost2010Prop51ColorRGB
 90
-16777216
102
RTVSPost2010PropOp51
 70
     0
102
RTVSPost2010Prop52
140
1.0
102
RTVSPost2010PropOp52
 70
     0
102
RTVSPost2010Prop53
 90
        2
102
RTVSPost2010PropOp53
 70
     1
102
RTVSPost2010Prop54
  1
strokes_ogs.tif
102
RTVSPost2010PropOp54
 70
     1
102
RTVSPost2010Prop55
280
     0
102
RTVSPost2010PropOp55
 70
     1
102
RTVSPost2010Prop56
140
1.0
102
RTVSPost2010PropOp56
 70
     1
102
RTVSPost2010Prop57
140
1.0
102
RTVSPost2010PropOp57
 70
     1
  0
XRECORD
  5
322
102
{ACAD_REACTORS
330
321
102
}
330
321
100
AcDbXrecord
280
     1
102
RTVSPropertyOp0
 70
     1
102
RTVSPropertyOp1
 70
     1
102
RTVSPropertyOp2
 70
     1
102
RTVSPropertyOp3
 70
     1
102
RTVSPropertyOp4
 70
     1
102
RTVSPropertyOp5
 70
     1
102
RTVSPropertyOp6
 70
     1
102
RTVSPropertyOp7
 70
     1
102
RTVSPropertyOp8
 70
     1
102
RTVSPropertyOp9
 70
     1
102
RTVSPropertyOp10
 70
     1
102
RTVSPropertyOp11
 70
     1
102
RTVSPropertyOp12
 70
     1
102
RTVSPropertyOp13
 70
     1
102
RTVSPropertyOp14
 70
     1
102
RTVSPropertyOp15
 70
     1
102
RTVSPropertyOp16
 70
     1
102
RTVSPropertyOp17
 70
     1
102
RTVSPropertyOp18
 70
     1
102
RTVSPropertyOp19
 70
     1
102
RTVSPropertyOp20
 70
     1
102
RTVSPropertyOp21
 70
     1
102
RTVSPropertyOp22
 70
     1
102
RTVSPropertyOp23
 70
     1
102
RTVSPropertyOp24
 70
     1
102
RTVSPropertyOp25
 70
     1
102
RTVSPropertyOp26
 70
     1
102
RTVSPropertyOp27
 70
     1
102
RTVSPropertyOp28
 70
     1
102
RTVSPropertyOp29
 70
     1
102
RTVSPropertyOp30
 70
     1
102
RTVSPropertyOp31
 70
     1
102
RTVSPropertyOp32
 70
     1
102
RTVSPropertyOp33
 70
     1
102
RTVSPropertyOp34
 70
     1
102
RTVSPropertyOp35
 70
     1
102
RTVSPropertyOp36
 70
     1
102
RTVSPropertyOp37
 70
     1
102
RTVSPropertyOp38
 70
     1
102
RTVSPropertyOp39
 70
     1
102
RTVSPropertyOp40
 70
     1
102
RTVSPropertyOp41
 70
     1
102
RTVSPropertyOp42
 70
     1
102
RTVSPropertyOp43
 70
     1
102
RTVSPropertyOp44
 70
     1
102
RTVSPropertyOp45
 70
     1
102
RTVSPropertyOp46
 70
     1
102
RTVSPropertyOp47
 70
     1
102
RTVSPropertyOp48
 70
     1
102
RTVSPropertyOp49
 70
     1
102
RTVSPropertyOp50
 70
     1
102
RTVSPropertyOp51
 70
     0
102
RTVSPropertyOp52
 70
     0
102
RTVSPropertyOp53
 70
     1
102
RTVSPropertyOp54
 70
     1
102
RTVSPropertyOp55
 70
     1
102
RTVSPropertyOp56
 70
     1
102
RTVSPropertyOp57
 70
     1
102
RTVSPost2010Prop28
280
     0
102
RTVSPost2010PropOp28
 70
     1
102
RTVSPost2010Prop29
280
     1
102
RTVSPost2010PropOp29
 70
     1
102
RTVSPost2010Prop30
280
     1
102
RTVSPost2010PropOp30
 70
     1
102
RTVSPost2010Prop31
280
     0
102
RTVSPost2010PropOp31
 70
     1
102
RTVSPost2010Prop32
280
     0
102
RTVSPost2010PropOp32
 70
     1
102
RTVSPost2010Prop33
280
     0
102
RTVSPost2010PropOp33
 70
     1
102
RTVSPost2010Prop34
280
     0
102
RTVSPost2010PropOp34
 70
     1
102
RTVSPost2010Prop35
280
     0
102
RTVSPost2010PropOp35
 70
     1
102
RTVSPost2010Prop36
280
     0
102
RTVSPost2010PropOp36
 70
     1
102
RTVSPost2010Prop37
 90
       50
102
RTVSPost2010PropOp37
 70
     1
102
RTVSPost2010Prop38
140
0.0
102
RTVSPost2010PropOp38
 70
     1
102
RTVSPost2010Prop39
140
1.0
102
RTVSPost2010PropOp39
 70
     1
102
RTVSPost2010Prop40
 90
        0
102
RTVSPost2010PropOp40
 70
     1
102
RTVSPost2010Prop41ColorIndex
 90
       18
102
RTVSPost2010Prop41ColorRGB
 90
        0
102
RTVSPost2010PropOp41
 70
     1
102
RTVSPost2010Prop42
 90
       50
102
RTVSPost2010PropOp42
 70
     1
102
RTVSPost2010Prop43
 90
        3
102
RTVSPost2010PropOp43
 70
     1
102
RTVSPost2010Prop44ColorIndex
 90
        5
102
RTVSPost2010Prop44ColorRGB
 90
      255
102
RTVSPost2010PropOp44
 70
     1
102
RTVSPost2010Prop45
280
     0
102
RTVSPost2010PropOp45
 70
     1
102
RTVSPost2010Prop46
 90
       50
102
RTVSPost2010PropOp46
 70
     1
102
RTVSPost2010Prop47
 90
       50
102
RTVSPost2010PropOp47
 70
     1
102
RTVSPost2010Prop48
 90
       50
102
RTVSPost2010PropOp48
 70
     1
102
RTVSPost2010Prop49
280
     0
102
RTVSPost2010PropOp49
 70
     1
102
RTVSPost2010Prop50
 90
       50
102
RTVSPost2010PropOp50
 70
     1
102
RTVSPost2010Prop51ColorIndex
 90
      256
102
RTVSPost2010Prop51ColorRGB
 90
-16777216
102
RTVSPost2010PropOp51
 70
     0
102
RTVSPost2010Prop52
140
1.0
102
RTVSPost2010PropOp52
 70
     0
102
RTVSPost2010Prop53
 90
        2
102
RTVSPost2010PropOp53
 70
     1
102
RTVSPost2010Prop54
  1
strokes_ogs.tif
102
RTVSPost2010PropOp54
 70
     1
102
RTVSPost2010Prop55
280
     0
102
RTVSPost2010PropOp55
 70
     1
102
RTVSPost2010Prop56
140
1.0
102
RTVSPost2010PropOp56
 70
     1
102
RTVSPost2010Prop57
140
1.0
102
RTVSPost2010PropOp57
 70
     1
  0
XRECORD
  5
320
102
{ACAD_REACTORS
330
31F
102
}
330
31F
100
AcDbXrecord
280
     1
102
RTVSPropertyOp0
 70
     1
102
RTVSPropertyOp1
 70
     1
102
RTVSPropertyOp2
 70
     1
102
RTVSPropertyOp3
 70
     1
102
RTVSPropertyOp4
 70
     1
102
RTVSPropertyOp5
 70
     1
102
RTVSPropertyOp6
 70
     1
102
RTVSPropertyOp7
 70
     1
102
RTVSPropertyOp8
 70
     1
102
RTVSPropertyOp9
 70
     1
102
RTVSPropertyOp10
 70
     1
102
RTVSPropertyOp11
 70
     1
102
RTVSPropertyOp12
 70
     1
102
RTVSPropertyOp13
 70
     1
102
RTVSPropertyOp14
 70
     1
102
RTVSPropertyOp15
 70
     1
102
RTVSPropertyOp16
 70
     1
102
RTVSPropertyOp17
 70
     1
102
RTVSPropertyOp18
 70
     1
102
RTVSPropertyOp19
 70
     1
102
RTVSPropertyOp20
 70
     1
102
RTVSPropertyOp21
 70
     1
102
RTVSPropertyOp22
 70
     1
102
RTVSPropertyOp23
 70
     1
102
RTVSPropertyOp24
 70
     1
102
RTVSPropertyOp25
 70
     1
102
RTVSPropertyOp26
 70
     1
102
RTVSPropertyOp27
 70
     1
102
RTVSPropertyOp28
 70
     1
102
RTVSPropertyOp29
 70
     1
102
RTVSPropertyOp30
 70
     1
102
RTVSPropertyOp31
 70
     1
102
RTVSPropertyOp32
 70
     1
102
RTVSPropertyOp33
 70
     1
102
RTVSPropertyOp34
 70
     1
102
RTVSPropertyOp35
 70
     1
102
RTVSPropertyOp36
 70
     1
102
RTVSPropertyOp37
 70
     1
102
RTVSPropertyOp38
 70
     1
102
RTVSPropertyOp39
 70
     1
102
RTVSPropertyOp40
 70
     1
102
RTVSPropertyOp41
 70
     1
102
RTVSPropertyOp42
 70
     1
102
RTVSPropertyOp43
 70
     1
102
RTVSPropertyOp44
 70
     1
102
RTVSPropertyOp45
 70
     1
102
RTVSPropertyOp46
 70
     1
102
RTVSPropertyOp47
 70
     1
102
RTVSPropertyOp48
 70
     1
102
RTVSPropertyOp49
 70
     1
102
RTVSPropertyOp50
 70
     1
102
RTVSPropertyOp51
 70
     0
102
RTVSPropertyOp52
 70
     0
102
RTVSPropertyOp53
 70
     1
102
RTVSPropertyOp54
 70
     1
102
RTVSPropertyOp55
 70
     1
102
RTVSPropertyOp56
 70
     1
102
RTVSPropertyOp57
 70
     1
102
RTVSPost2010Prop28
280
     0
102
RTVSPost2010PropOp28
 70
     1
102
RTVSPost2010Prop29
280
     1
102
RTVSPost2010PropOp29
 70
     1
102
RTVSPost2010Prop30
280
     1
102
RTVSPost2010PropOp30
 70
     1
102
RTVSPost2010Prop31
280
     0
102
RTVSPost2010PropOp31
 70
     1
102
RTVSPost2010Prop32
280
     0
102
RTVSPost2010PropOp32
 70
     1
102
RTVSPost2010Prop33
280
     0
102
RTVSPost2010PropOp33
 70
     1
102
RTVSPost2010Prop34
280
     0
102
RTVSPost2010PropOp34
 70
     1
102
RTVSPost2010Prop35
280
     0
102
RTVSPost2010PropOp35
 70
     1
102
RTVSPost2010Prop36
280
     0
102
RTVSPost2010PropOp36
 70
     1
102
RTVSPost2010Prop37
 90
       50
102
RTVSPost2010PropOp37
 70
     1
102
RTVSPost2010Prop38
140
0.0
102
RTVSPost2010PropOp38
 70
     1
102
RTVSPost2010Prop39
140
1.0
102
RTVSPost2010PropOp39
 70
     1
102
RTVSPost2010Prop40
 90
        0
102
RTVSPost2010PropOp40
 70
     1
102
RTVSPost2010Prop41ColorIndex
 90
       18
102
RTVSPost2010Prop41ColorRGB
 90
        0
102
RTVSPost2010PropOp41
 70
     1
102
RTVSPost2010Prop42
 90
       50
102
RTVSPost2010PropOp42
 70
     1
102
RTVSPost2010Prop43
 90
        3
102
RTVSPost2010PropOp43
 70
     1
102
RTVSPost2010Prop44ColorIndex
 90
        5
102
RTVSPost2010Prop44ColorRGB
 90
      255
102
RTVSPost2010PropOp44
 70
     1
102
RTVSPost2010Prop45
280
     0
102
RTVSPost2010PropOp45
 70
     1
102
RTVSPost2010Prop46
 90
       50
102
RTVSPost2010PropOp46
 70
     1
102
RTVSPost2010Prop47
 90
       50
102
RTVSPost2010PropOp47
 70
     1
102
RTVSPost2010Prop48
 90
       50
102
RTVSPost2010PropOp48
 70
     1
102
RTVSPost2010Prop49
280
     0
102
RTVSPost2010PropOp49
 70
     1
102
RTVSPost2010Prop50
 90
       50
102
RTVSPost2010PropOp50
 70
     1
102
RTVSPost2010Prop51ColorIndex
 90
      256
102
RTVSPost2010Prop51ColorRGB
 90
-16777216
102
RTVSPost2010PropOp51
 70
     0
102
RTVSPost2010Prop52
140
1.0
102
RTVSPost2010PropOp52
 70
     0
102
RTVSPost2010Prop53
 90
        2
102
RTVSPost2010PropOp53
 70
     1
102
RTVSPost2010Prop54
  1
strokes_ogs.tif
102
RTVSPost2010PropOp54
 70
     1
102
RTVSPost2010Prop55
280
     0
102
RTVSPost2010PropOp55
 70
     1
102
RTVSPost2010Prop56
140
1.0
102
RTVSPost2010PropOp56
 70
     1
102
RTVSPost2010Prop57
140
1.0
102
RTVSPost2010PropOp57
 70
     1
  0
XRECORD
  5
31A
102
{ACAD_REACTORS
330
319
102
}
330
319
100
AcDbXrecord
280
     1
102
RTVSPropertyOp0
 70
     1
102
RTVSPropertyOp1
 70
     1
102
RTVSPropertyOp2
 70
     1
102
RTVSPropertyOp3
 70
     1
102
RTVSPropertyOp4
 70
     1
102
RTVSPropertyOp5
 70
     1
102
RTVSPropertyOp6
 70
     1
102
RTVSPropertyOp7
 70
     1
102
RTVSPropertyOp8
 70
     1
102
RTVSPropertyOp9
 70
     1
102
RTVSPropertyOp10
 70
     1
102
RTVSPropertyOp11
 70
     1
102
RTVSPropertyOp12
 70
     1
102
RTVSPropertyOp13
 70
     1
102
RTVSPropertyOp14
 70
     1
102
RTVSPropertyOp15
 70
     1
102
RTVSPropertyOp16
 70
     1
102
RTVSPropertyOp17
 70
     1
102
RTVSPropertyOp18
 70
     1
102
RTVSPropertyOp19
 70
     1
102
RTVSPropertyOp20
 70
     1
102
RTVSPropertyOp21
 70
     1
102
RTVSPropertyOp22
 70
     1
102
RTVSPropertyOp23
 70
     1
102
RTVSPropertyOp24
 70
     1
102
RTVSPropertyOp25
 70
     1
102
RTVSPropertyOp26
 70
     1
102
RTVSPropertyOp27
 70
     1
102
RTVSPropertyOp28
 70
     1
102
RTVSPropertyOp29
 70
     1
102
RTVSPropertyOp30
 70
     1
102
RTVSPropertyOp31
 70
     1
102
RTVSPropertyOp32
 70
     1
102
RTVSPropertyOp33
 70
     1
102
RTVSPropertyOp34
 70
     1
102
RTVSPropertyOp35
 70
     1
102
RTVSPropertyOp36
 70
     1
102
RTVSPropertyOp37
 70
     1
102
RTVSPropertyOp38
 70
     1
102
RTVSPropertyOp39
 70
     1
102
RTVSPropertyOp40
 70
     1
102
RTVSPropertyOp41
 70
     1
102
RTVSPropertyOp42
 70
     1
102
RTVSPropertyOp43
 70
     1
102
RTVSPropertyOp44
 70
     1
102
RTVSPropertyOp45
 70
     1
102
RTVSPropertyOp46
 70
     1
102
RTVSPropertyOp47
 70
     1
102
RTVSPropertyOp48
 70
     1
102
RTVSPropertyOp49
 70
     1
102
RTVSPropertyOp50
 70
     1
102
RTVSPropertyOp51
 70
     0
102
RTVSPropertyOp52
 70
     0
102
RTVSPropertyOp53
 70
     1
102
RTVSPropertyOp54
 70
     1
102
RTVSPropertyOp55
 70
     1
102
RTVSPropertyOp56
 70
     1
102
RTVSPropertyOp57
 70
     1
102
RTVSPost2010Prop28
280
     0
102
RTVSPost2010PropOp28
 70
     1
102
RTVSPost2010Prop29
280
     1
102
RTVSPost2010PropOp29
 70
     1
102
RTVSPost2010Prop30
280
     1
102
RTVSPost2010PropOp30
 70
     1
102
RTVSPost2010Prop31
280
     0
102
RTVSPost2010PropOp31
 70
     1
102
RTVSPost2010Prop32
280
     0
102
RTVSPost2010PropOp32
 70
     1
102
RTVSPost2010Prop33
280
     0
102
RTVSPost2010PropOp33
 70
     1
102
RTVSPost2010Prop34
280
     0
102
RTVSPost2010PropOp34
 70
     1
102
RTVSPost2010Prop35
280
     0
102
RTVSPost2010PropOp35
 70
     1
102
RTVSPost2010Prop36
280
     0
102
RTVSPost2010PropOp36
 70
     1
102
RTVSPost2010Prop37
 90
       50
102
RTVSPost2010PropOp37
 70
     1
102
RTVSPost2010Prop38
140
0.0
102
RTVSPost2010PropOp38
 70
     1
102
RTVSPost2010Prop39
140
1.0
102
RTVSPost2010PropOp39
 70
     1
102
RTVSPost2010Prop40
 90
        0
102
RTVSPost2010PropOp40
 70
     1
102
RTVSPost2010Prop41ColorIndex
 90
       18
102
RTVSPost2010Prop41ColorRGB
 90
        0
102
RTVSPost2010PropOp41
 70
     1
102
RTVSPost2010Prop42
 90
       50
102
RTVSPost2010PropOp42
 70
     1
102
RTVSPost2010Prop43
 90
        3
102
RTVSPost2010PropOp43
 70
     1
102
RTVSPost2010Prop44ColorIndex
 90
        5
102
RTVSPost2010Prop44ColorRGB
 90
      255
102
RTVSPost2010PropOp44
 70
     1
102
RTVSPost2010Prop45
280
     0
102
RTVSPost2010PropOp45
 70
     1
102
RTVSPost2010Prop46
 90
       50
102
RTVSPost2010PropOp46
 70
     1
102
RTVSPost2010Prop47
 90
       50
102
RTVSPost2010PropOp47
 70
     1
102
RTVSPost2010Prop48
 90
       50
102
RTVSPost2010PropOp48
 70
     1
102
RTVSPost2010Prop49
280
     0
102
RTVSPost2010PropOp49
 70
     1
102
RTVSPost2010Prop50
 90
       50
102
RTVSPost2010PropOp50
 70
     1
102
RTVSPost2010Prop51ColorIndex
 90
      256
102
RTVSPost2010Prop51ColorRGB
 90
-16777216
102
RTVSPost2010PropOp51
 70
     0
102
RTVSPost2010Prop52
140
1.0
102
RTVSPost2010PropOp52
 70
     0
102
RTVSPost2010Prop53
 90
        2
102
RTVSPost2010PropOp53
 70
     1
102
RTVSPost2010Prop54
  1
strokes_ogs.tif
102
RTVSPost2010PropOp54
 70
     1
102
RTVSPost2010Prop55
280
     0
102
RTVSPost2010PropOp55
 70
     1
102
RTVSPost2010Prop56
140
1.0
102
RTVSPost2010PropOp56
 70
     1
102
RTVSPost2010Prop57
140
1.0
102
RTVSPost2010PropOp57
 70
     1
  0
XRECORD
  5
31C
102
{ACAD_REACTORS
330
31B
102
}
330
31B
100
AcDbXrecord
280
     1
102
RTVSPropertyOp0
 70
     1
102
RTVSPropertyOp1
 70
     1
102
RTVSPropertyOp2
 70
     1
102
RTVSPropertyOp3
 70
     1
102
RTVSPropertyOp4
 70
     1
102
RTVSPropertyOp5
 70
     1
102
RTVSPropertyOp6
 70
     1
102
RTVSPropertyOp7
 70
     1
102
RTVSPropertyOp8
 70
     1
102
RTVSPropertyOp9
 70
     1
102
RTVSPropertyOp10
 70
     1
102
RTVSPropertyOp11
 70
     1
102
RTVSPropertyOp12
 70
     1
102
RTVSPropertyOp13
 70
     1
102
RTVSPropertyOp14
 70
     1
102
RTVSPropertyOp15
 70
     1
102
RTVSPropertyOp16
 70
     1
102
RTVSPropertyOp17
 70
     1
102
RTVSPropertyOp18
 70
     1
102
RTVSPropertyOp19
 70
     1
102
RTVSPropertyOp20
 70
     1
102
RTVSPropertyOp21
 70
     1
102
RTVSPropertyOp22
 70
     1
102
RTVSPropertyOp23
 70
     1
102
RTVSPropertyOp24
 70
     1
102
RTVSPropertyOp25
 70
     1
102
RTVSPropertyOp26
 70
     1
102
RTVSPropertyOp27
 70
     1
102
RTVSPropertyOp28
 70
     1
102
RTVSPropertyOp29
 70
     1
102
RTVSPropertyOp30
 70
     1
102
RTVSPropertyOp31
 70
     1
102
RTVSPropertyOp32
 70
     1
102
RTVSPropertyOp33
 70
     1
102
RTVSPropertyOp34
 70
     1
102
RTVSPropertyOp35
 70
     1
102
RTVSPropertyOp36
 70
     1
102
RTVSPropertyOp37
 70
     1
102
RTVSPropertyOp38
 70
     1
102
RTVSPropertyOp39
 70
     1
102
RTVSPropertyOp40
 70
     1
102
RTVSPropertyOp41
 70
     1
102
RTVSPropertyOp42
 70
     1
102
RTVSPropertyOp43
 70
     1
102
RTVSPropertyOp44
 70
     1
102
RTVSPropertyOp45
 70
     1
102
RTVSPropertyOp46
 70
     1
102
RTVSPropertyOp47
 70
     1
102
RTVSPropertyOp48
 70
     1
102
RTVSPropertyOp49
 70
     1
102
RTVSPropertyOp50
 70
     1
102
RTVSPropertyOp51
 70
     0
102
RTVSPropertyOp52
 70
     0
102
RTVSPropertyOp53
 70
     1
102
RTVSPropertyOp54
 70
     1
102
RTVSPropertyOp55
 70
     1
102
RTVSPropertyOp56
 70
     1
102
RTVSPropertyOp57
 70
     1
102
RTVSPost2010Prop28
280
     0
102
RTVSPost2010PropOp28
 70
     1
102
RTVSPost2010Prop29
280
     1
102
RTVSPost2010PropOp29
 70
     1
102
RTVSPost2010Prop30
280
     1
102
RTVSPost2010PropOp30
 70
     1
102
RTVSPost2010Prop31
280
     0
102
RTVSPost2010PropOp31
 70
     1
102
RTVSPost2010Prop32
280
     0
102
RTVSPost2010PropOp32
 70
     1
102
RTVSPost2010Prop33
280
     0
102
RTVSPost2010PropOp33
 70
     1
102
RTVSPost2010Prop34
280
     0
102
RTVSPost2010PropOp34
 70
     1
102
RTVSPost2010Prop35
280
     0
102
RTVSPost2010PropOp35
 70
     1
102
RTVSPost2010Prop36
280
     0
102
RTVSPost2010PropOp36
 70
     1
102
RTVSPost2010Prop37
 90
       50
102
RTVSPost2010PropOp37
 70
     1
102
RTVSPost2010Prop38
140
0.0
102
RTVSPost2010PropOp38
 70
     1
102
RTVSPost2010Prop39
140
1.0
102
RTVSPost2010PropOp39
 70
     1
102
RTVSPost2010Prop40
 90
        0
102
RTVSPost2010PropOp40
 70
     1
102
RTVSPost2010Prop41ColorIndex
 90
       18
102
RTVSPost2010Prop41ColorRGB
 90
        0
102
RTVSPost2010PropOp41
 70
     1
102
RTVSPost2010Prop42
 90
       50
102
RTVSPost2010PropOp42
 70
     1
102
RTVSPost2010Prop43
 90
        3
102
RTVSPost2010PropOp43
 70
     1
102
RTVSPost2010Prop44ColorIndex
 90
        5
102
RTVSPost2010Prop44ColorRGB
 90
      255
102
RTVSPost2010PropOp44
 70
     1
102
RTVSPost2010Prop45
280
     0
102
RTVSPost2010PropOp45
 70
     1
102
RTVSPost2010Prop46
 90
       50
102
RTVSPost2010PropOp46
 70
     1
102
RTVSPost2010Prop47
 90
       50
102
RTVSPost2010PropOp47
 70
     1
102
RTVSPost2010Prop48
 90
       50
102
RTVSPost2010PropOp48
 70
     1
102
RTVSPost2010Prop49
280
     0
102
RTVSPost2010PropOp49
 70
     1
102
RTVSPost2010Prop50
 90
       50
102
RTVSPost2010PropOp50
 70
     1
102
RTVSPost2010Prop51ColorIndex
 90
      256
102
RTVSPost2010Prop51ColorRGB
 90
-16777216
102
RTVSPost2010PropOp51
 70
     0
102
RTVSPost2010Prop52
140
1.0
102
RTVSPost2010PropOp52
 70
     0
102
RTVSPost2010Prop53
 90
        2
102
RTVSPost2010PropOp53
 70
     1
102
RTVSPost2010Prop54
  1
strokes_ogs.tif
102
RTVSPost2010PropOp54
 70
     1
102
RTVSPost2010Prop55
280
     0
102
RTVSPost2010PropOp55
 70
     1
102
RTVSPost2010Prop56
140
1.0
102
RTVSPost2010PropOp56
 70
     1
102
RTVSPost2010Prop57
140
1.0
102
RTVSPost2010PropOp57
 70
     1
  0
XRECORD
  5
30C
102
{ACAD_REACTORS
330
30B
102
}
330
30B
100
AcDbXrecord
280
     1
102
RTVSPropertyOp0
 70
     1
102
RTVSPropertyOp1
 70
     1
102
RTVSPropertyOp2
 70
     1
102
RTVSPropertyOp3
 70
     1
102
RTVSPropertyOp4
 70
     1
102
RTVSPropertyOp5
 70
     1
102
RTVSPropertyOp6
 70
     1
102
RTVSPropertyOp7
 70
     1
102
RTVSPropertyOp8
 70
     1
102
RTVSPropertyOp9
 70
     1
102
RTVSPropertyOp10
 70
     1
102
RTVSPropertyOp11
 70
     1
102
RTVSPropertyOp12
 70
     1
102
RTVSPropertyOp13
 70
     1
102
RTVSPropertyOp14
 70
     1
102
RTVSPropertyOp15
 70
     1
102
RTVSPropertyOp16
 70
     1
102
RTVSPropertyOp17
 70
     1
102
RTVSPropertyOp18
 70
     1
102
RTVSPropertyOp19
 70
     1
102
RTVSPropertyOp20
 70
     1
102
RTVSPropertyOp21
 70
     1
102
RTVSPropertyOp22
 70
     1
102
RTVSPropertyOp23
 70
     1
102
RTVSPropertyOp24
 70
     1
102
RTVSPropertyOp25
 70
     1
102
RTVSPropertyOp26
 70
     1
102
RTVSPropertyOp27
 70
     1
102
RTVSPropertyOp28
 70
     1
102
RTVSPropertyOp29
 70
     1
102
RTVSPropertyOp30
 70
     1
102
RTVSPropertyOp31
 70
     1
102
RTVSPropertyOp32
 70
     1
102
RTVSPropertyOp33
 70
     1
102
RTVSPropertyOp34
 70
     1
102
RTVSPropertyOp35
 70
     1
102
RTVSPropertyOp36
 70
     1
102
RTVSPropertyOp37
 70
     1
102
RTVSPropertyOp38
 70
     1
102
RTVSPropertyOp39
 70
     1
102
RTVSPropertyOp40
 70
     1
102
RTVSPropertyOp41
 70
     1
102
RTVSPropertyOp42
 70
     1
102
RTVSPropertyOp43
 70
     1
102
RTVSPropertyOp44
 70
     1
102
RTVSPropertyOp45
 70
     1
102
RTVSPropertyOp46
 70
     1
102
RTVSPropertyOp47
 70
     1
102
RTVSPropertyOp48
 70
     1
102
RTVSPropertyOp49
 70
     1
102
RTVSPropertyOp50
 70
     1
102
RTVSPropertyOp51
 70
     0
102
RTVSPropertyOp52
 70
     0
102
RTVSPropertyOp53
 70
     1
102
RTVSPropertyOp54
 70
     1
102
RTVSPropertyOp55
 70
     1
102
RTVSPropertyOp56
 70
     1
102
RTVSPropertyOp57
 70
     1
102
RTVSPost2010Prop28
280
     0
102
RTVSPost2010PropOp28
 70
     1
102
RTVSPost2010Prop29
280
     1
102
RTVSPost2010PropOp29
 70
     1
102
RTVSPost2010Prop30
280
     1
102
RTVSPost2010PropOp30
 70
     1
102
RTVSPost2010Prop31
280
     0
102
RTVSPost2010PropOp31
 70
     1
102
RTVSPost2010Prop32
280
     0
102
RTVSPost2010PropOp32
 70
     1
102
RTVSPost2010Prop33
280
     0
102
RTVSPost2010PropOp33
 70
     1
102
RTVSPost2010Prop34
280
     0
102
RTVSPost2010PropOp34
 70
     1
102
RTVSPost2010Prop35
280
     0
102
RTVSPost2010PropOp35
 70
     1
102
RTVSPost2010Prop36
280
     0
102
RTVSPost2010PropOp36
 70
     1
102
RTVSPost2010Prop37
 90
       50
102
RTVSPost2010PropOp37
 70
     1
102
RTVSPost2010Prop38
140
0.0
102
RTVSPost2010PropOp38
 70
     1
102
RTVSPost2010Prop39
140
1.0
102
RTVSPost2010PropOp39
 70
     1
102
RTVSPost2010Prop40
 90
        0
102
RTVSPost2010PropOp40
 70
     1
102
RTVSPost2010Prop41ColorIndex
 90
       18
102
RTVSPost2010Prop41ColorRGB
 90
        0
102
RTVSPost2010PropOp41
 70
     1
102
RTVSPost2010Prop42
 90
       50
102
RTVSPost2010PropOp42
 70
     1
102
RTVSPost2010Prop43
 90
        3
102
RTVSPost2010PropOp43
 70
     1
102
RTVSPost2010Prop44ColorIndex
 90
        5
102
RTVSPost2010Prop44ColorRGB
 90
      255
102
RTVSPost2010PropOp44
 70
     1
102
RTVSPost2010Prop45
280
     0
102
RTVSPost2010PropOp45
 70
     1
102
RTVSPost2010Prop46
 90
       50
102
RTVSPost2010PropOp46
 70
     1
102
RTVSPost2010Prop47
 90
       50
102
RTVSPost2010PropOp47
 70
     1
102
RTVSPost2010Prop48
 90
       50
102
RTVSPost2010PropOp48
 70
     1
102
RTVSPost2010Prop49
280
     0
102
RTVSPost2010PropOp49
 70
     1
102
RTVSPost2010Prop50
 90
       50
102
RTVSPost2010PropOp50
 70
     1
102
RTVSPost2010Prop51ColorIndex
 90
      256
102
RTVSPost2010Prop51ColorRGB
 90
-16777216
102
RTVSPost2010PropOp51
 70
     0
102
RTVSPost2010Prop52
140
1.0
102
RTVSPost2010PropOp52
 70
     0
102
RTVSPost2010Prop53
 90
        2
102
RTVSPost2010PropOp53
 70
     1
102
RTVSPost2010Prop54
  1
strokes_ogs.tif
102
RTVSPost2010PropOp54
 70
     1
102
RTVSPost2010Prop55
280
     0
102
RTVSPost2010PropOp55
 70
     1
102
RTVSPost2010Prop56
140
1.0
102
RTVSPost2010PropOp56
 70
     1
102
RTVSPost2010Prop57
140
1.0
102
RTVSPost2010PropOp57
 70
     1
  0
XRECORD
  5
2FE
102
{ACAD_REACTORS
330
2FD
102
}
330
2FD
100
AcDbXrecord
280
     1
102
RTVSPropertyOp0
 70
     1
102
RTVSPropertyOp1
 70
     1
102
RTVSPropertyOp2
 70
     1
102
RTVSPropertyOp3
 70
     1
102
RTVSPropertyOp4
 70
     1
102
RTVSPropertyOp5
 70
     1
102
RTVSPropertyOp6
 70
     1
102
RTVSPropertyOp7
 70
     1
102
RTVSPropertyOp8
 70
     1
102
RTVSPropertyOp9
 70
     1
102
RTVSPropertyOp10
 70
     1
102
RTVSPropertyOp11
 70
     1
102
RTVSPropertyOp12
 70
     1
102
RTVSPropertyOp13
 70
     1
102
RTVSPropertyOp14
 70
     1
102
RTVSPropertyOp15
 70
     1
102
RTVSPropertyOp16
 70
     1
102
RTVSPropertyOp17
 70
     1
102
RTVSPropertyOp18
 70
     1
102
RTVSPropertyOp19
 70
     1
102
RTVSPropertyOp20
 70
     1
102
RTVSPropertyOp21
 70
     1
102
RTVSPropertyOp22
 70
     1
102
RTVSPropertyOp23
 70
     1
102
RTVSPropertyOp24
 70
     1
102
RTVSPropertyOp25
 70
     1
102
RTVSPropertyOp26
 70
     1
102
RTVSPropertyOp27
 70
     1
102
RTVSPropertyOp28
 70
     1
102
RTVSPropertyOp29
 70
     1
102
RTVSPropertyOp30
 70
     1
102
RTVSPropertyOp31
 70
     1
102
RTVSPropertyOp32
 70
     1
102
RTVSPropertyOp33
 70
     1
102
RTVSPropertyOp34
 70
     1
102
RTVSPropertyOp35
 70
     1
102
RTVSPropertyOp36
 70
     1
102
RTVSPropertyOp37
 70
     1
102
RTVSPropertyOp38
 70
     1
102
RTVSPropertyOp39
 70
     1
102
RTVSPropertyOp40
 70
     1
102
RTVSPropertyOp41
 70
     1
102
RTVSPropertyOp42
 70
     1
102
RTVSPropertyOp43
 70
     1
102
RTVSPropertyOp44
 70
     1
102
RTVSPropertyOp45
 70
     1
102
RTVSPropertyOp46
 70
     1
102
RTVSPropertyOp47
 70
     1
102
RTVSPropertyOp48
 70
     1
102
RTVSPropertyOp49
 70
     1
102
RTVSPropertyOp50
 70
     1
102
RTVSPropertyOp51
 70
     0
102
RTVSPropertyOp52
 70
     0
102
RTVSPropertyOp53
 70
     1
102
RTVSPropertyOp54
 70
     1
102
RTVSPropertyOp55
 70
     1
102
RTVSPropertyOp56
 70
     1
102
RTVSPropertyOp57
 70
     1
102
RTVSPost2010Prop28
280
     0
102
RTVSPost2010PropOp28
 70
     1
102
RTVSPost2010Prop29
280
     1
102
RTVSPost2010PropOp29
 70
     1
102
RTVSPost2010Prop30
280
     1
102
RTVSPost2010PropOp30
 70
     1
102
RTVSPost2010Prop31
280
     0
102
RTVSPost2010PropOp31
 70
     1
102
RTVSPost2010Prop32
280
     0
102
RTVSPost2010PropOp32
 70
     1
102
RTVSPost2010Prop33
280
     0
102
RTVSPost2010PropOp33
 70
     1
102
RTVSPost2010Prop34
280
     0
102
RTVSPost2010PropOp34
 70
     1
102
RTVSPost2010Prop35
280
     0
102
RTVSPost2010PropOp35
 70
     1
102
RTVSPost2010Prop36
280
     0
102
RTVSPost2010PropOp36
 70
     1
102
RTVSPost2010Prop37
 90
       50
102
RTVSPost2010PropOp37
 70
     1
102
RTVSPost2010Prop38
140
0.0
102
RTVSPost2010PropOp38
 70
     1
102
RTVSPost2010Prop39
140
1.0
102
RTVSPost2010PropOp39
 70
     1
102
RTVSPost2010Prop40
 90
        0
102
RTVSPost2010PropOp40
 70
     1
102
RTVSPost2010Prop41ColorIndex
 90
       18
102
RTVSPost2010Prop41ColorRGB
 90
        0
102
RTVSPost2010PropOp41
 70
     1
102
RTVSPost2010Prop42
 90
       50
102
RTVSPost2010PropOp42
 70
     1
102
RTVSPost2010Prop43
 90
        3
102
RTVSPost2010PropOp43
 70
     1
102
RTVSPost2010Prop44ColorIndex
 90
        5
102
RTVSPost2010Prop44ColorRGB
 90
      255
102
RTVSPost2010PropOp44
 70
     1
102
RTVSPost2010Prop45
280
     0
102
RTVSPost2010PropOp45
 70
     1
102
RTVSPost2010Prop46
 90
       50
102
RTVSPost2010PropOp46
 70
     1
102
RTVSPost2010Prop47
 90
       50
102
RTVSPost2010PropOp47
 70
     1
102
RTVSPost2010Prop48
 90
       50
102
RTVSPost2010PropOp48
 70
     1
102
RTVSPost2010Prop49
280
     0
102
RTVSPost2010PropOp49
 70
     1
102
RTVSPost2010Prop50
 90
       50
102
RTVSPost2010PropOp50
 70
     1
102
RTVSPost2010Prop51ColorIndex
 90
      256
102
RTVSPost2010Prop51ColorRGB
 90
-16777216
102
RTVSPost2010PropOp51
 70
     0
102
RTVSPost2010Prop52
140
1.0
102
RTVSPost2010PropOp52
 70
     0
102
RTVSPost2010Prop53
 90
        2
102
RTVSPost2010PropOp53
 70
     1
102
RTVSPost2010Prop54
  1
strokes_ogs.tif
102
RTVSPost2010PropOp54
 70
     1
102
RTVSPost2010Prop55
280
     0
102
RTVSPost2010PropOp55
 70
     1
102
RTVSPost2010Prop56
140
1.0
102
RTVSPost2010PropOp56
 70
     1
102
RTVSPost2010Prop57
140
1.0
102
RTVSPost2010PropOp57
 70
     1
  0
XRECORD
  5
31E
102
{ACAD_REACTORS
330
31D
102
}
330
31D
100
AcDbXrecord
280
     1
102
RTVSPropertyOp0
 70
     1
102
RTVSPropertyOp1
 70
     1
102
RTVSPropertyOp2
 70
     1
102
RTVSPropertyOp3
 70
     1
102
RTVSPropertyOp4
 70
     1
102
RTVSPropertyOp5
 70
     1
102
RTVSPropertyOp6
 70
     1
102
RTVSPropertyOp7
 70
     1
102
RTVSPropertyOp8
 70
     1
102
RTVSPropertyOp9
 70
     1
102
RTVSPropertyOp10
 70
     1
102
RTVSPropertyOp11
 70
     1
102
RTVSPropertyOp12
 70
     1
102
RTVSPropertyOp13
 70
     1
102
RTVSPropertyOp14
 70
     1
102
RTVSPropertyOp15
 70
     1
102
RTVSPropertyOp16
 70
     1
102
RTVSPropertyOp17
 70
     1
102
RTVSPropertyOp18
 70
     1
102
RTVSPropertyOp19
 70
     1
102
RTVSPropertyOp20
 70
     1
102
RTVSPropertyOp21
 70
     1
102
RTVSPropertyOp22
 70
     1
102
RTVSPropertyOp23
 70
     1
102
RTVSPropertyOp24
 70
     1
102
RTVSPropertyOp25
 70
     1
102
RTVSPropertyOp26
 70
     1
102
RTVSPropertyOp27
 70
     1
102
RTVSPropertyOp28
 70
     1
102
RTVSPropertyOp29
 70
     1
102
RTVSPropertyOp30
 70
     1
102
RTVSPropertyOp31
 70
     1
102
RTVSPropertyOp32
 70
     1
102
RTVSPropertyOp33
 70
     1
102
RTVSPropertyOp34
 70
     1
102
RTVSPropertyOp35
 70
     1
102
RTVSPropertyOp36
 70
     1
102
RTVSPropertyOp37
 70
     1
102
RTVSPropertyOp38
 70
     1
102
RTVSPropertyOp39
 70
     1
102
RTVSPropertyOp40
 70
     1
102
RTVSPropertyOp41
 70
     1
102
RTVSPropertyOp42
 70
     1
102
RTVSPropertyOp43
 70
     1
102
RTVSPropertyOp44
 70
     1
102
RTVSPropertyOp45
 70
     1
102
RTVSPropertyOp46
 70
     1
102
RTVSPropertyOp47
 70
     1
102
RTVSPropertyOp48
 70
     1
102
RTVSPropertyOp49
 70
     1
102
RTVSPropertyOp50
 70
     1
102
RTVSPropertyOp51
 70
     0
102
RTVSPropertyOp52
 70
     0
102
RTVSPropertyOp53
 70
     1
102
RTVSPropertyOp54
 70
     1
102
RTVSPropertyOp55
 70
     1
102
RTVSPropertyOp56
 70
     1
102
RTVSPropertyOp57
 70
     1
102
RTVSPost2010Prop28
280
     0
102
RTVSPost2010PropOp28
 70
     1
102
RTVSPost2010Prop29
280
     1
102
RTVSPost2010PropOp29
 70
     1
102
RTVSPost2010Prop30
280
     1
102
RTVSPost2010PropOp30
 70
     1
102
RTVSPost2010Prop31
280
     0
102
RTVSPost2010PropOp31
 70
     1
102
RTVSPost2010Prop32
280
     0
102
RTVSPost2010PropOp32
 70
     1
102
RTVSPost2010Prop33
280
     0
102
RTVSPost2010PropOp33
 70
     1
102
RTVSPost2010Prop34
280
     0
102
RTVSPost2010PropOp34
 70
     1
102
RTVSPost2010Prop35
280
     0
102
RTVSPost2010PropOp35
 70
     1
102
RTVSPost2010Prop36
280
     0
102
RTVSPost2010PropOp36
 70
     1
102
RTVSPost2010Prop37
 90
       50
102
RTVSPost2010PropOp37
 70
     1
102
RTVSPost2010Prop38
140
0.0
102
RTVSPost2010PropOp38
 70
     1
102
RTVSPost2010Prop39
140
1.0
102
RTVSPost2010PropOp39
 70
     1
102
RTVSPost2010Prop40
 90
        0
102
RTVSPost2010PropOp40
 70
     1
102
RTVSPost2010Prop41ColorIndex
 90
       18
102
RTVSPost2010Prop41ColorRGB
 90
        0
102
RTVSPost2010PropOp41
 70
     1
102
RTVSPost2010Prop42
 90
       50
102
RTVSPost2010PropOp42
 70
     1
102
RTVSPost2010Prop43
 90
        3
102
RTVSPost2010PropOp43
 70
     1
102
RTVSPost2010Prop44ColorIndex
 90
        5
102
RTVSPost2010Prop44ColorRGB
 90
      255
102
RTVSPost2010PropOp44
 70
     1
102
RTVSPost2010Prop45
280
     0
102
RTVSPost2010PropOp45
 70
     1
102
RTVSPost2010Prop46
 90
       50
102
RTVSPost2010PropOp46
 70
     1
102
RTVSPost2010Prop47
 90
       50
102
RTVSPost2010PropOp47
 70
     1
102
RTVSPost2010Prop48
 90
       50
102
RTVSPost2010PropOp48
 70
     1
102
RTVSPost2010Prop49
280
     0
102
RTVSPost2010PropOp49
 70
     1
102
RTVSPost2010Prop50
 90
       50
102
RTVSPost2010PropOp50
 70
     1
102
RTVSPost2010Prop51ColorIndex
 90
      256
102
RTVSPost2010Prop51ColorRGB
 90
-16777216
102
RTVSPost2010PropOp51
 70
     0
102
RTVSPost2010Prop52
140
1.0
102
RTVSPost2010PropOp52
 70
     0
102
RTVSPost2010Prop53
 90
        2
102
RTVSPost2010PropOp53
 70
     1
102
RTVSPost2010Prop54
  1
strokes_ogs.tif
102
RTVSPost2010PropOp54
 70
     1
102
RTVSPost2010Prop55
280
     0
102
RTVSPost2010PropOp55
 70
     1
102
RTVSPost2010Prop56
140
1.0
102
RTVSPost2010PropOp56
 70
     1
102
RTVSPost2010Prop57
140
1.0
102
RTVSPost2010PropOp57
 70
     1
  0
ENDSEC
  0
EOF
