  0
SECTION
  2
HEADER
  9
$ACADVER
  1
AC1015
  9
$ACADMAINTVER
 70
     6
  9
$DWGCODEPAGE
  3
ANSI_932
  9
$INSBASE
 10
717.536931587397
 20
374.3778990841745
 30
0.0
  9
$EXTMIN
 10
105.7823231380384
 20
4.083286736368109
 30
0.0
  9
$EXTMAX
 10
725.7887245616623
 20
632.0091388439911
 30
0.0
  9
$LIMMIN
 10
0.0
 20
0.0
  9
$LIMMAX
 10
816.5000000000001
 20
565.0
  9
$ORTHOMODE
 70
     1
  9
$REGENMODE
 70
     1
  9
$FILLMODE
 70
     1
  9
$QTEXTMODE
 70
     0
  9
$MIRRTEXT
 70
     1
  9
$LTSCALE
 40
20.0
  9
$ATTMODE
 70
     1
  9
$TEXTSIZE
 40
6.0
  9
$TRACEWID
 40
0.05
  9
$TEXTSTYLE
  7
KANJI
  9
$CLAYER
  8
2
  9
$CELTYPE
  6
BYLAYER
  9
$CECOLOR
 62
   256
  9
$CELTSCALE
 40
1.0
  9
$DISPSILH
 70
     0
  9
$DIMSCALE
 40
2.0
  9
$DIMASZ
 40
2.0
  9
$DIMEXO
 40
0.5
  9
$DIMDLI
 40
0.0
  9
$DIMRND
 40
0.0
  9
$DIMDLE
 40
0.0
  9
$DIMEXE
 40
1.0
  9
$DIMTP
 40
0.0
  9
$DIMTM
 40
0.0
  9
$DIMTXT
 40
3.0
  9
$DIMCEN
 40
0.09
  9
$DIMTSZ
 40
0.0
  9
$DIMTOL
 70
     0
  9
$DIMLIM
 70
     0
  9
$DIMTIH
 70
     0
  9
$DIMTOH
 70
     0
  9
$DIMSE1
 70
     0
  9
$DIMSE2
 70
     0
  9
$DIMTAD
 70
     0
  9
$DIMZIN
 70
     8
  9
$DIMBLK
  1

  9
$DIMASO
 70
     0
  9
$DIMSHO
 70
     0
  9
$DIMPOST
  1

  9
$DIMAPOST
  1

  9
$DIMALT
 70
     0
  9
$DIMALTD
 70
     2
  9
$DIMALTF
 40
25.4
  9
$DIMLFAC
 40
1.0
  9
$DIMTOFL
 70
     1
  9
$DIMTVP
 40
1.0
  9
$DIMTIX
 70
     1
  9
$DIMSOXD
 70
     1
  9
$DIMSAH
 70
     0
  9
$DIMBLK1
  1

  9
$DIMBLK2
  1

  9
$DIMSTYLE
  2
STANDARD
  9
$DIMCLRD
 70
   256
  9
$DIMCLRE
 70
   256
  9
$DIMCLRT
 70
   256
  9
$DIMTFAC
 40
1.0
  9
$DIMGAP
 40
0.09
  9
$DIMJUST
 70
     0
  9
$DIMSD1
 70
     0
  9
$DIMSD2
 70
     0
  9
$DIMTOLJ
 70
     1
  9
$DIMTZIN
 70
     0
  9
$DIMALTZ
 70
     0
  9
$DIMALTTZ
 70
     0
  9
$DIMUPT
 70
     0
  9
$DIMDEC
 70
     1
  9
$DIMTDEC
 70
     4
  9
$DIMALTU
 70
     2
  9
$DIMALTTD
 70
     2
  9
$DIMTXSTY
  7
STANDARD
  9
$DIMAUNIT
 70
     0
  9
$DIMADEC
 70
     0
  9
$DIMALTRND
 40
0.0
  9
$DIMAZIN
 70
     0
  9
$DIMDSEP
 70
    46
  9
$DIMATFIT
 70
     3
  9
$DIMFRAC
 70
     0
  9
$DIMLDRBLK
  1

  9
$DIMLUNIT
 70
     2
  9
$DIMLWD
 70
    -2
  9
$DIMLWE
 70
    -2
  9
$DIMTMOVE
 70
     0
  9
$LUNITS
 70
     2
  9
$LUPREC
 70
     3
  9
$SKETCHINC
 40
0.1
  9
$FILLETRAD
 40
1.0
  9
$AUNITS
 70
     0
  9
$AUPREC
 70
     3
  9
$MENU
  1
C:\R13\WIN\SUPPORT\ACADFULL
  9
$ELEVATION
 40
0.0
  9
$PELEVATION
 40
0.0
  9
$THICKNESS
 40
0.0
  9
$LIMCHECK
 70
     0
  9
$CHAMFERA
 40
0.0
  9
$CHAMFERB
 40
0.0
  9
$CHAMFERC
 40
0.0
  9
$CHAMFERD
 40
0.0
  9
$SKPOLY
 70
     0
  9
$TDCREATE
 40
2457560.452215046
  9
$TDUCREATE
 40
2457560.077215046
  9
$TDUPDATE
 40
2458115.769645301
  9
$TDUUPDATE
 40
2458115.394645301
  9
$TDINDWG
 40
0.0184281481
  9
$TDUSRTIMER
 40
0.0184278009
  9
$USRTIMER
 70
     1
  9
$ANGBASE
 50
0.0
  9
$ANGDIR
 70
     0
  9
$PDMODE
 70
     0
  9
$PDSIZE
 40
0.0
  9
$PLINEWID
 40
0.0
  9
$SPLFRAME
 70
     0
  9
$SPLINETYPE
 70
     6
  9
$SPLINESEGS
 70
     8
  9
$HANDSEED
  5
5ED
  9
$SURFTAB1
 70
     6
  9
$SURFTAB2
 70
     6
  9
$SURFTYPE
 70
     6
  9
$SURFU
 70
     6
  9
$SURFV
 70
     6
  9
$UCSBASE
  2

  9
$UCSNAME
  2

  9
$UCSORG
 10
0.0
 20
0.0
 30
0.0
  9
$UCSXDIR
 10
1.0
 20
0.0
 30
0.0
  9
$UCSYDIR
 10
0.0
 20
1.0
 30
0.0
  9
$UCSORTHOREF
  2

  9
$UCSORTHOVIEW
 70
     0
  9
$UCSORGTOP
 10
0.0
 20
0.0
 30
0.0
  9
$UCSORGBOTTOM
 10
0.0
 20
0.0
 30
0.0
  9
$UCSORGLEFT
 10
0.0
 20
0.0
 30
0.0
  9
$UCSORGRIGHT
 10
0.0
 20
0.0
 30
0.0
  9
$UCSORGFRONT
 10
0.0
 20
0.0
 30
0.0
  9
$UCSORGBACK
 10
0.0
 20
0.0
 30
0.0
  9
$PUCSBASE
  2

  9
$PUCSNAME
  2

  9
$PUCSORG
 10
0.0
 20
0.0
 30
0.0
  9
$PUCSXDIR
 10
1.0
 20
0.0
 30
0.0
  9
$PUCSYDIR
 10
0.0
 20
1.0
 30
0.0
  9
$PUCSORTHOREF
  2

  9
$PUCSORTHOVIEW
 70
     0
  9
$PUCSORGTOP
 10
0.0
 20
0.0
 30
0.0
  9
$PUCSORGBOTTOM
 10
0.0
 20
0.0
 30
0.0
  9
$PUCSORGLEFT
 10
0.0
 20
0.0
 30
0.0
  9
$PUCSORGRIGHT
 10
0.0
 20
0.0
 30
0.0
  9
$PUCSORGFRONT
 10
0.0
 20
0.0
 30
0.0
  9
$PUCSORGBACK
 10
0.0
 20
0.0
 30
0.0
  9
$USERI1
 70
     0
  9
$USERI2
 70
     0
  9
$USERI3
 70
     0
  9
$USERI4
 70
     0
  9
$USERI5
 70
    32
  9
$USERR1
 40
0.0
  9
$USERR2
 40
0.0
  9
$USERR3
 40
0.0
  9
$USERR4
 40
2448925.372986111
  9
$USERR5
 40
0.04166667
  9
$WORLDVIEW
 70
     1
  9
$SHADEDGE
 70
     3
  9
$SHADEDIF
 70
    70
  9
$TILEMODE
 70
     1
  9
$MAXACTVP
 70
    16
  9
$PINSBASE
 10
0.0
 20
0.0
 30
0.0
  9
$PLIMCHECK
 70
     0
  9
$PEXTMIN
 10
1000000000000000E+20
 20
1000000000000000E+20
 30
1000000000000000E+20
  9
$PEXTMAX
 10
-1000000000000000E+20
 20
-1000000000000000E+20
 30
-1000000000000000E+20
  9
$PLIMMIN
 10
0.0
 20
0.0
  9
$PLIMMAX
 10
12.0
 20
9.0
  9
$UNITMODE
 70
     0
  9
$VISRETAIN
 70
     0
  9
$PLINEGEN
 70
     0
  9
$PSLTSCALE
 70
     0
  9
$TREEDEPTH
 70
  3020
  9
$CMLSTYLE
  2
STANDARD
  9
$CMLJUST
 70
     0
  9
$CMLSCALE
 40
1.0
  9
$PROXYGRAPHICS
 70
     1
  9
$MEASUREMENT
 70
     0
  9
$CELWEIGHT
370
    -1
  9
$ENDCAPS
280
     0
  9
$JOINSTYLE
280
     0
  9
$LWDISPLAY
290
     0
  9
$INSUNITS
 70
     0
  9
$HYPERLINKBASE
  1

  9
$STYLESHEET
  1

  9
$XEDIT
290
     1
  9
$CEPSNTYPE
380
     0
  9
$PSTYLEMODE
290
     1
  9
$FINGERPRINTGUID
  2
{8CE9A25C-0325-41CF-81DD-1E77BF9ABE62}
  9
$VERSIONGUID
  2
{C2C87C01-77CB-4E17-851A-AFD85FB8B3CF}
  9
$EXTNAMES
290
     1
  9
$PSVPSCALE
 40
0.0
  9
$OLESTARTUP
290
     0
  0
ENDSEC
  0
SECTION
  2
CLASSES
  0
CLASS
  1
ACDBDICTIONARYWDFLT
  2
AcDbDictionaryWithDefault
  3
ObjectDBX Classes
 90
        0
280
     0
281
     0
  0
CLASS
  1
MATERIAL
  2
AcDbMaterial
  3
ObjectDBX Classes
 90
     1153
280
     0
281
     0
  0
CLASS
  1
SORTENTSTABLE
  2
AcDbSortentsTable
  3
ObjectDBX Classes
 90
        0
280
     0
281
     0
  0
CLASS
  1
SCALE
  2
AcDbScale
  3
ObjectDBX Classes
 90
     1153
280
     0
281
     0
  0
CLASS
  1
DICTIONARYVAR
  2
AcDbDictionaryVar
  3
ObjectDBX Classes
 90
        0
280
     0
281
     0
  0
CLASS
  1
VISUALSTYLE
  2
AcDbVisualStyle
  3
ObjectDBX Classes
 90
     4095
280
     0
281
     0
  0
CLASS
  1
MLEADERSTYLE
  2
AcDbMLeaderStyle
  3
ACDB_MLEADERSTYLE_CLASS
 90
     4095
280
     0
281
     0
  0
CLASS
  1
TABLESTYLE
  2
AcDbTableStyle
  3
ObjectDBX Classes
 90
     4095
280
     0
281
     0
  0
CLASS
  1
ACDBPLACEHOLDER
  2
AcDbPlaceHolder
  3
ObjectDBX Classes
 90
        0
280
     0
281
     0
  0
CLASS
  1
LAYOUT
  2
AcDbLayout
  3
ObjectDBX Classes
 90
        0
280
     0
281
     0
  0
ENDSEC
  0
SECTION
  2
TABLES
  0
TABLE
  2
VPORT
  5
25
102
{ACAD_XDICTIONARY
360
5B2
102
}
330
0
100
AcDbSymbolTable
 70
     2
  0
VPORT
  5
2A
330
25
100
AcDbSymbolTableRecord
100
AcDbViewportTableRecord
  2
*ACTIVE
 70
     0
 10
0.0
 20
0.0
 11
1.0
 21
1.0
 12
695.6644331409723
 22
186.8178588326774
 13
0.0
 23
0.0
 14
1.0
 24
1.0
 15
50.0
 25
50.0
 16
0.0
 26
0.0
 36
1.0
 17
0.0
 27
0.0
 37
0.0
 40
966.3757234134213
 41
1.82716049382716
 42
50.0
 43
0.0
 44
0.0
 50
0.0
 51
0.0
 71
     0
 72
  5000
 73
     1
 74
     0
 75
     0
 76
     0
 77
     0
 78
     2
281
     0
 65
     1
110
0.0
120
0.0
130
0.0
111
1.0
121
0.0
131
0.0
112
0.0
122
1.0
132
0.0
 79
     0
146
0.0
  0
ENDTAB
  0
TABLE
  2
LTYPE
  5
B
330
0
100
AcDbSymbolTable
 70
     2
  0
LTYPE
  5
C
330
B
100
AcDbSymbolTableRecord
100
AcDbLinetypeTableRecord
  2
BYBLOCK
 70
     0
  3

 72
    65
 73
     0
 40
0.0
  0
LTYPE
  5
D
330
B
100
AcDbSymbolTableRecord
100
AcDbLinetypeTableRecord
  2
BYLAYER
 70
     0
  3

 72
    65
 73
     0
 40
0.0
  0
LTYPE
  5
A
330
B
100
AcDbSymbolTableRecord
100
AcDbLinetypeTableRecord
  2
CONTINUOUS
 70
     0
  3
Solid line
 72
    65
 73
     0
 40
0.0
  0
LTYPE
  5
52
330
B
100
AcDbSymbolTableRecord
100
AcDbLinetypeTableRecord
  2
CENTER
 70
     0
  3
Center ____ _ ____ _ ____ _ ____ _ ____ _ ____
 72
    65
 73
     4
 40
2.0
 49
1.25
 74
     0
 49
-0.25
 74
     0
 49
0.25
 74
     0
 49
-0.25
 74
     0
  0
ENDTAB
  0
TABLE
  2
LAYER
  5
2
330
0
100
AcDbSymbolTable
 70
    12
  0
LAYER
  5
1B
330
2
100
AcDbSymbolTableRecord
100
AcDbLayerTableRecord
  2
0
 70
     0
 62
     7
  6
CONTINUOUS
370
    -3
390
3
  0
LAYER
  5
158
330
2
100
AcDbSymbolTableRecord
100
AcDbLayerTableRecord
  2
1
 70
     0
 62
     9
  6
CONTINUOUS
370
    -3
390
3
  0
LAYER
  5
1
330
2
100
AcDbSymbolTableRecord
100
AcDbLayerTableRecord
  2
2
 70
     0
 62
     4
  6
CONTINUOUS
370
    -3
390
3
  0
LAYER
  5
156
330
2
100
AcDbSymbolTableRecord
100
AcDbLayerTableRecord
  2
4
 70
     0
 62
     3
  6
CONTINUOUS
370
    -3
390
3
  0
LAYER
  5
51
330
2
100
AcDbSymbolTableRecord
100
AcDbLayerTableRecord
  2
L-CENTER
 70
     0
 62
     1
  6
CENTER
370
    -3
390
3
  0
LAYER
  5
57
330
2
100
AcDbSymbolTableRecord
100
AcDbLayerTableRecord
  2
3
 70
     0
 62
     2
  6
CONTINUOUS
370
    -3
390
3
  0
LAYER
  5
14F
102
{ACAD_XDICTIONARY
360
150
102
}
330
2
100
AcDbSymbolTableRecord
100
AcDbLayerTableRecord
  2
5
 70
     0
 62
     6
  6
CONTINUOUS
370
    -3
390
3
  0
LAYER
  5
508
330
2
100
AcDbSymbolTableRecord
100
AcDbLayerTableRecord
  2
Defpoints
 70
     0
 62
     7
  6
CONTINUOUS
290
     0
370
    -3
390
3
  0
ENDTAB
  0
TABLE
  2
STYLE
  5
F
330
0
100
AcDbSymbolTable
 70
     2
  0
STYLE
  5
13
330
F
100
AcDbSymbolTableRecord
100
AcDbTextStyleTableRecord
  2
STANDARD
 70
     0
 40
0.0
 41
1.0
 50
0.0
 71
     0
 42
3.6
  3
TXT
  4

  0
STYLE
  5
E
330
F
100
AcDbSymbolTableRecord
100
AcDbTextStyleTableRecord
  2
KANJI
 70
     0
 40
0.0
 41
1.0
 50
0.0
 71
     0
 42
6.0
  3
TXT
  4
BIGFONT
  0
ENDTAB
  0
TABLE
  2
VIEW
  5
23
330
0
100
AcDbSymbolTable
 70
     0
  0
ENDTAB
  0
TABLE
  2
UCS
  5
24
330
0
100
AcDbSymbolTable
 70
     0
  0
ENDTAB
  0
TABLE
  2
APPID
  5
9
330
0
100
AcDbSymbolTable
 70
     3
  0
APPID
  5
8
330
9
100
AcDbSymbolTableRecord
100
AcDbRegAppTableRecord
  2
ACAD
 70
     0
  0
APPID
  5
507
330
9
100
AcDbSymbolTableRecord
100
AcDbRegAppTableRecord
  2
ACAD_PSEXT
 70
     0
  0
APPID
  5
516
330
9
100
AcDbSymbolTableRecord
100
AcDbRegAppTableRecord
  2
ACAD_MLEADERVER
 70
     0
  0
ENDTAB
  0
TABLE
  2
DIMSTYLE
  5
12
330
0
100
AcDbSymbolTable
 70
     1
100
AcDbDimStyleTable
  0
DIMSTYLE
105
11
330
12
100
AcDbSymbolTableRecord
100
AcDbDimStyleTableRecord
  2
STANDARD
 70
     0
178
     0
340
13
  0
ENDTAB
  0
TABLE
  2
BLOCK_RECORD
  5
16
330
0
100
AcDbSymbolTable
 70
     0
  0
BLOCK_RECORD
  5
17
102
{ACAD_XDICTIONARY
360
18
102
}
330
16
100
AcDbSymbolTableRecord
100
AcDbBlockTableRecord
  2
*MODEL_SPACE
340
1D
  0
BLOCK_RECORD
  5
1F
330
16
100
AcDbSymbolTableRecord
100
AcDbBlockTableRecord
  2
*PAPER_SPACE
340
22
  0
ENDTAB
  0
ENDSEC
  0
SECTION
  2
BLOCKS
  0
BLOCK
  5
1A
330
17
100
AcDbEntity
  8
0
100
AcDbBlockBegin
  2
*MODEL_SPACE
 70
     0
 10
0.0
 20
0.0
 30
0.0
  3
*MODEL_SPACE
  1

  0
ENDBLK
  5
1C
330
17
100
AcDbEntity
  8
0
100
AcDbBlockEnd
  0
BLOCK
  5
20
330
1F
100
AcDbEntity
 67
     1
  8
0
100
AcDbBlockBegin
  2
*PAPER_SPACE
 70
     0
 10
0.0
 20
0.0
 30
0.0
  3
*PAPER_SPACE
  1

  0
ENDBLK
  5
21
330
1F
100
AcDbEntity
 67
     1
  8
0
100
AcDbBlockEnd
  0
ENDSEC
  0
SECTION
  2
ENTITIES
  0
LINE
  5
224
330
17
100
AcDbEntity
  8
4
100
AcDbLine
 10
552.0291277304653
 20
160.0832867363681
 30
0.0
 11
522.8797137304654
 21
160.0832867363681
 31
0.0
  0
LINE
  5
225
330
17
100
AcDbEntity
  8
L-CENTER
 48
0.5
100
AcDbLine
 10
459.9435462448311
 20
78.08328673636811
 30
0.0
 11
725.7887245616622
 21
78.08328673636811
 31
0.0
  0
LINE
  5
226
330
17
100
AcDbEntity
  8
4
100
AcDbLine
 10
493.8799577304654
 20
26.08328673636811
 30
0.0
 11
594.8797137304654
 21
26.08328673636811
 31
0.0
  0
LINE
  5
227
330
17
100
AcDbEntity
  8
L-CENTER
 48
0.5
100
AcDbLine
 10
555.9586172843457
 20
131.0832867363681
 30
0.0
 11
489.8008101765851
 21
131.0832867363681
 31
0.0
  0
ARC
  5
228
330
17
100
AcDbEntity
  8
4
100
AcDbCircle
 10
522.8794697304653
 20
252.0835307363679
 30
0.0
 40
150.000006
100
AcDbArc
 50
260.8663149999999
 51
279.1364290000001
  0
ARC
  5
229
330
17
100
AcDbEntity
  8
4
100
AcDbCircle
 10
522.8794697304653
 20
253.0835307363679
 30
0.0
 40
150.000012
100
AcDbArc
 50
261.056777
 51
278.9458749999999
  0
LINE
  5
22A
330
17
100
AcDbEntity
  8
4
100
AcDbLine
 10
492.8799577304654
 20
11.08328673636811
 30
0.0
 11
542.8797137304654
 21
11.08328673636811
 31
0.0
  0
LINE
  5
22B
330
17
100
AcDbEntity
  8
4
100
AcDbLine
 10
501.8799577304654
 20
34.84329673636807
 30
0.0
 11
543.8797137304654
 21
34.84329673636807
 31
0.0
  0
ARC
  5
22C
330
17
100
AcDbEntity
  8
4
100
AcDbCircle
 10
522.8797137304654
 20
10.08328673636811
 30
0.0
 40
150.000006
100
AcDbArc
 50
80.86536399999996
 51
99.135479
  0
ARC
  5
22D
330
17
100
AcDbEntity
  8
4
100
AcDbCircle
 10
522.8797137304654
 20
9.083286736368109
 30
0.0
 40
150.000006
100
AcDbArc
 50
81.055643
 51
98.94530699999997
  0
LINE
  5
241
330
17
100
AcDbEntity
  8
4
100
AcDbLine
 10
525.3797137304654
 20
135.0832867363681
 30
0.0
 11
525.3797137304654
 21
140.0832867363681
 31
0.0
  0
LINE
  5
242
330
17
100
AcDbEntity
  8
4
100
AcDbLine
 10
520.3797137304654
 20
140.0832867363681
 30
0.0
 11
520.3797137304654
 21
135.0832867363681
 31
0.0
  0
LINE
  5
243
330
17
100
AcDbEntity
  8
4
100
AcDbLine
 10
491.3799577304654
 20
16.08328673636811
 30
0.0
 11
491.3797137304654
 21
140.0832867363681
 31
0.0
  0
LINE
  5
244
330
17
100
AcDbEntity
  8
4
100
AcDbLine
 10
329.6007768545128
 20
125.0832867363681
 30
0.0
 11
329.6007768545128
 21
140.0832867363681
 31
0.0
  0
LINE
  5
245
330
17
100
AcDbEntity
  8
4
100
AcDbLine
 10
302.600776854513
 20
140.0832867363681
 30
0.0
 11
302.600776854513
 21
138.0832867363681
 31
0.0
  0
LINE
  5
246
330
17
100
AcDbEntity
  8
4
100
AcDbLine
 10
290.600776854513
 20
151.0832867363681
 30
0.0
 11
290.600776854513
 21
111.0832867363681
 31
0.0
  0
LINE
  5
247
330
17
100
AcDbEntity
  8
4
100
AcDbLine
 10
148.6012048545127
 20
151.0832867363681
 30
0.0
 11
148.6012048545127
 21
111.0832867363681
 31
0.0
  0
ARC
  5
248
330
17
100
AcDbEntity
  8
4
100
AcDbCircle
 10
219.6009908545127
 20
-59.91671326363189
 30
0.0
 40
199.999996
100
AcDbArc
 50
75.02747299999996
 51
104.972523
  0
LINE
  5
249
330
17
100
AcDbEntity
  8
L-CENTER
 48
0.5
100
AcDbLine
 10
522.8797137304654
 20
98.00438318248769
 30
0.0
 11
522.8797137304654
 21
164.1621902902485
 31
0.0
  0
LINE
  5
24A
330
17
100
AcDbEntity
  8
4
100
AcDbLine
 10
289.600776854513
 20
160.0832867363681
 30
0.0
 11
289.600776854513
 21
102.0832867363681
 31
0.0
  0
LINE
  5
24B
330
17
100
AcDbEntity
  8
4
100
AcDbLine
 10
149.6009908545128
 20
160.0832867363681
 30
0.0
 11
149.6009908545128
 21
102.0832867363681
 31
0.0
  0
LINE
  5
24C
330
17
100
AcDbEntity
  8
L-CENTER
 48
0.5
100
AcDbLine
 10
219.6009908545127
 20
248.6246542870072
 30
0.0
 11
219.6009908545127
 21
7.180552747021409
 31
0.0
  0
ARC
  5
24D
330
17
100
AcDbEntity
  8
4
100
AcDbCircle
 10
643.8797137304651
 20
131.0832867363681
 30
0.0
 40
149.999992
100
AcDbArc
 50
170.866024
 51
189.1354789999999
  0
ARC
  5
24E
330
17
100
AcDbEntity
  8
4
100
AcDbCircle
 10
644.8797137304651
 20
131.0832867363681
 30
0.0
 40
149.999954
100
AcDbArc
 50
171.056486
 51
188.945307
  0
LINE
  5
250
330
17
100
AcDbEntity
  8
L-CENTER
 48
0.5
100
AcDbLine
 10
332.9621048545127
 20
131.0832867363681
 30
0.0
 11
105.7823231380385
 21
131.0832867363681
 31
0.0
  0
LINE
  5
251
330
17
100
AcDbEntity
  8
4
100
AcDbLine
 10
280.1554648545127
 20
102.0832867363681
 30
0.0
 11
289.600776854513
 21
102.0832867363681
 31
0.0
  0
LINE
  5
252
330
17
100
AcDbEntity
  8
4
100
AcDbLine
 10
267.3502888545129
 20
26.08328673636811
 30
0.0
 11
293.600776854513
 21
26.08328673636811
 31
0.0
  0
LINE
  5
253
330
17
100
AcDbEntity
  8
L-CENTER
 48
0.5
100
AcDbLine
 10
285.7347532648344
 20
78.08328673636811
 30
0.0
 11
153.4672284441914
 21
78.08328673636811
 31
0.0
  0
LINE
  5
254
330
17
100
AcDbEntity
  8
4
100
AcDbLine
 10
294.600776854513
 20
11.08328673636811
 30
0.0
 11
144.6009908545128
 21
11.08328673636811
 31
0.0
  0
LINE
  5
263
330
17
100
AcDbEntity
  8
L-CENTER
 48
0.5
100
AcDbLine
 10
187.5223036603622
 20
110.1619759305183
 30
0.0
 11
176.7263612428892
 21
120.9579183479915
 31
0.0
  0
ARC
  5
264
330
17
100
AcDbEntity
  8
4
100
AcDbCircle
 10
183.1009908545127
 20
78.08328673636811
 30
0.0
 40
13.5
100
AcDbArc
 50
56.50424199999915
 51
301.3894310000007
  0
CIRCLE
  5
265
330
17
100
AcDbEntity
  8
4
100
AcDbCircle
 10
183.1009908545127
 20
78.08328673636811
 30
0.0
 40
12.5
  0
LINE
  5
266
330
17
100
AcDbEntity
  8
4
100
AcDbLine
 10
172.1009908545127
 20
72.14611473636774
 30
0.0
 11
183.1009908545127
 21
65.58328673636811
 31
0.0
  0
LINE
  5
267
330
17
100
AcDbEntity
  8
4
100
AcDbLine
 10
183.1009908545127
 20
90.58328673636811
 30
0.0
 11
172.1009908545127
 21
84.0204567363678
 31
0.0
  0
LINE
  5
268
330
17
100
AcDbEntity
  8
L-CENTER
 48
0.5
100
AcDbLine
 10
187.5223036603622
 20
46.00459754221765
 30
0.0
 11
176.7263612428894
 21
35.2086551247445
 31
0.0
  0
LINE
  5
269
330
17
100
AcDbEntity
  8
4
100
AcDbLine
 10
177.8739568545127
 20
64.1948587363679
 30
0.0
 11
190.7223188545129
 21
61.64634673636806
 31
0.0
  0
LINE
  5
26A
330
17
100
AcDbEntity
  8
4
100
AcDbLine
 10
177.8739568545127
 20
91.97171473636786
 30
0.0
 11
190.7223188545129
 21
94.5202267363677
 31
0.0
  0
ARC
  5
26B
330
17
100
AcDbEntity
  8
4
100
AcDbCircle
 10
219.6009908545127
 20
78.08328673636811
 30
0.0
 40
47.0
100
AcDbArc
 50
200.62358
 51
249.3764200000002
  0
ARC
  5
26C
330
17
100
AcDbEntity
  8
4
100
AcDbCircle
 10
219.6009908545127
 20
78.08328673636811
 30
0.0
 40
62.000016
100
AcDbArc
 50
180.0004510002213
 51
0.0
  0
CIRCLE
  5
26D
330
17
100
AcDbEntity
  8
4
100
AcDbCircle
 10
219.6009908545127
 20
78.08328673636811
 30
0.0
 40
58.0
  0
CIRCLE
  5
26E
330
17
100
AcDbEntity
  8
L-CENTER
 48
0.5
100
AcDbCircle
 10
219.6009908545127
 20
78.08328673636811
 30
0.0
 40
53.0
  0
ARC
  5
26F
330
17
100
AcDbEntity
  8
4
100
AcDbCircle
 10
219.6009908545127
 20
78.08328673636811
 30
0.0
 40
48.0
100
AcDbArc
 50
189.6907719999999
 51
170.3092280000001
  0
ARC
  5
270
330
17
100
AcDbEntity
  8
4
100
AcDbCircle
 10
219.6009908545127
 20
78.08328673636811
 30
0.0
 40
47.0
100
AcDbArc
 50
110.6235799999998
 51
159.37642
  0
LINE
  5
283
330
17
100
AcDbEntity
  8
4
100
AcDbLine
 10
171.8516468545129
 20
26.08328673636811
 30
0.0
 11
145.6009908545128
 21
26.08328673636811
 31
0.0
  0
LINE
  5
284
330
17
100
AcDbEntity
  8
4
100
AcDbLine
 10
144.6009908545128
 20
25.08328673636811
 30
0.0
 11
144.6009908545128
 21
11.08328673636811
 31
0.0
  0
ARC
  5
285
330
17
100
AcDbEntity
  8
4
100
AcDbCircle
 10
145.6009908545128
 20
25.08328673636811
 30
0.0
 40
1.0
100
AcDbArc
 50
90.0
 51
180.000858999821
  0
LINE
  5
286
330
17
100
AcDbEntity
  8
L-CENTER
 48
0.5
100
AcDbLine
 10
159.6009908545128
 20
4.083286736368109
 30
0.0
 11
159.6009908545128
 21
33.08328673636811
 31
0.0
  0
ARC
  5
287
330
17
100
AcDbEntity
  8
4
100
AcDbCircle
 10
171.8516468545129
 20
31.08328673636811
 30
0.0
 40
5.000016
100
AcDbArc
 50
270.0010429999983
 51
44.54822400000127
  0
ARC
  5
288
330
17
100
AcDbEntity
  8
4
100
AcDbCircle
 10
177.4848328545129
 20
62.23307873636782
 30
0.0
 40
2.0
100
AcDbArc
 50
78.78083200000137
 51
200.6235799999978
  0
LINE
  5
289
330
17
100
AcDbEntity
  8
4
100
AcDbLine
 10
149.6009908545128
 20
102.0832867363681
 30
0.0
 11
159.0465168545128
 21
102.0832867363681
 31
0.0
  0
ARC
  5
28A
330
17
100
AcDbEntity
  8
4
100
AcDbCircle
 10
357.6012648545127
 20
78.08304273636782
 30
0.0
 40
199.999996
100
AcDbArc
 50
165.027988
 51
180.0004200002325
  0
LINE
  5
28B
330
17
100
AcDbEntity
  8
4
100
AcDbLine
 10
148.6012048545127
 20
111.0832867363681
 30
0.0
 11
149.6012048545127
 21
111.0832867363681
 31
0.0
  0
ARC
  5
28C
330
17
100
AcDbEntity
  8
4
100
AcDbCircle
 10
177.4848328545129
 20
93.93349473636795
 30
0.0
 40
2.0
100
AcDbArc
 50
159.3764200000022
 51
281.2191679999987
  0
LINE
  5
28D
330
17
100
AcDbEntity
  8
4
100
AcDbLine
 10
172.1009908545127
 20
84.0204567363678
 30
0.0
 11
172.1009908545127
 21
72.14611473636774
 31
0.0
  0
ARC
  5
28E
330
17
100
AcDbEntity
  8
4
100
AcDbCircle
 10
169.2217028545126
 20
128.462924736368
 30
0.0
 40
5.000042
100
AcDbArc
 50
104.9719649999997
 51
165.02502
  0
ARC
  5
2A7
330
17
100
AcDbEntity
  8
4
100
AcDbCircle
 10
219.6009908545127
 20
-45.91671326363189
 30
0.0
 40
150.0
100
AcDbArc
 50
81.61756899999992
 51
98.38243099999998
  0
ARC
  5
2A8
330
17
100
AcDbEntity
  8
4
100
AcDbCircle
 10
219.6009908545127
 20
-45.91671326363189
 30
0.0
 40
151.0
100
AcDbArc
 50
81.33040799999993
 51
98.66959199999998
  0
ARC
  5
2A9
330
17
100
AcDbEntity
  8
4
100
AcDbCircle
 10
219.6009908545127
 20
202.0832867363681
 30
0.0
 40
150.0
100
AcDbArc
 50
261.6175690000001
 51
278.3824310000001
  0
ARC
  5
2AA
330
17
100
AcDbEntity
  8
4
100
AcDbCircle
 10
219.6009908545127
 20
202.0832867363681
 30
0.0
 40
151.0
100
AcDbArc
 50
261.330408
 51
278.669592
  0
LINE
  5
2AB
330
17
100
AcDbEntity
  8
4
100
AcDbLine
 10
233.4894208545127
 20
36.35625273636811
 30
0.0
 11
236.0379308545128
 21
49.20461273636806
 31
0.0
  0
ARC
  5
2AC
330
17
100
AcDbEntity
  8
4
100
AcDbCircle
 10
235.4512008545128
 20
35.96712673636807
 30
0.0
 40
2.0
100
AcDbArc
 50
168.7808320000013
 51
290.6235799999957
  0
LINE
  5
2AD
330
17
100
AcDbEntity
  8
4
100
AcDbLine
 10
233.4894208545127
 20
119.8103207363681
 30
0.0
 11
236.0379308545128
 21
106.9619587363679
 31
0.0
  0
ARC
  5
2AE
330
17
100
AcDbEntity
  8
4
100
AcDbCircle
 10
235.4512008545128
 20
120.1994467363681
 30
0.0
 40
2.0
100
AcDbArc
 50
69.37642000000433
 51
191.2191680000003
  0
LINE
  5
2AF
330
17
100
AcDbEntity
  8
4
100
AcDbLine
 10
183.1009908545127
 20
65.58328673636811
 30
0.0
 11
194.1009908545127
 21
72.14611473636774
 31
0.0
  0
LINE
  5
2B0
330
17
100
AcDbEntity
  8
L-CENTER
 48
0.5
100
AcDbLine
 10
183.1009908545127
 20
61.18710273636839
 30
0.0
 11
183.1009908545127
 21
94.97947073636783
 31
0.0
  0
ARC
  5
2B1
330
17
100
AcDbEntity
  8
4
100
AcDbCircle
 10
203.7507828545129
 20
35.96712673636807
 30
0.0
 40
2.0
100
AcDbArc
 50
249.3764199999971
 51
11.21916799999875
  0
ARC
  5
2B2
330
17
100
AcDbEntity
  8
4
100
AcDbCircle
 10
198.171380854513
 20
56.65367473636775
 30
0.0
 40
3.0
100
AcDbArc
 50
188.3824310000001
 51
261.6175689999999
  0
ARC
  5
2B3
330
17
100
AcDbEntity
  8
4
100
AcDbCircle
 10
197.2920368545126
 20
55.7743307363678
 30
0.0
 40
3.0
100
AcDbArc
 50
188.6695919999997
 51
261.3304080000025
  0
ARC
  5
2B4
330
17
100
AcDbEntity
  8
4
100
AcDbCircle
 10
191.1742008545127
 20
64.85175873636786
 30
0.0
 40
2.0
100
AcDbArc
 50
4.961168999999575
 51
121.3894309999935
  0
ARC
  5
2B5
330
17
100
AcDbEntity
  8
4
100
AcDbCircle
 10
189.944068854513
 20
57.72278673636788
 30
0.0
 40
4.0
100
AcDbArc
 50
7.548076999999578
 51
78.78083200000121
  0
ARC
  5
2B6
330
17
100
AcDbEntity
  8
4
100
AcDbCircle
 10
192.1243568545126
 20
65.48055273636805
 30
0.0
 40
2.0
100
AcDbArc
 50
4.756008999999318
 51
140.0452759999929
  0
ARC
  5
2B7
330
17
100
AcDbEntity
  8
4
100
AcDbCircle
 10
343.6009908545127
 20
78.08328673636811
 30
0.0
 40
150.0
100
AcDbArc
 50
184.7560089999999
 51
188.382431
  0
ARC
  5
2B8
330
17
100
AcDbEntity
  8
4
100
AcDbCircle
 10
343.6009908545127
 20
78.08328673636811
 30
0.0
 40
151.0
100
AcDbArc
 50
184.9611689999999
 51
188.669592
  0
ARC
  5
2B9
330
17
100
AcDbEntity
  8
4
100
AcDbCircle
 10
199.2404908545129
 20
48.42636273636776
 30
0.0
 40
4.0
100
AcDbArc
 50
11.21916800000048
 51
82.45192300000204
  0
LINE
  5
2BA
330
17
100
AcDbEntity
  8
4
100
AcDbLine
 10
205.712562854513
 20
36.35625273636811
 30
0.0
 11
203.1640528545129
 21
49.20461273636806
 31
0.0
  0
ARC
  5
2BB
330
17
100
AcDbEntity
  8
4
100
AcDbCircle
 10
199.2404908545129
 20
107.7402087363678
 30
0.0
 40
4.0
100
AcDbArc
 50
277.5480769999979
 51
348.7808319999995
  0
ARC
  5
2BC
330
17
100
AcDbEntity
  8
4
100
AcDbCircle
 10
198.171380854513
 20
99.5128967363678
 30
0.0
 40
3.0
100
AcDbArc
 50
98.38243100000003
 51
171.6175689999999
  0
ARC
  5
2BD
330
17
100
AcDbEntity
  8
4
100
AcDbCircle
 10
197.2920368545126
 20
100.392242736368
 30
0.0
 40
3.0
100
AcDbArc
 50
98.66959199999754
 51
171.3304080000003
  0
LINE
  5
2BE
330
17
100
AcDbEntity
  8
4
100
AcDbLine
 10
194.1009908545127
 20
84.0204567363678
 30
0.0
 11
183.1009908545127
 21
90.58328673636811
 31
0.0
  0
ARC
  5
2BF
330
17
100
AcDbEntity
  8
4
100
AcDbCircle
 10
192.1243568545126
 20
90.68602073636771
 30
0.0
 40
2.0
100
AcDbArc
 50
219.9547240000071
 51
355.2439910000007
  0
ARC
  5
2C0
330
17
100
AcDbEntity
  8
4
100
AcDbCircle
 10
191.1742008545127
 20
91.31481273636814
 30
0.0
 40
2.0
100
AcDbArc
 50
238.6105690000065
 51
355.0388310000004
  0
ARC
  5
2C1
330
17
100
AcDbEntity
  8
4
100
AcDbCircle
 10
189.944068854513
 20
98.44378673636788
 30
0.0
 40
4.0
100
AcDbArc
 50
281.2191679999988
 51
352.4519229999997
  0
ARC
  5
2C2
330
17
100
AcDbEntity
  8
4
100
AcDbCircle
 10
343.6009908545127
 20
78.08328673636811
 30
0.0
 40
150.0
100
AcDbArc
 50
171.617569
 51
175.2439909999999
  0
ARC
  5
2C3
330
17
100
AcDbEntity
  8
4
100
AcDbCircle
 10
343.6009908545127
 20
78.08328673636811
 30
0.0
 40
151.0
100
AcDbArc
 50
171.330408
 51
175.0388310000001
  0
LINE
  5
2C4
330
17
100
AcDbEntity
  8
4
100
AcDbLine
 10
194.1009908545127
 20
72.14611473636774
 30
0.0
 11
194.1009908545127
 21
84.0204567363678
 31
0.0
  0
ARC
  5
2C5
330
17
100
AcDbEntity
  8
4
100
AcDbCircle
 10
203.7507828545129
 20
120.1994467363681
 30
0.0
 40
2.0
100
AcDbArc
 50
348.7808319999996
 51
110.6235800000029
  0
LINE
  5
2C6
330
17
100
AcDbEntity
  8
4
100
AcDbLine
 10
205.712562854513
 20
119.8103207363681
 30
0.0
 11
203.1640528545129
 21
106.9619587363679
 31
0.0
  0
ARC
  5
2C7
330
17
100
AcDbEntity
  8
4
100
AcDbCircle
 10
95.60099085451282
 20
78.08328673636811
 30
0.0
 40
150.0
100
AcDbArc
 50
351.6175689999999
 51
8.38243100000007
  0
ARC
  5
2C8
330
17
100
AcDbEntity
  8
4
100
AcDbCircle
 10
95.60099085451282
 20
78.08328673636811
 30
0.0
 40
151.0
100
AcDbArc
 50
351.330408
 51
8.669591999999984
  0
LINE
  5
2C9
330
17
100
AcDbEntity
  8
4
100
AcDbLine
 10
261.3280268545129
 20
64.1948587363679
 30
0.0
 11
248.4796648545127
 21
61.64634673636806
 31
0.0
  0
LINE
  5
2CA
330
17
100
AcDbEntity
  8
L-CENTER
 48
0.5
100
AcDbLine
 10
251.6796790486633
 20
46.00459854221748
 30
0.0
 11
262.4756214661363
 21
35.20865612474449
 31
0.0
  0
ARC
  5
2CB
330
17
100
AcDbEntity
  8
4
100
AcDbCircle
 10
219.6009908545127
 20
78.08328673636811
 30
0.0
 40
47.0
100
AcDbArc
 50
290.6235800000001
 51
339.3764199999999
  0
ARC
  5
2CC
330
17
100
AcDbEntity
  8
4
100
AcDbCircle
 10
267.3502888545129
 20
31.08328673636811
 30
0.0
 40
4.999984
100
AcDbArc
 50
135.4510450000018
 51
270.0
  0
ARC
  5
2CD
330
17
100
AcDbEntity
  8
4
100
AcDbCircle
 10
249.2579148545126
 20
57.72278673636788
 30
0.0
 40
4.0
100
AcDbArc
 50
101.2191679999988
 51
172.4519230000004
  0
ARC
  5
2CE
330
17
100
AcDbEntity
  8
4
100
AcDbCircle
 10
241.0306028545126
 20
56.65367473636775
 30
0.0
 40
3.0
100
AcDbArc
 50
278.382431
 51
351.6175689999999
  0
ARC
  5
2CF
330
17
100
AcDbEntity
  8
4
100
AcDbCircle
 10
241.909946854513
 20
55.7743307363678
 30
0.0
 40
3.0
100
AcDbArc
 50
278.6695919999975
 51
351.3304080000003
  0
ARC
  5
2D0
330
17
100
AcDbEntity
  8
4
100
AcDbCircle
 10
239.9614908545129
 20
48.42636273636776
 30
0.0
 40
4.0
100
AcDbArc
 50
97.54807700000119
 51
168.7808320000004
  0
LINE
  5
2D1
330
17
100
AcDbEntity
  8
4
100
AcDbLine
 10
274.100776854513
 20
11.08328673636811
 30
0.0
 11
274.100776854513
 21
26.08328673636811
 31
0.0
  0
ARC
  5
2D2
330
17
100
AcDbEntity
  8
4
100
AcDbCircle
 10
265.1510708545127
 20
18.85257273636785
 30
0.0
 40
1.931606
100
AcDbArc
 50
293.6597230000061
 51
39.58071799999662
  0
ARC
  5
2D3
330
17
100
AcDbEntity
  8
4
100
AcDbCircle
 10
265.1510708545127
 20
18.85257273636785
 30
0.0
 40
1.931606
100
AcDbArc
 50
293.6597230000061
 51
39.58071799999662
  0
ARC
  5
2D4
330
17
100
AcDbEntity
  8
4
100
AcDbCircle
 10
266.701362854513
 20
15.31406073636776
 30
0.0
 40
1.931618
100
AcDbArc
 50
113.6595599999999
 51
219.5810609999958
  0
ARC
  5
2D5
330
17
100
AcDbEntity
  8
4
100
AcDbCircle
 10
263.7240688545128
 20
12.852512736368
 30
0.0
 40
1.931606
100
AcDbArc
 50
293.6597499999955
 51
39.58071800000437
  0
ARC
  5
2D6
330
17
100
AcDbEntity
  8
4
100
AcDbCircle
 10
263.7240688545128
 20
12.852512736368
 30
0.0
 40
1.931606
100
AcDbArc
 50
293.6597499999955
 51
39.58071800000437
  0
ARC
  5
2D7
330
17
100
AcDbEntity
  8
4
100
AcDbCircle
 10
266.701362854513
 20
15.31406073636776
 30
0.0
 40
1.931618
100
AcDbArc
 50
113.6595599999999
 51
219.5810609999958
  0
ARC
  5
2D8
330
17
100
AcDbEntity
  8
4
100
AcDbCircle
 10
268.1283648545129
 20
21.31399873636769
 30
0.0
 40
1.931618
100
AcDbArc
 50
113.6595599999999
 51
219.5810609999958
  0
ARC
  5
2D9
330
17
100
AcDbEntity
  8
4
100
AcDbCircle
 10
268.1283648545129
 20
21.31399873636769
 30
0.0
 40
1.931618
100
AcDbArc
 50
113.6595599999999
 51
219.5810609999958
  0
ARC
  5
2DA
330
17
100
AcDbEntity
  8
4
100
AcDbCircle
 10
266.578072854513
 20
24.85257273636785
 30
0.0
 40
1.931604
100
AcDbArc
 50
293.6597229999934
 51
39.58073700000678
  0
ARC
  5
2DB
330
17
100
AcDbEntity
  8
4
100
AcDbCircle
 10
266.578072854513
 20
24.85257273636785
 30
0.0
 40
1.931604
100
AcDbArc
 50
293.6597229999934
 51
39.58073700000678
  0
LINE
  5
2DC
330
17
100
AcDbEntity
  8
4
100
AcDbLine
 10
285.100776854513
 20
11.08328673636811
 30
0.0
 11
285.100776854513
 21
26.08328673636811
 31
0.0
  0
LINE
  5
2DD
330
17
100
AcDbEntity
  8
L-CENTER
 48
0.5
100
AcDbLine
 10
279.600776854513
 20
4.083286736368109
 30
0.0
 11
279.600776854513
 21
33.08328673636811
 31
0.0
  0
ARC
  5
2DE
330
17
100
AcDbEntity
  8
4
100
AcDbCircle
 10
261.7171508545127
 20
62.23307873636782
 30
0.0
 40
2.0
100
AcDbArc
 50
339.3764200000007
 51
101.2191680000053
  0
LINE
  5
2DF
330
17
100
AcDbEntity
  8
L-CENTER
 48
0.5
100
AcDbLine
 10
251.6796790486635
 20
110.1619749305185
 30
0.0
 11
262.4756214661365
 21
120.9579173479916
 31
0.0
  0
LINE
  5
2E0
330
17
100
AcDbEntity
  8
4
100
AcDbLine
 10
261.3280268545129
 20
91.97171473636786
 30
0.0
 11
248.4796648545127
 21
94.5202267363677
 31
0.0
  0
ARC
  5
2E1
330
17
100
AcDbEntity
  8
4
100
AcDbCircle
 10
219.6009908545127
 20
78.08328673636811
 30
0.0
 40
47.0
100
AcDbArc
 50
20.62358000000004
 51
69.3764199999999
  0
ARC
  5
2E2
330
17
100
AcDbEntity
  8
4
100
AcDbCircle
 10
239.9614908545129
 20
107.7402087363678
 30
0.0
 40
4.0
100
AcDbArc
 50
191.2191679999987
 51
262.4519229999988
  0
ARC
  5
2E3
330
17
100
AcDbEntity
  8
4
100
AcDbCircle
 10
249.2579148545126
 20
98.44378673636788
 30
0.0
 40
4.0
100
AcDbArc
 50
187.5480770000003
 51
258.7808320000012
  0
ARC
  5
2E4
330
17
100
AcDbEntity
  8
4
100
AcDbCircle
 10
241.909946854513
 20
100.392242736368
 30
0.0
 40
3.0
100
AcDbArc
 50
8.669591999999689
 51
81.33040800000246
  0
ARC
  5
2E5
330
17
100
AcDbEntity
  8
4
100
AcDbCircle
 10
241.0306028545126
 20
99.5128967363678
 30
0.0
 40
3.0
100
AcDbArc
 50
8.38243100000007
 51
81.61756899999999
  0
ARC
  5
2E6
330
17
100
AcDbEntity
  8
4
100
AcDbCircle
 10
81.6007768545129
 20
78.08304273636782
 30
0.0
 40
199.999972
100
AcDbArc
 50
0.0000700094389926
 51
14.97273999999999
  0
ARC
  5
2E7
330
17
100
AcDbEntity
  8
4
100
AcDbCircle
 10
261.7171508545127
 20
93.93349473636795
 30
0.0
 40
2.0
100
AcDbArc
 50
258.7808319999946
 51
20.6235799999993
  0
ARC
  5
2E8
330
17
100
AcDbEntity
  8
4
100
AcDbCircle
 10
269.9804168545127
 20
128.462924736368
 30
0.0
 40
4.999976
100
AcDbArc
 50
14.97538800000021
 51
75.02803499999729
  0
TEXT
  5
2E9
330
17
100
AcDbEntity
  8
3
100
AcDbText
 10
351.243610906554
 20
11.97507444406091
 30
0.0
 40
6.0
  1
LE1-08
  7
KANJI
 72
     1
 11
366.743610906554
 21
11.97507444406091
 31
0.0
100
AcDbText
  0
LINE
  5
2EC
330
17
100
AcDbEntity
  8
4
100
AcDbLine
 10
294.600776854513
 20
25.08328673636811
 30
0.0
 11
294.600776854513
 21
11.08328673636811
 31
0.0
  0
ARC
  5
2ED
330
17
100
AcDbEntity
  8
4
100
AcDbCircle
 10
293.600776854513
 20
25.08328673636811
 30
0.0
 40
1.0
100
AcDbArc
 50
0.0
 51
90.0
  0
LINE
  5
2EE
330
17
100
AcDbEntity
  8
4
100
AcDbLine
 10
299.600776854513
 20
124.0832867363681
 30
0.0
 11
328.6007768545128
 21
124.0832867363681
 31
0.0
  0
LINE
  5
2EF
330
17
100
AcDbEntity
  8
4
100
AcDbLine
 10
299.600776854513
 20
138.0832867363681
 30
0.0
 11
328.6007768545128
 21
138.0832867363681
 31
0.0
  0
LINE
  5
2F0
330
17
100
AcDbEntity
  8
4
100
AcDbLine
 10
290.600776854513
 20
138.5832867363681
 30
0.0
 11
299.600776854513
 21
138.5832867363681
 31
0.0
  0
LINE
  5
2F1
330
17
100
AcDbEntity
  8
4
100
AcDbLine
 10
290.600776854513
 20
123.5832867363681
 30
0.0
 11
299.600776854513
 21
123.5832867363681
 31
0.0
  0
LINE
  5
2F2
330
17
100
AcDbEntity
  8
4
100
AcDbLine
 10
299.600776854513
 20
138.5832867363681
 30
0.0
 11
299.600776854513
 21
123.5832867363681
 31
0.0
  0
LINE
  5
2F3
330
17
100
AcDbEntity
  8
4
100
AcDbLine
 10
290.600776854513
 20
111.0832867363681
 30
0.0
 11
289.600776854513
 21
111.0832867363681
 31
0.0
  0
LINE
  5
2F4
330
17
100
AcDbEntity
  8
4
100
AcDbLine
 10
328.6007768545128
 20
138.0832867363681
 30
0.0
 11
329.6007768545128
 21
137.0832867363681
 31
0.0
  0
LINE
  5
2F5
330
17
100
AcDbEntity
  8
4
100
AcDbLine
 10
329.6007768545128
 20
125.0832867363681
 30
0.0
 11
328.6007768545128
 21
124.0832867363681
 31
0.0
  0
LINE
  5
2F6
330
17
100
AcDbEntity
  8
4
100
AcDbLine
 10
328.6007768545128
 20
138.0832867363681
 30
0.0
 11
328.6007768545128
 21
124.0832867363681
 31
0.0
  0
LINE
  5
2F8
330
17
100
AcDbEntity
  8
4
100
AcDbLine
 10
479.9798117304655
 20
20.08328673636811
 30
0.0
 11
488.8799537304654
 21
20.08328673636811
 31
0.0
  0
LINE
  5
2F9
330
17
100
AcDbEntity
  8
4
100
AcDbLine
 10
479.9798117304655
 20
136.0832867363681
 30
0.0
 11
488.8797177304654
 21
136.0832867363681
 31
0.0
  0
LINE
  5
2FC
330
17
100
AcDbEntity
  8
4
100
AcDbLine
 10
462.3798117304653
 20
90.58328673636811
 30
0.0
 11
462.3798117304653
 21
65.58328673636811
 31
0.0
  0
LINE
  5
2FD
330
17
100
AcDbEntity
  8
4
100
AcDbLine
 10
466.3798117304653
 20
90.58328673636811
 30
0.0
 11
466.3798117304653
 21
65.58328673636811
 31
0.0
  0
LINE
  5
2FE
330
17
100
AcDbEntity
  8
4
100
AcDbLine
 10
468.3798117304653
 20
90.58328673636811
 30
0.0
 11
468.3798117304653
 21
65.58328673636811
 31
0.0
  0
LINE
  5
2FF
330
17
100
AcDbEntity
  8
4
100
AcDbLine
 10
469.8798117304653
 20
52.08328673636811
 30
0.0
 11
469.8798117304653
 21
104.0832867363681
 31
0.0
  0
LINE
  5
300
330
17
100
AcDbEntity
  8
4
100
AcDbLine
 10
474.8798117304653
 20
51.08328673636811
 30
0.0
 11
474.8798117304653
 21
105.0832867363681
 31
0.0
  0
LINE
  5
301
330
17
100
AcDbEntity
  8
4
100
AcDbLine
 10
479.9798117304655
 20
20.08328673636811
 30
0.0
 11
479.9798117304655
 21
136.0832867363681
 31
0.0
  0
LINE
  5
304
330
17
100
AcDbEntity
  8
4
100
AcDbLine
 10
468.8798117304653
 20
66.58328673636811
 30
0.0
 11
468.3798117304653
 21
66.58328673636811
 31
0.0
  0
LINE
  5
305
330
17
100
AcDbEntity
  8
4
100
AcDbLine
 10
468.3798117304653
 20
65.58328673636811
 30
0.0
 11
462.3798117304653
 21
65.58328673636811
 31
0.0
  0
LINE
  5
306
330
17
100
AcDbEntity
  8
4
100
AcDbLine
 10
477.2599777304655
 20
45.20633273636781
 30
0.0
 11
475.2844117304654
 21
50.0842707363679
 31
0.0
  0
ARC
  5
307
330
17
100
AcDbEntity
  8
4
100
AcDbCircle
 10
473.4306717304654
 20
49.33350673636801
 30
0.0
 40
2.0
100
AcDbArc
 50
22.04794700000254
 51
78.690068000004
  0
LINE
  5
308
330
17
100
AcDbEntity
  8
4
100
AcDbLine
 10
473.8229057304653
 20
51.29466873636807
 30
0.0
 11
469.8798117304653
 21
52.08328673636811
 31
0.0
  0
LINE
  5
309
330
17
100
AcDbEntity
  8
L-CENTER
 48
0.5
100
AcDbLine
 10
496.2214336901276
 20
40.60648073636798
 30
0.0
 11
471.713889226981
 21
40.60648073636798
 31
0.0
  0
LINE
  5
30E
330
17
100
AcDbEntity
  8
4
100
AcDbLine
 10
473.8229057304653
 20
104.8719047363677
 30
0.0
 11
469.8798117304653
 21
104.0832867363681
 31
0.0
  0
LINE
  5
30F
330
17
100
AcDbEntity
  8
4
100
AcDbLine
 10
468.8798117304653
 20
89.58328673636811
 30
0.0
 11
468.3798117304653
 21
89.58328673636811
 31
0.0
  0
LINE
  5
310
330
17
100
AcDbEntity
  8
4
100
AcDbLine
 10
466.3798117304653
 20
84.02054273636782
 30
0.0
 11
462.3798117304653
 21
84.02054273636782
 31
0.0
  0
LINE
  5
311
330
17
100
AcDbEntity
  8
4
100
AcDbLine
 10
468.3798117304653
 20
90.58328673636811
 30
0.0
 11
462.3798117304653
 21
90.58328673636811
 31
0.0
  0
LINE
  5
312
330
17
100
AcDbEntity
  8
4
100
AcDbLine
 10
466.3798117304653
 20
72.14603073636795
 30
0.0
 11
462.3798117304653
 21
72.14603073636795
 31
0.0
  0
LINE
  5
313
330
17
100
AcDbEntity
  8
L-CENTER
 48
0.5
100
AcDbLine
 10
496.7041763686312
 20
115.5600927363678
 30
0.0
 11
470.9350978714543
 21
115.5600927363678
 31
0.0
  0
LINE
  5
314
330
17
100
AcDbEntity
  8
4
100
AcDbLine
 10
477.2599777304655
 20
110.9602387363677
 30
0.0
 11
475.2844117304654
 21
106.0823007363681
 31
0.0
  0
ARC
  5
315
330
17
100
AcDbEntity
  8
4
100
AcDbCircle
 10
473.4306717304654
 20
106.8330667363678
 30
0.0
 40
2.0
100
AcDbArc
 50
281.309931999996
 51
337.9520529999989
  0
LINE
  5
316
330
17
100
AcDbEntity
  8
4
100
AcDbLine
 10
488.8799577304654
 20
18.08328673636811
 30
0.0
 11
488.8797137304654
 21
138.0832867363681
 31
0.0
  0
LINE
  5
317
330
17
100
AcDbEntity
  8
4
100
AcDbLine
 10
501.8799577304654
 20
103.5608247363677
 30
0.0
 11
501.8799577304654
 21
34.69876473636782
 31
0.0
  0
LINE
  5
318
330
17
100
AcDbEntity
  8
4
100
AcDbLine
 10
492.8799577304654
 20
25.08328673636811
 30
0.0
 11
492.8799577304654
 21
11.08328673636811
 31
0.0
  0
ARC
  5
319
330
17
100
AcDbEntity
  8
4
100
AcDbCircle
 10
491.8799577304654
 20
15.08328673636811
 30
0.0
 40
1.0
100
AcDbArc
 50
0.0
 51
90.0
  0
LINE
  5
31A
330
17
100
AcDbEntity
  8
4
100
AcDbLine
 10
488.8799577304654
 20
18.08328673636811
 30
0.0
 11
491.3799577304654
 21
18.08328673636811
 31
0.0
  0
LINE
  5
31B
330
17
100
AcDbEntity
  8
4
100
AcDbLine
 10
491.8799577304654
 20
16.08328673636811
 30
0.0
 11
491.3799577304654
 21
16.08328673636811
 31
0.0
  0
ARC
  5
31C
330
17
100
AcDbEntity
  8
4
100
AcDbCircle
 10
493.8799577304654
 20
25.08328673636811
 30
0.0
 40
1.0
100
AcDbArc
 50
90.0
 51
180.000858999821
  0
LINE
  5
31D
330
17
100
AcDbEntity
  8
4
100
AcDbLine
 10
491.3799577304654
 20
34.69876473636782
 30
0.0
 11
501.8799577304654
 21
34.69876473636782
 31
0.0
  0
LINE
  5
31E
330
17
100
AcDbEntity
  8
L-CENTER
 48
0.5
100
AcDbLine
 10
512.8799577304654
 20
33.08328673636811
 30
0.0
 11
512.8799577304654
 21
4.083286736368109
 31
0.0
  0
LINE
  5
31F
330
17
100
AcDbEntity
  8
4
100
AcDbLine
 10
522.8797137304654
 20
26.08328673636811
 30
0.0
 11
522.8797137304654
 21
11.08328673636811
 31
0.0
  0
LINE
  5
320
330
17
100
AcDbEntity
  8
4
100
AcDbLine
 10
499.0655037304654
 20
103.985874736368
 30
0.0
 11
495.7823017304655
 21
107.2693227363677
 31
0.0
  0
LINE
  5
321
330
17
100
AcDbEntity
  8
4
100
AcDbLine
 10
488.8797137304654
 20
138.0832867363681
 30
0.0
 11
491.3797137304654
 21
138.0832867363681
 31
0.0
  0
LINE
  5
322
330
17
100
AcDbEntity
  8
4
100
AcDbLine
 10
496.7039317304653
 20
107.7615087363681
 30
0.0
 11
499.5579357304654
 21
104.9075047363679
 31
0.0
  0
ARC
  5
323
330
17
100
AcDbEntity
  8
4
100
AcDbCircle
 10
522.8797137304654
 20
131.0832867363681
 30
0.0
 40
6.999982000000001
100
AcDbArc
 50
110.9248859999992
 51
69.07511400000075
  0
LINE
  5
324
330
17
100
AcDbEntity
  8
4
100
AcDbLine
 10
525.3797137304654
 20
135.0832867363681
 30
0.0
 11
520.3797137304654
 21
135.0832867363681
 31
0.0
  0
LINE
  5
325
330
17
100
AcDbEntity
  8
L-CENTER
 48
0.5
100
AcDbLine
 10
352.7097218377515
 20
154.0835307363679
 30
0.0
 11
156.9383185994404
 21
154.0835307363679
 31
0.0
  0
LINE
  5
326
330
17
100
AcDbEntity
  8
4
100
AcDbLine
 10
149.6009908545128
 20
160.0832867363681
 30
0.0
 11
289.600776854513
 21
160.0832867363681
 31
0.0
  0
LINE
  5
327
330
17
100
AcDbEntity
  8
L-CENTER
 48
0.5
100
AcDbLine
 10
156.4426537140881
 20
217.303530736368
 30
0.0
 11
182.391576663161
 21
217.303530736368
 31
0.0
  0
ARC
  5
328
330
17
100
AcDbEntity
  8
4
100
AcDbCircle
 10
219.6009908545127
 20
-262.9164692636321
 30
0.0
 40
500.00002
100
AcDbArc
 50
85.28702899999998
 51
94.71324799999998
  0
LINE
  5
334
330
17
100
AcDbEntity
  8
4
100
AcDbLine
 10
166.1009908545128
 20
233.0835307363679
 30
0.0
 11
166.1009908545128
 21
160.0832867363681
 31
0.0
  0
LINE
  5
335
330
17
100
AcDbEntity
  8
4
100
AcDbLine
 10
175.6009908545127
 20
234.0835307363679
 30
0.0
 11
175.6009908545127
 21
160.0832867363681
 31
0.0
  0
LINE
  5
336
330
17
100
AcDbEntity
  8
4
100
AcDbLine
 10
177.6009908545127
 20
234.3962747363678
 30
0.0
 11
177.6009908545127
 21
160.0832867363681
 31
0.0
  0
LINE
  5
33B
330
17
100
AcDbEntity
  8
4
100
AcDbLine
 10
148.6012048545127
 20
151.0832867363681
 30
0.0
 11
149.6012048545127
 21
151.0832867363681
 31
0.0
  0
LINE
  5
33D
330
17
100
AcDbEntity
  8
4
100
AcDbLine
 10
159.6009908545128
 20
160.0832867363681
 30
0.0
 11
159.6009908545128
 21
179.0835307363679
 31
0.0
  0
LINE
  5
33E
330
17
100
AcDbEntity
  8
4
100
AcDbLine
 10
160.6009908545128
 20
189.0835307363679
 30
0.0
 11
160.6009908545128
 21
160.0832867363681
 31
0.0
  0
LINE
  5
33F
330
17
100
AcDbEntity
  8
4
100
AcDbLine
 10
166.1009908545128
 20
194.0835307363679
 30
0.0
 11
160.6009908545128
 21
189.0835307363679
 31
0.0
  0
LINE
  5
340
330
17
100
AcDbEntity
  8
4
100
AcDbLine
 10
160.6009908545128
 20
179.0835307363679
 30
0.0
 11
159.6009908545128
 21
179.0835307363679
 31
0.0
  0
LINE
  5
341
330
17
100
AcDbEntity
  8
4
100
AcDbLine
 10
167.1009908545128
 20
234.0835307363679
 30
0.0
 11
175.6009908545127
 21
234.0835307363679
 31
0.0
  0
ARC
  5
342
330
17
100
AcDbEntity
  8
4
100
AcDbCircle
 10
167.1009908545128
 20
233.0835307363679
 30
0.0
 40
1.0
100
AcDbArc
 50
90.0
 51
180.0
  0
LINE
  5
343
330
17
100
AcDbEntity
  8
4
100
AcDbLine
 10
175.6009908545127
 20
234.0835307363679
 30
0.0
 11
177.6009908545127
 21
234.0835307363679
 31
0.0
  0
ARC
  5
344
330
17
100
AcDbEntity
  8
4
100
AcDbCircle
 10
178.6009908545127
 20
234.3962747363678
 30
0.0
 40
0.9999819999999999
100
AcDbArc
 50
94.71427899998928
 51
180.0
  0
LINE
  5
345
330
17
100
AcDbEntity
  8
4
100
AcDbLine
 10
233.6009908545127
 20
238.0835307363679
 30
0.0
 11
205.6009908545127
 21
238.0835307363679
 31
0.0
  0
LINE
  5
346
330
17
100
AcDbEntity
  8
4
100
AcDbLine
 10
232.100776854513
 20
241.5835307363679
 30
0.0
 11
207.100776854513
 21
241.5835307363679
 31
0.0
  0
LINE
  5
347
330
17
100
AcDbEntity
  8
4
100
AcDbLine
 10
232.100776854513
 20
239.5835307363679
 30
0.0
 11
207.100776854513
 21
239.5835307363679
 31
0.0
  0
LINE
  5
348
330
17
100
AcDbEntity
  8
4
100
AcDbLine
 10
205.6009908545127
 20
237.0835307363679
 30
0.0
 11
205.6009908545127
 21
238.0835307363679
 31
0.0
  0
LINE
  5
349
330
17
100
AcDbEntity
  8
4
100
AcDbLine
 10
208.100776854513
 20
238.0835307363679
 30
0.0
 11
208.100776854513
 21
239.5835307363679
 31
0.0
  0
LINE
  5
34A
330
17
100
AcDbEntity
  8
4
100
AcDbLine
 10
207.100776854513
 20
239.5835307363679
 30
0.0
 11
207.100776854513
 21
241.5835307363679
 31
0.0
  0
LINE
  5
34B
330
17
100
AcDbEntity
  8
4
100
AcDbLine
 10
230.4259728545128
 20
241.5835307363679
 30
0.0
 11
230.4259728545128
 21
245.5835307363679
 31
0.0
  0
LINE
  5
34C
330
17
100
AcDbEntity
  8
4
100
AcDbLine
 10
208.7753388545127
 20
241.5835307363679
 30
0.0
 11
208.7753388545127
 21
245.5835307363679
 31
0.0
  0
LINE
  5
34D
330
17
100
AcDbEntity
  8
4
100
AcDbLine
 10
231.100776854513
 20
238.0835307363679
 30
0.0
 11
231.100776854513
 21
239.5835307363679
 31
0.0
  0
LINE
  5
34E
330
17
100
AcDbEntity
  8
4
100
AcDbLine
 10
232.100776854513
 20
239.5835307363679
 30
0.0
 11
232.100776854513
 21
241.5835307363679
 31
0.0
  0
LINE
  5
34F
330
17
100
AcDbEntity
  8
4
100
AcDbLine
 10
233.6009908545127
 20
237.0835307363679
 30
0.0
 11
233.6009908545127
 21
238.0835307363679
 31
0.0
  0
LINE
  5
350
330
17
100
AcDbEntity
  8
4
100
AcDbLine
 10
230.4259728545128
 20
245.5835307363679
 30
0.0
 11
208.7753388545127
 21
245.5835307363679
 31
0.0
  0
LINE
  5
351
330
17
100
AcDbEntity
  8
4
100
AcDbLine
 10
271.600776854513
 20
233.0835307363679
 30
0.0
 11
271.600776854513
 21
160.0832867363681
 31
0.0
  0
LINE
  5
352
330
17
100
AcDbEntity
  8
4
100
AcDbLine
 10
261.600776854513
 20
234.3962747363678
 30
0.0
 11
261.600776854513
 21
160.0832867363681
 31
0.0
  0
LINE
  5
353
330
17
100
AcDbEntity
  8
4
100
AcDbLine
 10
278.600776854513
 20
189.0835307363679
 30
0.0
 11
278.600776854513
 21
160.0832867363681
 31
0.0
  0
LINE
  5
354
330
17
100
AcDbEntity
  8
4
100
AcDbLine
 10
271.600776854513
 20
196.0835307363679
 30
0.0
 11
278.600776854513
 21
189.0835307363679
 31
0.0
  0
ARC
  5
355
330
17
100
AcDbEntity
  8
4
100
AcDbCircle
 10
260.600776854513
 20
234.3962747363678
 30
0.0
 40
0.999986
100
AcDbArc
 50
0.0
 51
85.28052500000088
  0
ARC
  5
356
330
17
100
AcDbEntity
  8
4
100
AcDbCircle
 10
270.600776854513
 20
233.0835307363679
 30
0.0
 40
1.0
100
AcDbArc
 50
0.0
 51
90.0
  0
LINE
  5
357
330
17
100
AcDbEntity
  8
4
100
AcDbLine
 10
270.600776854513
 20
234.0835307363679
 30
0.0
 11
261.600776854513
 21
234.0835307363679
 31
0.0
  0
LINE
  5
35A
330
17
100
AcDbEntity
  8
4
100
AcDbLine
 10
302.600776854513
 20
140.0832867363681
 30
0.0
 11
329.6007768545128
 21
140.0832867363681
 31
0.0
  0
LINE
  5
35C
330
17
100
AcDbEntity
  8
4
100
AcDbLine
 10
290.600776854513
 20
151.0832867363681
 30
0.0
 11
289.600776854513
 21
151.0832867363681
 31
0.0
  0
LINE
  5
361
330
17
100
AcDbEntity
  8
4
100
AcDbLine
 10
493.2112557304655
 20
140.0832867363681
 30
0.0
 11
491.3797137304654
 21
140.0832867363681
 31
0.0
  0
ARC
  5
362
330
17
100
AcDbEntity
  8
4
100
AcDbCircle
 10
493.2112557304655
 20
141.0832867363681
 30
0.0
 40
0.9999979999999999
100
AcDbArc
 50
270.0
 51
356.2064029999986
  0
LINE
  5
363
330
17
100
AcDbEntity
  8
4
100
AcDbLine
 10
499.0657477304654
 20
158.180942736368
 30
0.0
 11
495.7823017304655
 21
154.8972507363681
 31
0.0
  0
LINE
  5
364
330
17
100
AcDbEntity
  8
4
100
AcDbLine
 10
496.7039317304653
 20
154.4050647363681
 30
0.0
 11
499.5581797304654
 21
157.2593127363677
 31
0.0
  0
LINE
  5
365
330
17
100
AcDbEntity
  8
4
100
AcDbLine
 10
525.3797137304654
 20
140.0832867363681
 30
0.0
 11
520.3797137304654
 21
140.0832867363681
 31
0.0
  0
ARC
  5
366
330
17
100
AcDbEntity
  8
4
100
AcDbCircle
 10
472.8797137304654
 20
154.0832867363681
 30
0.0
 40
200.000082
100
AcDbArc
 50
351.751144
 51
8.250409000000056
  0
ARC
  5
367
330
17
100
AcDbEntity
  8
4
100
AcDbCircle
 10
477.3797137304654
 20
154.0832867363681
 30
0.0
 40
200.000008
100
AcDbArc
 50
350.5928120000001
 51
9.408602999999975
  0
ARC
  5
368
330
17
100
AcDbEntity
  8
4
100
AcDbCircle
 10
802.8797137304651
 20
154.0835307363679
 30
0.0
 40
200.000032
100
AcDbArc
 50
171.750788
 51
188.2508339999999
  0
ARC
  5
369
330
17
100
AcDbEntity
  8
4
100
AcDbCircle
 10
798.3797137304651
 20
154.0835307363679
 30
0.0
 40
199.999906
100
AcDbArc
 50
170.592525
 51
189.408821
  0
LINE
  5
36A
330
17
100
AcDbEntity
  8
L-CENTER
 48
0.5
100
AcDbLine
 10
637.8797137304651
 20
14.10142210803127
 30
0.0
 11
637.8797137304651
 21
248.6246542870071
 31
0.0
  0
CIRCLE
  5
36B
330
17
100
AcDbEntity
  8
4
100
AcDbCircle
 10
637.8797137304651
 20
154.0832867363681
 30
0.0
 40
65.0
  0
CIRCLE
  5
36C
330
17
100
AcDbEntity
  8
4
100
AcDbCircle
 10
637.8797137304651
 20
154.0832867363681
 30
0.0
 40
80.0
  0
ARC
  5
36D
330
17
100
AcDbEntity
  8
4
100
AcDbCircle
 10
956.8797137304654
 20
154.0837747363678
 30
0.0
 40
400.0
100
AcDbArc
 50
180.0003849998515
 51
190.679602
  0
ARC
  5
36E
330
17
100
AcDbEntity
  8
4
100
AcDbCircle
 10
401.8797137304654
 20
131.0832867363681
 30
0.0
 40
149.999914
100
AcDbArc
 50
350.866116
 51
9.135203000000018
  0
ARC
  5
36F
330
17
100
AcDbEntity
  8
4
100
AcDbCircle
 10
400.8797137304654
 20
131.0832867363681
 30
0.0
 40
149.999982
100
AcDbArc
 50
351.056579
 51
8.944925000000017
  0
ARC
  5
370
330
17
100
AcDbEntity
  8
4
100
AcDbCircle
 10
318.8797137304656
 20
154.0832867363681
 30
0.0
 40
399.999978
100
AcDbArc
 50
349.3223189999999
 51
0.0
  0
ARC
  5
373
330
17
100
AcDbEntity
  8
4
100
AcDbCircle
 10
637.8797137304651
 20
319.0832867363681
 30
0.0
 40
200.000016
100
AcDbArc
 50
261.750857
 51
278.251329
  0
ARC
  5
374
330
17
100
AcDbEntity
  8
4
100
AcDbCircle
 10
637.8797137304651
 20
314.5832867363681
 30
0.0
 40
199.999986
100
AcDbArc
 50
260.592743
 51
279.409315
  0
LINE
  5
375
330
17
100
AcDbEntity
  8
L-CENTER
 48
0.5
100
AcDbLine
 10
654.1178879268376
 20
33.08328673636811
 30
0.0
 11
621.6415395340929
 21
33.08328673636811
 31
0.0
  0
CIRCLE
  5
376
330
17
100
AcDbEntity
  8
4
100
AcDbCircle
 10
637.8797137304651
 20
33.08328673636811
 30
0.0
 40
6.0
  0
CIRCLE
  5
377
330
17
100
AcDbEntity
  8
2
100
AcDbCircle
 10
637.8797137304651
 20
33.08328673636811
 30
0.0
 40
5.0
  0
ARC
  5
378
330
17
100
AcDbEntity
  8
4
100
AcDbCircle
 10
637.8797137304651
 20
33.08328673636811
 30
0.0
 40
12.0
100
AcDbArc
 50
0.0
 51
180.0010930000082
  0
ARC
  5
379
330
17
100
AcDbEntity
  8
4
100
AcDbCircle
 10
637.8797137304651
 20
573.083530736368
 30
0.0
 40
500.000056
100
AcDbArc
 50
261.675813
 51
278.3263359999999
  0
LINE
  5
37A
330
17
100
AcDbEntity
  8
4
100
AcDbLine
 10
669.8797137304651
 20
19.08328673636811
 30
0.0
 11
545.8797137304654
 21
19.08328673636811
 31
0.0
  0
LINE
  5
37B
330
17
100
AcDbEntity
  8
2
100
AcDbLine
 10
641.2098397304654
 20
35.00593673636808
 30
0.0
 11
637.8797137304651
 21
36.92858673636806
 31
0.0
  0
LINE
  5
37C
330
17
100
AcDbEntity
  8
2
100
AcDbLine
 10
637.8797137304651
 20
29.2379867363677
 30
0.0
 11
641.2098397304654
 21
31.16063673636813
 31
0.0
  0
LINE
  5
37D
330
17
100
AcDbEntity
  8
4
100
AcDbLine
 10
543.8797137304654
 20
103.5608247363677
 30
0.0
 11
543.8797137304654
 21
34.84329673636807
 31
0.0
  0
LINE
  5
37E
330
17
100
AcDbEntity
  8
4
100
AcDbLine
 10
542.8797137304654
 20
26.08328673636811
 30
0.0
 11
542.8797137304654
 21
11.08328673636811
 31
0.0
  0
ARC
  5
37F
330
17
100
AcDbEntity
  8
4
100
AcDbCircle
 10
545.8797137304654
 20
16.08328673636811
 30
0.0
 40
3.0
100
AcDbArc
 50
90.0
 51
180.000858999821
  0
LINE
  5
380
330
17
100
AcDbEntity
  8
4
100
AcDbLine
 10
546.6946557304653
 20
103.9861187363679
 30
0.0
 11
549.9773697304655
 21
107.2688327363678
 31
0.0
  0
LINE
  5
381
330
17
100
AcDbEntity
  8
4
100
AcDbLine
 10
549.0554957304654
 20
107.761020736368
 30
0.0
 11
546.2022237304653
 21
104.9077487363677
 31
0.0
  0
ARC
  5
382
330
17
100
AcDbEntity
  8
4
100
AcDbCircle
 10
565.7727797304652
 20
80.33133273636781
 30
0.0
 40
2.000044
100
AcDbArc
 50
190.6858030000004
 51
261.6760320000043
  0
LINE
  5
383
330
17
100
AcDbEntity
  8
4
100
AcDbLine
 10
597.8797137304654
 20
71.92459473636814
 30
0.0
 11
597.8797137304654
 21
29.08328673636811
 31
0.0
  0
ARC
  5
384
330
17
100
AcDbEntity
  8
4
100
AcDbCircle
 10
594.8797137304654
 20
29.08328673636811
 30
0.0
 40
3.0
100
AcDbArc
 50
270.0
 51
0.0
  0
LINE
  5
385
330
17
100
AcDbEntity
  8
2
100
AcDbLine
 10
634.5495857304653
 20
35.00593673636808
 30
0.0
 11
634.5495857304653
 21
31.16063673636813
 31
0.0
  0
LINE
  5
386
330
17
100
AcDbEntity
  8
4
100
AcDbLine
 10
625.8797137304654
 20
19.08328673636811
 30
0.0
 11
625.8797137304654
 21
33.08328673636811
 31
0.0
  0
LINE
  5
387
330
17
100
AcDbEntity
  8
2
100
AcDbLine
 10
634.5495857304653
 20
31.16063673636813
 30
0.0
 11
637.8797137304651
 21
29.2379867363677
 31
0.0
  0
LINE
  5
388
330
17
100
AcDbEntity
  8
2
100
AcDbLine
 10
637.8797137304651
 20
36.92858673636806
 30
0.0
 11
634.5495857304653
 21
35.00593673636808
 31
0.0
  0
ARC
  5
389
330
17
100
AcDbEntity
  8
4
100
AcDbCircle
 10
594.8797137304654
 20
71.92459473636814
 30
0.0
 40
2.999994
100
AcDbArc
 50
0.0
 51
85.0981139999996
  0
ARC
  5
38A
330
17
100
AcDbEntity
  8
4
100
AcDbCircle
 10
609.8977797304652
 20
126.1013527363677
 30
0.0
 40
4.999994
100
AcDbArc
 50
188.2507830000008
 51
261.7492170000017
  0
ARC
  5
38B
330
17
100
AcDbEntity
  8
4
100
AcDbCircle
 10
606.0027597304653
 20
122.2063327363678
 30
0.0
 40
4.999982
100
AcDbArc
 50
189.4089719999998
 51
260.5942550000009
  0
LINE
  5
38C
330
17
100
AcDbEntity
  8
4
100
AcDbLine
 10
672.8797137304651
 20
11.08328673636811
 30
0.0
 11
722.8797137304651
 21
11.08328673636811
 31
0.0
  0
LINE
  5
38D
330
17
100
AcDbEntity
  8
4
100
AcDbLine
 10
721.8797137304651
 20
26.08328673636811
 30
0.0
 11
672.8797137304651
 21
26.08328673636811
 31
0.0
  0
LINE
  5
38E
330
17
100
AcDbEntity
  8
4
100
AcDbLine
 10
677.8797137304651
 20
29.08328673636811
 30
0.0
 11
677.8797137304651
 21
71.92459473636814
 31
0.0
  0
LINE
  5
38F
330
17
100
AcDbEntity
  8
2
100
AcDbLine
 10
641.2098397304654
 20
31.16063673636813
 30
0.0
 11
641.2098397304654
 21
35.00593673636808
 31
0.0
  0
LINE
  5
390
330
17
100
AcDbEntity
  8
4
100
AcDbLine
 10
649.8797137304651
 20
19.08328673636811
 30
0.0
 11
649.8797137304651
 21
33.08328673636811
 31
0.0
  0
ARC
  5
391
330
17
100
AcDbEntity
  8
4
100
AcDbCircle
 10
680.8797137304651
 20
29.08328673636811
 30
0.0
 40
3.0
100
AcDbArc
 50
180.000858999821
 51
270.0
  0
ARC
  5
392
330
17
100
AcDbEntity
  8
4
100
AcDbCircle
 10
669.8797137304651
 20
16.08328673636811
 30
0.0
 40
3.0
100
AcDbArc
 50
0.0
 51
90.0
  0
LINE
  5
393
330
17
100
AcDbEntity
  8
4
100
AcDbLine
 10
672.8797137304651
 20
26.08328673636811
 30
0.0
 11
672.8797137304651
 21
11.08328673636811
 31
0.0
  0
ARC
  5
394
330
17
100
AcDbEntity
  8
4
100
AcDbCircle
 10
680.8797137304651
 20
71.92459473636814
 30
0.0
 40
2.999994
100
AcDbArc
 50
94.90186699999964
 51
180.0
  0
ARC
  5
395
330
17
100
AcDbEntity
  8
4
100
AcDbCircle
 10
665.8616477304655
 20
126.1013527363677
 30
0.0
 40
4.999994
100
AcDbArc
 50
278.2507719999991
 51
351.7492169999992
  0
ARC
  5
396
330
17
100
AcDbEntity
  8
4
100
AcDbCircle
 10
669.7566657304652
 20
122.2063327363678
 30
0.0
 40
5.000004
100
AcDbArc
 50
279.408972000001
 51
350.5914870000003
  0
LINE
  5
397
330
17
100
AcDbEntity
  8
4
100
AcDbLine
 10
721.8797137304651
 20
54.58328673636811
 30
0.0
 11
721.8797137304651
 21
101.5832867363681
 31
0.0
  0
LINE
  5
398
330
17
100
AcDbEntity
  8
4
100
AcDbLine
 10
720.8797137304651
 20
37.08328673636811
 30
0.0
 11
720.8797137304651
 21
119.0832867363681
 31
0.0
  0
LINE
  5
399
330
17
100
AcDbEntity
  8
4
100
AcDbLine
 10
716.8797137304651
 20
114.1333347363677
 30
0.0
 11
716.8797137304651
 21
26.08328673636811
 31
0.0
  0
ARC
  5
39A
330
17
100
AcDbEntity
  8
4
100
AcDbCircle
 10
717.8797137304651
 20
36.08328673636811
 30
0.0
 40
1.0
100
AcDbArc
 50
90.0
 51
180.0
  0
LINE
  5
39B
330
17
100
AcDbEntity
  8
L-CENTER
 48
0.5
100
AcDbLine
 10
702.8797137304651
 20
33.08328673636811
 30
0.0
 11
702.8797137304651
 21
4.083286736368109
 31
0.0
  0
LINE
  5
39C
330
17
100
AcDbEntity
  8
4
100
AcDbLine
 10
692.8797137304651
 20
26.08328673636811
 30
0.0
 11
692.8797137304651
 21
11.08328673636811
 31
0.0
  0
LINE
  5
39D
330
17
100
AcDbEntity
  8
4
100
AcDbLine
 10
722.8797137304651
 20
25.08328673636811
 30
0.0
 11
722.8797137304651
 21
11.08328673636811
 31
0.0
  0
ARC
  5
39E
330
17
100
AcDbEntity
  8
4
100
AcDbCircle
 10
721.8797137304651
 20
25.08328673636811
 30
0.0
 40
1.0
100
AcDbArc
 50
0.0
 51
90.0
  0
LINE
  5
3A0
330
17
100
AcDbEntity
  8
4
100
AcDbLine
 10
720.8797137304651
 20
54.58328673636811
 30
0.0
 11
721.8797137304651
 21
54.58328673636811
 31
0.0
  0
LINE
  5
3A1
330
17
100
AcDbEntity
  8
4
100
AcDbLine
 10
717.8797137304651
 20
37.08328673636811
 30
0.0
 11
720.8797137304651
 21
37.08328673636811
 31
0.0
  0
ARC
  5
3A2
330
17
100
AcDbEntity
  8
4
100
AcDbCircle
 10
718.4356217304654
 20
120.0832867363681
 30
0.0
 40
0.999966
100
AcDbArc
 50
175.1399229999991
 51
270.0
  0
ARC
  5
3A3
330
17
100
AcDbEntity
  8
4
100
AcDbCircle
 10
709.9866477304655
 20
80.33133273636781
 30
0.0
 40
2.000022
100
AcDbArc
 50
278.3239679999996
 51
349.3210660000009
  0
LINE
  5
3A4
330
17
100
AcDbEntity
  8
4
100
AcDbLine
 10
720.8797137304651
 20
101.5832867363681
 30
0.0
 11
721.8797137304651
 21
101.5832867363681
 31
0.0
  0
LINE
  5
3A5
330
17
100
AcDbEntity
  8
4
100
AcDbLine
 10
718.4356217304654
 20
119.0832867363681
 30
0.0
 11
720.8797137304651
 21
119.0832867363681
 31
0.0
  0
LINE
  5
3A9
330
17
100
AcDbEntity
  8
L-CENTER
 48
0.5
100
AcDbLine
 10
724.9504876376342
 20
154.0832867363681
 30
0.0
 11
550.8089398232961
 21
154.0832867363681
 31
0.0
  0
LINE
  5
3AA
330
17
100
AcDbEntity
  8
4
100
AcDbLine
 10
650.3797137304651
 20
241.5832867363681
 30
0.0
 11
625.3797137304654
 21
241.5832867363681
 31
0.0
  0
LINE
  5
3AB
330
17
100
AcDbEntity
  8
4
100
AcDbLine
 10
650.3797137304651
 20
245.5832867363681
 30
0.0
 11
625.3797137304654
 21
245.5832867363681
 31
0.0
  0
LINE
  5
3AC
330
17
100
AcDbEntity
  8
4
100
AcDbLine
 10
650.3797137304651
 20
239.5832867363681
 30
0.0
 11
625.3797137304654
 21
239.5832867363681
 31
0.0
  0
LINE
  5
3AD
330
17
100
AcDbEntity
  8
4
100
AcDbLine
 10
623.8797137304654
 20
238.0832867363681
 30
0.0
 11
651.8797137304651
 21
238.0832867363681
 31
0.0
  0
LINE
  5
3AE
330
17
100
AcDbEntity
  8
4
100
AcDbLine
 10
635.8797137304651
 20
212.0832867363681
 30
0.0
 11
646.8797137304651
 21
212.0832867363681
 31
0.0
  0
ARC
  5
3AF
330
17
100
AcDbEntity
  8
4
100
AcDbCircle
 10
637.8799577304654
 20
-262.9167132636319
 30
0.0
 40
500.00001
100
AcDbArc
 50
81.720766
 51
98.279562
  0
ARC
  5
3B0
330
17
100
AcDbEntity
  8
4
100
AcDbCircle
 10
637.8797137304651
 20
-10.91671326363189
 30
0.0
 40
200.000034
100
AcDbArc
 50
81.750016
 51
98.25055699999996
  0
LINE
  5
3B1
330
17
100
AcDbEntity
  8
4
100
AcDbLine
 10
665.8797137304651
 20
192.0832867363681
 30
0.0
 11
609.8797137304654
 21
192.0832867363681
 31
0.0
  0
LINE
  5
3B2
330
17
100
AcDbEntity
  8
4
100
AcDbLine
 10
637.8797137304651
 20
210.0832867363681
 30
0.0
 11
646.8797137304651
 21
210.0832867363681
 31
0.0
  0
LINE
  5
3B3
330
17
100
AcDbEntity
  8
4
100
AcDbLine
 10
637.8797137304651
 20
198.0832867363681
 30
0.0
 11
646.8797137304651
 21
198.0832867363681
 31
0.0
  0
LINE
  5
3B4
330
17
100
AcDbEntity
  8
4
100
AcDbLine
 10
637.8797137304651
 20
196.0832867363681
 30
0.0
 11
646.8797137304651
 21
196.0832867363681
 31
0.0
  0
LINE
  5
3B5
330
17
100
AcDbEntity
  8
4
100
AcDbLine
 10
646.8797137304651
 20
203.0832867363681
 30
0.0
 11
637.8797137304651
 21
203.0832867363681
 31
0.0
  0
LINE
  5
3B6
330
17
100
AcDbEntity
  8
4
100
AcDbLine
 10
646.8797137304651
 20
205.0832867363681
 30
0.0
 11
637.8797137304651
 21
205.0832867363681
 31
0.0
  0
LINE
  5
3B7
330
17
100
AcDbEntity
  8
4
100
AcDbLine
 10
600.9563737304653
 20
186.0832867363681
 30
0.0
 11
581.3023217304655
 21
186.0832867363681
 31
0.0
  0
ARC
  5
3B8
330
17
100
AcDbEntity
  8
4
100
AcDbCircle
 10
956.8797137304654
 20
154.082798736368
 30
0.0
 40
399.999968
100
AcDbArc
 50
169.01935
 51
180.0002449988236
  0
LINE
  5
3B9
330
17
100
AcDbEntity
  8
4
100
AcDbLine
 10
546.6941657304652
 20
158.1806987363677
 30
0.0
 11
549.9773697304655
 21
154.8974947363679
 31
0.0
  0
LINE
  5
3BA
330
17
100
AcDbEntity
  8
4
100
AcDbLine
 10
549.0554957304654
 20
154.4053087363679
 30
0.0
 11
546.2014917304654
 21
157.2593127363677
 31
0.0
  0
ARC
  5
3BB
330
17
100
AcDbEntity
  8
4
100
AcDbCircle
 10
552.0291277304653
 20
165.0832867363681
 30
0.0
 40
4.999942
100
AcDbArc
 50
270.0
 51
358.4470810000001
  0
ARC
  5
3BC
330
17
100
AcDbEntity
  8
4
100
AcDbCircle
 10
566.1663337304655
 20
229.892856736368
 30
0.0
 40
2.00004
100
AcDbArc
 50
98.28143200000189
 51
169.0220200000004
  0
LINE
  5
3BD
330
17
100
AcDbEntity
  8
4
100
AcDbLine
 10
635.8797137304651
 20
212.0832867363681
 30
0.0
 11
635.8797137304651
 21
196.0832867363681
 31
0.0
  0
LINE
  5
3BE
330
17
100
AcDbEntity
  8
4
100
AcDbLine
 10
637.8797137304651
 20
212.0832867363681
 30
0.0
 11
637.8797137304651
 21
196.0832867363681
 31
0.0
  0
LINE
  5
3BF
330
17
100
AcDbEntity
  8
4
100
AcDbLine
 10
616.8797137304654
 20
212.0832867363681
 30
0.0
 11
616.8797137304654
 21
196.0832867363681
 31
0.0
  0
LINE
  5
3C0
330
17
100
AcDbEntity
  8
4
100
AcDbLine
 10
618.8797137304654
 20
198.0832867363681
 30
0.0
 11
618.8797137304654
 21
212.0832867363681
 31
0.0
  0
LINE
  5
3C1
330
17
100
AcDbEntity
  8
4
100
AcDbLine
 10
609.8797137304654
 20
192.4802587363681
 30
0.0
 11
609.8797137304654
 21
212.743442736368
 31
0.0
  0
ARC
  5
3C2
330
17
100
AcDbEntity
  8
4
100
AcDbCircle
 10
637.8797137304651
 20
-6.416713263631891
 30
0.0
 40
200.000048
100
AcDbArc
 50
98.29606599999991
 51
99.40853299999998
  0
ARC
  5
3C3
330
17
100
AcDbEntity
  8
4
100
AcDbCircle
 10
606.0027597304653
 20
185.9602387363677
 30
0.0
 40
5.000004
100
AcDbArc
 50
99.40897000000011
 51
170.5914860000003
  0
ARC
  5
3C4
330
17
100
AcDbEntity
  8
4
100
AcDbCircle
 10
608.8797137304654
 20
192.4802587363681
 30
0.0
 40
0.999984
100
AcDbArc
 50
278.2962729999954
 51
0.0
  0
ARC
  5
3C5
330
17
100
AcDbEntity
  8
4
100
AcDbCircle
 10
609.8977797304652
 20
182.065220736368
 30
0.0
 40
4.999994
100
AcDbArc
 50
98.25078299999821
 51
171.7492279999995
  0
LINE
  5
3C6
330
17
100
AcDbEntity
  8
4
100
AcDbLine
 10
616.8797137304654
 20
196.0832867363681
 30
0.0
 11
627.8797137304654
 21
196.0832867363681
 31
0.0
  0
LINE
  5
3C7
330
17
100
AcDbEntity
  8
4
100
AcDbLine
 10
618.8797137304654
 20
198.0832867363681
 30
0.0
 11
627.8797137304654
 21
198.0832867363681
 31
0.0
  0
LINE
  5
3C8
330
17
100
AcDbEntity
  8
4
100
AcDbLine
 10
635.8797137304651
 20
196.0832867363681
 30
0.0
 11
637.8797137304651
 21
196.0832867363681
 31
0.0
  0
LINE
  5
3C9
330
17
100
AcDbEntity
  8
4
100
AcDbLine
 10
627.8797137304654
 20
198.0832867363681
 30
0.0
 11
627.8797137304654
 21
196.0832867363681
 31
0.0
  0
LINE
  5
3CA
330
17
100
AcDbEntity
  8
4
100
AcDbLine
 10
631.9424577304654
 20
241.5832867363681
 30
0.0
 11
631.9424577304654
 21
245.5832867363681
 31
0.0
  0
LINE
  5
3CB
330
17
100
AcDbEntity
  8
4
100
AcDbLine
 10
625.3797137304654
 20
239.5832867363681
 30
0.0
 11
625.3797137304654
 21
245.5832867363681
 31
0.0
  0
LINE
  5
3CC
330
17
100
AcDbEntity
  8
4
100
AcDbLine
 10
623.8797137304654
 20
238.0832867363681
 30
0.0
 11
623.8797137304654
 21
236.8872407363681
 31
0.0
  0
LINE
  5
3CD
330
17
100
AcDbEntity
  8
4
100
AcDbLine
 10
616.8797137304654
 20
212.0832867363681
 30
0.0
 11
618.8797137304654
 21
212.0832867363681
 31
0.0
  0
LINE
  5
3CE
330
17
100
AcDbEntity
  8
4
100
AcDbLine
 10
626.3797137304654
 20
238.0832867363681
 30
0.0
 11
626.3797137304654
 21
239.5832867363681
 31
0.0
  0
LINE
  5
3CF
330
17
100
AcDbEntity
  8
4
100
AcDbLine
 10
674.8030537304654
 20
186.0832867363681
 30
0.0
 11
694.4571057304653
 21
186.0832867363681
 31
0.0
  0
LINE
  5
3D0
330
17
100
AcDbEntity
  8
4
100
AcDbLine
 10
665.8797137304651
 20
192.4802587363681
 30
0.0
 11
665.8797137304651
 21
212.743442736368
 31
0.0
  0
LINE
  5
3D1
330
17
100
AcDbEntity
  8
4
100
AcDbLine
 10
658.8797137304651
 20
212.0832867363681
 30
0.0
 11
658.8797137304651
 21
196.0832867363681
 31
0.0
  0
LINE
  5
3D2
330
17
100
AcDbEntity
  8
4
100
AcDbLine
 10
656.8797137304651
 20
210.0832867363681
 30
0.0
 11
656.8797137304651
 21
196.0832867363681
 31
0.0
  0
LINE
  5
3D3
330
17
100
AcDbEntity
  8
4
100
AcDbLine
 10
646.8797137304651
 20
198.0832867363681
 30
0.0
 11
646.8797137304651
 21
196.0832867363681
 31
0.0
  0
LINE
  5
3D4
330
17
100
AcDbEntity
  8
4
100
AcDbLine
 10
646.8797137304651
 20
205.0832867363681
 30
0.0
 11
646.8797137304651
 21
203.0832867363681
 31
0.0
  0
LINE
  5
3D5
330
17
100
AcDbEntity
  8
4
100
AcDbLine
 10
656.8797137304651
 20
196.0832867363681
 30
0.0
 11
658.8797137304651
 21
196.0832867363681
 31
0.0
  0
ARC
  5
3D6
330
17
100
AcDbEntity
  8
4
100
AcDbCircle
 10
669.7566657304652
 20
185.9602387363677
 30
0.0
 40
5.000004
100
AcDbArc
 50
9.408970000000123
 51
80.59148700000014
  0
ARC
  5
3D7
330
17
100
AcDbEntity
  8
4
100
AcDbCircle
 10
637.8797137304651
 20
-6.416713263631891
 30
0.0
 40
199.999958
100
AcDbArc
 50
80.591892
 51
81.70477399999997
  0
ARC
  5
3D8
330
17
100
AcDbEntity
  8
4
100
AcDbCircle
 10
666.8797137304651
 20
192.4802587363681
 30
0.0
 40
0.999984
100
AcDbArc
 50
180.0
 51
261.7037270000046
  0
ARC
  5
3D9
330
17
100
AcDbEntity
  8
4
100
AcDbCircle
 10
665.8616477304655
 20
182.065220736368
 30
0.0
 40
4.999994
100
AcDbArc
 50
8.25077200000045
 51
81.74922800000093
  0
LINE
  5
3DA
330
17
100
AcDbEntity
  8
4
100
AcDbLine
 10
643.8169697304653
 20
241.5832867363681
 30
0.0
 11
643.8169697304653
 21
245.5832867363681
 31
0.0
  0
LINE
  5
3DB
330
17
100
AcDbEntity
  8
4
100
AcDbLine
 10
650.3797137304651
 20
239.5832867363681
 30
0.0
 11
650.3797137304651
 21
245.5832867363681
 31
0.0
  0
LINE
  5
3DC
330
17
100
AcDbEntity
  8
4
100
AcDbLine
 10
649.3797137304651
 20
238.0832867363681
 30
0.0
 11
649.3797137304651
 21
239.5832867363681
 31
0.0
  0
LINE
  5
3DD
330
17
100
AcDbEntity
  8
4
100
AcDbLine
 10
651.8797137304651
 20
236.8872407363681
 30
0.0
 11
651.8797137304651
 21
238.0832867363681
 31
0.0
  0
LINE
  5
3DE
330
17
100
AcDbEntity
  8
4
100
AcDbLine
 10
646.8797137304651
 20
212.0832867363681
 30
0.0
 11
646.8797137304651
 21
210.0832867363681
 31
0.0
  0
LINE
  5
3DF
330
17
100
AcDbEntity
  8
4
100
AcDbLine
 10
658.8797137304651
 20
212.0832867363681
 30
0.0
 11
656.8797137304651
 21
212.0832867363681
 31
0.0
  0
LINE
  5
3E0
330
17
100
AcDbEntity
  8
4
100
AcDbLine
 10
656.8797137304651
 20
212.0832867363681
 30
0.0
 11
654.8797137304651
 21
210.0832867363681
 31
0.0
  0
LINE
  5
3E1
330
17
100
AcDbEntity
  8
4
100
AcDbLine
 10
656.8797137304651
 20
210.0832867363681
 30
0.0
 11
654.8797137304651
 21
210.0832867363681
 31
0.0
  0
ARC
  5
3E2
330
17
100
AcDbEntity
  8
4
100
AcDbCircle
 10
318.8797137304656
 20
154.0832867363681
 30
0.0
 40
400.000048
100
AcDbArc
 50
0.0
 51
10.98058099999999
  0
ARC
  5
3E3
330
17
100
AcDbEntity
  8
4
100
AcDbCircle
 10
709.5930917304655
 20
229.892856736368
 30
0.0
 40
2.00004
100
AcDbArc
 50
10.97797400000177
 51
81.7185680000048
  0
CIRCLE
  5
3E4
330
17
100
AcDbEntity
  8
4
100
AcDbCircle
 10
219.6009908545127
 20
78.08328673636811
 30
0.0
 40
20.0
  0
LINE
  5
3E5
330
17
100
AcDbEntity
  8
4
100
AcDbLine
 10
468.8798117304653
 20
98.08328673636811
 30
0.0
 11
469.8798117304653
 21
98.08328673636811
 31
0.0
  0
LINE
  5
3E6
330
17
100
AcDbEntity
  8
4
100
AcDbLine
 10
468.8798117304653
 20
58.08328673636811
 30
0.0
 11
469.8798117304653
 21
58.08328673636811
 31
0.0
  0
LINE
  5
3E7
330
17
100
AcDbEntity
  8
4
100
AcDbLine
 10
468.8798117304653
 20
58.08328673636811
 30
0.0
 11
468.8798117304653
 21
98.08328673636811
 31
0.0
  0
LINE
  5
3E8
330
17
100
AcDbEntity
  8
4
100
AcDbLine
 10
146.0799304748226
 20
596.9354942279563
 30
0.0
 11
165.7009908545128
 21
585.393694004609
 31
0.0
  0
LINE
  5
3E9
330
17
100
AcDbEntity
  8
4
100
AcDbLine
 10
261.6009908545127
 20
623.8054587104913
 30
0.0
 11
261.6009908545127
 21
427.8054587104913
 31
0.0
  0
LINE
  5
3EA
330
17
100
AcDbEntity
  8
4
100
AcDbLine
 10
271.6009908545127
 20
621.8054587104913
 30
0.0
 11
271.6009908545127
 21
463.8054587104913
 31
0.0
  0
LINE
  5
3EB
330
17
100
AcDbEntity
  8
L-CENTER
 48
0.5
100
AcDbLine
 10
219.6009908545127
 20
369.1304303373007
 30
0.0
 11
219.6009908545127
 21
632.009138843991
 31
0.0
  0
LINE
  5
3EC
330
17
100
AcDbEntity
  8
4
100
AcDbLine
 10
177.6009908545127
 20
623.8054587104913
 30
0.0
 11
177.6009908545127
 21
427.8054587104913
 31
0.0
  0
LINE
  5
3ED
330
17
100
AcDbEntity
  8
4
100
AcDbLine
 10
175.6009908545127
 20
622.8054587104913
 30
0.0
 11
175.6009908545127
 21
462.8054587104913
 31
0.0
  0
LINE
  5
3EE
330
17
100
AcDbEntity
  8
4
100
AcDbLine
 10
271.6009908545127
 20
584.2760469457854
 30
0.0
 11
293.1220512342031
 21
596.9354942279562
 31
0.0
  0
LINE
  5
3EF
330
17
100
AcDbEntity
  8
4
100
AcDbLine
 10
177.6009908545127
 20
623.8054587104913
 30
0.0
 11
261.6009908545127
 21
623.8054587104913
 31
0.0
  0
LINE
  5
3F0
330
17
100
AcDbEntity
  8
4
100
AcDbLine
 10
260.6009908545127
 20
625.8054587104913
 30
0.0
 11
178.6009908545127
 21
625.8054587104913
 31
0.0
  0
LINE
  5
3F1
330
17
100
AcDbEntity
  8
4
100
AcDbLine
 10
147.6009908545128
 20
627.8054587104913
 30
0.0
 11
291.6009908545127
 21
627.8054587104913
 31
0.0
  0
ARC
  5
3F2
330
17
100
AcDbEntity
  8
4
100
AcDbCircle
 10
159.6009908545128
 20
607.8054587104913
 30
0.0
 40
5.5
100
AcDbArc
 50
92.0839423346076
 51
42.9858860801902
  0
LINE
  5
3F3
330
17
100
AcDbEntity
  8
L-CENTER
 48
0.5
100
AcDbLine
 10
149.6009908545128
 20
607.8054587104913
 30
0.0
 11
169.6009908545127
 21
607.8054587104913
 31
0.0
  0
LINE
  5
3F4
330
17
100
AcDbEntity
  8
4
100
AcDbLine
 10
144.6009908545128
 20
624.8054587104913
 30
0.0
 11
144.6009908545128
 21
599.5212968734295
 31
0.0
  0
ARC
  5
3F5
330
17
100
AcDbEntity
  8
4
100
AcDbCircle
 10
147.6009908545128
 20
624.8054587104913
 30
0.0
 40
3.0
100
AcDbArc
 50
90.0
 51
180.0
  0
ARC
  5
3F6
330
17
100
AcDbEntity
  8
4
100
AcDbCircle
 10
147.6009908545128
 20
599.5212968734294
 30
0.0
 40
3.0
100
AcDbArc
 50
180.0
 51
239.5344550805406
  0
LINE
  5
3F7
330
17
100
AcDbEntity
  8
4
100
AcDbLine
 10
177.6009908545127
 20
622.8054587104913
 30
0.0
 11
175.6009908545127
 21
622.8054587104913
 31
0.0
  0
LINE
  5
3F8
330
17
100
AcDbEntity
  8
4
100
AcDbLine
 10
178.6009908545127
 20
623.8054587104913
 30
0.0
 11
178.6009908545127
 21
625.8054587104913
 31
0.0
  0
LINE
  5
3F9
330
17
100
AcDbEntity
  8
L-CENTER
 48
0.5
100
AcDbLine
 10
159.6009908545128
 20
617.8054587104913
 30
0.0
 11
159.6009908545128
 21
597.8054587104913
 31
0.0
  0
LINE
  5
3FA
330
17
100
AcDbEntity
  8
4
100
AcDbLine
 10
261.6009908545127
 20
622.8054587104913
 30
0.0
 11
270.6009908545127
 21
622.8054587104913
 31
0.0
  0
LINE
  5
3FB
330
17
100
AcDbEntity
  8
4
100
AcDbLine
 10
260.6009908545127
 20
623.8054587104913
 30
0.0
 11
260.6009908545127
 21
625.8054587104913
 31
0.0
  0
ARC
  5
3FC
330
17
100
AcDbEntity
  8
4
100
AcDbCircle
 10
270.6009908545127
 20
621.8054587104913
 30
0.0
 40
1.0
100
AcDbArc
 50
0.0
 51
90.0
  0
CIRCLE
  5
3FD
330
17
100
AcDbEntity
  8
4
100
AcDbCircle
 10
279.6009908545127
 20
607.8054587104913
 30
0.0
 40
5.5
  0
LINE
  5
3FE
330
17
100
AcDbEntity
  8
L-CENTER
 48
0.5
100
AcDbLine
 10
279.6009908545127
 20
617.8054587104913
 30
0.0
 11
279.6009908545127
 21
597.8054587104913
 31
0.0
  0
LINE
  5
3FF
330
17
100
AcDbEntity
  8
L-CENTER
 48
0.5
100
AcDbLine
 10
289.6009908545127
 20
607.8054587104913
 30
0.0
 11
269.6009908545127
 21
607.8054587104913
 31
0.0
  0
LINE
  5
400
330
17
100
AcDbEntity
  8
4
100
AcDbLine
 10
294.6009908545127
 20
599.5212968734296
 30
0.0
 11
294.6009908545127
 21
624.8054587104913
 31
0.0
  0
ARC
  5
401
330
17
100
AcDbEntity
  8
4
100
AcDbCircle
 10
291.6009908545127
 20
624.8054587104913
 30
0.0
 40
3.0
100
AcDbArc
 50
0.0
 51
90.0
  0
ARC
  5
402
330
17
100
AcDbEntity
  8
4
100
AcDbCircle
 10
291.6009908545127
 20
599.5212968734296
 30
0.0
 40
3.0
100
AcDbArc
 50
300.4655449194598
 51
0.0
  0
LINE
  5
403
330
17
100
AcDbEntity
  8
4
100
AcDbLine
 10
177.6009908545127
 20
461.8054587104915
 30
0.0
 11
261.6009908545127
 21
461.8054587104915
 31
0.0
  0
LINE
  5
404
330
17
100
AcDbEntity
  8
L-CENTER
 48
0.5
100
AcDbLine
 10
156.9383185994404
 20
542.8054587104913
 30
0.0
 11
352.7097218377515
 21
542.8054587104913
 31
0.0
  0
LINE
  5
405
330
17
100
AcDbEntity
  8
4
100
AcDbLine
 10
280.6009908545125
 20
396.3054587104913
 30
0.0
 11
158.6009908545129
 21
396.3054587104913
 31
0.0
  0
LINE
  5
406
330
17
100
AcDbEntity
  8
4
100
AcDbLine
 10
279.6009908545125
 20
393.8054587104913
 30
0.0
 11
159.6009908545125
 21
393.8054587104913
 31
0.0
  0
LINE
  5
407
330
17
100
AcDbEntity
  8
4
100
AcDbLine
 10
149.6009908545127
 20
398.8054587104913
 30
0.0
 11
289.6009908545127
 21
398.8054587104913
 31
0.0
  0
LINE
  5
408
330
17
100
AcDbEntity
  8
L-CENTER
 48
0.5
100
AcDbLine
 10
333.4196585709869
 20
427.8054587104913
 30
0.0
 11
105.7823231380385
 21
427.8054587104913
 31
0.0
  0
ARC
  5
409
330
17
100
AcDbEntity
  8
4
100
AcDbCircle
 10
158.6009908545125
 20
395.3054587104913
 30
0.0
 40
1.0
100
AcDbArc
 50
0.0
 51
90.0
  0
LINE
  5
40A
330
17
100
AcDbEntity
  8
4
100
AcDbLine
 10
149.6009908545128
 20
456.8054587104913
 30
0.0
 11
174.6009908545127
 21
456.8054587104913
 31
0.0
  0
LINE
  5
40B
330
17
100
AcDbEntity
  8
4
100
AcDbLine
 10
144.6009908545128
 20
419.3054587104913
 30
0.0
 11
144.6009908545127
 21
400.8054587104913
 31
0.0
  0
LINE
  5
40C
330
17
100
AcDbEntity
  8
4
100
AcDbLine
 10
149.6009908545127
 20
398.8054587104913
 30
0.0
 11
149.6009908545128
 21
456.8054587104913
 31
0.0
  0
LINE
  5
40F
330
17
100
AcDbEntity
  8
4
100
AcDbLine
 10
157.6009908545125
 20
397.3054587104913
 30
0.0
 11
157.6009908545125
 21
397.8054587104913
 31
0.0
  0
ARC
  5
410
330
17
100
AcDbEntity
  8
4
100
AcDbCircle
 10
156.600990854513
 20
397.8054587104913
 30
0.0
 40
1.0
100
AcDbArc
 50
0.0
 51
90.0
  0
ARC
  5
411
330
17
100
AcDbEntity
  8
4
100
AcDbCircle
 10
158.6009908545132
 20
397.3054587104913
 30
0.0
 40
1.0
100
AcDbArc
 50
180.0
 51
270.0
  0
ARC
  5
412
330
17
100
AcDbEntity
  8
4
100
AcDbCircle
 10
147.6009908545127
 20
400.8054587104913
 30
0.0
 40
3.0
100
AcDbArc
 50
180.0
 51
270.0
  0
LINE
  5
413
330
17
100
AcDbEntity
  8
4
100
AcDbLine
 10
147.6009908545127
 20
397.8054587104913
 30
0.0
 11
157.6009908545125
 21
397.8054587104913
 31
0.0
  0
LINE
  5
414
330
17
100
AcDbEntity
  8
4
100
AcDbLine
 10
177.6009908545127
 20
462.8054587104913
 30
0.0
 11
175.6009908545127
 21
462.8054587104913
 31
0.0
  0
ARC
  5
415
330
17
100
AcDbEntity
  8
4
100
AcDbCircle
 10
174.6009908545127
 20
459.8054587104913
 30
0.0
 40
3.0
100
AcDbArc
 50
270.0
 51
0.0
  0
LINE
  5
416
330
17
100
AcDbEntity
  8
4
100
AcDbLine
 10
159.6009908545125
 20
393.8054587104913
 30
0.0
 11
159.6009908545125
 21
395.3054587104913
 31
0.0
  0
LINE
  5
417
330
17
100
AcDbEntity
  8
4
100
AcDbLine
 10
281.6009908545125
 20
397.8054587104913
 30
0.0
 11
291.6009908545127
 21
397.8054587104913
 31
0.0
  0
CIRCLE
  5
418
330
17
100
AcDbEntity
  8
4
100
AcDbCircle
 10
219.6009908545127
 20
542.8054587104913
 30
0.0
 40
14.0
  0
LINE
  5
419
330
17
100
AcDbEntity
  8
4
100
AcDbLine
 10
278.6009908545127
 20
577.2281084413017
 30
0.0
 11
278.6009908545127
 21
508.3828089796808
 31
0.0
  0
ARC
  5
41A
330
17
100
AcDbEntity
  8
4
100
AcDbCircle
 10
277.6009908545127
 20
577.2281084413017
 30
0.0
 40
1.0
100
AcDbArc
 50
0.0
 51
59.99999999999946
  0
LINE
  5
41B
330
17
100
AcDbEntity
  8
4
100
AcDbLine
 10
271.6009908545127
 20
581.8469105948187
 30
0.0
 11
278.1009908545127
 21
578.094133845086
 31
0.0
  0
ARC
  5
41C
330
17
100
AcDbEntity
  8
4
100
AcDbCircle
 10
277.6009908545127
 20
508.3828089796808
 30
0.0
 40
1.0
100
AcDbArc
 50
300.0000000000005
 51
0.0
  0
LINE
  5
41D
330
17
100
AcDbEntity
  8
4
100
AcDbLine
 10
278.1009908545127
 20
507.5167835758963
 30
0.0
 11
271.6009908545127
 21
503.7640068261638
 31
0.0
  0
LINE
  5
41E
330
17
100
AcDbEntity
  8
4
100
AcDbLine
 10
289.6009908545127
 20
398.8054587104913
 30
0.0
 11
289.6009908545127
 21
456.8054587104913
 31
0.0
  0
LINE
  5
41F
330
17
100
AcDbEntity
  8
4
100
AcDbLine
 10
262.6009908545127
 20
462.8054587104913
 30
0.0
 11
270.6009908545127
 21
462.8054587104913
 31
0.0
  0
LINE
  5
420
330
17
100
AcDbEntity
  8
4
100
AcDbLine
 10
264.6009908545127
 20
456.8054587104913
 30
0.0
 11
289.6009908545127
 21
456.8054587104913
 31
0.0
  0
ARC
  5
421
330
17
100
AcDbEntity
  8
4
100
AcDbCircle
 10
264.6009908545127
 20
459.8054587104913
 30
0.0
 40
3.0
100
AcDbArc
 50
180.0
 51
270.0
  0
ARC
  5
422
330
17
100
AcDbEntity
  8
4
100
AcDbCircle
 10
262.6009908545127
 20
461.8054587104913
 30
0.0
 40
1.0
100
AcDbArc
 50
90.0
 51
180.0
  0
ARC
  5
423
330
17
100
AcDbEntity
  8
4
100
AcDbCircle
 10
270.6009908545127
 20
463.8054587104913
 30
0.0
 40
1.0
100
AcDbArc
 50
270.0
 51
0.0
  0
LINE
  5
424
330
17
100
AcDbEntity
  8
4
100
AcDbLine
 10
281.6009908545125
 20
397.3054587104913
 30
0.0
 11
281.6009908545125
 21
397.8054587104913
 31
0.0
  0
ARC
  5
425
330
17
100
AcDbEntity
  8
4
100
AcDbCircle
 10
282.6009908545125
 20
397.8054587104913
 30
0.0
 40
1.0
100
AcDbArc
 50
90.0
 51
180.0
  0
ARC
  5
426
330
17
100
AcDbEntity
  8
4
100
AcDbCircle
 10
280.6009908545125
 20
397.3054587104913
 30
0.0
 40
1.0
100
AcDbArc
 50
270.0
 51
0.0
  0
LINE
  5
427
330
17
100
AcDbEntity
  8
4
100
AcDbLine
 10
279.6009908545125
 20
393.8054587104913
 30
0.0
 11
279.6009908545127
 21
395.3054587104913
 31
0.0
  0
ARC
  5
428
330
17
100
AcDbEntity
  8
4
100
AcDbCircle
 10
280.6009908545125
 20
395.3054587104913
 30
0.0
 40
1.0
100
AcDbArc
 50
90.0
 51
180.0
  0
LINE
  5
429
330
17
100
AcDbEntity
  8
4
100
AcDbLine
 10
294.6009908545127
 20
400.8054587104913
 30
0.0
 11
294.6009908545127
 21
419.3054587104913
 31
0.0
  0
ARC
  5
42A
330
17
100
AcDbEntity
  8
4
100
AcDbCircle
 10
291.6009908545127
 20
400.8054587104913
 30
0.0
 40
3.0
100
AcDbArc
 50
270.0
 51
0.0
  0
LINE
  5
42B
330
17
100
AcDbEntity
  8
4
100
AcDbLine
 10
175.2009908545128
 20
622.8054587104913
 30
0.0
 11
175.2009908545128
 21
462.8054587104913
 31
0.0
  0
LINE
  5
42C
330
17
100
AcDbEntity
  8
4
100
AcDbLine
 10
165.7009908545128
 20
463.8054587104913
 30
0.0
 11
165.7009908545128
 21
621.8054587104913
 31
0.0
  0
LINE
  5
42D
330
17
100
AcDbEntity
  8
4
100
AcDbLine
 10
166.7009908545128
 20
462.8054587104913
 30
0.0
 11
175.2009908545128
 21
462.8054587104913
 31
0.0
  0
ARC
  5
42E
330
17
100
AcDbEntity
  8
4
100
AcDbCircle
 10
166.7009908545128
 20
463.8054587104913
 30
0.0
 40
1.0
100
AcDbArc
 50
180.0
 51
270.0
  0
LINE
  5
42F
330
17
100
AcDbEntity
  8
4
100
AcDbLine
 10
159.2009908545128
 20
517.805458710491
 30
0.0
 11
159.2009908545128
 21
567.805458710491
 31
0.0
  0
LINE
  5
430
330
17
100
AcDbEntity
  8
4
100
AcDbLine
 10
160.2009908545128
 20
510.5554587104912
 30
0.0
 11
160.2009908545128
 21
575.0554587104916
 31
0.0
  0
LINE
  5
431
330
17
100
AcDbEntity
  8
4
100
AcDbLine
 10
159.2009908545128
 20
517.805458710491
 30
0.0
 11
160.2009908545128
 21
517.805458710491
 31
0.0
  0
LINE
  5
432
330
17
100
AcDbEntity
  8
4
100
AcDbLine
 10
159.2009908545128
 20
567.805458710491
 30
0.0
 11
160.2009908545128
 21
567.805458710491
 31
0.0
  0
LINE
  5
433
330
17
100
AcDbEntity
  8
4
100
AcDbLine
 10
166.7009908545128
 20
622.8054587104913
 30
0.0
 11
175.2009908545128
 21
622.8054587104913
 31
0.0
  0
ARC
  5
434
330
17
100
AcDbEntity
  8
4
100
AcDbCircle
 10
166.7009908545128
 20
621.8054587104913
 30
0.0
 40
1.0
100
AcDbArc
 50
90.0
 51
180.0
  0
CIRCLE
  5
435
330
17
100
AcDbEntity
  8
4
100
AcDbCircle
 10
522.8797137304654
 20
131.0832867363681
 30
0.0
 40
20.0
  0
LINE
  5
436
330
17
100
AcDbEntity
  8
4
100
AcDbLine
 10
148.6012048545126
 20
447.8054587104913
 30
0.0
 11
148.6012048545126
 21
407.8054587104913
 31
0.0
  0
LINE
  5
437
330
17
100
AcDbEntity
  8
4
100
AcDbLine
 10
148.6012048545126
 20
407.8054587104913
 30
0.0
 11
149.6012048545126
 21
407.8054587104913
 31
0.0
  0
LINE
  5
438
330
17
100
AcDbEntity
  8
4
100
AcDbLine
 10
148.6012048545126
 20
447.8054587104913
 30
0.0
 11
149.6012048545126
 21
447.8054587104913
 31
0.0
  0
LINE
  5
439
330
17
100
AcDbEntity
  8
4
100
AcDbLine
 10
290.6007768545128
 20
447.8054587104913
 30
0.0
 11
290.6007768545128
 21
407.8054587104913
 31
0.0
  0
LINE
  5
43A
330
17
100
AcDbEntity
  8
4
100
AcDbLine
 10
290.6007768545128
 20
407.8054587104913
 30
0.0
 11
289.6007768545128
 21
407.8054587104913
 31
0.0
  0
LINE
  5
43B
330
17
100
AcDbEntity
  8
4
100
AcDbLine
 10
290.6007768545128
 20
447.8054587104913
 30
0.0
 11
289.6007768545128
 21
447.8054587104913
 31
0.0
  0
LINE
  5
43C
330
17
100
AcDbEntity
  8
4
100
AcDbLine
 10
252.8276502573999
 20
382.3272557686608
 30
0.0
 11
247.6000061455863
 21
380.2100599033762
 31
0.0
  0
LINE
  5
43D
330
17
100
AcDbEntity
  8
4
100
AcDbLine
 10
276.6009908545127
 20
384.9054587104912
 30
0.0
 11
162.6009908545126
 21
384.9054587104912
 31
0.0
  0
LINE
  5
43E
330
17
100
AcDbEntity
  8
4
100
AcDbLine
 10
161.6009908545124
 20
393.4054587104912
 30
0.0
 11
277.6009908545127
 21
393.4054587104912
 31
0.0
  0
LINE
  5
43F
330
17
100
AcDbEntity
  8
4
100
AcDbLine
 10
199.6009908545127
 20
373.8054587104911
 30
0.0
 11
199.6009908545127
 21
374.8054587104915
 31
0.0
  0
LINE
  5
440
330
17
100
AcDbEntity
  8
4
100
AcDbLine
 10
239.6009908545127
 20
373.8054587104913
 30
0.0
 11
239.6009908545127
 21
374.8054587104913
 31
0.0
  0
ARC
  5
441
330
17
100
AcDbEntity
  8
4
100
AcDbCircle
 10
194.4207947572311
 20
375.8054587104915
 30
0.0
 40
1.0
100
AcDbArc
 50
191.3099324740176
 51
270.0
  0
ARC
  5
442
330
17
100
AcDbEntity
  8
4
100
AcDbCircle
 10
244.7811869517939
 20
375.8054587104915
 30
0.0
 40
1.0
100
AcDbArc
 50
270.0
 51
348.6900675259823
  0
LINE
  5
443
330
17
100
AcDbEntity
  8
4
100
AcDbLine
 10
239.6009908545127
 20
373.8054587104913
 30
0.0
 11
199.6009908545127
 21
373.8054587104911
 31
0.0
  0
ARC
  5
444
330
17
100
AcDbEntity
  8
4
100
AcDbCircle
 10
162.6009908545126
 20
385.9054587104914
 30
0.0
 40
1.0
100
AcDbArc
 50
180.0
 51
270.0
  0
LINE
  5
445
330
17
100
AcDbEntity
  8
4
100
AcDbLine
 10
161.6009908545126
 20
393.4054587104912
 30
0.0
 11
161.6009908545126
 21
385.9054587104912
 31
0.0
  0
LINE
  5
446
330
17
100
AcDbEntity
  8
4
100
AcDbLine
 10
186.3743314516259
 20
382.3272557686605
 30
0.0
 11
191.6019755634386
 21
380.2100599033762
 31
0.0
  0
ARC
  5
447
330
17
100
AcDbEntity
  8
4
100
AcDbCircle
 10
190.8512108279995
 20
378.3563198158721
 30
0.0
 40
2.0
100
AcDbArc
 50
11.30993247402101
 51
67.95205253644393
  0
LINE
  5
448
330
17
100
AcDbEntity
  8
4
100
AcDbLine
 10
193.4402140815403
 20
375.609342575353
 30
0.0
 11
192.8123721793816
 21
378.7485520861482
 31
0.0
  0
LINE
  5
449
330
17
100
AcDbEntity
  8
4
100
AcDbLine
 10
169.6009908545127
 20
375.8054587104911
 30
0.0
 11
169.6009908545127
 21
383.9054587104912
 31
0.0
  0
ARC
  5
44A
330
17
100
AcDbEntity
  8
4
100
AcDbCircle
 10
168.6009908545127
 20
383.9054587104914
 30
0.0
 40
1.0
100
AcDbArc
 50
0.0
 51
90.0
  0
LINE
  5
44B
330
17
100
AcDbEntity
  8
4
100
AcDbLine
 10
193.4009908545124
 20
375.8054587104913
 30
0.0
 11
169.6009908545127
 21
375.8054587104911
 31
0.0
  0
LINE
  5
44C
330
17
100
AcDbEntity
  8
4
100
AcDbLine
 10
244.7811869517939
 20
379.8054587104913
 30
0.0
 11
194.4207947572311
 21
379.8054587104913
 31
0.0
  0
LINE
  5
44D
330
17
100
AcDbEntity
  8
4
100
AcDbLine
 10
244.7811869517939
 20
374.8054587104913
 30
0.0
 11
194.4207947572311
 21
374.8054587104913
 31
0.0
  0
LINE
  5
44E
330
17
100
AcDbEntity
  8
4
100
AcDbLine
 10
245.7617676274847
 20
375.609342575353
 30
0.0
 11
246.3896095296438
 21
378.7485520861482
 31
0.0
  0
ARC
  5
44F
330
17
100
AcDbEntity
  8
4
100
AcDbCircle
 10
248.3507708810259
 20
378.3563198158721
 30
0.0
 40
2.0
100
AcDbArc
 50
112.0479474635634
 51
168.690067525979
  0
LINE
  5
450
330
17
100
AcDbEntity
  8
4
100
AcDbLine
 10
277.6009908545127
 20
385.9054587104912
 30
0.0
 11
277.6009908545127
 21
393.4054587104912
 31
0.0
  0
ARC
  5
451
330
17
100
AcDbEntity
  8
4
100
AcDbCircle
 10
276.6009908545127
 20
385.9054587104914
 30
0.0
 40
1.0
100
AcDbArc
 50
270.0
 51
0.0
  0
LINE
  5
452
330
17
100
AcDbEntity
  8
L-CENTER
 48
0.5
100
AcDbLine
 10
183.1009908545127
 20
364.4766809775209
 30
0.0
 11
183.1009908545127
 21
378.7019335518124
 31
0.0
  0
LINE
  5
453
330
17
100
AcDbEntity
  8
4
100
AcDbLine
 10
193.4009908545129
 20
375.8054587104912
 30
0.0
 11
171.6009908545127
 21
375.8054587104912
 31
0.0
  0
LINE
  5
454
330
17
100
AcDbEntity
  8
4
100
AcDbLine
 10
193.9263084018182
 20
368.3054587104912
 30
0.0
 11
172.2756733072072
 21
368.3054587104912
 31
0.0
  0
LINE
  5
455
330
17
100
AcDbEntity
  8
4
100
AcDbLine
 10
195.6009908545127
 20
372.3054587104912
 30
0.0
 11
170.6009908545127
 21
372.3054587104912
 31
0.0
  0
LINE
  5
456
330
17
100
AcDbEntity
  8
4
100
AcDbLine
 10
195.6009908545127
 20
374.3054587104912
 30
0.0
 11
170.6009908545127
 21
374.3054587104912
 31
0.0
  0
LINE
  5
457
330
17
100
AcDbEntity
  8
4
100
AcDbLine
 10
194.6009908545127
 20
374.3054587104912
 30
0.0
 11
194.6009908545127
 21
374.8054587104913
 31
0.0
  0
LINE
  5
458
330
17
100
AcDbEntity
  8
4
100
AcDbLine
 10
195.6009908545127
 20
372.3054587104912
 30
0.0
 11
195.6009908545127
 21
374.3054587104912
 31
0.0
  0
LWPOLYLINE
  5
459
330
17
100
AcDbEntity
  8
4
100
AcDbPolyline
 90
        2
 70
     0
 43
0.0
 10
193.9263084018182
 20
368.3054587104912
 10
193.9263084018182
 20
372.3054587104912
  0
LINE
  5
45A
330
17
100
AcDbEntity
  8
4
100
AcDbLine
 10
171.6009908545127
 20
374.3054587104912
 30
0.0
 11
171.6009908545127
 21
375.8054587104912
 31
0.0
  0
LINE
  5
45B
330
17
100
AcDbEntity
  8
4
100
AcDbLine
 10
170.6009908545127
 20
372.3054587104912
 30
0.0
 11
170.6009908545127
 21
374.3054587104912
 31
0.0
  0
LWPOLYLINE
  5
45C
330
17
100
AcDbEntity
  8
4
100
AcDbPolyline
 90
        2
 70
     0
 43
0.0
 10
172.2756733072072
 20
372.3054587104912
 10
172.2756733072072
 20
368.3054587104912
  0
LINE
  5
45D
330
17
100
AcDbEntity
  8
L-CENTER
 48
0.5
100
AcDbLine
 10
257.0776502573999
 20
376.2168489938452
 30
0.0
 11
257.0776502573999
 21
397.4570826339358
 31
0.0
  0
LINE
  5
45E
330
17
100
AcDbEntity
  8
L-CENTER
 48
0.5
100
AcDbLine
 10
182.1243314516264
 20
376.9387084452005
 30
0.0
 11
182.124331451625
 21
397.4570826339333
 31
0.0
  0
LINE
  5
45F
330
17
100
AcDbEntity
  8
L-CENTER
 48
0.5
100
AcDbLine
 10
157.1381351297733
 20
615.8054587104914
 30
0.0
 11
179.6415288620522
 21
615.8054587104914
 31
0.0
  0
LINE
  5
460
330
17
100
AcDbEntity
  8
L-CENTER
 48
0.5
100
AcDbLine
 10
157.2953731737335
 20
579.3054587104916
 30
0.0
 11
179.6415288620522
 21
579.3054587104916
 31
0.0
  0
LINE
  5
461
330
17
100
AcDbEntity
  8
L-CENTER
 48
0.5
100
AcDbLine
 10
157.2165295337082
 20
469.8054587104912
 30
0.0
 11
179.6415288620522
 21
469.8054587104912
 31
0.0
  0
LINE
  5
462
330
17
100
AcDbEntity
  8
L-CENTER
 48
0.5
100
AcDbLine
 10
157.2165295337082
 20
506.3054587104909
 30
0.0
 11
179.6415288620522
 21
506.3054587104909
 31
0.0
  0
CIRCLE
  5
463
330
17
100
AcDbEntity
  8
4
100
AcDbCircle
 10
219.6009908545127
 20
542.8054587104913
 30
0.0
 40
12.5
  0
LWPOLYLINE
  5
464
330
17
100
AcDbEntity
  8
4
100
AcDbPolyline
 90
        6
 70
     1
 43
0.0
 10
219.6009908545127
 20
555.3054587104913
 10
208.7756733072074
 20
549.0554587104913
 10
208.7756733072072
 20
536.5554587104913
 10
219.6009908545127
 20
530.3054587104913
 10
230.4263084018182
 20
536.5554587104913
 10
230.4263084018182
 20
549.0554587104913
  0
LINE
  5
465
330
17
100
AcDbEntity
  8
4
100
AcDbLine
 10
305.1009908545127
 20
430.3054587104913
 30
0.0
 11
329.6009908545127
 21
430.3054587104913
 31
0.0
  0
LINE
  5
466
330
17
100
AcDbEntity
  8
4
100
AcDbLine
 10
300.1009908545127
 20
434.8054587104913
 30
0.0
 11
329.1009908545127
 21
434.8054587104913
 31
0.0
  0
LINE
  5
467
330
17
100
AcDbEntity
  8
4
100
AcDbLine
 10
305.1009908545127
 20
425.3054587104913
 30
0.0
 11
329.6009908545127
 21
425.3054587104913
 31
0.0
  0
LINE
  5
468
330
17
100
AcDbEntity
  8
4
100
AcDbLine
 10
300.1009908545127
 20
420.8054587104913
 30
0.0
 11
329.1009908545127
 21
420.8054587104913
 31
0.0
  0
ARC
  5
469
330
17
100
AcDbEntity
  8
4
100
AcDbCircle
 10
300.1009908545127
 20
435.3054587104913
 30
0.0
 40
0.5
100
AcDbArc
 50
180.0
 51
270.0
  0
ARC
  5
46A
330
17
100
AcDbEntity
  8
4
100
AcDbCircle
 10
300.1009908545127
 20
420.3054587104913
 30
0.0
 40
0.5
100
AcDbArc
 50
90.0
 51
180.0
  0
ARC
  5
46B
330
17
100
AcDbEntity
  8
4
100
AcDbCircle
 10
305.1009908545127
 20
427.8054587104913
 30
0.0
 40
2.5
100
AcDbArc
 50
90.0
 51
270.0
  0
LINE
  5
46C
330
17
100
AcDbEntity
  8
4
100
AcDbLine
 10
299.6009908545127
 20
436.3054587104913
 30
0.0
 11
299.6009908545127
 21
419.3054587104913
 31
0.0
  0
LINE
  5
46D
330
17
100
AcDbEntity
  8
4
100
AcDbLine
 10
329.6009908545127
 20
434.3054587104913
 30
0.0
 11
329.1009908545127
 21
434.8054587104913
 31
0.0
  0
LINE
  5
46E
330
17
100
AcDbEntity
  8
4
100
AcDbLine
 10
329.1009908545127
 20
434.8054587104913
 30
0.0
 11
329.1009908545127
 21
430.3054587104913
 31
0.0
  0
LINE
  5
46F
330
17
100
AcDbEntity
  8
4
100
AcDbLine
 10
329.6009908545127
 20
421.3054587104913
 30
0.0
 11
329.1009908545127
 21
420.8054587104913
 31
0.0
  0
LINE
  5
470
330
17
100
AcDbEntity
  8
4
100
AcDbLine
 10
329.1009908545127
 20
425.3054587104913
 30
0.0
 11
329.1009908545127
 21
420.8054587104913
 31
0.0
  0
LINE
  5
471
330
17
100
AcDbEntity
  8
4
100
AcDbLine
 10
329.6009908545127
 20
434.3054587104913
 30
0.0
 11
329.6009908545127
 21
421.3054587104913
 31
0.0
  0
LINE
  5
472
330
17
100
AcDbEntity
  8
4
100
AcDbLine
 10
290.6007768545128
 20
436.3054587104913
 30
0.0
 11
299.6009908545127
 21
436.3054587104913
 31
0.0
  0
LINE
  5
473
330
17
100
AcDbEntity
  8
4
100
AcDbLine
 10
290.6007768545128
 20
419.3054587104913
 30
0.0
 11
299.6009908545127
 21
419.3054587104913
 31
0.0
  0
LINE
  5
484
330
17
100
AcDbEntity
  8
4
100
AcDbLine
 10
243.1009908545127
 20
625.8054587104913
 30
0.0
 11
243.1009908545127
 21
626.8054587104913
 31
0.0
  0
LINE
  5
485
330
17
100
AcDbEntity
  8
4
100
AcDbLine
 10
196.1009908545127
 20
625.8054587104913
 30
0.0
 11
196.1009908545127
 21
626.8054587104914
 31
0.0
  0
LINE
  5
486
330
17
100
AcDbEntity
  8
4
100
AcDbLine
 10
243.1009908545127
 20
626.8054587104914
 30
0.0
 11
196.1009908545127
 21
626.8054587104913
 31
0.0
  0
LINE
  5
487
330
17
100
AcDbEntity
  8
4
100
AcDbLine
 10
478.6798117304653
 20
111.3100927363678
 30
0.0
 11
478.6798117304653
 21
119.8100927363678
 31
0.0
  0
LINE
  5
488
330
17
100
AcDbEntity
  8
4
100
AcDbLine
 10
479.9798117304655
 20
111.3100927363678
 30
0.0
 11
479.9798117304655
 21
119.8100927363678
 31
0.0
  0
LINE
  5
489
330
17
100
AcDbEntity
  8
4
100
AcDbLine
 10
473.6798117304653
 20
119.810092736368
 30
0.0
 11
473.6798117304653
 21
111.3100927363678
 31
0.0
  0
LINE
  5
48A
330
17
100
AcDbEntity
  8
4
100
AcDbLine
 10
478.6798117304653
 20
111.3100927363678
 30
0.0
 11
479.9798117304655
 21
111.3100927363678
 31
0.0
  0
LINE
  5
48B
330
17
100
AcDbEntity
  8
4
100
AcDbLine
 10
473.6798117304653
 20
111.3100927363678
 30
0.0
 11
478.6798117304653
 21
111.3100927363678
 31
0.0
  0
LINE
  5
48C
330
17
100
AcDbEntity
  8
4
100
AcDbLine
 10
478.6798117304653
 20
119.8100927363678
 30
0.0
 11
479.9798117304655
 21
119.8100927363678
 31
0.0
  0
LINE
  5
48D
330
17
100
AcDbEntity
  8
4
100
AcDbLine
 10
478.6798117304653
 20
116.1388900272689
 30
0.0
 11
479.9798117304655
 21
115.5600927363678
 31
0.0
  0
LINE
  5
48E
330
17
100
AcDbEntity
  8
4
100
AcDbLine
 10
478.6798117304653
 20
115.1388900272689
 30
0.0
 11
479.9798117304655
 21
114.5600927363678
 31
0.0
  0
LINE
  5
48F
330
17
100
AcDbEntity
  8
4
100
AcDbLine
 10
478.6798117304653
 20
119.8100927363678
 30
0.0
 11
473.6798117304653
 21
119.810092736368
 31
0.0
  0
LINE
  5
490
330
17
100
AcDbEntity
  8
4
100
AcDbLine
 10
478.6798117304653
 20
36.35648073636798
 30
0.0
 11
478.6798117304653
 21
44.85648073636798
 31
0.0
  0
LINE
  5
491
330
17
100
AcDbEntity
  8
4
100
AcDbLine
 10
479.9798117304655
 20
36.35648073636798
 30
0.0
 11
479.9798117304655
 21
44.85648073636798
 31
0.0
  0
LINE
  5
492
330
17
100
AcDbEntity
  8
4
100
AcDbLine
 10
473.6798117304653
 20
44.85648073636821
 30
0.0
 11
473.6798117304653
 21
36.35648073636798
 31
0.0
  0
LINE
  5
493
330
17
100
AcDbEntity
  8
4
100
AcDbLine
 10
478.6798117304653
 20
36.35648073636798
 30
0.0
 11
479.9798117304655
 21
36.35648073636798
 31
0.0
  0
LINE
  5
494
330
17
100
AcDbEntity
  8
4
100
AcDbLine
 10
473.6798117304653
 20
36.35648073636798
 30
0.0
 11
478.6798117304653
 21
36.35648073636798
 31
0.0
  0
LINE
  5
495
330
17
100
AcDbEntity
  8
4
100
AcDbLine
 10
478.6798117304653
 20
44.85648073636798
 30
0.0
 11
479.9798117304655
 21
44.85648073636798
 31
0.0
  0
LINE
  5
496
330
17
100
AcDbEntity
  8
4
100
AcDbLine
 10
478.6798117304653
 20
41.18527802726908
 30
0.0
 11
479.9798117304655
 21
40.60648073636798
 31
0.0
  0
LINE
  5
497
330
17
100
AcDbEntity
  8
4
100
AcDbLine
 10
478.6798117304653
 20
40.18527802726908
 30
0.0
 11
479.9798117304655
 21
39.60648073636798
 31
0.0
  0
LINE
  5
498
330
17
100
AcDbEntity
  8
4
100
AcDbLine
 10
478.6798117304653
 20
44.85648073636798
 30
0.0
 11
473.6798117304653
 21
44.85648073636821
 31
0.0
  0
LINE
  5
499
330
17
100
AcDbEntity
  8
4
100
AcDbLine
 10
164.8009908545129
 20
213.053530736368
 30
0.0
 11
164.8009908545129
 21
221.553530736368
 31
0.0
  0
LINE
  5
49A
330
17
100
AcDbEntity
  8
4
100
AcDbLine
 10
166.1009908545128
 20
213.053530736368
 30
0.0
 11
166.1009908545128
 21
221.553530736368
 31
0.0
  0
LINE
  5
49B
330
17
100
AcDbEntity
  8
4
100
AcDbLine
 10
159.8009908545129
 20
221.5535307363682
 30
0.0
 11
159.8009908545129
 21
213.053530736368
 31
0.0
  0
LINE
  5
49C
330
17
100
AcDbEntity
  8
4
100
AcDbLine
 10
164.8009908545129
 20
213.053530736368
 30
0.0
 11
166.1009908545128
 21
213.053530736368
 31
0.0
  0
LINE
  5
49D
330
17
100
AcDbEntity
  8
4
100
AcDbLine
 10
159.8009908545129
 20
213.053530736368
 30
0.0
 11
164.8009908545129
 21
213.053530736368
 31
0.0
  0
LINE
  5
49E
330
17
100
AcDbEntity
  8
4
100
AcDbLine
 10
164.8009908545129
 20
221.553530736368
 30
0.0
 11
166.1009908545128
 21
221.553530736368
 31
0.0
  0
LINE
  5
49F
330
17
100
AcDbEntity
  8
4
100
AcDbLine
 10
164.8009908545129
 20
217.8823280272691
 30
0.0
 11
166.1009908545128
 21
217.303530736368
 31
0.0
  0
LINE
  5
4A0
330
17
100
AcDbEntity
  8
4
100
AcDbLine
 10
164.8009908545129
 20
216.8823280272691
 30
0.0
 11
166.1009908545128
 21
216.303530736368
 31
0.0
  0
LINE
  5
4A1
330
17
100
AcDbEntity
  8
4
100
AcDbLine
 10
164.8009908545129
 20
221.553530736368
 30
0.0
 11
159.8009908545129
 21
221.5535307363682
 31
0.0
  0
CIRCLE
  5
4A2
330
17
100
AcDbEntity
  8
4
100
AcDbCircle
 10
182.1243324516256
 20
115.559947139255
 30
0.0
 40
4.25
  0
LINE
  5
4A3
330
17
100
AcDbEntity
  8
2
100
AcDbLine
 10
184.1243324516256
 20
116.7146476776343
 30
0.0
 11
182.1243324516256
 21
117.8693482160133
 31
0.0
  0
LINE
  5
4A4
330
17
100
AcDbEntity
  8
2
100
AcDbLine
 10
180.1243324516256
 20
116.7146476776343
 30
0.0
 11
180.1243324516256
 21
114.4052466008757
 31
0.0
  0
LINE
  5
4A5
330
17
100
AcDbEntity
  8
2
100
AcDbLine
 10
182.1243324516256
 20
117.8693482160133
 30
0.0
 11
180.1243324516256
 21
116.7146476776343
 31
0.0
  0
LINE
  5
4A6
330
17
100
AcDbEntity
  8
2
100
AcDbLine
 10
184.1243324516256
 20
114.4052466008757
 30
0.0
 11
184.1243324516256
 21
116.7146476776343
 31
0.0
  0
LINE
  5
4A7
330
17
100
AcDbEntity
  8
2
100
AcDbLine
 10
182.1243324516256
 20
113.2505460624966
 30
0.0
 11
184.1243324516256
 21
114.4052466008757
 31
0.0
  0
LINE
  5
4A8
330
17
100
AcDbEntity
  8
2
100
AcDbLine
 10
180.1243324516256
 20
114.4052466008757
 30
0.0
 11
182.1243324516256
 21
113.2505460624966
 31
0.0
  0
CIRCLE
  5
4A9
330
17
100
AcDbEntity
  8
4
100
AcDbCircle
 10
257.0776502573999
 20
115.559946139255
 30
0.0
 40
4.25
  0
LINE
  5
4AA
330
17
100
AcDbEntity
  8
2
100
AcDbLine
 10
259.0776502573999
 20
116.7146466776343
 30
0.0
 11
257.0776502573999
 21
117.8693472160134
 31
0.0
  0
LINE
  5
4AB
330
17
100
AcDbEntity
  8
2
100
AcDbLine
 10
255.0776502573999
 20
116.7146466776343
 30
0.0
 11
255.0776502573999
 21
114.4052456008757
 31
0.0
  0
LINE
  5
4AC
330
17
100
AcDbEntity
  8
2
100
AcDbLine
 10
257.0776502573999
 20
117.8693472160134
 30
0.0
 11
255.0776502573999
 21
116.7146466776343
 31
0.0
  0
LINE
  5
4AD
330
17
100
AcDbEntity
  8
2
100
AcDbLine
 10
259.0776502573999
 20
114.4052456008757
 30
0.0
 11
259.0776502573999
 21
116.7146466776343
 31
0.0
  0
LINE
  5
4AE
330
17
100
AcDbEntity
  8
2
100
AcDbLine
 10
257.0776502573999
 20
113.2505450624967
 30
0.0
 11
259.0776502573999
 21
114.4052456008757
 31
0.0
  0
LINE
  5
4AF
330
17
100
AcDbEntity
  8
2
100
AcDbLine
 10
255.0776502573999
 20
114.4052456008757
 30
0.0
 11
257.0776502573999
 21
113.2505450624967
 31
0.0
  0
CIRCLE
  5
4B0
330
17
100
AcDbEntity
  8
4
100
AcDbCircle
 10
257.0776502573997
 20
40.60662733348101
 30
0.0
 40
4.25
  0
LINE
  5
4B1
330
17
100
AcDbEntity
  8
2
100
AcDbLine
 10
259.0776502573997
 20
41.76132787186032
 30
0.0
 11
257.0776502573997
 21
42.91602841023939
 31
0.0
  0
LINE
  5
4B2
330
17
100
AcDbEntity
  8
2
100
AcDbLine
 10
255.0776502573997
 20
41.76132787186032
 30
0.0
 11
255.0776502573997
 21
39.45192679510171
 31
0.0
  0
LINE
  5
4B3
330
17
100
AcDbEntity
  8
2
100
AcDbLine
 10
257.0776502573997
 20
42.91602841023939
 30
0.0
 11
255.0776502573997
 21
41.76132787186032
 31
0.0
  0
LINE
  5
4B4
330
17
100
AcDbEntity
  8
2
100
AcDbLine
 10
259.0776502573997
 20
39.45192679510171
 30
0.0
 11
259.0776502573997
 21
41.76132787186032
 31
0.0
  0
LINE
  5
4B5
330
17
100
AcDbEntity
  8
2
100
AcDbLine
 10
257.0776502573997
 20
38.29722625672264
 30
0.0
 11
259.0776502573997
 21
39.45192679510171
 31
0.0
  0
LINE
  5
4B6
330
17
100
AcDbEntity
  8
2
100
AcDbLine
 10
255.0776502573997
 20
39.45192679510171
 30
0.0
 11
257.0776502573997
 21
38.29722625672264
 31
0.0
  0
CIRCLE
  5
4B7
330
17
100
AcDbEntity
  8
4
100
AcDbCircle
 10
182.1243324516258
 20
40.60662633348102
 30
0.0
 40
4.25
  0
LINE
  5
4B8
330
17
100
AcDbEntity
  8
2
100
AcDbLine
 10
184.1243324516258
 20
41.76132687186032
 30
0.0
 11
182.1243324516258
 21
42.91602741023939
 31
0.0
  0
LINE
  5
4B9
330
17
100
AcDbEntity
  8
2
100
AcDbLine
 10
180.1243324516258
 20
41.76132687186032
 30
0.0
 11
180.1243324516258
 21
39.45192579510172
 31
0.0
  0
LINE
  5
4BA
330
17
100
AcDbEntity
  8
2
100
AcDbLine
 10
182.1243324516258
 20
42.91602741023939
 30
0.0
 11
180.1243324516258
 21
41.76132687186032
 31
0.0
  0
LINE
  5
4BB
330
17
100
AcDbEntity
  8
2
100
AcDbLine
 10
184.1243324516258
 20
39.45192579510172
 30
0.0
 11
184.1243324516258
 21
41.76132687186032
 31
0.0
  0
LINE
  5
4BC
330
17
100
AcDbEntity
  8
2
100
AcDbLine
 10
182.1243324516258
 20
38.29722525672264
 30
0.0
 11
184.1243324516258
 21
39.45192579510172
 31
0.0
  0
LINE
  5
4BD
330
17
100
AcDbEntity
  8
2
100
AcDbLine
 10
180.1243324516258
 20
39.45192579510172
 30
0.0
 11
182.1243324516258
 21
38.29722525672264
 31
0.0
  0
LINE
  5
4BE
330
17
100
AcDbEntity
  8
4
100
AcDbLine
 10
177.8743314516259
 20
383.6054587104912
 30
0.0
 11
177.8743314516257
 21
378.6054587104912
 31
0.0
  0
LINE
  5
4BF
330
17
100
AcDbEntity
  8
4
100
AcDbLine
 10
186.3743314516259
 20
378.6054587104912
 30
0.0
 11
186.3743314516259
 21
383.6054587104912
 31
0.0
  0
LINE
  5
4C0
330
17
100
AcDbEntity
  8
4
100
AcDbLine
 10
177.8743314516257
 20
378.6054587104912
 30
0.0
 11
186.3743314516259
 21
378.6054587104912
 31
0.0
  0
LINE
  5
4C1
330
17
100
AcDbEntity
  8
4
100
AcDbLine
 10
177.8743314516259
 20
383.6054587104912
 30
0.0
 11
177.8743314516259
 21
384.9054587104912
 31
0.0
  0
LINE
  5
4C2
330
17
100
AcDbEntity
  8
4
100
AcDbLine
 10
186.3743314516259
 20
383.6054587104912
 30
0.0
 11
186.3743314516259
 21
384.9054587104912
 31
0.0
  0
LINE
  5
4C3
330
17
100
AcDbEntity
  8
4
100
AcDbLine
 10
186.3743314516259
 20
384.9054587104912
 30
0.0
 11
177.8743314516259
 21
384.9054587104912
 31
0.0
  0
LINE
  5
4C4
330
17
100
AcDbEntity
  8
4
100
AcDbLine
 10
186.3743314516259
 20
383.6054587104912
 30
0.0
 11
177.8743314516259
 21
383.6054587104912
 31
0.0
  0
LINE
  5
4C5
330
17
100
AcDbEntity
  8
4
100
AcDbLine
 10
261.3276502573999
 20
383.6054587104912
 30
0.0
 11
252.8276502573999
 21
383.6054587104912
 31
0.0
  0
LINE
  5
4C6
330
17
100
AcDbEntity
  8
4
100
AcDbLine
 10
261.3276502573999
 20
384.9054587104912
 30
0.0
 11
252.8276502573999
 21
384.9054587104912
 31
0.0
  0
LINE
  5
4C7
330
17
100
AcDbEntity
  8
4
100
AcDbLine
 10
252.8276502573997
 20
378.6054587104912
 30
0.0
 11
261.3276502573999
 21
378.6054587104912
 31
0.0
  0
LINE
  5
4C8
330
17
100
AcDbEntity
  8
4
100
AcDbLine
 10
252.8276502573999
 20
383.6054587104912
 30
0.0
 11
252.8276502573997
 21
378.6054587104912
 31
0.0
  0
LINE
  5
4C9
330
17
100
AcDbEntity
  8
4
100
AcDbLine
 10
252.8276502573999
 20
383.6054587104912
 30
0.0
 11
252.8276502573999
 21
384.9054587104912
 31
0.0
  0
LINE
  5
4CA
330
17
100
AcDbEntity
  8
4
100
AcDbLine
 10
261.3276502573999
 20
378.6054587104912
 30
0.0
 11
261.3276502573999
 21
383.6054587104912
 31
0.0
  0
LINE
  5
4CB
330
17
100
AcDbEntity
  8
4
100
AcDbLine
 10
261.3276502573999
 20
383.6054587104912
 30
0.0
 11
261.3276502573999
 21
384.9054587104912
 31
0.0
  0
LINE
  5
4CC
330
17
100
AcDbEntity
  8
4
100
AcDbLine
 10
164.4009908545129
 20
620.0554587104914
 30
0.0
 11
159.4009908545129
 21
620.0554587104916
 31
0.0
  0
LINE
  5
4CD
330
17
100
AcDbEntity
  8
4
100
AcDbLine
 10
159.4009908545129
 20
611.5554587104914
 30
0.0
 11
164.4009908545129
 21
611.5554587104914
 31
0.0
  0
LINE
  5
4CE
330
17
100
AcDbEntity
  8
4
100
AcDbLine
 10
159.4009908545129
 20
620.0554587104916
 30
0.0
 11
159.4009908545129
 21
611.5554587104914
 31
0.0
  0
LINE
  5
4CF
330
17
100
AcDbEntity
  8
4
100
AcDbLine
 10
164.4009908545129
 20
620.0554587104914
 30
0.0
 11
165.7009908545128
 21
620.0554587104914
 31
0.0
  0
LINE
  5
4D0
330
17
100
AcDbEntity
  8
4
100
AcDbLine
 10
164.4009908545129
 20
611.5554587104914
 30
0.0
 11
165.7009908545128
 21
611.5554587104914
 31
0.0
  0
LINE
  5
4D1
330
17
100
AcDbEntity
  8
4
100
AcDbLine
 10
165.7009908545128
 20
611.5554587104914
 30
0.0
 11
165.7009908545128
 21
620.0554587104914
 31
0.0
  0
LINE
  5
4D2
330
17
100
AcDbEntity
  8
4
100
AcDbLine
 10
164.4009908545129
 20
611.5554587104914
 30
0.0
 11
164.4009908545129
 21
620.0554587104914
 31
0.0
  0
LINE
  5
4D3
330
17
100
AcDbEntity
  8
4
100
AcDbLine
 10
164.4009908545129
 20
583.5554587104916
 30
0.0
 11
159.4009908545129
 21
583.5554587104918
 31
0.0
  0
LINE
  5
4D4
330
17
100
AcDbEntity
  8
4
100
AcDbLine
 10
159.4009908545129
 20
575.0554587104916
 30
0.0
 11
164.4009908545129
 21
575.0554587104916
 31
0.0
  0
LINE
  5
4D5
330
17
100
AcDbEntity
  8
4
100
AcDbLine
 10
159.4009908545129
 20
583.5554587104918
 30
0.0
 11
159.4009908545129
 21
575.0554587104916
 31
0.0
  0
LINE
  5
4D6
330
17
100
AcDbEntity
  8
4
100
AcDbLine
 10
164.4009908545129
 20
583.5554587104916
 30
0.0
 11
165.7009908545128
 21
583.5554587104916
 31
0.0
  0
LINE
  5
4D7
330
17
100
AcDbEntity
  8
4
100
AcDbLine
 10
164.4009908545129
 20
575.0554587104916
 30
0.0
 11
165.7009908545128
 21
575.0554587104916
 31
0.0
  0
LINE
  5
4D8
330
17
100
AcDbEntity
  8
4
100
AcDbLine
 10
165.7009908545128
 20
575.0554587104916
 30
0.0
 11
165.7009908545128
 21
583.5554587104916
 31
0.0
  0
LINE
  5
4D9
330
17
100
AcDbEntity
  8
4
100
AcDbLine
 10
164.4009908545129
 20
575.0554587104916
 30
0.0
 11
164.4009908545129
 21
583.5554587104916
 31
0.0
  0
LINE
  5
4DA
330
17
100
AcDbEntity
  8
4
100
AcDbLine
 10
164.4009908545129
 20
510.5554587104909
 30
0.0
 11
159.4009908545129
 21
510.5554587104912
 31
0.0
  0
LINE
  5
4DB
330
17
100
AcDbEntity
  8
4
100
AcDbLine
 10
159.4009908545129
 20
502.0554587104909
 30
0.0
 11
164.4009908545129
 21
502.0554587104909
 31
0.0
  0
LINE
  5
4DC
330
17
100
AcDbEntity
  8
4
100
AcDbLine
 10
159.4009908545129
 20
510.5554587104912
 30
0.0
 11
159.4009908545129
 21
502.0554587104909
 31
0.0
  0
LINE
  5
4DD
330
17
100
AcDbEntity
  8
4
100
AcDbLine
 10
164.4009908545129
 20
510.5554587104909
 30
0.0
 11
165.7009908545128
 21
510.5554587104909
 31
0.0
  0
LINE
  5
4DE
330
17
100
AcDbEntity
  8
4
100
AcDbLine
 10
164.4009908545129
 20
502.0554587104909
 30
0.0
 11
165.7009908545128
 21
502.0554587104909
 31
0.0
  0
LINE
  5
4DF
330
17
100
AcDbEntity
  8
4
100
AcDbLine
 10
165.7009908545128
 20
502.0554587104909
 30
0.0
 11
165.7009908545128
 21
510.5554587104909
 31
0.0
  0
LINE
  5
4E0
330
17
100
AcDbEntity
  8
4
100
AcDbLine
 10
164.4009908545129
 20
502.0554587104909
 30
0.0
 11
164.4009908545129
 21
510.5554587104909
 31
0.0
  0
LINE
  5
4E1
330
17
100
AcDbEntity
  8
4
100
AcDbLine
 10
164.4009908545129
 20
474.0554587104912
 30
0.0
 11
159.4009908545129
 21
474.0554587104914
 31
0.0
  0
LINE
  5
4E2
330
17
100
AcDbEntity
  8
4
100
AcDbLine
 10
159.4009908545129
 20
465.5554587104912
 30
0.0
 11
164.4009908545129
 21
465.5554587104912
 31
0.0
  0
LINE
  5
4E3
330
17
100
AcDbEntity
  8
4
100
AcDbLine
 10
159.4009908545129
 20
474.0554587104914
 30
0.0
 11
159.4009908545129
 21
465.5554587104912
 31
0.0
  0
LINE
  5
4E4
330
17
100
AcDbEntity
  8
4
100
AcDbLine
 10
164.4009908545129
 20
474.0554587104912
 30
0.0
 11
165.7009908545128
 21
474.0554587104912
 31
0.0
  0
LINE
  5
4E5
330
17
100
AcDbEntity
  8
4
100
AcDbLine
 10
164.4009908545129
 20
465.5554587104912
 30
0.0
 11
165.7009908545128
 21
465.5554587104912
 31
0.0
  0
LINE
  5
4E6
330
17
100
AcDbEntity
  8
4
100
AcDbLine
 10
165.7009908545128
 20
465.5554587104912
 30
0.0
 11
165.7009908545128
 21
474.0554587104912
 31
0.0
  0
LINE
  5
4E7
330
17
100
AcDbEntity
  8
4
100
AcDbLine
 10
164.4009908545129
 20
465.5554587104912
 30
0.0
 11
164.4009908545129
 21
474.0554587104912
 31
0.0
  0
LINE
  5
51E
330
17
100
AcDbEntity
  8
4
100
AcDbLine
 10
641.3797137304651
 20
164.0832867363681
 30
0.0
 11
634.3797137304651
 21
164.0832867363681
 31
0.0
  0
LINE
  5
51F
330
17
100
AcDbEntity
  8
4
100
AcDbLine
 10
641.3797137304651
 20
171.0832867363681
 30
0.0
 11
634.3797137304651
 21
171.0832867363681
 31
0.0
  0
LINE
  5
520
330
17
100
AcDbEntity
  8
4
100
AcDbLine
 10
634.3797137304651
 20
171.0832867363681
 30
0.0
 11
634.3797137304651
 21
164.0832867363681
 31
0.0
  0
LINE
  5
521
330
17
100
AcDbEntity
  8
4
100
AcDbLine
 10
641.3797137304651
 20
164.0832867363681
 30
0.0
 11
641.3797137304651
 21
171.0832867363681
 31
0.0
  0
ARC
  5
522
330
17
100
AcDbEntity
  8
4
100
AcDbCircle
 10
637.8797137304651
 20
154.0832867363681
 30
0.0
 40
14.000004
100
AcDbArc
 50
104.4775079591578
 51
75.52249599999975
  0
CIRCLE
  5
524
330
17
100
AcDbEntity
  8
4
100
AcDbCircle
 10
637.8797137304651
 20
154.0832867363681
 30
0.0
 40
25.00024399999984
  0
LINE
  5
525
330
17
100
AcDbEntity
  8
4
100
AcDbLine
 10
279.6009908545126
 20
517.805458710491
 30
0.0
 11
279.6009908545126
 21
567.805458710491
 31
0.0
  0
LINE
  5
526
330
17
100
AcDbEntity
  8
4
100
AcDbLine
 10
279.6009908545126
 20
517.805458710491
 30
0.0
 11
278.6009908545126
 21
517.805458710491
 31
0.0
  0
LINE
  5
527
330
17
100
AcDbEntity
  8
4
100
AcDbLine
 10
279.6009908545126
 20
567.805458710491
 30
0.0
 11
278.6009908545126
 21
567.805458710491
 31
0.0
  0
LINE
  5
528
330
17
100
AcDbEntity
  8
4
  6
Continuous
100
AcDbLine
 10
290.6009908545127
 20
556.8054587104913
 30
0.0
 11
348.6009908545126
 21
556.8054587104913
 31
0.0
  0
LINE
  5
529
330
17
100
AcDbEntity
  8
4
  6
Continuous
100
AcDbLine
 10
290.6009908545127
 20
528.8054587104913
 30
0.0
 11
348.6009908545126
 21
528.8054587104915
 31
0.0
  0
LINE
  5
52A
330
17
100
AcDbEntity
  8
4
  6
Continuous
100
AcDbLine
 10
298.1009908545127
 20
539.3054587104913
 30
0.0
 11
349.6009908545126
 21
539.3054587104913
 31
0.0
  0
LINE
  5
52B
330
17
100
AcDbEntity
  8
4
  6
Continuous
100
AcDbLine
 10
298.1009908545127
 20
546.3054587104913
 30
0.0
 11
349.6009908545126
 21
546.3054587104913
 31
0.0
  0
LINE
  5
52C
330
17
100
AcDbEntity
  8
4
100
AcDbLine
 10
349.6009908545126
 20
529.8054587104913
 30
0.0
 11
349.6009908545126
 21
555.8054587104913
 31
0.0
  0
LINE
  5
52D
330
17
100
AcDbEntity
  8
4
100
AcDbLine
 10
348.6009908545126
 20
528.8054587104915
 30
0.0
 11
348.6009908545126
 21
539.3054587104913
 31
0.0
  0
LINE
  5
52E
330
17
100
AcDbEntity
  8
4
100
AcDbLine
 10
349.6009908545126
 20
529.8054587104915
 30
0.0
 11
348.6009908545126
 21
528.8054587104915
 31
0.0
  0
LINE
  5
52F
330
17
100
AcDbEntity
  8
4
100
AcDbLine
 10
348.6009908545126
 20
556.8054587104913
 30
0.0
 11
349.6009908545126
 21
555.8054587104913
 31
0.0
  0
LINE
  5
530
330
17
100
AcDbEntity
  8
4
100
AcDbLine
 10
348.6009908545126
 20
546.3054587104913
 30
0.0
 11
348.6009908545126
 21
556.8054587104913
 31
0.0
  0
LINE
  5
531
330
17
100
AcDbEntity
  8
4
100
AcDbLine
 10
289.6009908545127
 20
527.8054587104913
 30
0.0
 11
289.6009908545127
 21
557.8054587104913
 31
0.0
  0
LINE
  5
532
330
17
100
AcDbEntity
  8
4
  6
Continuous
100
AcDbLine
 10
279.6009908545126
 20
527.8054587104915
 30
0.0
 11
289.6009908545127
 21
527.8054587104913
 31
0.0
  0
ARC
  5
533
330
17
100
AcDbEntity
  8
4
100
AcDbCircle
 10
290.6009908545127
 20
527.8054587104915
 30
0.0
 40
1.0
100
AcDbArc
 50
90.0
 51
180.0
  0
LINE
  5
534
330
17
100
AcDbEntity
  8
4
  6
Continuous
100
AcDbLine
 10
279.6009908545126
 20
557.8054587104913
 30
0.0
 11
289.6009908545127
 21
557.8054587104913
 31
0.0
  0
ARC
  5
535
330
17
100
AcDbEntity
  8
4
100
AcDbCircle
 10
290.6009908545127
 20
557.8054587104913
 30
0.0
 40
1.0
100
AcDbArc
 50
180.0
 51
270.0
  0
ARC
  5
536
330
17
100
AcDbEntity
  8
4
100
AcDbCircle
 10
298.1009908545127
 20
542.8054587104913
 30
0.0
 40
3.5
100
AcDbArc
 50
90.0
 51
180.0
  0
ARC
  5
537
330
17
100
AcDbEntity
  8
4
100
AcDbCircle
 10
298.1009908545127
 20
542.8054587104913
 30
0.0
 40
3.5
100
AcDbArc
 50
180.0
 51
270.0
  0
LINE
  5
53A
330
17
100
AcDbEntity
  8
4
100
AcDbLine
 10
278.6009908545126
 20
179.0835307363679
 30
0.0
 11
279.6009908545126
 21
179.0835307363679
 31
0.0
  0
LINE
  5
53B
330
17
100
AcDbEntity
  8
4
100
AcDbLine
 10
279.6009908545126
 20
160.0832867363681
 30
0.0
 11
279.6009908545126
 21
179.0835307363679
 31
0.0
  0
LINE
  5
53C
330
17
100
AcDbEntity
  8
4
100
AcDbLine
 10
294.6009908545126
 20
171.0835307363679
 30
0.0
 11
294.6009908545126
 21
168.0835307363679
 31
0.0
  0
LINE
  5
53D
330
17
100
AcDbEntity
  8
4
100
AcDbLine
 10
289.6009908545126
 20
160.0832867363681
 30
0.0
 11
289.6009908545126
 21
169.0835307363679
 31
0.0
  0
LINE
  5
53E
330
17
100
AcDbEntity
  8
4
100
AcDbLine
 10
279.6009908545126
 20
169.0835307363679
 30
0.0
 11
289.6009908545126
 21
169.0835307363679
 31
0.0
  0
LINE
  5
53F
330
17
100
AcDbEntity
  8
4
100
AcDbLine
 10
349.6009908545126
 20
171.0835307363679
 30
0.0
 11
349.6009908545126
 21
141.0835307363679
 31
0.0
  0
LINE
  5
540
330
17
100
AcDbEntity
  8
4
100
AcDbLine
 10
348.6009908545126
 20
168.0835307363679
 30
0.0
 11
348.6009908545126
 21
140.0835307363679
 31
0.0
  0
LINE
  5
541
330
17
100
AcDbEntity
  8
4
100
AcDbLine
 10
348.6009908545126
 20
140.0835307363679
 30
0.0
 11
349.6009908545126
 21
141.0835307363679
 31
0.0
  0
LINE
  5
542
330
17
100
AcDbEntity
  8
4
100
AcDbLine
 10
349.6009908545126
 20
167.0835307363679
 30
0.0
 11
348.6009908545126
 21
168.0835307363679
 31
0.0
  0
LINE
  5
543
330
17
100
AcDbEntity
  8
4
100
AcDbLine
 10
290.6009908545126
 20
140.0835307363679
 30
0.0
 11
348.6009908545126
 21
140.0835307363679
 31
0.0
  0
LINE
  5
544
330
17
100
AcDbEntity
  8
4
100
AcDbLine
 10
294.6009908545126
 20
171.0835307363679
 30
0.0
 11
349.6009908545126
 21
171.0835307363679
 31
0.0
  0
LINE
  5
545
330
17
100
AcDbEntity
  8
4
100
AcDbLine
 10
289.6009908545126
 20
168.0835307363679
 30
0.0
 11
348.6009908545126
 21
168.0835307363679
 31
0.0
  0
LINE
  5
56A
330
17
100
AcDbEntity
  8
4
100
AcDbLine
 10
134.1009908545127
 20
430.3054587104913
 30
0.0
 11
109.6009908545127
 21
430.3054587104913
 31
0.0
  0
LINE
  5
56B
330
17
100
AcDbEntity
  8
4
100
AcDbLine
 10
139.1009908545127
 20
434.8054587104913
 30
0.0
 11
110.1009908545127
 21
434.8054587104913
 31
0.0
  0
LINE
  5
56C
330
17
100
AcDbEntity
  8
4
100
AcDbLine
 10
134.1009908545127
 20
425.3054587104913
 30
0.0
 11
109.6009908545127
 21
425.3054587104913
 31
0.0
  0
LINE
  5
56D
330
17
100
AcDbEntity
  8
4
100
AcDbLine
 10
139.1009908545127
 20
420.8054587104913
 30
0.0
 11
110.1009908545127
 21
420.8054587104913
 31
0.0
  0
ARC
  5
56E
330
17
100
AcDbEntity
  8
4
100
AcDbCircle
 10
139.1009908545127
 20
435.3054587104913
 30
0.0
 40
0.5
100
AcDbArc
 50
270.0
 51
0.0
  0
ARC
  5
56F
330
17
100
AcDbEntity
  8
4
100
AcDbCircle
 10
139.1009908545127
 20
420.3054587104913
 30
0.0
 40
0.5
100
AcDbArc
 50
0.0
 51
90.0
  0
ARC
  5
570
330
17
100
AcDbEntity
  8
4
100
AcDbCircle
 10
134.1009908545127
 20
427.8054587104913
 30
0.0
 40
2.5
100
AcDbArc
 50
270.0
 51
90.0
  0
LINE
  5
571
330
17
100
AcDbEntity
  8
4
100
AcDbLine
 10
139.6009908545127
 20
436.3054587104913
 30
0.0
 11
139.6009908545127
 21
419.3054587104913
 31
0.0
  0
LINE
  5
572
330
17
100
AcDbEntity
  8
4
100
AcDbLine
 10
109.6009908545127
 20
434.3054587104913
 30
0.0
 11
110.1009908545127
 21
434.8054587104913
 31
0.0
  0
LINE
  5
573
330
17
100
AcDbEntity
  8
4
100
AcDbLine
 10
110.1009908545127
 20
434.8054587104913
 30
0.0
 11
110.1009908545127
 21
430.3054587104913
 31
0.0
  0
LINE
  5
574
330
17
100
AcDbEntity
  8
4
100
AcDbLine
 10
109.6009908545127
 20
421.3054587104913
 30
0.0
 11
110.1009908545127
 21
420.8054587104913
 31
0.0
  0
LINE
  5
575
330
17
100
AcDbEntity
  8
4
100
AcDbLine
 10
110.1009908545127
 20
425.3054587104913
 30
0.0
 11
110.1009908545127
 21
420.8054587104913
 31
0.0
  0
LINE
  5
576
330
17
100
AcDbEntity
  8
4
100
AcDbLine
 10
109.6009908545127
 20
434.3054587104913
 30
0.0
 11
109.6009908545127
 21
421.3054587104913
 31
0.0
  0
LINE
  5
577
330
17
100
AcDbEntity
  8
4
100
AcDbLine
 10
148.6012048545126
 20
436.3054587104913
 30
0.0
 11
139.6009908545127
 21
436.3054587104913
 31
0.0
  0
LINE
  5
578
330
17
100
AcDbEntity
  8
4
100
AcDbLine
 10
148.6012048545126
 20
419.3054587104913
 30
0.0
 11
139.6009908545127
 21
419.3054587104913
 31
0.0
  0
LINE
  5
57A
330
17
100
AcDbEntity
  8
4
100
AcDbLine
 10
110.6012048545126
 20
138.0832867363681
 30
0.0
 11
110.6012048545126
 21
124.0832867363681
 31
0.0
  0
LINE
  5
57B
330
17
100
AcDbEntity
  8
4
100
AcDbLine
 10
109.6012048545126
 20
125.0832867363681
 30
0.0
 11
110.6012048545126
 21
124.0832867363681
 31
0.0
  0
LINE
  5
57C
330
17
100
AcDbEntity
  8
4
100
AcDbLine
 10
110.6012048545126
 20
138.0832867363681
 30
0.0
 11
109.6012048545126
 21
137.0832867363681
 31
0.0
  0
LINE
  5
57D
330
17
100
AcDbEntity
  8
4
100
AcDbLine
 10
139.6012048545124
 20
138.5832867363681
 30
0.0
 11
139.6012048545124
 21
123.5832867363681
 31
0.0
  0
LINE
  5
57E
330
17
100
AcDbEntity
  8
4
100
AcDbLine
 10
148.6012048545124
 20
123.5832867363681
 30
0.0
 11
139.6012048545124
 21
123.5832867363681
 31
0.0
  0
LINE
  5
57F
330
17
100
AcDbEntity
  8
4
100
AcDbLine
 10
148.6012048545124
 20
138.5832867363681
 30
0.0
 11
139.6012048545124
 21
138.5832867363681
 31
0.0
  0
LINE
  5
580
330
17
100
AcDbEntity
  8
4
100
AcDbLine
 10
139.6012048545124
 20
138.0832867363681
 30
0.0
 11
110.6012048545126
 21
138.0832867363681
 31
0.0
  0
LINE
  5
581
330
17
100
AcDbEntity
  8
4
100
AcDbLine
 10
139.6012048545124
 20
124.0832867363681
 30
0.0
 11
110.6012048545126
 21
124.0832867363681
 31
0.0
  0
LINE
  5
582
330
17
100
AcDbEntity
  8
4
100
AcDbLine
 10
136.6012048545124
 20
140.0832867363681
 30
0.0
 11
136.6012048545124
 21
138.0832867363681
 31
0.0
  0
LINE
  5
583
330
17
100
AcDbEntity
  8
4
100
AcDbLine
 10
109.6012048545126
 20
125.0832867363681
 30
0.0
 11
109.6012048545126
 21
140.0832867363681
 31
0.0
  0
LINE
  5
599
330
17
100
AcDbEntity
  8
4
100
AcDbLine
 10
109.6012048545126
 20
140.0832867363681
 30
0.0
 11
136.6012048545124
 21
140.0832867363681
 31
0.0
  0
ENDSEC
  0
SECTION
  2
OBJECTS
  0
DICTIONARY
  5
5
330
0
100
AcDbDictionary
281
     1
  3
ACAD_COLOR
350
28
  3
ACAD_GROUP
350
26
  3
ACAD_LAYOUT
350
1E
  3
ACAD_MATERIAL
350
7
  3
ACAD_MLEADERSTYLE
350
4EB
  3
ACAD_MLINESTYLE
350
15
  3
ACAD_PLOTSETTINGS
350
27
  3
ACAD_PLOTSTYLENAME
350
4
  3
ACAD_SCALELIST
350
2C
  3
ACAD_TABLESTYLE
350
4EA
  3
ACAD_VISUALSTYLE
350
29
  3
ACDBHEADERROUNDTRIPXREC
350
5AE
  3
AcDbVariableDictionary
350
4E8
  3
DWGPROPS
350
5B1
  0
DICTIONARY
  5
5B2
330
25
100
AcDbDictionary
280
     1
281
     1
  3
ACAD_XREC_ROUNDTRIP
360
5B3
  0
DICTIONARY
  5
150
330
14F
100
AcDbDictionary
280
     1
281
     1
  3
ADSK_XREC_LAYER_RECONCILED
360
151
  0
DICTIONARY
  5
18
330
17
100
AcDbDictionary
280
     1
281
     1
  3
ACAD_SORTENTS
360
19
  0
DICTIONARY
  5
28
102
{ACAD_REACTORS
330
5
102
}
330
5
100
AcDbDictionary
281
     1
  0
DICTIONARY
  5
26
102
{ACAD_REACTORS
330
5
102
}
330
5
100
AcDbDictionary
281
     1
  0
DICTIONARY
  5
1E
102
{ACAD_REACTORS
330
5
102
}
330
5
100
AcDbDictionary
281
     1
  3
Model
350
1D
  3
ﾚｲｱｳﾄ1
350
22
  0
DICTIONARY
  5
7
102
{ACAD_REACTORS
330
5
102
}
330
5
100
AcDbDictionary
281
     1
  3
ByBlock
350
4F
  3
ByLayer
350
10
  3
Global
350
6
  0
DICTIONARY
  5
4EB
102
{ACAD_REACTORS
330
5
102
}
330
5
100
AcDbDictionary
281
     1
  3
Standard
350
515
  0
DICTIONARY
  5
15
102
{ACAD_REACTORS
330
5
102
}
330
5
100
AcDbDictionary
281
     1
  3
STANDARD
350
14
  0
DICTIONARY
  5
27
102
{ACAD_REACTORS
330
5
102
}
330
5
100
AcDbDictionary
281
     1
  0
ACDBDICTIONARYWDFLT
  5
4
102
{ACAD_REACTORS
330
5
102
}
330
5
100
AcDbDictionary
281
     1
  3
Normal
350
3
100
AcDbDictionaryWithDefault
340
3
  0
DICTIONARY
  5
2C
102
{ACAD_REACTORS
330
5
102
}
330
5
100
AcDbDictionary
281
     1
  3
*A1
350
4E
  0
DICTIONARY
  5
4EA
102
{ACAD_REACTORS
330
5
102
}
330
5
100
AcDbDictionary
281
     1
  3
Standard
350
51A
  0
DICTIONARY
  5
29
102
{ACAD_REACTORS
330
5
102
}
330
5
100
AcDbDictionary
281
     1
  3
2dWireframe
350
4F3
  3
Basic
350
4F6
  3
Brighten
350
4FA
  3
ColorChange
350
4FE
  3
Conceptual
350
4F8
  3
Dim
350
4F9
  3
EdgeColorOff
350
501
  3
Facepattern
350
4FD
  3
Flat
350
4EF
  3
FlatWithEdges
350
4F0
  3
Gouraud
350
4F1
  3
GouraudWithEdges
350
4F2
  3
Hidden
350
4F5
  3
JitterOff
350
4FF
  3
Linepattern
350
4FC
  3
OverhangOff
350
500
  3
Realistic
350
4F7
  3
Shaded
350
506
  3
Shaded with edges
350
505
  3
Shades of Gray
350
502
  3
Sketchy
350
503
  3
Thicken
350
4FB
  3
Wireframe
350
4F4
  3
X-Ray
350
504
  0
DICTIONARY
  5
5AE
102
{ACAD_REACTORS
330
5
102
}
330
5
100
AcDbDictionary
281
     1
  3
COLORDICT
350
5AF
  3
MATERIALDICT
350
5B0
  0
DICTIONARY
  5
4E8
102
{ACAD_REACTORS
330
5
102
}
330
5
100
AcDbDictionary
281
     1
  3
CANNOSCALE
350
4E9
  3
CMLEADERSTYLE
350
517
  3
CTABLESTYLE
350
51B
  3
DIMASSOC
350
5AC
  3
HIDETEXT
350
5AD
  3
MSLTSCALE
350
5B4
  3
XCLIPFRAME
350
4EC
  0
XRECORD
  5
5B1
102
{ACAD_REACTORS
330
5
102
}
330
5
100
AcDbXrecord
280
     1
  1
DWGPROPS COOKIE
  2

  3

  4

  6

  7

  8
sg-d03
  9

300
=
301
=
302
=
303
=
304
=
305
=
306
=
307
=
308
=
309
=
 40
0.0
 41
2457560.077215046
 42
2458115.394645301
  1

 90
        0
  0
XRECORD
  5
5B3
102
{ACAD_REACTORS
330
5B2
102
}
330
5B2
100
AcDbXrecord
280
     1
102
VTR_0.000_0.000_1.000_1.000_GRIDDISPLAY
 70
     3
102
VTR_0.000_0.000_1.000_1.000_GRIDMAJOR
 70
     5
102
VTR_0.000_0.000_1.000_1.000_DEFAULTLIGHTING
280
     1
102
VTR_0.000_0.000_1.000_1.000_DEFAULTLIGHTINGTYPE
 70
     1
102
VTR_0.000_0.000_1.000_1.000_BRIGHTNESS
141
0.0
102
VTR_0.000_0.000_1.000_1.000_CONTRAST
142
0.0
  0
XRECORD
  5
151
102
{ACAD_REACTORS
330
150
102
}
330
150
100
AcDbXrecord
280
     1
290
     1
  0
SORTENTSTABLE
  5
19
102
{ACAD_REACTORS
330
18
102
}
330
18
100
AcDbSortentsTable
330
17
331
0
  5
17C
331
0
  5
378
331
0
  5
377
331
0
  5
376
331
0
  5
375
331
0
  5
374
331
0
  5
373
331
0
  5
372
331
0
  5
371
331
0
  5
370
331
0
  5
36F
331
0
  5
36E
331
0
  5
36D
331
0
  5
36C
331
0
  5
36B
331
0
  5
36A
331
0
  5
369
331
0
  5
368
331
0
  5
367
331
0
  5
366
331
0
  5
365
331
0
  5
364
331
0
  5
363
331
0
  5
362
331
0
  5
361
331
0
  5
360
331
0
  5
35F
331
0
  5
35E
331
0
  5
35D
331
0
  5
35C
331
0
  5
35B
331
0
  5
35A
331
0
  5
359
331
0
  5
358
331
0
  5
357
331
0
  5
356
331
0
  5
355
331
0
  5
354
331
0
  5
353
331
0
  5
352
331
0
  5
351
331
0
  5
350
331
0
  5
34F
331
0
  5
34E
331
0
  5
34D
331
0
  5
34C
331
0
  5
34B
331
0
  5
33F
331
0
  5
33A
331
0
  5
338
331
0
  5
337
331
0
  5
336
331
0
  5
335
331
0
  5
334
331
0
  5
333
331
0
  5
332
331
0
  5
331
331
0
  5
330
331
0
  5
32F
331
0
  5
32E
331
0
  5
32D
331
0
  5
32C
331
0
  5
32B
331
0
  5
32A
331
0
  5
329
331
0
  5
328
331
0
  5
327
331
0
  5
326
331
0
  5
325
331
0
  5
324
331
0
  5
323
331
0
  5
322
331
0
  5
321
331
0
  5
318
331
0
  5
317
331
0
  5
316
331
0
  5
315
331
0
  5
314
331
0
  5
313
331
0
  5
312
331
0
  5
311
331
0
  5
310
331
0
  5
30F
331
0
  5
30E
331
0
  5
30D
331
0
  5
30C
331
0
  5
30B
331
0
  5
30A
331
0
  5
309
331
0
  5
308
331
0
  5
307
331
0
  5
306
331
0
  5
305
331
0
  5
304
331
0
  5
303
331
0
  5
302
331
0
  5
301
331
0
  5
300
331
0
  5
2FF
331
0
  5
2FE
331
0
  5
2FD
331
0
  5
2FC
331
0
  5
2FB
331
0
  5
2FA
331
0
  5
2F9
331
0
  5
2F8
331
0
  5
2F7
331
0
  5
2F6
331
0
  5
2F5
331
0
  5
2F4
331
0
  5
2F3
331
0
  5
2F2
331
0
  5
2F1
331
0
  5
2F0
331
0
  5
2EF
331
0
  5
2EE
331
0
  5
2ED
331
0
  5
2EC
331
0
  5
2EB
331
0
  5
2EA
331
0
  5
2E9
331
0
  5
2E8
331
0
  5
2E7
331
0
  5
2E6
331
0
  5
2E5
331
0
  5
2E4
331
0
  5
2E3
331
0
  5
2E2
331
0
  5
2E1
331
0
  5
2E0
331
0
  5
2DF
331
0
  5
2DE
331
0
  5
2DD
331
0
  5
2DC
331
0
  5
2DB
331
0
  5
2DA
331
0
  5
2D9
331
0
  5
2D8
331
0
  5
2D7
331
0
  5
2D6
331
0
  5
2D5
331
0
  5
2D4
331
0
  5
2D3
331
0
  5
2D2
331
0
  5
2D1
331
0
  5
2D0
331
0
  5
2CF
331
0
  5
2CE
331
0
  5
2CD
331
0
  5
2CC
331
0
  5
2CB
331
0
  5
2CA
331
0
  5
2C9
331
0
  5
2C8
331
0
  5
2C7
331
0
  5
2C6
331
0
  5
2C5
331
0
  5
2C4
331
0
  5
2C3
331
0
  5
2C2
331
0
  5
2C1
331
0
  5
2C0
331
0
  5
2BF
331
0
  5
2BE
331
0
  5
2BD
331
0
  5
2BC
331
0
  5
2BB
331
0
  5
2BA
331
0
  5
2B9
331
0
  5
2B8
331
0
  5
2B7
331
0
  5
2B6
331
0
  5
2B5
331
0
  5
2B4
331
0
  5
2B3
331
0
  5
2B2
331
0
  5
2B1
331
0
  5
2B0
331
0
  5
2AF
331
0
  5
2AE
331
0
  5
2AD
331
0
  5
2AC
331
0
  5
2AB
331
0
  5
2AA
331
0
  5
2A9
331
0
  5
2A8
331
0
  5
2A7
331
0
  5
2A6
331
0
  5
2A5
331
0
  5
2A4
331
0
  5
2A3
331
0
  5
2A2
331
0
  5
2A1
331
0
  5
2A0
331
0
  5
29F
331
0
  5
29E
331
0
  5
29D
331
0
  5
29C
331
0
  5
29B
331
0
  5
29A
331
0
  5
299
331
0
  5
298
331
0
  5
297
331
0
  5
296
331
0
  5
295
331
0
  5
294
331
0
  5
293
331
0
  5
292
331
0
  5
291
331
0
  5
290
331
0
  5
28F
331
0
  5
28E
331
0
  5
28D
331
0
  5
28C
331
0
  5
28B
331
0
  5
28A
331
0
  5
289
331
0
  5
288
331
0
  5
287
331
0
  5
286
331
0
  5
285
331
0
  5
284
331
0
  5
283
331
0
  5
282
331
0
  5
281
331
0
  5
280
331
0
  5
27F
331
0
  5
27E
331
0
  5
27D
331
0
  5
27C
331
0
  5
27B
331
0
  5
27A
331
0
  5
279
331
0
  5
278
331
0
  5
277
331
0
  5
276
331
0
  5
275
331
0
  5
274
331
0
  5
273
331
0
  5
272
331
0
  5
271
331
0
  5
270
331
0
  5
26F
331
0
  5
26E
331
0
  5
26D
331
0
  5
26C
331
0
  5
26B
331
0
  5
26A
331
0
  5
269
331
0
  5
268
331
0
  5
267
331
0
  5
266
331
0
  5
265
331
0
  5
264
331
0
  5
263
331
0
  5
262
331
0
  5
261
331
0
  5
260
331
0
  5
25F
331
0
  5
25E
331
0
  5
25D
331
0
  5
25C
331
0
  5
25B
331
0
  5
25A
331
0
  5
259
331
0
  5
258
331
0
  5
257
331
0
  5
256
331
0
  5
255
331
0
  5
254
331
0
  5
253
331
0
  5
252
331
0
  5
251
331
0
  5
250
331
0
  5
24F
331
0
  5
24E
331
0
  5
24D
331
0
  5
24C
331
0
  5
24B
331
0
  5
24A
331
0
  5
249
331
0
  5
248
331
0
  5
247
331
0
  5
246
331
0
  5
245
331
0
  5
244
331
0
  5
243
331
0
  5
242
331
0
  5
241
331
0
  5
240
331
0
  5
23F
331
0
  5
23E
331
0
  5
23D
331
0
  5
23C
331
0
  5
23B
331
0
  5
23A
331
0
  5
239
331
0
  5
238
331
0
  5
237
331
0
  5
236
331
0
  5
235
331
0
  5
234
331
0
  5
233
331
0
  5
232
331
0
  5
231
331
0
  5
230
331
0
  5
22F
331
0
  5
22E
331
0
  5
22D
331
0
  5
22C
331
0
  5
22B
331
0
  5
22A
331
0
  5
229
331
0
  5
228
331
0
  5
227
331
0
  5
226
331
0
  5
225
331
0
  5
224
331
0
  5
223
331
0
  5
222
331
0
  5
221
331
0
  5
220
331
0
  5
21F
331
0
  5
21E
331
0
  5
21D
331
0
  5
21C
331
0
  5
21B
331
0
  5
21A
331
0
  5
219
331
0
  5
218
331
0
  5
217
331
0
  5
216
331
0
  5
215
331
0
  5
214
331
0
  5
213
331
0
  5
212
331
0
  5
211
331
0
  5
210
331
0
  5
20F
331
0
  5
20E
331
0
  5
20D
331
0
  5
20C
331
0
  5
20B
331
0
  5
20A
331
0
  5
209
331
0
  5
208
331
0
  5
207
331
0
  5
206
331
0
  5
205
331
0
  5
204
331
0
  5
203
331
0
  5
202
331
0
  5
201
331
0
  5
200
331
0
  5
1FF
331
0
  5
1FE
331
0
  5
1FD
331
0
  5
1FC
331
0
  5
1FB
331
0
  5
1FA
331
0
  5
1F9
331
0
  5
1F8
331
0
  5
1F7
331
0
  5
1F6
331
0
  5
1F5
331
0
  5
1F4
331
0
  5
1F3
331
0
  5
1F2
331
0
  5
1F1
331
0
  5
1F0
331
0
  5
1EF
331
0
  5
1EE
331
0
  5
1ED
331
0
  5
1EC
331
0
  5
1EB
331
0
  5
1EA
331
0
  5
1E9
331
0
  5
1E7
331
0
  5
1E6
331
0
  5
1E5
331
0
  5
1E4
331
0
  5
1E3
331
0
  5
1E2
331
0
  5
1E1
331
0
  5
1E0
331
0
  5
1DF
331
0
  5
1DE
331
0
  5
1DD
331
0
  5
1DC
331
0
  5
1DB
331
0
  5
1DA
331
0
  5
1D9
331
0
  5
1D8
331
0
  5
1D7
331
0
  5
1D6
331
0
  5
1D5
331
0
  5
1D4
331
0
  5
1D3
331
0
  5
1D2
331
0
  5
1D1
331
0
  5
1D0
331
0
  5
1CF
331
0
  5
1CE
331
0
  5
1CD
331
0
  5
1CC
331
0
  5
1CB
331
0
  5
1CA
331
0
  5
1C9
331
0
  5
1C8
331
0
  5
1C7
331
0
  5
1C6
331
0
  5
1C5
331
0
  5
1C4
331
0
  5
1C3
331
0
  5
1C2
331
0
  5
1C1
331
0
  5
1C0
331
0
  5
1BF
331
0
  5
1BE
331
0
  5
1BD
331
0
  5
1BC
331
0
  5
1BB
331
0
  5
1BA
331
0
  5
1B9
331
0
  5
1B8
331
0
  5
1B7
331
0
  5
1B6
331
0
  5
1B5
331
0
  5
1B4
331
0
  5
1B3
331
0
  5
1B2
331
0
  5
1B1
331
0
  5
1B0
331
0
  5
1AF
331
0
  5
1AE
331
0
  5
1AD
331
224
  5
1AC
331
225
  5
1AB
331
226
  5
1AA
331
227
  5
1A9
331
228
  5
1A8
331
229
  5
1A7
331
22A
  5
1A6
331
22B
  5
1A5
331
22C
  5
1A4
331
22D
  5
1A3
331
0
  5
1A2
331
0
  5
1A0
331
0
  5
19F
331
0
  5
19E
331
0
  5
19D
331
0
  5
19C
331
0
  5
19B
331
0
  5
19A
331
0
  5
199
331
0
  5
198
331
0
  5
197
331
0
  5
196
331
0
  5
195
331
0
  5
194
331
0
  5
191
331
0
  5
190
331
241
  5
18F
331
242
  5
18E
331
243
  5
18D
331
244
  5
18C
331
245
  5
18B
331
246
  5
18A
331
247
  5
189
331
248
  5
188
331
249
  5
187
331
24A
  5
186
331
24B
  5
185
331
24C
  5
184
331
24D
  5
183
331
24E
  5
182
331
0
  5
181
331
250
  5
180
331
251
  5
17F
331
252
  5
17E
331
253
  5
17D
331
254
  5
17B
331
0
  5
17A
331
0
  5
179
331
0
  5
178
331
0
  5
177
331
0
  5
176
331
0
  5
175
331
0
  5
174
331
0
  5
173
331
0
  5
172
331
0
  5
171
331
0
  5
170
331
0
  5
16F
331
0
  5
16E
331
0
  5
16D
331
263
  5
16C
331
264
  5
16B
331
265
  5
16A
331
266
  5
169
331
267
  5
168
331
268
  5
167
331
269
  5
166
331
26A
  5
165
331
26B
  5
164
331
26C
  5
163
331
26D
  5
162
331
26E
  5
161
331
26F
  5
160
331
270
  5
15F
331
0
  5
15E
331
0
  5
15D
331
0
  5
15C
331
0
  5
15B
331
0
  5
15A
331
0
  5
159
331
0
  5
157
331
0
  5
155
331
0
  5
154
331
0
  5
153
331
0
  5
152
331
0
  5
14E
331
0
  5
14D
331
0
  5
14C
331
0
  5
14B
331
0
  5
14A
331
0
  5
149
331
0
  5
148
331
283
  5
146
331
284
  5
145
331
285
  5
144
331
286
  5
143
331
287
  5
142
331
288
  5
141
331
289
  5
140
331
28A
  5
13F
331
28B
  5
13E
331
28C
  5
13D
331
28D
  5
13C
331
28E
  5
13B
331
0
  5
13A
331
0
  5
139
331
0
  5
138
331
0
  5
137
331
0
  5
136
331
0
  5
135
331
0
  5
134
331
0
  5
133
331
0
  5
132
331
0
  5
131
331
0
  5
130
331
0
  5
12F
331
0
  5
12E
331
0
  5
12D
331
0
  5
12C
331
0
  5
12B
331
0
  5
12A
331
0
  5
129
331
0
  5
128
331
0
  5
127
331
0
  5
126
331
0
  5
125
331
0
  5
124
331
0
  5
123
331
2A7
  5
122
331
2A8
  5
121
331
2A9
  5
120
331
2AA
  5
11F
331
2AB
  5
11E
331
2AC
  5
11D
331
2AD
  5
11C
331
2AE
  5
11B
331
2AF
  5
11A
331
2B0
  5
119
331
2B1
  5
118
331
2B2
  5
117
331
2B3
  5
116
331
2B4
  5
115
331
2B5
  5
114
331
2B6
  5
113
331
2B7
  5
112
331
2B8
  5
111
331
2B9
  5
110
331
2BA
  5
10F
331
2BB
  5
10E
331
2BC
  5
10D
331
2BD
  5
10C
331
2BE
  5
10B
331
2BF
  5
10A
331
2C0
  5
109
331
2C1
  5
108
331
2C2
  5
107
331
2C3
  5
106
331
2C4
  5
105
331
2C5
  5
104
331
2C6
  5
103
331
2C7
  5
102
331
2C8
  5
101
331
2C9
  5
100
331
2CA
  5
FF
331
2CB
  5
FE
331
2CC
  5
FD
331
2CD
  5
FC
331
2CE
  5
FB
331
2CF
  5
FA
331
2D0
  5
F9
331
2D1
  5
F8
331
2D2
  5
F7
331
2D3
  5
F6
331
2D4
  5
F5
331
2D5
  5
F4
331
2D6
  5
F3
331
2D7
  5
F2
331
2D8
  5
F1
331
2D9
  5
F0
331
2DA
  5
EF
331
2DB
  5
EE
331
2DC
  5
ED
331
2DD
  5
EC
331
2DE
  5
EB
331
2DF
  5
EA
331
2E0
  5
E9
331
2E1
  5
E8
331
2E2
  5
E7
331
2E3
  5
E6
331
2E4
  5
E5
331
2E5
  5
E4
331
2E6
  5
E3
331
2E7
  5
E2
331
2E8
  5
E1
331
2E9
  5
E0
331
0
  5
DF
331
0
  5
DE
331
2EC
  5
DD
331
2ED
  5
DC
331
2EE
  5
DB
331
2EF
  5
DA
331
2F0
  5
D9
331
2F1
  5
D8
331
2F2
  5
D7
331
2F3
  5
D6
331
2F4
  5
D5
331
2F5
  5
D4
331
2F6
  5
D3
331
0
  5
D2
331
2F8
  5
D1
331
2F9
  5
D0
331
0
  5
CF
331
0
  5
CE
331
2FC
  5
CD
331
2FD
  5
CC
331
2FE
  5
CB
331
2FF
  5
CA
331
300
  5
C9
331
301
  5
C8
331
0
  5
C7
331
0
  5
C6
331
304
  5
C5
331
305
  5
C4
331
306
  5
C3
331
307
  5
C2
331
308
  5
C1
331
309
  5
C0
331
0
  5
BF
331
0
  5
BE
331
0
  5
BD
331
0
  5
BC
331
30E
  5
BB
331
30F
  5
BA
331
310
  5
B9
331
311
  5
B8
331
312
  5
B7
331
313
  5
B6
331
314
  5
B5
331
315
  5
B4
331
316
  5
B3
331
317
  5
B2
331
318
  5
B1
331
319
  5
B0
331
31A
  5
AF
331
31B
  5
AE
331
31C
  5
AD
331
31D
  5
AC
331
31E
  5
AB
331
31F
  5
AA
331
320
  5
A9
331
321
  5
A8
331
322
  5
A7
331
323
  5
A6
331
324
  5
A5
331
325
  5
A4
331
326
  5
A3
331
327
  5
A2
331
328
  5
A1
331
334
  5
95
331
335
  5
94
331
336
  5
93
331
33B
  5
8E
331
33D
  5
8C
331
33E
  5
8B
331
33F
  5
8A
331
340
  5
89
331
341
  5
88
331
342
  5
87
331
343
  5
86
331
344
  5
85
331
345
  5
84
331
346
  5
83
331
347
  5
82
331
348
  5
81
331
349
  5
80
331
34A
  5
7F
331
34B
  5
7E
331
34C
  5
7D
331
34D
  5
7C
331
34E
  5
7B
331
34F
  5
7A
331
350
  5
79
331
351
  5
78
331
352
  5
77
331
353
  5
76
331
354
  5
75
331
355
  5
74
331
356
  5
73
331
357
  5
72
331
35A
  5
6F
331
35C
  5
6D
331
0
  5
69
331
361
  5
68
331
362
  5
67
331
363
  5
66
331
364
  5
65
331
365
  5
64
331
366
  5
63
331
367
  5
62
331
368
  5
61
331
369
  5
60
331
36A
  5
5F
331
36B
  5
5E
331
36C
  5
5D
331
36D
  5
5C
331
36E
  5
5B
331
36F
  5
5A
331
370
  5
59
331
0
  5
58
331
0
  5
56
331
373
  5
55
331
374
  5
54
331
375
  5
53
331
376
  5
50
331
377
  5
379
331
378
  5
37A
331
379
  5
37B
331
37A
  5
37C
331
37B
  5
37D
331
37C
  5
37E
331
37D
  5
37F
331
37E
  5
380
331
37F
  5
381
331
380
  5
382
331
381
  5
383
331
382
  5
384
331
383
  5
385
331
384
  5
386
331
385
  5
387
331
386
  5
388
331
387
  5
389
331
388
  5
38A
331
389
  5
38B
331
38A
  5
38C
331
38B
  5
38D
331
38C
  5
38E
331
38D
  5
38F
331
38E
  5
390
331
38F
  5
391
331
390
  5
392
331
391
  5
393
331
392
  5
394
331
393
  5
395
331
394
  5
396
331
395
  5
397
331
396
  5
398
331
397
  5
399
331
398
  5
39A
331
399
  5
39B
331
39A
  5
39C
331
39B
  5
39D
331
39C
  5
39E
331
39D
  5
39F
331
39E
  5
3A0
331
0
  5
3A1
331
3A0
  5
3A2
331
3A1
  5
3A3
331
3A2
  5
3A4
331
3A3
  5
3A5
331
3A4
  5
3A6
331
3A5
  5
3A7
331
0
  5
3A8
331
0
  5
3A9
331
0
  5
3AA
331
3A9
  5
3AB
331
3AA
  5
3AC
331
3AB
  5
3AD
331
3AC
  5
3AE
331
3AD
  5
3AF
331
3AE
  5
3B0
331
3AF
  5
3B1
331
3B0
  5
3B2
331
3B1
  5
3B3
331
3B2
  5
3B4
331
3B3
  5
3B5
331
3B4
  5
3B6
331
3B5
  5
3B7
331
3B6
  5
3B8
331
3B7
  5
3B9
331
3B8
  5
3BA
331
3B9
  5
3BB
331
3BA
  5
3BC
331
3BB
  5
3BD
331
3BC
  5
3BE
331
3BD
  5
3BF
331
3BE
  5
3C0
331
3BF
  5
3C1
331
3C0
  5
3C2
331
3C1
  5
3C3
331
3C2
  5
3C4
331
3C3
  5
3C5
331
3C4
  5
3C6
331
3C5
  5
3C7
331
3C6
  5
3C8
331
3C7
  5
3C9
331
3C8
  5
3CA
331
3C9
  5
3CB
331
3CA
  5
3CC
331
3CB
  5
3CD
331
3CC
  5
3CE
331
3CD
  5
3CF
331
3CE
  5
3D0
331
3CF
  5
3D1
331
3D0
  5
3D2
331
3D1
  5
3D3
331
3D2
  5
3D4
331
3D3
  5
3D5
331
3D4
  5
3D6
331
3D5
  5
3D7
331
3D6
  5
3D8
331
3D7
  5
3D9
331
3D8
  5
3DA
331
3D9
  5
3DB
331
3DA
  5
3DC
331
3DB
  5
3DD
331
3DC
  5
3DE
331
3DD
  5
3DF
331
3DE
  5
3E0
331
3DF
  5
3E1
331
3E0
  5
3E2
331
3E1
  5
3E3
331
3E2
  5
3E4
331
3E3
  5
3E5
331
3E4
  5
3E6
331
3E5
  5
3E7
331
3E6
  5
3E8
331
3E7
  5
3E9
331
3E8
  5
3EA
331
3E9
  5
3EB
331
3EA
  5
3EC
331
3EB
  5
3ED
331
3EC
  5
3EE
331
3ED
  5
3EF
331
3EE
  5
3F0
331
3EF
  5
3F1
331
3F0
  5
3F2
331
3F1
  5
3F3
331
3F2
  5
3F4
331
3F3
  5
3F5
331
3F4
  5
3F6
331
3F5
  5
3F7
331
3F6
  5
3F8
331
3F7
  5
3F9
331
3F8
  5
3FA
331
3F9
  5
3FB
331
3FA
  5
3FC
331
3FB
  5
3FD
331
3FC
  5
3FE
331
3FD
  5
3FF
331
3FE
  5
400
331
3FF
  5
401
331
400
  5
402
331
401
  5
403
331
402
  5
404
331
403
  5
405
331
404
  5
406
331
405
  5
407
331
406
  5
408
331
407
  5
409
331
408
  5
40A
331
409
  5
40B
331
40A
  5
40C
331
40B
  5
40D
331
40C
  5
40E
331
40F
  5
411
331
410
  5
412
331
411
  5
413
331
412
  5
414
331
413
  5
415
331
414
  5
416
331
415
  5
417
331
416
  5
418
331
417
  5
419
331
418
  5
41A
331
419
  5
41B
331
41A
  5
41C
331
41B
  5
41D
331
41C
  5
41E
331
41D
  5
41F
331
41E
  5
420
331
41F
  5
421
331
420
  5
422
331
421
  5
423
331
422
  5
424
331
423
  5
425
331
424
  5
426
331
425
  5
427
331
426
  5
428
331
427
  5
429
331
428
  5
42A
331
429
  5
42B
331
42A
  5
42C
331
42B
  5
42D
331
42C
  5
42E
331
42D
  5
42F
331
42E
  5
430
331
42F
  5
431
331
430
  5
432
331
431
  5
433
331
432
  5
434
331
433
  5
435
331
434
  5
436
331
435
  5
437
331
436
  5
438
331
437
  5
439
331
438
  5
43A
331
439
  5
43B
331
43A
  5
43C
331
43B
  5
43D
331
43C
  5
43E
331
43D
  5
43F
331
43E
  5
440
331
43F
  5
441
331
440
  5
442
331
441
  5
443
331
442
  5
444
331
443
  5
445
331
444
  5
446
331
445
  5
447
331
446
  5
448
331
447
  5
449
331
448
  5
44A
331
449
  5
44B
331
44A
  5
44C
331
44B
  5
44D
331
44C
  5
44E
331
44D
  5
44F
331
44E
  5
450
331
44F
  5
451
331
450
  5
452
331
451
  5
453
331
452
  5
454
331
453
  5
455
331
454
  5
456
331
455
  5
457
331
456
  5
458
331
457
  5
459
331
458
  5
45A
331
459
  5
45B
331
45A
  5
45C
331
45B
  5
45D
331
45C
  5
45E
331
45D
  5
45F
331
45E
  5
460
331
45F
  5
461
331
460
  5
462
331
461
  5
463
331
462
  5
464
331
463
  5
465
331
464
  5
466
331
465
  5
467
331
466
  5
468
331
467
  5
469
331
468
  5
46A
331
469
  5
46B
331
46A
  5
46C
331
46B
  5
46D
331
46C
  5
46E
331
46D
  5
46F
331
46E
  5
470
331
46F
  5
471
331
470
  5
472
331
471
  5
473
331
472
  5
474
331
473
  5
475
331
484
  5
486
331
485
  5
487
331
486
  5
488
331
487
  5
489
331
488
  5
48A
331
489
  5
48B
331
48A
  5
48C
331
48B
  5
48D
331
48C
  5
48E
331
48D
  5
48F
331
48E
  5
490
331
48F
  5
491
331
490
  5
492
331
491
  5
493
331
492
  5
494
331
493
  5
495
331
494
  5
496
331
495
  5
497
331
496
  5
498
331
497
  5
499
331
498
  5
49A
331
499
  5
49B
331
49A
  5
49C
331
49B
  5
49D
331
49C
  5
49E
331
49D
  5
49F
331
49E
  5
4A0
331
49F
  5
4A1
331
4A0
  5
4A2
331
4A1
  5
4A3
331
4A2
  5
4A4
331
4A3
  5
4A5
331
4A4
  5
4A6
331
4A5
  5
4A7
331
4A6
  5
4A8
331
4A7
  5
4A9
331
4A8
  5
4AA
331
4A9
  5
4AB
331
4AA
  5
4AC
331
4AB
  5
4AD
331
4AC
  5
4AE
331
4AD
  5
4AF
331
4AE
  5
4B0
331
4AF
  5
4B1
331
4B0
  5
4B2
331
4B1
  5
4B3
331
4B2
  5
4B4
331
4B3
  5
4B5
331
4B4
  5
4B6
331
4B5
  5
4B7
331
4B6
  5
4B8
331
4B7
  5
4B9
331
4B8
  5
4BA
331
4B9
  5
4BB
331
4BA
  5
4BC
331
4BB
  5
4BD
331
4BC
  5
4BE
331
4BD
  5
4BF
331
4BE
  5
4C0
331
4BF
  5
4C1
331
4C0
  5
4C2
331
4C1
  5
4C3
331
4C2
  5
4C4
331
4C3
  5
4C5
331
4C4
  5
4C6
331
4C5
  5
4C7
331
4C6
  5
4C8
331
4C7
  5
4C9
331
4C8
  5
4CA
331
4C9
  5
4CB
331
4CA
  5
4CC
331
4CB
  5
4CD
331
4CC
  5
4CE
331
4CD
  5
4CF
331
4CE
  5
4D0
331
4CF
  5
4D1
331
4D0
  5
4D2
331
4D1
  5
4D3
331
4D2
  5
4D4
331
4D3
  5
4D5
331
4D4
  5
4D6
331
4D5
  5
4D7
331
4D6
  5
4D8
331
4D7
  5
4D9
331
4D8
  5
4DA
331
4D9
  5
4DB
331
4DA
  5
4DC
331
4DB
  5
4DD
331
4DC
  5
4DE
331
4DD
  5
4DF
331
4DE
  5
4E0
331
4DF
  5
4E1
331
4E0
  5
4E2
331
4E1
  5
4E3
331
4E2
  5
4E4
331
4E3
  5
4E5
331
4E4
  5
4E6
331
4E5
  5
4E7
331
4E6
  5
509
331
4E7
  5
50A
331
0
  5
50B
331
0
  5
50C
331
0
  5
50D
331
0
  5
50E
331
0
  5
50F
331
0
  5
510
331
0
  5
511
331
0
  5
512
331
0
  5
513
331
0
  5
514
331
0
  5
518
331
0
  5
519
  0
LAYOUT
  5
1D
102
{ACAD_REACTORS
330
1E
102
}
330
1E
100
AcDbPlotSettings
  1

  2
Bullzip PDF Printer.pc3
  4
A3
  6

 40
0.2
 41
0.0
 42
0.0
 43
0.0
 44
420.2
 45
297.1
 46
25.0
 47
12.0
 48
39.99999993666665
 49
0.0
140
803.9999981866667
141
544.9999987283333
142
1.0
143
2.0
 70
 11936
 72
     1
 73
     0
 74
     4
  7
monochrome.ctb
 75
    17
147
0.5
148
-39.99999993666665
149
0.0
100
AcDbLayout
  1
Model
 70
     0
 71
     0
 10
0.0
 20
0.0
 11
12.0
 21
9.0
 12
0.0
 22
0.0
 32
0.0
 14
105.7823231380384
 24
4.083286736368109
 34
0.0
 15
725.7887245616623
 25
632.0091388439911
 35
0.0
146
0.0
 13
0.0
 23
0.0
 33
0.0
 16
1.0
 26
0.0
 36
0.0
 17
0.0
 27
1.0
 37
0.0
 76
     0
330
17
331
2A
1001
ACAD_PSEXT
1000
Bullzip PDF Printer.pc3
1000
Bullzip PDF Printer
1000
BULLZIP
1000
Bullzip PDF Printer 10.1.0.1871
1070
     0
  0
LAYOUT
  5
22
102
{ACAD_REACTORS
330
1E
102
}
330
1E
100
AcDbPlotSettings
  1

  2
SR-LP8300F
  4

  6

 40
0.0
 41
0.0
 42
0.0
 43
0.0
 44
0.0
 45
0.0
 46
0.0
 47
0.0
 48
0.0
 49
0.0
140
0.0
141
0.0
142
1.0
143
1.0
 70
   688
 72
     0
 73
     0
 74
     5
  7
monochrome.ctb
 75
    16
147
1.0
148
0.0
149
0.0
100
AcDbLayout
  1
ﾚｲｱｳﾄ1
 70
     0
 71
     1
 10
0.0
 20
0.0
 11
12.0
 21
9.0
 12
0.0
 22
0.0
 32
0.0
 14
1000000000000000E+20
 24
1000000000000000E+20
 34
1000000000000000E+20
 15
-1000000000000000E+20
 25
-1000000000000000E+20
 35
-1000000000000000E+20
146
0.0
 13
0.0
 23
0.0
 33
0.0
 16
1.0
 26
0.0
 36
0.0
 17
0.0
 27
1.0
 37
0.0
 76
     0
330
1F
  0
MATERIAL
  5
4F
102
{ACAD_REACTORS
330
7
102
}
102
{ACAD_XDICTIONARY
360
5B9
102
}
330
7
100
AcDbMaterial
  1
ByBlock
  0
MATERIAL
  5
10
102
{ACAD_REACTORS
330
7
102
}
102
{ACAD_XDICTIONARY
360
5B5
102
}
330
7
100
AcDbMaterial
  1
ByLayer
  0
MATERIAL
  5
6
102
{ACAD_REACTORS
330
7
102
}
102
{ACAD_XDICTIONARY
360
5B7
102
}
330
7
100
AcDbMaterial
  1
Global
1001
ACAD
1070
    -1
1070
     3
1070
     0
1000

1071
        0
  0
MLEADERSTYLE
  5
515
102
{ACAD_REACTORS
330
4EB
102
}
102
{ACAD_XDICTIONARY
360
5EB
102
}
330
4EB
100
AcDbMLeaderStyle
170
     2
171
     1
172
     0
 90
        2
 40
0.0
 41
0.0
173
     1
 91
-1056964608
340
D
 92
       -2
290
     1
 42
0.09
291
     1
 43
0.36
  3
Standard
341
0
 44
0.18
300

342
E
174
     1
178
     6
175
     1
176
     0
 93
-1056964608
 45
0.18
292
     0
297
     0
 46
0.18
343
0
 94
-1056964608
 47
1.0
 49
1.0
140
1.0
293
     1
141
0.0
294
     1
177
     0
142
1.0
295
     0
296
     0
143
0.125
1001
ACAD_MLEADERVER
1070
     2
  0
MLINESTYLE
  5
14
102
{ACAD_REACTORS
330
15
102
}
330
15
100
AcDbMlineStyle
  2
STANDARD
 70
     0
  3

 62
     0
 51
90.0
 52
90.0
 71
     2
 49
0.5
 62
   256
  6
BYLAYER
 49
-0.5
 62
   256
  6
BYLAYER
  0
ACDBPLACEHOLDER
  5
3
102
{ACAD_REACTORS
330
4
102
}
330
4
  0
SCALE
  5
4E
102
{ACAD_REACTORS
330
2C
102
}
330
2C
100
AcDbScale
 70
     0
300
1:1
140
1.0
141
1.0
290
     1
  0
TABLESTYLE
  5
51A
102
{ACAD_REACTORS
330
4EA
102
}
330
4EA
100
AcDbTableStyle
  3
Standard
 70
     0
 71
     0
 40
0.06
 41
0.06
280
     0
281
     0
  7
STANDARD
140
0.18
170
     2
 62
     0
 63
   257
283
     0
274
    -2
284
     1
 64
     0
275
    -2
285
     1
 65
     0
276
    -2
286
     1
 66
     0
277
    -2
287
     1
 67
     0
278
    -2
288
     1
 68
     0
279
    -2
289
     1
 69
     0
  7
STANDARD
140
0.25
170
     5
 62
     0
 63
   257
283
     0
274
    -2
284
     1
 64
     0
275
    -2
285
     1
 65
     0
276
    -2
286
     1
 66
     0
277
    -2
287
     1
 67
     0
278
    -2
288
     1
 68
     0
279
    -2
289
     1
 69
     0
  7
STANDARD
140
0.18
170
     5
 62
     0
 63
   257
283
     0
274
    -2
284
     1
 64
     0
275
    -2
285
     1
 65
     0
276
    -2
286
     1
 66
     0
277
    -2
287
     1
 67
     0
278
    -2
288
     1
 68
     0
279
    -2
289
     1
 69
     0
  0
VISUALSTYLE
  5
4F3
102
{ACAD_REACTORS
330
29
102
}
102
{ACAD_XDICTIONARY
360
5C3
102
}
330
29
100
AcDbVisualStyle
  2
2dWireframe
 70
     4
 71
     0
 72
     2
 73
     0
 90
        0
 40
0.6
 41
30.0
 62
     5
 63
     7
 74
     1
 91
        4
 64
     7
 65
   257
 75
     1
175
     1
 42
1.0
 92
        0
 66
   257
 43
1.0
 76
     1
 77
     6
 78
     2
 67
     7
 79
     5
170
     0
171
     0
290
     0
174
     0
 93
        1
 44
0.0
173
     0
291
     0
 45
0.0
1001
ACAD
1000
AcDbSavedByObjectVersion
1070
     0
  0
VISUALSTYLE
  5
4F6
102
{ACAD_REACTORS
330
29
102
}
102
{ACAD_XDICTIONARY
360
5C9
102
}
330
29
100
AcDbVisualStyle
  2
Basic
 70
     7
 71
     1
 72
     0
 73
     1
 90
        0
 40
0.6
 41
30.0
 62
     5
 63
     7
 74
     0
 91
        4
 64
     7
 65
   257
 75
     1
175
     1
 42
1.0
 92
        8
 66
     7
 43
1.0
 76
     1
 77
     6
 78
     2
 67
     7
 79
     5
170
     0
171
     0
290
     0
174
     0
 93
        1
 44
0.0
173
     0
291
     1
 45
0.0
1001
ACAD
1000
AcDbSavedByObjectVersion
1070
     0
  0
VISUALSTYLE
  5
4FA
102
{ACAD_REACTORS
330
29
102
}
102
{ACAD_XDICTIONARY
360
5D1
102
}
330
29
100
AcDbVisualStyle
  2
Brighten
 70
    12
 71
     2
 72
     2
 73
     0
 90
        0
 40
0.6
 41
30.0
 62
     5
 63
     7
 74
     1
 91
        4
 64
     7
 65
   257
 75
     1
175
     1
 42
1.0
 92
        8
 66
     7
 43
1.0
 76
     1
 77
     6
 78
     2
 67
     7
 79
     5
170
     0
171
     0
290
     0
174
     0
 93
        1
 44
50.0
173
     0
291
     1
 45
0.0
1001
ACAD
1000
AcDbSavedByObjectVersion
1070
     0
  0
VISUALSTYLE
  5
4FE
102
{ACAD_REACTORS
330
29
102
}
102
{ACAD_XDICTIONARY
360
5D9
102
}
330
29
100
AcDbVisualStyle
  2
ColorChange
 70
    16
 71
     2
 72
     2
 73
     3
 90
        0
 40
0.6
 41
30.0
 62
     5
 63
     8
 74
     1
 91
        4
 64
     7
 65
   257
 75
     1
175
     1
 42
1.0
 92
        8
 66
     8
 43
1.0
 76
     1
 77
     6
 78
     2
 67
     7
 79
     5
170
     0
171
     0
290
     0
174
     0
 93
        1
 44
0.0
173
     0
291
     1
 45
0.0
1001
ACAD
1000
AcDbSavedByObjectVersion
1070
     0
  0
VISUALSTYLE
  5
4F8
102
{ACAD_REACTORS
330
29
102
}
102
{ACAD_XDICTIONARY
360
5CD
102
}
330
29
100
AcDbVisualStyle
  2
Conceptual
 70
     9
 71
     3
 72
     2
 73
     0
 90
        0
 40
0.6
 41
30.0
 62
     5
 63
     7
 74
     2
 91
        2
 64
     7
 65
   257
 75
     1
175
     1
 42
40.0
 92
        8
 66
     7
 43
1.0
 76
     1
 77
     6
 78
     2
 67
     7
 79
     3
170
     0
171
     0
290
     0
174
     0
 93
        1
 44
0.0
173
     0
291
     0
 45
0.0
1001
ACAD
1000
AcDbSavedByObjectVersion
1070
     0
  0
VISUALSTYLE
  5
4F9
102
{ACAD_REACTORS
330
29
102
}
102
{ACAD_XDICTIONARY
360
5CF
102
}
330
29
100
AcDbVisualStyle
  2
Dim
 70
    11
 71
     2
 72
     2
 73
     0
 90
        0
 40
0.6
 41
30.0
 62
     5
 63
     7
 74
     1
 91
        4
 64
     7
 65
   257
 75
     1
175
     1
 42
1.0
 92
        8
 66
     7
 43
1.0
 76
     1
 77
     6
 78
     2
 67
     7
 79
     5
170
     0
171
     0
290
     0
174
     0
 93
        1
 44
-50.0
173
     0
291
     1
 45
0.0
1001
ACAD
1000
AcDbSavedByObjectVersion
1070
     0
  0
VISUALSTYLE
  5
501
102
{ACAD_REACTORS
330
29
102
}
102
{ACAD_XDICTIONARY
360
5DF
102
}
330
29
100
AcDbVisualStyle
  2
EdgeColorOff
 70
    22
 71
     2
 72
     2
 73
     0
 90
        0
 40
0.6
 41
30.0
 62
     5
 63
     7
 74
     1
 91
        4
 64
     7
 65
   257
 75
     1
175
     1
 42
1.0
 92
        8
 66
     7
 43
1.0
 76
     1
 77
     6
 78
     2
 67
     7
 79
     5
170
     0
171
     0
290
     0
174
     0
 93
        1
 44
0.0
173
     0
291
     1
 45
0.0
1001
ACAD
1000
AcDbSavedByObjectVersion
1070
     0
  0
VISUALSTYLE
  5
4FD
102
{ACAD_REACTORS
330
29
102
}
102
{ACAD_XDICTIONARY
360
5D7
102
}
330
29
100
AcDbVisualStyle
  2
Facepattern
 70
    15
 71
     2
 72
     2
 73
     0
 90
        0
 40
0.6
 41
30.0
 62
     5
 63
     7
 74
     1
 91
        4
 64
     7
 65
   257
 75
     1
175
     1
 42
1.0
 92
        8
 66
     7
 43
1.0
 76
     1
 77
     6
 78
     2
 67
     7
 79
     5
170
     0
171
     0
290
     0
174
     0
 93
        1
 44
0.0
173
     0
291
     1
 45
0.0
1001
ACAD
1000
AcDbSavedByObjectVersion
1070
     0
  0
VISUALSTYLE
  5
4EF
102
{ACAD_REACTORS
330
29
102
}
102
{ACAD_XDICTIONARY
360
5BB
102
}
330
29
100
AcDbVisualStyle
  2
Flat
 70
     0
 71
     2
 72
     1
 73
     1
 90
        2
 40
0.6
 41
30.0
 62
     5
 63
     7
 74
     0
 91
        4
 64
     7
 65
   257
 75
     1
175
     1
 42
1.0
 92
        8
 66
     7
 43
1.0
 76
     1
 77
     6
 78
     2
 67
     7
 79
     5
170
     0
171
     0
290
     0
174
     0
 93
       13
 44
0.0
173
     0
291
     1
 45
0.0
1001
ACAD
1000
AcDbSavedByObjectVersion
1070
     0
  0
VISUALSTYLE
  5
4F0
102
{ACAD_REACTORS
330
29
102
}
102
{ACAD_XDICTIONARY
360
5BD
102
}
330
29
100
AcDbVisualStyle
  2
FlatWithEdges
 70
     1
 71
     2
 72
     1
 73
     1
 90
        2
 40
0.6
 41
30.0
 62
     5
 63
     7
 74
     1
 91
        4
 64
     7
 65
   257
 75
     1
175
     1
 42
1.0
 92
        0
 66
   257
 43
1.0
 76
     1
 77
     6
 78
     2
 67
     7
 79
     5
170
     0
171
     0
290
     0
174
     0
 93
       13
 44
0.0
173
     0
291
     1
 45
0.0
1001
ACAD
1000
AcDbSavedByObjectVersion
1070
     0
  0
VISUALSTYLE
  5
4F1
102
{ACAD_REACTORS
330
29
102
}
102
{ACAD_XDICTIONARY
360
5BF
102
}
330
29
100
AcDbVisualStyle
  2
Gouraud
 70
     2
 71
     2
 72
     2
 73
     1
 90
        2
 40
0.6
 41
30.0
 62
     5
 63
     7
 74
     0
 91
        4
 64
     7
 65
   257
 75
     1
175
     1
 42
1.0
 92
        0
 66
     7
 43
1.0
 76
     1
 77
     6
 78
     2
 67
     7
 79
     5
170
     0
171
     0
290
     0
174
     0
 93
       13
 44
0.0
173
     0
291
     1
 45
0.0
1001
ACAD
1000
AcDbSavedByObjectVersion
1070
     0
  0
VISUALSTYLE
  5
4F2
102
{ACAD_REACTORS
330
29
102
}
102
{ACAD_XDICTIONARY
360
5C1
102
}
330
29
100
AcDbVisualStyle
  2
GouraudWithEdges
 70
     3
 71
     2
 72
     2
 73
     1
 90
        2
 40
0.6
 41
30.0
 62
     5
 63
     7
 74
     1
 91
        4
 64
     7
 65
   257
 75
     1
175
     1
 42
1.0
 92
        0
 66
   257
 43
1.0
 76
     1
 77
     6
 78
     2
 67
     7
 79
     5
170
     0
171
     0
290
     0
174
     0
 93
       13
 44
0.0
173
     0
291
     1
 45
0.0
1001
ACAD
1000
AcDbSavedByObjectVersion
1070
     0
  0
VISUALSTYLE
  5
4F5
102
{ACAD_REACTORS
330
29
102
}
102
{ACAD_XDICTIONARY
360
5C7
102
}
330
29
100
AcDbVisualStyle
  2
Hidden
 70
     6
 71
     1
 72
     2
 73
     2
 90
        0
 40
0.6
 41
30.0
 62
     5
 63
     7
 74
     2
 91
        2
 64
     7
 65
   257
 75
     2
175
     1
 42
40.0
 92
        0
 66
   257
 43
1.0
 76
     1
 77
     6
 78
     2
 67
     7
 79
     3
170
     0
171
     0
290
     0
174
     0
 93
        1
 44
0.0
173
     0
291
     0
 45
0.0
1001
ACAD
1000
AcDbSavedByObjectVersion
1070
     0
  0
VISUALSTYLE
  5
4FF
102
{ACAD_REACTORS
330
29
102
}
102
{ACAD_XDICTIONARY
360
5DB
102
}
330
29
100
AcDbVisualStyle
  2
JitterOff
 70
    20
 71
     2
 72
     2
 73
     0
 90
        0
 40
0.6
 41
30.0
 62
     5
 63
     7
 74
     1
 91
        4
 64
     7
 65
   257
 75
     1
175
     1
 42
1.0
 92
       10
 66
     7
 43
1.0
 76
     1
 77
     6
 78
     2
 67
     7
 79
     5
170
     0
171
     0
290
     0
174
     0
 93
        1
 44
0.0
173
     0
291
     1
 45
0.0
1001
ACAD
1000
AcDbSavedByObjectVersion
1070
     0
  0
VISUALSTYLE
  5
4FC
102
{ACAD_REACTORS
330
29
102
}
102
{ACAD_XDICTIONARY
360
5D5
102
}
330
29
100
AcDbVisualStyle
  2
Linepattern
 70
    14
 71
     2
 72
     2
 73
     0
 90
        0
 40
0.6
 41
30.0
 62
     5
 63
     7
 74
     1
 91
        4
 64
     7
 65
   257
 75
     7
175
     7
 42
1.0
 92
        8
 66
     7
 43
1.0
 76
     1
 77
     6
 78
     2
 67
     7
 79
     5
170
     0
171
     0
290
     0
174
     0
 93
        1
 44
0.0
173
     0
291
     1
 45
0.0
1001
ACAD
1000
AcDbSavedByObjectVersion
1070
     0
  0
VISUALSTYLE
  5
500
102
{ACAD_REACTORS
330
29
102
}
102
{ACAD_XDICTIONARY
360
5DD
102
}
330
29
100
AcDbVisualStyle
  2
OverhangOff
 70
    21
 71
     2
 72
     2
 73
     0
 90
        0
 40
0.6
 41
30.0
 62
     5
 63
     7
 74
     1
 91
        4
 64
     7
 65
   257
 75
     1
175
     1
 42
1.0
 92
        9
 66
     7
 43
1.0
 76
     1
 77
     6
 78
     2
 67
     7
 79
     5
170
     0
171
     0
290
     0
174
     0
 93
        1
 44
0.0
173
     0
291
     1
 45
0.0
1001
ACAD
1000
AcDbSavedByObjectVersion
1070
     0
  0
VISUALSTYLE
  5
4F7
102
{ACAD_REACTORS
330
29
102
}
102
{ACAD_XDICTIONARY
360
5CB
102
}
330
29
100
AcDbVisualStyle
  2
Realistic
 70
     8
 71
     2
 72
     3
 73
     0
 90
        2
 40
0.6
 41
30.0
 62
     5
 63
     7
 74
     0
 91
        0
 64
     7
 65
   257
 75
     1
175
     1
 42
1.0
 92
        8
 66
   257
 43
1.0
 76
     1
 77
     6
 78
     2
 67
     7
 79
     3
170
     0
171
     0
290
     0
174
     0
 93
       13
 44
0.0
173
     0
291
     0
 45
0.0
1001
ACAD
1000
AcDbSavedByObjectVersion
1070
     0
  0
VISUALSTYLE
  5
506
102
{ACAD_REACTORS
330
29
102
}
102
{ACAD_XDICTIONARY
360
5E9
102
}
330
29
100
AcDbVisualStyle
  2
Shaded
 70
    27
 71
     2
 72
     2
 73
     1
 90
        2
 40
0.6
 41
30.0
 62
     5
 63
     7
 74
     0
 91
        4
 64
     7
 65
   257
 75
     1
175
     1
 42
1.0
 92
        8
 66
   257
 43
1.0
 76
     1
 77
     6
 78
     2
 67
   251
 79
     3
170
     0
171
     0
290
     0
174
     0
 93
        5
 44
0.0
173
     0
291
     0
 45
0.0
1001
ACAD
1000
AcDbSavedByObjectVersion
1070
     0
  0
VISUALSTYLE
  5
505
102
{ACAD_REACTORS
330
29
102
}
102
{ACAD_XDICTIONARY
360
5E7
102
}
330
29
100
AcDbVisualStyle
  2
Shaded with edges
 70
    26
 71
     2
 72
     2
 73
     1
 90
        2
 40
0.6
 41
30.0
 62
     5
 63
     7
 74
     1
 91
       10
 64
     7
 65
   257
 75
     2
175
     1
 42
1.0
 92
        8
 66
   257
 43
1.0
 76
     1
 77
     6
 78
     2
 67
     7
 79
     3
170
     0
171
     0
290
     0
174
     0
 93
        5
 44
0.0
173
     0
291
     0
 45
0.0
1001
ACAD
1000
AcDbSavedByObjectVersion
1070
     0
  0
VISUALSTYLE
  5
502
102
{ACAD_REACTORS
330
29
102
}
102
{ACAD_XDICTIONARY
360
5E1
102
}
330
29
100
AcDbVisualStyle
  2
Shades of Gray
 70
    23
 71
     2
 72
     2
 73
     3
 90
        0
 40
0.6
 41
30.0
 62
     5
 63
     7
 74
     2
 91
        2
 64
     7
 65
     7
 75
     1
175
     1
 42
40.0
 92
        8
 66
     7
 43
1.0
 76
     1
 77
     6
 78
     2
 67
     7
 79
     3
170
     0
171
     0
290
     0
174
     0
 93
        1
 44
0.0
173
     0
291
     0
 45
0.0
1001
ACAD
1000
AcDbSavedByObjectVersion
1070
     0
  0
VISUALSTYLE
  5
503
102
{ACAD_REACTORS
330
29
102
}
102
{ACAD_XDICTIONARY
360
5E3
102
}
330
29
100
AcDbVisualStyle
  2
Sketchy
 70
    24
 71
     1
 72
     2
 73
     2
 90
        0
 40
0.6
 41
30.0
 62
     5
 63
     7
 74
     2
 91
        2
 64
     7
 65
     7
 75
     1
175
     1
 42
40.0
 92
       11
 66
     7
 43
1.0
 76
     1
 77
     6
 78
     2
 67
     7
 79
     6
170
     0
171
     0
290
     0
174
     0
 93
        1
 44
0.0
173
     0
291
     0
 45
0.0
1001
ACAD
1000
AcDbSavedByObjectVersion
1070
     0
  0
VISUALSTYLE
  5
4FB
102
{ACAD_REACTORS
330
29
102
}
102
{ACAD_XDICTIONARY
360
5D3
102
}
330
29
100
AcDbVisualStyle
  2
Thicken
 70
    13
 71
     2
 72
     2
 73
     0
 90
        0
 40
0.6
 41
30.0
 62
     5
 63
     7
 74
     1
 91
        4
 64
     7
 65
   257
 75
     1
175
     1
 42
1.0
 92
       12
 66
     7
 43
1.0
 76
     1
 77
     6
 78
     2
 67
     7
 79
     5
170
     0
171
     0
290
     0
174
     0
 93
        1
 44
0.0
173
     0
291
     1
 45
0.0
1001
ACAD
1000
AcDbSavedByObjectVersion
1070
     0
  0
VISUALSTYLE
  5
4F4
102
{ACAD_REACTORS
330
29
102
}
102
{ACAD_XDICTIONARY
360
5C5
102
}
330
29
100
AcDbVisualStyle
  2
Wireframe
 70
     5
 71
     0
 72
     2
 73
     0
 90
        0
 40
0.6
 41
30.0
 62
     5
 63
     7
 74
     1
 91
        4
 64
     7
 65
   257
 75
     1
175
     1
 42
1.0
 92
        0
 66
   257
 43
1.0
 76
     1
 77
     6
 78
     2
 67
     7
 79
     5
170
     0
171
     0
290
     0
174
     0
 93
        1
 44
0.0
173
     0
291
     0
 45
0.0
1001
ACAD
1000
AcDbSavedByObjectVersion
1070
     0
  0
VISUALSTYLE
  5
504
102
{ACAD_REACTORS
330
29
102
}
102
{ACAD_XDICTIONARY
360
5E5
102
}
330
29
100
AcDbVisualStyle
  2
X-Ray
 70
    25
 71
     2
 72
     2
 73
     1
 90
        1
 40
0.5
 41
30.0
 62
     5
 63
     7
 74
     1
 91
        0
 64
     7
 65
   257
 75
     1
175
     1
 42
1.0
 92
        8
 66
     7
 43
1.0
 76
     1
 77
     6
 78
     2
 67
     7
 79
     3
170
     0
171
     0
290
     0
174
     0
 93
       13
 44
0.0
173
     0
291
     0
 45
0.0
1001
ACAD
1000
AcDbSavedByObjectVersion
1070
     0
  0
XRECORD
  5
5AF
102
{ACAD_REACTORS
330
5AE
102
}
330
5AE
100
AcDbXrecord
280
     1
340
28
  0
XRECORD
  5
5B0
102
{ACAD_REACTORS
330
5AE
102
}
330
5AE
100
AcDbXrecord
280
     1
340
7
  0
DICTIONARYVAR
  5
4E9
102
{ACAD_REACTORS
330
4E8
102
}
330
4E8
100
DictionaryVariables
280
     0
  1
1:1
  0
DICTIONARYVAR
  5
517
102
{ACAD_REACTORS
330
4E8
102
}
330
4E8
100
DictionaryVariables
280
     0
  1
Standard
  0
DICTIONARYVAR
  5
51B
102
{ACAD_REACTORS
330
4E8
102
}
330
4E8
100
DictionaryVariables
280
     0
  1
Standard
  0
DICTIONARYVAR
  5
5AC
102
{ACAD_REACTORS
330
4E8
102
}
330
4E8
100
DictionaryVariables
280
     0
  1
0
  0
DICTIONARYVAR
  5
5AD
102
{ACAD_REACTORS
330
4E8
102
}
330
4E8
100
DictionaryVariables
280
     0
  1
1
  0
DICTIONARYVAR
  5
5B4
102
{ACAD_REACTORS
330
4E8
102
}
330
4E8
100
DictionaryVariables
280
     0
  1
1
  0
DICTIONARYVAR
  5
4EC
102
{ACAD_REACTORS
330
4E8
102
}
330
4E8
100
DictionaryVariables
280
     0
  1
0
  0
DICTIONARY
  5
5B9
330
4F
100
AcDbDictionary
280
     1
281
     1
  3
ACAD_XREC_ROUNDTRIP
360
5BA
  0
DICTIONARY
  5
5B5
330
10
100
AcDbDictionary
280
     1
281
     1
  3
ACAD_XREC_ROUNDTRIP
360
5B6
  0
DICTIONARY
  5
5B7
330
6
100
AcDbDictionary
280
     1
281
     1
  3
ACAD_XREC_ROUNDTRIP
360
5B8
  0
DICTIONARY
  5
5EB
330
515
100
AcDbDictionary
280
     1
281
     1
  3
ACAD_XREC_ROUNDTRIP
360
5EC
  0
DICTIONARY
  5
5C3
330
4F3
100
AcDbDictionary
280
     1
281
     1
  3
ACAD_XREC_ROUNDTRIP
360
5C4
  0
DICTIONARY
  5
5C9
330
4F6
100
AcDbDictionary
280
     1
281
     1
  3
ACAD_XREC_ROUNDTRIP
360
5CA
  0
DICTIONARY
  5
5D1
330
4FA
100
AcDbDictionary
280
     1
281
     1
  3
ACAD_XREC_ROUNDTRIP
360
5D2
  0
DICTIONARY
  5
5D9
330
4FE
100
AcDbDictionary
280
     1
281
     1
  3
ACAD_XREC_ROUNDTRIP
360
5DA
  0
DICTIONARY
  5
5CD
330
4F8
100
AcDbDictionary
280
     1
281
     1
  3
ACAD_XREC_ROUNDTRIP
360
5CE
  0
DICTIONARY
  5
5CF
330
4F9
100
AcDbDictionary
280
     1
281
     1
  3
ACAD_XREC_ROUNDTRIP
360
5D0
  0
DICTIONARY
  5
5DF
330
501
100
AcDbDictionary
280
     1
281
     1
  3
ACAD_XREC_ROUNDTRIP
360
5E0
  0
DICTIONARY
  5
5D7
330
4FD
100
AcDbDictionary
280
     1
281
     1
  3
ACAD_XREC_ROUNDTRIP
360
5D8
  0
DICTIONARY
  5
5BB
330
4EF
100
AcDbDictionary
280
     1
281
     1
  3
ACAD_XREC_ROUNDTRIP
360
5BC
  0
DICTIONARY
  5
5BD
330
4F0
100
AcDbDictionary
280
     1
281
     1
  3
ACAD_XREC_ROUNDTRIP
360
5BE
  0
DICTIONARY
  5
5BF
330
4F1
100
AcDbDictionary
280
     1
281
     1
  3
ACAD_XREC_ROUNDTRIP
360
5C0
  0
DICTIONARY
  5
5C1
330
4F2
100
AcDbDictionary
280
     1
281
     1
  3
ACAD_XREC_ROUNDTRIP
360
5C2
  0
DICTIONARY
  5
5C7
330
4F5
100
AcDbDictionary
280
     1
281
     1
  3
ACAD_XREC_ROUNDTRIP
360
5C8
  0
DICTIONARY
  5
5DB
330
4FF
100
AcDbDictionary
280
     1
281
     1
  3
ACAD_XREC_ROUNDTRIP
360
5DC
  0
DICTIONARY
  5
5D5
330
4FC
100
AcDbDictionary
280
     1
281
     1
  3
ACAD_XREC_ROUNDTRIP
360
5D6
  0
DICTIONARY
  5
5DD
330
500
100
AcDbDictionary
280
     1
281
     1
  3
ACAD_XREC_ROUNDTRIP
360
5DE
  0
DICTIONARY
  5
5CB
330
4F7
100
AcDbDictionary
280
     1
281
     1
  3
ACAD_XREC_ROUNDTRIP
360
5CC
  0
DICTIONARY
  5
5E9
330
506
100
AcDbDictionary
280
     1
281
     1
  3
ACAD_XREC_ROUNDTRIP
360
5EA
  0
DICTIONARY
  5
5E7
330
505
100
AcDbDictionary
280
     1
281
     1
  3
ACAD_XREC_ROUNDTRIP
360
5E8
  0
DICTIONARY
  5
5E1
330
502
100
AcDbDictionary
280
     1
281
     1
  3
ACAD_XREC_ROUNDTRIP
360
5E2
  0
DICTIONARY
  5
5E3
330
503
100
AcDbDictionary
280
     1
281
     1
  3
ACAD_XREC_ROUNDTRIP
360
5E4
  0
DICTIONARY
  5
5D3
330
4FB
100
AcDbDictionary
280
     1
281
     1
  3
ACAD_XREC_ROUNDTRIP
360
5D4
  0
DICTIONARY
  5
5C5
330
4F4
100
AcDbDictionary
280
     1
281
     1
  3
ACAD_XREC_ROUNDTRIP
360
5C6
  0
DICTIONARY
  5
5E5
330
504
100
AcDbDictionary
280
     1
281
     1
  3
ACAD_XREC_ROUNDTRIP
360
5E6
  0
XRECORD
  5
5BA
102
{ACAD_REACTORS
330
5B9
102
}
330
5B9
100
AcDbXrecord
280
     1
102
MATERIAL
148
0.0
149
0.0
149
0.0
 93
        0
 94
      127
282
     0
 72
     1
 77
     1
171
     1
175
     1
179
     1
273
     0
  0
XRECORD
  5
5B6
102
{ACAD_REACTORS
330
5B5
102
}
330
5B5
100
AcDbXrecord
280
     1
102
MATERIAL
148
0.0
149
0.0
149
0.0
 93
        0
 94
      127
282
     0
 72
     1
 77
     1
171
     1
175
     1
179
     1
273
     0
  0
XRECORD
  5
5B8
102
{ACAD_REACTORS
330
5B7
102
}
330
5B7
100
AcDbXrecord
280
     1
102
MATERIAL
148
0.0
149
0.0
149
0.0
 93
        0
 94
      127
282
     0
 72
     1
 77
     1
171
     1
175
     1
179
     1
273
     0
  0
XRECORD
  5
5EC
102
{ACAD_REACTORS
330
5EB
102
}
330
5EB
100
AcDbXrecord
280
     1
102
ACAD_ROUNDTRIP_2010_MLEADER_STYLE
  0
XRECORD
  5
5C4
102
{ACAD_REACTORS
330
5C3
102
}
330
5C3
100
AcDbXrecord
280
     1
102
RTVSPropertyOp0
 70
     1
102
RTVSPropertyOp1
 70
     1
102
RTVSPropertyOp2
 70
     1
102
RTVSPropertyOp3
 70
     1
102
RTVSPropertyOp4
 70
     1
102
RTVSPropertyOp5
 70
     1
102
RTVSPropertyOp6
 70
     1
102
RTVSPropertyOp7
 70
     1
102
RTVSPropertyOp8
 70
     1
102
RTVSPropertyOp9
 70
     1
102
RTVSPropertyOp10
 70
     1
102
RTVSPropertyOp11
 70
     1
102
RTVSPropertyOp12
 70
     1
102
RTVSPropertyOp13
 70
     1
102
RTVSPropertyOp14
 70
     1
102
RTVSPropertyOp15
 70
     1
102
RTVSPropertyOp16
 70
     1
102
RTVSPropertyOp17
 70
     1
102
RTVSPropertyOp18
 70
     1
102
RTVSPropertyOp19
 70
     1
102
RTVSPropertyOp20
 70
     1
102
RTVSPropertyOp21
 70
     1
102
RTVSPropertyOp22
 70
     1
102
RTVSPropertyOp23
 70
     1
102
RTVSPropertyOp24
 70
     1
102
RTVSPropertyOp25
 70
     1
102
RTVSPropertyOp26
 70
     1
102
RTVSPropertyOp27
 70
     1
102
RTVSPropertyOp28
 70
     1
102
RTVSPropertyOp29
 70
     1
102
RTVSPropertyOp30
 70
     1
102
RTVSPropertyOp31
 70
     1
102
RTVSPropertyOp32
 70
     1
102
RTVSPropertyOp33
 70
     1
102
RTVSPropertyOp34
 70
     1
102
RTVSPropertyOp35
 70
     1
102
RTVSPropertyOp36
 70
     1
102
RTVSPropertyOp37
 70
     1
102
RTVSPropertyOp38
 70
     1
102
RTVSPropertyOp39
 70
     1
102
RTVSPropertyOp40
 70
     1
102
RTVSPropertyOp41
 70
     1
102
RTVSPropertyOp42
 70
     1
102
RTVSPropertyOp43
 70
     1
102
RTVSPropertyOp44
 70
     1
102
RTVSPropertyOp45
 70
     1
102
RTVSPropertyOp46
 70
     1
102
RTVSPropertyOp47
 70
     1
102
RTVSPropertyOp48
 70
     1
102
RTVSPropertyOp49
 70
     1
102
RTVSPropertyOp50
 70
     1
102
RTVSPropertyOp51
 70
     0
102
RTVSPropertyOp52
 70
     0
102
RTVSPropertyOp53
 70
     1
102
RTVSPropertyOp54
 70
     1
102
RTVSPropertyOp55
 70
     1
102
RTVSPropertyOp56
 70
     1
102
RTVSPropertyOp57
 70
     1
102
RTVSPost2010Prop28
280
     1
102
RTVSPost2010PropOp28
 70
     1
102
RTVSPost2010Prop29
280
     1
102
RTVSPost2010PropOp29
 70
     1
102
RTVSPost2010Prop30
280
     0
102
RTVSPost2010PropOp30
 70
     1
102
RTVSPost2010Prop31
280
     0
102
RTVSPost2010PropOp31
 70
     1
102
RTVSPost2010Prop32
280
     0
102
RTVSPost2010PropOp32
 70
     1
102
RTVSPost2010Prop33
280
     0
102
RTVSPost2010PropOp33
 70
     1
102
RTVSPost2010Prop34
280
     0
102
RTVSPost2010PropOp34
 70
     1
102
RTVSPost2010Prop35
280
     0
102
RTVSPost2010PropOp35
 70
     1
102
RTVSPost2010Prop36
280
     0
102
RTVSPost2010PropOp36
 70
     1
102
RTVSPost2010Prop37
 90
       50
102
RTVSPost2010PropOp37
 70
     1
102
RTVSPost2010Prop38
140
0.0
102
RTVSPost2010PropOp38
 70
     1
102
RTVSPost2010Prop39
140
1.0
102
RTVSPost2010PropOp39
 70
     1
102
RTVSPost2010Prop40
 90
        0
102
RTVSPost2010PropOp40
 70
     1
102
RTVSPost2010Prop41ColorIndex
 90
       18
102
RTVSPost2010Prop41ColorRGB
 90
        0
102
RTVSPost2010PropOp41
 70
     1
102
RTVSPost2010Prop42
 90
       50
102
RTVSPost2010PropOp42
 70
     1
102
RTVSPost2010Prop43
 90
        3
102
RTVSPost2010PropOp43
 70
     1
102
RTVSPost2010Prop44ColorIndex
 90
        5
102
RTVSPost2010Prop44ColorRGB
 90
      255
102
RTVSPost2010PropOp44
 70
     1
102
RTVSPost2010Prop45
280
     0
102
RTVSPost2010PropOp45
 70
     1
102
RTVSPost2010Prop46
 90
       50
102
RTVSPost2010PropOp46
 70
     1
102
RTVSPost2010Prop47
 90
       50
102
RTVSPost2010PropOp47
 70
     1
102
RTVSPost2010Prop48
 90
       50
102
RTVSPost2010PropOp48
 70
     1
102
RTVSPost2010Prop49
280
     0
102
RTVSPost2010PropOp49
 70
     1
102
RTVSPost2010Prop50
 90
       50
102
RTVSPost2010PropOp50
 70
     1
102
RTVSPost2010Prop51ColorIndex
 90
      256
102
RTVSPost2010Prop51ColorRGB
 90
-16777216
102
RTVSPost2010PropOp51
 70
     0
102
RTVSPost2010Prop52
140
1.0
102
RTVSPost2010PropOp52
 70
     0
102
RTVSPost2010Prop53
 90
        2
102
RTVSPost2010PropOp53
 70
     1
102
RTVSPost2010Prop54
  1
strokes_ogs.tif
102
RTVSPost2010PropOp54
 70
     1
102
RTVSPost2010Prop55
280
     0
102
RTVSPost2010PropOp55
 70
     1
102
RTVSPost2010Prop56
140
1.0
102
RTVSPost2010PropOp56
 70
     1
102
RTVSPost2010Prop57
140
1.0
102
RTVSPost2010PropOp57
 70
     1
  0
XRECORD
  5
5CA
102
{ACAD_REACTORS
330
5C9
102
}
330
5C9
100
AcDbXrecord
280
     1
102
RTVSPropertyOp0
 70
     1
102
RTVSPropertyOp1
 70
     1
102
RTVSPropertyOp2
 70
     1
102
RTVSPropertyOp3
 70
     1
102
RTVSPropertyOp4
 70
     1
102
RTVSPropertyOp5
 70
     1
102
RTVSPropertyOp6
 70
     1
102
RTVSPropertyOp7
 70
     1
102
RTVSPropertyOp8
 70
     1
102
RTVSPropertyOp9
 70
     1
102
RTVSPropertyOp10
 70
     1
102
RTVSPropertyOp11
 70
     1
102
RTVSPropertyOp12
 70
     1
102
RTVSPropertyOp13
 70
     1
102
RTVSPropertyOp14
 70
     1
102
RTVSPropertyOp15
 70
     1
102
RTVSPropertyOp16
 70
     1
102
RTVSPropertyOp17
 70
     1
102
RTVSPropertyOp18
 70
     1
102
RTVSPropertyOp19
 70
     1
102
RTVSPropertyOp20
 70
     1
102
RTVSPropertyOp21
 70
     1
102
RTVSPropertyOp22
 70
     1
102
RTVSPropertyOp23
 70
     1
102
RTVSPropertyOp24
 70
     1
102
RTVSPropertyOp25
 70
     1
102
RTVSPropertyOp26
 70
     1
102
RTVSPropertyOp27
 70
     1
102
RTVSPropertyOp28
 70
     1
102
RTVSPropertyOp29
 70
     1
102
RTVSPropertyOp30
 70
     1
102
RTVSPropertyOp31
 70
     1
102
RTVSPropertyOp32
 70
     1
102
RTVSPropertyOp33
 70
     1
102
RTVSPropertyOp34
 70
     1
102
RTVSPropertyOp35
 70
     1
102
RTVSPropertyOp36
 70
     1
102
RTVSPropertyOp37
 70
     1
102
RTVSPropertyOp38
 70
     1
102
RTVSPropertyOp39
 70
     1
102
RTVSPropertyOp40
 70
     1
102
RTVSPropertyOp41
 70
     1
102
RTVSPropertyOp42
 70
     1
102
RTVSPropertyOp43
 70
     1
102
RTVSPropertyOp44
 70
     1
102
RTVSPropertyOp45
 70
     1
102
RTVSPropertyOp46
 70
     1
102
RTVSPropertyOp47
 70
     1
102
RTVSPropertyOp48
 70
     1
102
RTVSPropertyOp49
 70
     1
102
RTVSPropertyOp50
 70
     1
102
RTVSPropertyOp51
 70
     0
102
RTVSPropertyOp52
 70
     0
102
RTVSPropertyOp53
 70
     1
102
RTVSPropertyOp54
 70
     1
102
RTVSPropertyOp55
 70
     1
102
RTVSPropertyOp56
 70
     1
102
RTVSPropertyOp57
 70
     1
102
RTVSPost2010Prop28
280
     0
102
RTVSPost2010PropOp28
 70
     1
102
RTVSPost2010Prop29
280
     1
102
RTVSPost2010PropOp29
 70
     1
102
RTVSPost2010Prop30
280
     1
102
RTVSPost2010PropOp30
 70
     1
102
RTVSPost2010Prop31
280
     0
102
RTVSPost2010PropOp31
 70
     1
102
RTVSPost2010Prop32
280
     0
102
RTVSPost2010PropOp32
 70
     1
102
RTVSPost2010Prop33
280
     0
102
RTVSPost2010PropOp33
 70
     1
102
RTVSPost2010Prop34
280
     0
102
RTVSPost2010PropOp34
 70
     1
102
RTVSPost2010Prop35
280
     0
102
RTVSPost2010PropOp35
 70
     1
102
RTVSPost2010Prop36
280
     0
102
RTVSPost2010PropOp36
 70
     1
102
RTVSPost2010Prop37
 90
       50
102
RTVSPost2010PropOp37
 70
     1
102
RTVSPost2010Prop38
140
0.0
102
RTVSPost2010PropOp38
 70
     1
102
RTVSPost2010Prop39
140
1.0
102
RTVSPost2010PropOp39
 70
     1
102
RTVSPost2010Prop40
 90
        0
102
RTVSPost2010PropOp40
 70
     1
102
RTVSPost2010Prop41ColorIndex
 90
       18
102
RTVSPost2010Prop41ColorRGB
 90
        0
102
RTVSPost2010PropOp41
 70
     1
102
RTVSPost2010Prop42
 90
       50
102
RTVSPost2010PropOp42
 70
     1
102
RTVSPost2010Prop43
 90
        3
102
RTVSPost2010PropOp43
 70
     1
102
RTVSPost2010Prop44ColorIndex
 90
        5
102
RTVSPost2010Prop44ColorRGB
 90
      255
102
RTVSPost2010PropOp44
 70
     1
102
RTVSPost2010Prop45
280
     0
102
RTVSPost2010PropOp45
 70
     1
102
RTVSPost2010Prop46
 90
       50
102
RTVSPost2010PropOp46
 70
     1
102
RTVSPost2010Prop47
 90
       50
102
RTVSPost2010PropOp47
 70
     1
102
RTVSPost2010Prop48
 90
       50
102
RTVSPost2010PropOp48
 70
     1
102
RTVSPost2010Prop49
280
     0
102
RTVSPost2010PropOp49
 70
     1
102
RTVSPost2010Prop50
 90
       50
102
RTVSPost2010PropOp50
 70
     1
102
RTVSPost2010Prop51ColorIndex
 90
      256
102
RTVSPost2010Prop51ColorRGB
 90
-16777216
102
RTVSPost2010PropOp51
 70
     0
102
RTVSPost2010Prop52
140
1.0
102
RTVSPost2010PropOp52
 70
     0
102
RTVSPost2010Prop53
 90
        2
102
RTVSPost2010PropOp53
 70
     1
102
RTVSPost2010Prop54
  1
strokes_ogs.tif
102
RTVSPost2010PropOp54
 70
     1
102
RTVSPost2010Prop55
280
     0
102
RTVSPost2010PropOp55
 70
     1
102
RTVSPost2010Prop56
140
1.0
102
RTVSPost2010PropOp56
 70
     1
102
RTVSPost2010Prop57
140
1.0
102
RTVSPost2010PropOp57
 70
     1
  0
XRECORD
  5
5D2
102
{ACAD_REACTORS
330
5D1
102
}
330
5D1
100
AcDbXrecord
280
     1
102
RTVSPropertyOp0
 70
     1
102
RTVSPropertyOp1
 70
     1
102
RTVSPropertyOp2
 70
     1
102
RTVSPropertyOp3
 70
     1
102
RTVSPropertyOp4
 70
     1
102
RTVSPropertyOp5
 70
     1
102
RTVSPropertyOp6
 70
     1
102
RTVSPropertyOp7
 70
     1
102
RTVSPropertyOp8
 70
     1
102
RTVSPropertyOp9
 70
     1
102
RTVSPropertyOp10
 70
     1
102
RTVSPropertyOp11
 70
     1
102
RTVSPropertyOp12
 70
     1
102
RTVSPropertyOp13
 70
     1
102
RTVSPropertyOp14
 70
     1
102
RTVSPropertyOp15
 70
     1
102
RTVSPropertyOp16
 70
     1
102
RTVSPropertyOp17
 70
     1
102
RTVSPropertyOp18
 70
     1
102
RTVSPropertyOp19
 70
     1
102
RTVSPropertyOp20
 70
     1
102
RTVSPropertyOp21
 70
     1
102
RTVSPropertyOp22
 70
     1
102
RTVSPropertyOp23
 70
     1
102
RTVSPropertyOp24
 70
     1
102
RTVSPropertyOp25
 70
     1
102
RTVSPropertyOp26
 70
     1
102
RTVSPropertyOp27
 70
     1
102
RTVSPropertyOp28
 70
     1
102
RTVSPropertyOp29
 70
     1
102
RTVSPropertyOp30
 70
     1
102
RTVSPropertyOp31
 70
     1
102
RTVSPropertyOp32
 70
     1
102
RTVSPropertyOp33
 70
     1
102
RTVSPropertyOp34
 70
     1
102
RTVSPropertyOp35
 70
     1
102
RTVSPropertyOp36
 70
     1
102
RTVSPropertyOp37
 70
     1
102
RTVSPropertyOp38
 70
     1
102
RTVSPropertyOp39
 70
     1
102
RTVSPropertyOp40
 70
     1
102
RTVSPropertyOp41
 70
     1
102
RTVSPropertyOp42
 70
     1
102
RTVSPropertyOp43
 70
     1
102
RTVSPropertyOp44
 70
     1
102
RTVSPropertyOp45
 70
     1
102
RTVSPropertyOp46
 70
     1
102
RTVSPropertyOp47
 70
     1
102
RTVSPropertyOp48
 70
     1
102
RTVSPropertyOp49
 70
     1
102
RTVSPropertyOp50
 70
     1
102
RTVSPropertyOp51
 70
     0
102
RTVSPropertyOp52
 70
     0
102
RTVSPropertyOp53
 70
     1
102
RTVSPropertyOp54
 70
     1
102
RTVSPropertyOp55
 70
     1
102
RTVSPropertyOp56
 70
     1
102
RTVSPropertyOp57
 70
     1
102
RTVSPost2010Prop28
280
     0
102
RTVSPost2010PropOp28
 70
     1
102
RTVSPost2010Prop29
280
     1
102
RTVSPost2010PropOp29
 70
     1
102
RTVSPost2010Prop30
280
     1
102
RTVSPost2010PropOp30
 70
     1
102
RTVSPost2010Prop31
280
     0
102
RTVSPost2010PropOp31
 70
     1
102
RTVSPost2010Prop32
280
     0
102
RTVSPost2010PropOp32
 70
     1
102
RTVSPost2010Prop33
280
     0
102
RTVSPost2010PropOp33
 70
     1
102
RTVSPost2010Prop34
280
     0
102
RTVSPost2010PropOp34
 70
     1
102
RTVSPost2010Prop35
280
     0
102
RTVSPost2010PropOp35
 70
     1
102
RTVSPost2010Prop36
280
     0
102
RTVSPost2010PropOp36
 70
     1
102
RTVSPost2010Prop37
 90
       50
102
RTVSPost2010PropOp37
 70
     1
102
RTVSPost2010Prop38
140
0.0
102
RTVSPost2010PropOp38
 70
     1
102
RTVSPost2010Prop39
140
1.0
102
RTVSPost2010PropOp39
 70
     1
102
RTVSPost2010Prop40
 90
        0
102
RTVSPost2010PropOp40
 70
     1
102
RTVSPost2010Prop41ColorIndex
 90
       18
102
RTVSPost2010Prop41ColorRGB
 90
        0
102
RTVSPost2010PropOp41
 70
     1
102
RTVSPost2010Prop42
 90
       50
102
RTVSPost2010PropOp42
 70
     1
102
RTVSPost2010Prop43
 90
        3
102
RTVSPost2010PropOp43
 70
     1
102
RTVSPost2010Prop44ColorIndex
 90
        5
102
RTVSPost2010Prop44ColorRGB
 90
      255
102
RTVSPost2010PropOp44
 70
     1
102
RTVSPost2010Prop45
280
     0
102
RTVSPost2010PropOp45
 70
     1
102
RTVSPost2010Prop46
 90
       50
102
RTVSPost2010PropOp46
 70
     1
102
RTVSPost2010Prop47
 90
       50
102
RTVSPost2010PropOp47
 70
     1
102
RTVSPost2010Prop48
 90
       50
102
RTVSPost2010PropOp48
 70
     1
102
RTVSPost2010Prop49
280
     0
102
RTVSPost2010PropOp49
 70
     1
102
RTVSPost2010Prop50
 90
       50
102
RTVSPost2010PropOp50
 70
     1
102
RTVSPost2010Prop51ColorIndex
 90
      256
102
RTVSPost2010Prop51ColorRGB
 90
-16777216
102
RTVSPost2010PropOp51
 70
     0
102
RTVSPost2010Prop52
140
1.0
102
RTVSPost2010PropOp52
 70
     0
102
RTVSPost2010Prop53
 90
        2
102
RTVSPost2010PropOp53
 70
     1
102
RTVSPost2010Prop54
  1
strokes_ogs.tif
102
RTVSPost2010PropOp54
 70
     1
102
RTVSPost2010Prop55
280
     0
102
RTVSPost2010PropOp55
 70
     1
102
RTVSPost2010Prop56
140
1.0
102
RTVSPost2010PropOp56
 70
     1
102
RTVSPost2010Prop57
140
1.0
102
RTVSPost2010PropOp57
 70
     1
  0
XRECORD
  5
5DA
102
{ACAD_REACTORS
330
5D9
102
}
330
5D9
100
AcDbXrecord
280
     1
102
RTVSPropertyOp0
 70
     1
102
RTVSPropertyOp1
 70
     1
102
RTVSPropertyOp2
 70
     1
102
RTVSPropertyOp3
 70
     1
102
RTVSPropertyOp4
 70
     1
102
RTVSPropertyOp5
 70
     1
102
RTVSPropertyOp6
 70
     1
102
RTVSPropertyOp7
 70
     1
102
RTVSPropertyOp8
 70
     1
102
RTVSPropertyOp9
 70
     1
102
RTVSPropertyOp10
 70
     1
102
RTVSPropertyOp11
 70
     1
102
RTVSPropertyOp12
 70
     1
102
RTVSPropertyOp13
 70
     1
102
RTVSPropertyOp14
 70
     1
102
RTVSPropertyOp15
 70
     1
102
RTVSPropertyOp16
 70
     1
102
RTVSPropertyOp17
 70
     1
102
RTVSPropertyOp18
 70
     1
102
RTVSPropertyOp19
 70
     1
102
RTVSPropertyOp20
 70
     1
102
RTVSPropertyOp21
 70
     1
102
RTVSPropertyOp22
 70
     1
102
RTVSPropertyOp23
 70
     1
102
RTVSPropertyOp24
 70
     1
102
RTVSPropertyOp25
 70
     1
102
RTVSPropertyOp26
 70
     1
102
RTVSPropertyOp27
 70
     1
102
RTVSPropertyOp28
 70
     1
102
RTVSPropertyOp29
 70
     1
102
RTVSPropertyOp30
 70
     1
102
RTVSPropertyOp31
 70
     1
102
RTVSPropertyOp32
 70
     1
102
RTVSPropertyOp33
 70
     1
102
RTVSPropertyOp34
 70
     1
102
RTVSPropertyOp35
 70
     1
102
RTVSPropertyOp36
 70
     1
102
RTVSPropertyOp37
 70
     1
102
RTVSPropertyOp38
 70
     1
102
RTVSPropertyOp39
 70
     1
102
RTVSPropertyOp40
 70
     1
102
RTVSPropertyOp41
 70
     1
102
RTVSPropertyOp42
 70
     1
102
RTVSPropertyOp43
 70
     1
102
RTVSPropertyOp44
 70
     1
102
RTVSPropertyOp45
 70
     1
102
RTVSPropertyOp46
 70
     1
102
RTVSPropertyOp47
 70
     1
102
RTVSPropertyOp48
 70
     1
102
RTVSPropertyOp49
 70
     1
102
RTVSPropertyOp50
 70
     1
102
RTVSPropertyOp51
 70
     0
102
RTVSPropertyOp52
 70
     0
102
RTVSPropertyOp53
 70
     1
102
RTVSPropertyOp54
 70
     1
102
RTVSPropertyOp55
 70
     1
102
RTVSPropertyOp56
 70
     1
102
RTVSPropertyOp57
 70
     1
102
RTVSPost2010Prop28
280
     0
102
RTVSPost2010PropOp28
 70
     1
102
RTVSPost2010Prop29
280
     1
102
RTVSPost2010PropOp29
 70
     1
102
RTVSPost2010Prop30
280
     1
102
RTVSPost2010PropOp30
 70
     1
102
RTVSPost2010Prop31
280
     0
102
RTVSPost2010PropOp31
 70
     1
102
RTVSPost2010Prop32
280
     0
102
RTVSPost2010PropOp32
 70
     1
102
RTVSPost2010Prop33
280
     0
102
RTVSPost2010PropOp33
 70
     1
102
RTVSPost2010Prop34
280
     0
102
RTVSPost2010PropOp34
 70
     1
102
RTVSPost2010Prop35
280
     0
102
RTVSPost2010PropOp35
 70
     1
102
RTVSPost2010Prop36
280
     0
102
RTVSPost2010PropOp36
 70
     1
102
RTVSPost2010Prop37
 90
       50
102
RTVSPost2010PropOp37
 70
     1
102
RTVSPost2010Prop38
140
0.0
102
RTVSPost2010PropOp38
 70
     1
102
RTVSPost2010Prop39
140
1.0
102
RTVSPost2010PropOp39
 70
     1
102
RTVSPost2010Prop40
 90
        0
102
RTVSPost2010PropOp40
 70
     1
102
RTVSPost2010Prop41ColorIndex
 90
       18
102
RTVSPost2010Prop41ColorRGB
 90
        0
102
RTVSPost2010PropOp41
 70
     1
102
RTVSPost2010Prop42
 90
       50
102
RTVSPost2010PropOp42
 70
     1
102
RTVSPost2010Prop43
 90
        3
102
RTVSPost2010PropOp43
 70
     1
102
RTVSPost2010Prop44ColorIndex
 90
        5
102
RTVSPost2010Prop44ColorRGB
 90
      255
102
RTVSPost2010PropOp44
 70
     1
102
RTVSPost2010Prop45
280
     0
102
RTVSPost2010PropOp45
 70
     1
102
RTVSPost2010Prop46
 90
       50
102
RTVSPost2010PropOp46
 70
     1
102
RTVSPost2010Prop47
 90
       50
102
RTVSPost2010PropOp47
 70
     1
102
RTVSPost2010Prop48
 90
       50
102
RTVSPost2010PropOp48
 70
     1
102
RTVSPost2010Prop49
280
     0
102
RTVSPost2010PropOp49
 70
     1
102
RTVSPost2010Prop50
 90
       50
102
RTVSPost2010PropOp50
 70
     1
102
RTVSPost2010Prop51ColorIndex
 90
      256
102
RTVSPost2010Prop51ColorRGB
 90
-16777216
102
RTVSPost2010PropOp51
 70
     0
102
RTVSPost2010Prop52
140
1.0
102
RTVSPost2010PropOp52
 70
     0
102
RTVSPost2010Prop53
 90
        2
102
RTVSPost2010PropOp53
 70
     1
102
RTVSPost2010Prop54
  1
strokes_ogs.tif
102
RTVSPost2010PropOp54
 70
     1
102
RTVSPost2010Prop55
280
     0
102
RTVSPost2010PropOp55
 70
     1
102
RTVSPost2010Prop56
140
1.0
102
RTVSPost2010PropOp56
 70
     1
102
RTVSPost2010Prop57
140
1.0
102
RTVSPost2010PropOp57
 70
     1
  0
XRECORD
  5
5CE
102
{ACAD_REACTORS
330
5CD
102
}
330
5CD
100
AcDbXrecord
280
     1
102
RTVSPropertyOp0
 70
     1
102
RTVSPropertyOp1
 70
     1
102
RTVSPropertyOp2
 70
     1
102
RTVSPropertyOp3
 70
     1
102
RTVSPropertyOp4
 70
     1
102
RTVSPropertyOp5
 70
     1
102
RTVSPropertyOp6
 70
     1
102
RTVSPropertyOp7
 70
     1
102
RTVSPropertyOp8
 70
     1
102
RTVSPropertyOp9
 70
     1
102
RTVSPropertyOp10
 70
     1
102
RTVSPropertyOp11
 70
     1
102
RTVSPropertyOp12
 70
     1
102
RTVSPropertyOp13
 70
     1
102
RTVSPropertyOp14
 70
     1
102
RTVSPropertyOp15
 70
     1
102
RTVSPropertyOp16
 70
     1
102
RTVSPropertyOp17
 70
     1
102
RTVSPropertyOp18
 70
     1
102
RTVSPropertyOp19
 70
     1
102
RTVSPropertyOp20
 70
     1
102
RTVSPropertyOp21
 70
     1
102
RTVSPropertyOp22
 70
     1
102
RTVSPropertyOp23
 70
     1
102
RTVSPropertyOp24
 70
     1
102
RTVSPropertyOp25
 70
     1
102
RTVSPropertyOp26
 70
     1
102
RTVSPropertyOp27
 70
     1
102
RTVSPropertyOp28
 70
     1
102
RTVSPropertyOp29
 70
     1
102
RTVSPropertyOp30
 70
     1
102
RTVSPropertyOp31
 70
     1
102
RTVSPropertyOp32
 70
     1
102
RTVSPropertyOp33
 70
     1
102
RTVSPropertyOp34
 70
     1
102
RTVSPropertyOp35
 70
     1
102
RTVSPropertyOp36
 70
     1
102
RTVSPropertyOp37
 70
     1
102
RTVSPropertyOp38
 70
     1
102
RTVSPropertyOp39
 70
     1
102
RTVSPropertyOp40
 70
     1
102
RTVSPropertyOp41
 70
     1
102
RTVSPropertyOp42
 70
     1
102
RTVSPropertyOp43
 70
     1
102
RTVSPropertyOp44
 70
     1
102
RTVSPropertyOp45
 70
     1
102
RTVSPropertyOp46
 70
     1
102
RTVSPropertyOp47
 70
     1
102
RTVSPropertyOp48
 70
     1
102
RTVSPropertyOp49
 70
     1
102
RTVSPropertyOp50
 70
     1
102
RTVSPropertyOp51
 70
     0
102
RTVSPropertyOp52
 70
     0
102
RTVSPropertyOp53
 70
     1
102
RTVSPropertyOp54
 70
     1
102
RTVSPropertyOp55
 70
     1
102
RTVSPropertyOp56
 70
     1
102
RTVSPropertyOp57
 70
     1
102
RTVSPost2010Prop28
280
     0
102
RTVSPost2010PropOp28
 70
     1
102
RTVSPost2010Prop29
280
     1
102
RTVSPost2010PropOp29
 70
     1
102
RTVSPost2010Prop30
280
     1
102
RTVSPost2010PropOp30
 70
     1
102
RTVSPost2010Prop31
280
     0
102
RTVSPost2010PropOp31
 70
     1
102
RTVSPost2010Prop32
280
     0
102
RTVSPost2010PropOp32
 70
     1
102
RTVSPost2010Prop33
280
     0
102
RTVSPost2010PropOp33
 70
     1
102
RTVSPost2010Prop34
280
     0
102
RTVSPost2010PropOp34
 70
     1
102
RTVSPost2010Prop35
280
     0
102
RTVSPost2010PropOp35
 70
     1
102
RTVSPost2010Prop36
280
     0
102
RTVSPost2010PropOp36
 70
     1
102
RTVSPost2010Prop37
 90
       50
102
RTVSPost2010PropOp37
 70
     1
102
RTVSPost2010Prop38
140
0.0
102
RTVSPost2010PropOp38
 70
     1
102
RTVSPost2010Prop39
140
1.0
102
RTVSPost2010PropOp39
 70
     1
102
RTVSPost2010Prop40
 90
        0
102
RTVSPost2010PropOp40
 70
     1
102
RTVSPost2010Prop41ColorIndex
 90
       18
102
RTVSPost2010Prop41ColorRGB
 90
        0
102
RTVSPost2010PropOp41
 70
     1
102
RTVSPost2010Prop42
 90
       50
102
RTVSPost2010PropOp42
 70
     1
102
RTVSPost2010Prop43
 90
        3
102
RTVSPost2010PropOp43
 70
     1
102
RTVSPost2010Prop44ColorIndex
 90
        5
102
RTVSPost2010Prop44ColorRGB
 90
      255
102
RTVSPost2010PropOp44
 70
     1
102
RTVSPost2010Prop45
280
     0
102
RTVSPost2010PropOp45
 70
     1
102
RTVSPost2010Prop46
 90
       50
102
RTVSPost2010PropOp46
 70
     1
102
RTVSPost2010Prop47
 90
       50
102
RTVSPost2010PropOp47
 70
     1
102
RTVSPost2010Prop48
 90
       50
102
RTVSPost2010PropOp48
 70
     1
102
RTVSPost2010Prop49
280
     0
102
RTVSPost2010PropOp49
 70
     1
102
RTVSPost2010Prop50
 90
       50
102
RTVSPost2010PropOp50
 70
     1
102
RTVSPost2010Prop51ColorIndex
 90
      256
102
RTVSPost2010Prop51ColorRGB
 90
-16777216
102
RTVSPost2010PropOp51
 70
     0
102
RTVSPost2010Prop52
140
1.0
102
RTVSPost2010PropOp52
 70
     0
102
RTVSPost2010Prop53
 90
        2
102
RTVSPost2010PropOp53
 70
     1
102
RTVSPost2010Prop54
  1
strokes_ogs.tif
102
RTVSPost2010PropOp54
 70
     1
102
RTVSPost2010Prop55
280
     0
102
RTVSPost2010PropOp55
 70
     1
102
RTVSPost2010Prop56
140
1.0
102
RTVSPost2010PropOp56
 70
     1
102
RTVSPost2010Prop57
140
1.0
102
RTVSPost2010PropOp57
 70
     1
  0
XRECORD
  5
5D0
102
{ACAD_REACTORS
330
5CF
102
}
330
5CF
100
AcDbXrecord
280
     1
102
RTVSPropertyOp0
 70
     1
102
RTVSPropertyOp1
 70
     1
102
RTVSPropertyOp2
 70
     1
102
RTVSPropertyOp3
 70
     1
102
RTVSPropertyOp4
 70
     1
102
RTVSPropertyOp5
 70
     1
102
RTVSPropertyOp6
 70
     1
102
RTVSPropertyOp7
 70
     1
102
RTVSPropertyOp8
 70
     1
102
RTVSPropertyOp9
 70
     1
102
RTVSPropertyOp10
 70
     1
102
RTVSPropertyOp11
 70
     1
102
RTVSPropertyOp12
 70
     1
102
RTVSPropertyOp13
 70
     1
102
RTVSPropertyOp14
 70
     1
102
RTVSPropertyOp15
 70
     1
102
RTVSPropertyOp16
 70
     1
102
RTVSPropertyOp17
 70
     1
102
RTVSPropertyOp18
 70
     1
102
RTVSPropertyOp19
 70
     1
102
RTVSPropertyOp20
 70
     1
102
RTVSPropertyOp21
 70
     1
102
RTVSPropertyOp22
 70
     1
102
RTVSPropertyOp23
 70
     1
102
RTVSPropertyOp24
 70
     1
102
RTVSPropertyOp25
 70
     1
102
RTVSPropertyOp26
 70
     1
102
RTVSPropertyOp27
 70
     1
102
RTVSPropertyOp28
 70
     1
102
RTVSPropertyOp29
 70
     1
102
RTVSPropertyOp30
 70
     1
102
RTVSPropertyOp31
 70
     1
102
RTVSPropertyOp32
 70
     1
102
RTVSPropertyOp33
 70
     1
102
RTVSPropertyOp34
 70
     1
102
RTVSPropertyOp35
 70
     1
102
RTVSPropertyOp36
 70
     1
102
RTVSPropertyOp37
 70
     1
102
RTVSPropertyOp38
 70
     1
102
RTVSPropertyOp39
 70
     1
102
RTVSPropertyOp40
 70
     1
102
RTVSPropertyOp41
 70
     1
102
RTVSPropertyOp42
 70
     1
102
RTVSPropertyOp43
 70
     1
102
RTVSPropertyOp44
 70
     1
102
RTVSPropertyOp45
 70
     1
102
RTVSPropertyOp46
 70
     1
102
RTVSPropertyOp47
 70
     1
102
RTVSPropertyOp48
 70
     1
102
RTVSPropertyOp49
 70
     1
102
RTVSPropertyOp50
 70
     1
102
RTVSPropertyOp51
 70
     0
102
RTVSPropertyOp52
 70
     0
102
RTVSPropertyOp53
 70
     1
102
RTVSPropertyOp54
 70
     1
102
RTVSPropertyOp55
 70
     1
102
RTVSPropertyOp56
 70
     1
102
RTVSPropertyOp57
 70
     1
102
RTVSPost2010Prop28
280
     0
102
RTVSPost2010PropOp28
 70
     1
102
RTVSPost2010Prop29
280
     1
102
RTVSPost2010PropOp29
 70
     1
102
RTVSPost2010Prop30
280
     1
102
RTVSPost2010PropOp30
 70
     1
102
RTVSPost2010Prop31
280
     0
102
RTVSPost2010PropOp31
 70
     1
102
RTVSPost2010Prop32
280
     0
102
RTVSPost2010PropOp32
 70
     1
102
RTVSPost2010Prop33
280
     0
102
RTVSPost2010PropOp33
 70
     1
102
RTVSPost2010Prop34
280
     0
102
RTVSPost2010PropOp34
 70
     1
102
RTVSPost2010Prop35
280
     0
102
RTVSPost2010PropOp35
 70
     1
102
RTVSPost2010Prop36
280
     0
102
RTVSPost2010PropOp36
 70
     1
102
RTVSPost2010Prop37
 90
       50
102
RTVSPost2010PropOp37
 70
     1
102
RTVSPost2010Prop38
140
0.0
102
RTVSPost2010PropOp38
 70
     1
102
RTVSPost2010Prop39
140
1.0
102
RTVSPost2010PropOp39
 70
     1
102
RTVSPost2010Prop40
 90
        0
102
RTVSPost2010PropOp40
 70
     1
102
RTVSPost2010Prop41ColorIndex
 90
       18
102
RTVSPost2010Prop41ColorRGB
 90
        0
102
RTVSPost2010PropOp41
 70
     1
102
RTVSPost2010Prop42
 90
       50
102
RTVSPost2010PropOp42
 70
     1
102
RTVSPost2010Prop43
 90
        3
102
RTVSPost2010PropOp43
 70
     1
102
RTVSPost2010Prop44ColorIndex
 90
        5
102
RTVSPost2010Prop44ColorRGB
 90
      255
102
RTVSPost2010PropOp44
 70
     1
102
RTVSPost2010Prop45
280
     0
102
RTVSPost2010PropOp45
 70
     1
102
RTVSPost2010Prop46
 90
       50
102
RTVSPost2010PropOp46
 70
     1
102
RTVSPost2010Prop47
 90
       50
102
RTVSPost2010PropOp47
 70
     1
102
RTVSPost2010Prop48
 90
       50
102
RTVSPost2010PropOp48
 70
     1
102
RTVSPost2010Prop49
280
     0
102
RTVSPost2010PropOp49
 70
     1
102
RTVSPost2010Prop50
 90
       50
102
RTVSPost2010PropOp50
 70
     1
102
RTVSPost2010Prop51ColorIndex
 90
      256
102
RTVSPost2010Prop51ColorRGB
 90
-16777216
102
RTVSPost2010PropOp51
 70
     0
102
RTVSPost2010Prop52
140
1.0
102
RTVSPost2010PropOp52
 70
     0
102
RTVSPost2010Prop53
 90
        2
102
RTVSPost2010PropOp53
 70
     1
102
RTVSPost2010Prop54
  1
strokes_ogs.tif
102
RTVSPost2010PropOp54
 70
     1
102
RTVSPost2010Prop55
280
     0
102
RTVSPost2010PropOp55
 70
     1
102
RTVSPost2010Prop56
140
1.0
102
RTVSPost2010PropOp56
 70
     1
102
RTVSPost2010Prop57
140
1.0
102
RTVSPost2010PropOp57
 70
     1
  0
XRECORD
  5
5E0
102
{ACAD_REACTORS
330
5DF
102
}
330
5DF
100
AcDbXrecord
280
     1
102
RTVSPropertyOp0
 70
     0
102
RTVSPropertyOp1
 70
     0
102
RTVSPropertyOp2
 70
     0
102
RTVSPropertyOp3
 70
     0
102
RTVSPropertyOp4
 70
     0
102
RTVSPropertyOp5
 70
     0
102
RTVSPropertyOp6
 70
     0
102
RTVSPropertyOp7
 70
     0
102
RTVSPropertyOp8
 70
     0
102
RTVSPropertyOp9
 70
     0
102
RTVSPropertyOp10
 70
     0
102
RTVSPropertyOp11
 70
     0
102
RTVSPropertyOp12
 70
     0
102
RTVSPropertyOp13
 70
     0
102
RTVSPropertyOp14
 70
     0
102
RTVSPropertyOp15
 70
     0
102
RTVSPropertyOp16
 70
     0
102
RTVSPropertyOp17
 70
     0
102
RTVSPropertyOp18
 70
     0
102
RTVSPropertyOp19
 70
     0
102
RTVSPropertyOp20
 70
     0
102
RTVSPropertyOp21
 70
     0
102
RTVSPropertyOp22
 70
     0
102
RTVSPropertyOp23
 70
     0
102
RTVSPropertyOp24
 70
     0
102
RTVSPropertyOp25
 70
     0
102
RTVSPropertyOp26
 70
     0
102
RTVSPropertyOp27
 70
     0
102
RTVSPropertyOp28
 70
     1
102
RTVSPropertyOp29
 70
     1
102
RTVSPropertyOp30
 70
     1
102
RTVSPropertyOp31
 70
     1
102
RTVSPropertyOp32
 70
     1
102
RTVSPropertyOp33
 70
     1
102
RTVSPropertyOp34
 70
     1
102
RTVSPropertyOp35
 70
     1
102
RTVSPropertyOp36
 70
     1
102
RTVSPropertyOp37
 70
     1
102
RTVSPropertyOp38
 70
     1
102
RTVSPropertyOp39
 70
     1
102
RTVSPropertyOp40
 70
     1
102
RTVSPropertyOp41
 70
     1
102
RTVSPropertyOp42
 70
     1
102
RTVSPropertyOp43
 70
     1
102
RTVSPropertyOp44
 70
     1
102
RTVSPropertyOp45
 70
     1
102
RTVSPropertyOp46
 70
     1
102
RTVSPropertyOp47
 70
     1
102
RTVSPropertyOp48
 70
     1
102
RTVSPropertyOp49
 70
     1
102
RTVSPropertyOp50
 70
     1
102
RTVSPropertyOp51
 70
     0
102
RTVSPropertyOp52
 70
     0
102
RTVSPropertyOp53
 70
     1
102
RTVSPropertyOp54
 70
     1
102
RTVSPropertyOp55
 70
     1
102
RTVSPropertyOp56
 70
     1
102
RTVSPropertyOp57
 70
     1
102
RTVSPost2010Prop28
280
     0
102
RTVSPost2010PropOp28
 70
     1
102
RTVSPost2010Prop29
280
     1
102
RTVSPost2010PropOp29
 70
     1
102
RTVSPost2010Prop30
280
     1
102
RTVSPost2010PropOp30
 70
     1
102
RTVSPost2010Prop31
280
     0
102
RTVSPost2010PropOp31
 70
     1
102
RTVSPost2010Prop32
280
     0
102
RTVSPost2010PropOp32
 70
     1
102
RTVSPost2010Prop33
280
     0
102
RTVSPost2010PropOp33
 70
     1
102
RTVSPost2010Prop34
280
     0
102
RTVSPost2010PropOp34
 70
     1
102
RTVSPost2010Prop35
280
     0
102
RTVSPost2010PropOp35
 70
     1
102
RTVSPost2010Prop36
280
     0
102
RTVSPost2010PropOp36
 70
     1
102
RTVSPost2010Prop37
 90
       50
102
RTVSPost2010PropOp37
 70
     1
102
RTVSPost2010Prop38
140
0.0
102
RTVSPost2010PropOp38
 70
     1
102
RTVSPost2010Prop39
140
1.0
102
RTVSPost2010PropOp39
 70
     1
102
RTVSPost2010Prop40
 90
        0
102
RTVSPost2010PropOp40
 70
     1
102
RTVSPost2010Prop41ColorIndex
 90
       18
102
RTVSPost2010Prop41ColorRGB
 90
        0
102
RTVSPost2010PropOp41
 70
     1
102
RTVSPost2010Prop42
 90
       50
102
RTVSPost2010PropOp42
 70
     1
102
RTVSPost2010Prop43
 90
        3
102
RTVSPost2010PropOp43
 70
     1
102
RTVSPost2010Prop44ColorIndex
 90
        5
102
RTVSPost2010Prop44ColorRGB
 90
      255
102
RTVSPost2010PropOp44
 70
     1
102
RTVSPost2010Prop45
280
     0
102
RTVSPost2010PropOp45
 70
     1
102
RTVSPost2010Prop46
 90
       50
102
RTVSPost2010PropOp46
 70
     1
102
RTVSPost2010Prop47
 90
       50
102
RTVSPost2010PropOp47
 70
     1
102
RTVSPost2010Prop48
 90
       50
102
RTVSPost2010PropOp48
 70
     1
102
RTVSPost2010Prop49
280
     0
102
RTVSPost2010PropOp49
 70
     1
102
RTVSPost2010Prop50
 90
       50
102
RTVSPost2010PropOp50
 70
     1
102
RTVSPost2010Prop51ColorIndex
 90
      256
102
RTVSPost2010Prop51ColorRGB
 90
-16777216
102
RTVSPost2010PropOp51
 70
     0
102
RTVSPost2010Prop52
140
1.0
102
RTVSPost2010PropOp52
 70
     0
102
RTVSPost2010Prop53
 90
        2
102
RTVSPost2010PropOp53
 70
     1
102
RTVSPost2010Prop54
  1
strokes_ogs.tif
102
RTVSPost2010PropOp54
 70
     1
102
RTVSPost2010Prop55
280
     0
102
RTVSPost2010PropOp55
 70
     1
102
RTVSPost2010Prop56
140
1.0
102
RTVSPost2010PropOp56
 70
     1
102
RTVSPost2010Prop57
140
1.0
102
RTVSPost2010PropOp57
 70
     1
  0
XRECORD
  5
5D8
102
{ACAD_REACTORS
330
5D7
102
}
330
5D7
100
AcDbXrecord
280
     1
102
RTVSPropertyOp0
 70
     1
102
RTVSPropertyOp1
 70
     1
102
RTVSPropertyOp2
 70
     1
102
RTVSPropertyOp3
 70
     1
102
RTVSPropertyOp4
 70
     1
102
RTVSPropertyOp5
 70
     1
102
RTVSPropertyOp6
 70
     1
102
RTVSPropertyOp7
 70
     1
102
RTVSPropertyOp8
 70
     1
102
RTVSPropertyOp9
 70
     1
102
RTVSPropertyOp10
 70
     1
102
RTVSPropertyOp11
 70
     1
102
RTVSPropertyOp12
 70
     1
102
RTVSPropertyOp13
 70
     1
102
RTVSPropertyOp14
 70
     1
102
RTVSPropertyOp15
 70
     1
102
RTVSPropertyOp16
 70
     1
102
RTVSPropertyOp17
 70
     1
102
RTVSPropertyOp18
 70
     1
102
RTVSPropertyOp19
 70
     1
102
RTVSPropertyOp20
 70
     1
102
RTVSPropertyOp21
 70
     1
102
RTVSPropertyOp22
 70
     1
102
RTVSPropertyOp23
 70
     1
102
RTVSPropertyOp24
 70
     1
102
RTVSPropertyOp25
 70
     1
102
RTVSPropertyOp26
 70
     1
102
RTVSPropertyOp27
 70
     1
102
RTVSPropertyOp28
 70
     1
102
RTVSPropertyOp29
 70
     1
102
RTVSPropertyOp30
 70
     1
102
RTVSPropertyOp31
 70
     1
102
RTVSPropertyOp32
 70
     1
102
RTVSPropertyOp33
 70
     1
102
RTVSPropertyOp34
 70
     1
102
RTVSPropertyOp35
 70
     1
102
RTVSPropertyOp36
 70
     1
102
RTVSPropertyOp37
 70
     1
102
RTVSPropertyOp38
 70
     1
102
RTVSPropertyOp39
 70
     1
102
RTVSPropertyOp40
 70
     1
102
RTVSPropertyOp41
 70
     1
102
RTVSPropertyOp42
 70
     1
102
RTVSPropertyOp43
 70
     1
102
RTVSPropertyOp44
 70
     1
102
RTVSPropertyOp45
 70
     1
102
RTVSPropertyOp46
 70
     1
102
RTVSPropertyOp47
 70
     1
102
RTVSPropertyOp48
 70
     1
102
RTVSPropertyOp49
 70
     1
102
RTVSPropertyOp50
 70
     1
102
RTVSPropertyOp51
 70
     0
102
RTVSPropertyOp52
 70
     0
102
RTVSPropertyOp53
 70
     1
102
RTVSPropertyOp54
 70
     1
102
RTVSPropertyOp55
 70
     1
102
RTVSPropertyOp56
 70
     1
102
RTVSPropertyOp57
 70
     1
102
RTVSPost2010Prop28
280
     0
102
RTVSPost2010PropOp28
 70
     1
102
RTVSPost2010Prop29
280
     1
102
RTVSPost2010PropOp29
 70
     1
102
RTVSPost2010Prop30
280
     1
102
RTVSPost2010PropOp30
 70
     1
102
RTVSPost2010Prop31
280
     0
102
RTVSPost2010PropOp31
 70
     1
102
RTVSPost2010Prop32
280
     0
102
RTVSPost2010PropOp32
 70
     1
102
RTVSPost2010Prop33
280
     0
102
RTVSPost2010PropOp33
 70
     1
102
RTVSPost2010Prop34
280
     0
102
RTVSPost2010PropOp34
 70
     1
102
RTVSPost2010Prop35
280
     0
102
RTVSPost2010PropOp35
 70
     1
102
RTVSPost2010Prop36
280
     0
102
RTVSPost2010PropOp36
 70
     1
102
RTVSPost2010Prop37
 90
       50
102
RTVSPost2010PropOp37
 70
     1
102
RTVSPost2010Prop38
140
0.0
102
RTVSPost2010PropOp38
 70
     1
102
RTVSPost2010Prop39
140
1.0
102
RTVSPost2010PropOp39
 70
     1
102
RTVSPost2010Prop40
 90
        0
102
RTVSPost2010PropOp40
 70
     1
102
RTVSPost2010Prop41ColorIndex
 90
       18
102
RTVSPost2010Prop41ColorRGB
 90
        0
102
RTVSPost2010PropOp41
 70
     1
102
RTVSPost2010Prop42
 90
       50
102
RTVSPost2010PropOp42
 70
     1
102
RTVSPost2010Prop43
 90
        3
102
RTVSPost2010PropOp43
 70
     1
102
RTVSPost2010Prop44ColorIndex
 90
        5
102
RTVSPost2010Prop44ColorRGB
 90
      255
102
RTVSPost2010PropOp44
 70
     1
102
RTVSPost2010Prop45
280
     0
102
RTVSPost2010PropOp45
 70
     1
102
RTVSPost2010Prop46
 90
       50
102
RTVSPost2010PropOp46
 70
     1
102
RTVSPost2010Prop47
 90
       50
102
RTVSPost2010PropOp47
 70
     1
102
RTVSPost2010Prop48
 90
       50
102
RTVSPost2010PropOp48
 70
     1
102
RTVSPost2010Prop49
280
     0
102
RTVSPost2010PropOp49
 70
     1
102
RTVSPost2010Prop50
 90
       50
102
RTVSPost2010PropOp50
 70
     1
102
RTVSPost2010Prop51ColorIndex
 90
      256
102
RTVSPost2010Prop51ColorRGB
 90
-16777216
102
RTVSPost2010PropOp51
 70
     0
102
RTVSPost2010Prop52
140
1.0
102
RTVSPost2010PropOp52
 70
     0
102
RTVSPost2010Prop53
 90
        2
102
RTVSPost2010PropOp53
 70
     1
102
RTVSPost2010Prop54
  1
strokes_ogs.tif
102
RTVSPost2010PropOp54
 70
     1
102
RTVSPost2010Prop55
280
     0
102
RTVSPost2010PropOp55
 70
     1
102
RTVSPost2010Prop56
140
1.0
102
RTVSPost2010PropOp56
 70
     1
102
RTVSPost2010Prop57
140
1.0
102
RTVSPost2010PropOp57
 70
     1
  0
XRECORD
  5
5BC
102
{ACAD_REACTORS
330
5BB
102
}
330
5BB
100
AcDbXrecord
280
     1
102
RTVSPropertyOp0
 70
     1
102
RTVSPropertyOp1
 70
     1
102
RTVSPropertyOp2
 70
     1
102
RTVSPropertyOp3
 70
     1
102
RTVSPropertyOp4
 70
     1
102
RTVSPropertyOp5
 70
     1
102
RTVSPropertyOp6
 70
     1
102
RTVSPropertyOp7
 70
     1
102
RTVSPropertyOp8
 70
     1
102
RTVSPropertyOp9
 70
     1
102
RTVSPropertyOp10
 70
     1
102
RTVSPropertyOp11
 70
     1
102
RTVSPropertyOp12
 70
     1
102
RTVSPropertyOp13
 70
     1
102
RTVSPropertyOp14
 70
     1
102
RTVSPropertyOp15
 70
     1
102
RTVSPropertyOp16
 70
     1
102
RTVSPropertyOp17
 70
     1
102
RTVSPropertyOp18
 70
     1
102
RTVSPropertyOp19
 70
     1
102
RTVSPropertyOp20
 70
     1
102
RTVSPropertyOp21
 70
     1
102
RTVSPropertyOp22
 70
     1
102
RTVSPropertyOp23
 70
     1
102
RTVSPropertyOp24
 70
     1
102
RTVSPropertyOp25
 70
     1
102
RTVSPropertyOp26
 70
     1
102
RTVSPropertyOp27
 70
     1
102
RTVSPropertyOp28
 70
     1
102
RTVSPropertyOp29
 70
     1
102
RTVSPropertyOp30
 70
     1
102
RTVSPropertyOp31
 70
     1
102
RTVSPropertyOp32
 70
     1
102
RTVSPropertyOp33
 70
     1
102
RTVSPropertyOp34
 70
     1
102
RTVSPropertyOp35
 70
     1
102
RTVSPropertyOp36
 70
     1
102
RTVSPropertyOp37
 70
     1
102
RTVSPropertyOp38
 70
     1
102
RTVSPropertyOp39
 70
     1
102
RTVSPropertyOp40
 70
     1
102
RTVSPropertyOp41
 70
     1
102
RTVSPropertyOp42
 70
     1
102
RTVSPropertyOp43
 70
     1
102
RTVSPropertyOp44
 70
     1
102
RTVSPropertyOp45
 70
     1
102
RTVSPropertyOp46
 70
     1
102
RTVSPropertyOp47
 70
     1
102
RTVSPropertyOp48
 70
     1
102
RTVSPropertyOp49
 70
     1
102
RTVSPropertyOp50
 70
     1
102
RTVSPropertyOp51
 70
     0
102
RTVSPropertyOp52
 70
     0
102
RTVSPropertyOp53
 70
     1
102
RTVSPropertyOp54
 70
     1
102
RTVSPropertyOp55
 70
     1
102
RTVSPropertyOp56
 70
     1
102
RTVSPropertyOp57
 70
     1
102
RTVSPost2010Prop28
280
     0
102
RTVSPost2010PropOp28
 70
     1
102
RTVSPost2010Prop29
280
     1
102
RTVSPost2010PropOp29
 70
     1
102
RTVSPost2010Prop30
280
     1
102
RTVSPost2010PropOp30
 70
     1
102
RTVSPost2010Prop31
280
     0
102
RTVSPost2010PropOp31
 70
     1
102
RTVSPost2010Prop32
280
     0
102
RTVSPost2010PropOp32
 70
     1
102
RTVSPost2010Prop33
280
     0
102
RTVSPost2010PropOp33
 70
     1
102
RTVSPost2010Prop34
280
     0
102
RTVSPost2010PropOp34
 70
     1
102
RTVSPost2010Prop35
280
     0
102
RTVSPost2010PropOp35
 70
     1
102
RTVSPost2010Prop36
280
     0
102
RTVSPost2010PropOp36
 70
     1
102
RTVSPost2010Prop37
 90
       50
102
RTVSPost2010PropOp37
 70
     1
102
RTVSPost2010Prop38
140
0.0
102
RTVSPost2010PropOp38
 70
     1
102
RTVSPost2010Prop39
140
1.0
102
RTVSPost2010PropOp39
 70
     1
102
RTVSPost2010Prop40
 90
        0
102
RTVSPost2010PropOp40
 70
     1
102
RTVSPost2010Prop41ColorIndex
 90
       18
102
RTVSPost2010Prop41ColorRGB
 90
        0
102
RTVSPost2010PropOp41
 70
     1
102
RTVSPost2010Prop42
 90
       50
102
RTVSPost2010PropOp42
 70
     1
102
RTVSPost2010Prop43
 90
        3
102
RTVSPost2010PropOp43
 70
     1
102
RTVSPost2010Prop44ColorIndex
 90
        5
102
RTVSPost2010Prop44ColorRGB
 90
      255
102
RTVSPost2010PropOp44
 70
     1
102
RTVSPost2010Prop45
280
     0
102
RTVSPost2010PropOp45
 70
     1
102
RTVSPost2010Prop46
 90
       50
102
RTVSPost2010PropOp46
 70
     1
102
RTVSPost2010Prop47
 90
       50
102
RTVSPost2010PropOp47
 70
     1
102
RTVSPost2010Prop48
 90
       50
102
RTVSPost2010PropOp48
 70
     1
102
RTVSPost2010Prop49
280
     0
102
RTVSPost2010PropOp49
 70
     1
102
RTVSPost2010Prop50
 90
       50
102
RTVSPost2010PropOp50
 70
     1
102
RTVSPost2010Prop51ColorIndex
 90
      256
102
RTVSPost2010Prop51ColorRGB
 90
-16777216
102
RTVSPost2010PropOp51
 70
     0
102
RTVSPost2010Prop52
140
1.0
102
RTVSPost2010PropOp52
 70
     0
102
RTVSPost2010Prop53
 90
        2
102
RTVSPost2010PropOp53
 70
     1
102
RTVSPost2010Prop54
  1
strokes_ogs.tif
102
RTVSPost2010PropOp54
 70
     1
102
RTVSPost2010Prop55
280
     0
102
RTVSPost2010PropOp55
 70
     1
102
RTVSPost2010Prop56
140
1.0
102
RTVSPost2010PropOp56
 70
     1
102
RTVSPost2010Prop57
140
1.0
102
RTVSPost2010PropOp57
 70
     1
  0
XRECORD
  5
5BE
102
{ACAD_REACTORS
330
5BD
102
}
330
5BD
100
AcDbXrecord
280
     1
102
RTVSPropertyOp0
 70
     1
102
RTVSPropertyOp1
 70
     1
102
RTVSPropertyOp2
 70
     1
102
RTVSPropertyOp3
 70
     1
102
RTVSPropertyOp4
 70
     1
102
RTVSPropertyOp5
 70
     1
102
RTVSPropertyOp6
 70
     1
102
RTVSPropertyOp7
 70
     1
102
RTVSPropertyOp8
 70
     1
102
RTVSPropertyOp9
 70
     1
102
RTVSPropertyOp10
 70
     1
102
RTVSPropertyOp11
 70
     1
102
RTVSPropertyOp12
 70
     1
102
RTVSPropertyOp13
 70
     1
102
RTVSPropertyOp14
 70
     1
102
RTVSPropertyOp15
 70
     1
102
RTVSPropertyOp16
 70
     1
102
RTVSPropertyOp17
 70
     1
102
RTVSPropertyOp18
 70
     1
102
RTVSPropertyOp19
 70
     1
102
RTVSPropertyOp20
 70
     1
102
RTVSPropertyOp21
 70
     1
102
RTVSPropertyOp22
 70
     1
102
RTVSPropertyOp23
 70
     1
102
RTVSPropertyOp24
 70
     1
102
RTVSPropertyOp25
 70
     1
102
RTVSPropertyOp26
 70
     1
102
RTVSPropertyOp27
 70
     1
102
RTVSPropertyOp28
 70
     1
102
RTVSPropertyOp29
 70
     1
102
RTVSPropertyOp30
 70
     1
102
RTVSPropertyOp31
 70
     1
102
RTVSPropertyOp32
 70
     1
102
RTVSPropertyOp33
 70
     1
102
RTVSPropertyOp34
 70
     1
102
RTVSPropertyOp35
 70
     1
102
RTVSPropertyOp36
 70
     1
102
RTVSPropertyOp37
 70
     1
102
RTVSPropertyOp38
 70
     1
102
RTVSPropertyOp39
 70
     1
102
RTVSPropertyOp40
 70
     1
102
RTVSPropertyOp41
 70
     1
102
RTVSPropertyOp42
 70
     1
102
RTVSPropertyOp43
 70
     1
102
RTVSPropertyOp44
 70
     1
102
RTVSPropertyOp45
 70
     1
102
RTVSPropertyOp46
 70
     1
102
RTVSPropertyOp47
 70
     1
102
RTVSPropertyOp48
 70
     1
102
RTVSPropertyOp49
 70
     1
102
RTVSPropertyOp50
 70
     1
102
RTVSPropertyOp51
 70
     0
102
RTVSPropertyOp52
 70
     0
102
RTVSPropertyOp53
 70
     1
102
RTVSPropertyOp54
 70
     1
102
RTVSPropertyOp55
 70
     1
102
RTVSPropertyOp56
 70
     1
102
RTVSPropertyOp57
 70
     1
102
RTVSPost2010Prop28
280
     0
102
RTVSPost2010PropOp28
 70
     1
102
RTVSPost2010Prop29
280
     1
102
RTVSPost2010PropOp29
 70
     1
102
RTVSPost2010Prop30
280
     1
102
RTVSPost2010PropOp30
 70
     1
102
RTVSPost2010Prop31
280
     0
102
RTVSPost2010PropOp31
 70
     1
102
RTVSPost2010Prop32
280
     0
102
RTVSPost2010PropOp32
 70
     1
102
RTVSPost2010Prop33
280
     0
102
RTVSPost2010PropOp33
 70
     1
102
RTVSPost2010Prop34
280
     0
102
RTVSPost2010PropOp34
 70
     1
102
RTVSPost2010Prop35
280
     0
102
RTVSPost2010PropOp35
 70
     1
102
RTVSPost2010Prop36
280
     0
102
RTVSPost2010PropOp36
 70
     1
102
RTVSPost2010Prop37
 90
       50
102
RTVSPost2010PropOp37
 70
     1
102
RTVSPost2010Prop38
140
0.0
102
RTVSPost2010PropOp38
 70
     1
102
RTVSPost2010Prop39
140
1.0
102
RTVSPost2010PropOp39
 70
     1
102
RTVSPost2010Prop40
 90
        0
102
RTVSPost2010PropOp40
 70
     1
102
RTVSPost2010Prop41ColorIndex
 90
       18
102
RTVSPost2010Prop41ColorRGB
 90
        0
102
RTVSPost2010PropOp41
 70
     1
102
RTVSPost2010Prop42
 90
       50
102
RTVSPost2010PropOp42
 70
     1
102
RTVSPost2010Prop43
 90
        3
102
RTVSPost2010PropOp43
 70
     1
102
RTVSPost2010Prop44ColorIndex
 90
        5
102
RTVSPost2010Prop44ColorRGB
 90
      255
102
RTVSPost2010PropOp44
 70
     1
102
RTVSPost2010Prop45
280
     0
102
RTVSPost2010PropOp45
 70
     1
102
RTVSPost2010Prop46
 90
       50
102
RTVSPost2010PropOp46
 70
     1
102
RTVSPost2010Prop47
 90
       50
102
RTVSPost2010PropOp47
 70
     1
102
RTVSPost2010Prop48
 90
       50
102
RTVSPost2010PropOp48
 70
     1
102
RTVSPost2010Prop49
280
     0
102
RTVSPost2010PropOp49
 70
     1
102
RTVSPost2010Prop50
 90
       50
102
RTVSPost2010PropOp50
 70
     1
102
RTVSPost2010Prop51ColorIndex
 90
      256
102
RTVSPost2010Prop51ColorRGB
 90
-16777216
102
RTVSPost2010PropOp51
 70
     0
102
RTVSPost2010Prop52
140
1.0
102
RTVSPost2010PropOp52
 70
     0
102
RTVSPost2010Prop53
 90
        2
102
RTVSPost2010PropOp53
 70
     1
102
RTVSPost2010Prop54
  1
strokes_ogs.tif
102
RTVSPost2010PropOp54
 70
     1
102
RTVSPost2010Prop55
280
     0
102
RTVSPost2010PropOp55
 70
     1
102
RTVSPost2010Prop56
140
1.0
102
RTVSPost2010PropOp56
 70
     1
102
RTVSPost2010Prop57
140
1.0
102
RTVSPost2010PropOp57
 70
     1
  0
XRECORD
  5
5C0
102
{ACAD_REACTORS
330
5BF
102
}
330
5BF
100
AcDbXrecord
280
     1
102
RTVSPropertyOp0
 70
     1
102
RTVSPropertyOp1
 70
     1
102
RTVSPropertyOp2
 70
     1
102
RTVSPropertyOp3
 70
     1
102
RTVSPropertyOp4
 70
     1
102
RTVSPropertyOp5
 70
     1
102
RTVSPropertyOp6
 70
     1
102
RTVSPropertyOp7
 70
     1
102
RTVSPropertyOp8
 70
     1
102
RTVSPropertyOp9
 70
     1
102
RTVSPropertyOp10
 70
     1
102
RTVSPropertyOp11
 70
     1
102
RTVSPropertyOp12
 70
     1
102
RTVSPropertyOp13
 70
     1
102
RTVSPropertyOp14
 70
     1
102
RTVSPropertyOp15
 70
     1
102
RTVSPropertyOp16
 70
     1
102
RTVSPropertyOp17
 70
     1
102
RTVSPropertyOp18
 70
     1
102
RTVSPropertyOp19
 70
     1
102
RTVSPropertyOp20
 70
     1
102
RTVSPropertyOp21
 70
     1
102
RTVSPropertyOp22
 70
     1
102
RTVSPropertyOp23
 70
     1
102
RTVSPropertyOp24
 70
     1
102
RTVSPropertyOp25
 70
     1
102
RTVSPropertyOp26
 70
     1
102
RTVSPropertyOp27
 70
     1
102
RTVSPropertyOp28
 70
     1
102
RTVSPropertyOp29
 70
     1
102
RTVSPropertyOp30
 70
     1
102
RTVSPropertyOp31
 70
     1
102
RTVSPropertyOp32
 70
     1
102
RTVSPropertyOp33
 70
     1
102
RTVSPropertyOp34
 70
     1
102
RTVSPropertyOp35
 70
     1
102
RTVSPropertyOp36
 70
     1
102
RTVSPropertyOp37
 70
     1
102
RTVSPropertyOp38
 70
     1
102
RTVSPropertyOp39
 70
     1
102
RTVSPropertyOp40
 70
     1
102
RTVSPropertyOp41
 70
     1
102
RTVSPropertyOp42
 70
     1
102
RTVSPropertyOp43
 70
     1
102
RTVSPropertyOp44
 70
     1
102
RTVSPropertyOp45
 70
     1
102
RTVSPropertyOp46
 70
     1
102
RTVSPropertyOp47
 70
     1
102
RTVSPropertyOp48
 70
     1
102
RTVSPropertyOp49
 70
     1
102
RTVSPropertyOp50
 70
     1
102
RTVSPropertyOp51
 70
     0
102
RTVSPropertyOp52
 70
     0
102
RTVSPropertyOp53
 70
     1
102
RTVSPropertyOp54
 70
     1
102
RTVSPropertyOp55
 70
     1
102
RTVSPropertyOp56
 70
     1
102
RTVSPropertyOp57
 70
     1
102
RTVSPost2010Prop28
280
     0
102
RTVSPost2010PropOp28
 70
     1
102
RTVSPost2010Prop29
280
     1
102
RTVSPost2010PropOp29
 70
     1
102
RTVSPost2010Prop30
280
     1
102
RTVSPost2010PropOp30
 70
     1
102
RTVSPost2010Prop31
280
     0
102
RTVSPost2010PropOp31
 70
     1
102
RTVSPost2010Prop32
280
     0
102
RTVSPost2010PropOp32
 70
     1
102
RTVSPost2010Prop33
280
     0
102
RTVSPost2010PropOp33
 70
     1
102
RTVSPost2010Prop34
280
     0
102
RTVSPost2010PropOp34
 70
     1
102
RTVSPost2010Prop35
280
     0
102
RTVSPost2010PropOp35
 70
     1
102
RTVSPost2010Prop36
280
     0
102
RTVSPost2010PropOp36
 70
     1
102
RTVSPost2010Prop37
 90
       50
102
RTVSPost2010PropOp37
 70
     1
102
RTVSPost2010Prop38
140
0.0
102
RTVSPost2010PropOp38
 70
     1
102
RTVSPost2010Prop39
140
1.0
102
RTVSPost2010PropOp39
 70
     1
102
RTVSPost2010Prop40
 90
        0
102
RTVSPost2010PropOp40
 70
     1
102
RTVSPost2010Prop41ColorIndex
 90
       18
102
RTVSPost2010Prop41ColorRGB
 90
        0
102
RTVSPost2010PropOp41
 70
     1
102
RTVSPost2010Prop42
 90
       50
102
RTVSPost2010PropOp42
 70
     1
102
RTVSPost2010Prop43
 90
        3
102
RTVSPost2010PropOp43
 70
     1
102
RTVSPost2010Prop44ColorIndex
 90
        5
102
RTVSPost2010Prop44ColorRGB
 90
      255
102
RTVSPost2010PropOp44
 70
     1
102
RTVSPost2010Prop45
280
     0
102
RTVSPost2010PropOp45
 70
     1
102
RTVSPost2010Prop46
 90
       50
102
RTVSPost2010PropOp46
 70
     1
102
RTVSPost2010Prop47
 90
       50
102
RTVSPost2010PropOp47
 70
     1
102
RTVSPost2010Prop48
 90
       50
102
RTVSPost2010PropOp48
 70
     1
102
RTVSPost2010Prop49
280
     0
102
RTVSPost2010PropOp49
 70
     1
102
RTVSPost2010Prop50
 90
       50
102
RTVSPost2010PropOp50
 70
     1
102
RTVSPost2010Prop51ColorIndex
 90
      256
102
RTVSPost2010Prop51ColorRGB
 90
-16777216
102
RTVSPost2010PropOp51
 70
     0
102
RTVSPost2010Prop52
140
1.0
102
RTVSPost2010PropOp52
 70
     0
102
RTVSPost2010Prop53
 90
        2
102
RTVSPost2010PropOp53
 70
     1
102
RTVSPost2010Prop54
  1
strokes_ogs.tif
102
RTVSPost2010PropOp54
 70
     1
102
RTVSPost2010Prop55
280
     0
102
RTVSPost2010PropOp55
 70
     1
102
RTVSPost2010Prop56
140
1.0
102
RTVSPost2010PropOp56
 70
     1
102
RTVSPost2010Prop57
140
1.0
102
RTVSPost2010PropOp57
 70
     1
  0
XRECORD
  5
5C2
102
{ACAD_REACTORS
330
5C1
102
}
330
5C1
100
AcDbXrecord
280
     1
102
RTVSPropertyOp0
 70
     1
102
RTVSPropertyOp1
 70
     1
102
RTVSPropertyOp2
 70
     1
102
RTVSPropertyOp3
 70
     1
102
RTVSPropertyOp4
 70
     1
102
RTVSPropertyOp5
 70
     1
102
RTVSPropertyOp6
 70
     1
102
RTVSPropertyOp7
 70
     1
102
RTVSPropertyOp8
 70
     1
102
RTVSPropertyOp9
 70
     1
102
RTVSPropertyOp10
 70
     1
102
RTVSPropertyOp11
 70
     1
102
RTVSPropertyOp12
 70
     1
102
RTVSPropertyOp13
 70
     1
102
RTVSPropertyOp14
 70
     1
102
RTVSPropertyOp15
 70
     1
102
RTVSPropertyOp16
 70
     1
102
RTVSPropertyOp17
 70
     1
102
RTVSPropertyOp18
 70
     1
102
RTVSPropertyOp19
 70
     1
102
RTVSPropertyOp20
 70
     1
102
RTVSPropertyOp21
 70
     1
102
RTVSPropertyOp22
 70
     1
102
RTVSPropertyOp23
 70
     1
102
RTVSPropertyOp24
 70
     1
102
RTVSPropertyOp25
 70
     1
102
RTVSPropertyOp26
 70
     1
102
RTVSPropertyOp27
 70
     1
102
RTVSPropertyOp28
 70
     1
102
RTVSPropertyOp29
 70
     1
102
RTVSPropertyOp30
 70
     1
102
RTVSPropertyOp31
 70
     1
102
RTVSPropertyOp32
 70
     1
102
RTVSPropertyOp33
 70
     1
102
RTVSPropertyOp34
 70
     1
102
RTVSPropertyOp35
 70
     1
102
RTVSPropertyOp36
 70
     1
102
RTVSPropertyOp37
 70
     1
102
RTVSPropertyOp38
 70
     1
102
RTVSPropertyOp39
 70
     1
102
RTVSPropertyOp40
 70
     1
102
RTVSPropertyOp41
 70
     1
102
RTVSPropertyOp42
 70
     1
102
RTVSPropertyOp43
 70
     1
102
RTVSPropertyOp44
 70
     1
102
RTVSPropertyOp45
 70
     1
102
RTVSPropertyOp46
 70
     1
102
RTVSPropertyOp47
 70
     1
102
RTVSPropertyOp48
 70
     1
102
RTVSPropertyOp49
 70
     1
102
RTVSPropertyOp50
 70
     1
102
RTVSPropertyOp51
 70
     0
102
RTVSPropertyOp52
 70
     0
102
RTVSPropertyOp53
 70
     1
102
RTVSPropertyOp54
 70
     1
102
RTVSPropertyOp55
 70
     1
102
RTVSPropertyOp56
 70
     1
102
RTVSPropertyOp57
 70
     1
102
RTVSPost2010Prop28
280
     0
102
RTVSPost2010PropOp28
 70
     1
102
RTVSPost2010Prop29
280
     1
102
RTVSPost2010PropOp29
 70
     1
102
RTVSPost2010Prop30
280
     1
102
RTVSPost2010PropOp30
 70
     1
102
RTVSPost2010Prop31
280
     0
102
RTVSPost2010PropOp31
 70
     1
102
RTVSPost2010Prop32
280
     0
102
RTVSPost2010PropOp32
 70
     1
102
RTVSPost2010Prop33
280
     0
102
RTVSPost2010PropOp33
 70
     1
102
RTVSPost2010Prop34
280
     0
102
RTVSPost2010PropOp34
 70
     1
102
RTVSPost2010Prop35
280
     0
102
RTVSPost2010PropOp35
 70
     1
102
RTVSPost2010Prop36
280
     0
102
RTVSPost2010PropOp36
 70
     1
102
RTVSPost2010Prop37
 90
       50
102
RTVSPost2010PropOp37
 70
     1
102
RTVSPost2010Prop38
140
0.0
102
RTVSPost2010PropOp38
 70
     1
102
RTVSPost2010Prop39
140
1.0
102
RTVSPost2010PropOp39
 70
     1
102
RTVSPost2010Prop40
 90
        0
102
RTVSPost2010PropOp40
 70
     1
102
RTVSPost2010Prop41ColorIndex
 90
       18
102
RTVSPost2010Prop41ColorRGB
 90
        0
102
RTVSPost2010PropOp41
 70
     1
102
RTVSPost2010Prop42
 90
       50
102
RTVSPost2010PropOp42
 70
     1
102
RTVSPost2010Prop43
 90
        3
102
RTVSPost2010PropOp43
 70
     1
102
RTVSPost2010Prop44ColorIndex
 90
        5
102
RTVSPost2010Prop44ColorRGB
 90
      255
102
RTVSPost2010PropOp44
 70
     1
102
RTVSPost2010Prop45
280
     0
102
RTVSPost2010PropOp45
 70
     1
102
RTVSPost2010Prop46
 90
       50
102
RTVSPost2010PropOp46
 70
     1
102
RTVSPost2010Prop47
 90
       50
102
RTVSPost2010PropOp47
 70
     1
102
RTVSPost2010Prop48
 90
       50
102
RTVSPost2010PropOp48
 70
     1
102
RTVSPost2010Prop49
280
     0
102
RTVSPost2010PropOp49
 70
     1
102
RTVSPost2010Prop50
 90
       50
102
RTVSPost2010PropOp50
 70
     1
102
RTVSPost2010Prop51ColorIndex
 90
      256
102
RTVSPost2010Prop51ColorRGB
 90
-16777216
102
RTVSPost2010PropOp51
 70
     0
102
RTVSPost2010Prop52
140
1.0
102
RTVSPost2010PropOp52
 70
     0
102
RTVSPost2010Prop53
 90
        2
102
RTVSPost2010PropOp53
 70
     1
102
RTVSPost2010Prop54
  1
strokes_ogs.tif
102
RTVSPost2010PropOp54
 70
     1
102
RTVSPost2010Prop55
280
     0
102
RTVSPost2010PropOp55
 70
     1
102
RTVSPost2010Prop56
140
1.0
102
RTVSPost2010PropOp56
 70
     1
102
RTVSPost2010Prop57
140
1.0
102
RTVSPost2010PropOp57
 70
     1
  0
XRECORD
  5
5C8
102
{ACAD_REACTORS
330
5C7
102
}
330
5C7
100
AcDbXrecord
280
     1
102
RTVSPropertyOp0
 70
     1
102
RTVSPropertyOp1
 70
     1
102
RTVSPropertyOp2
 70
     1
102
RTVSPropertyOp3
 70
     1
102
RTVSPropertyOp4
 70
     1
102
RTVSPropertyOp5
 70
     1
102
RTVSPropertyOp6
 70
     1
102
RTVSPropertyOp7
 70
     1
102
RTVSPropertyOp8
 70
     1
102
RTVSPropertyOp9
 70
     1
102
RTVSPropertyOp10
 70
     1
102
RTVSPropertyOp11
 70
     1
102
RTVSPropertyOp12
 70
     1
102
RTVSPropertyOp13
 70
     1
102
RTVSPropertyOp14
 70
     1
102
RTVSPropertyOp15
 70
     1
102
RTVSPropertyOp16
 70
     1
102
RTVSPropertyOp17
 70
     1
102
RTVSPropertyOp18
 70
     1
102
RTVSPropertyOp19
 70
     1
102
RTVSPropertyOp20
 70
     1
102
RTVSPropertyOp21
 70
     1
102
RTVSPropertyOp22
 70
     1
102
RTVSPropertyOp23
 70
     1
102
RTVSPropertyOp24
 70
     1
102
RTVSPropertyOp25
 70
     1
102
RTVSPropertyOp26
 70
     1
102
RTVSPropertyOp27
 70
     1
102
RTVSPropertyOp28
 70
     1
102
RTVSPropertyOp29
 70
     1
102
RTVSPropertyOp30
 70
     1
102
RTVSPropertyOp31
 70
     1
102
RTVSPropertyOp32
 70
     1
102
RTVSPropertyOp33
 70
     1
102
RTVSPropertyOp34
 70
     1
102
RTVSPropertyOp35
 70
     1
102
RTVSPropertyOp36
 70
     1
102
RTVSPropertyOp37
 70
     1
102
RTVSPropertyOp38
 70
     1
102
RTVSPropertyOp39
 70
     1
102
RTVSPropertyOp40
 70
     1
102
RTVSPropertyOp41
 70
     1
102
RTVSPropertyOp42
 70
     1
102
RTVSPropertyOp43
 70
     1
102
RTVSPropertyOp44
 70
     1
102
RTVSPropertyOp45
 70
     1
102
RTVSPropertyOp46
 70
     1
102
RTVSPropertyOp47
 70
     1
102
RTVSPropertyOp48
 70
     1
102
RTVSPropertyOp49
 70
     1
102
RTVSPropertyOp50
 70
     1
102
RTVSPropertyOp51
 70
     0
102
RTVSPropertyOp52
 70
     0
102
RTVSPropertyOp53
 70
     1
102
RTVSPropertyOp54
 70
     1
102
RTVSPropertyOp55
 70
     1
102
RTVSPropertyOp56
 70
     1
102
RTVSPropertyOp57
 70
     1
102
RTVSPost2010Prop28
280
     0
102
RTVSPost2010PropOp28
 70
     1
102
RTVSPost2010Prop29
280
     1
102
RTVSPost2010PropOp29
 70
     1
102
RTVSPost2010Prop30
280
     1
102
RTVSPost2010PropOp30
 70
     1
102
RTVSPost2010Prop31
280
     0
102
RTVSPost2010PropOp31
 70
     1
102
RTVSPost2010Prop32
280
     0
102
RTVSPost2010PropOp32
 70
     1
102
RTVSPost2010Prop33
280
     0
102
RTVSPost2010PropOp33
 70
     1
102
RTVSPost2010Prop34
280
     0
102
RTVSPost2010PropOp34
 70
     1
102
RTVSPost2010Prop35
280
     0
102
RTVSPost2010PropOp35
 70
     1
102
RTVSPost2010Prop36
280
     0
102
RTVSPost2010PropOp36
 70
     1
102
RTVSPost2010Prop37
 90
       50
102
RTVSPost2010PropOp37
 70
     1
102
RTVSPost2010Prop38
140
0.0
102
RTVSPost2010PropOp38
 70
     1
102
RTVSPost2010Prop39
140
1.0
102
RTVSPost2010PropOp39
 70
     1
102
RTVSPost2010Prop40
 90
        0
102
RTVSPost2010PropOp40
 70
     1
102
RTVSPost2010Prop41ColorIndex
 90
       18
102
RTVSPost2010Prop41ColorRGB
 90
        0
102
RTVSPost2010PropOp41
 70
     1
102
RTVSPost2010Prop42
 90
       50
102
RTVSPost2010PropOp42
 70
     1
102
RTVSPost2010Prop43
 90
        3
102
RTVSPost2010PropOp43
 70
     1
102
RTVSPost2010Prop44ColorIndex
 90
        5
102
RTVSPost2010Prop44ColorRGB
 90
      255
102
RTVSPost2010PropOp44
 70
     1
102
RTVSPost2010Prop45
280
     0
102
RTVSPost2010PropOp45
 70
     1
102
RTVSPost2010Prop46
 90
       50
102
RTVSPost2010PropOp46
 70
     1
102
RTVSPost2010Prop47
 90
       50
102
RTVSPost2010PropOp47
 70
     1
102
RTVSPost2010Prop48
 90
       50
102
RTVSPost2010PropOp48
 70
     1
102
RTVSPost2010Prop49
280
     0
102
RTVSPost2010PropOp49
 70
     1
102
RTVSPost2010Prop50
 90
       50
102
RTVSPost2010PropOp50
 70
     1
102
RTVSPost2010Prop51ColorIndex
 90
      256
102
RTVSPost2010Prop51ColorRGB
 90
-16777216
102
RTVSPost2010PropOp51
 70
     0
102
RTVSPost2010Prop52
140
1.0
102
RTVSPost2010PropOp52
 70
     0
102
RTVSPost2010Prop53
 90
        2
102
RTVSPost2010PropOp53
 70
     1
102
RTVSPost2010Prop54
  1
strokes_ogs.tif
102
RTVSPost2010PropOp54
 70
     1
102
RTVSPost2010Prop55
280
     0
102
RTVSPost2010PropOp55
 70
     1
102
RTVSPost2010Prop56
140
1.0
102
RTVSPost2010PropOp56
 70
     1
102
RTVSPost2010Prop57
140
1.0
102
RTVSPost2010PropOp57
 70
     1
  0
XRECORD
  5
5DC
102
{ACAD_REACTORS
330
5DB
102
}
330
5DB
100
AcDbXrecord
280
     1
102
RTVSPropertyOp0
 70
     0
102
RTVSPropertyOp1
 70
     0
102
RTVSPropertyOp2
 70
     0
102
RTVSPropertyOp3
 70
     0
102
RTVSPropertyOp4
 70
     0
102
RTVSPropertyOp5
 70
     0
102
RTVSPropertyOp6
 70
     0
102
RTVSPropertyOp7
 70
     0
102
RTVSPropertyOp8
 70
     0
102
RTVSPropertyOp9
 70
     0
102
RTVSPropertyOp10
 70
     0
102
RTVSPropertyOp11
 70
     0
102
RTVSPropertyOp12
 70
     0
102
RTVSPropertyOp13
 70
     0
102
RTVSPropertyOp14
 70
     0
102
RTVSPropertyOp15
 70
     0
102
RTVSPropertyOp16
 70
     0
102
RTVSPropertyOp17
 70
     0
102
RTVSPropertyOp18
 70
     0
102
RTVSPropertyOp19
 70
     0
102
RTVSPropertyOp20
 70
     0
102
RTVSPropertyOp21
 70
     0
102
RTVSPropertyOp22
 70
     0
102
RTVSPropertyOp23
 70
     0
102
RTVSPropertyOp24
 70
     0
102
RTVSPropertyOp25
 70
     0
102
RTVSPropertyOp26
 70
     0
102
RTVSPropertyOp27
 70
     0
102
RTVSPropertyOp28
 70
     1
102
RTVSPropertyOp29
 70
     1
102
RTVSPropertyOp30
 70
     1
102
RTVSPropertyOp31
 70
     1
102
RTVSPropertyOp32
 70
     1
102
RTVSPropertyOp33
 70
     1
102
RTVSPropertyOp34
 70
     1
102
RTVSPropertyOp35
 70
     1
102
RTVSPropertyOp36
 70
     1
102
RTVSPropertyOp37
 70
     1
102
RTVSPropertyOp38
 70
     1
102
RTVSPropertyOp39
 70
     1
102
RTVSPropertyOp40
 70
     1
102
RTVSPropertyOp41
 70
     1
102
RTVSPropertyOp42
 70
     1
102
RTVSPropertyOp43
 70
     1
102
RTVSPropertyOp44
 70
     1
102
RTVSPropertyOp45
 70
     1
102
RTVSPropertyOp46
 70
     1
102
RTVSPropertyOp47
 70
     1
102
RTVSPropertyOp48
 70
     1
102
RTVSPropertyOp49
 70
     1
102
RTVSPropertyOp50
 70
     1
102
RTVSPropertyOp51
 70
     0
102
RTVSPropertyOp52
 70
     0
102
RTVSPropertyOp53
 70
     1
102
RTVSPropertyOp54
 70
     1
102
RTVSPropertyOp55
 70
     1
102
RTVSPropertyOp56
 70
     1
102
RTVSPropertyOp57
 70
     1
102
RTVSPost2010Prop28
280
     0
102
RTVSPost2010PropOp28
 70
     1
102
RTVSPost2010Prop29
280
     1
102
RTVSPost2010PropOp29
 70
     1
102
RTVSPost2010Prop30
280
     1
102
RTVSPost2010PropOp30
 70
     1
102
RTVSPost2010Prop31
280
     0
102
RTVSPost2010PropOp31
 70
     1
102
RTVSPost2010Prop32
280
     0
102
RTVSPost2010PropOp32
 70
     1
102
RTVSPost2010Prop33
280
     0
102
RTVSPost2010PropOp33
 70
     1
102
RTVSPost2010Prop34
280
     0
102
RTVSPost2010PropOp34
 70
     1
102
RTVSPost2010Prop35
280
     0
102
RTVSPost2010PropOp35
 70
     1
102
RTVSPost2010Prop36
280
     0
102
RTVSPost2010PropOp36
 70
     1
102
RTVSPost2010Prop37
 90
       50
102
RTVSPost2010PropOp37
 70
     1
102
RTVSPost2010Prop38
140
0.0
102
RTVSPost2010PropOp38
 70
     1
102
RTVSPost2010Prop39
140
1.0
102
RTVSPost2010PropOp39
 70
     1
102
RTVSPost2010Prop40
 90
        0
102
RTVSPost2010PropOp40
 70
     1
102
RTVSPost2010Prop41ColorIndex
 90
       18
102
RTVSPost2010Prop41ColorRGB
 90
        0
102
RTVSPost2010PropOp41
 70
     1
102
RTVSPost2010Prop42
 90
       50
102
RTVSPost2010PropOp42
 70
     1
102
RTVSPost2010Prop43
 90
        3
102
RTVSPost2010PropOp43
 70
     1
102
RTVSPost2010Prop44ColorIndex
 90
        5
102
RTVSPost2010Prop44ColorRGB
 90
      255
102
RTVSPost2010PropOp44
 70
     1
102
RTVSPost2010Prop45
280
     0
102
RTVSPost2010PropOp45
 70
     1
102
RTVSPost2010Prop46
 90
       50
102
RTVSPost2010PropOp46
 70
     1
102
RTVSPost2010Prop47
 90
       50
102
RTVSPost2010PropOp47
 70
     1
102
RTVSPost2010Prop48
 90
       50
102
RTVSPost2010PropOp48
 70
     1
102
RTVSPost2010Prop49
280
     0
102
RTVSPost2010PropOp49
 70
     1
102
RTVSPost2010Prop50
 90
       50
102
RTVSPost2010PropOp50
 70
     1
102
RTVSPost2010Prop51ColorIndex
 90
      256
102
RTVSPost2010Prop51ColorRGB
 90
-16777216
102
RTVSPost2010PropOp51
 70
     0
102
RTVSPost2010Prop52
140
1.0
102
RTVSPost2010PropOp52
 70
     0
102
RTVSPost2010Prop53
 90
        2
102
RTVSPost2010PropOp53
 70
     1
102
RTVSPost2010Prop54
  1
strokes_ogs.tif
102
RTVSPost2010PropOp54
 70
     1
102
RTVSPost2010Prop55
280
     0
102
RTVSPost2010PropOp55
 70
     1
102
RTVSPost2010Prop56
140
1.0
102
RTVSPost2010PropOp56
 70
     1
102
RTVSPost2010Prop57
140
1.0
102
RTVSPost2010PropOp57
 70
     1
  0
XRECORD
  5
5D6
102
{ACAD_REACTORS
330
5D5
102
}
330
5D5
100
AcDbXrecord
280
     1
102
RTVSPropertyOp0
 70
     1
102
RTVSPropertyOp1
 70
     1
102
RTVSPropertyOp2
 70
     1
102
RTVSPropertyOp3
 70
     1
102
RTVSPropertyOp4
 70
     1
102
RTVSPropertyOp5
 70
     1
102
RTVSPropertyOp6
 70
     1
102
RTVSPropertyOp7
 70
     1
102
RTVSPropertyOp8
 70
     1
102
RTVSPropertyOp9
 70
     1
102
RTVSPropertyOp10
 70
     1
102
RTVSPropertyOp11
 70
     1
102
RTVSPropertyOp12
 70
     1
102
RTVSPropertyOp13
 70
     1
102
RTVSPropertyOp14
 70
     1
102
RTVSPropertyOp15
 70
     1
102
RTVSPropertyOp16
 70
     1
102
RTVSPropertyOp17
 70
     1
102
RTVSPropertyOp18
 70
     1
102
RTVSPropertyOp19
 70
     1
102
RTVSPropertyOp20
 70
     1
102
RTVSPropertyOp21
 70
     1
102
RTVSPropertyOp22
 70
     1
102
RTVSPropertyOp23
 70
     1
102
RTVSPropertyOp24
 70
     1
102
RTVSPropertyOp25
 70
     1
102
RTVSPropertyOp26
 70
     1
102
RTVSPropertyOp27
 70
     1
102
RTVSPropertyOp28
 70
     1
102
RTVSPropertyOp29
 70
     1
102
RTVSPropertyOp30
 70
     1
102
RTVSPropertyOp31
 70
     1
102
RTVSPropertyOp32
 70
     1
102
RTVSPropertyOp33
 70
     1
102
RTVSPropertyOp34
 70
     1
102
RTVSPropertyOp35
 70
     1
102
RTVSPropertyOp36
 70
     1
102
RTVSPropertyOp37
 70
     1
102
RTVSPropertyOp38
 70
     1
102
RTVSPropertyOp39
 70
     1
102
RTVSPropertyOp40
 70
     1
102
RTVSPropertyOp41
 70
     1
102
RTVSPropertyOp42
 70
     1
102
RTVSPropertyOp43
 70
     1
102
RTVSPropertyOp44
 70
     1
102
RTVSPropertyOp45
 70
     1
102
RTVSPropertyOp46
 70
     1
102
RTVSPropertyOp47
 70
     1
102
RTVSPropertyOp48
 70
     1
102
RTVSPropertyOp49
 70
     1
102
RTVSPropertyOp50
 70
     1
102
RTVSPropertyOp51
 70
     0
102
RTVSPropertyOp52
 70
     0
102
RTVSPropertyOp53
 70
     1
102
RTVSPropertyOp54
 70
     1
102
RTVSPropertyOp55
 70
     1
102
RTVSPropertyOp56
 70
     1
102
RTVSPropertyOp57
 70
     1
102
RTVSPost2010Prop28
280
     0
102
RTVSPost2010PropOp28
 70
     1
102
RTVSPost2010Prop29
280
     1
102
RTVSPost2010PropOp29
 70
     1
102
RTVSPost2010Prop30
280
     1
102
RTVSPost2010PropOp30
 70
     1
102
RTVSPost2010Prop31
280
     0
102
RTVSPost2010PropOp31
 70
     1
102
RTVSPost2010Prop32
280
     0
102
RTVSPost2010PropOp32
 70
     1
102
RTVSPost2010Prop33
280
     0
102
RTVSPost2010PropOp33
 70
     1
102
RTVSPost2010Prop34
280
     0
102
RTVSPost2010PropOp34
 70
     1
102
RTVSPost2010Prop35
280
     0
102
RTVSPost2010PropOp35
 70
     1
102
RTVSPost2010Prop36
280
     0
102
RTVSPost2010PropOp36
 70
     1
102
RTVSPost2010Prop37
 90
       50
102
RTVSPost2010PropOp37
 70
     1
102
RTVSPost2010Prop38
140
0.0
102
RTVSPost2010PropOp38
 70
     1
102
RTVSPost2010Prop39
140
1.0
102
RTVSPost2010PropOp39
 70
     1
102
RTVSPost2010Prop40
 90
        0
102
RTVSPost2010PropOp40
 70
     1
102
RTVSPost2010Prop41ColorIndex
 90
       18
102
RTVSPost2010Prop41ColorRGB
 90
        0
102
RTVSPost2010PropOp41
 70
     1
102
RTVSPost2010Prop42
 90
       50
102
RTVSPost2010PropOp42
 70
     1
102
RTVSPost2010Prop43
 90
        3
102
RTVSPost2010PropOp43
 70
     1
102
RTVSPost2010Prop44ColorIndex
 90
        5
102
RTVSPost2010Prop44ColorRGB
 90
      255
102
RTVSPost2010PropOp44
 70
     1
102
RTVSPost2010Prop45
280
     0
102
RTVSPost2010PropOp45
 70
     1
102
RTVSPost2010Prop46
 90
       50
102
RTVSPost2010PropOp46
 70
     1
102
RTVSPost2010Prop47
 90
       50
102
RTVSPost2010PropOp47
 70
     1
102
RTVSPost2010Prop48
 90
       50
102
RTVSPost2010PropOp48
 70
     1
102
RTVSPost2010Prop49
280
     0
102
RTVSPost2010PropOp49
 70
     1
102
RTVSPost2010Prop50
 90
       50
102
RTVSPost2010PropOp50
 70
     1
102
RTVSPost2010Prop51ColorIndex
 90
      256
102
RTVSPost2010Prop51ColorRGB
 90
-16777216
102
RTVSPost2010PropOp51
 70
     0
102
RTVSPost2010Prop52
140
1.0
102
RTVSPost2010PropOp52
 70
     0
102
RTVSPost2010Prop53
 90
        2
102
RTVSPost2010PropOp53
 70
     1
102
RTVSPost2010Prop54
  1
strokes_ogs.tif
102
RTVSPost2010PropOp54
 70
     1
102
RTVSPost2010Prop55
280
     0
102
RTVSPost2010PropOp55
 70
     1
102
RTVSPost2010Prop56
140
1.0
102
RTVSPost2010PropOp56
 70
     1
102
RTVSPost2010Prop57
140
1.0
102
RTVSPost2010PropOp57
 70
     1
  0
XRECORD
  5
5DE
102
{ACAD_REACTORS
330
5DD
102
}
330
5DD
100
AcDbXrecord
280
     1
102
RTVSPropertyOp0
 70
     0
102
RTVSPropertyOp1
 70
     0
102
RTVSPropertyOp2
 70
     0
102
RTVSPropertyOp3
 70
     0
102
RTVSPropertyOp4
 70
     0
102
RTVSPropertyOp5
 70
     0
102
RTVSPropertyOp6
 70
     0
102
RTVSPropertyOp7
 70
     0
102
RTVSPropertyOp8
 70
     0
102
RTVSPropertyOp9
 70
     0
102
RTVSPropertyOp10
 70
     0
102
RTVSPropertyOp11
 70
     0
102
RTVSPropertyOp12
 70
     0
102
RTVSPropertyOp13
 70
     0
102
RTVSPropertyOp14
 70
     0
102
RTVSPropertyOp15
 70
     0
102
RTVSPropertyOp16
 70
     0
102
RTVSPropertyOp17
 70
     0
102
RTVSPropertyOp18
 70
     0
102
RTVSPropertyOp19
 70
     0
102
RTVSPropertyOp20
 70
     0
102
RTVSPropertyOp21
 70
     0
102
RTVSPropertyOp22
 70
     0
102
RTVSPropertyOp23
 70
     0
102
RTVSPropertyOp24
 70
     0
102
RTVSPropertyOp25
 70
     0
102
RTVSPropertyOp26
 70
     0
102
RTVSPropertyOp27
 70
     0
102
RTVSPropertyOp28
 70
     1
102
RTVSPropertyOp29
 70
     1
102
RTVSPropertyOp30
 70
     1
102
RTVSPropertyOp31
 70
     1
102
RTVSPropertyOp32
 70
     1
102
RTVSPropertyOp33
 70
     1
102
RTVSPropertyOp34
 70
     1
102
RTVSPropertyOp35
 70
     1
102
RTVSPropertyOp36
 70
     1
102
RTVSPropertyOp37
 70
     1
102
RTVSPropertyOp38
 70
     1
102
RTVSPropertyOp39
 70
     1
102
RTVSPropertyOp40
 70
     1
102
RTVSPropertyOp41
 70
     1
102
RTVSPropertyOp42
 70
     1
102
RTVSPropertyOp43
 70
     1
102
RTVSPropertyOp44
 70
     1
102
RTVSPropertyOp45
 70
     1
102
RTVSPropertyOp46
 70
     1
102
RTVSPropertyOp47
 70
     1
102
RTVSPropertyOp48
 70
     1
102
RTVSPropertyOp49
 70
     1
102
RTVSPropertyOp50
 70
     1
102
RTVSPropertyOp51
 70
     0
102
RTVSPropertyOp52
 70
     0
102
RTVSPropertyOp53
 70
     1
102
RTVSPropertyOp54
 70
     1
102
RTVSPropertyOp55
 70
     1
102
RTVSPropertyOp56
 70
     1
102
RTVSPropertyOp57
 70
     1
102
RTVSPost2010Prop28
280
     0
102
RTVSPost2010PropOp28
 70
     1
102
RTVSPost2010Prop29
280
     1
102
RTVSPost2010PropOp29
 70
     1
102
RTVSPost2010Prop30
280
     1
102
RTVSPost2010PropOp30
 70
     1
102
RTVSPost2010Prop31
280
     0
102
RTVSPost2010PropOp31
 70
     1
102
RTVSPost2010Prop32
280
     0
102
RTVSPost2010PropOp32
 70
     1
102
RTVSPost2010Prop33
280
     0
102
RTVSPost2010PropOp33
 70
     1
102
RTVSPost2010Prop34
280
     0
102
RTVSPost2010PropOp34
 70
     1
102
RTVSPost2010Prop35
280
     0
102
RTVSPost2010PropOp35
 70
     1
102
RTVSPost2010Prop36
280
     0
102
RTVSPost2010PropOp36
 70
     1
102
RTVSPost2010Prop37
 90
       50
102
RTVSPost2010PropOp37
 70
     1
102
RTVSPost2010Prop38
140
0.0
102
RTVSPost2010PropOp38
 70
     1
102
RTVSPost2010Prop39
140
1.0
102
RTVSPost2010PropOp39
 70
     1
102
RTVSPost2010Prop40
 90
        0
102
RTVSPost2010PropOp40
 70
     1
102
RTVSPost2010Prop41ColorIndex
 90
       18
102
RTVSPost2010Prop41ColorRGB
 90
        0
102
RTVSPost2010PropOp41
 70
     1
102
RTVSPost2010Prop42
 90
       50
102
RTVSPost2010PropOp42
 70
     1
102
RTVSPost2010Prop43
 90
        3
102
RTVSPost2010PropOp43
 70
     1
102
RTVSPost2010Prop44ColorIndex
 90
        5
102
RTVSPost2010Prop44ColorRGB
 90
      255
102
RTVSPost2010PropOp44
 70
     1
102
RTVSPost2010Prop45
280
     0
102
RTVSPost2010PropOp45
 70
     1
102
RTVSPost2010Prop46
 90
       50
102
RTVSPost2010PropOp46
 70
     1
102
RTVSPost2010Prop47
 90
       50
102
RTVSPost2010PropOp47
 70
     1
102
RTVSPost2010Prop48
 90
       50
102
RTVSPost2010PropOp48
 70
     1
102
RTVSPost2010Prop49
280
     0
102
RTVSPost2010PropOp49
 70
     1
102
RTVSPost2010Prop50
 90
       50
102
RTVSPost2010PropOp50
 70
     1
102
RTVSPost2010Prop51ColorIndex
 90
      256
102
RTVSPost2010Prop51ColorRGB
 90
-16777216
102
RTVSPost2010PropOp51
 70
     0
102
RTVSPost2010Prop52
140
1.0
102
RTVSPost2010PropOp52
 70
     0
102
RTVSPost2010Prop53
 90
        2
102
RTVSPost2010PropOp53
 70
     1
102
RTVSPost2010Prop54
  1
strokes_ogs.tif
102
RTVSPost2010PropOp54
 70
     1
102
RTVSPost2010Prop55
280
     0
102
RTVSPost2010PropOp55
 70
     1
102
RTVSPost2010Prop56
140
1.0
102
RTVSPost2010PropOp56
 70
     1
102
RTVSPost2010Prop57
140
1.0
102
RTVSPost2010PropOp57
 70
     1
  0
XRECORD
  5
5CC
102
{ACAD_REACTORS
330
5CB
102
}
330
5CB
100
AcDbXrecord
280
     1
102
RTVSPropertyOp0
 70
     1
102
RTVSPropertyOp1
 70
     1
102
RTVSPropertyOp2
 70
     1
102
RTVSPropertyOp3
 70
     1
102
RTVSPropertyOp4
 70
     1
102
RTVSPropertyOp5
 70
     1
102
RTVSPropertyOp6
 70
     1
102
RTVSPropertyOp7
 70
     1
102
RTVSPropertyOp8
 70
     1
102
RTVSPropertyOp9
 70
     1
102
RTVSPropertyOp10
 70
     1
102
RTVSPropertyOp11
 70
     1
102
RTVSPropertyOp12
 70
     1
102
RTVSPropertyOp13
 70
     1
102
RTVSPropertyOp14
 70
     1
102
RTVSPropertyOp15
 70
     1
102
RTVSPropertyOp16
 70
     1
102
RTVSPropertyOp17
 70
     1
102
RTVSPropertyOp18
 70
     1
102
RTVSPropertyOp19
 70
     1
102
RTVSPropertyOp20
 70
     1
102
RTVSPropertyOp21
 70
     1
102
RTVSPropertyOp22
 70
     1
102
RTVSPropertyOp23
 70
     1
102
RTVSPropertyOp24
 70
     1
102
RTVSPropertyOp25
 70
     1
102
RTVSPropertyOp26
 70
     1
102
RTVSPropertyOp27
 70
     1
102
RTVSPropertyOp28
 70
     1
102
RTVSPropertyOp29
 70
     1
102
RTVSPropertyOp30
 70
     1
102
RTVSPropertyOp31
 70
     1
102
RTVSPropertyOp32
 70
     1
102
RTVSPropertyOp33
 70
     1
102
RTVSPropertyOp34
 70
     1
102
RTVSPropertyOp35
 70
     1
102
RTVSPropertyOp36
 70
     1
102
RTVSPropertyOp37
 70
     1
102
RTVSPropertyOp38
 70
     1
102
RTVSPropertyOp39
 70
     1
102
RTVSPropertyOp40
 70
     1
102
RTVSPropertyOp41
 70
     1
102
RTVSPropertyOp42
 70
     1
102
RTVSPropertyOp43
 70
     1
102
RTVSPropertyOp44
 70
     1
102
RTVSPropertyOp45
 70
     1
102
RTVSPropertyOp46
 70
     1
102
RTVSPropertyOp47
 70
     1
102
RTVSPropertyOp48
 70
     1
102
RTVSPropertyOp49
 70
     1
102
RTVSPropertyOp50
 70
     1
102
RTVSPropertyOp51
 70
     0
102
RTVSPropertyOp52
 70
     0
102
RTVSPropertyOp53
 70
     1
102
RTVSPropertyOp54
 70
     1
102
RTVSPropertyOp55
 70
     1
102
RTVSPropertyOp56
 70
     1
102
RTVSPropertyOp57
 70
     1
102
RTVSPost2010Prop28
280
     0
102
RTVSPost2010PropOp28
 70
     1
102
RTVSPost2010Prop29
280
     1
102
RTVSPost2010PropOp29
 70
     1
102
RTVSPost2010Prop30
280
     1
102
RTVSPost2010PropOp30
 70
     1
102
RTVSPost2010Prop31
280
     0
102
RTVSPost2010PropOp31
 70
     1
102
RTVSPost2010Prop32
280
     0
102
RTVSPost2010PropOp32
 70
     1
102
RTVSPost2010Prop33
280
     0
102
RTVSPost2010PropOp33
 70
     1
102
RTVSPost2010Prop34
280
     0
102
RTVSPost2010PropOp34
 70
     1
102
RTVSPost2010Prop35
280
     0
102
RTVSPost2010PropOp35
 70
     1
102
RTVSPost2010Prop36
280
     0
102
RTVSPost2010PropOp36
 70
     1
102
RTVSPost2010Prop37
 90
       50
102
RTVSPost2010PropOp37
 70
     1
102
RTVSPost2010Prop38
140
0.0
102
RTVSPost2010PropOp38
 70
     1
102
RTVSPost2010Prop39
140
1.0
102
RTVSPost2010PropOp39
 70
     1
102
RTVSPost2010Prop40
 90
        0
102
RTVSPost2010PropOp40
 70
     1
102
RTVSPost2010Prop41ColorIndex
 90
       18
102
RTVSPost2010Prop41ColorRGB
 90
        0
102
RTVSPost2010PropOp41
 70
     1
102
RTVSPost2010Prop42
 90
       50
102
RTVSPost2010PropOp42
 70
     1
102
RTVSPost2010Prop43
 90
        3
102
RTVSPost2010PropOp43
 70
     1
102
RTVSPost2010Prop44ColorIndex
 90
        5
102
RTVSPost2010Prop44ColorRGB
 90
      255
102
RTVSPost2010PropOp44
 70
     1
102
RTVSPost2010Prop45
280
     0
102
RTVSPost2010PropOp45
 70
     1
102
RTVSPost2010Prop46
 90
       50
102
RTVSPost2010PropOp46
 70
     1
102
RTVSPost2010Prop47
 90
       50
102
RTVSPost2010PropOp47
 70
     1
102
RTVSPost2010Prop48
 90
       50
102
RTVSPost2010PropOp48
 70
     1
102
RTVSPost2010Prop49
280
     0
102
RTVSPost2010PropOp49
 70
     1
102
RTVSPost2010Prop50
 90
       50
102
RTVSPost2010PropOp50
 70
     1
102
RTVSPost2010Prop51ColorIndex
 90
      256
102
RTVSPost2010Prop51ColorRGB
 90
-16777216
102
RTVSPost2010PropOp51
 70
     0
102
RTVSPost2010Prop52
140
1.0
102
RTVSPost2010PropOp52
 70
     0
102
RTVSPost2010Prop53
 90
        2
102
RTVSPost2010PropOp53
 70
     1
102
RTVSPost2010Prop54
  1
strokes_ogs.tif
102
RTVSPost2010PropOp54
 70
     1
102
RTVSPost2010Prop55
280
     0
102
RTVSPost2010PropOp55
 70
     1
102
RTVSPost2010Prop56
140
1.0
102
RTVSPost2010PropOp56
 70
     1
102
RTVSPost2010Prop57
140
1.0
102
RTVSPost2010PropOp57
 70
     1
  0
XRECORD
  5
5EA
102
{ACAD_REACTORS
330
5E9
102
}
330
5E9
100
AcDbXrecord
280
     1
102
RTVSPropertyOp0
 70
     1
102
RTVSPropertyOp1
 70
     1
102
RTVSPropertyOp2
 70
     1
102
RTVSPropertyOp3
 70
     1
102
RTVSPropertyOp4
 70
     1
102
RTVSPropertyOp5
 70
     1
102
RTVSPropertyOp6
 70
     1
102
RTVSPropertyOp7
 70
     1
102
RTVSPropertyOp8
 70
     1
102
RTVSPropertyOp9
 70
     1
102
RTVSPropertyOp10
 70
     1
102
RTVSPropertyOp11
 70
     1
102
RTVSPropertyOp12
 70
     1
102
RTVSPropertyOp13
 70
     1
102
RTVSPropertyOp14
 70
     1
102
RTVSPropertyOp15
 70
     1
102
RTVSPropertyOp16
 70
     1
102
RTVSPropertyOp17
 70
     1
102
RTVSPropertyOp18
 70
     1
102
RTVSPropertyOp19
 70
     1
102
RTVSPropertyOp20
 70
     1
102
RTVSPropertyOp21
 70
     1
102
RTVSPropertyOp22
 70
     1
102
RTVSPropertyOp23
 70
     1
102
RTVSPropertyOp24
 70
     1
102
RTVSPropertyOp25
 70
     1
102
RTVSPropertyOp26
 70
     1
102
RTVSPropertyOp27
 70
     1
102
RTVSPropertyOp28
 70
     1
102
RTVSPropertyOp29
 70
     1
102
RTVSPropertyOp30
 70
     1
102
RTVSPropertyOp31
 70
     1
102
RTVSPropertyOp32
 70
     1
102
RTVSPropertyOp33
 70
     1
102
RTVSPropertyOp34
 70
     1
102
RTVSPropertyOp35
 70
     1
102
RTVSPropertyOp36
 70
     1
102
RTVSPropertyOp37
 70
     1
102
RTVSPropertyOp38
 70
     1
102
RTVSPropertyOp39
 70
     1
102
RTVSPropertyOp40
 70
     1
102
RTVSPropertyOp41
 70
     1
102
RTVSPropertyOp42
 70
     1
102
RTVSPropertyOp43
 70
     1
102
RTVSPropertyOp44
 70
     1
102
RTVSPropertyOp45
 70
     1
102
RTVSPropertyOp46
 70
     1
102
RTVSPropertyOp47
 70
     1
102
RTVSPropertyOp48
 70
     1
102
RTVSPropertyOp49
 70
     1
102
RTVSPropertyOp50
 70
     1
102
RTVSPropertyOp51
 70
     0
102
RTVSPropertyOp52
 70
     0
102
RTVSPropertyOp53
 70
     1
102
RTVSPropertyOp54
 70
     1
102
RTVSPropertyOp55
 70
     1
102
RTVSPropertyOp56
 70
     1
102
RTVSPropertyOp57
 70
     1
102
RTVSPost2010Prop28
280
     0
102
RTVSPost2010PropOp28
 70
     1
102
RTVSPost2010Prop29
280
     1
102
RTVSPost2010PropOp29
 70
     1
102
RTVSPost2010Prop30
280
     1
102
RTVSPost2010PropOp30
 70
     1
102
RTVSPost2010Prop31
280
     0
102
RTVSPost2010PropOp31
 70
     1
102
RTVSPost2010Prop32
280
     0
102
RTVSPost2010PropOp32
 70
     1
102
RTVSPost2010Prop33
280
     0
102
RTVSPost2010PropOp33
 70
     1
102
RTVSPost2010Prop34
280
     0
102
RTVSPost2010PropOp34
 70
     1
102
RTVSPost2010Prop35
280
     0
102
RTVSPost2010PropOp35
 70
     1
102
RTVSPost2010Prop36
280
     0
102
RTVSPost2010PropOp36
 70
     1
102
RTVSPost2010Prop37
 90
       50
102
RTVSPost2010PropOp37
 70
     1
102
RTVSPost2010Prop38
140
0.0
102
RTVSPost2010PropOp38
 70
     1
102
RTVSPost2010Prop39
140
1.0
102
RTVSPost2010PropOp39
 70
     1
102
RTVSPost2010Prop40
 90
        0
102
RTVSPost2010PropOp40
 70
     1
102
RTVSPost2010Prop41ColorIndex
 90
       18
102
RTVSPost2010Prop41ColorRGB
 90
        0
102
RTVSPost2010PropOp41
 70
     1
102
RTVSPost2010Prop42
 90
       50
102
RTVSPost2010PropOp42
 70
     1
102
RTVSPost2010Prop43
 90
        3
102
RTVSPost2010PropOp43
 70
     1
102
RTVSPost2010Prop44ColorIndex
 90
        5
102
RTVSPost2010Prop44ColorRGB
 90
      255
102
RTVSPost2010PropOp44
 70
     1
102
RTVSPost2010Prop45
280
     0
102
RTVSPost2010PropOp45
 70
     1
102
RTVSPost2010Prop46
 90
       50
102
RTVSPost2010PropOp46
 70
     1
102
RTVSPost2010Prop47
 90
       50
102
RTVSPost2010PropOp47
 70
     1
102
RTVSPost2010Prop48
 90
       50
102
RTVSPost2010PropOp48
 70
     1
102
RTVSPost2010Prop49
280
     0
102
RTVSPost2010PropOp49
 70
     1
102
RTVSPost2010Prop50
 90
       50
102
RTVSPost2010PropOp50
 70
     1
102
RTVSPost2010Prop51ColorIndex
 90
      256
102
RTVSPost2010Prop51ColorRGB
 90
-16777216
102
RTVSPost2010PropOp51
 70
     0
102
RTVSPost2010Prop52
140
1.0
102
RTVSPost2010PropOp52
 70
     0
102
RTVSPost2010Prop53
 90
        2
102
RTVSPost2010PropOp53
 70
     1
102
RTVSPost2010Prop54
  1
strokes_ogs.tif
102
RTVSPost2010PropOp54
 70
     1
102
RTVSPost2010Prop55
280
     0
102
RTVSPost2010PropOp55
 70
     1
102
RTVSPost2010Prop56
140
1.0
102
RTVSPost2010PropOp56
 70
     1
102
RTVSPost2010Prop57
140
1.0
102
RTVSPost2010PropOp57
 70
     1
  0
XRECORD
  5
5E8
102
{ACAD_REACTORS
330
5E7
102
}
330
5E7
100
AcDbXrecord
280
     1
102
RTVSPropertyOp0
 70
     1
102
RTVSPropertyOp1
 70
     1
102
RTVSPropertyOp2
 70
     1
102
RTVSPropertyOp3
 70
     1
102
RTVSPropertyOp4
 70
     1
102
RTVSPropertyOp5
 70
     1
102
RTVSPropertyOp6
 70
     1
102
RTVSPropertyOp7
 70
     1
102
RTVSPropertyOp8
 70
     1
102
RTVSPropertyOp9
 70
     1
102
RTVSPropertyOp10
 70
     1
102
RTVSPropertyOp11
 70
     1
102
RTVSPropertyOp12
 70
     1
102
RTVSPropertyOp13
 70
     1
102
RTVSPropertyOp14
 70
     1
102
RTVSPropertyOp15
 70
     1
102
RTVSPropertyOp16
 70
     1
102
RTVSPropertyOp17
 70
     1
102
RTVSPropertyOp18
 70
     1
102
RTVSPropertyOp19
 70
     1
102
RTVSPropertyOp20
 70
     1
102
RTVSPropertyOp21
 70
     1
102
RTVSPropertyOp22
 70
     1
102
RTVSPropertyOp23
 70
     1
102
RTVSPropertyOp24
 70
     1
102
RTVSPropertyOp25
 70
     1
102
RTVSPropertyOp26
 70
     1
102
RTVSPropertyOp27
 70
     1
102
RTVSPropertyOp28
 70
     1
102
RTVSPropertyOp29
 70
     1
102
RTVSPropertyOp30
 70
     1
102
RTVSPropertyOp31
 70
     1
102
RTVSPropertyOp32
 70
     1
102
RTVSPropertyOp33
 70
     1
102
RTVSPropertyOp34
 70
     1
102
RTVSPropertyOp35
 70
     1
102
RTVSPropertyOp36
 70
     1
102
RTVSPropertyOp37
 70
     1
102
RTVSPropertyOp38
 70
     1
102
RTVSPropertyOp39
 70
     1
102
RTVSPropertyOp40
 70
     1
102
RTVSPropertyOp41
 70
     1
102
RTVSPropertyOp42
 70
     1
102
RTVSPropertyOp43
 70
     1
102
RTVSPropertyOp44
 70
     1
102
RTVSPropertyOp45
 70
     1
102
RTVSPropertyOp46
 70
     1
102
RTVSPropertyOp47
 70
     1
102
RTVSPropertyOp48
 70
     1
102
RTVSPropertyOp49
 70
     1
102
RTVSPropertyOp50
 70
     1
102
RTVSPropertyOp51
 70
     0
102
RTVSPropertyOp52
 70
     0
102
RTVSPropertyOp53
 70
     1
102
RTVSPropertyOp54
 70
     1
102
RTVSPropertyOp55
 70
     1
102
RTVSPropertyOp56
 70
     1
102
RTVSPropertyOp57
 70
     1
102
RTVSPost2010Prop28
280
     0
102
RTVSPost2010PropOp28
 70
     1
102
RTVSPost2010Prop29
280
     1
102
RTVSPost2010PropOp29
 70
     1
102
RTVSPost2010Prop30
280
     1
102
RTVSPost2010PropOp30
 70
     1
102
RTVSPost2010Prop31
280
     0
102
RTVSPost2010PropOp31
 70
     1
102
RTVSPost2010Prop32
280
     0
102
RTVSPost2010PropOp32
 70
     1
102
RTVSPost2010Prop33
280
     0
102
RTVSPost2010PropOp33
 70
     1
102
RTVSPost2010Prop34
280
     0
102
RTVSPost2010PropOp34
 70
     1
102
RTVSPost2010Prop35
280
     0
102
RTVSPost2010PropOp35
 70
     1
102
RTVSPost2010Prop36
280
     0
102
RTVSPost2010PropOp36
 70
     1
102
RTVSPost2010Prop37
 90
       50
102
RTVSPost2010PropOp37
 70
     1
102
RTVSPost2010Prop38
140
0.0
102
RTVSPost2010PropOp38
 70
     1
102
RTVSPost2010Prop39
140
1.0
102
RTVSPost2010PropOp39
 70
     1
102
RTVSPost2010Prop40
 90
        0
102
RTVSPost2010PropOp40
 70
     1
102
RTVSPost2010Prop41ColorIndex
 90
       18
102
RTVSPost2010Prop41ColorRGB
 90
        0
102
RTVSPost2010PropOp41
 70
     1
102
RTVSPost2010Prop42
 90
       50
102
RTVSPost2010PropOp42
 70
     1
102
RTVSPost2010Prop43
 90
        3
102
RTVSPost2010PropOp43
 70
     1
102
RTVSPost2010Prop44ColorIndex
 90
        5
102
RTVSPost2010Prop44ColorRGB
 90
      255
102
RTVSPost2010PropOp44
 70
     1
102
RTVSPost2010Prop45
280
     0
102
RTVSPost2010PropOp45
 70
     1
102
RTVSPost2010Prop46
 90
       50
102
RTVSPost2010PropOp46
 70
     1
102
RTVSPost2010Prop47
 90
       50
102
RTVSPost2010PropOp47
 70
     1
102
RTVSPost2010Prop48
 90
       50
102
RTVSPost2010PropOp48
 70
     1
102
RTVSPost2010Prop49
280
     0
102
RTVSPost2010PropOp49
 70
     1
102
RTVSPost2010Prop50
 90
       50
102
RTVSPost2010PropOp50
 70
     1
102
RTVSPost2010Prop51ColorIndex
 90
      256
102
RTVSPost2010Prop51ColorRGB
 90
-16777216
102
RTVSPost2010PropOp51
 70
     0
102
RTVSPost2010Prop52
140
1.0
102
RTVSPost2010PropOp52
 70
     0
102
RTVSPost2010Prop53
 90
        2
102
RTVSPost2010PropOp53
 70
     1
102
RTVSPost2010Prop54
  1
strokes_ogs.tif
102
RTVSPost2010PropOp54
 70
     1
102
RTVSPost2010Prop55
280
     0
102
RTVSPost2010PropOp55
 70
     1
102
RTVSPost2010Prop56
140
1.0
102
RTVSPost2010PropOp56
 70
     1
102
RTVSPost2010Prop57
140
1.0
102
RTVSPost2010PropOp57
 70
     1
  0
XRECORD
  5
5E2
102
{ACAD_REACTORS
330
5E1
102
}
330
5E1
100
AcDbXrecord
280
     1
102
RTVSPropertyOp0
 70
     1
102
RTVSPropertyOp1
 70
     1
102
RTVSPropertyOp2
 70
     1
102
RTVSPropertyOp3
 70
     1
102
RTVSPropertyOp4
 70
     1
102
RTVSPropertyOp5
 70
     1
102
RTVSPropertyOp6
 70
     1
102
RTVSPropertyOp7
 70
     1
102
RTVSPropertyOp8
 70
     1
102
RTVSPropertyOp9
 70
     1
102
RTVSPropertyOp10
 70
     1
102
RTVSPropertyOp11
 70
     1
102
RTVSPropertyOp12
 70
     1
102
RTVSPropertyOp13
 70
     1
102
RTVSPropertyOp14
 70
     1
102
RTVSPropertyOp15
 70
     1
102
RTVSPropertyOp16
 70
     1
102
RTVSPropertyOp17
 70
     1
102
RTVSPropertyOp18
 70
     1
102
RTVSPropertyOp19
 70
     1
102
RTVSPropertyOp20
 70
     1
102
RTVSPropertyOp21
 70
     1
102
RTVSPropertyOp22
 70
     1
102
RTVSPropertyOp23
 70
     1
102
RTVSPropertyOp24
 70
     1
102
RTVSPropertyOp25
 70
     1
102
RTVSPropertyOp26
 70
     1
102
RTVSPropertyOp27
 70
     1
102
RTVSPropertyOp28
 70
     1
102
RTVSPropertyOp29
 70
     1
102
RTVSPropertyOp30
 70
     1
102
RTVSPropertyOp31
 70
     1
102
RTVSPropertyOp32
 70
     1
102
RTVSPropertyOp33
 70
     1
102
RTVSPropertyOp34
 70
     1
102
RTVSPropertyOp35
 70
     1
102
RTVSPropertyOp36
 70
     1
102
RTVSPropertyOp37
 70
     1
102
RTVSPropertyOp38
 70
     1
102
RTVSPropertyOp39
 70
     1
102
RTVSPropertyOp40
 70
     1
102
RTVSPropertyOp41
 70
     1
102
RTVSPropertyOp42
 70
     1
102
RTVSPropertyOp43
 70
     1
102
RTVSPropertyOp44
 70
     1
102
RTVSPropertyOp45
 70
     1
102
RTVSPropertyOp46
 70
     1
102
RTVSPropertyOp47
 70
     1
102
RTVSPropertyOp48
 70
     1
102
RTVSPropertyOp49
 70
     1
102
RTVSPropertyOp50
 70
     1
102
RTVSPropertyOp51
 70
     0
102
RTVSPropertyOp52
 70
     0
102
RTVSPropertyOp53
 70
     1
102
RTVSPropertyOp54
 70
     1
102
RTVSPropertyOp55
 70
     1
102
RTVSPropertyOp56
 70
     1
102
RTVSPropertyOp57
 70
     1
102
RTVSPost2010Prop28
280
     0
102
RTVSPost2010PropOp28
 70
     1
102
RTVSPost2010Prop29
280
     1
102
RTVSPost2010PropOp29
 70
     1
102
RTVSPost2010Prop30
280
     1
102
RTVSPost2010PropOp30
 70
     1
102
RTVSPost2010Prop31
280
     0
102
RTVSPost2010PropOp31
 70
     1
102
RTVSPost2010Prop32
280
     0
102
RTVSPost2010PropOp32
 70
     1
102
RTVSPost2010Prop33
280
     0
102
RTVSPost2010PropOp33
 70
     1
102
RTVSPost2010Prop34
280
     0
102
RTVSPost2010PropOp34
 70
     1
102
RTVSPost2010Prop35
280
     0
102
RTVSPost2010PropOp35
 70
     1
102
RTVSPost2010Prop36
280
     0
102
RTVSPost2010PropOp36
 70
     1
102
RTVSPost2010Prop37
 90
       50
102
RTVSPost2010PropOp37
 70
     1
102
RTVSPost2010Prop38
140
0.0
102
RTVSPost2010PropOp38
 70
     1
102
RTVSPost2010Prop39
140
1.0
102
RTVSPost2010PropOp39
 70
     1
102
RTVSPost2010Prop40
 90
        0
102
RTVSPost2010PropOp40
 70
     1
102
RTVSPost2010Prop41ColorIndex
 90
       18
102
RTVSPost2010Prop41ColorRGB
 90
        0
102
RTVSPost2010PropOp41
 70
     1
102
RTVSPost2010Prop42
 90
       50
102
RTVSPost2010PropOp42
 70
     1
102
RTVSPost2010Prop43
 90
        3
102
RTVSPost2010PropOp43
 70
     1
102
RTVSPost2010Prop44ColorIndex
 90
        5
102
RTVSPost2010Prop44ColorRGB
 90
      255
102
RTVSPost2010PropOp44
 70
     1
102
RTVSPost2010Prop45
280
     0
102
RTVSPost2010PropOp45
 70
     1
102
RTVSPost2010Prop46
 90
       50
102
RTVSPost2010PropOp46
 70
     1
102
RTVSPost2010Prop47
 90
       50
102
RTVSPost2010PropOp47
 70
     1
102
RTVSPost2010Prop48
 90
       50
102
RTVSPost2010PropOp48
 70
     1
102
RTVSPost2010Prop49
280
     0
102
RTVSPost2010PropOp49
 70
     1
102
RTVSPost2010Prop50
 90
       50
102
RTVSPost2010PropOp50
 70
     1
102
RTVSPost2010Prop51ColorIndex
 90
      256
102
RTVSPost2010Prop51ColorRGB
 90
-16777216
102
RTVSPost2010PropOp51
 70
     0
102
RTVSPost2010Prop52
140
1.0
102
RTVSPost2010PropOp52
 70
     0
102
RTVSPost2010Prop53
 90
        2
102
RTVSPost2010PropOp53
 70
     1
102
RTVSPost2010Prop54
  1
strokes_ogs.tif
102
RTVSPost2010PropOp54
 70
     1
102
RTVSPost2010Prop55
280
     0
102
RTVSPost2010PropOp55
 70
     1
102
RTVSPost2010Prop56
140
1.0
102
RTVSPost2010PropOp56
 70
     1
102
RTVSPost2010Prop57
140
1.0
102
RTVSPost2010PropOp57
 70
     1
  0
XRECORD
  5
5E4
102
{ACAD_REACTORS
330
5E3
102
}
330
5E3
100
AcDbXrecord
280
     1
102
RTVSPropertyOp0
 70
     1
102
RTVSPropertyOp1
 70
     1
102
RTVSPropertyOp2
 70
     1
102
RTVSPropertyOp3
 70
     1
102
RTVSPropertyOp4
 70
     1
102
RTVSPropertyOp5
 70
     1
102
RTVSPropertyOp6
 70
     1
102
RTVSPropertyOp7
 70
     1
102
RTVSPropertyOp8
 70
     1
102
RTVSPropertyOp9
 70
     1
102
RTVSPropertyOp10
 70
     1
102
RTVSPropertyOp11
 70
     1
102
RTVSPropertyOp12
 70
     1
102
RTVSPropertyOp13
 70
     1
102
RTVSPropertyOp14
 70
     1
102
RTVSPropertyOp15
 70
     1
102
RTVSPropertyOp16
 70
     1
102
RTVSPropertyOp17
 70
     1
102
RTVSPropertyOp18
 70
     1
102
RTVSPropertyOp19
 70
     1
102
RTVSPropertyOp20
 70
     1
102
RTVSPropertyOp21
 70
     1
102
RTVSPropertyOp22
 70
     1
102
RTVSPropertyOp23
 70
     1
102
RTVSPropertyOp24
 70
     1
102
RTVSPropertyOp25
 70
     1
102
RTVSPropertyOp26
 70
     1
102
RTVSPropertyOp27
 70
     1
102
RTVSPropertyOp28
 70
     1
102
RTVSPropertyOp29
 70
     1
102
RTVSPropertyOp30
 70
     1
102
RTVSPropertyOp31
 70
     1
102
RTVSPropertyOp32
 70
     1
102
RTVSPropertyOp33
 70
     1
102
RTVSPropertyOp34
 70
     1
102
RTVSPropertyOp35
 70
     1
102
RTVSPropertyOp36
 70
     1
102
RTVSPropertyOp37
 70
     1
102
RTVSPropertyOp38
 70
     1
102
RTVSPropertyOp39
 70
     1
102
RTVSPropertyOp40
 70
     1
102
RTVSPropertyOp41
 70
     1
102
RTVSPropertyOp42
 70
     1
102
RTVSPropertyOp43
 70
     1
102
RTVSPropertyOp44
 70
     1
102
RTVSPropertyOp45
 70
     1
102
RTVSPropertyOp46
 70
     1
102
RTVSPropertyOp47
 70
     1
102
RTVSPropertyOp48
 70
     1
102
RTVSPropertyOp49
 70
     1
102
RTVSPropertyOp50
 70
     1
102
RTVSPropertyOp51
 70
     0
102
RTVSPropertyOp52
 70
     0
102
RTVSPropertyOp53
 70
     1
102
RTVSPropertyOp54
 70
     1
102
RTVSPropertyOp55
 70
     1
102
RTVSPropertyOp56
 70
     1
102
RTVSPropertyOp57
 70
     1
102
RTVSPost2010Prop28
280
     0
102
RTVSPost2010PropOp28
 70
     1
102
RTVSPost2010Prop29
280
     1
102
RTVSPost2010PropOp29
 70
     1
102
RTVSPost2010Prop30
280
     1
102
RTVSPost2010PropOp30
 70
     1
102
RTVSPost2010Prop31
280
     0
102
RTVSPost2010PropOp31
 70
     1
102
RTVSPost2010Prop32
280
     0
102
RTVSPost2010PropOp32
 70
     1
102
RTVSPost2010Prop33
280
     0
102
RTVSPost2010PropOp33
 70
     1
102
RTVSPost2010Prop34
280
     0
102
RTVSPost2010PropOp34
 70
     1
102
RTVSPost2010Prop35
280
     0
102
RTVSPost2010PropOp35
 70
     1
102
RTVSPost2010Prop36
280
     0
102
RTVSPost2010PropOp36
 70
     1
102
RTVSPost2010Prop37
 90
       50
102
RTVSPost2010PropOp37
 70
     1
102
RTVSPost2010Prop38
140
0.0
102
RTVSPost2010PropOp38
 70
     1
102
RTVSPost2010Prop39
140
1.0
102
RTVSPost2010PropOp39
 70
     1
102
RTVSPost2010Prop40
 90
        0
102
RTVSPost2010PropOp40
 70
     1
102
RTVSPost2010Prop41ColorIndex
 90
       18
102
RTVSPost2010Prop41ColorRGB
 90
        0
102
RTVSPost2010PropOp41
 70
     1
102
RTVSPost2010Prop42
 90
       50
102
RTVSPost2010PropOp42
 70
     1
102
RTVSPost2010Prop43
 90
        3
102
RTVSPost2010PropOp43
 70
     1
102
RTVSPost2010Prop44ColorIndex
 90
        5
102
RTVSPost2010Prop44ColorRGB
 90
      255
102
RTVSPost2010PropOp44
 70
     1
102
RTVSPost2010Prop45
280
     0
102
RTVSPost2010PropOp45
 70
     1
102
RTVSPost2010Prop46
 90
       50
102
RTVSPost2010PropOp46
 70
     1
102
RTVSPost2010Prop47
 90
       50
102
RTVSPost2010PropOp47
 70
     1
102
RTVSPost2010Prop48
 90
       50
102
RTVSPost2010PropOp48
 70
     1
102
RTVSPost2010Prop49
280
     0
102
RTVSPost2010PropOp49
 70
     1
102
RTVSPost2010Prop50
 90
       50
102
RTVSPost2010PropOp50
 70
     1
102
RTVSPost2010Prop51ColorIndex
 90
      256
102
RTVSPost2010Prop51ColorRGB
 90
-16777216
102
RTVSPost2010PropOp51
 70
     0
102
RTVSPost2010Prop52
140
1.0
102
RTVSPost2010PropOp52
 70
     0
102
RTVSPost2010Prop53
 90
        2
102
RTVSPost2010PropOp53
 70
     1
102
RTVSPost2010Prop54
  1
strokes_ogs.tif
102
RTVSPost2010PropOp54
 70
     1
102
RTVSPost2010Prop55
280
     0
102
RTVSPost2010PropOp55
 70
     1
102
RTVSPost2010Prop56
140
1.0
102
RTVSPost2010PropOp56
 70
     1
102
RTVSPost2010Prop57
140
1.0
102
RTVSPost2010PropOp57
 70
     1
  0
XRECORD
  5
5D4
102
{ACAD_REACTORS
330
5D3
102
}
330
5D3
100
AcDbXrecord
280
     1
102
RTVSPropertyOp0
 70
     1
102
RTVSPropertyOp1
 70
     1
102
RTVSPropertyOp2
 70
     1
102
RTVSPropertyOp3
 70
     1
102
RTVSPropertyOp4
 70
     1
102
RTVSPropertyOp5
 70
     1
102
RTVSPropertyOp6
 70
     1
102
RTVSPropertyOp7
 70
     1
102
RTVSPropertyOp8
 70
     1
102
RTVSPropertyOp9
 70
     1
102
RTVSPropertyOp10
 70
     1
102
RTVSPropertyOp11
 70
     1
102
RTVSPropertyOp12
 70
     1
102
RTVSPropertyOp13
 70
     1
102
RTVSPropertyOp14
 70
     1
102
RTVSPropertyOp15
 70
     1
102
RTVSPropertyOp16
 70
     1
102
RTVSPropertyOp17
 70
     1
102
RTVSPropertyOp18
 70
     1
102
RTVSPropertyOp19
 70
     1
102
RTVSPropertyOp20
 70
     1
102
RTVSPropertyOp21
 70
     1
102
RTVSPropertyOp22
 70
     1
102
RTVSPropertyOp23
 70
     1
102
RTVSPropertyOp24
 70
     1
102
RTVSPropertyOp25
 70
     1
102
RTVSPropertyOp26
 70
     1
102
RTVSPropertyOp27
 70
     1
102
RTVSPropertyOp28
 70
     1
102
RTVSPropertyOp29
 70
     1
102
RTVSPropertyOp30
 70
     1
102
RTVSPropertyOp31
 70
     1
102
RTVSPropertyOp32
 70
     1
102
RTVSPropertyOp33
 70
     1
102
RTVSPropertyOp34
 70
     1
102
RTVSPropertyOp35
 70
     1
102
RTVSPropertyOp36
 70
     1
102
RTVSPropertyOp37
 70
     1
102
RTVSPropertyOp38
 70
     1
102
RTVSPropertyOp39
 70
     1
102
RTVSPropertyOp40
 70
     1
102
RTVSPropertyOp41
 70
     1
102
RTVSPropertyOp42
 70
     1
102
RTVSPropertyOp43
 70
     1
102
RTVSPropertyOp44
 70
     1
102
RTVSPropertyOp45
 70
     1
102
RTVSPropertyOp46
 70
     1
102
RTVSPropertyOp47
 70
     1
102
RTVSPropertyOp48
 70
     1
102
RTVSPropertyOp49
 70
     1
102
RTVSPropertyOp50
 70
     1
102
RTVSPropertyOp51
 70
     0
102
RTVSPropertyOp52
 70
     0
102
RTVSPropertyOp53
 70
     1
102
RTVSPropertyOp54
 70
     1
102
RTVSPropertyOp55
 70
     1
102
RTVSPropertyOp56
 70
     1
102
RTVSPropertyOp57
 70
     1
102
RTVSPost2010Prop28
280
     0
102
RTVSPost2010PropOp28
 70
     1
102
RTVSPost2010Prop29
280
     1
102
RTVSPost2010PropOp29
 70
     1
102
RTVSPost2010Prop30
280
     1
102
RTVSPost2010PropOp30
 70
     1
102
RTVSPost2010Prop31
280
     0
102
RTVSPost2010PropOp31
 70
     1
102
RTVSPost2010Prop32
280
     0
102
RTVSPost2010PropOp32
 70
     1
102
RTVSPost2010Prop33
280
     0
102
RTVSPost2010PropOp33
 70
     1
102
RTVSPost2010Prop34
280
     0
102
RTVSPost2010PropOp34
 70
     1
102
RTVSPost2010Prop35
280
     0
102
RTVSPost2010PropOp35
 70
     1
102
RTVSPost2010Prop36
280
     0
102
RTVSPost2010PropOp36
 70
     1
102
RTVSPost2010Prop37
 90
       50
102
RTVSPost2010PropOp37
 70
     1
102
RTVSPost2010Prop38
140
0.0
102
RTVSPost2010PropOp38
 70
     1
102
RTVSPost2010Prop39
140
1.0
102
RTVSPost2010PropOp39
 70
     1
102
RTVSPost2010Prop40
 90
        0
102
RTVSPost2010PropOp40
 70
     1
102
RTVSPost2010Prop41ColorIndex
 90
       18
102
RTVSPost2010Prop41ColorRGB
 90
        0
102
RTVSPost2010PropOp41
 70
     1
102
RTVSPost2010Prop42
 90
       50
102
RTVSPost2010PropOp42
 70
     1
102
RTVSPost2010Prop43
 90
        3
102
RTVSPost2010PropOp43
 70
     1
102
RTVSPost2010Prop44ColorIndex
 90
        5
102
RTVSPost2010Prop44ColorRGB
 90
      255
102
RTVSPost2010PropOp44
 70
     1
102
RTVSPost2010Prop45
280
     0
102
RTVSPost2010PropOp45
 70
     1
102
RTVSPost2010Prop46
 90
       50
102
RTVSPost2010PropOp46
 70
     1
102
RTVSPost2010Prop47
 90
       50
102
RTVSPost2010PropOp47
 70
     1
102
RTVSPost2010Prop48
 90
       50
102
RTVSPost2010PropOp48
 70
     1
102
RTVSPost2010Prop49
280
     0
102
RTVSPost2010PropOp49
 70
     1
102
RTVSPost2010Prop50
 90
       50
102
RTVSPost2010PropOp50
 70
     1
102
RTVSPost2010Prop51ColorIndex
 90
      256
102
RTVSPost2010Prop51ColorRGB
 90
-16777216
102
RTVSPost2010PropOp51
 70
     0
102
RTVSPost2010Prop52
140
1.0
102
RTVSPost2010PropOp52
 70
     0
102
RTVSPost2010Prop53
 90
        2
102
RTVSPost2010PropOp53
 70
     1
102
RTVSPost2010Prop54
  1
strokes_ogs.tif
102
RTVSPost2010PropOp54
 70
     1
102
RTVSPost2010Prop55
280
     0
102
RTVSPost2010PropOp55
 70
     1
102
RTVSPost2010Prop56
140
1.0
102
RTVSPost2010PropOp56
 70
     1
102
RTVSPost2010Prop57
140
1.0
102
RTVSPost2010PropOp57
 70
     1
  0
XRECORD
  5
5C6
102
{ACAD_REACTORS
330
5C5
102
}
330
5C5
100
AcDbXrecord
280
     1
102
RTVSPropertyOp0
 70
     1
102
RTVSPropertyOp1
 70
     1
102
RTVSPropertyOp2
 70
     1
102
RTVSPropertyOp3
 70
     1
102
RTVSPropertyOp4
 70
     1
102
RTVSPropertyOp5
 70
     1
102
RTVSPropertyOp6
 70
     1
102
RTVSPropertyOp7
 70
     1
102
RTVSPropertyOp8
 70
     1
102
RTVSPropertyOp9
 70
     1
102
RTVSPropertyOp10
 70
     1
102
RTVSPropertyOp11
 70
     1
102
RTVSPropertyOp12
 70
     1
102
RTVSPropertyOp13
 70
     1
102
RTVSPropertyOp14
 70
     1
102
RTVSPropertyOp15
 70
     1
102
RTVSPropertyOp16
 70
     1
102
RTVSPropertyOp17
 70
     1
102
RTVSPropertyOp18
 70
     1
102
RTVSPropertyOp19
 70
     1
102
RTVSPropertyOp20
 70
     1
102
RTVSPropertyOp21
 70
     1
102
RTVSPropertyOp22
 70
     1
102
RTVSPropertyOp23
 70
     1
102
RTVSPropertyOp24
 70
     1
102
RTVSPropertyOp25
 70
     1
102
RTVSPropertyOp26
 70
     1
102
RTVSPropertyOp27
 70
     1
102
RTVSPropertyOp28
 70
     1
102
RTVSPropertyOp29
 70
     1
102
RTVSPropertyOp30
 70
     1
102
RTVSPropertyOp31
 70
     1
102
RTVSPropertyOp32
 70
     1
102
RTVSPropertyOp33
 70
     1
102
RTVSPropertyOp34
 70
     1
102
RTVSPropertyOp35
 70
     1
102
RTVSPropertyOp36
 70
     1
102
RTVSPropertyOp37
 70
     1
102
RTVSPropertyOp38
 70
     1
102
RTVSPropertyOp39
 70
     1
102
RTVSPropertyOp40
 70
     1
102
RTVSPropertyOp41
 70
     1
102
RTVSPropertyOp42
 70
     1
102
RTVSPropertyOp43
 70
     1
102
RTVSPropertyOp44
 70
     1
102
RTVSPropertyOp45
 70
     1
102
RTVSPropertyOp46
 70
     1
102
RTVSPropertyOp47
 70
     1
102
RTVSPropertyOp48
 70
     1
102
RTVSPropertyOp49
 70
     1
102
RTVSPropertyOp50
 70
     1
102
RTVSPropertyOp51
 70
     0
102
RTVSPropertyOp52
 70
     0
102
RTVSPropertyOp53
 70
     1
102
RTVSPropertyOp54
 70
     1
102
RTVSPropertyOp55
 70
     1
102
RTVSPropertyOp56
 70
     1
102
RTVSPropertyOp57
 70
     1
102
RTVSPost2010Prop28
280
     0
102
RTVSPost2010PropOp28
 70
     1
102
RTVSPost2010Prop29
280
     1
102
RTVSPost2010PropOp29
 70
     1
102
RTVSPost2010Prop30
280
     1
102
RTVSPost2010PropOp30
 70
     1
102
RTVSPost2010Prop31
280
     0
102
RTVSPost2010PropOp31
 70
     1
102
RTVSPost2010Prop32
280
     0
102
RTVSPost2010PropOp32
 70
     1
102
RTVSPost2010Prop33
280
     0
102
RTVSPost2010PropOp33
 70
     1
102
RTVSPost2010Prop34
280
     0
102
RTVSPost2010PropOp34
 70
     1
102
RTVSPost2010Prop35
280
     0
102
RTVSPost2010PropOp35
 70
     1
102
RTVSPost2010Prop36
280
     0
102
RTVSPost2010PropOp36
 70
     1
102
RTVSPost2010Prop37
 90
       50
102
RTVSPost2010PropOp37
 70
     1
102
RTVSPost2010Prop38
140
0.0
102
RTVSPost2010PropOp38
 70
     1
102
RTVSPost2010Prop39
140
1.0
102
RTVSPost2010PropOp39
 70
     1
102
RTVSPost2010Prop40
 90
        0
102
RTVSPost2010PropOp40
 70
     1
102
RTVSPost2010Prop41ColorIndex
 90
       18
102
RTVSPost2010Prop41ColorRGB
 90
        0
102
RTVSPost2010PropOp41
 70
     1
102
RTVSPost2010Prop42
 90
       50
102
RTVSPost2010PropOp42
 70
     1
102
RTVSPost2010Prop43
 90
        3
102
RTVSPost2010PropOp43
 70
     1
102
RTVSPost2010Prop44ColorIndex
 90
        5
102
RTVSPost2010Prop44ColorRGB
 90
      255
102
RTVSPost2010PropOp44
 70
     1
102
RTVSPost2010Prop45
280
     0
102
RTVSPost2010PropOp45
 70
     1
102
RTVSPost2010Prop46
 90
       50
102
RTVSPost2010PropOp46
 70
     1
102
RTVSPost2010Prop47
 90
       50
102
RTVSPost2010PropOp47
 70
     1
102
RTVSPost2010Prop48
 90
       50
102
RTVSPost2010PropOp48
 70
     1
102
RTVSPost2010Prop49
280
     0
102
RTVSPost2010PropOp49
 70
     1
102
RTVSPost2010Prop50
 90
       50
102
RTVSPost2010PropOp50
 70
     1
102
RTVSPost2010Prop51ColorIndex
 90
      256
102
RTVSPost2010Prop51ColorRGB
 90
-16777216
102
RTVSPost2010PropOp51
 70
     0
102
RTVSPost2010Prop52
140
1.0
102
RTVSPost2010PropOp52
 70
     0
102
RTVSPost2010Prop53
 90
        2
102
RTVSPost2010PropOp53
 70
     1
102
RTVSPost2010Prop54
  1
strokes_ogs.tif
102
RTVSPost2010PropOp54
 70
     1
102
RTVSPost2010Prop55
280
     0
102
RTVSPost2010PropOp55
 70
     1
102
RTVSPost2010Prop56
140
1.0
102
RTVSPost2010PropOp56
 70
     1
102
RTVSPost2010Prop57
140
1.0
102
RTVSPost2010PropOp57
 70
     1
  0
XRECORD
  5
5E6
102
{ACAD_REACTORS
330
5E5
102
}
330
5E5
100
AcDbXrecord
280
     1
102
RTVSPropertyOp0
 70
     1
102
RTVSPropertyOp1
 70
     1
102
RTVSPropertyOp2
 70
     1
102
RTVSPropertyOp3
 70
     1
102
RTVSPropertyOp4
 70
     1
102
RTVSPropertyOp5
 70
     1
102
RTVSPropertyOp6
 70
     1
102
RTVSPropertyOp7
 70
     1
102
RTVSPropertyOp8
 70
     1
102
RTVSPropertyOp9
 70
     1
102
RTVSPropertyOp10
 70
     1
102
RTVSPropertyOp11
 70
     1
102
RTVSPropertyOp12
 70
     1
102
RTVSPropertyOp13
 70
     1
102
RTVSPropertyOp14
 70
     1
102
RTVSPropertyOp15
 70
     1
102
RTVSPropertyOp16
 70
     1
102
RTVSPropertyOp17
 70
     1
102
RTVSPropertyOp18
 70
     1
102
RTVSPropertyOp19
 70
     1
102
RTVSPropertyOp20
 70
     1
102
RTVSPropertyOp21
 70
     1
102
RTVSPropertyOp22
 70
     1
102
RTVSPropertyOp23
 70
     1
102
RTVSPropertyOp24
 70
     1
102
RTVSPropertyOp25
 70
     1
102
RTVSPropertyOp26
 70
     1
102
RTVSPropertyOp27
 70
     1
102
RTVSPropertyOp28
 70
     1
102
RTVSPropertyOp29
 70
     1
102
RTVSPropertyOp30
 70
     1
102
RTVSPropertyOp31
 70
     1
102
RTVSPropertyOp32
 70
     1
102
RTVSPropertyOp33
 70
     1
102
RTVSPropertyOp34
 70
     1
102
RTVSPropertyOp35
 70
     1
102
RTVSPropertyOp36
 70
     1
102
RTVSPropertyOp37
 70
     1
102
RTVSPropertyOp38
 70
     1
102
RTVSPropertyOp39
 70
     1
102
RTVSPropertyOp40
 70
     1
102
RTVSPropertyOp41
 70
     1
102
RTVSPropertyOp42
 70
     1
102
RTVSPropertyOp43
 70
     1
102
RTVSPropertyOp44
 70
     1
102
RTVSPropertyOp45
 70
     1
102
RTVSPropertyOp46
 70
     1
102
RTVSPropertyOp47
 70
     1
102
RTVSPropertyOp48
 70
     1
102
RTVSPropertyOp49
 70
     1
102
RTVSPropertyOp50
 70
     1
102
RTVSPropertyOp51
 70
     0
102
RTVSPropertyOp52
 70
     0
102
RTVSPropertyOp53
 70
     1
102
RTVSPropertyOp54
 70
     1
102
RTVSPropertyOp55
 70
     1
102
RTVSPropertyOp56
 70
     1
102
RTVSPropertyOp57
 70
     1
102
RTVSPost2010Prop28
280
     0
102
RTVSPost2010PropOp28
 70
     1
102
RTVSPost2010Prop29
280
     1
102
RTVSPost2010PropOp29
 70
     1
102
RTVSPost2010Prop30
280
     1
102
RTVSPost2010PropOp30
 70
     1
102
RTVSPost2010Prop31
280
     0
102
RTVSPost2010PropOp31
 70
     1
102
RTVSPost2010Prop32
280
     0
102
RTVSPost2010PropOp32
 70
     1
102
RTVSPost2010Prop33
280
     0
102
RTVSPost2010PropOp33
 70
     1
102
RTVSPost2010Prop34
280
     0
102
RTVSPost2010PropOp34
 70
     1
102
RTVSPost2010Prop35
280
     0
102
RTVSPost2010PropOp35
 70
     1
102
RTVSPost2010Prop36
280
     0
102
RTVSPost2010PropOp36
 70
     1
102
RTVSPost2010Prop37
 90
       50
102
RTVSPost2010PropOp37
 70
     1
102
RTVSPost2010Prop38
140
0.0
102
RTVSPost2010PropOp38
 70
     1
102
RTVSPost2010Prop39
140
1.0
102
RTVSPost2010PropOp39
 70
     1
102
RTVSPost2010Prop40
 90
        0
102
RTVSPost2010PropOp40
 70
     1
102
RTVSPost2010Prop41ColorIndex
 90
       18
102
RTVSPost2010Prop41ColorRGB
 90
        0
102
RTVSPost2010PropOp41
 70
     1
102
RTVSPost2010Prop42
 90
       50
102
RTVSPost2010PropOp42
 70
     1
102
RTVSPost2010Prop43
 90
        3
102
RTVSPost2010PropOp43
 70
     1
102
RTVSPost2010Prop44ColorIndex
 90
        5
102
RTVSPost2010Prop44ColorRGB
 90
      255
102
RTVSPost2010PropOp44
 70
     1
102
RTVSPost2010Prop45
280
     0
102
RTVSPost2010PropOp45
 70
     1
102
RTVSPost2010Prop46
 90
       50
102
RTVSPost2010PropOp46
 70
     1
102
RTVSPost2010Prop47
 90
       50
102
RTVSPost2010PropOp47
 70
     1
102
RTVSPost2010Prop48
 90
       50
102
RTVSPost2010PropOp48
 70
     1
102
RTVSPost2010Prop49
280
     0
102
RTVSPost2010PropOp49
 70
     1
102
RTVSPost2010Prop50
 90
       50
102
RTVSPost2010PropOp50
 70
     1
102
RTVSPost2010Prop51ColorIndex
 90
      256
102
RTVSPost2010Prop51ColorRGB
 90
-16777216
102
RTVSPost2010PropOp51
 70
     0
102
RTVSPost2010Prop52
140
1.0
102
RTVSPost2010PropOp52
 70
     0
102
RTVSPost2010Prop53
 90
        2
102
RTVSPost2010PropOp53
 70
     1
102
RTVSPost2010Prop54
  1
strokes_ogs.tif
102
RTVSPost2010PropOp54
 70
     1
102
RTVSPost2010Prop55
280
     0
102
RTVSPost2010PropOp55
 70
     1
102
RTVSPost2010Prop56
140
1.0
102
RTVSPost2010PropOp56
 70
     1
102
RTVSPost2010Prop57
140
1.0
102
RTVSPost2010PropOp57
 70
     1
  0
ENDSEC
  0
SECTION
  2
THUMBNAILIMAGE
 90
    16364
310
28000000B4000000550000000100080000000000C43B000000000000000000000001000000010000FFFFFF000000FF0000FFFF0000FF0000FFFF0000FF000000FF00FF000000000080808000C0C0C0000000FF007F7FFF000000A5005252A50000007F003F3F7F0000004C0026264C000000260013132600003FFF007F9FFF
310
000029A5005267A500001F7F003F4F7F0000134C00262F4C000009260013172600007FFF007FBFFF000052A500527CA500003F7F003F5F7F0000264C0026394C0000132600131C260000BFFF007FDFFF00007CA5005291A500005F7F003F6F7F0000394C0026424C00001C26001321260000FFFF007FFFFF0000A5A50052A5
310
A500007F7F003F7F7F00004C4C00264C4C00002626001326260000FFBF007FFFDF0000A57C0052A59100007F5F003F7F6F00004C3900264C420000261C001326210000FF7F007FFFBF0000A5520052A57C00007F3F003F7F5F00004C2600264C39000026130013261C0000FF3F007FFF9F0000A5290052A56700007F1F003F
310
7F4F00004C1300264C2F00002609001326170000FF00007FFF7F0000A5000052A55200007F00003F7F3F00004C0000264C260000260000132613003FFF00009FFF7F0029A5000067A552001F7F00004F7F3F00134C00002F4C260009260000172613007FFF0000BFFF7F0052A500007CA552003F7F00005F7F3F00264C0000
310
394C2600132600001C261300BFFF0000DFFF7F007CA5000091A552005F7F00006F7F3F00394C0000424C26001C26000021261300FFFF0000FFFF7F00A5A50000A5A552007F7F00007F7F3F004C4C00004C4C26002626000026261300FFBF0000FFDF7F00A57C0000A59152007F5F00007F6F3F004C3900004C422600261C00
310
0026211300FF7F0000FFBF7F00A5520000A57C52007F3F00007F5F3F004C2600004C39260026130000261C1300FF3F0000FF9F7F00A5290000A56752007F1F00007F4F3F004C1300004C2F26002609000026171300FF000000FF7F7F00A5000000A55252007F0000007F3F3F004C0000004C2626002600000026131300FF00
310
3F00FF7F9F00A5002900A55267007F001F007F3F4F004C0013004C262F002600090026131700FF007F00FF7FBF00A5005200A5527C007F003F007F3F5F004C0026004C2639002600130026131C00FF00BF00FF7FDF00A5007C00A55291007F005F007F3F6F004C0039004C26420026001C0026132100FF00FF00FF7FFF00A5
310
00A500A552A5007F007F007F3F7F004C004C004C264C002600260026132600BF00FF00DF7FFF007C00A5009152A5005F007F006F3F7F0039004C0042264C001C002600211326007F00FF00BF7FFF005200A5007C52A5003F007F005F3F7F0026004C0039264C00130026001C1326003F00FF009F7FFF002900A5006752A500
310
1F007F004F3F7F0013004C002F264C000900260017132600000000002D2D2D005B5B5B0089898900B7B7B700B3B3B30000000000000000000000000000000000000000000000000000000000000000000000000000000000000000000000000000000000000000000000000000000000000000000000000000000000000000
310
00000000000000000000000000000000000000000000000000000000000000000000000000000000000000000000000000000000000000000000000000000000000000000000000000000000000000000000000000000000000000000000000000000000000000000000000000000000000000000000000000000000000000
310
00000000000000000000000000000000000000000000000000000000000000000000000000000000000000000000000000000000000000000000000000000000000000000000000000000000000000000000000000000000000000000000000000000000000000000000000000000000000000000000000000000000000000
310
00000000000000000000000000000000000000000000000000000000000000000000000000000000000000000000000000000000000000000000000000000000000000000000000000000000000000000000000000000000000000000000000000000000000000000000000000000000000000000000000000000000000000
310
00000000000000000000000000000000000000000000000000000000000000000000000000000000000000000000000000000000000000000000000000000000000000000000000000000000000000000000000000000000000000000000000000000000000000000000000000000000000000000000000000000000000000
310
00000000000000000000000000000000000000000000000000000000000000000000000000000000000000000000000000000000000000000000000000000000000000000000000000000000000000000000000000000000000000000000000000000000000000000000000000000000000000000000000000000000000000
310
00000000000000000000000000000000000000000000000000000000000000000000000000000000000000000000000000000000000000000000000000000000000000000000000000000000000000000000000000000000000000000000000000000000000000000000000000000000000000000000000000000000000000
310
00000000000000000000000000000000000000000000000000000000000000000000000000000000000000000000000000000000000000000000000000000000000000000000000000000000000000000000000000000000000000000000000000000000000000000000000000000000000000000000000000000000000000
310
00000000000000000000000000000000000000000000000000000000000000000000000000000000000000000000000000000000000000000000000000000000000000000000000000000000000000000000000000000000000000000000000000000000000000000000000000000000000000000000000000000000000000
310
00000000000000000000000000000000000000000000000000000000000000000000000000000000000000000000000000000000000000000000000000000000000000000000000000000000000000000000000000000000000000000000000000000000000000000000000000000000000000000000000000000000000000
310
00000000000000000000000000000000000000000000000000000000000000000000000000000000000000000000000000000000000000000000000000000000000000000000000000000000000000000000000000000000000000000000000000000000000000000000000000000000000000000000000000000000000000
310
00000000000000000000000000000000000000000000000000000000000000000000000000000000000000000000000000000000000000000000000000000000000000000000000000000000000000000000000000000000000000000000000000000000000000000000000000000000000000000000000000000000000000
310
00000000000000000000000000000000000000000000000000000000000000000000000000000000000000000000000000000000000000000000000000000000000000000000000000000000000000000000000000000000000000000000000000000000000000000000000000000000000000000000000000000000000000
310
00000000000000000000000000000000000000000000000000000000000000000000000000000000000000000000000000000000000000000000000000000000000000000000000000000000000000000000000000000000000000000000000000000000000000000000000000000000000000000000000000000000000000
310
00000000000000000000000000000000000000000000000000000000000000000000000000000000000000000000000000000000000000000000000000000000000000000000000000000000000000000000000000000000000000000000000000000000000000000000000000000000000000000000000000000000000000
310
00000000000000000000000000000000000000000000000000000000000000000000000000000000000000000000000000000000000000000000000000000000000000000000000000000000000000000000000000000000000000000000000000000000000000000000000000000000000000000000000000000000000000
310
00000000000000000000000000000000000000000000000000000000000000000000000000000000000000000000000000000000000000000000000000000000000000000000000000000000000000000000000000000000000000000000000000000000000000000000000000000000000000000000000000000000000000
310
00000000000000000000000000000000000000000000000000000000000000000000000000000000000000000000000000000000000000000000000000000000000000000000000000000000000000000000000000000000000000000000000000000000000000000000000000000000000000000000000000000000000000
310
00000000000000000000000000000000000000000000000000000000000000000000000000000000000000000000000000000000000000000000000000000000000000000000000000000000000000000000000000000000000000000000000000000000000000000000000000000000000000000000000000000000000000
310
00000000000000000000000000000000000000000000000000000000000000000000000000000000000000000000000000000000000000000000000000000000000000000000000000000000000000000000000000000000000000000000000000000000000000000000000000000000000000000000000000000000000000
310
00000000000000000000000000000000000000000000000000000000000000000000000000000000000000000000000000000000000000000000000000000000000000000000000000000000000000000000000000000000000000000000000000000000000000000000000000000000000000000000000000000000000000
310
00000000000000000000000000000000000000000000000000000000000000000000000000000000000000000000000000000000000000000000000000000000000000000000000000000000000000000000000000000000000000000000000000000000000000000000000000000000000000000000000000000000000000
310
00000000000000000000000000000000000000000000000000000000000000000000000000000000000000000000000000000000000000000000000000000000000000000000000000000000000000000000000000000000000000000000000000000000000000000000000000000000000000000000000000000000000000
310
00000000000000000000000000000000000000000000000000000000000000000000000000000000000000000000000000000000000000000000000000000000000000000000000000000000000000000000000000000000000000000000000000000000000000000000000000000000000000000000000000000000000000
310
00000000000000000000000000000000000000000000000000000000000000000000000000000000000000000000000000000000000000000000000000000000000000000000000000000000000000000000000000000000000000000000000000000000000000000000000000000000000000000000000000000000000000
310
00000000000000000000000000000000000000000000000000000000000000000000000000000000000000000000000000000000000000000000000000000000000000000000000000000000000000000000000000000000000000000000000000000000000000000000000000000000000000000000000000000000000000
310
00000000000000000000000000000000000000000000000000000000000000000000000000000000000000000000000000000000000000000000000000000000000000000000000000000000000000000000000000000000000000000000000000000000000000000000000000000000000000000000000000000000000000
310
00000000000000000000000000000000000000000000000000000000000000000000000000000000000000000000000000000000000000000000000000000000000000000000000000000000000000000000000000000000000000000000000000000000000000000000000000000000000000000000000000000000000000
310
00000000000000000000000000000000000000000000000000000000000000000000000000000000000000000000000000000000000000000000000000000000000000000000000000000000000000000000000000000000000000000000000000000000000000000000000000000000000000000000000000000000000000
310
00000000000000000000000000000000000000000000000000000000000000000000000000000000000000000000000000000000000000000000000000000000000000000000000000000000000000000000000000000000000000000000000000000000000000000000000000000000000000000000000000000000000000
310
00000000000000000000000000000000000000000000000000000000000000000000000000000000000000000000000000000000000000000000000000000000000000000000000000000000000000000000000000000000000000000000000000000000000000000000000000000000000000000000000000000000000000
310
00000000000000000000000000000000000000000000000000000000000000000000000000000000000000000000000000000000000000000000000000000000000000000000000000000000000000000000000000000000000000000000000000000000000000000000000000000000000000000000000000000000000000
310
00000000000000000000000000000000000000000000000000000000000000000000000000000000000000000000000000000000000000000000000000000000000000000000000000000000000000000000000000000000000000000000000000000000000000000000000000000000000000000000000000000000000000
310
00000000000000000000000000000000000000000000000000000000000000000000000000000000000000000000000000000000000000000000000000000000000000000000000000000000000000000000000000000000000000000000000000000000000000000000000000000000000000000000000000000000000000
310
00000000000000000000000000000000000000000000000000000000000000000000000000000000000000000000000000000000000000000000000000000000000000000000000000000000000000000000000000000000000000000000000000000000000000000000000000000000000000000000000000000000000000
310
00000000000000000000000000000000000000000000000000000000000000000000000000000000000000000000000000000000000000000000000000000000000000000000000000000000000000000000000000000000000000000000000000000000000000000000000000000000000000000000000000000000000000
310
00000000000000000000000000000000000000010000000000000000000100000000000000000000000000000000000000000100000000000000000000000000000000010000000000000000000000000000000000000000000000000000000000000000000000000000000000000000000000000000000000000000000000
310
00000000000000000000000000000000000000000000000000000000000000000000000000000000000000000000000000000000000000000000000000000000000000000000000303030303030103030303030303000000000202020000000000000000000303030303030000000000000001000003030301030000000000
310
00000000000000000000000000000000000000000000000000000000000000000000000000000000000000000000000000000000000000000000000000000000000000000000000000000000000000000000000000000000000000000000000000000000000000000000000000000000000000000000000000000000030303
310
00030301030303030303030000000002020200000000000000000303030303030303030303030303030303030303010300000000000000000000000000000000000000000000000000000000000000000000000000000000000000000000000000000000000000000000000000000000000000000000000000000000000000
310
00000000000000000000000000000000000000000000000000000000000000000000000000000000000000000000000000000001010403030103010403010000000000000000000000000000000003030303030303030000000300010304030003000001030000000000000000000000000000000000000000000000000000
310
00000000000000000000000000000000000000000000000000000000000000000000000000000000000000000000000000000000000000000000000000000000000000000000000000000000000000000000000000000000000000000000000000000000000000000303040303010003040403000000000000000000000000
310
00000000030303030000000300000003000003030300030000000300000000000000000000000000000000000000000000000000000000000000000000000000000000000000000000000000000000000000000000000000000000000000000000000000000000000000000000000000000000000000000000000000000000
310
00000000000000000000000000000000000000000000000000000000000003030303030303030301030000000000000000000000000000000003030303000000030000000300000001000003000000030000000000000000000000000000000000000000000000000000000000000000000000000000000000000000000000
310
00000000000000000000000000000000000000000000000000000000000000000000000000000000000000000000000000000000000000000000000000000000000000000000000000000000000000000000000303030303010303000303030000000000000000000000000000030303030300000003000000030000000100
310
00030000000300000000000000000000000000000000000000000000000000000000000000000000000000000000000000000000000000000000000000000000000000000000000000000000000000000000000000000000000000000000000000000000000000000000000000000000000000000000000000000000000000
310
00000000000000000101010103010101030101010100000000000000000000000000000103010101010101030303030303030303030303030303030100000000000000000000000000000000000000000000000000000000000000000000000000000000000000000000000000000000000000000000000000000000000000
310
00000000000000000000000000000000000000000000000000000000000000000000000000000000000000000000000000000000000000000000000000000303030303010303030303030000000000000000000000000000030303030300000003030003030003030103030003030303000000000000000000000000000000
310
00000000000000000000000000000000000000000000000000000000000000000000000000000000000000000000000000000000000000000000000000000000000000000000000000000000000000000000000000000000000000000000000000000000000000000000000000000000000003030303030303030300010303
310
00000000000000000000000000000003030303030303030300030003000001000003000300030000000000000000000000000000000000000000000000000000000000000000000000000000000000000000000000000000000000000000000000000000000000000000000000000000000000000000000000000000000000
310
00000000000000000000000000000000000000000000000000000000000000000000000000000000030303040303010003040403030000000000000000000000000000000303030003030303030303030303030103030303030303000000000000000000000000000000000000000000000000000000000000000000000000
310
00000000000000000000000000000000000000000000000000000000000000000000000000000000000000000000000000000000000000000000000000000000000000000000000000000000000000000000000000000000000303030303030103030101010103010303030303030000000000000000000000030303030301
310
03030303030003030303030303000303030000000000000000000000000000000000000000000000000000000000000000000000000000000000000000000000000000000000000000000000000000000000000000000000000000000000000000000000000000000000000000000000000000000000000000000000000000
310
00000000000000000000000000000003030303030103030303030303030303030303030303030000000000000000000003010301010303010300030303030303000300030003000000000000000000000000000000000000000000000000000000000000000000000000000000000000000000000000000000000000000000
310
00000000000000000000000000000000000000000000000000000000000000000000000000000000000000000000000000000000000000000000000000000000000000000000000003000000000001000000000003000000000303000000000000000000000003000303030303030003030303010303030000030300000000
310
00000000000000000000000000000000000000000000000000000000000000000000000000000000000000000000000000000000000000000000000000000000000000000000000000000000000000000000000000000000000000000000000000000000000000000000000000000000000000000000000000000000000301
310
01010101010101010103030101010103030000000000000000000000030303030303030101010103030103030101010103010000000000000000000000000000000000000000000000000000000000000000000000000000000000000000000000000000000000000000000000000000000000000000000000000000000000
310
00000000000000000000000000000000000000000000000000000000000000000000000000000000000000000000000000000000030300000001000000030303030303030303000000000000000000000000000001000003030003030303030303030003030300000000000000000000000000000000000000000000000000
310
00000000000000000000000000000000000000000000000000000000000000000000000000000000000000000000000000000000000000000000000000000000000000000000000000000000000000000000000000000000000000000000000000000000000000000003030000000100000003030000000000000000000000
310
00000000000000000000000000030003030300030303000303030003000000000000000000000000000000000000000000000000000000000000000000000000000000000000000000000000000000000000000000000000000000000000000000000000000000000000000000000000000000000000000000000000000000
310
00000000000000000000000000000000000000000000000000000000000000030300000001000000030300000000000000000000000000000000000000000000000003030300030303030303030003030300000000000000000000000000000000000000000000000000000000000000000000000000000000000000000000
310
00000000000000000000000000000000000000000000000000000000000000000000000000000000000000000000000000000000000000000000000000000000000000000000000000000000000000000000000003030000000100000003030000000000000000000000000000000000000000000000000300030303030003
310
03030303030003000000000000000000000000000000000000000000000000000000000000000000000000000000000000000000000000000000000000000000000000000000000000000000000000000000000000000000000000000000000000000000000000000000000000000000000000000000000000000000000000
310
00000000000000000000030101000001000000030300000000000000000000000000000000000000000000000003000300030303030303030003000300000000000000000000000000000000000000000000000000000000000000000000000000000000000000000000000000000000000000000000000000000000000000
310
00000000000000000000000000000000000000000000000000000000000000000000000000000000000000000000000000000000000000000000000000000003030000000100000003030000000000000000000000000000000000000000000000000303000303030001000303030003000000000000000000000000000000
310
00000000000000000000000000000000000000000000000000000000000000000000000000000000000000000000000000000000000000000000000000000000000000000000000000000000000000000000000000000000000000000000000000000000000000000000000000000000000000000303030303010303030303
310
00000000000000000000000000000000000000000000000000000303030303030303030303000000000000000000000000000000000000000000000000000000000000000000000000000000000000000000000000000000000000000000000000000000000000000000000000000000000000000000000000000000000000
310
00000000000000000000000000000000000000000000000000000000000000000000000000000000000000000000030103000000000000000000000000000000000000000000000000000000000000000000000303030000000000000000000000000000000000000000000000000000000000000000000000000000000000
310
00000000000000000000000000000000000000000000000000000000000000000000000000000000000000000000000000000000000000000000000000000000000000000000000000000000000000000000000000000000000000000000000000000000000000000000000000000000000000000000000000000000000000
310
00000000000000000000000000000000000000000000000000000000000000000000000000000000000000000000000000000000000000000000000000000000000000000000000000000000000000000000000000000000000000000000000000000000000000000000000000000000000000000000000000000000000000
310
00000000000000000000000000000000000000000000000000000000000000000000000000000000000000000000000000000000000000000000000000000000000000000000000000000000000000000000000000000000000000000000000000000000000000000000000000000000000000000000000000000000000000
310
00000000000000000000000000000000000000000000000000000000000000000000000000000000000000000000000000000000000000000000000000000000000000000000000000000000000000000000000000000000000000000000000000000000000000000000000000000000000000000000000000000000000000
310
00000000000000000000000000000000000000000000000000000000000000000000000000000000000000000000000000000000000000000000000000000000000000000000000000000000000000000000000000000000000000000000000000000000000000000000000000000000000000000000000000000000000000
310
00000000000000000000000000000000000000000000000000000000000000000000000000000000000000000000000000000000000000000000000000000000000000000000000000000000000000000000000000000000000000000000000000000000000000000000000000000000000000000000000000000000000000
310
00000000000000000000000000000000000000000000000000000000000000000000000000000000000000000000000000000000000000000000000000000000000000000000000000000000000000000000000000000000000000000000000000000000000000000000000000000000000000000000000000000000000000
310
00000000000000000000000000000000000000000000000000000000000000000000000000000000000000000000000000000000000000000000000000000000000000000000000000000000000000000000000000000000000000000000000000000000000000000000000000000000000000000000000000000000000000
310
00000000000000000000000000000000000000000000000000000000000000000000000000000000000000000000000000000000000000000000000000000000000000000000000000000000000000000000000000000000000000000000000000000000000000000000000000000000000000000000000000000000000000
310
00000000000000000000000000000000000000000000000000000000000000000000000000000000000000000000000000000000000000000000000000000000000000000000000000000000000000000000000000000000000000000000000000000000000000000000000000000000000000000000000000000000000000
310
00000000000000000000000000000000000000000000000000000000000000000000000000000000000000000000000000000000000000000000000000000000000000000000000000000000000000000000000000000000000000000000000000000000000000000000000000000000000000000000000000000000000000
310
00000000000000000000000000000000000000000000000000000000000000000000000000000000000000000000000000000000000000000000000000000000000000000000000000000000000000000000000000000000000000000000000000000000000000000000000000000000000000000000000000000000000000
310
00000000000000000000000000000000000000000000000000000000000000000000000000000000000000000000000000000000000000000000000000000000000000000000000000000000000000000000000000000000000000000000000000000000000000000000000000000000000000000000000000000000000000
310
00000000000000000000000000000000000000000000000000000000000000000000000000000000000000000000000000000000000000000000000000000000000303030000000000000000000000000000000000000000000000000000000000000000000000000000000000000000000000000000000000000000000000
310
00000000000000000000000000000000000000000000000000000000000000000000000000000000000000000000000000000000000000000000000000000000000000000000000000000000000000000000000000000000000000000000000000000000000000000000000000000000000000000000030303030303030303
310
00000000000000000000000000000000000000000000000000000000000000000000000000000000000000000000000000000000000000000000000000000000000000000000000000000000000000000000000000000000000000000000000000000000000000000000000000000000000000000000000000000000000000
310
00000000000000000000000000000000000000000000000000000000000000000000000000000000000000030303030303030303030300000000000000000000000000000000000000000000000000000000000000000000000000000000000000000000000000000000000000000000000000000000000000000000000000
310
00000000000000000000000000000000000000000000000000000000000000000000000000000000000000000000000000000000000000000000000000000000000000000000000000000000000000000000000000000000000000000000000303030103030303030103030303000000000000000000000000000000000000
310
00000000000000000000000000000000000000000000000000000000000000000000000000000000000000000000000000000000000000000000000000000000000000000000000000000000000000000000000000000000000000000000000000000000000000000000000000000000000000000000000000000000000000
310
00000000000000000000000000000000000000000003000000000001000000000003030000000000000000000000000000000000000000000000000000000000000000000000000000000000000000000000000000000000000000000000000000000000000000000000000000000000000000000000000000000000000000
310
00000000000000000000000000000000000000000000000000000000000000000000000000000000000000000000000000000000000000000000000000000000000000000000030303030300000000000100000000000303030303000000000000000000000000000000000000000000000000000000000000000000000000
310
00000000000000000000000000000000000000000000000000000000000000000000000000000000000000000000000000000000000000000000000000000000000000000000000000000000000000000000000000000000000000000000000000000000000000000000000000000000000000000000000000000003030303
310
03010101010101010101010103030303030000000000000000000000000000000000000000000000000000000000000000000000000000000000000000000000000000000000000000000000000000000000000000000000000000000000000000000000000000000000000000000000000000000000000000000000000000
310
00000000000000000000000000000000000000000000000000000000000000000000000000000000000000000000000000000000000300030000000100000003000300000000000000000000000000000000000000000000000000000000000000000000000000000000000000000000000000000000000000000000000000
310
00000000000000000000000000000000000000000000000000000000000000000000000000000000000000000000000000000000000000000000000000000000000000000000000000000000000000000000000000000000000000000000000000000000000000000000030303000000010000000303030000000000000000
310
00000000000000000000000000000000000000000000000000000000000000000000000000000000000000000000000000000000000000000000000000000000000000000000000000000000000000000000000000000000000000000000000000000000000000000000000000000000000000000000000000000000000000
310
00000000000000000000000000000000000000000000000000000000000000000003010103030303030303030000000000000000000000000000000000000000000000000000000000000000000000000000000000000000000000000000000000000000000000000000000000000000000000000000000000000000000000
310
00000000000000000000000000000000000000000000000000000000000000000000000000000000000000000000000000000000000000000000000000000000000000000000000000000000000000000000000000000303000000010000000303000000000000000000000000000000000000000000000000000000000000
310
00000000000000000000000000000000000000000000000000000000000000000000000000000000000000000000000000000000000000000000000000000000000000000000000000000000000000000000000000000000000000000000000000000000000000000000000000000000000000000000000000000000000000
310
00000000000000000000000003030000000100000003030000000000000000000000000000000000000000000000000000000000000000000000000000000000000000000000000000000000000000000000000000000000000000000000000000000000000000000000000000000000000000000000000000000000000000
310
00000000000000000000000000000000000000000000000000000000000000000000000000000000000000000000000000000000000000000000000000000000000303000000010000000303000000000000000000000000000000000000000000000000000000000000000000000000000000000000000000000000000000
310
00000000000000000000000000000000000000000000000000000000000000000000000000000000000000000000000000000000000000000000000000000000000000000000000000000000000000000000000000000000000000000000000000000000000000000000000000000000000000000000030101000001000000
310
03030000000000000000000000000000000000000000000000000000000000000000000000000000000000000000000000000000000000000000000000000000000000000000000000000000000000000000000000000000000000000000000000000000000000000000000000000000000000000000000000000000000000
310
00000000000000000000000000000000000000000000000000000000000000000000000000000000000000000303000000010000000303030000000000000000000000000000000000000000000000000000000000000000000000000000000000000000000000000000000000000000000000000000000000000000000000
310
00000000000000000000000000000000000000000000000000000000000000000000000000000000000000000000000000000000000000000000000000000000000000000000000000000000000000000000000000000000000000000000000000030300000303030000030303030303030303000000000000000000000000
310
00000000000000000000000000000000000000000000000000000000000000000000000000000000000000000000000000000000000000000000000000000000000000000000000000000000000000000000000000000000000000000000000000000000000000000000000000000000000000000000000000000000000000
310
00000000000000000000000000000000000000000000000303010103010301010103030303030303030000000000000000000000000000000000000000000000000000000000000000000000000000000000000000000000000000000000000000000000000000000000000000000000000000000000000000000000000000
310
00000000000000000000000000000000000000000000000000000000000000000000000000000000000000000000000000000000000000000000000000000000000000000000000000000000030300000303030000030303030303030303000000000000000000000000000000000000000000000000000000000000000000
310
00000000000000000000000000000000000000000000000000000000000000000000000000000000000000000000000000000000000000000000000000000000000000000000000000000000000000000000000000000000000000000000000000000000000000000000000000000000000000000000000000000000000000
310
00000303000000010000000303000000000000000000000000000000000000000000000000000000000000000000000000000000000000000000000000000000000000000000000000000000000000000000000000000000000000000000000000000000000000000000000000000000000000000000000000000000000000
310
00000000000000000000000000000000000000000000000000000000000000000000000000000000000000000000000000000000000000030101000001000000030300000000000000000000000000000000000000000000000000000000000000000000000000000000000000000000000000000000000000000000000000
310
00000000000000000000000000000000000000000000000000000000000000000000000000000000000000000000000000000000000000000000000000000000000000000000000000000000000000000000000000000000000000000000000000000000000000000000000003030000000100000003030300000000000000
310
00000000000000000000000000000000000000000000000000000000000000000000000000000000000000000000000000000000000000000000000000000000000000000000000000000000000000000000000000000000000000000000000000000000000000000000000000000000000000000000000000000000000000
310
00000000000000000000000000000000000000000000000000000000000000000003030300000001000000030100030000000000000000000000000000000000000000000000000000000000000000000000000000000000000000000000000000000000000000000000000000000000000000000000000000000000000000
310
00000000000000000000000000000000000000000000000000000000000000000000000000000000000000000000000000000000000000000000000000000000000000000000000000000000000000000000000000000303010100000100000003010103000000000000000000000000000000000000000000000000000000
310
00000000000000000000000000000000000000000000000000000000000000000000000000000000000000000000000000000000000000000000000000000000000000000000000000000000000000000000000000000000000000000000000000000000000000000000000000000000000000000000000000000000000000
310
00000000000000000000000003030303030303030303030303030000000000000000000000000000000000000000000000000000000000000000000000000000000000000000000000000000000000000000000000000000000000000000000000000000000000000000000000000000000000000000000000000000000000
310
00000000000000000000000000000000000000000000000000000000000000000000000000000000000000000000000000000000000000000000000000000000000000000000000100000000000000000000000000000000000000000000000000000000000000000000000000000000000000000000000000000000000000
310
00000000000000000000000000000000000000000000000000000000000000000000000000000000000000000000000000000000000000000000000000000000000000000000000000000000000000000000000000000000000000000000000000000000000000000000000000000000000000000000000000000000000000
310
00000000000000000000000000000000000000000000000000000000000000000000000000000000000000000000000000000000000000000000000000000000000000000000000000000000000000000000000000000000000000000000000000000000000000000000000000000000000000000000000000000000000000
310
00000000000000000000000000000000000000000000000000000000000000000000000000000000000000000000000000000000000000000000000000000000000000000000000000000000000000000000000000000000000000000000000000000000000000000000000000000000000000000000000000000000000000
310
00000000000000000000000000000000000000000000000000000000000000000000000000000000000000000000000000000000000000000000000000000000000000000000000000000000000000000000000000000000000000000000000000000000000000000000000000000000000000000000000000000000000000
310
000000000000000000000000000000000000000000000000000000000000000000000000000000000000000000000000000000000000000000000000000000000000000000000000000000000000000000000000000000000000000000000000000000000000000000000000
  0
ENDSEC
  0
EOF
