  0
SECTION
  2
HEADER
  9
$ACADVER
  1
AC1015
  9
$ACADMAINTVER
 70
     6
  9
$DWGCODEPAGE
  3
ANSI_932
  9
$INSBASE
 10
241.615747556299
 20
-22.60172593547691
 30
0.0
  9
$EXTMIN
 10
46.92369407011734
 20
9.71058206833743
 30
0.0
  9
$EXTMAX
 10
560.6594228679476
 20
485.1904915824567
 30
0.0
  9
$LIMMIN
 10
0.0
 20
0.0
  9
$LIMMAX
 10
816.5000000000001
 20
565.0
  9
$ORTHOMODE
 70
     1
  9
$REGENMODE
 70
     1
  9
$FILLMODE
 70
     1
  9
$QTEXTMODE
 70
     0
  9
$MIRRTEXT
 70
     1
  9
$LTSCALE
 40
20.0
  9
$ATTMODE
 70
     1
  9
$TEXTSIZE
 40
4.5
  9
$TRACEWID
 40
0.05
  9
$TEXTSTYLE
  7
KANJI
  9
$CLAYER
  8
2
  9
$CELTYPE
  6
BYLAYER
  9
$CECOLOR
 62
   256
  9
$CELTSCALE
 40
1.0
  9
$DISPSILH
 70
     0
  9
$DIMSCALE
 40
1.5
  9
$DIMASZ
 40
2.0
  9
$DIMEXO
 40
0.5
  9
$DIMDLI
 40
0.0
  9
$DIMRND
 40
0.0
  9
$DIMDLE
 40
0.0
  9
$DIMEXE
 40
1.0
  9
$DIMTP
 40
0.0
  9
$DIMTM
 40
0.0
  9
$DIMTXT
 40
3.0
  9
$DIMCEN
 40
0.09
  9
$DIMTSZ
 40
0.0
  9
$DIMTOL
 70
     0
  9
$DIMLIM
 70
     0
  9
$DIMTIH
 70
     0
  9
$DIMTOH
 70
     0
  9
$DIMSE1
 70
     0
  9
$DIMSE2
 70
     0
  9
$DIMTAD
 70
     0
  9
$DIMZIN
 70
     8
  9
$DIMBLK
  1

  9
$DIMASO
 70
     0
  9
$DIMSHO
 70
     0
  9
$DIMPOST
  1

  9
$DIMAPOST
  1

  9
$DIMALT
 70
     0
  9
$DIMALTD
 70
     2
  9
$DIMALTF
 40
25.4
  9
$DIMLFAC
 40
1.0
  9
$DIMTOFL
 70
     1
  9
$DIMTVP
 40
1.0
  9
$DIMTIX
 70
     1
  9
$DIMSOXD
 70
     1
  9
$DIMSAH
 70
     0
  9
$DIMBLK1
  1

  9
$DIMBLK2
  1

  9
$DIMSTYLE
  2
STANDARD
  9
$DIMCLRD
 70
   256
  9
$DIMCLRE
 70
   256
  9
$DIMCLRT
 70
   256
  9
$DIMTFAC
 40
1.0
  9
$DIMGAP
 40
0.09
  9
$DIMJUST
 70
     0
  9
$DIMSD1
 70
     0
  9
$DIMSD2
 70
     0
  9
$DIMTOLJ
 70
     1
  9
$DIMTZIN
 70
     0
  9
$DIMALTZ
 70
     0
  9
$DIMALTTZ
 70
     0
  9
$DIMUPT
 70
     0
  9
$DIMDEC
 70
     1
  9
$DIMTDEC
 70
     4
  9
$DIMALTU
 70
     2
  9
$DIMALTTD
 70
     2
  9
$DIMTXSTY
  7
STANDARD
  9
$DIMAUNIT
 70
     0
  9
$DIMADEC
 70
     0
  9
$DIMALTRND
 40
0.0
  9
$DIMAZIN
 70
     0
  9
$DIMDSEP
 70
    46
  9
$DIMATFIT
 70
     3
  9
$DIMFRAC
 70
     0
  9
$DIMLDRBLK
  1

  9
$DIMLUNIT
 70
     2
  9
$DIMLWD
 70
    -2
  9
$DIMLWE
 70
    -2
  9
$DIMTMOVE
 70
     0
  9
$LUNITS
 70
     2
  9
$LUPREC
 70
     3
  9
$SKETCHINC
 40
0.1
  9
$FILLETRAD
 40
1.0
  9
$AUNITS
 70
     0
  9
$AUPREC
 70
     3
  9
$MENU
  1
C:\R13\WIN\SUPPORT\ACADFULL
  9
$ELEVATION
 40
0.0
  9
$PELEVATION
 40
0.0
  9
$THICKNESS
 40
0.0
  9
$LIMCHECK
 70
     0
  9
$CHAMFERA
 40
0.0
  9
$CHAMFERB
 40
0.0
  9
$CHAMFERC
 40
0.5
  9
$CHAMFERD
 40
0.7853981633974483
  9
$SKPOLY
 70
     0
  9
$TDCREATE
 40
2457329.449428461
  9
$TDUCREATE
 40
2457329.074428461
  9
$TDUPDATE
 40
2458115.73740272
  9
$TDUUPDATE
 40
2458115.36240272
  9
$TDINDWG
 40
0.0434766204
  9
$TDUSRTIMER
 40
0.0434758565
  9
$USRTIMER
 70
     1
  9
$ANGBASE
 50
0.0
  9
$ANGDIR
 70
     0
  9
$PDMODE
 70
     0
  9
$PDSIZE
 40
0.0
  9
$PLINEWID
 40
0.0
  9
$SPLFRAME
 70
     0
  9
$SPLINETYPE
 70
     6
  9
$SPLINESEGS
 70
     8
  9
$HANDSEED
  5
59D
  9
$SURFTAB1
 70
     6
  9
$SURFTAB2
 70
     6
  9
$SURFTYPE
 70
     6
  9
$SURFU
 70
     6
  9
$SURFV
 70
     6
  9
$UCSBASE
  2

  9
$UCSNAME
  2

  9
$UCSORG
 10
0.0
 20
0.0
 30
0.0
  9
$UCSXDIR
 10
1.0
 20
0.0
 30
0.0
  9
$UCSYDIR
 10
0.0
 20
1.0
 30
0.0
  9
$UCSORTHOREF
  2

  9
$UCSORTHOVIEW
 70
     0
  9
$UCSORGTOP
 10
0.0
 20
0.0
 30
0.0
  9
$UCSORGBOTTOM
 10
0.0
 20
0.0
 30
0.0
  9
$UCSORGLEFT
 10
0.0
 20
0.0
 30
0.0
  9
$UCSORGRIGHT
 10
0.0
 20
0.0
 30
0.0
  9
$UCSORGFRONT
 10
0.0
 20
0.0
 30
0.0
  9
$UCSORGBACK
 10
0.0
 20
0.0
 30
0.0
  9
$PUCSBASE
  2

  9
$PUCSNAME
  2

  9
$PUCSORG
 10
0.0
 20
0.0
 30
0.0
  9
$PUCSXDIR
 10
1.0
 20
0.0
 30
0.0
  9
$PUCSYDIR
 10
0.0
 20
1.0
 30
0.0
  9
$PUCSORTHOREF
  2

  9
$PUCSORTHOVIEW
 70
     0
  9
$PUCSORGTOP
 10
0.0
 20
0.0
 30
0.0
  9
$PUCSORGBOTTOM
 10
0.0
 20
0.0
 30
0.0
  9
$PUCSORGLEFT
 10
0.0
 20
0.0
 30
0.0
  9
$PUCSORGRIGHT
 10
0.0
 20
0.0
 30
0.0
  9
$PUCSORGFRONT
 10
0.0
 20
0.0
 30
0.0
  9
$PUCSORGBACK
 10
0.0
 20
0.0
 30
0.0
  9
$USERI1
 70
     0
  9
$USERI2
 70
     0
  9
$USERI3
 70
     0
  9
$USERI4
 70
     0
  9
$USERI5
 70
    32
  9
$USERR1
 40
0.0
  9
$USERR2
 40
0.0
  9
$USERR3
 40
0.0
  9
$USERR4
 40
2448925.372986111
  9
$USERR5
 40
0.04166667
  9
$WORLDVIEW
 70
     1
  9
$SHADEDGE
 70
     3
  9
$SHADEDIF
 70
    70
  9
$TILEMODE
 70
     1
  9
$MAXACTVP
 70
    16
  9
$PINSBASE
 10
0.0
 20
0.0
 30
0.0
  9
$PLIMCHECK
 70
     0
  9
$PEXTMIN
 10
1000000000000000E+20
 20
1000000000000000E+20
 30
1000000000000000E+20
  9
$PEXTMAX
 10
-1000000000000000E+20
 20
-1000000000000000E+20
 30
-1000000000000000E+20
  9
$PLIMMIN
 10
0.0
 20
0.0
  9
$PLIMMAX
 10
12.0
 20
9.0
  9
$UNITMODE
 70
     0
  9
$VISRETAIN
 70
     0
  9
$PLINEGEN
 70
     0
  9
$PSLTSCALE
 70
     0
  9
$TREEDEPTH
 70
  3020
  9
$CMLSTYLE
  2
STANDARD
  9
$CMLJUST
 70
     0
  9
$CMLSCALE
 40
1.0
  9
$PROXYGRAPHICS
 70
     1
  9
$MEASUREMENT
 70
     0
  9
$CELWEIGHT
370
    -1
  9
$ENDCAPS
280
     0
  9
$JOINSTYLE
280
     0
  9
$LWDISPLAY
290
     0
  9
$INSUNITS
 70
     0
  9
$HYPERLINKBASE
  1

  9
$STYLESHEET
  1
monochrome.ctb
  9
$XEDIT
290
     1
  9
$CEPSNTYPE
380
     0
  9
$PSTYLEMODE
290
     1
  9
$FINGERPRINTGUID
  2
{0611F165-726C-4469-BF45-BB74364FCEFC}
  9
$VERSIONGUID
  2
{F7F40579-9B01-41CB-A8F2-DBD8C6C537C8}
  9
$EXTNAMES
290
     1
  9
$PSVPSCALE
 40
0.0
  9
$OLESTARTUP
290
     0
  0
ENDSEC
  0
SECTION
  2
CLASSES
  0
CLASS
  1
ACDBDICTIONARYWDFLT
  2
AcDbDictionaryWithDefault
  3
ObjectDBX Classes
 90
        0
280
     0
281
     0
  0
CLASS
  1
MATERIAL
  2
AcDbMaterial
  3
ObjectDBX Classes
 90
     1153
280
     0
281
     0
  0
CLASS
  1
SORTENTSTABLE
  2
AcDbSortentsTable
  3
ObjectDBX Classes
 90
        0
280
     0
281
     0
  0
CLASS
  1
SCALE
  2
AcDbScale
  3
ObjectDBX Classes
 90
     1153
280
     0
281
     0
  0
CLASS
  1
DICTIONARYVAR
  2
AcDbDictionaryVar
  3
ObjectDBX Classes
 90
        0
280
     0
281
     0
  0
CLASS
  1
VISUALSTYLE
  2
AcDbVisualStyle
  3
ObjectDBX Classes
 90
     4095
280
     0
281
     0
  0
CLASS
  1
MLEADERSTYLE
  2
AcDbMLeaderStyle
  3
ACDB_MLEADERSTYLE_CLASS
 90
     4095
280
     0
281
     0
  0
CLASS
  1
TABLESTYLE
  2
AcDbTableStyle
  3
ObjectDBX Classes
 90
     4095
280
     0
281
     0
  0
CLASS
  1
ACDBPLACEHOLDER
  2
AcDbPlaceHolder
  3
ObjectDBX Classes
 90
        0
280
     0
281
     0
  0
CLASS
  1
LAYOUT
  2
AcDbLayout
  3
ObjectDBX Classes
 90
        0
280
     0
281
     0
  0
ENDSEC
  0
SECTION
  2
TABLES
  0
TABLE
  2
VPORT
  5
2E
102
{ACAD_XDICTIONARY
360
562
102
}
330
0
100
AcDbSymbolTable
 70
     1
  0
VPORT
  5
33
330
2E
100
AcDbSymbolTableRecord
100
AcDbViewportTableRecord
  2
*Active
 70
     0
 10
0.0
 20
0.0
 11
1.0
 21
1.0
 12
570.2969092780924
 22
244.6494727002757
 13
0.0
 23
0.0
 14
1.0
 24
1.0
 15
50.0
 25
50.0
 16
0.0
 26
0.0
 36
1.0
 17
0.0
 27
0.0
 37
0.0
 40
723.4878910346962
 41
1.82716049382716
 42
50.0
 43
0.0
 44
0.0
 50
0.0
 51
0.0
 71
     0
 72
  5000
 73
     1
 74
     0
 75
     0
 76
     0
 77
     0
 78
     2
281
     0
 65
     1
110
0.0
120
0.0
130
0.0
111
1.0
121
0.0
131
0.0
112
0.0
122
1.0
132
0.0
 79
     0
146
0.0
1001
ACAD_NAV_VCDISPLAY
1070
     3
  0
ENDTAB
  0
TABLE
  2
LTYPE
  5
F
330
0
100
AcDbSymbolTable
 70
     2
  0
LTYPE
  5
10
330
F
100
AcDbSymbolTableRecord
100
AcDbLinetypeTableRecord
  2
BYBLOCK
 70
     0
  3

 72
    65
 73
     0
 40
0.0
  0
LTYPE
  5
11
330
F
100
AcDbSymbolTableRecord
100
AcDbLinetypeTableRecord
  2
BYLAYER
 70
     0
  3

 72
    65
 73
     0
 40
0.0
  0
LTYPE
  5
E
330
F
100
AcDbSymbolTableRecord
100
AcDbLinetypeTableRecord
  2
CONTINUOUS
 70
     0
  3
Solid line
 72
    65
 73
     0
 40
0.0
  0
LTYPE
  5
5E
330
F
100
AcDbSymbolTableRecord
100
AcDbLinetypeTableRecord
  2
CENTER
 70
     0
  3
____ _ ____ _ ____ _ ____ _ ____ _ ____ _ ____
 72
    65
 73
     4
 40
2.0
 49
1.25
 74
     0
 49
-0.25
 74
     0
 49
0.25
 74
     0
 49
-0.25
 74
     0
  0
ENDTAB
  0
TABLE
  2
LAYER
  5
2
102
{ACAD_XDICTIONARY
360
3
102
}
330
0
100
AcDbSymbolTable
 70
     9
  0
LAYER
  5
1F
102
{ACAD_XDICTIONARY
360
20
102
}
330
2
100
AcDbSymbolTableRecord
100
AcDbLayerTableRecord
  2
0
 70
     0
 62
     7
  6
CONTINUOUS
370
    -3
390
7
  0
LAYER
  5
3C0
102
{ACAD_XDICTIONARY
360
3C1
102
}
330
2
100
AcDbSymbolTableRecord
100
AcDbLayerTableRecord
  2
1
 70
     0
 62
     9
  6
CONTINUOUS
370
    -3
390
7
  0
LAYER
  5
1
102
{ACAD_XDICTIONARY
360
5
102
}
330
2
100
AcDbSymbolTableRecord
100
AcDbLayerTableRecord
  2
2
 70
     0
 62
     4
  6
CONTINUOUS
370
    -3
390
7
  0
LAYER
  5
F4
102
{ACAD_XDICTIONARY
360
F5
102
}
330
2
100
AcDbSymbolTableRecord
100
AcDbLayerTableRecord
  2
4
 70
     0
 62
     3
  6
CONTINUOUS
370
    -3
390
7
  0
LAYER
  5
5B
102
{ACAD_XDICTIONARY
360
5C
102
}
330
2
100
AcDbSymbolTableRecord
100
AcDbLayerTableRecord
  2
L-CENTER
 70
     0
 62
     1
  6
CENTER
370
    -3
390
7
  0
LAYER
  5
61
102
{ACAD_XDICTIONARY
360
62
102
}
330
2
100
AcDbSymbolTableRecord
100
AcDbLayerTableRecord
  2
3
 70
     0
 62
     2
  6
CONTINUOUS
370
    -3
390
7
  0
LAYER
  5
3BA
330
2
100
AcDbSymbolTableRecord
100
AcDbLayerTableRecord
  2
5
 70
     0
 62
     6
  6
CONTINUOUS
370
    -3
390
7
  0
LAYER
  5
4F0
330
2
100
AcDbSymbolTableRecord
100
AcDbLayerTableRecord
  2
Defpoints
 70
     0
 62
     7
  6
CONTINUOUS
290
     0
370
    -3
390
7
  0
ENDTAB
  0
TABLE
  2
STYLE
  5
13
330
0
100
AcDbSymbolTable
 70
     2
  0
STYLE
  5
17
330
13
100
AcDbSymbolTableRecord
100
AcDbTextStyleTableRecord
  2
STANDARD
 70
     0
 40
0.0
 41
1.0
 50
0.0
 71
     0
 42
2.7
  3
TXT
  4

  0
STYLE
  5
12
330
13
100
AcDbSymbolTableRecord
100
AcDbTextStyleTableRecord
  2
KANJI
 70
     0
 40
0.0
 41
1.0
 50
0.0
 71
     0
 42
4.5
  3
TXT
  4
BIGFONT
  0
ENDTAB
  0
TABLE
  2
VIEW
  5
2C
330
0
100
AcDbSymbolTable
 70
     0
  0
ENDTAB
  0
TABLE
  2
UCS
  5
2D
330
0
100
AcDbSymbolTable
 70
     0
  0
ENDTAB
  0
TABLE
  2
APPID
  5
D
330
0
100
AcDbSymbolTable
 70
     5
  0
APPID
  5
C
330
D
100
AcDbSymbolTableRecord
100
AcDbRegAppTableRecord
  2
ACAD
 70
     0
  0
APPID
  5
34
330
D
100
AcDbSymbolTableRecord
100
AcDbRegAppTableRecord
  2
ACAD_NAV_VCDISPLAY
 70
     0
  0
APPID
  5
27
330
D
100
AcDbSymbolTableRecord
100
AcDbRegAppTableRecord
  2
ACAD_PSEXT
 70
     0
  0
APPID
  5
4B8
330
D
100
AcDbSymbolTableRecord
100
AcDbRegAppTableRecord
  2
ACAD_MLEADERVER
 70
     0
  0
ENDTAB
  0
TABLE
  2
DIMSTYLE
  5
16
330
0
100
AcDbSymbolTable
 70
     1
100
AcDbDimStyleTable
  0
DIMSTYLE
105
15
330
16
100
AcDbSymbolTableRecord
100
AcDbDimStyleTableRecord
  2
STANDARD
 70
     0
178
     0
340
17
  0
ENDTAB
  0
TABLE
  2
BLOCK_RECORD
  5
1A
330
0
100
AcDbSymbolTable
 70
     0
  0
BLOCK_RECORD
  5
1B
102
{ACAD_XDICTIONARY
360
1C
102
}
330
1A
100
AcDbSymbolTableRecord
100
AcDbBlockTableRecord
  2
*MODEL_SPACE
340
23
  0
BLOCK_RECORD
  5
28
330
1A
100
AcDbSymbolTableRecord
100
AcDbBlockTableRecord
  2
*PAPER_SPACE
340
2B
  0
ENDTAB
  0
ENDSEC
  0
SECTION
  2
BLOCKS
  0
BLOCK
  5
1E
330
1B
100
AcDbEntity
  8
0
100
AcDbBlockBegin
  2
*MODEL_SPACE
 70
     0
 10
0.0
 20
0.0
 30
0.0
  3
*MODEL_SPACE
  1

  0
ENDBLK
  5
22
330
1B
100
AcDbEntity
  8
0
100
AcDbBlockEnd
  0
BLOCK
  5
29
330
28
100
AcDbEntity
 67
     1
  8
0
100
AcDbBlockBegin
  2
*PAPER_SPACE
 70
     0
 10
0.0
 20
0.0
 30
0.0
  3
*PAPER_SPACE
  1

  0
ENDBLK
  5
2A
330
28
100
AcDbEntity
 67
     1
  8
0
100
AcDbBlockEnd
  0
ENDSEC
  0
SECTION
  2
ENTITIES
  0
LINE
  5
F3
330
1B
100
AcDbEntity
  8
4
100
AcDbLine
 10
444.2035330020658
 20
144.7105820683373
 30
0.0
 11
456.8098334516271
 21
144.7105820683373
 31
0.0
  0
CIRCLE
  5
F7
330
1B
100
AcDbEntity
  8
4
100
AcDbCircle
 10
486.3342818679475
 20
121.7105820683374
 30
0.0
 40
48.0
  0
CIRCLE
  5
F8
330
1B
100
AcDbEntity
  8
4
100
AcDbCircle
 10
486.3342818679475
 20
121.7105820683374
 30
0.0
 40
60.0
  0
LINE
  5
FC
330
1B
100
AcDbEntity
  8
L-CENTER
 48
0.5
100
AcDbLine
 10
560.6594228679476
 20
66.71058156833726
 30
0.0
 11
345.9474747518618
 21
66.71058156833726
 31
0.0
  0
LINE
  5
FD
330
1B
100
AcDbEntity
  8
L-CENTER
 48
0.5
100
AcDbLine
 10
551.135349188243
 20
121.7105820683374
 30
0.0
 11
421.533214547652
 21
121.7105820683374
 31
0.0
  0
ARC
  5
FE
330
1B
100
AcDbEntity
  8
4
100
AcDbCircle
 10
486.3342818679475
 20
460.7107650683375
 30
0.0
 40
400.000011
100
AcDbArc
 50
262.0338019999983
 51
276.5708160000032
  0
ARC
  5
FF
330
1B
100
AcDbEntity
  8
4
100
AcDbCircle
 10
486.3342818679475
 20
-215.2894784316626
 30
0.0
 40
400.000014
100
AcDbArc
 50
82.07599600000235
 51
97.9241430000003
  0
LINE
  5
100
330
1B
100
AcDbEntity
  8
4
100
AcDbLine
 10
418.3342808679477
 20
21.71058156833726
 30
0.0
 11
492.3342818679475
 21
21.71058156833726
 31
0.0
  0
LINE
  5
115
330
1B
100
AcDbEntity
  8
4
100
AcDbLine
 10
139.9277261873729
 20
193.2105210683372
 30
0.0
 11
164.927725187373
 21
193.2105210683372
 31
0.0
  0
LINE
  5
116
330
1B
100
AcDbEntity
  8
4
100
AcDbLine
 10
139.9277261873729
 20
189.2105205683373
 30
0.0
 11
164.927725187373
 21
189.2105205683373
 31
0.0
  0
LINE
  5
117
330
1B
100
AcDbEntity
  8
4
100
AcDbLine
 10
139.9277261873729
 20
187.2105210683372
 30
0.0
 11
164.927725187373
 21
187.2105210683372
 31
0.0
  0
CIRCLE
  5
118
330
1B
100
AcDbEntity
  8
4
100
AcDbCircle
 10
152.4277256873727
 20
66.71058156833726
 30
0.0
 40
12.4999995
  0
LINE
  5
119
330
1B
100
AcDbEntity
  8
4
100
AcDbLine
 10
152.4277256873727
 20
79.21058256833737
 30
0.0
 11
141.6025301873728
 21
72.96058206833743
 31
0.0
  0
LINE
  5
11A
330
1B
100
AcDbEntity
  8
4
100
AcDbLine
 10
141.6025301873728
 20
60.4605675683373
 30
0.0
 11
152.4277256873727
 21
54.21056706833724
 31
0.0
  0
LINE
  5
11B
330
1B
100
AcDbEntity
  8
L-CENTER
 48
0.5
100
AcDbLine
 10
69.12601323906858
 20
103.7105820683374
 30
0.0
 11
201.1449500585861
 21
103.7105820683374
 31
0.0
  0
CIRCLE
  5
11C
330
1B
100
AcDbEntity
  8
4
100
AcDbCircle
 10
152.4277256873727
 20
66.71058156833726
 30
0.0
 40
15.0
  0
CIRCLE
  5
11D
330
1B
100
AcDbEntity
  8
4
100
AcDbCircle
 10
152.4277256873727
 20
66.71058156833726
 30
0.0
 40
25.9999995
  0
LINE
  5
11E
330
1B
100
AcDbEntity
  8
4
100
AcDbLine
 10
166.427725187373
 20
185.7105210683372
 30
0.0
 11
138.4277261873729
 21
185.7105210683372
 31
0.0
  0
ARC
  5
11F
330
1B
100
AcDbEntity
  8
4
100
AcDbCircle
 10
152.4277256873727
 20
-215.2894784316626
 30
0.0
 40
400.000008
100
AcDbArc
 50
84.83642799999818
 51
95.16365900000152
  0
LINE
  5
120
330
1B
100
AcDbEntity
  8
4
100
AcDbLine
 10
198.4277261873729
 20
131.7105210683372
 30
0.0
 11
106.427725187373
 21
131.7105210683372
 31
0.0
  0
LINE
  5
121
330
1B
100
AcDbEntity
  8
L-CENTER
 48
0.5
100
AcDbLine
 10
247.5835571599128
 20
121.7105820683374
 30
0.0
 11
57.27189421483259
 21
121.7105820683374
 31
0.0
  0
LINE
  5
122
330
1B
100
AcDbEntity
  8
L-CENTER
 48
0.5
100
AcDbLine
 10
201.9091706873728
 20
66.71058156833726
 30
0.0
 11
102.6505181873729
 21
66.71058156833726
 31
0.0
  0
ARC
  5
123
330
1B
100
AcDbEntity
  8
4
100
AcDbCircle
 10
152.4277256873727
 20
-68.28941843166274
 30
0.0
 40
180.0
100
AcDbArc
 50
77.63739999999835
 51
102.3626249999993
  0
CIRCLE
  5
124
330
1B
100
AcDbEntity
  8
4
100
AcDbCircle
 10
152.4277256873727
 20
66.71058156833726
 30
0.0
 40
42.0
  0
CIRCLE
  5
125
330
1B
100
AcDbEntity
  8
L-CENTER
 48
0.5
100
AcDbCircle
 10
152.4277256873727
 20
66.71058156833726
 30
0.0
 40
34.9999995
  0
LINE
  5
126
330
1B
100
AcDbEntity
  8
4
100
AcDbLine
 10
217.427725187373
 20
16.71058206833743
 30
0.0
 11
87.42772618737285
 21
16.71058206833743
 31
0.0
  0
LINE
  5
144
330
1B
100
AcDbEntity
  8
4
100
AcDbLine
 10
102.1277261873729
 20
109.7105820683374
 30
0.0
 11
102.1277261873729
 21
117.4605820683374
 31
0.0
  0
LINE
  5
145
330
1B
100
AcDbEntity
  8
4
100
AcDbLine
 10
103.1277251873728
 20
96.71052156833719
 30
0.0
 11
103.1277251873728
 21
97.71058206833743
 31
0.0
  0
LINE
  5
146
330
1B
100
AcDbEntity
  8
4
100
AcDbLine
 10
106.1277251873728
 20
131.7105210683372
 30
0.0
 11
106.1277251873728
 21
119.7105210683372
 31
0.0
  0
ARC
  5
147
330
1B
100
AcDbEntity
  8
4
100
AcDbCircle
 10
152.4277256873727
 20
66.71058156833726
 30
0.0
 40
45.0
100
AcDbArc
 50
180.0000780023976
 51
217.658524
  0
LINE
  5
148
330
1B
100
AcDbEntity
  8
L-CENTER
 48
0.5
100
AcDbLine
 10
102.4277261873729
 20
36.71058256833737
 30
0.0
 11
102.4277261873729
 21
9.71058206833743
 31
0.0
  0
LINE
  5
149
330
1B
100
AcDbEntity
  8
4
100
AcDbLine
 10
87.42772618737285
 20
16.71058206833743
 30
0.0
 11
87.42772618737285
 21
27.71058156833726
 31
0.0
  0
LINE
  5
14A
330
1B
100
AcDbEntity
  8
4
100
AcDbLine
 10
89.42772568737269
 20
29.71058256833737
 30
0.0
 11
114.4277261873729
 21
29.71058256833737
 31
0.0
  0
ARC
  5
14B
330
1B
100
AcDbEntity
  8
4
100
AcDbCircle
 10
89.42772568737269
 20
27.71058156833726
 30
0.0
 40
1.9999995
100
AcDbArc
 50
90.0
 51
180.0
  0
LINE
  5
14C
330
1B
100
AcDbEntity
  8
4
100
AcDbLine
 10
117.4277261873729
 20
37.38482256833743
 30
0.0
 11
117.4277261873729
 21
32.71058256833737
 31
0.0
  0
ARC
  5
14D
330
1B
100
AcDbEntity
  8
4
100
AcDbCircle
 10
114.4277261873729
 20
37.38482256833743
 30
0.0
 40
3.000003
100
AcDbArc
 50
0.0
 51
37.65863199999916
  0
ARC
  5
14E
330
1B
100
AcDbEntity
  8
4
100
AcDbCircle
 10
114.4277261873729
 20
32.71058256833737
 30
0.0
 40
3.0
100
AcDbArc
 50
270.0
 51
0.0
  0
ARC
  5
14F
330
1B
100
AcDbEntity
  8
4
100
AcDbCircle
 10
287.4279701873727
 20
66.71052156833719
 30
0.0
 40
180.0
100
AcDbArc
 50
167.6372650000002
 51
180.0000189952644
  0
LINE
  5
150
330
1B
100
AcDbEntity
  8
4
100
AcDbLine
 10
107.7063731873729
 20
61.7105205683373
 30
0.0
 11
107.127725687373
 21
61.7105205683373
 31
0.0
  0
ARC
  5
151
330
1B
100
AcDbEntity
  8
4
100
AcDbCircle
 10
107.127725687373
 20
62.71052106833724
 30
0.0
 40
1.0000005
100
AcDbArc
 50
180.0
 51
270.0
  0
LINE
  5
152
330
1B
100
AcDbEntity
  8
4
100
AcDbLine
 10
107.6530676873729
 20
75.71076456833737
 30
0.0
 11
106.427725187373
 21
75.71076456833737
 31
0.0
  0
LINE
  5
153
330
1B
100
AcDbEntity
  8
4
100
AcDbLine
 10
106.427725187373
 20
75.71076456833737
 30
0.0
 11
107.6531291873728
 21
75.71076456833737
 31
0.0
  0
LINE
  5
156
330
1B
100
AcDbEntity
  8
4
100
AcDbLine
 10
105.4277261873724
 20
95.88901279691402
 30
0.0
 11
103.1277251873728
 21
96.71052156833719
 31
0.0
  0
ARC
  5
157
330
1B
100
AcDbEntity
  8
4
100
AcDbCircle
 10
114.5323091873729
 20
104.6063190683373
 30
0.0
 40
2.9999985
100
AcDbArc
 50
102.3625089999994
 51
167.6372109999995
  0
LINE
  5
158
330
1B
100
AcDbEntity
  8
4
100
AcDbLine
 10
141.6025301873728
 20
60.4605675683373
 30
0.0
 11
141.6025301873728
 21
72.96058206833743
 31
0.0
  0
LINE
  5
159
330
1B
100
AcDbEntity
  8
L-CENTER
 48
0.5
100
AcDbLine
 10
122.6779515215806
 20
96.46026553031368
 30
0.0
 11
132.6799555647647
 21
86.45830126976387
 31
0.0
  0
LINE
  5
15B
330
1B
100
AcDbEntity
  8
4
100
AcDbLine
 10
96.42772618737285
 20
136.7105820683374
 30
0.0
 11
59.4277256873728
 21
136.7105820683374
 31
0.0
  0
LINE
  5
15C
330
1B
100
AcDbEntity
  8
4
100
AcDbLine
 10
99.42772618737285
 20
109.7105820683374
 30
0.0
 11
59.92772518737286
 21
109.7105820683374
 31
0.0
  0
LINE
  5
15D
330
1B
100
AcDbEntity
  8
4
100
AcDbLine
 10
99.42772618737285
 20
133.7105820683374
 30
0.0
 11
59.92772518737286
 21
133.7105820683374
 31
0.0
  0
LINE
  5
161
330
1B
100
AcDbEntity
  8
4
100
AcDbLine
 10
59.4277256873728
 20
136.7105820683374
 30
0.0
 11
59.4277256873728
 21
110.2105815683373
 31
0.0
  0
LINE
  5
162
330
1B
100
AcDbEntity
  8
4
100
AcDbLine
 10
59.92772518737286
 20
133.7105820683374
 30
0.0
 11
59.92772518737286
 21
109.7105820683374
 31
0.0
  0
LINE
  5
163
330
1B
100
AcDbEntity
  8
4
100
AcDbLine
 10
59.4277256873728
 20
110.2105815683373
 30
0.0
 11
59.92772518737286
 21
109.7105820683374
 31
0.0
  0
LINE
  5
164
330
1B
100
AcDbEntity
  8
4
100
AcDbLine
 10
59.92772518737286
 20
133.7105820683374
 30
0.0
 11
59.4277256873728
 21
133.2105825683374
 31
0.0
  0
LINE
  5
168
330
1B
100
AcDbEntity
  8
4
100
AcDbLine
 10
106.1277251873728
 20
131.7105210683372
 30
0.0
 11
106.1277251873728
 21
180.7105215683374
 31
0.0
  0
LINE
  5
169
330
1B
100
AcDbEntity
  8
4
100
AcDbLine
 10
115.427725187373
 20
131.7105210683372
 30
0.0
 11
115.427725187373
 21
181.7105205683373
 31
0.0
  0
LINE
  5
16A
330
1B
100
AcDbEntity
  8
4
100
AcDbLine
 10
116.4277256873727
 20
131.7105210683372
 30
0.0
 11
116.4277256873727
 21
183.0872295683372
 31
0.0
  0
LINE
  5
16C
330
1B
100
AcDbEntity
  8
4
100
AcDbLine
 10
96.42772618737285
 20
133.7105820683374
 30
0.0
 11
96.42772618737285
 21
136.7105820683374
 31
0.0
  0
LINE
  5
16D
330
1B
100
AcDbEntity
  8
4
100
AcDbLine
 10
102.1277261873729
 20
125.9605820683375
 30
0.0
 11
102.1277261873729
 21
145.2105210683372
 31
0.0
  0
LINE
  5
16E
330
1B
100
AcDbEntity
  8
4
100
AcDbLine
 10
103.1277251873728
 20
125.9605820683374
 30
0.0
 11
103.1277251873728
 21
146.7105210683372
 31
0.0
  0
LINE
  5
16F
330
1B
100
AcDbEntity
  8
4
100
AcDbLine
 10
99.42772618737285
 20
134.2105815683373
 30
0.0
 11
99.42772618737285
 21
109.7105820683374
 31
0.0
  0
LINE
  5
171
330
1B
100
AcDbEntity
  8
4
100
AcDbLine
 10
102.1277261873729
 20
134.2105815683373
 30
0.0
 11
99.42772618737285
 21
134.2105815683373
 31
0.0
  0
LINE
  5
172
330
1B
100
AcDbEntity
  8
4
100
AcDbLine
 10
102.1277261873729
 20
145.2105210683372
 30
0.0
 11
103.1277251873728
 21
145.2105210683372
 31
0.0
  0
LINE
  5
174
330
1B
100
AcDbEntity
  8
4
100
AcDbLine
 10
106.1277251873728
 20
147.7820535683373
 30
0.0
 11
103.1277251873728
 21
146.7105210683372
 31
0.0
  0
LINE
  5
175
330
1B
100
AcDbEntity
  8
L-CENTER
 48
0.5
100
AcDbLine
 10
97.67757568737284
 20
167.6099355683374
 30
0.0
 11
120.158911187373
 21
167.6099355683374
 31
0.0
  0
LINE
  5
176
330
1B
100
AcDbEntity
  8
4
100
AcDbLine
 10
107.127725687373
 20
181.7105205683373
 30
0.0
 11
116.4277256873727
 21
181.7105205683373
 31
0.0
  0
ARC
  5
177
330
1B
100
AcDbEntity
  8
4
100
AcDbCircle
 10
107.127725687373
 20
180.7105215683374
 30
0.0
 40
1.0000005
100
AcDbArc
 50
90.0
 51
180.0
  0
LINE
  5
178
330
1B
100
AcDbEntity
  8
4
100
AcDbLine
 10
139.9277261873729
 20
187.2105210683372
 30
0.0
 11
139.9277261873729
 21
193.2105210683372
 31
0.0
  0
LINE
  5
179
330
1B
100
AcDbEntity
  8
4
100
AcDbLine
 10
146.177725187373
 20
189.2105205683373
 30
0.0
 11
146.177725187373
 21
193.2105210683372
 31
0.0
  0
LINE
  5
17A
330
1B
100
AcDbEntity
  8
4
100
AcDbLine
 10
140.927725187373
 20
185.7105210683372
 30
0.0
 11
140.927725187373
 21
187.2105210683372
 31
0.0
  0
LINE
  5
17B
330
1B
100
AcDbEntity
  8
4
100
AcDbLine
 10
138.4277261873729
 20
184.4654040683373
 30
0.0
 11
138.4277261873729
 21
185.7105210683372
 31
0.0
  0
LINE
  5
19E
330
1B
100
AcDbEntity
  8
L-CENTER
 48
0.5
100
AcDbLine
 10
152.4277256873727
 20
195.8997152922269
 30
0.0
 11
152.4277256873727
 21
12.05009106833734
 31
0.0
  0
LINE
  5
19F
330
1B
100
AcDbEntity
  8
4
100
AcDbLine
 10
198.4277261873729
 20
131.7105210683372
 30
0.0
 11
198.4277261873729
 21
75.71076456833737
 31
0.0
  0
LINE
  5
1A0
330
1B
100
AcDbEntity
  8
4
100
AcDbLine
 10
199.427725187373
 20
119.7105210683372
 30
0.0
 11
199.427725187373
 21
87.71076456833737
 31
0.0
  0
LINE
  5
1A4
330
1B
100
AcDbEntity
  8
4
100
AcDbLine
 10
190.427725187373
 20
29.71058256833737
 30
0.0
 11
215.4277256873727
 21
29.71058256833737
 31
0.0
  0
ARC
  5
1A5
330
1B
100
AcDbEntity
  8
4
100
AcDbCircle
 10
152.4277256873727
 20
66.71058156833726
 30
0.0
 40
44.999979
100
AcDbArc
 50
322.3416069999988
 51
0.0000590031100945
  0
LINE
  5
1A6
330
1B
100
AcDbEntity
  8
4
100
AcDbLine
 10
207.9277256873727
 20
16.71058206833743
 30
0.0
 11
207.9277256873727
 21
29.71058256833737
 31
0.0
  0
LINE
  5
1A7
330
1B
100
AcDbEntity
  8
4
100
AcDbLine
 10
196.9277261873729
 20
29.71058256833737
 30
0.0
 11
196.9277261873729
 21
16.71058206833743
 31
0.0
  0
ARC
  5
1A8
330
1B
100
AcDbEntity
  8
4
100
AcDbCircle
 10
193.4379791873728
 20
25.60612056833736
 30
0.0
 40
1.647102
100
AcDbArc
 50
114.0185739999967
 51
221.6912449999971
  0
ARC
  5
1A9
330
1B
100
AcDbEntity
  8
4
100
AcDbCircle
 10
193.4379791873728
 20
25.60612056833736
 30
0.0
 40
1.647102
100
AcDbArc
 50
114.0185739999967
 51
221.6912449999971
  0
LINE
  5
1AA
330
1B
100
AcDbEntity
  8
L-CENTER
 48
0.5
100
AcDbLine
 10
202.427725187373
 20
36.71058256833737
 30
0.0
 11
202.427725187373
 21
9.71058206833743
 31
0.0
  0
ARC
  5
1AB
330
1B
100
AcDbEntity
  8
4
100
AcDbCircle
 10
190.9780181873728
 20
23.41504956833739
 30
0.0
 40
1.647102
100
AcDbArc
 50
294.0185280000012
 51
41.69124200000024
  0
ARC
  5
1AC
330
1B
100
AcDbEntity
  8
4
100
AcDbCircle
 10
192.3190826873729
 20
20.4061245683373
 30
0.0
 40
1.6471005
100
AcDbArc
 50
114.0185420000001
 51
221.6912680000005
  0
ARC
  5
1AD
330
1B
100
AcDbEntity
  8
4
100
AcDbCircle
 10
189.8591216873729
 20
18.21503856833738
 30
0.0
 40
1.647102
100
AcDbArc
 50
294.0185280000012
 51
41.69121900000258
  0
ARC
  5
1AE
330
1B
100
AcDbEntity
  8
4
100
AcDbCircle
 10
189.8591216873729
 20
18.21503856833738
 30
0.0
 40
1.647102
100
AcDbArc
 50
294.0185280000012
 51
41.69121900000258
  0
ARC
  5
1AF
330
1B
100
AcDbEntity
  8
4
100
AcDbCircle
 10
192.3190826873729
 20
20.4061245683373
 30
0.0
 40
1.6471005
100
AcDbArc
 50
114.0185420000001
 51
221.6912680000005
  0
ARC
  5
1B0
330
1B
100
AcDbEntity
  8
4
100
AcDbCircle
 10
190.9780181873728
 20
23.41504956833739
 30
0.0
 40
1.647102
100
AcDbArc
 50
294.0185280000012
 51
41.69124200000024
  0
ARC
  5
1B2
330
1B
100
AcDbEntity
  8
4
100
AcDbCircle
 10
190.427725187373
 20
32.71058256833737
 30
0.0
 40
3.0
100
AcDbArc
 50
180.0
 51
270.0
  0
LINE
  5
1B3
330
1B
100
AcDbEntity
  8
4
100
AcDbLine
 10
187.427725187373
 20
37.38482256833743
 30
0.0
 11
187.427725187373
 21
32.71058256833737
 31
0.0
  0
ARC
  5
1B4
330
1B
100
AcDbEntity
  8
4
100
AcDbCircle
 10
190.427725187373
 20
37.38482256833743
 30
0.0
 40
2.9999985
100
AcDbArc
 50
142.3415950000032
 51
180.0
  0
ARC
  5
1B5
330
1B
100
AcDbEntity
  8
4
100
AcDbCircle
 10
192.0969146873729
 20
28.61504706833728
 30
0.0
 40
1.647102
100
AcDbArc
 50
294.0185280000012
 51
41.69121900000258
  0
ARC
  5
1B6
330
1B
100
AcDbEntity
  8
4
100
AcDbCircle
 10
192.0969146873729
 20
28.61504706833728
 30
0.0
 40
1.647102
100
AcDbArc
 50
294.0185280000012
 51
41.69121900000258
  0
LINE
  5
1B7
330
1B
100
AcDbEntity
  8
4
100
AcDbLine
 10
163.2531641873727
 20
60.46058256833737
 30
0.0
 11
163.2531641873727
 21
72.96058206833743
 31
0.0
  0
LINE
  5
1B8
330
1B
100
AcDbEntity
  8
4
100
AcDbLine
 10
152.4277256873727
 20
54.21056706833724
 30
0.0
 11
163.2531641873727
 21
60.46058256833737
 31
0.0
  0
LINE
  5
1B9
330
1B
100
AcDbEntity
  8
4
100
AcDbLine
 10
163.2531641873727
 20
72.96058206833743
 30
0.0
 11
152.4277256873727
 21
79.21058256833737
 31
0.0
  0
ARC
  5
1BA
330
1B
100
AcDbEntity
  8
4
100
AcDbCircle
 10
17.4274811873729
 20
66.71052156833719
 30
0.0
 40
180.000042
100
AcDbArc
 50
0.000018995264471
 51
12.36276899999964
  0
LINE
  5
1BB
330
1B
100
AcDbEntity
  8
4
100
AcDbLine
 10
197.202383687373
 20
75.71076456833737
 30
0.0
 11
198.4277261873729
 21
75.71076456833737
 31
0.0
  0
ARC
  5
1BC
330
1B
100
AcDbEntity
  8
4
100
AcDbCircle
 10
190.3232336873727
 20
104.6063190683373
 30
0.0
 40
2.9999925
100
AcDbArc
 50
12.36285399999996
 51
77.64139199999836
  0
LINE
  5
1BD
330
1B
100
AcDbEntity
  8
4
100
AcDbLine
 10
199.427725187373
 20
87.71076456833737
 30
0.0
 11
198.4277261873729
 21
87.71076456833737
 31
0.0
  0
LINE
  5
1C0
330
1B
100
AcDbEntity
  8
4
100
AcDbLine
 10
199.427725187373
 20
95.87714706833742
 30
0.0
 11
201.4277261873729
 21
96.71052156833719
 31
0.0
  0
TEXT
  5
1C2
330
1B
100
AcDbEntity
  8
3
100
AcDbText
 10
260.2258581813393
 20
16.61536341681746
 30
0.0
 40
4.5
  1
LE0-07
  7
KANJI
 72
     1
 11
272.2258581813393
 21
16.61536341681746
 31
0.0
100
AcDbText
  0
LINE
  5
1C5
330
1B
100
AcDbEntity
  8
4
100
AcDbLine
 10
217.427725187373
 20
16.71058206833743
 30
0.0
 11
217.427725187373
 21
27.71058156833726
 31
0.0
  0
ARC
  5
1C9
330
1B
100
AcDbEntity
  8
4
100
AcDbCircle
 10
215.4277256873727
 20
27.71058156833726
 30
0.0
 40
1.9999995
100
AcDbArc
 50
0.0
 51
90.0
  0
LINE
  5
1D4
330
1B
100
AcDbEntity
  8
4
100
AcDbLine
 10
188.4277256873727
 20
131.7105210683372
 30
0.0
 11
188.4277256873727
 21
183.0872295683372
 31
0.0
  0
LINE
  5
1D5
330
1B
100
AcDbEntity
  8
4
100
AcDbLine
 10
197.4277256873727
 20
180.7105215683374
 30
0.0
 11
197.4277256873727
 21
131.7105210683372
 31
0.0
  0
LINE
  5
1D6
330
1B
100
AcDbEntity
  8
4
100
AcDbLine
 10
201.4277261873729
 20
96.71052156833719
 30
0.0
 11
201.4277261873729
 21
146.7105210683372
 31
0.0
  0
LINE
  5
1D9
330
1B
100
AcDbEntity
  8
4
100
AcDbLine
 10
199.427725187373
 20
119.7105210683372
 30
0.0
 11
198.4277261873729
 21
119.7105210683372
 31
0.0
  0
LINE
  5
1DB
330
1B
100
AcDbEntity
  8
4
100
AcDbLine
 10
197.4277256873727
 20
148.3772685683374
 30
0.0
 11
201.4277261873729
 21
146.7105210683372
 31
0.0
  0
LINE
  5
1DC
330
1B
100
AcDbEntity
  8
4
100
AcDbLine
 10
164.927725187373
 20
187.2105210683372
 30
0.0
 11
164.927725187373
 21
193.2105210683372
 31
0.0
  0
LINE
  5
1DD
330
1B
100
AcDbEntity
  8
4
100
AcDbLine
 10
158.6777261873729
 20
189.2105205683373
 30
0.0
 11
158.6777261873729
 21
193.2105210683372
 31
0.0
  0
LINE
  5
1DE
330
1B
100
AcDbEntity
  8
4
100
AcDbLine
 10
163.9277261873729
 20
185.7105210683372
 30
0.0
 11
163.9277261873729
 21
187.2105210683372
 31
0.0
  0
LINE
  5
1DF
330
1B
100
AcDbEntity
  8
4
100
AcDbLine
 10
166.427725187373
 20
184.4654040683373
 30
0.0
 11
166.427725187373
 21
185.7105210683372
 31
0.0
  0
LINE
  5
1E0
330
1B
100
AcDbEntity
  8
4
100
AcDbLine
 10
196.427725187373
 20
181.7105205683373
 30
0.0
 11
188.4277256873727
 21
181.7105205683373
 31
0.0
  0
ARC
  5
1E1
330
1B
100
AcDbEntity
  8
4
100
AcDbCircle
 10
196.427725187373
 20
180.7105215683374
 30
0.0
 40
1.0000005
100
AcDbArc
 50
0.0
 51
90.0
  0
CIRCLE
  5
1E6
330
1B
100
AcDbEntity
  8
4
100
AcDbCircle
 10
395.3342813679476
 20
103.7105820683374
 30
0.0
 40
16.0000005
  0
ARC
  5
1E8
330
1B
100
AcDbEntity
  8
4
100
AcDbCircle
 10
357.5342813679476
 20
107.7105825683374
 30
0.0
 40
1.0000005
100
AcDbArc
 50
90.0
 51
180.0
  0
LINE
  5
1E9
330
1B
100
AcDbEntity
  8
L-CENTER
 48
0.5
100
AcDbLine
 10
395.3342813679476
 20
136.8096420683372
 30
0.0
 11
395.3342813679476
 21
70.61152206833765
 31
0.0
  0
LINE
  5
1EA
330
1B
100
AcDbEntity
  8
4
100
AcDbLine
 10
366.3342818679475
 20
111.7105815683373
 30
0.0
 11
366.3342818679475
 21
16.71058206833743
 31
0.0
  0
LINE
  5
1EB
330
1B
100
AcDbEntity
  8
4
100
AcDbLine
 10
365.3342813679476
 20
108.7105815683373
 30
0.0
 11
365.3342813679476
 21
24.71058156833726
 31
0.0
  0
ARC
  5
1EC
330
1B
100
AcDbEntity
  8
4
100
AcDbCircle
 10
825.3342818679478
 20
121.7105205683373
 30
0.0
 40
400.0000620000001
100
AcDbArc
 50
171.7792700000006
 51
187.9663670000002
  0
ARC
  5
1ED
330
1B
100
AcDbEntity
  8
4
100
AcDbCircle
 10
273.3342818679475
 20
103.7105055683375
 30
0.0
 40
149.9999805
100
AcDbArc
 50
350.6540379999997
 51
9.346226000000106
  0
ARC
  5
1EE
330
1B
100
AcDbEntity
  8
4
100
AcDbCircle
 10
517.3342808679477
 20
103.7105055683375
 30
0.0
 40
149.9999745
100
AcDbArc
 50
170.6539119999995
 51
189.3460709999987
  0
LINE
  5
1EF
330
1B
100
AcDbEntity
  8
4
100
AcDbLine
 10
376.334281867948
 20
43.49420853584957
 30
0.0
 11
416.334281867948
 21
43.49420853584957
 31
0.0
  0
LINE
  5
1F0
330
1B
100
AcDbEntity
  8
L-CENTER
 48
0.5
100
AcDbLine
 10
362.2352213679478
 20
103.7105820683374
 30
0.0
 11
428.4333413679474
 21
103.7105820683374
 31
0.0
  0
LINE
  5
1F1
330
1B
100
AcDbEntity
  8
4
100
AcDbLine
 10
367.3342808679477
 20
29.71058256833737
 30
0.0
 11
414.3342818679475
 21
29.71058256833737
 31
0.0
  0
LINE
  5
1F2
330
1B
100
AcDbEntity
  8
4
100
AcDbLine
 10
416.3342813679476
 20
16.71058206833743
 30
0.0
 11
366.3342818679475
 21
16.71058206833743
 31
0.0
  0
ARC
  5
1F3
330
1B
100
AcDbEntity
  8
4
100
AcDbCircle
 10
395.3342813679476
 20
225.7107645683374
 30
0.0
 40
150.0000015
100
AcDbArc
 50
260.653636999997
 51
279.346459999999
  0
LINE
  5
1F4
330
1B
100
AcDbEntity
  8
4
100
AcDbLine
 10
376.3342818679478
 20
74.66423156624796
 30
0.0
 11
376.3342818679478
 21
40.42631082087553
 31
0.0
  0
LINE
  5
1F6
330
1B
100
AcDbEntity
  8
4
100
AcDbLine
 10
356.5342808679477
 20
107.7105825683374
 30
0.0
 11
356.5342808679477
 21
25.71058206833743
 31
0.0
  0
ARC
  5
1F9
330
1B
100
AcDbEntity
  8
4
100
AcDbCircle
 10
357.5342813679476
 20
25.71058206833743
 30
0.0
 40
1.0000005
100
AcDbArc
 50
180.0
 51
270.0
  0
LINE
  5
1FA
330
1B
100
AcDbEntity
  8
4
100
AcDbLine
 10
366.3342818679475
 20
28.71058206833743
 30
0.0
 11
366.3342818679475
 21
16.71058206833743
 31
0.0
  0
LINE
  5
1FB
330
1B
100
AcDbEntity
  8
L-CENTER
 48
0.5
100
AcDbLine
 10
382.8342818679475
 20
36.71058256833737
 30
0.0
 11
382.8342818679475
 21
9.71058206833743
 31
0.0
  0
LINE
  5
1FC
330
1B
100
AcDbEntity
  8
4
100
AcDbLine
 10
357.5342813679476
 20
24.71058156833726
 30
0.0
 11
365.3342813679476
 21
24.71058156833726
 31
0.0
  0
LINE
  5
1FD
330
1B
100
AcDbEntity
  8
4
100
AcDbLine
 10
366.3342818679475
 20
24.71058156833726
 30
0.0
 11
365.3342813679476
 21
24.71058156833726
 31
0.0
  0
LINE
  5
1FE
330
1B
100
AcDbEntity
  8
4
100
AcDbLine
 10
366.3342818679478
 20
38.42631082087553
 30
0.0
 11
374.3342818679478
 21
38.42631082087553
 31
0.0
  0
ARC
  5
1FF
330
1B
100
AcDbEntity
  8
4
100
AcDbCircle
 10
367.3342808679477
 20
28.71058206833743
 30
0.0
 40
1.0000005
100
AcDbArc
 50
90.0
 51
180.0
  0
ARC
  5
200
330
1B
100
AcDbEntity
  8
4
100
AcDbCircle
 10
374.3342818679478
 20
40.42631082087553
 30
0.0
 40
2.0
100
AcDbArc
 50
270.0
 51
0.0
  0
LINE
  5
201
330
1B
100
AcDbEntity
  8
4
100
AcDbLine
 10
349.0342818679476
 20
54.21058206833743
 30
0.0
 11
356.0342808679477
 21
54.21058206833743
 31
0.0
  0
LINE
  5
202
330
1B
100
AcDbEntity
  8
4
100
AcDbLine
 10
356.0342808679477
 20
79.21058256833737
 30
0.0
 11
349.0342818679476
 21
79.21058256833737
 31
0.0
  0
LINE
  5
203
330
1B
100
AcDbEntity
  8
4
100
AcDbLine
 10
354.0342813679476
 20
60.46059756833722
 30
0.0
 11
349.0342818679476
 21
60.46059756833722
 31
0.0
  0
LINE
  5
204
330
1B
100
AcDbEntity
  8
4
100
AcDbLine
 10
354.0342813679476
 20
72.96058206833743
 30
0.0
 11
349.0342818679476
 21
72.96058206833743
 31
0.0
  0
LINE
  5
205
330
1B
100
AcDbEntity
  8
L-CENTER
 48
0.5
100
AcDbLine
 10
348.9270773906726
 20
91.45954506833743
 30
0.0
 11
370.4348678679476
 21
91.45954506833743
 31
0.0
  0
LINE
  5
207
330
1B
100
AcDbEntity
  8
4
100
AcDbLine
 10
349.0342818679476
 20
54.21058206833743
 30
0.0
 11
349.0342818679476
 21
79.21058256833737
 31
0.0
  0
LINE
  5
20C
330
1B
100
AcDbEntity
  8
4
100
AcDbLine
 10
354.0342813679476
 20
54.21058206833743
 30
0.0
 11
354.0342813679476
 21
79.21058256833737
 31
0.0
  0
LINE
  5
20D
330
1B
100
AcDbEntity
  8
4
100
AcDbLine
 10
356.0342808679477
 20
54.21058206833743
 30
0.0
 11
356.0342808679477
 21
79.21058256833737
 31
0.0
  0
LINE
  5
20E
330
1B
100
AcDbEntity
  8
4
100
AcDbLine
 10
356.5342808679477
 20
55.21058256833737
 30
0.0
 11
356.0342808679477
 21
55.21058256833737
 31
0.0
  0
LINE
  5
20F
330
1B
100
AcDbEntity
  8
4
100
AcDbLine
 10
356.5342808679477
 20
78.21058206833743
 30
0.0
 11
356.0342808679477
 21
78.21058206833743
 31
0.0
  0
ARC
  5
210
330
1B
100
AcDbEntity
  8
4
100
AcDbCircle
 10
378.3342818679478
 20
74.66423156624796
 30
0.0
 40
2.0
100
AcDbArc
 50
83.5784842199203
 51
180.0
  0
ARC
  5
211
330
1B
100
AcDbEntity
  8
4
100
AcDbCircle
 10
371.2988798679476
 20
79.67547156833734
 30
0.0
 40
1.9999695
100
AcDbArc
 50
189.3464890000005
 51
260.6564699999993
  0
LINE
  5
212
330
1B
100
AcDbEntity
  8
4
100
AcDbLine
 10
418.334281867948
 20
75.79337198526014
 30
0.0
 11
418.334281867948
 21
45.49420853584957
 31
0.0
  0
ARC
  5
213
330
1B
100
AcDbEntity
  8
4
100
AcDbCircle
 10
416.334281867948
 20
45.49420853584957
 30
0.0
 40
2.0
100
AcDbArc
 50
270.0
 51
0.0
  0
ARC
  5
214
330
1B
100
AcDbEntity
  8
4
100
AcDbCircle
 10
418.3342808679477
 20
19.71058206833743
 30
0.0
 40
1.9999995
100
AcDbArc
 50
90.0
 51
180.0
  0
LINE
  5
215
330
1B
100
AcDbEntity
  8
4
100
AcDbLine
 10
391.3342808679477
 20
27.71058156833726
 30
0.0
 11
391.3342808679477
 21
16.71058206833743
 31
0.0
  0
LINE
  5
216
330
1B
100
AcDbEntity
  8
4
100
AcDbLine
 10
416.3342813679476
 20
27.71058156833726
 30
0.0
 11
416.3342813679476
 21
16.71058206833743
 31
0.0
  0
ARC
  5
217
330
1B
100
AcDbEntity
  8
4
100
AcDbCircle
 10
389.3342813679476
 20
27.71058156833726
 30
0.0
 40
1.9999995
100
AcDbArc
 50
0.0
 51
90.0
  0
ARC
  5
218
330
1B
100
AcDbEntity
  8
4
100
AcDbCircle
 10
414.3342818679475
 20
27.71058156833726
 30
0.0
 40
1.9999995
100
AcDbArc
 50
0.0
 51
90.0
  0
ARC
  5
21A
330
1B
100
AcDbEntity
  8
4
100
AcDbCircle
 10
431.1751013679475
 20
66.55158606833731
 30
0.0
 40
2.00001
100
AcDbArc
 50
187.9660969999997
 51
262.0290170000009
  0
ARC
  5
21B
330
1B
100
AcDbEntity
  8
4
100
AcDbCircle
 10
420.334281867948
 20
75.79337198526014
 30
0.0
 40
2.0
100
AcDbArc
 50
103.9560951105905
 51
180.0
  0
ARC
  5
21C
330
1B
100
AcDbEntity
  8
4
100
AcDbCircle
 10
419.3696813679476
 20
79.67547156833734
 30
0.0
 40
1.9999695
100
AcDbArc
 50
279.3435300000007
 51
350.6535160000004
  0
ARC
  5
21E
330
1B
100
AcDbEntity
  8
4
100
AcDbCircle
 10
395.3342813679476
 20
-18.2894324316627
 30
0.0
 40
150.000009
100
AcDbArc
 50
80.65363600000185
 51
99.34645800000165
  0
LINE
  5
221
330
1B
100
AcDbEntity
  8
4
100
AcDbLine
 10
357.5342813679476
 20
108.7105815683373
 30
0.0
 11
365.3342813679476
 21
108.7105815683373
 31
0.0
  0
LINE
  5
222
330
1B
100
AcDbEntity
  8
4
100
AcDbLine
 10
367.5476603679476
 20
111.7105815683373
 30
0.0
 11
366.3342818679475
 21
111.7105815683373
 31
0.0
  0
LINE
  5
223
330
1B
100
AcDbEntity
  8
4
100
AcDbLine
 10
366.3342818679475
 20
108.7105815683373
 30
0.0
 11
365.3342813679476
 21
108.7105815683373
 31
0.0
  0
ARC
  5
224
330
1B
100
AcDbEntity
  8
4
100
AcDbCircle
 10
371.2991243679476
 20
127.7458605683374
 30
0.0
 40
1.9999635
100
AcDbArc
 50
99.35064099999953
 51
170.6543880000002
  0
LINE
  5
225
330
1B
100
AcDbEntity
  8
4
100
AcDbLine
 10
395.3342813679476
 20
131.7105765683374
 30
0.0
 11
422.5439528679476
 21
131.7105765683374
 31
0.0
  0
ARC
  5
226
330
1B
100
AcDbEntity
  8
4
100
AcDbCircle
 10
422.5439528679476
 20
134.7105765683374
 30
0.0
 40
3.0
100
AcDbArc
 50
270.0
 51
358.1514210000005
  0
ARC
  5
227
330
1B
100
AcDbEntity
  8
4
100
AcDbCircle
 10
419.3694368679476
 20
127.7458605683374
 30
0.0
 40
1.999965
100
AcDbArc
 50
9.345608000000256
 51
80.64935900000015
  0
ARC
  5
228
330
1B
100
AcDbEntity
  8
4
100
AcDbCircle
 10
431.4661178679476
 20
178.9102275683373
 30
0.0
 40
2.000055
100
AcDbArc
 50
97.92833199999855
 51
171.7324029999994
  0
LINE
  5
229
330
1B
100
AcDbEntity
  8
4
100
AcDbLine
 10
172.4277256873729
 20
481.6904915824565
 30
0.0
 11
132.4277256873729
 21
481.6904915824567
 31
0.0
  0
LWPOLYLINE
  5
22A
330
1B
100
AcDbEntity
  8
4
100
AcDbPolyline
 90
        6
 70
     1
 43
0.0
 10
164.9277256873729
 20
409.6904915824568
 10
158.6777256873729
 20
420.5158091297624
 10
146.1777256873729
 20
420.5158091297624
 10
139.9277256873729
 20
409.6904915824568
 10
146.1777256873729
 20
398.8651740351513
 10
158.6777256873729
 20
398.8651740351513
  0
CIRCLE
  5
22B
330
1B
100
AcDbEntity
  8
4
100
AcDbCircle
 10
152.4277256873729
 20
409.6904915824568
 30
0.0
 40
12.5
  0
LINE
  5
22C
330
1B
100
AcDbEntity
  8
4
100
AcDbLine
 10
164.9277251873725
 20
278.3904915824568
 30
0.0
 11
139.9277246873726
 21
278.3904915824568
 31
0.0
  0
LINE
  5
22D
330
1B
100
AcDbEntity
  8
4
100
AcDbLine
 10
164.9277251873725
 20
276.3904920824569
 30
0.0
 11
139.9277246873726
 21
276.3904920824569
 31
0.0
  0
LINE
  5
22E
330
1B
100
AcDbEntity
  8
4
100
AcDbLine
 10
163.2532256873728
 20
271.3904925824569
 30
0.0
 11
141.6022256873728
 21
271.3904925824569
 31
0.0
  0
LINE
  5
22F
330
1B
100
AcDbEntity
  8
4
100
AcDbLine
 10
193.4277256873727
 20
279.8904915824569
 30
0.0
 11
111.4277256873727
 21
279.8904915824568
 31
0.0
  0
LINE
  5
230
330
1B
100
AcDbEntity
  8
4
100
AcDbLine
 10
194.4277256873727
 20
288.3904915824569
 30
0.0
 11
110.4277256873727
 21
288.3904915824569
 31
0.0
  0
CIRCLE
  5
231
330
1B
100
AcDbEntity
  8
4
100
AcDbCircle
 10
152.4277256873729
 20
409.6904915824568
 30
0.0
 40
14.0
  0
LINE
  5
232
330
1B
100
AcDbEntity
  8
L-CENTER
 48
0.5
100
AcDbLine
 10
247.5835571599129
 20
409.6904915824568
 30
0.0
 11
57.27189421483274
 21
409.6904915824568
 31
0.0
  0
LINE
  5
233
330
1B
100
AcDbEntity
  8
4
100
AcDbLine
 10
215.4277256873727
 20
289.6904915824568
 30
0.0
 11
89.42772568737269
 21
289.6904915824568
 31
0.0
  0
LINE
  5
234
330
1B
100
AcDbEntity
  8
L-CENTER
 48
0.5
100
AcDbLine
 10
201.1449500585861
 20
318.6904915824568
 30
0.0
 11
69.12601323906864
 21
318.6904915824568
 31
0.0
  0
LINE
  5
235
330
1B
100
AcDbEntity
  8
4
100
AcDbLine
 10
188.4277256873729
 20
470.6904915824568
 30
0.0
 11
116.4277256873729
 21
470.6904915824568
 31
0.0
  0
LINE
  5
236
330
1B
100
AcDbEntity
  8
4
100
AcDbLine
 10
179.4277256873729
 20
480.6904915824566
 30
0.0
 11
125.4277256873729
 21
480.6904915824566
 31
0.0
  0
LINE
  5
237
330
1B
100
AcDbEntity
  8
4
100
AcDbLine
 10
186.4277256873729
 20
478.6904915824566
 30
0.0
 11
118.4277256873729
 21
478.6904915824566
 31
0.0
  0
LINE
  5
238
330
1B
100
AcDbEntity
  8
4
100
AcDbLine
 10
198.4277256873727
 20
290.6904915824568
 30
0.0
 11
106.4277256873729
 21
290.6904915824568
 31
0.0
  0
LINE
  5
239
330
1B
100
AcDbEntity
  8
4
100
AcDbLine
 10
194.4277256873727
 20
288.6904915824568
 30
0.0
 11
110.4277256873727
 21
288.6904915824568
 31
0.0
  0
LINE
  5
23A
330
1B
100
AcDbEntity
  8
4
100
AcDbLine
 10
188.4277256873729
 20
348.6904915824568
 30
0.0
 11
116.4277256873729
 21
348.6904915824568
 31
0.0
  0
LINE
  5
23D
330
1B
100
AcDbEntity
  8
4
100
AcDbLine
 10
106.1277256873727
 20
350.6904915824568
 30
0.0
 11
106.1277256873725
 21
468.6904915824568
 31
0.0
  0
LINE
  5
23E
330
1B
100
AcDbEntity
  8
4
100
AcDbLine
 10
115.1277256873732
 20
349.6904915824568
 30
0.0
 11
115.1277256873725
 21
469.6904915824568
 31
0.0
  0
LINE
  5
23F
330
1B
100
AcDbEntity
  8
4
100
AcDbLine
 10
116.4277256873729
 20
318.6904915824568
 30
0.0
 11
116.4277256873729
 21
476.6904915824566
 31
0.0
  0
LINE
  5
240
330
1B
100
AcDbEntity
  8
4
100
AcDbLine
 10
115.4277256873729
 20
349.6904915824568
 30
0.0
 11
115.4277256873729
 21
469.6904915824568
 31
0.0
  0
LINE
  5
244
330
1B
100
AcDbEntity
  8
4
100
AcDbLine
 10
106.4277256873729
 20
290.6904915824568
 30
0.0
 11
106.4277256873729
 21
346.6904915824568
 31
0.0
  0
LINE
  5
245
330
1B
100
AcDbEntity
  8
L-CENTER
 48
0.5
100
AcDbLine
 10
102.4277256873727
 20
296.1904915824568
 30
0.0
 11
102.4277256873727
 21
316.1904915824568
 31
0.0
  0
LINE
  5
246
330
1B
100
AcDbEntity
  8
4
100
AcDbLine
 10
87.42772568737269
 20
313.6904915824569
 30
0.0
 11
87.42772568737269
 21
291.6904915824568
 31
0.0
  0
ARC
  5
247
330
1B
100
AcDbEntity
  8
4
100
AcDbCircle
 10
89.42772568737269
 20
291.6904915824568
 30
0.0
 40
2.0
100
AcDbArc
 50
180.0
 51
270.0
  0
LINE
  5
248
330
1B
100
AcDbEntity
  8
4
100
AcDbLine
 10
110.4277256873727
 20
280.8904915824569
 30
0.0
 11
110.4277256873727
 21
288.3904915824569
 31
0.0
  0
ARC
  5
249
330
1B
100
AcDbEntity
  8
4
100
AcDbCircle
 10
111.4277256873727
 20
280.8904915824569
 30
0.0
 40
1.0
100
AcDbArc
 50
180.0
 51
270.0
  0
LINE
  5
24A
330
1B
100
AcDbEntity
  8
4
100
AcDbLine
 10
107.4277256873727
 20
289.6904915824568
 30
0.0
 11
107.4277256873729
 21
290.6904915824568
 31
0.0
  0
LINE
  5
24B
330
1B
100
AcDbEntity
  8
4
100
AcDbLine
 10
110.4277256873727
 20
288.6904915824568
 30
0.0
 11
110.4277256873727
 21
289.6904915824568
 31
0.0
  0
LINE
  5
24C
330
1B
100
AcDbEntity
  8
L-CENTER
 48
0.5
100
AcDbLine
 10
127.6789535431726
 20
269.5797015824568
 30
0.0
 11
127.6789535431726
 21
293.7910785824567
 31
0.0
  0
LINE
  5
24D
330
1B
100
AcDbEntity
  8
4
100
AcDbLine
 10
141.6022256873728
 20
271.3904925824569
 30
0.0
 11
141.6022256873728
 21
276.3904920824569
 31
0.0
  0
LINE
  5
24E
330
1B
100
AcDbEntity
  8
4
100
AcDbLine
 10
140.9277251873725
 20
279.8904915824568
 30
0.0
 11
140.9277251873725
 21
278.3904915824568
 31
0.0
  0
LINE
  5
24F
330
1B
100
AcDbEntity
  8
4
100
AcDbLine
 10
139.9277246873726
 20
278.3904915824568
 30
0.0
 11
139.9277246873726
 21
276.3904920824569
 31
0.0
  0
LINE
  5
250
330
1B
100
AcDbEntity
  8
4
100
AcDbLine
 10
105.4277256873729
 20
302.6904915824568
 30
0.0
 11
105.4277256873729
 21
334.6904915824568
 31
0.0
  0
LINE
  5
251
330
1B
100
AcDbEntity
  8
4
100
AcDbLine
 10
105.4277256873729
 20
329.6904915824566
 30
0.0
 11
99.42772568737323
 21
324.6904915824569
 31
0.0
  0
LINE
  5
252
330
1B
100
AcDbEntity
  8
L-CENTER
 48
0.5
100
AcDbLine
 10
92.42772568737269
 20
306.1904915824568
 30
0.0
 11
112.4277256873727
 21
306.1904915824568
 31
0.0
  0
ARC
  5
253
330
1B
100
AcDbEntity
  8
4
100
AcDbCircle
 10
102.4277256873727
 20
306.1904915824568
 30
0.0
 40
5.5
100
AcDbArc
 50
56.94426884914135
 51
316.6582417727789
  0
LINE
  5
255
330
1B
100
AcDbEntity
  8
4
100
AcDbLine
 10
106.4277256873729
 20
302.6904915824568
 30
0.0
 11
105.4277256873729
 21
302.6904915824568
 31
0.0
  0
LINE
  5
256
330
1B
100
AcDbEntity
  8
4
100
AcDbLine
 10
106.4277256873729
 20
334.6904915824568
 30
0.0
 11
105.4277256873729
 21
334.6904915824568
 31
0.0
  0
LINE
  5
257
330
1B
100
AcDbEntity
  8
4
100
AcDbLine
 10
107.1277256873727
 20
349.6904915824568
 30
0.0
 11
115.1277256873727
 21
349.6904915824568
 31
0.0
  0
LINE
  5
258
330
1B
100
AcDbEntity
  8
4
100
AcDbLine
 10
116.4277256873729
 20
346.6904915824568
 30
0.0
 11
106.4277256873729
 21
346.6904915824568
 31
0.0
  0
ARC
  5
259
330
1B
100
AcDbEntity
  8
4
100
AcDbCircle
 10
107.1277256873727
 20
350.6904915824568
 30
0.0
 40
1.0
100
AcDbArc
 50
180.0
 51
270.0
  0
LINE
  5
25A
330
1B
100
AcDbEntity
  8
4
100
AcDbLine
 10
116.4277256873729
 20
349.6904915824568
 30
0.0
 11
115.4277256873729
 21
349.6904915824568
 31
0.0
  0
LINE
  5
25B
330
1B
100
AcDbEntity
  8
4
100
AcDbLine
 10
87.42772568737291
 20
443.6272414744258
 30
0.0
 11
87.42772568737291
 21
465.6904915824568
 31
0.0
  0
LINE
  5
25C
330
1B
100
AcDbEntity
  8
4
  6
Continuous
100
AcDbLine
 10
92.92772568737291
 20
413.1904915824566
 30
0.0
 11
59.4277256873728
 21
413.1904915824566
 31
0.0
  0
LINE
  5
25D
330
1B
100
AcDbEntity
  8
4
  6
Continuous
100
AcDbLine
 10
92.92772568737291
 20
406.1904915824566
 30
0.0
 11
59.42772568737257
 21
406.1904915824566
 31
0.0
  0
LINE
  5
25E
330
1B
100
AcDbEntity
  8
4
  6
Continuous
100
AcDbLine
 10
98.92772568737291
 20
421.6904915824568
 30
0.0
 11
59.92772568737257
 21
421.6904915824568
 31
0.0
  0
LINE
  5
25F
330
1B
100
AcDbEntity
  8
4
  6
Continuous
100
AcDbLine
 10
98.92772568737291
 20
397.6904915824568
 30
0.0
 11
59.92772568737257
 21
397.6904915824568
 31
0.0
  0
LINE
  5
260
330
1B
100
AcDbEntity
  8
4
100
AcDbLine
 10
59.4277256873728
 20
398.1904915824566
 30
0.0
 11
59.4277256873728
 21
421.1904915824568
 31
0.0
  0
LINE
  5
261
330
1B
100
AcDbEntity
  8
4
100
AcDbLine
 10
59.42772568737257
 20
398.1904915824568
 30
0.0
 11
59.92772568737257
 21
397.6904915824568
 31
0.0
  0
LINE
  5
262
330
1B
100
AcDbEntity
  8
4
100
AcDbLine
 10
59.92772568737257
 20
397.6904915824568
 30
0.0
 11
59.92772568737257
 21
406.1904915824568
 31
0.0
  0
LINE
  5
263
330
1B
100
AcDbEntity
  8
4
100
AcDbLine
 10
59.92772568737257
 20
413.1904915824568
 30
0.0
 11
59.92772568737257
 21
421.6904915824566
 31
0.0
  0
LINE
  5
264
330
1B
100
AcDbEntity
  8
4
100
AcDbLine
 10
59.92772568737257
 20
421.6904915824568
 30
0.0
 11
59.42772568737257
 21
421.1904915824568
 31
0.0
  0
LINE
  5
265
330
1B
100
AcDbEntity
  8
4
100
AcDbLine
 10
102.1277256873727
 20
387.440491582457
 30
0.0
 11
102.1277256873727
 21
431.9404915824567
 31
0.0
  0
ARC
  5
266
330
1B
100
AcDbEntity
  8
4
100
AcDbCircle
 10
92.92772568737291
 20
409.6904915824568
 30
0.0
 40
3.5
100
AcDbArc
 50
270.0
 51
0.0
  0
LINE
  5
267
330
1B
100
AcDbEntity
  8
4
100
AcDbLine
 10
99.42772568737291
 20
397.1904915824566
 30
0.0
 11
99.42772568737291
 21
422.1904915824568
 31
0.0
  0
LINE
  5
268
330
1B
100
AcDbEntity
  8
4
100
AcDbLine
 10
103.1277256873727
 20
387.440491582457
 30
0.0
 11
103.1277256873727
 21
431.9404915824567
 31
0.0
  0
LINE
  5
269
330
1B
100
AcDbEntity
  8
L-CENTER
 48
0.5
100
AcDbLine
 10
97.67757618737278
 20
383.1904915824568
 30
0.0
 11
120.1589116873729
 21
383.1904915824568
 31
0.0
  0
LINE
  5
26A
330
1B
100
AcDbEntity
  8
L-CENTER
 48
0.5
100
AcDbLine
 10
97.67757618737278
 20
356.6904915824568
 30
0.0
 11
120.1589116873729
 21
356.6904915824568
 31
0.0
  0
ARC
  5
26B
330
1B
100
AcDbEntity
  8
4
100
AcDbCircle
 10
98.92772568737291
 20
397.1904915824568
 30
0.0
 40
0.5
100
AcDbArc
 50
0.0
 51
90.0
  0
LINE
  5
26C
330
1B
100
AcDbEntity
  8
4
  6
Continuous
100
AcDbLine
 10
102.1277256873727
 20
397.1904915824566
 30
0.0
 11
99.42772568737291
 21
397.1904915824566
 31
0.0
  0
LINE
  5
26D
330
1B
100
AcDbEntity
  8
L-CENTER
 48
0.5
100
AcDbLine
 10
97.67757618737983
 20
462.6904915824604
 30
0.0
 11
120.1589116873799
 21
462.6904915824573
 31
0.0
  0
LINE
  5
26E
330
1B
100
AcDbEntity
  8
L-CENTER
 48
0.5
100
AcDbLine
 10
97.67757618737619
 20
436.1904915824604
 30
0.0
 11
120.1589116873763
 21
436.1904915824573
 31
0.0
  0
LINE
  5
26F
330
1B
100
AcDbEntity
  8
4
100
AcDbLine
 10
102.1277256873727
 20
430.440491582457
 30
0.0
 11
100.327725687373
 21
431.9404915824567
 31
0.0
  0
ARC
  5
270
330
1B
100
AcDbEntity
  8
4
100
AcDbCircle
 10
98.92772568737291
 20
422.1904915824568
 30
0.0
 40
0.5
100
AcDbArc
 50
270.0
 51
0.0
  0
ARC
  5
271
330
1B
100
AcDbEntity
  8
4
100
AcDbCircle
 10
92.92772568737291
 20
409.6904915824566
 30
0.0
 40
3.5
100
AcDbArc
 50
0.0
 51
90.0
  0
LINE
  5
272
330
1B
100
AcDbEntity
  8
4
  6
Continuous
100
AcDbLine
 10
102.1277256873727
 20
422.1904915824568
 30
0.0
 11
99.42772568737291
 21
422.1904915824568
 31
0.0
  0
ARC
  5
274
330
1B
100
AcDbEntity
  8
4
100
AcDbCircle
 10
102.4277256873727
 20
451.1904915824568
 30
0.0
 40
5.5
100
AcDbArc
 50
47.72209240115978
 51
312.2779075988402
  0
LINE
  5
275
330
1B
100
AcDbEntity
  8
L-CENTER
 48
0.5
100
AcDbLine
 10
92.42772568737269
 20
451.1904915824568
 30
0.0
 11
112.4277256873727
 21
451.1904915824568
 31
0.0
  0
LINE
  5
276
330
1B
100
AcDbEntity
  8
L-CENTER
 48
0.5
100
AcDbLine
 10
102.4277256873727
 20
461.1904915824568
 30
0.0
 11
102.4277256873727
 21
441.1904915824568
 31
0.0
  0
ARC
  5
277
330
1B
100
AcDbEntity
  8
4
100
AcDbCircle
 10
89.42772568737291
 20
443.6272414744258
 30
0.0
 40
2.0
100
AcDbArc
 50
180.0
 51
230.1944289077375
  0
LINE
  5
278
330
1B
100
AcDbEntity
  8
4
100
AcDbLine
 10
106.1277256873725
 20
467.6904915824568
 30
0.0
 11
89.42772568737291
 21
467.6904915824568
 31
0.0
  0
ARC
  5
279
330
1B
100
AcDbEntity
  8
4
100
AcDbCircle
 10
89.42772568737291
 20
465.6904915824568
 30
0.0
 40
2.0
100
AcDbArc
 50
90.0
 51
180.0
  0
ARC
  5
27A
330
1B
100
AcDbEntity
  8
4
100
AcDbCircle
 10
118.4277256873729
 20
476.6904915824566
 30
0.0
 40
2.0
100
AcDbArc
 50
90.0
 51
180.0
  0
LINE
  5
27B
330
1B
100
AcDbEntity
  8
4
100
AcDbLine
 10
107.1277256873725
 20
469.6904915824568
 30
0.0
 11
115.1277256873725
 21
469.6904915824568
 31
0.0
  0
ARC
  5
27C
330
1B
100
AcDbEntity
  8
4
100
AcDbCircle
 10
107.1277256873725
 20
468.6904915824568
 30
0.0
 40
1.0
100
AcDbArc
 50
90.0
 51
180.0
  0
LINE
  5
27D
330
1B
100
AcDbEntity
  8
4
100
AcDbLine
 10
116.4277256873729
 20
469.6904915824568
 30
0.0
 11
115.4277256873729
 21
469.6904915824568
 31
0.0
  0
ARC
  5
27E
330
1B
100
AcDbEntity
  8
4
100
AcDbCircle
 10
123.4277256873729
 20
480.6904915824566
 30
0.0
 40
2.0
100
AcDbArc
 50
270.0
 51
0.0
  0
LINE
  5
27F
330
1B
100
AcDbEntity
  8
4
 48
0.5
100
AcDbLine
 10
132.4277256873729
 20
480.6904915824566
 30
0.0
 11
132.4277256873729
 21
481.6904915824567
 31
0.0
  0
LINE
  5
280
330
1B
100
AcDbEntity
  8
4
100
AcDbLine
 10
188.4277256873727
 20
318.6904915824568
 30
0.0
 11
188.4277256873729
 21
476.6904915824566
 31
0.0
  0
LINE
  5
281
330
1B
100
AcDbEntity
  8
4
100
AcDbLine
 10
197.4277256873729
 20
350.6904915824568
 30
0.0
 11
197.4277256873729
 21
468.6904915824568
 31
0.0
  0
LINE
  5
282
330
1B
100
AcDbEntity
  8
L-CENTER
 48
0.5
100
AcDbLine
 10
152.4277256873727
 20
268.9780329326953
 30
0.0
 11
152.4277256873729
 21
485.1904915824568
 31
0.0
  0
LINE
  5
289
330
1B
100
AcDbEntity
  8
4
100
AcDbLine
 10
198.4277256873727
 20
290.6904915824568
 30
0.0
 11
198.4277256873729
 21
346.6904915824566
 31
0.0
  0
LINE
  5
28A
330
1B
100
AcDbEntity
  8
L-CENTER
 48
0.5
100
AcDbLine
 10
202.4277256873727
 20
296.1904915824568
 30
0.0
 11
202.4277256873727
 21
316.1904915824568
 31
0.0
  0
LINE
  5
28B
330
1B
100
AcDbEntity
  8
L-CENTER
 48
0.5
100
AcDbLine
 10
177.1764978315719
 20
269.5797015824552
 30
0.0
 11
177.1764978315734
 21
293.791078582455
 31
0.0
  0
LINE
  5
28C
330
1B
100
AcDbEntity
  8
4
100
AcDbLine
 10
152.4277256873727
 20
276.3904920824569
 30
0.0
 11
152.4277256873727
 21
271.3904925824569
 31
0.0
  0
LINE
  5
28D
330
1B
100
AcDbEntity
  8
4
100
AcDbLine
 10
163.2532256873728
 20
271.3904925824569
 30
0.0
 11
163.2532256873728
 21
276.3904920824569
 31
0.0
  0
LINE
  5
28E
330
1B
100
AcDbEntity
  8
4
100
AcDbLine
 10
163.9277246873726
 20
279.8904915824568
 30
0.0
 11
163.9277246873726
 21
278.3904915824568
 31
0.0
  0
LINE
  5
28F
330
1B
100
AcDbEntity
  8
4
100
AcDbLine
 10
164.9277251873725
 20
276.3904920824569
 30
0.0
 11
164.9277251873725
 21
278.3904915824568
 31
0.0
  0
LINE
  5
290
330
1B
100
AcDbEntity
  8
4
100
AcDbLine
 10
194.4277256873727
 20
280.8904915824569
 30
0.0
 11
194.4277256873727
 21
288.3904915824569
 31
0.0
  0
ARC
  5
291
330
1B
100
AcDbEntity
  8
4
100
AcDbCircle
 10
193.4277256873729
 20
280.8904915824569
 30
0.0
 40
1.0
100
AcDbArc
 50
270.0
 51
0.0
  0
LINE
  5
292
330
1B
100
AcDbEntity
  8
4
100
AcDbLine
 10
197.4277256873727
 20
289.6904915824568
 30
0.0
 11
197.4277256873727
 21
290.6904915824568
 31
0.0
  0
LINE
  5
293
330
1B
100
AcDbEntity
  8
4
100
AcDbLine
 10
194.4277256873727
 20
288.6904915824568
 30
0.0
 11
194.4277256873727
 21
289.6904915824568
 31
0.0
  0
LINE
  5
294
330
1B
100
AcDbEntity
  8
4
100
AcDbLine
 10
199.4277256873727
 20
302.6904915824568
 30
0.0
 11
199.4277256873729
 21
334.6904915824568
 31
0.0
  0
LINE
  5
295
330
1B
100
AcDbEntity
  8
4
100
AcDbLine
 10
199.4277256873727
 20
329.6904915824565
 30
0.0
 11
216.7080944867016
 21
315.2901842496829
 31
0.0
  0
LINE
  5
296
330
1B
100
AcDbEntity
  8
L-CENTER
 48
0.5
100
AcDbLine
 10
212.4277256873727
 20
306.1904915824568
 30
0.0
 11
192.4277256873727
 21
306.1904915824568
 31
0.0
  0
ARC
  5
297
330
1B
100
AcDbEntity
  8
4
100
AcDbCircle
 10
202.4277256873727
 20
306.1904915824568
 30
0.0
 40
5.5
100
AcDbArc
 50
223.341758227221
 51
123.0557311508514
  0
LINE
  5
298
330
1B
100
AcDbEntity
  8
4
100
AcDbLine
 10
199.4277256873727
 20
302.6904915824568
 30
0.0
 11
198.4277256873727
 21
302.6904915824568
 31
0.0
  0
LINE
  5
29E
330
1B
100
AcDbEntity
  8
4
100
AcDbLine
 10
198.4277256873729
 20
346.6904915824566
 30
0.0
 11
188.4277256873729
 21
346.6904915824568
 31
0.0
  0
LINE
  5
29F
330
1B
100
AcDbEntity
  8
4
100
AcDbLine
 10
188.4277256873729
 20
349.6904915824568
 30
0.0
 11
196.4277256873729
 21
349.6904915824568
 31
0.0
  0
ARC
  5
2A0
330
1B
100
AcDbEntity
  8
4
100
AcDbCircle
 10
196.4277256873729
 20
350.6904915824568
 30
0.0
 40
1.0
100
AcDbArc
 50
270.0
 51
0.0
  0
LINE
  5
2A1
330
1B
100
AcDbEntity
  8
4
100
AcDbLine
 10
199.4277256873729
 20
334.6904915824568
 30
0.0
 11
198.4277256873729
 21
334.6904915824568
 31
0.0
  0
LINE
  5
2A2
330
1B
100
AcDbEntity
  8
4
100
AcDbLine
 10
217.4277256873727
 20
313.7537416904879
 30
0.0
 11
217.4277256873727
 21
291.6904915824568
 31
0.0
  0
ARC
  5
2A3
330
1B
100
AcDbEntity
  8
4
100
AcDbCircle
 10
215.4277256873727
 20
291.6904915824567
 30
0.0
 40
2.0
100
AcDbArc
 50
270.0
 51
0.0
  0
LINE
  5
2AC
330
1B
100
AcDbEntity
  8
4
100
AcDbLine
 10
217.4277256873729
 20
465.6904915824568
 30
0.0
 11
217.4277256873729
 21
443.6272414744255
 31
0.0
  0
LINE
  5
2AD
330
1B
100
AcDbEntity
  8
4
100
AcDbLine
 10
216.7080944867018
 20
442.0907989152308
 30
0.0
 11
202.4277256873729
 21
430.190491582457
 31
0.0
  0
LINE
  5
2AE
330
1B
100
AcDbEntity
  8
4
100
AcDbLine
 10
201.4277256873729
 20
434.0238249157901
 30
0.0
 11
201.4277256873729
 21
385.3571582491234
 31
0.0
  0
LINE
  5
2AF
330
1B
100
AcDbEntity
  8
4
100
AcDbLine
 10
197.4277256873729
 20
383.0238249157901
 30
0.0
 11
200.8123410719884
 21
384.4340813260467
 31
0.0
  0
ARC
  5
2B0
330
1B
100
AcDbEntity
  8
4
100
AcDbCircle
 10
200.4277256873731
 20
385.3571582491234
 30
0.0
 40
1.0
100
AcDbArc
 50
292.6198649480394
 51
0.0
  0
LINE
  5
2B1
330
1B
100
AcDbEntity
  8
4
100
AcDbLine
 10
197.4277256873731
 20
436.3571582491234
 30
0.0
 11
200.8123410719884
 21
434.946901838867
 31
0.0
  0
ARC
  5
2B2
330
1B
100
AcDbEntity
  8
4
100
AcDbCircle
 10
200.4277256873731
 20
434.0238249157899
 30
0.0
 40
1.0
100
AcDbArc
 50
0.0
 51
67.38013505196058
  0
ARC
  5
2B3
330
1B
100
AcDbEntity
  8
4
100
AcDbCircle
 10
202.4277256873727
 20
451.1904915824568
 30
0.0
 40
5.5
100
AcDbArc
 50
204.6199773286604
 51
155.3800226713396
  0
LINE
  5
2B4
330
1B
100
AcDbEntity
  8
L-CENTER
 48
0.5
100
AcDbLine
 10
212.4277256873727
 20
451.1904915824568
 30
0.0
 11
192.4277256873727
 21
451.1904915824568
 31
0.0
  0
LINE
  5
2B5
330
1B
100
AcDbEntity
  8
L-CENTER
 48
0.5
100
AcDbLine
 10
202.4277256873727
 20
461.1904915824568
 30
0.0
 11
202.4277256873727
 21
441.1904915824568
 31
0.0
  0
ARC
  5
2B6
330
1B
100
AcDbEntity
  8
4
100
AcDbCircle
 10
215.4277256873729
 20
443.6272414744255
 30
0.0
 40
2.0
100
AcDbArc
 50
309.8055710922625
 51
0.0
  0
LINE
  5
2B7
330
1B
100
AcDbEntity
  8
4
100
AcDbLine
 10
215.4277256873729
 20
467.6904915824568
 30
0.0
 11
197.4277256873729
 21
467.6904915824568
 31
0.0
  0
LINE
  5
2B8
330
1B
100
AcDbEntity
  8
4
 48
0.5
100
AcDbLine
 10
172.4277256873729
 20
480.6904915824567
 30
0.0
 11
172.4277256873729
 21
481.6904915824567
 31
0.0
  0
ARC
  5
2B9
330
1B
100
AcDbEntity
  8
4
100
AcDbCircle
 10
181.4277256873729
 20
480.6904915824566
 30
0.0
 40
2.0
100
AcDbArc
 50
180.0
 51
270.0
  0
ARC
  5
2BA
330
1B
100
AcDbEntity
  8
4
100
AcDbCircle
 10
186.4277256873729
 20
476.6904915824566
 30
0.0
 40
2.0
100
AcDbArc
 50
0.0
 51
90.0
  0
LINE
  5
2BB
330
1B
100
AcDbEntity
  8
4
100
AcDbLine
 10
188.4277256873729
 20
469.6904915824568
 30
0.0
 11
196.4277256873729
 21
469.6904915824568
 31
0.0
  0
LINE
  5
2BC
330
1B
100
AcDbEntity
  8
4
100
AcDbLine
 10
188.4277256873729
 20
476.4823101298496
 30
0.0
 11
188.4277256873729
 21
476.6904915824566
 31
0.0
  0
ARC
  5
2BD
330
1B
100
AcDbEntity
  8
4
100
AcDbCircle
 10
196.4277256873729
 20
468.6904915824568
 30
0.0
 40
1.0
100
AcDbArc
 50
0.0
 51
90.0
  0
ARC
  5
2BE
330
1B
100
AcDbEntity
  8
4
100
AcDbCircle
 10
215.4277256873729
 20
465.6904915824568
 30
0.0
 40
2.0
100
AcDbArc
 50
0.0
 51
90.0
  0
ARC
  5
2D5
330
1B
100
AcDbEntity
  8
4
100
AcDbCircle
 10
311.3342818679478
 20
121.7105820683373
 30
0.0
 40
200.0
100
AcDbArc
 50
353.6798471944809
 51
6.320152805519088
  0
ARC
  5
2D6
330
1B
100
AcDbEntity
  8
4
100
AcDbCircle
 10
311.3342818679478
 20
121.7105820683373
 30
0.0
 40
202.5
100
AcDbArc
 50
353.1101662445038
 51
6.889833755496242
  0
ARC
  5
2D7
330
1B
100
AcDbEntity
  8
4
100
AcDbCircle
 10
661.3342818679475
 20
121.7105820683373
 30
0.0
 40
200.0
100
AcDbArc
 50
173.6798471944809
 51
186.3201528055191
  0
ARC
  5
2D8
330
1B
100
AcDbEntity
  8
4
100
AcDbCircle
 10
661.3342818679475
 20
121.7105820683373
 30
0.0
 40
202.5
100
AcDbArc
 50
173.1101662445037
 51
186.8898337554963
  0
LINE
  5
2D9
330
1B
100
AcDbEntity
  8
L-CENTER
 48
0.5
100
AcDbLine
 10
486.3342818679475
 20
194.9853913417456
 30
0.0
 11
486.3342818679475
 21
18.82180559676533
 31
0.0
  0
ARC
  5
2DA
330
1B
100
AcDbEntity
  8
4
100
AcDbCircle
 10
147.3342818679478
 20
121.7105205683373
 30
0.0
 40
399.999993
100
AcDbArc
 50
353.3632800000011
 51
8.220873999999423
  0
ARC
  5
2DB
330
1B
100
AcDbEntity
  8
4
100
AcDbCircle
 10
510.3863997322001
 20
97.65846420408548
 30
0.0
 40
2.0
100
AcDbArc
 50
276.889833755493
 51
353.1101662445039
  0
LINE
  5
2DC
330
1B
100
AcDbEntity
  8
4
100
AcDbLine
 10
496.3342808679477
 20
29.71058256833737
 30
0.0
 11
543.3342818679475
 21
29.71058256833737
 31
0.0
  0
LINE
  5
2DD
330
1B
100
AcDbEntity
  8
4
100
AcDbLine
 10
544.3342808679477
 20
16.71058206833743
 30
0.0
 11
494.3342813679476
 21
16.71058206833743
 31
0.0
  0
LINE
  5
2DE
330
1B
100
AcDbEntity
  8
2
100
AcDbLine
 10
481.3342808679477
 20
35.4557760683374
 30
0.0
 11
478.0907843679477
 21
33.58309206833735
 31
0.0
  0
LINE
  5
2DF
330
1B
100
AcDbEntity
  8
2
100
AcDbLine
 10
478.0907843679477
 20
29.8380720683374
 30
0.0
 11
481.3342808679477
 21
27.96538806833735
 31
0.0
  0
CIRCLE
  5
2E0
330
1B
100
AcDbEntity
  8
4
100
AcDbCircle
 10
481.3342808679477
 20
31.71058206833743
 30
0.0
 40
5.899901499999999
  0
CIRCLE
  5
2E1
330
1B
100
AcDbEntity
  8
2
100
AcDbCircle
 10
481.3342808679477
 20
31.71058206833743
 30
0.0
 40
4.899901499999999
  0
LINE
  5
2E2
330
1B
100
AcDbEntity
  8
L-CENTER
 48
0.5
100
AcDbLine
 10
493.8271855727712
 20
31.71058206833743
 30
0.0
 11
468.8413761631241
 21
31.71058206833743
 31
0.0
  0
ARC
  5
2E3
330
1B
100
AcDbEntity
  8
4
100
AcDbCircle
 10
481.3342808679477
 20
31.71058206833743
 30
0.0
 40
10.0000005
100
AcDbArc
 50
0.0
 51
180.0000860025989
  0
LINE
  5
2E4
330
1B
100
AcDbEntity
  8
4
100
AcDbLine
 10
471.3342818679475
 20
31.71058206833743
 30
0.0
 11
471.3342818679475
 21
21.71058156833726
 31
0.0
  0
LINE
  5
2E5
330
1B
100
AcDbEntity
  8
2
100
AcDbLine
 10
478.0907843679477
 20
33.58309206833735
 30
0.0
 11
478.0907843679477
 21
29.8380720683374
 31
0.0
  0
LINE
  5
2E6
330
1B
100
AcDbEntity
  8
4
100
AcDbLine
 10
491.3342813679476
 20
31.71058206833743
 30
0.0
 11
491.3342813679476
 21
21.71058156833726
 31
0.0
  0
LINE
  5
2E7
330
1B
100
AcDbEntity
  8
L-CENTER
 48
0.5
100
AcDbLine
 10
481.3342808679477
 20
44.20348677316099
 30
0.0
 11
481.3342808679477
 21
19.21767736351387
 31
0.0
  0
LINE
  5
2E8
330
1B
100
AcDbEntity
  8
4
100
AcDbLine
 10
494.3342813679476
 20
27.71058156833726
 30
0.0
 11
494.3342813679476
 21
16.71058206833743
 31
0.0
  0
ARC
  5
2E9
330
1B
100
AcDbEntity
  8
4
100
AcDbCircle
 10
492.3342818679475
 20
19.71058206833743
 30
0.0
 40
1.9999995
100
AcDbArc
 50
0.0
 51
90.0
  0
LINE
  5
2EA
330
1B
100
AcDbEntity
  8
2
100
AcDbLine
 10
484.5777773679476
 20
29.8380720683374
 30
0.0
 11
481.3342808679477
 21
27.96538806833735
 31
0.0
  0
LINE
  5
2EB
330
1B
100
AcDbEntity
  8
2
100
AcDbLine
 10
484.5777773679476
 20
33.58309206833735
 30
0.0
 11
484.5777773679476
 21
29.8380720683374
 31
0.0
  0
LINE
  5
2EC
330
1B
100
AcDbEntity
  8
2
100
AcDbLine
 10
481.3342808679477
 20
35.4557760683374
 30
0.0
 11
484.5777773679476
 21
33.58309206833735
 31
0.0
  0
ARC
  5
2ED
330
1B
100
AcDbEntity
  8
4
100
AcDbCircle
 10
496.3342808679477
 20
27.71058156833726
 30
0.0
 40
1.9999995
100
AcDbArc
 50
90.0
 51
180.0
  0
ARC
  5
2EE
330
1B
100
AcDbEntity
  8
4
100
AcDbCircle
 10
486.3342818679475
 20
296.7105820683375
 30
0.0
 40
200.0
100
AcDbArc
 50
263.6798471944816
 51
276.3201528055184
  0
ARC
  5
2EF
330
1B
100
AcDbEntity
  8
4
100
AcDbCircle
 10
486.3342818679475
 20
296.7105820683375
 30
0.0
 40
202.5
100
AcDbArc
 50
263.110166244507
 51
276.889833755493
  0
ARC
  5
2F0
330
1B
100
AcDbEntity
  8
4
100
AcDbCircle
 10
462.2821640036955
 20
97.65846420408536
 30
0.0
 40
2.0
100
AcDbArc
 50
186.8898337554961
 51
263.1101662445004
  0
ARC
  5
2F1
330
1B
100
AcDbEntity
  8
4
100
AcDbCircle
 10
464.5376670987791
 20
99.91396729916914
 30
0.0
 40
2.0
100
AcDbArc
 50
186.3201528055183
 51
263.6798471944816
  0
ARC
  5
2F2
330
1B
100
AcDbEntity
  8
4
100
AcDbCircle
 10
508.1308966371162
 20
99.91396729916914
 30
0.0
 40
2.0
100
AcDbArc
 50
276.3201528055184
 51
353.6798471944817
  0
LINE
  5
2F3
330
1B
100
AcDbEntity
  8
4
100
AcDbLine
 10
555.3342818679475
 20
30.71058156833726
 30
0.0
 11
555.3342818679475
 21
102.7105815683373
 31
0.0
  0
LINE
  5
2F4
330
1B
100
AcDbEntity
  8
4
100
AcDbLine
 10
557.3342813679476
 20
93.71058156833726
 30
0.0
 11
557.3342813679476
 21
39.71058156833726
 31
0.0
  0
LINE
  5
2F5
330
1B
100
AcDbEntity
  8
4
100
AcDbLine
 10
558.3342818679475
 20
86.71058256833737
 30
0.0
 11
558.3342818679475
 21
46.71058206833743
 31
0.0
  0
LINE
  5
2F6
330
1B
100
AcDbEntity
  8
4
100
AcDbLine
 10
544.3342808679477
 20
57.71058156833726
 30
0.0
 11
544.3342808679477
 21
28.71058206833743
 31
0.0
  0
LINE
  5
2F7
330
1B
100
AcDbEntity
  8
4
100
AcDbLine
 10
544.3342808679477
 20
30.71058156833726
 30
0.0
 11
555.3342818679475
 21
30.71058156833726
 31
0.0
  0
ARC
  5
2F8
330
1B
100
AcDbEntity
  8
4
100
AcDbCircle
 10
543.3342818679475
 20
28.71058206833743
 30
0.0
 40
1.0000005
100
AcDbArc
 50
0.0
 51
90.0
  0
LINE
  5
2F9
330
1B
100
AcDbEntity
  8
4
100
AcDbLine
 10
519.3342818679475
 20
27.71058156833726
 30
0.0
 11
519.3342818679475
 21
16.71058206833743
 31
0.0
  0
LINE
  5
2FA
330
1B
100
AcDbEntity
  8
4
100
AcDbLine
 10
544.3342808679477
 20
28.71058206833743
 30
0.0
 11
544.3342808679477
 21
16.71058206833743
 31
0.0
  0
LINE
  5
2FB
330
1B
100
AcDbEntity
  8
L-CENTER
 48
0.5
100
AcDbLine
 10
527.8342808679477
 20
36.71058256833737
 30
0.0
 11
527.8342808679477
 21
9.71058206833743
 31
0.0
  0
ARC
  5
2FC
330
1B
100
AcDbEntity
  8
4
100
AcDbCircle
 10
521.3342813679476
 20
27.71058156833726
 30
0.0
 40
1.9999995
100
AcDbArc
 50
90.0
 51
180.0
  0
LINE
  5
2FD
330
1B
100
AcDbEntity
  8
4
100
AcDbLine
 10
555.3342818679475
 20
39.71058156833726
 30
0.0
 11
557.3342813679476
 21
39.71058156833726
 31
0.0
  0
LINE
  5
2FE
330
1B
100
AcDbEntity
  8
4
100
AcDbLine
 10
557.3342813679476
 20
46.71058206833743
 30
0.0
 11
558.3342818679475
 21
46.71058206833743
 31
0.0
  0
ARC
  5
2FF
330
1B
100
AcDbEntity
  8
4
100
AcDbCircle
 10
542.6670443679475
 20
75.71058156833726
 30
0.0
 40
1.9999875
100
AcDbArc
 50
270.0
 51
353.3629849999997
  0
ARC
  5
300
330
1B
100
AcDbEntity
  8
4
100
AcDbCircle
 10
542.3342813679476
 20
57.71058156833726
 30
0.0
 40
1.9999995
100
AcDbArc
 50
0.0
 51
90.0
  0
LINE
  5
301
330
1B
100
AcDbEntity
  8
4
100
AcDbLine
 10
534.3342818679475
 20
61.71058206833743
 30
0.0
 11
534.3342818679475
 21
71.71058256833737
 31
0.0
  0
LINE
  5
302
330
1B
100
AcDbEntity
  8
4
100
AcDbLine
 10
536.3342813679476
 20
59.71058256833737
 30
0.0
 11
542.3342813679476
 21
59.71058256833737
 31
0.0
  0
ARC
  5
303
330
1B
100
AcDbEntity
  8
4
100
AcDbCircle
 10
532.3342808679477
 20
61.3512825683373
 30
0.0
 40
2.0000025
100
AcDbArc
 50
0.0
 51
96.5678529999978
  0
ARC
  5
304
330
1B
100
AcDbEntity
  8
4
100
AcDbCircle
 10
536.3342813679476
 20
61.71058206833743
 30
0.0
 40
1.9999995
100
AcDbArc
 50
180.0
 51
270.0
  0
LINE
  5
305
330
1B
100
AcDbEntity
  8
4
100
AcDbLine
 10
542.6670443679475
 20
73.71058206833743
 30
0.0
 11
536.3342813679476
 21
73.71058206833743
 31
0.0
  0
ARC
  5
306
330
1B
100
AcDbEntity
  8
4
100
AcDbCircle
 10
536.3342813679476
 20
71.71058256833737
 30
0.0
 40
1.9999995
100
AcDbArc
 50
90.0
 51
180.0
  0
LINE
  5
307
330
1B
100
AcDbEntity
  8
4
100
AcDbLine
 10
555.3342818679475
 20
93.71058156833726
 30
0.0
 11
557.3342813679476
 21
93.71058156833726
 31
0.0
  0
LINE
  5
308
330
1B
100
AcDbEntity
  8
4
100
AcDbLine
 10
557.3342813679476
 20
86.71058256833737
 30
0.0
 11
558.3342818679475
 21
86.71058256833737
 31
0.0
  0
LINE
  5
309
330
1B
100
AcDbEntity
  8
4
100
AcDbLine
 10
546.8828648679475
 20
102.7105815683373
 30
0.0
 11
555.3342818679475
 21
102.7105815683373
 31
0.0
  0
ARC
  5
30A
330
1B
100
AcDbEntity
  8
4
100
AcDbCircle
 10
515.8587302842682
 20
141.7105820683373
 30
0.0
 40
3.0
100
AcDbArc
 50
90.0
 51
185.5850722192023
  0
ARC
  5
30B
330
1B
100
AcDbEntity
  8
4
100
AcDbCircle
 10
510.3863997321998
 20
145.7626999325895
 30
0.0
 40
2.0
100
AcDbArc
 50
6.889833755496136
 51
83.11016624450703
  0
ARC
  5
30D
330
1B
100
AcDbEntity
  8
4
100
AcDbCircle
 10
497.3342818679475
 20
159.7105820683373
 30
0.0
 40
4.0
100
AcDbArc
 50
0.0
 51
180.0
  0
LINE
  5
30E
330
1B
100
AcDbEntity
  8
4
100
AcDbLine
 10
482.3342818679475
 20
163.7105820683375
 30
0.0
 11
482.3342818679478
 21
151.7105820683375
 31
0.0
  0
LINE
  5
30F
330
1B
100
AcDbEntity
  8
4
100
AcDbLine
 10
490.3342818679475
 20
163.7105820683373
 30
0.0
 11
490.3342818679475
 21
161.7105820683375
 31
0.0
  0
LINE
  5
310
330
1B
100
AcDbEntity
  8
4
100
AcDbLine
 10
504.3342818679475
 20
164.1369889395313
 30
0.0
 11
504.3342818679478
 21
151.6624056757405
 31
0.0
  0
LINE
  5
311
330
1B
100
AcDbEntity
  8
4
100
AcDbLine
 10
468.3342818679478
 20
164.1369889395313
 30
0.0
 11
468.3342818679478
 21
151.6624056757405
 31
0.0
  0
LINE
  5
312
330
1B
100
AcDbEntity
  8
4
100
AcDbLine
 10
471.3342818679475
 20
163.7105820683374
 30
0.0
 11
471.3342818679478
 21
151.7105820683374
 31
0.0
  0
LINE
  5
313
330
1B
100
AcDbEntity
  8
4
100
AcDbLine
 10
473.3342818679475
 20
163.7105820683374
 30
0.0
 11
473.3342818679475
 21
153.7105820683374
 31
0.0
  0
ARC
  5
314
330
1B
100
AcDbEntity
  8
4
100
AcDbCircle
 10
486.3342818679475
 20
-53.28941793166257
 30
0.0
 40
200.0
100
AcDbArc
 50
83.67984719448164
 51
96.32015280551836
  0
ARC
  5
315
330
1B
100
AcDbEntity
  8
4
100
AcDbCircle
 10
486.3342818679475
 20
-53.28941793166257
 30
0.0
 40
202.5
100
AcDbArc
 50
83.11016624450703
 51
96.88983375549297
  0
ARC
  5
316
330
1B
100
AcDbEntity
  8
4
100
AcDbCircle
 10
464.5376670987791
 20
143.5071968375058
 30
0.0
 40
2.0
100
AcDbArc
 50
96.32015280551842
 51
173.6798471944817
  0
ARC
  5
317
330
1B
100
AcDbEntity
  8
4
100
AcDbCircle
 10
462.2821640036955
 20
145.7626999325896
 30
0.0
 40
2.0
100
AcDbArc
 50
96.88983375549299
 51
173.1101662445039
  0
ARC
  5
318
330
1B
100
AcDbEntity
  8
4
100
AcDbCircle
 10
456.8098334516271
 20
141.7105820683373
 30
0.0
 40
3.0
100
AcDbArc
 50
354.4149277807978
 51
90.0
  0
ARC
  5
319
330
1B
100
AcDbEntity
  8
4
100
AcDbCircle
 10
471.3342818679478
 20
151.6624056757405
 30
0.0
 40
3.0
100
AcDbArc
 50
180.0
 51
274.1858963438264
  0
LINE
  5
31A
330
1B
100
AcDbEntity
  8
4
100
AcDbLine
 10
471.3342818679475
 20
151.7105820683374
 30
0.0
 11
479.3342818679475
 21
151.7105820683374
 31
0.0
  0
LINE
  5
31B
330
1B
100
AcDbEntity
  8
4
100
AcDbLine
 10
479.3342818679475
 20
153.7105820683374
 30
0.0
 11
479.3342818679478
 21
151.7105820683375
 31
0.0
  0
LINE
  5
31C
330
1B
100
AcDbEntity
  8
4
100
AcDbLine
 10
473.3342818679475
 20
153.7105820683374
 30
0.0
 11
479.3342818679475
 21
153.7105820683374
 31
0.0
  0
ARC
  5
31D
330
1B
100
AcDbEntity
  8
4
100
AcDbCircle
 10
497.3342818679475
 20
155.7105820683374
 30
0.0
 40
4.0
100
AcDbArc
 50
180.0
 51
0.0
  0
ARC
  5
31E
330
1B
100
AcDbEntity
  8
4
100
AcDbCircle
 10
497.3342818679475
 20
159.7105820683373
 30
0.0
 40
2.0
100
AcDbArc
 50
0.0
 51
180.0
  0
ARC
  5
31F
330
1B
100
AcDbEntity
  8
4
100
AcDbCircle
 10
497.3342818679475
 20
155.7105820683374
 30
0.0
 40
2.0
100
AcDbArc
 50
180.0
 51
0.0
  0
LINE
  5
320
330
1B
100
AcDbEntity
  8
4
100
AcDbLine
 10
482.3342818679475
 20
151.7105820683374
 30
0.0
 11
490.3342818679475
 21
151.7105820683374
 31
0.0
  0
LINE
  5
321
330
1B
100
AcDbEntity
  8
4
100
AcDbLine
 10
484.3342818679475
 20
161.7105820683374
 30
0.0
 11
490.3342818679475
 21
161.7105820683374
 31
0.0
  0
LINE
  5
322
330
1B
100
AcDbEntity
  8
4
100
AcDbLine
 10
484.3342818679475
 20
153.7105820683374
 30
0.0
 11
490.3342818679475
 21
153.7105820683374
 31
0.0
  0
LINE
  5
323
330
1B
100
AcDbEntity
  8
4
100
AcDbLine
 10
484.3342818679475
 20
156.7105820683374
 30
0.0
 11
490.3342818679475
 21
156.7105820683374
 31
0.0
  0
LINE
  5
324
330
1B
100
AcDbEntity
  8
4
100
AcDbLine
 10
484.3342818679475
 20
158.7105820683374
 30
0.0
 11
490.3342818679475
 21
158.7105820683374
 31
0.0
  0
LINE
  5
325
330
1B
100
AcDbEntity
  8
4
100
AcDbLine
 10
484.3342818679475
 20
161.7105820683375
 30
0.0
 11
484.3342818679478
 21
158.7105820683374
 31
0.0
  0
LINE
  5
326
330
1B
100
AcDbEntity
  8
4
100
AcDbLine
 10
484.3342818679478
 20
156.7105820683374
 30
0.0
 11
484.3342818679478
 21
153.7105820683374
 31
0.0
  0
LINE
  5
327
330
1B
100
AcDbEntity
  8
4
100
AcDbLine
 10
493.3342818679475
 20
159.7105820683373
 30
0.0
 11
493.3342818679475
 21
155.7105820683374
 31
0.0
  0
LINE
  5
328
330
1B
100
AcDbEntity
  8
4
100
AcDbLine
 10
495.3342818679475
 20
159.7105820683373
 30
0.0
 11
495.3342818679475
 21
155.7105820683374
 31
0.0
  0
LINE
  5
329
330
1B
100
AcDbEntity
  8
4
100
AcDbLine
 10
490.3342818679475
 20
158.7105820683374
 30
0.0
 11
490.3342818679478
 21
156.7105820683374
 31
0.0
  0
LINE
  5
32A
330
1B
100
AcDbEntity
  8
4
100
AcDbLine
 10
490.3342818679478
 20
153.7105820683374
 30
0.0
 11
490.3342818679478
 21
151.7105820683373
 31
0.0
  0
ARC
  5
32B
330
1B
100
AcDbEntity
  8
4
100
AcDbCircle
 10
501.3342818679478
 20
151.6624056757405
 30
0.0
 40
3.0
100
AcDbArc
 50
265.8141036561736
 51
0.0
  0
ARC
  5
32C
330
1B
100
AcDbEntity
  8
4
100
AcDbCircle
 10
508.1308966371162
 20
143.5071968375058
 30
0.0
 40
2.0
100
AcDbArc
 50
6.320152805518279
 51
83.6798471944816
  0
LINE
  5
32D
330
1B
100
AcDbEntity
  8
4
100
AcDbLine
 10
499.3342818679475
 20
159.7105820683373
 30
0.0
 11
499.3342818679475
 21
155.7105820683374
 31
0.0
  0
LINE
  5
32E
330
1B
100
AcDbEntity
  8
4
100
AcDbLine
 10
501.3342818679475
 20
159.7105820683373
 30
0.0
 11
501.3342818679475
 21
155.7105820683374
 31
0.0
  0
LINE
  5
32F
330
1B
100
AcDbEntity
  8
4
100
AcDbLine
 10
497.1594758679475
 20
193.2105210683372
 30
0.0
 11
475.5088418679477
 21
193.2105210683372
 31
0.0
  0
LINE
  5
330
330
1B
100
AcDbEntity
  8
4
100
AcDbLine
 10
498.8342813679476
 20
189.2105205683373
 30
0.0
 11
473.8342808679477
 21
189.2105205683373
 31
0.0
  0
LINE
  5
331
330
1B
100
AcDbEntity
  8
4
100
AcDbLine
 10
498.8342813679476
 20
187.2105210683372
 30
0.0
 11
473.8342808679477
 21
187.2105210683372
 31
0.0
  0
LINE
  5
332
330
1B
100
AcDbEntity
  8
4
100
AcDbLine
 10
497.8342808679477
 20
185.7105210683372
 30
0.0
 11
474.8342813679476
 21
185.7105210683372
 31
0.0
  0
LINE
  5
333
330
1B
100
AcDbEntity
  8
4
100
AcDbLine
 10
500.3342813679476
 20
185.7105210683372
 30
0.0
 11
472.3342808679477
 21
185.7105210683372
 31
0.0
  0
LINE
  5
334
330
1B
100
AcDbEntity
  8
4
100
AcDbLine
 10
475.5088418679477
 20
189.2105205683373
 30
0.0
 11
475.5088418679477
 21
193.2105210683372
 31
0.0
  0
LINE
  5
335
330
1B
100
AcDbEntity
  8
4
100
AcDbLine
 10
471.3342818679475
 20
163.7105820683374
 30
0.0
 11
473.3342818679475
 21
163.7105820683374
 31
0.0
  0
ARC
  5
336
330
1B
100
AcDbEntity
  8
4
100
AcDbCircle
 10
471.3342818679475
 20
164.1369889395313
 30
0.0
 40
3.0
100
AcDbArc
 50
109.471220634493
 51
180.0
  0
LINE
  5
337
330
1B
100
AcDbEntity
  8
4
100
AcDbLine
 10
472.3342808679477
 20
185.7105210683372
 30
0.0
 11
472.3342808679477
 21
184.4654040683373
 31
0.0
  0
LINE
  5
338
330
1B
100
AcDbEntity
  8
4
100
AcDbLine
 10
473.8342808679477
 20
187.2105210683372
 30
0.0
 11
473.8342808679477
 21
189.2105205683373
 31
0.0
  0
LINE
  5
339
330
1B
100
AcDbEntity
  8
4
100
AcDbLine
 10
474.8342813679476
 20
185.7105210683372
 30
0.0
 11
474.8342813679476
 21
187.2105210683372
 31
0.0
  0
LINE
  5
33A
330
1B
100
AcDbEntity
  8
4
100
AcDbLine
 10
497.1594758679475
 20
189.2105205683373
 30
0.0
 11
497.1594758679475
 21
193.2105210683372
 31
0.0
  0
LINE
  5
33B
330
1B
100
AcDbEntity
  8
4
100
AcDbLine
 10
482.3342818679475
 20
163.7105820683374
 30
0.0
 11
490.3342818679475
 21
163.7105820683374
 31
0.0
  0
ARC
  5
33C
330
1B
100
AcDbEntity
  8
4
100
AcDbCircle
 10
501.3342818679475
 20
164.1369889395313
 30
0.0
 40
3.0
100
AcDbArc
 50
0.0
 51
70.52877936550705
  0
LINE
  5
33D
330
1B
100
AcDbEntity
  8
4
100
AcDbLine
 10
498.8342813679476
 20
187.2105210683372
 30
0.0
 11
498.8342813679476
 21
189.2105205683373
 31
0.0
  0
LINE
  5
33E
330
1B
100
AcDbEntity
  8
4
100
AcDbLine
 10
497.8342808679477
 20
185.7105210683372
 30
0.0
 11
497.8342808679477
 21
187.2105210683372
 31
0.0
  0
LINE
  5
33F
330
1B
100
AcDbEntity
  8
4
100
AcDbLine
 10
500.3342813679476
 20
185.7105210683372
 30
0.0
 11
500.3342813679476
 21
184.4654040683373
 31
0.0
  0
LINE
  5
340
330
1B
100
AcDbEntity
  8
4
100
AcDbLine
 10
528.4650307338295
 20
144.7105820683373
 30
0.0
 11
515.8587302842682
 21
144.7105820683373
 31
0.0
  0
ARC
  5
341
330
1B
100
AcDbEntity
  8
4
100
AcDbCircle
 10
541.2024458679477
 20
178.9102275683373
 30
0.0
 40
2.000055
100
AcDbArc
 50
8.267597000000583
 51
82.07166800000307
  0
LINE
  5
351
330
1B
100
AcDbEntity
  8
4
100
AcDbLine
 10
104.8277251873728
 20
163.3599355683374
 30
0.0
 11
104.8277251873728
 21
171.8599355683375
 31
0.0
  0
LINE
  5
352
330
1B
100
AcDbEntity
  8
4
100
AcDbLine
 10
99.82772518737283
 20
163.3599355683374
 30
0.0
 11
99.82772518737283
 21
171.8599355683375
 31
0.0
  0
LINE
  5
353
330
1B
100
AcDbEntity
  8
4
100
AcDbLine
 10
99.82772518737283
 20
171.8599355683374
 30
0.0
 11
106.1277251873728
 21
171.8599355683374
 31
0.0
  0
LINE
  5
354
330
1B
100
AcDbEntity
  8
4
100
AcDbLine
 10
99.82772518737283
 20
163.3599355683374
 30
0.0
 11
106.1277251873728
 21
163.3599355683374
 31
0.0
  0
LINE
  5
355
330
1B
100
AcDbEntity
  8
2
100
AcDbLine
 10
104.8277251873728
 20
166.3099355683374
 30
0.0
 11
106.1277251873728
 21
167.6099355683374
 31
0.0
  0
LINE
  5
356
330
1B
100
AcDbEntity
  8
2
100
AcDbLine
 10
104.8277251873728
 20
168.1484131994224
 30
0.0
 11
106.1277251873728
 21
169.4484131994224
 31
0.0
  0
LINE
  5
357
330
1B
100
AcDbEntity
  8
4
100
AcDbLine
 10
99.82772518737283
 20
125.9605820683375
 30
0.0
 11
106.1277251873728
 21
125.9605820683375
 31
0.0
  0
LINE
  5
358
330
1B
100
AcDbEntity
  8
4
100
AcDbLine
 10
99.82772518737283
 20
117.4605820683374
 30
0.0
 11
105.4277261873724
 21
117.4605820683374
 31
0.0
  0
LINE
  5
359
330
1B
100
AcDbEntity
  8
4
100
AcDbLine
 10
99.82772518737283
 20
117.4605820683374
 30
0.0
 11
99.82772518737283
 21
125.9605820683375
 31
0.0
  0
LINE
  5
35A
330
1B
100
AcDbEntity
  8
2
100
AcDbLine
 10
104.8277251873728
 20
120.4105820683374
 30
0.0
 11
106.1277251873728
 21
121.7105820683374
 31
0.0
  0
LINE
  5
35B
330
1B
100
AcDbEntity
  8
2
100
AcDbLine
 10
104.8277251873728
 20
122.2490596994224
 30
0.0
 11
106.1277251873728
 21
123.5490596994224
 31
0.0
  0
LINE
  5
35C
330
1B
100
AcDbEntity
  8
4
100
AcDbLine
 10
104.8277251873728
 20
117.4605820683374
 30
0.0
 11
104.8277251873728
 21
125.9605820683375
 31
0.0
  0
LINE
  5
35D
330
1B
100
AcDbEntity
  8
L-CENTER
 48
0.5
100
AcDbLine
 10
97.67757568737284
 20
75.81122856833747
 30
0.0
 11
120.158911187373
 21
75.81122856833747
 31
0.0
  0
LINE
  5
35E
330
1B
100
AcDbEntity
  8
4
100
AcDbLine
 10
99.82772518737283
 20
71.56122856833741
 30
0.0
 11
106.1277251873728
 21
71.56122856833741
 31
0.0
  0
LINE
  5
35F
330
1B
100
AcDbEntity
  8
4
100
AcDbLine
 10
99.82772518737283
 20
80.06122856833747
 30
0.0
 11
106.1277251873728
 21
80.06122856833747
 31
0.0
  0
LINE
  5
360
330
1B
100
AcDbEntity
  8
4
100
AcDbLine
 10
99.82772518737283
 20
80.06122856833747
 30
0.0
 11
99.82772518737283
 21
71.56122856833736
 31
0.0
  0
LINE
  5
361
330
1B
100
AcDbEntity
  8
2
100
AcDbLine
 10
104.8277251873728
 20
77.11122856833748
 30
0.0
 11
106.1277251873728
 21
75.81122856833747
 31
0.0
  0
LINE
  5
362
330
1B
100
AcDbEntity
  8
2
100
AcDbLine
 10
104.8277251873728
 20
75.27275093725245
 30
0.0
 11
106.1277251873728
 21
73.9727509372525
 31
0.0
  0
LINE
  5
363
330
1B
100
AcDbEntity
  8
4
100
AcDbLine
 10
104.8277251873728
 20
80.06122856833747
 30
0.0
 11
104.8277251873728
 21
71.56122856833736
 31
0.0
  0
LINE
  5
364
330
1B
100
AcDbEntity
  8
4
100
AcDbLine
 10
350.2342808679475
 20
95.70954506833749
 30
0.0
 11
356.5342808679477
 21
95.70954506833749
 31
0.0
  0
LINE
  5
365
330
1B
100
AcDbEntity
  8
4
100
AcDbLine
 10
350.2342808679475
 20
87.20954506833743
 30
0.0
 11
356.5342808679477
 21
87.20954506833743
 31
0.0
  0
LINE
  5
366
330
1B
100
AcDbEntity
  8
4
100
AcDbLine
 10
350.2342808679475
 20
87.20954506833743
 30
0.0
 11
350.2342808679475
 21
95.70954506833755
 31
0.0
  0
LINE
  5
367
330
1B
100
AcDbEntity
  8
2
100
AcDbLine
 10
355.2342808679475
 20
90.15954506833742
 30
0.0
 11
356.5342808679477
 21
91.45954506833743
 31
0.0
  0
LINE
  5
368
330
1B
100
AcDbEntity
  8
2
100
AcDbLine
 10
355.2342808679475
 20
91.99802269942245
 30
0.0
 11
356.5342808679477
 21
93.2980226994224
 31
0.0
  0
LINE
  5
369
330
1B
100
AcDbEntity
  8
4
100
AcDbLine
 10
355.2342808679475
 20
87.20954506833743
 30
0.0
 11
355.2342808679475
 21
95.70954506833755
 31
0.0
  0
LINE
  5
36A
330
1B
100
AcDbEntity
  8
L-CENTER
 48
0.5
100
AcDbLine
 10
348.9270773906726
 20
41.96161806833709
 30
0.0
 11
370.4348678679476
 21
41.96161806833709
 31
0.0
  0
LINE
  5
36B
330
1B
100
AcDbEntity
  8
4
100
AcDbLine
 10
350.2342808679475
 20
46.21161806833709
 30
0.0
 11
356.5342808679477
 21
46.21161806833709
 31
0.0
  0
LINE
  5
36C
330
1B
100
AcDbEntity
  8
4
100
AcDbLine
 10
350.2342808679475
 20
37.71161806833703
 30
0.0
 11
356.5342808679477
 21
37.71161806833703
 31
0.0
  0
LINE
  5
36D
330
1B
100
AcDbEntity
  8
4
100
AcDbLine
 10
350.2342808679475
 20
46.21161806833709
 30
0.0
 11
350.2342808679475
 21
37.71161806833697
 31
0.0
  0
LINE
  5
36E
330
1B
100
AcDbEntity
  8
4
100
AcDbLine
 10
355.2342808679475
 20
46.21161806833709
 30
0.0
 11
355.2342808679475
 21
37.71161806833697
 31
0.0
  0
LINE
  5
36F
330
1B
100
AcDbEntity
  8
2
100
AcDbLine
 10
355.2342808679475
 20
41.42314043725207
 30
0.0
 11
356.5342808679477
 21
40.12314043725212
 31
0.0
  0
LINE
  5
370
330
1B
100
AcDbEntity
  8
2
100
AcDbLine
 10
355.2342808679475
 20
43.2616180683371
 30
0.0
 11
356.5342808679477
 21
41.96161806833709
 31
0.0
  0
LINE
  5
37D
330
1B
100
AcDbEntity
  8
4
100
AcDbLine
 10
99.82772568737278
 20
352.4404915824568
 30
0.0
 11
99.82772568737278
 21
360.940491582457
 31
0.0
  0
LINE
  5
37E
330
1B
100
AcDbEntity
  8
4
100
AcDbLine
 10
104.8277256873728
 20
352.4404915824568
 30
0.0
 11
104.8277256873728
 21
360.940491582457
 31
0.0
  0
LINE
  5
37F
330
1B
100
AcDbEntity
  8
4
100
AcDbLine
 10
99.82772568737278
 20
352.4404915824568
 30
0.0
 11
106.1277256873727
 21
352.4404915824568
 31
0.0
  0
LINE
  5
380
330
1B
100
AcDbEntity
  8
4
100
AcDbLine
 10
99.82772568737278
 20
360.940491582457
 30
0.0
 11
106.1277256873727
 21
360.940491582457
 31
0.0
  0
LINE
  5
381
330
1B
100
AcDbEntity
  8
4
100
AcDbLine
 10
104.8277256873728
 20
378.9404915824568
 30
0.0
 11
104.8277256873728
 21
387.440491582457
 31
0.0
  0
LINE
  5
382
330
1B
100
AcDbEntity
  8
4
100
AcDbLine
 10
99.82772568737278
 20
378.9404915824568
 30
0.0
 11
99.82772568737278
 21
387.440491582457
 31
0.0
  0
LINE
  5
383
330
1B
100
AcDbEntity
  8
4
100
AcDbLine
 10
99.82772568737278
 20
378.9404915824568
 30
0.0
 11
106.1277256873727
 21
378.9404915824568
 31
0.0
  0
LINE
  5
384
330
1B
100
AcDbEntity
  8
4
100
AcDbLine
 10
99.82772568737278
 20
387.440491582457
 30
0.0
 11
106.1277256873727
 21
387.440491582457
 31
0.0
  0
LINE
  5
385
330
1B
100
AcDbEntity
  8
4
100
AcDbLine
 10
99.82772568737278
 20
440.4404915824568
 30
0.0
 11
99.82772568737278
 21
431.9404915824567
 31
0.0
  0
LINE
  5
386
330
1B
100
AcDbEntity
  8
4
100
AcDbLine
 10
104.8277256873728
 20
440.4404915824568
 30
0.0
 11
104.8277256873728
 21
431.9404915824567
 31
0.0
  0
LINE
  5
387
330
1B
100
AcDbEntity
  8
4
100
AcDbLine
 10
99.82772568737278
 20
440.4404915824568
 30
0.0
 11
106.1277256873727
 21
440.4404915824568
 31
0.0
  0
LINE
  5
388
330
1B
100
AcDbEntity
  8
4
100
AcDbLine
 10
99.82772568737278
 20
431.9404915824567
 30
0.0
 11
106.1277256873727
 21
431.9404915824567
 31
0.0
  0
LINE
  5
389
330
1B
100
AcDbEntity
  8
4
100
AcDbLine
 10
104.8277256873728
 20
466.9404915824568
 30
0.0
 11
104.8277256873728
 21
458.4404915824567
 31
0.0
  0
LINE
  5
38A
330
1B
100
AcDbEntity
  8
4
100
AcDbLine
 10
99.82772568737278
 20
466.9404915824568
 30
0.0
 11
99.82772568737278
 21
458.4404915824567
 31
0.0
  0
LINE
  5
38B
330
1B
100
AcDbEntity
  8
4
100
AcDbLine
 10
99.82772568737278
 20
466.9404915824568
 30
0.0
 11
106.1277256873727
 21
466.9404915824568
 31
0.0
  0
LINE
  5
38C
330
1B
100
AcDbEntity
  8
4
100
AcDbLine
 10
99.82772568737278
 20
458.4404915824567
 30
0.0
 11
106.1277256873727
 21
458.4404915824567
 31
0.0
  0
LINE
  5
38D
330
1B
100
AcDbEntity
  8
4
100
AcDbLine
 10
123.4289535431726
 20
273.5904915824568
 30
0.0
 11
123.4289535431726
 21
279.8904915824568
 31
0.0
  0
LINE
  5
38E
330
1B
100
AcDbEntity
  8
4
100
AcDbLine
 10
131.9289535431728
 20
273.5904915824568
 30
0.0
 11
123.4289535431726
 21
273.5904915824568
 31
0.0
  0
LINE
  5
38F
330
1B
100
AcDbEntity
  8
4
100
AcDbLine
 10
131.9289535431728
 20
278.5904915824568
 30
0.0
 11
123.4289535431726
 21
278.5904915824568
 31
0.0
  0
LINE
  5
390
330
1B
100
AcDbEntity
  8
4
100
AcDbLine
 10
131.9289535431728
 20
273.5904915824568
 30
0.0
 11
131.9289535431728
 21
279.8904915824568
 31
0.0
  0
LINE
  5
391
330
1B
100
AcDbEntity
  8
4
100
AcDbLine
 10
172.9264978315728
 20
273.5904915824568
 30
0.0
 11
181.426497831573
 21
273.5904915824568
 31
0.0
  0
LINE
  5
392
330
1B
100
AcDbEntity
  8
4
100
AcDbLine
 10
172.9264978315728
 20
278.5904915824568
 30
0.0
 11
181.426497831573
 21
278.5904915824568
 31
0.0
  0
LINE
  5
393
330
1B
100
AcDbEntity
  8
4
100
AcDbLine
 10
181.426497831573
 20
273.5904915824568
 30
0.0
 11
181.426497831573
 21
279.8904915824568
 31
0.0
  0
LINE
  5
394
330
1B
100
AcDbEntity
  8
4
100
AcDbLine
 10
172.9264978315728
 20
273.5904915824568
 30
0.0
 11
172.9264978315728
 21
279.8904915824568
 31
0.0
  0
CIRCLE
  5
395
330
1B
100
AcDbEntity
  8
4
100
AcDbCircle
 10
127.6789535431726
 20
91.45928340003877
 30
0.0
 40
4.25
  0
LINE
  5
396
330
1B
100
AcDbEntity
  8
2
100
AcDbLine
 10
126.0459571337262
 20
93.09227331429679
 30
0.0
 11
128.2766660883208
 21
93.68999473203712
 31
0.0
  0
LINE
  5
397
330
1B
100
AcDbEntity
  8
2
100
AcDbLine
 10
127.0812409980247
 20
89.22857206804042
 30
0.0
 11
129.311949952619
 21
89.8262934857807
 31
0.0
  0
LINE
  5
398
330
1B
100
AcDbEntity
  8
2
100
AcDbLine
 10
128.2766660883208
 20
93.68999473203712
 30
0.0
 11
129.9096624977672
 21
92.05700481777905
 31
0.0
  0
LINE
  5
399
330
1B
100
AcDbEntity
  8
2
100
AcDbLine
 10
125.4482445885783
 20
90.86156198229855
 30
0.0
 11
127.0812409980247
 21
89.22857206804042
 31
0.0
  0
LINE
  5
39A
330
1B
100
AcDbEntity
  8
2
100
AcDbLine
 10
126.0459571337262
 20
93.09227331429679
 30
0.0
 11
125.4482445885783
 21
90.86156198229855
 31
0.0
  0
LINE
  5
39B
330
1B
100
AcDbEntity
  8
2
100
AcDbLine
 10
129.9096624977672
 20
92.05700481777905
 30
0.0
 11
129.311949952619
 21
89.8262934857807
 31
0.0
  0
LINE
  5
39C
330
1B
100
AcDbEntity
  8
L-CENTER
 48
0.5
100
AcDbLine
 10
182.1774727814711
 20
96.46032118123924
 30
0.0
 11
172.1754874483229
 21
86.4583382106141
 31
0.0
  0
CIRCLE
  5
39D
330
1B
100
AcDbEntity
  8
4
100
AcDbCircle
 10
177.176480114897
 20
91.45932969592667
 30
0.0
 40
4.25
  0
LINE
  5
39E
330
1B
100
AcDbEntity
  8
2
100
AcDbLine
 10
179.4071901876059
 20
90.86161245102835
 30
0.0
 11
177.7741968328896
 21
89.22861948203388
 31
0.0
  0
LINE
  5
39F
330
1B
100
AcDbEntity
  8
2
100
AcDbLine
 10
178.8094734696135
 20
93.09232266492114
 30
0.0
 11
176.5787633969046
 21
93.69003990981946
 31
0.0
  0
LINE
  5
3A0
330
1B
100
AcDbEntity
  8
2
100
AcDbLine
 10
178.8094734696135
 20
93.09232266492114
 30
0.0
 11
179.4071901876059
 21
90.86161245102835
 31
0.0
  0
LINE
  5
3A1
330
1B
100
AcDbEntity
  8
2
100
AcDbLine
 10
177.7741968328896
 20
89.22861948203388
 30
0.0
 11
175.5434867601807
 21
89.82633672693225
 31
0.0
  0
LINE
  5
3A2
330
1B
100
AcDbEntity
  8
2
100
AcDbLine
 10
174.9457700421883
 20
92.05704694082499
 30
0.0
 11
175.5434867601807
 21
89.82633672693225
 31
0.0
  0
LINE
  5
3A3
330
1B
100
AcDbEntity
  8
2
100
AcDbLine
 10
176.5787633969046
 20
93.69003990981946
 30
0.0
 11
174.9457700421883
 21
92.05704694082499
 31
0.0
  0
LINE
  5
3A4
330
1B
100
AcDbEntity
  8
L-CENTER
 48
0.5
100
AcDbLine
 10
122.6779515215806
 20
36.96089760636087
 30
0.0
 11
132.6799555647647
 21
46.96286186691066
 31
0.0
  0
CIRCLE
  5
3A5
330
1B
100
AcDbEntity
  8
4
100
AcDbCircle
 10
127.6789535431726
 20
41.96187973663575
 30
0.0
 40
4.25
  0
LINE
  5
3A6
330
1B
100
AcDbEntity
  8
2
100
AcDbLine
 10
125.4482445885783
 20
42.559601154376
 30
0.0
 11
127.0812409980247
 21
44.1925910686341
 31
0.0
  0
LINE
  5
3A7
330
1B
100
AcDbEntity
  8
2
100
AcDbLine
 10
126.0459571337262
 20
40.3288898223777
 30
0.0
 11
128.2766660883208
 21
39.73116840463743
 31
0.0
  0
LINE
  5
3A8
330
1B
100
AcDbEntity
  8
2
100
AcDbLine
 10
126.0459571337262
 20
40.3288898223777
 30
0.0
 11
125.4482445885783
 21
42.559601154376
 31
0.0
  0
LINE
  5
3A9
330
1B
100
AcDbEntity
  8
2
100
AcDbLine
 10
127.0812409980247
 20
44.1925910686341
 30
0.0
 11
129.311949952619
 21
43.59486965089383
 31
0.0
  0
LINE
  5
3AA
330
1B
100
AcDbEntity
  8
2
100
AcDbLine
 10
129.9096624977672
 20
41.36415831889548
 30
0.0
 11
129.311949952619
 21
43.59486965089383
 31
0.0
  0
LINE
  5
3AB
330
1B
100
AcDbEntity
  8
2
100
AcDbLine
 10
128.2766660883208
 20
39.73116840463743
 30
0.0
 11
129.9096624977672
 21
41.36415831889548
 31
0.0
  0
CIRCLE
  5
3AC
330
1B
100
AcDbEntity
  8
4
100
AcDbCircle
 10
177.176480114897
 20
41.96183344074785
 30
0.0
 40
4.25
  0
LINE
  5
3AD
330
1B
100
AcDbEntity
  8
L-CENTER
 48
0.5
100
AcDbLine
 10
182.1774727814711
 20
36.96084195543528
 30
0.0
 11
172.1754874483229
 21
46.96282492606042
 31
0.0
  0
LINE
  5
3AE
330
1B
100
AcDbEntity
  8
2
100
AcDbLine
 10
176.5787633969046
 20
39.73112322685506
 30
0.0
 11
174.9457700421883
 21
41.3641161958495
 31
0.0
  0
LINE
  5
3AF
330
1B
100
AcDbEntity
  8
2
100
AcDbLine
 10
174.9457700421883
 20
41.3641161958495
 30
0.0
 11
175.5434867601807
 21
43.59482640974227
 31
0.0
  0
LINE
  5
3B0
330
1B
100
AcDbEntity
  8
2
100
AcDbLine
 10
177.7741968328896
 20
44.19254365464064
 30
0.0
 11
175.5434867601807
 21
43.59482640974227
 31
0.0
  0
LINE
  5
3B1
330
1B
100
AcDbEntity
  8
2
100
AcDbLine
 10
178.8094734696135
 20
40.32884047175338
 30
0.0
 11
179.4071901876059
 21
42.55955068564614
 31
0.0
  0
LINE
  5
3B2
330
1B
100
AcDbEntity
  8
2
100
AcDbLine
 10
178.8094734696135
 20
40.32884047175338
 30
0.0
 11
176.5787633969046
 21
39.73112322685506
 31
0.0
  0
LINE
  5
3B3
330
1B
100
AcDbEntity
  8
2
100
AcDbLine
 10
179.4071901876059
 20
42.55955068564614
 30
0.0
 11
177.7741968328896
 21
44.19254365464064
 31
0.0
  0
LINE
  5
4C9
330
1B
100
AcDbEntity
  8
4
100
AcDbLine
 10
106.4277251873725
 20
131.7105210683372
 30
0.0
 11
106.4277251873725
 21
75.71076456833737
 31
0.0
  0
LINE
  5
4CA
330
1B
100
AcDbEntity
  8
4
100
AcDbLine
 10
105.4277261873724
 20
119.7105210683372
 30
0.0
 11
106.4277251873725
 21
119.7105210683372
 31
0.0
  0
LINE
  5
4CB
330
1B
100
AcDbEntity
  8
4
100
AcDbLine
 10
105.4277261873724
 20
87.71076456833737
 30
0.0
 11
106.4277251873725
 21
87.71076456833737
 31
0.0
  0
LINE
  5
4CC
330
1B
100
AcDbEntity
  8
4
100
AcDbLine
 10
105.4277261873724
 20
119.7105210683372
 30
0.0
 11
105.4277261873724
 21
87.71076456833737
 31
0.0
  0
LINE
  5
4CD
330
1B
100
AcDbEntity
  8
4
100
AcDbLine
 10
106.1277251873728
 20
87.71076456833737
 30
0.0
 11
106.1277251873728
 21
62.71052106833724
 31
0.0
  0
LINE
  5
4D1
330
1B
100
AcDbEntity
  8
4
100
AcDbLine
 10
99.82772568737279
 20
432.3571582491236
 30
0.0
 11
88.14735688804399
 21
442.0907989152311
 31
0.0
  0
LINE
  5
4D6
330
1B
100
AcDbEntity
  8
4
  6
Continuous
100
AcDbLine
 10
202.4277256873729
 20
422.1904915824568
 30
0.0
 11
205.4277256873727
 21
422.1904915824568
 31
0.0
  0
ARC
  5
4D7
330
1B
100
AcDbEntity
  8
4
100
AcDbCircle
 10
211.9277256873727
 20
409.6904915824566
 30
0.0
 40
3.5
100
AcDbArc
 50
90.0
 51
180.0
  0
ARC
  5
4D8
330
1B
100
AcDbEntity
  8
4
100
AcDbCircle
 10
205.9277256873727
 20
422.1904915824568
 30
0.0
 40
0.5
100
AcDbArc
 50
180.0
 51
270.0
  0
LINE
  5
4D9
330
1B
100
AcDbEntity
  8
4
  6
Continuous
100
AcDbLine
 10
202.4277256873729
 20
397.1904915824566
 30
0.0
 11
205.4277256873727
 21
397.1904915824566
 31
0.0
  0
ARC
  5
4DA
330
1B
100
AcDbEntity
  8
4
100
AcDbCircle
 10
205.9277256873727
 20
397.1904915824568
 30
0.0
 40
0.5
100
AcDbArc
 50
90.0
 51
180.0
  0
LINE
  5
4DB
330
1B
100
AcDbEntity
  8
4
100
AcDbLine
 10
205.4277256873727
 20
397.1904915824566
 30
0.0
 11
205.4277256873727
 21
422.1904915824568
 31
0.0
  0
ARC
  5
4DC
330
1B
100
AcDbEntity
  8
4
100
AcDbCircle
 10
211.9277256873727
 20
409.6904915824568
 30
0.0
 40
3.5
100
AcDbArc
 50
180.0
 51
270.0
  0
LINE
  5
4DD
330
1B
100
AcDbEntity
  8
4
100
AcDbLine
 10
202.4277256873729
 20
386.1904915824568
 30
0.0
 11
202.4277256873729
 21
433.1904915824568
 31
0.0
  0
LINE
  5
4DE
330
1B
100
AcDbEntity
  8
4
100
AcDbLine
 10
244.9277256873731
 20
421.6904915824568
 30
0.0
 11
245.4277256873731
 21
421.1904915824568
 31
0.0
  0
LINE
  5
4DF
330
1B
100
AcDbEntity
  8
4
100
AcDbLine
 10
244.9277256873731
 20
413.1904915824568
 30
0.0
 11
244.9277256873731
 21
421.6904915824566
 31
0.0
  0
LINE
  5
4E0
330
1B
100
AcDbEntity
  8
4
100
AcDbLine
 10
244.9277256873731
 20
397.6904915824568
 30
0.0
 11
244.9277256873731
 21
406.1904915824568
 31
0.0
  0
LINE
  5
4E1
330
1B
100
AcDbEntity
  8
4
100
AcDbLine
 10
245.4277256873731
 20
398.1904915824568
 30
0.0
 11
244.9277256873731
 21
397.6904915824568
 31
0.0
  0
LINE
  5
4E2
330
1B
100
AcDbEntity
  8
4
100
AcDbLine
 10
245.4277256873729
 20
398.1904915824566
 30
0.0
 11
245.4277256873729
 21
421.1904915824568
 31
0.0
  0
LINE
  5
4E3
330
1B
100
AcDbEntity
  8
4
  6
Continuous
100
AcDbLine
 10
205.9277256873727
 20
397.6904915824568
 30
0.0
 11
244.9277256873731
 21
397.6904915824568
 31
0.0
  0
LINE
  5
4E4
330
1B
100
AcDbEntity
  8
4
  6
Continuous
100
AcDbLine
 10
205.9277256873727
 20
421.6904915824568
 30
0.0
 11
244.9277256873731
 21
421.6904915824568
 31
0.0
  0
LINE
  5
4E5
330
1B
100
AcDbEntity
  8
4
  6
Continuous
100
AcDbLine
 10
211.9277256873727
 20
406.1904915824566
 30
0.0
 11
245.4277256873731
 21
406.1904915824566
 31
0.0
  0
LINE
  5
4E6
330
1B
100
AcDbEntity
  8
4
  6
Continuous
100
AcDbLine
 10
211.9277256873727
 20
413.1904915824566
 30
0.0
 11
245.4277256873729
 21
413.1904915824566
 31
0.0
  0
LINE
  5
4E7
330
1B
100
AcDbEntity
  8
4
 48
0.5
100
AcDbLine
 10
202.4277256873729
 20
433.1904915824568
 30
0.0
 11
201.4277256873729
 21
433.1904915824568
 31
0.0
  0
LINE
  5
4E8
330
1B
100
AcDbEntity
  8
4
 48
0.5
100
AcDbLine
 10
202.4277256873729
 20
386.1904915824568
 30
0.0
 11
201.4277256873729
 21
386.1904915824568
 31
0.0
  0
CIRCLE
  5
4E9
330
1B
100
AcDbEntity
  8
4
100
AcDbCircle
 10
486.3342818679475
 20
121.7105820683374
 30
0.0
 40
23.5
  0
LINE
  5
4EB
330
1B
100
AcDbEntity
  8
4
100
AcDbLine
 10
482.8342823679474
 20
136.7105820683374
 30
0.0
 11
489.8342828679475
 21
136.7105820683374
 31
0.0
  0
LINE
  5
4EC
330
1B
100
AcDbEntity
  8
4
100
AcDbLine
 10
482.8342823679474
 20
129.7105815683374
 30
0.0
 11
489.8342828679475
 21
129.7105815683374
 31
0.0
  0
LINE
  5
4ED
330
1B
100
AcDbEntity
  8
4
100
AcDbLine
 10
482.8342823679474
 20
136.7105820683374
 30
0.0
 11
482.8342823679474
 21
129.7105815683374
 31
0.0
  0
LINE
  5
4EE
330
1B
100
AcDbEntity
  8
4
100
AcDbLine
 10
489.8342828679475
 20
136.7105820683374
 30
0.0
 11
489.8342828679475
 21
129.7105815683374
 31
0.0
  0
ARC
  5
4EF
330
1B
100
AcDbEntity
  8
4
100
AcDbCircle
 10
486.3342818679477
 20
121.7105820683374
 30
0.0
 40
12.0
100
AcDbArc
 50
106.9577608041645
 51
73.04223699999329
  0
LINE
  5
4FD
330
1B
100
AcDbEntity
  8
4
100
AcDbLine
 10
202.4277251873725
 20
145.2105210683372
 30
0.0
 11
201.4277261873726
 21
145.2105210683372
 31
0.0
  0
LINE
  5
4FE
330
1B
100
AcDbEntity
  8
4
100
AcDbLine
 10
202.4277251873725
 20
134.2105815683373
 30
0.0
 11
205.4277251873725
 21
134.2105815683373
 31
0.0
  0
LINE
  5
500
330
1B
100
AcDbEntity
  8
4
100
AcDbLine
 10
205.4277251873725
 20
134.2105815683373
 30
0.0
 11
205.4277251873725
 21
109.2105825683376
 31
0.0
  0
LINE
  5
501
330
1B
100
AcDbEntity
  8
4
100
AcDbLine
 10
208.4277251873725
 20
133.7105820683374
 30
0.0
 11
208.4277251873725
 21
136.7105820683374
 31
0.0
  0
LINE
  5
502
330
1B
100
AcDbEntity
  8
4
100
AcDbLine
 10
244.9277261873725
 20
133.7105820683374
 30
0.0
 11
245.4277256873726
 21
133.2105825683374
 31
0.0
  0
LINE
  5
503
330
1B
100
AcDbEntity
  8
4
100
AcDbLine
 10
245.4277256873726
 20
110.2105815683373
 30
0.0
 11
244.9277261873725
 21
109.7105820683374
 31
0.0
  0
LINE
  5
504
330
1B
100
AcDbEntity
  8
4
100
AcDbLine
 10
244.9277261873725
 20
133.7105820683374
 30
0.0
 11
244.9277261873725
 21
109.7105820683374
 31
0.0
  0
LINE
  5
505
330
1B
100
AcDbEntity
  8
4
100
AcDbLine
 10
245.4277256873726
 20
136.7105820683374
 30
0.0
 11
245.4277256873726
 21
110.2105815683373
 31
0.0
  0
LINE
  5
506
330
1B
100
AcDbEntity
  8
4
100
AcDbLine
 10
205.4277251873725
 20
133.7105820683374
 30
0.0
 11
244.9277261873725
 21
133.7105820683374
 31
0.0
  0
LINE
  5
507
330
1B
100
AcDbEntity
  8
4
100
AcDbLine
 10
205.4277251873725
 20
109.7105820683374
 30
0.0
 11
244.9277261873725
 21
109.7105820683374
 31
0.0
  0
LINE
  5
508
330
1B
100
AcDbEntity
  8
4
100
AcDbLine
 10
208.4277251873725
 20
136.7105820683374
 30
0.0
 11
245.4277256873726
 21
136.7105820683374
 31
0.0
  0
LINE
  5
50A
330
1B
100
AcDbEntity
  8
4
100
AcDbLine
 10
202.4277251873725
 20
98.21064306833762
 30
0.0
 11
202.4277251873725
 21
145.2105210683372
 31
0.0
  0
LINE
  5
522
330
1B
100
AcDbEntity
  8
4
100
AcDbLine
 10
71.92772568737254
 20
315.690491582457
 30
0.0
 11
71.92772568737254
 21
313.690491582457
 31
0.0
  0
LINE
  5
523
330
1B
100
AcDbEntity
  8
4
100
AcDbLine
 10
71.9277256873728
 20
323.690491582457
 30
0.0
 11
71.4277256873728
 21
323.190491582457
 31
0.0
  0
LINE
  5
524
330
1B
100
AcDbEntity
  8
4
100
AcDbLine
 10
71.42772568737254
 20
314.190491582457
 30
0.0
 11
71.92772568737254
 21
313.690491582457
 31
0.0
  0
LINE
  5
525
330
1B
100
AcDbEntity
  8
4
100
AcDbLine
 10
71.92772568737257
 20
323.690491582457
 30
0.0
 11
71.92772568737257
 21
321.6904915824571
 31
0.0
  0
LINE
  5
526
330
1B
100
AcDbEntity
  8
4
100
AcDbLine
 10
71.4277256873728
 20
323.190491582457
 30
0.0
 11
71.42772568737254
 21
314.190491582457
 31
0.0
  0
LINE
  5
527
330
1B
100
AcDbEntity
  8
4
100
AcDbLine
 10
71.42772568737277
 20
315.6904915824568
 30
0.0
 11
88.42772568737254
 21
315.6904915824568
 31
0.0
  0
LINE
  5
528
330
1B
100
AcDbEntity
  8
4
100
AcDbLine
 10
71.4277256873728
 20
321.690491582457
 30
0.0
 11
88.42772568737257
 21
321.6904915824568
 31
0.0
  0
LINE
  5
529
330
1B
100
AcDbEntity
  8
4
100
AcDbLine
 10
93.42772568737257
 20
324.6904915824569
 30
0.0
 11
93.42772568737254
 21
312.6904915824569
 31
0.0
  0
ARC
  5
52A
330
1B
100
AcDbEntity
  8
4
100
AcDbCircle
 10
92.92772568737257
 20
324.1904915824569
 30
0.0
 40
0.5
100
AcDbArc
 50
270.0
 51
0.0
  0
ARC
  5
52B
330
1B
100
AcDbEntity
  8
4
100
AcDbCircle
 10
92.92772568737254
 20
313.1904915824569
 30
0.0
 40
0.5
100
AcDbArc
 50
0.0
 51
90.0
  0
LINE
  5
52C
330
1B
100
AcDbEntity
  8
4
100
AcDbLine
 10
93.42772568737257
 20
324.6904915824569
 30
0.0
 11
105.4277256873726
 21
324.6904915824569
 31
0.0
  0
LINE
  5
52D
330
1B
100
AcDbEntity
  8
4
100
AcDbLine
 10
93.42772568737254
 20
312.6904915824569
 30
0.0
 11
105.4277256873728
 21
312.6904915824569
 31
0.0
  0
ARC
  5
52E
330
1B
100
AcDbEntity
  8
4
100
AcDbCircle
 10
88.4277256873728
 20
318.6904915824569
 30
0.0
 40
3.0
100
AcDbArc
 50
269.9999999999994
 51
90.0
  0
LINE
  5
52F
330
1B
100
AcDbEntity
  8
4
100
AcDbLine
 10
71.9277256873728
 20
323.690491582457
 30
0.0
 11
92.92772568737257
 21
323.6904915824569
 31
0.0
  0
LINE
  5
530
330
1B
100
AcDbEntity
  8
4
100
AcDbLine
 10
71.92772568737254
 20
313.690491582457
 30
0.0
 11
92.92772568737254
 21
313.6904915824569
 31
0.0
  0
LINE
  5
532
330
1B
100
AcDbEntity
  8
4
100
AcDbLine
 10
93.4277261873724
 20
108.7105815683373
 30
0.0
 11
91.4277761873725
 21
108.7105815683373
 31
0.0
  0
LINE
  5
533
330
1B
100
AcDbEntity
  8
4
100
AcDbLine
 10
105.4277261873724
 20
109.7105820683374
 30
0.0
 11
93.4277261873724
 21
109.7105820683374
 31
0.0
  0
LINE
  5
534
330
1B
100
AcDbEntity
  8
4
100
AcDbLine
 10
71.42772568737269
 20
107.7105825683374
 30
0.0
 11
71.42772568737269
 21
99.21058206833743
 31
0.0
  0
LINE
  5
535
330
1B
100
AcDbEntity
  8
4
100
AcDbLine
 10
71.92772518737252
 20
98.71058256833737
 30
0.0
 11
71.42772568737269
 21
99.21058206833743
 31
0.0
  0
LINE
  5
536
330
1B
100
AcDbEntity
  8
4
100
AcDbLine
 10
71.92772518737252
 20
107.7105825683374
 30
0.0
 11
71.92772518737252
 21
98.71058256833737
 31
0.0
  0
LINE
  5
537
330
1B
100
AcDbEntity
  8
4
100
AcDbLine
 10
89.69572618737243
 20
107.7105825683374
 30
0.0
 11
71.42772568737269
 21
107.7105825683374
 31
0.0
  0
LINE
  5
538
330
1B
100
AcDbEntity
  8
4
100
AcDbLine
 10
105.4277261873724
 20
97.71058206833743
 30
0.0
 11
93.4277261873724
 21
97.71058206833743
 31
0.0
  0
LINE
  5
539
330
1B
100
AcDbEntity
  8
4
100
AcDbLine
 10
93.4277261873724
 20
98.71058256833737
 30
0.0
 11
71.92772518737252
 21
98.71058256833737
 31
0.0
  0
LINE
  5
53A
330
1B
100
AcDbEntity
  8
4
100
AcDbLine
 10
93.4277261873724
 20
109.7105820683374
 30
0.0
 11
93.4277261873724
 21
97.71058206833743
 31
0.0
  0
ARC
  5
53B
330
1B
100
AcDbEntity
  8
4
100
AcDbCircle
 10
89.69572618737243
 20
109.7105820683374
 30
0.0
 40
1.9999995
100
AcDbArc
 50
270.0
 51
329.9970890000025
  0
LINE
  5
53D
330
1B
100
AcDbEntity
  8
4
100
AcDbLine
 10
103.1277251873728
 20
109.7105820683374
 30
0.0
 11
103.1277251873728
 21
117.4605820683374
 31
0.0
  0
ARC
  5
552
330
1B
100
AcDbEntity
  8
4
100
AcDbCircle
 10
215.4277256873727
 20
313.7537416904881
 30
0.0
 40
2.0
100
AcDbArc
 50
0.0
 51
50.19442890773752
  0
LINE
  5
553
330
1B
100
AcDbEntity
  8
4
100
AcDbLine
 10
202.4277251873725
 20
109.2105825683376
 30
0.0
 11
205.4277251873725
 21
109.2105825683376
 31
0.0
  0
LINE
  5
554
330
1B
100
AcDbEntity
  8
4
100
AcDbLine
 10
202.4277251873725
 20
98.21064306833762
 30
0.0
 11
201.4277261873726
 21
98.21064306833762
 31
0.0
  0
LINE
  5
555
330
1B
100
AcDbEntity
  8
4
100
AcDbLine
 10
51.43524107011739
 20
107.7105825683374
 30
0.0
 11
57.43524107011739
 21
107.7105825683374
 31
0.0
  0
LINE
  5
557
330
1B
100
AcDbEntity
  8
L-CENTER
 48
0.5
100
AcDbLine
 10
54.43524107011739
 20
111.2221290683375
 30
0.0
 11
54.43524107011739
 21
96.19903506833737
 31
0.0
  0
LINE
  5
558
330
1B
100
AcDbEntity
  8
L-CENTER
 48
0.5
100
AcDbLine
 10
46.92369407011733
 20
103.7105820683374
 30
0.0
 11
61.94678807011746
 21
103.7105820683374
 31
0.0
  0
ARC
  5
559
330
1B
100
AcDbEntity
  8
4
100
AcDbCircle
 10
54.43524107011739
 20
103.7105820683374
 30
0.0
 40
4.9999995
100
AcDbArc
 50
126.8698980000072
 51
53.13010199999275
  0
ENDSEC
  0
SECTION
  2
OBJECTS
  0
DICTIONARY
  5
9
330
0
100
AcDbDictionary
281
     1
  3
ACAD_COLOR
350
31
  3
ACAD_GROUP
350
2F
  3
ACAD_LAYOUT
350
24
  3
ACAD_MATERIAL
350
B
  3
ACAD_MLEADERSTYLE
350
49B
  3
ACAD_MLINESTYLE
350
19
  3
ACAD_PLOTSETTINGS
350
30
  3
ACAD_PLOTSTYLENAME
350
8
  3
ACAD_SCALELIST
350
36
  3
ACAD_TABLESTYLE
350
49A
  3
ACAD_VISUALSTYLE
350
32
  3
ACDBHEADERROUNDTRIPXREC
350
55E
  3
AcDbVariableDictionary
350
498
  3
DWGPROPS
350
561
  0
DICTIONARY
  5
562
330
2E
100
AcDbDictionary
280
     1
281
     1
  3
ACAD_XREC_ROUNDTRIP
360
563
  0
DICTIONARY
  5
3
330
2
100
AcDbDictionary
280
     1
281
     1
  3
ACAD_LAYERSTATES
360
4
  0
DICTIONARY
  5
20
330
1F
100
AcDbDictionary
280
     1
281
     1
  3
ADSK_XREC_LAYER_RECONCILED
360
21
  0
DICTIONARY
  5
3C1
330
3C0
100
AcDbDictionary
280
     1
281
     1
  3
ADSK_XREC_LAYER_RECONCILED
360
3C2
  0
DICTIONARY
  5
5
330
1
100
AcDbDictionary
280
     1
281
     1
  3
ADSK_XREC_LAYER_RECONCILED
360
6
  0
DICTIONARY
  5
F5
330
F4
100
AcDbDictionary
280
     1
281
     1
  3
ADSK_XREC_LAYER_RECONCILED
360
F6
  0
DICTIONARY
  5
5C
330
5B
100
AcDbDictionary
280
     1
281
     1
  3
ADSK_XREC_LAYER_RECONCILED
360
5D
  0
DICTIONARY
  5
62
330
61
100
AcDbDictionary
280
     1
281
     1
  3
ADSK_XREC_LAYER_RECONCILED
360
63
  0
DICTIONARY
  5
1C
330
1B
100
AcDbDictionary
280
     1
281
     1
  3
ACAD_SORTENTS
360
1D
  0
DICTIONARY
  5
31
102
{ACAD_REACTORS
330
9
102
}
330
9
100
AcDbDictionary
281
     1
  0
DICTIONARY
  5
2F
102
{ACAD_REACTORS
330
9
102
}
330
9
100
AcDbDictionary
281
     1
  0
DICTIONARY
  5
24
102
{ACAD_REACTORS
330
9
102
}
330
9
100
AcDbDictionary
281
     1
  3
Model
350
23
  3
ﾚｲｱｳﾄ1
350
2B
  0
DICTIONARY
  5
B
102
{ACAD_REACTORS
330
9
102
}
330
9
100
AcDbDictionary
281
     1
  3
ByBlock
350
59
  3
ByLayer
350
14
  3
Global
350
A
  0
DICTIONARY
  5
49B
102
{ACAD_REACTORS
330
9
102
}
330
9
100
AcDbDictionary
281
     1
  3
Standard
350
4B7
  0
DICTIONARY
  5
19
102
{ACAD_REACTORS
330
9
102
}
330
9
100
AcDbDictionary
281
     1
  3
STANDARD
350
18
  0
DICTIONARY
  5
30
102
{ACAD_REACTORS
330
9
102
}
330
9
100
AcDbDictionary
281
     1
  0
ACDBDICTIONARYWDFLT
  5
8
102
{ACAD_REACTORS
330
9
102
}
330
9
100
AcDbDictionary
281
     1
  3
Normal
350
7
100
AcDbDictionaryWithDefault
340
7
  0
DICTIONARY
  5
36
102
{ACAD_REACTORS
330
9
102
}
330
9
100
AcDbDictionary
281
     1
  3
*A1
350
58
  0
DICTIONARY
  5
49A
102
{ACAD_REACTORS
330
9
102
}
330
9
100
AcDbDictionary
281
     1
  3
Standard
350
4C8
  0
DICTIONARY
  5
32
102
{ACAD_REACTORS
330
9
102
}
330
9
100
AcDbDictionary
281
     1
  3
2dWireframe
350
4A3
  3
Basic
350
4A6
  3
Brighten
350
4AA
  3
ColorChange
350
4AE
  3
Conceptual
350
4A8
  3
Dim
350
4A9
  3
EdgeColorOff
350
4B1
  3
Facepattern
350
4AD
  3
Flat
350
49F
  3
FlatWithEdges
350
4A0
  3
Gouraud
350
4A1
  3
GouraudWithEdges
350
4A2
  3
Hidden
350
4A5
  3
JitterOff
350
4AF
  3
Linepattern
350
4AC
  3
OverhangOff
350
4B0
  3
Realistic
350
4A7
  3
Shaded
350
4B6
  3
Shaded with edges
350
4B5
  3
Shades of Gray
350
4B2
  3
Sketchy
350
4B3
  3
Thicken
350
4AB
  3
Wireframe
350
4A4
  3
X-Ray
350
4B4
  0
DICTIONARY
  5
55E
102
{ACAD_REACTORS
330
9
102
}
330
9
100
AcDbDictionary
281
     1
  3
COLORDICT
350
55F
  3
MATERIALDICT
350
560
  0
DICTIONARY
  5
498
102
{ACAD_REACTORS
330
9
102
}
330
9
100
AcDbDictionary
281
     1
  3
CANNOSCALE
350
499
  3
CMLEADERSTYLE
350
4C5
  3
CTABLESTYLE
350
4D0
  3
DIMASSOC
350
55C
  3
HIDETEXT
350
55D
  3
MSLTSCALE
350
564
  3
SORTENTS
350
55B
  3
XCLIPFRAME
350
49C
  0
XRECORD
  5
561
102
{ACAD_REACTORS
330
9
102
}
330
9
100
AcDbXrecord
280
     1
  1
DWGPROPS COOKIE
  2

  3

  4

  6

  7

  8
sg-d03
  9

300
=
301
=
302
=
303
=
304
=
305
=
306
=
307
=
308
=
309
=
 40
0.0
 41
2457329.074428461
 42
2458115.36240272
  1

 90
        0
  0
XRECORD
  5
563
102
{ACAD_REACTORS
330
562
102
}
330
562
100
AcDbXrecord
280
     1
102
VTR_0.000_0.000_1.000_1.000_VISUALSTYLE
340
4A3
102
VTR_0.000_0.000_1.000_1.000_GRIDDISPLAY
 70
     3
102
VTR_0.000_0.000_1.000_1.000_GRIDMAJOR
 70
     5
102
VTR_0.000_0.000_1.000_1.000_DEFAULTLIGHTING
280
     1
102
VTR_0.000_0.000_1.000_1.000_DEFAULTLIGHTINGTYPE
 70
     1
102
VTR_0.000_0.000_1.000_1.000_BRIGHTNESS
141
0.0
102
VTR_0.000_0.000_1.000_1.000_CONTRAST
142
0.0
  0
DICTIONARY
  5
4
102
{ACAD_REACTORS
330
3
102
}
330
3
100
AcDbDictionary
281
     1
  0
XRECORD
  5
21
102
{ACAD_REACTORS
330
20
102
}
330
20
100
AcDbXrecord
280
     1
290
     1
  0
XRECORD
  5
3C2
102
{ACAD_REACTORS
330
3C1
102
}
330
3C1
100
AcDbXrecord
280
     1
290
     1
  0
XRECORD
  5
6
102
{ACAD_REACTORS
330
5
102
}
330
5
100
AcDbXrecord
280
     1
290
     1
  0
XRECORD
  5
F6
102
{ACAD_REACTORS
330
F5
102
}
330
F5
100
AcDbXrecord
280
     1
290
     1
  0
XRECORD
  5
5D
102
{ACAD_REACTORS
330
5C
102
}
330
5C
100
AcDbXrecord
280
     1
290
     1
  0
XRECORD
  5
63
102
{ACAD_REACTORS
330
62
102
}
330
62
100
AcDbXrecord
280
     1
290
     1
  0
SORTENTSTABLE
  5
1D
102
{ACAD_REACTORS
330
1C
102
}
330
1C
100
AcDbSortentsTable
330
1B
331
0
  5
1F9
331
F3
  5
25F
331
F7
  5
25E
331
F8
  5
25D
331
FC
  5
259
331
FD
  5
258
331
FE
  5
257
331
FF
  5
256
331
100
  5
255
331
115
  5
240
331
116
  5
23F
331
117
  5
23E
331
118
  5
23D
331
119
  5
23C
331
11A
  5
23B
331
11B
  5
23A
331
11C
  5
239
331
11D
  5
238
331
11E
  5
237
331
11F
  5
236
331
120
  5
235
331
121
  5
234
331
122
  5
231
331
123
  5
230
331
124
  5
22F
331
125
  5
22E
331
126
  5
22D
331
144
  5
20D
331
145
  5
20B
331
146
  5
208
331
147
  5
207
331
148
  5
206
331
149
  5
205
331
14A
  5
204
331
14B
  5
203
331
14C
  5
202
331
14D
  5
200
331
14E
  5
1FF
331
14F
  5
1FE
331
150
  5
1FD
331
151
  5
1FC
331
152
  5
1FB
331
153
  5
1FA
331
156
  5
1F8
331
157
  5
1F7
331
158
  5
1F6
331
159
  5
1F4
331
15B
  5
1F2
331
15C
  5
1F1
331
15D
  5
1F0
331
161
  5
1EC
331
162
  5
1EB
331
163
  5
1EA
331
164
  5
1E9
331
168
  5
1E5
331
169
  5
1E4
331
16A
  5
1E3
331
16C
  5
1E1
331
16D
  5
1E0
331
16E
  5
1DF
331
16F
  5
1DE
331
171
  5
1DC
331
172
  5
1D8
331
174
  5
1D6
331
175
  5
1D5
331
176
  5
1D4
331
177
  5
1D3
331
178
  5
1D2
331
179
  5
1D1
331
17A
  5
1D0
331
17B
  5
1CF
331
19E
  5
1AC
331
19F
  5
1AB
331
1A0
  5
1A7
331
1A4
  5
1A3
331
1A5
  5
1A2
331
1A6
  5
1A1
331
1A7
  5
1A0
331
1A8
  5
19F
331
1A9
  5
19E
331
1AA
  5
19D
331
1AB
  5
19C
331
1AC
  5
19B
331
1AD
  5
19A
331
1AE
  5
199
331
1AF
  5
198
331
1B0
  5
197
331
1B2
  5
195
331
1B3
  5
194
331
1B4
  5
193
331
1B5
  5
192
331
1B6
  5
191
331
1B7
  5
190
331
1B8
  5
18F
331
1B9
  5
18E
331
1BA
  5
18D
331
1BB
  5
18C
331
1BC
  5
18B
331
1BD
  5
18A
331
1C0
  5
187
331
1C2
  5
185
331
1C5
  5
182
331
1C9
  5
17E
331
1D4
  5
173
331
1D5
  5
172
331
1D6
  5
171
331
1D9
  5
16E
331
1DB
  5
16C
331
1DC
  5
16B
331
1DD
  5
16A
331
1DE
  5
169
331
1DF
  5
168
331
1E0
  5
167
331
1E1
  5
166
331
1E6
  5
161
331
1E8
  5
15F
331
1E9
  5
15E
331
1EA
  5
15D
331
1EB
  5
15C
331
1EC
  5
15B
331
1ED
  5
15A
331
1EE
  5
159
331
1EF
  5
158
331
1F0
  5
157
331
1F1
  5
156
331
1F2
  5
155
331
1F3
  5
154
331
1F4
  5
153
331
1F6
  5
151
331
1F9
  5
14E
331
1FA
  5
14D
331
1FB
  5
14C
331
1FC
  5
14B
331
1FD
  5
14A
331
1FE
  5
149
331
1FF
  5
148
331
200
  5
147
331
201
  5
146
331
202
  5
145
331
203
  5
144
331
204
  5
143
331
205
  5
142
331
207
  5
140
331
20C
  5
13B
331
20D
  5
13A
331
20E
  5
139
331
20F
  5
138
331
210
  5
137
331
211
  5
136
331
212
  5
135
331
213
  5
134
331
214
  5
133
331
215
  5
132
331
216
  5
131
331
217
  5
130
331
218
  5
12F
331
21A
  5
12D
331
21B
  5
12C
331
21C
  5
12B
331
21E
  5
129
331
221
  5
126
331
222
  5
125
331
223
  5
124
331
224
  5
123
331
225
  5
122
331
226
  5
121
331
227
  5
120
331
228
  5
11F
331
229
  5
11E
331
22A
  5
11D
331
22B
  5
11C
331
22C
  5
11B
331
22D
  5
11A
331
22E
  5
119
331
22F
  5
118
331
230
  5
117
331
231
  5
116
331
232
  5
113
331
233
  5
112
331
234
  5
111
331
235
  5
110
331
236
  5
10F
331
237
  5
10E
331
238
  5
10D
331
239
  5
10C
331
23A
  5
10B
331
23D
  5
108
331
23E
  5
107
331
23F
  5
106
331
240
  5
105
331
244
  5
101
331
245
  5
100
331
246
  5
FF
331
247
  5
FE
331
248
  5
FD
331
249
  5
FC
331
24A
  5
FB
331
24B
  5
FA
331
24C
  5
F9
331
24D
  5
F8
331
24E
  5
F7
331
24F
  5
F3
331
250
  5
F2
331
251
  5
F1
331
252
  5
F0
331
253
  5
EF
331
255
  5
ED
331
256
  5
EC
331
257
  5
EB
331
258
  5
EA
331
259
  5
E9
331
25A
  5
E8
331
25B
  5
E7
331
25C
  5
E6
331
25D
  5
E5
331
25E
  5
E4
331
25F
  5
E3
331
260
  5
E2
331
261
  5
E1
331
262
  5
E0
331
263
  5
DF
331
264
  5
DE
331
265
  5
DD
331
266
  5
DC
331
267
  5
DB
331
268
  5
DA
331
269
  5
D9
331
26A
  5
D8
331
26B
  5
D7
331
26C
  5
D6
331
26D
  5
D5
331
26E
  5
D4
331
26F
  5
D2
331
270
  5
D1
331
271
  5
D0
331
272
  5
CF
331
274
  5
CD
331
275
  5
CC
331
276
  5
CB
331
277
  5
CA
331
278
  5
C9
331
279
  5
C8
331
27A
  5
C7
331
27B
  5
C6
331
27C
  5
C5
331
27D
  5
C4
331
27E
  5
C3
331
27F
  5
C2
331
280
  5
C1
331
281
  5
C0
331
282
  5
BF
331
289
  5
B8
331
28A
  5
B7
331
28B
  5
B6
331
28C
  5
B5
331
28D
  5
B4
331
28E
  5
B3
331
28F
  5
B2
331
290
  5
B1
331
291
  5
B0
331
292
  5
AF
331
293
  5
AE
331
294
  5
AD
331
295
  5
AC
331
296
  5
AB
331
297
  5
AA
331
298
  5
A9
331
29E
  5
A3
331
29F
  5
A2
331
2A0
  5
A1
331
2A1
  5
A0
331
2A2
  5
9F
331
2A3
  5
9E
331
2AC
  5
95
331
2AD
  5
94
331
2AE
  5
93
331
2AF
  5
92
331
2B0
  5
91
331
2B1
  5
90
331
2B2
  5
8F
331
2B3
  5
8E
331
2B4
  5
8D
331
2B5
  5
8C
331
2B6
  5
8B
331
2B7
  5
8A
331
2B8
  5
89
331
2B9
  5
88
331
2BA
  5
87
331
2BB
  5
86
331
2BC
  5
85
331
2BD
  5
84
331
2BE
  5
83
331
2D5
  5
6C
331
2D6
  5
6B
331
2D7
  5
6A
331
2D8
  5
69
331
2D9
  5
68
331
2DA
  5
67
331
2DB
  5
66
331
2DC
  5
65
331
2DD
  5
64
331
2DE
  5
60
331
2DF
  5
5F
331
2E0
  5
5A
331
2E1
  5
2F2
331
2E2
  5
2F3
331
2E3
  5
2F4
331
2E4
  5
2F5
331
2E5
  5
2F6
331
2E6
  5
2F7
331
2E7
  5
2F8
331
2E8
  5
2F9
331
2E9
  5
2FA
331
2EA
  5
2FB
331
2EB
  5
2FC
331
2EC
  5
2FD
331
2ED
  5
2FE
331
2EE
  5
2FF
331
2EF
  5
300
331
2F0
  5
301
331
2F1
  5
302
331
2F2
  5
303
331
2F3
  5
304
331
2F4
  5
305
331
2F5
  5
306
331
2F6
  5
307
331
2F7
  5
308
331
2F8
  5
309
331
2F9
  5
30A
331
2FA
  5
30B
331
2FB
  5
30C
331
2FC
  5
30D
331
2FD
  5
30E
331
2FE
  5
30F
331
2FF
  5
310
331
300
  5
311
331
301
  5
312
331
302
  5
313
331
303
  5
314
331
304
  5
315
331
305
  5
316
331
306
  5
317
331
307
  5
318
331
308
  5
319
331
309
  5
31A
331
30A
  5
31B
331
30B
  5
31C
331
30D
  5
31E
331
30E
  5
31F
331
30F
  5
320
331
310
  5
321
331
311
  5
322
331
312
  5
323
331
313
  5
324
331
314
  5
325
331
315
  5
326
331
316
  5
327
331
317
  5
328
331
318
  5
329
331
319
  5
32A
331
31A
  5
32B
331
31B
  5
32C
331
31C
  5
32D
331
31D
  5
32E
331
31E
  5
32F
331
31F
  5
330
331
320
  5
331
331
321
  5
332
331
322
  5
333
331
323
  5
334
331
324
  5
335
331
325
  5
336
331
326
  5
337
331
327
  5
338
331
328
  5
339
331
329
  5
33A
331
32A
  5
33B
331
32B
  5
33C
331
32C
  5
33D
331
32D
  5
33E
331
32E
  5
33F
331
32F
  5
340
331
330
  5
341
331
331
  5
342
331
332
  5
343
331
333
  5
344
331
334
  5
345
331
335
  5
346
331
336
  5
347
331
337
  5
348
331
338
  5
349
331
339
  5
34A
331
33A
  5
34B
331
33B
  5
34C
331
33C
  5
34D
331
33D
  5
34E
331
33E
  5
34F
331
33F
  5
350
331
340
  5
351
331
341
  5
352
331
351
  5
362
331
352
  5
363
331
353
  5
364
331
354
  5
365
331
355
  5
366
331
356
  5
367
331
357
  5
368
331
358
  5
369
331
359
  5
36A
331
35A
  5
36B
331
35B
  5
36C
331
35C
  5
36D
331
35D
  5
36E
331
35E
  5
36F
331
35F
  5
370
331
360
  5
371
331
361
  5
372
331
362
  5
373
331
363
  5
374
331
364
  5
375
331
365
  5
376
331
366
  5
377
331
367
  5
378
331
368
  5
379
331
369
  5
37A
331
36A
  5
37B
331
36B
  5
37C
331
36C
  5
37D
331
36D
  5
37E
331
36E
  5
37F
331
36F
  5
380
331
370
  5
381
331
37D
  5
38E
331
37E
  5
38F
331
37F
  5
390
331
380
  5
391
331
381
  5
392
331
382
  5
393
331
383
  5
394
331
384
  5
395
331
385
  5
396
331
386
  5
397
331
387
  5
398
331
388
  5
399
331
389
  5
39A
331
38A
  5
39B
331
38B
  5
39C
331
38C
  5
39D
331
38D
  5
39E
331
38E
  5
39F
331
38F
  5
3A0
331
390
  5
3A1
331
391
  5
3A2
331
392
  5
3A3
331
393
  5
3A4
331
394
  5
3A5
331
395
  5
3A6
331
396
  5
3A7
331
397
  5
3A8
331
398
  5
3A9
331
399
  5
3AA
331
39A
  5
3AB
331
39B
  5
3AC
331
39C
  5
3AD
331
39D
  5
3AE
331
39E
  5
3AF
331
39F
  5
3B0
331
3A0
  5
3B1
331
3A1
  5
3B2
331
3A2
  5
3B3
331
3A3
  5
3B4
331
3A4
  5
3B5
331
3A5
  5
3B6
331
3A6
  5
3B7
331
3A7
  5
3B8
331
3A8
  5
3B9
331
3A9
  5
3BB
331
3AA
  5
3BC
331
3AB
  5
3BD
331
3AC
  5
3BE
331
3AD
  5
3BF
331
3AE
  5
3C3
331
3AF
  5
3C4
331
3B0
  5
3C6
331
3B1
  5
3C7
331
3B2
  5
3C8
331
3B3
  5
3C9
331
4C9
  5
4D1
331
4CA
  5
4D2
331
4CB
  5
4D3
331
4CC
  5
4D4
331
4CD
  5
20A
331
4D1
  5
D3
331
4D6
  5
4D9
331
4D7
  5
4DA
331
4D8
  5
4DB
331
4D9
  5
4DC
331
4DA
  5
4DD
331
4DB
  5
4DE
331
4DC
  5
4DF
331
4DD
  5
4E0
331
4DE
  5
4E1
331
4DF
  5
4E2
331
4E0
  5
4E3
331
4E1
  5
4E4
331
4E2
  5
4E5
331
4E3
  5
4E6
331
4E4
  5
4E7
331
4E5
  5
4E8
331
4E6
  5
4E9
331
4E7
  5
115
331
4E8
  5
114
331
4E9
  5
4EB
331
4EB
  5
4EC
331
4EC
  5
4ED
331
4ED
  5
4EE
331
4EE
  5
4EF
331
4EF
  5
4F1
331
4FD
  5
4FE
331
4FE
  5
500
331
500
  5
501
331
501
  5
502
331
502
  5
503
331
503
  5
504
331
504
  5
505
331
505
  5
506
331
506
  5
507
331
507
  5
508
331
508
  5
50A
331
50A
  5
50B
331
522
  5
523
331
523
  5
524
331
524
  5
525
331
525
  5
526
331
526
  5
527
331
527
  5
528
331
528
  5
529
331
529
  5
52A
331
52A
  5
52B
331
52B
  5
52C
331
52C
  5
52D
331
52D
  5
52E
331
52E
  5
52F
331
52F
  5
530
331
530
  5
531
331
532
  5
533
331
533
  5
534
331
534
  5
535
331
535
  5
536
331
536
  5
537
331
537
  5
538
331
538
  5
539
331
539
  5
53A
331
53A
  5
53B
331
53B
  5
53C
331
53D
  5
20C
  0
LAYOUT
  5
23
102
{ACAD_REACTORS
330
24
102
}
102
{ACAD_XDICTIONARY
360
25
102
}
330
24
100
AcDbPlotSettings
  1

  2
Bullzip PDF Printer.pc3
  4
A3
  6

 40
0.2
 41
0.0
 42
0.0
 43
0.0
 44
420.2
 45
297.1
 46
25.0
 47
12.0
 48
29.99999995250005
 49
0.0
140
602.9999986400001
141
408.74999904625
142
1.0
143
1.5
 70
 11936
 72
     1
 73
     0
 74
     4
  7
monochrome.ctb
 75
     0
147
0.6666666666666666
148
-29.99999995250005
149
0.0
100
AcDbLayout
  1
Model
 70
     0
 71
     0
 10
0.0
 20
0.0
 11
12.0
 21
9.0
 12
0.0
 22
0.0
 32
0.0
 14
46.92369407011734
 24
9.71058206833743
 34
0.0
 15
560.6594228679476
 25
485.1904915824567
 35
0.0
146
0.0
 13
0.0
 23
0.0
 33
0.0
 16
1.0
 26
0.0
 36
0.0
 17
0.0
 27
1.0
 37
0.0
 76
     0
330
1B
331
33
1001
ACAD_PSEXT
1000
Bullzip PDF Printer.pc3
1000
Bullzip PDF Printer
1000
BULLZIP
1000
Bullzip PDF Printer 10.1.0.1871
1070
     0
  0
LAYOUT
  5
2B
102
{ACAD_REACTORS
330
24
102
}
330
24
100
AcDbPlotSettings
  1

  2
SR-LP8300F
  4

  6

 40
0.0
 41
0.0
 42
0.0
 43
0.0
 44
0.0
 45
0.0
 46
0.0
 47
0.0
 48
0.0
 49
0.0
140
0.0
141
0.0
142
1.0
143
1.0
 70
   688
 72
     0
 73
     0
 74
     5
  7
monochrome.ctb
 75
    16
147
1.0
148
0.0
149
0.0
100
AcDbLayout
  1
ﾚｲｱｳﾄ1
 70
     0
 71
     1
 10
0.0
 20
0.0
 11
12.0
 21
9.0
 12
0.0
 22
0.0
 32
0.0
 14
1000000000000000E+20
 24
1000000000000000E+20
 34
1000000000000000E+20
 15
-1000000000000000E+20
 25
-1000000000000000E+20
 35
-1000000000000000E+20
146
0.0
 13
0.0
 23
0.0
 33
0.0
 16
1.0
 26
0.0
 36
0.0
 17
0.0
 27
1.0
 37
0.0
 76
     0
330
28
  0
MATERIAL
  5
59
102
{ACAD_REACTORS
330
B
102
}
102
{ACAD_XDICTIONARY
360
569
102
}
330
B
100
AcDbMaterial
  1
ByBlock
 72
     0
 73
     2
 43
0.0208333333333333
 43
0.0
 43
0.0
 43
0.0
 43
0.0
 43
0.0208333333333333
 43
0.0
 43
0.0
 43
0.0
 43
0.0
 43
1.0
 43
0.0
 43
0.0
 43
0.0
 43
0.0
 43
1.0
 77
     0
 78
     2
 47
0.0208333333333333
 47
0.0
 47
0.0
 47
0.0
 47
0.0
 47
0.0208333333333333
 47
0.0
 47
0.0
 47
0.0
 47
0.0
 47
1.0
 47
0.0
 47
0.0
 47
0.0
 47
0.0
 47
1.0
171
     0
172
     2
 49
0.0208333333333333
 49
0.0
 49
0.0
 49
0.0
 49
0.0
 49
0.0208333333333333
 49
0.0
 49
0.0
 49
0.0
 49
0.0
 49
1.0
 49
0.0
 49
0.0
 49
0.0
 49
0.0
 49
1.0
175
     0
176
     2
142
0.0208333333333333
142
0.0
142
0.0
142
0.0
142
0.0
142
0.0208333333333333
142
0.0
142
0.0
142
0.0
142
0.0
142
1.0
142
0.0
142
0.0
142
0.0
142
0.0
142
1.0
179
     0
270
     2
144
0.0208333333333333
144
0.0
144
0.0
144
0.0
144
0.0
144
0.0208333333333333
144
0.0
144
0.0
144
0.0
144
0.0
144
1.0
144
0.0
144
0.0
144
0.0
144
0.0
144
1.0
274
     2
147
0.0208333333333333
147
0.0
147
0.0
147
0.0
147
0.0
147
0.0208333333333333
147
0.0
147
0.0
147
0.0
147
0.0
147
1.0
147
0.0
147
0.0
147
0.0
147
0.0
147
1.0
  0
MATERIAL
  5
14
102
{ACAD_REACTORS
330
B
102
}
102
{ACAD_XDICTIONARY
360
565
102
}
330
B
100
AcDbMaterial
  1
ByLayer
 72
     0
 73
     2
 43
0.0208333333333333
 43
0.0
 43
0.0
 43
0.0
 43
0.0
 43
0.0208333333333333
 43
0.0
 43
0.0
 43
0.0
 43
0.0
 43
1.0
 43
0.0
 43
0.0
 43
0.0
 43
0.0
 43
1.0
 77
     0
 78
     2
 47
0.0208333333333333
 47
0.0
 47
0.0
 47
0.0
 47
0.0
 47
0.0208333333333333
 47
0.0
 47
0.0
 47
0.0
 47
0.0
 47
1.0
 47
0.0
 47
0.0
 47
0.0
 47
0.0
 47
1.0
171
     0
172
     2
 49
0.0208333333333333
 49
0.0
 49
0.0
 49
0.0
 49
0.0
 49
0.0208333333333333
 49
0.0
 49
0.0
 49
0.0
 49
0.0
 49
1.0
 49
0.0
 49
0.0
 49
0.0
 49
0.0
 49
1.0
175
     0
176
     2
142
0.0208333333333333
142
0.0
142
0.0
142
0.0
142
0.0
142
0.0208333333333333
142
0.0
142
0.0
142
0.0
142
0.0
142
1.0
142
0.0
142
0.0
142
0.0
142
0.0
142
1.0
179
     0
270
     2
144
0.0208333333333333
144
0.0
144
0.0
144
0.0
144
0.0
144
0.0208333333333333
144
0.0
144
0.0
144
0.0
144
0.0
144
1.0
144
0.0
144
0.0
144
0.0
144
0.0
144
1.0
274
     2
147
0.0208333333333333
147
0.0
147
0.0
147
0.0
147
0.0
147
0.0208333333333333
147
0.0
147
0.0
147
0.0
147
0.0
147
1.0
147
0.0
147
0.0
147
0.0
147
0.0
147
1.0
  0
MATERIAL
  5
A
102
{ACAD_REACTORS
330
B
102
}
102
{ACAD_XDICTIONARY
360
567
102
}
330
B
100
AcDbMaterial
  1
Global
 72
     0
 73
     2
 43
0.0208333333333333
 43
0.0
 43
0.0
 43
0.0
 43
0.0
 43
0.0208333333333333
 43
0.0
 43
0.0
 43
0.0
 43
0.0
 43
1.0
 43
0.0
 43
0.0
 43
0.0
 43
0.0
 43
1.0
 77
     0
 78
     2
 47
0.0208333333333333
 47
0.0
 47
0.0
 47
0.0
 47
0.0
 47
0.0208333333333333
 47
0.0
 47
0.0
 47
0.0
 47
0.0
 47
1.0
 47
0.0
 47
0.0
 47
0.0
 47
0.0
 47
1.0
171
     0
172
     2
 49
0.0208333333333333
 49
0.0
 49
0.0
 49
0.0
 49
0.0
 49
0.0208333333333333
 49
0.0
 49
0.0
 49
0.0
 49
0.0
 49
1.0
 49
0.0
 49
0.0
 49
0.0
 49
0.0
 49
1.0
175
     0
176
     2
142
0.0208333333333333
142
0.0
142
0.0
142
0.0
142
0.0
142
0.0208333333333333
142
0.0
142
0.0
142
0.0
142
0.0
142
1.0
142
0.0
142
0.0
142
0.0
142
0.0
142
1.0
179
     0
270
     2
144
0.0208333333333333
144
0.0
144
0.0
144
0.0
144
0.0
144
0.0208333333333333
144
0.0
144
0.0
144
0.0
144
0.0
144
1.0
144
0.0
144
0.0
144
0.0
144
0.0
144
1.0
274
     2
147
0.0208333333333333
147
0.0
147
0.0
147
0.0
147
0.0
147
0.0208333333333333
147
0.0
147
0.0
147
0.0
147
0.0
147
1.0
147
0.0
147
0.0
147
0.0
147
0.0
147
1.0
1001
ACAD
1070
    -1
1070
     3
1070
     0
1000

1071
        0
  0
MLEADERSTYLE
  5
4B7
102
{ACAD_REACTORS
330
49B
102
}
102
{ACAD_XDICTIONARY
360
59B
102
}
330
49B
100
AcDbMLeaderStyle
170
     2
171
     1
172
     0
 90
        2
 40
0.0
 41
0.0
173
     1
 91
-1056964608
340
11
 92
       -2
290
     1
 42
0.09
291
     1
 43
0.36
  3
Standard
341
0
 44
0.18
300

342
12
174
     1
178
     6
175
     1
176
     0
 93
-1056964608
 45
0.18
292
     0
297
     0
 46
0.18
343
0
 94
-1056964608
 47
1.0
 49
1.0
140
1.0
293
     1
141
0.0
294
     1
177
     0
142
1.0
295
     0
296
     0
143
0.125
1001
ACAD_MLEADERVER
1070
     2
  0
MLINESTYLE
  5
18
102
{ACAD_REACTORS
330
19
102
}
330
19
100
AcDbMlineStyle
  2
STANDARD
 70
     0
  3

 62
     0
 51
90.0
 52
90.0
 71
     2
 49
0.5
 62
   256
  6
BYLAYER
 49
-0.5
 62
   256
  6
BYLAYER
  0
ACDBPLACEHOLDER
  5
7
102
{ACAD_REACTORS
330
8
102
}
330
8
  0
SCALE
  5
58
102
{ACAD_REACTORS
330
36
102
}
330
36
100
AcDbScale
 70
     0
300
1:1
140
1.0
141
1.0
290
     1
  0
TABLESTYLE
  5
4C8
102
{ACAD_REACTORS
330
49A
102
}
330
49A
100
AcDbTableStyle
  3
Standard
 70
     0
 71
     0
 40
0.06
 41
0.06
280
     0
281
     0
  7
STANDARD
140
0.18
170
     2
 62
     0
 63
   257
283
     0
274
    -2
284
     1
 64
     0
275
    -2
285
     1
 65
     0
276
    -2
286
     1
 66
     0
277
    -2
287
     1
 67
     0
278
    -2
288
     1
 68
     0
279
    -2
289
     1
 69
     0
  7
STANDARD
140
0.25
170
     5
 62
     0
 63
   257
283
     0
274
    -2
284
     1
 64
     0
275
    -2
285
     1
 65
     0
276
    -2
286
     1
 66
     0
277
    -2
287
     1
 67
     0
278
    -2
288
     1
 68
     0
279
    -2
289
     1
 69
     0
  7
STANDARD
140
0.18
170
     5
 62
     0
 63
   257
283
     0
274
    -2
284
     1
 64
     0
275
    -2
285
     1
 65
     0
276
    -2
286
     1
 66
     0
277
    -2
287
     1
 67
     0
278
    -2
288
     1
 68
     0
279
    -2
289
     1
 69
     0
  0
VISUALSTYLE
  5
4A3
102
{ACAD_REACTORS
330
32
102
}
102
{ACAD_XDICTIONARY
360
573
102
}
330
32
100
AcDbVisualStyle
  2
2dWireframe
 70
     4
 71
     0
 72
     2
 73
     0
 90
        0
 40
0.6
 41
30.0
 62
     5
 63
     7
 74
     1
 91
        4
 64
     7
 65
   257
 75
     1
175
     1
 42
1.0
 92
        0
 66
   257
 43
1.0
 76
     1
 77
     6
 78
     2
 67
     7
 79
     5
170
     0
171
     0
290
     0
174
     0
 93
        1
 44
0.0
173
     0
291
     0
 45
0.0
1001
ACAD
1000
AcDbSavedByObjectVersion
1070
     0
  0
VISUALSTYLE
  5
4A6
102
{ACAD_REACTORS
330
32
102
}
102
{ACAD_XDICTIONARY
360
579
102
}
330
32
100
AcDbVisualStyle
  2
Basic
 70
     7
 71
     1
 72
     0
 73
     1
 90
        0
 40
0.6
 41
30.0
 62
     5
 63
     7
 74
     0
 91
        4
 64
     7
 65
   257
 75
     1
175
     1
 42
1.0
 92
        8
 66
     7
 43
1.0
 76
     1
 77
     6
 78
     2
 67
     7
 79
     5
170
     0
171
     0
290
     0
174
     0
 93
        1
 44
0.0
173
     0
291
     1
 45
0.0
1001
ACAD
1000
AcDbSavedByObjectVersion
1070
     0
  0
VISUALSTYLE
  5
4AA
102
{ACAD_REACTORS
330
32
102
}
102
{ACAD_XDICTIONARY
360
581
102
}
330
32
100
AcDbVisualStyle
  2
Brighten
 70
    12
 71
     2
 72
     2
 73
     0
 90
        0
 40
0.6
 41
30.0
 62
     5
 63
     7
 74
     1
 91
        4
 64
     7
 65
   257
 75
     1
175
     1
 42
1.0
 92
        8
 66
     7
 43
1.0
 76
     1
 77
     6
 78
     2
 67
     7
 79
     5
170
     0
171
     0
290
     0
174
     0
 93
        1
 44
50.0
173
     0
291
     1
 45
0.0
1001
ACAD
1000
AcDbSavedByObjectVersion
1070
     0
  0
VISUALSTYLE
  5
4AE
102
{ACAD_REACTORS
330
32
102
}
102
{ACAD_XDICTIONARY
360
589
102
}
330
32
100
AcDbVisualStyle
  2
ColorChange
 70
    16
 71
     2
 72
     2
 73
     3
 90
        0
 40
0.6
 41
30.0
 62
     5
 63
     8
 74
     1
 91
        4
 64
     7
 65
   257
 75
     1
175
     1
 42
1.0
 92
        8
 66
     8
 43
1.0
 76
     1
 77
     6
 78
     2
 67
     7
 79
     5
170
     0
171
     0
290
     0
174
     0
 93
        1
 44
0.0
173
     0
291
     1
 45
0.0
1001
ACAD
1000
AcDbSavedByObjectVersion
1070
     0
  0
VISUALSTYLE
  5
4A8
102
{ACAD_REACTORS
330
32
102
}
102
{ACAD_XDICTIONARY
360
57D
102
}
330
32
100
AcDbVisualStyle
  2
Conceptual
 70
     9
 71
     3
 72
     2
 73
     0
 90
        0
 40
0.6
 41
30.0
 62
     5
 63
     7
 74
     2
 91
        2
 64
     7
 65
   257
 75
     1
175
     1
 42
40.0
 92
        8
 66
     7
 43
1.0
 76
     1
 77
     6
 78
     2
 67
     7
 79
     3
170
     0
171
     0
290
     0
174
     0
 93
        1
 44
0.0
173
     0
291
     0
 45
0.0
1001
ACAD
1000
AcDbSavedByObjectVersion
1070
     0
  0
VISUALSTYLE
  5
4A9
102
{ACAD_REACTORS
330
32
102
}
102
{ACAD_XDICTIONARY
360
57F
102
}
330
32
100
AcDbVisualStyle
  2
Dim
 70
    11
 71
     2
 72
     2
 73
     0
 90
        0
 40
0.6
 41
30.0
 62
     5
 63
     7
 74
     1
 91
        4
 64
     7
 65
   257
 75
     1
175
     1
 42
1.0
 92
        8
 66
     7
 43
1.0
 76
     1
 77
     6
 78
     2
 67
     7
 79
     5
170
     0
171
     0
290
     0
174
     0
 93
        1
 44
-50.0
173
     0
291
     1
 45
0.0
1001
ACAD
1000
AcDbSavedByObjectVersion
1070
     0
  0
VISUALSTYLE
  5
4B1
102
{ACAD_REACTORS
330
32
102
}
102
{ACAD_XDICTIONARY
360
58F
102
}
330
32
100
AcDbVisualStyle
  2
EdgeColorOff
 70
    22
 71
     2
 72
     2
 73
     0
 90
        0
 40
0.6
 41
30.0
 62
     5
 63
     7
 74
     1
 91
        4
 64
     7
 65
   257
 75
     1
175
     1
 42
1.0
 92
        8
 66
     7
 43
1.0
 76
     1
 77
     6
 78
     2
 67
     7
 79
     5
170
     0
171
     0
290
     0
174
     0
 93
        1
 44
0.0
173
     0
291
     1
 45
0.0
1001
ACAD
1000
AcDbSavedByObjectVersion
1070
     0
  0
VISUALSTYLE
  5
4AD
102
{ACAD_REACTORS
330
32
102
}
102
{ACAD_XDICTIONARY
360
587
102
}
330
32
100
AcDbVisualStyle
  2
Facepattern
 70
    15
 71
     2
 72
     2
 73
     0
 90
        0
 40
0.6
 41
30.0
 62
     5
 63
     7
 74
     1
 91
        4
 64
     7
 65
   257
 75
     1
175
     1
 42
1.0
 92
        8
 66
     7
 43
1.0
 76
     1
 77
     6
 78
     2
 67
     7
 79
     5
170
     0
171
     0
290
     0
174
     0
 93
        1
 44
0.0
173
     0
291
     1
 45
0.0
1001
ACAD
1000
AcDbSavedByObjectVersion
1070
     0
  0
VISUALSTYLE
  5
49F
102
{ACAD_REACTORS
330
32
102
}
102
{ACAD_XDICTIONARY
360
56B
102
}
330
32
100
AcDbVisualStyle
  2
Flat
 70
     0
 71
     2
 72
     1
 73
     1
 90
        2
 40
0.6
 41
30.0
 62
     5
 63
     7
 74
     0
 91
        4
 64
     7
 65
   257
 75
     1
175
     1
 42
1.0
 92
        8
 66
     7
 43
1.0
 76
     1
 77
     6
 78
     2
 67
     7
 79
     5
170
     0
171
     0
290
     0
174
     0
 93
       13
 44
0.0
173
     0
291
     1
 45
0.0
1001
ACAD
1000
AcDbSavedByObjectVersion
1070
     0
  0
VISUALSTYLE
  5
4A0
102
{ACAD_REACTORS
330
32
102
}
102
{ACAD_XDICTIONARY
360
56D
102
}
330
32
100
AcDbVisualStyle
  2
FlatWithEdges
 70
     1
 71
     2
 72
     1
 73
     1
 90
        2
 40
0.6
 41
30.0
 62
     5
 63
     7
 74
     1
 91
        4
 64
     7
 65
   257
 75
     1
175
     1
 42
1.0
 92
        0
 66
   257
 43
1.0
 76
     1
 77
     6
 78
     2
 67
     7
 79
     5
170
     0
171
     0
290
     0
174
     0
 93
       13
 44
0.0
173
     0
291
     1
 45
0.0
1001
ACAD
1000
AcDbSavedByObjectVersion
1070
     0
  0
VISUALSTYLE
  5
4A1
102
{ACAD_REACTORS
330
32
102
}
102
{ACAD_XDICTIONARY
360
56F
102
}
330
32
100
AcDbVisualStyle
  2
Gouraud
 70
     2
 71
     2
 72
     2
 73
     1
 90
        2
 40
0.6
 41
30.0
 62
     5
 63
     7
 74
     0
 91
        4
 64
     7
 65
   257
 75
     1
175
     1
 42
1.0
 92
        0
 66
     7
 43
1.0
 76
     1
 77
     6
 78
     2
 67
     7
 79
     5
170
     0
171
     0
290
     0
174
     0
 93
       13
 44
0.0
173
     0
291
     1
 45
0.0
1001
ACAD
1000
AcDbSavedByObjectVersion
1070
     0
  0
VISUALSTYLE
  5
4A2
102
{ACAD_REACTORS
330
32
102
}
102
{ACAD_XDICTIONARY
360
571
102
}
330
32
100
AcDbVisualStyle
  2
GouraudWithEdges
 70
     3
 71
     2
 72
     2
 73
     1
 90
        2
 40
0.6
 41
30.0
 62
     5
 63
     7
 74
     1
 91
        4
 64
     7
 65
   257
 75
     1
175
     1
 42
1.0
 92
        0
 66
   257
 43
1.0
 76
     1
 77
     6
 78
     2
 67
     7
 79
     5
170
     0
171
     0
290
     0
174
     0
 93
       13
 44
0.0
173
     0
291
     1
 45
0.0
1001
ACAD
1000
AcDbSavedByObjectVersion
1070
     0
  0
VISUALSTYLE
  5
4A5
102
{ACAD_REACTORS
330
32
102
}
102
{ACAD_XDICTIONARY
360
577
102
}
330
32
100
AcDbVisualStyle
  2
Hidden
 70
     6
 71
     1
 72
     2
 73
     2
 90
        0
 40
0.6
 41
30.0
 62
     5
 63
     7
 74
     2
 91
        2
 64
     7
 65
   257
 75
     2
175
     1
 42
40.0
 92
        0
 66
   257
 43
1.0
 76
     1
 77
     6
 78
     2
 67
     7
 79
     3
170
     0
171
     0
290
     0
174
     0
 93
        1
 44
0.0
173
     0
291
     0
 45
0.0
1001
ACAD
1000
AcDbSavedByObjectVersion
1070
     0
  0
VISUALSTYLE
  5
4AF
102
{ACAD_REACTORS
330
32
102
}
102
{ACAD_XDICTIONARY
360
58B
102
}
330
32
100
AcDbVisualStyle
  2
JitterOff
 70
    20
 71
     2
 72
     2
 73
     0
 90
        0
 40
0.6
 41
30.0
 62
     5
 63
     7
 74
     1
 91
        4
 64
     7
 65
   257
 75
     1
175
     1
 42
1.0
 92
       10
 66
     7
 43
1.0
 76
     1
 77
     6
 78
     2
 67
     7
 79
     5
170
     0
171
     0
290
     0
174
     0
 93
        1
 44
0.0
173
     0
291
     1
 45
0.0
1001
ACAD
1000
AcDbSavedByObjectVersion
1070
     0
  0
VISUALSTYLE
  5
4AC
102
{ACAD_REACTORS
330
32
102
}
102
{ACAD_XDICTIONARY
360
585
102
}
330
32
100
AcDbVisualStyle
  2
Linepattern
 70
    14
 71
     2
 72
     2
 73
     0
 90
        0
 40
0.6
 41
30.0
 62
     5
 63
     7
 74
     1
 91
        4
 64
     7
 65
   257
 75
     7
175
     7
 42
1.0
 92
        8
 66
     7
 43
1.0
 76
     1
 77
     6
 78
     2
 67
     7
 79
     5
170
     0
171
     0
290
     0
174
     0
 93
        1
 44
0.0
173
     0
291
     1
 45
0.0
1001
ACAD
1000
AcDbSavedByObjectVersion
1070
     0
  0
VISUALSTYLE
  5
4B0
102
{ACAD_REACTORS
330
32
102
}
102
{ACAD_XDICTIONARY
360
58D
102
}
330
32
100
AcDbVisualStyle
  2
OverhangOff
 70
    21
 71
     2
 72
     2
 73
     0
 90
        0
 40
0.6
 41
30.0
 62
     5
 63
     7
 74
     1
 91
        4
 64
     7
 65
   257
 75
     1
175
     1
 42
1.0
 92
        9
 66
     7
 43
1.0
 76
     1
 77
     6
 78
     2
 67
     7
 79
     5
170
     0
171
     0
290
     0
174
     0
 93
        1
 44
0.0
173
     0
291
     1
 45
0.0
1001
ACAD
1000
AcDbSavedByObjectVersion
1070
     0
  0
VISUALSTYLE
  5
4A7
102
{ACAD_REACTORS
330
32
102
}
102
{ACAD_XDICTIONARY
360
57B
102
}
330
32
100
AcDbVisualStyle
  2
Realistic
 70
     8
 71
     2
 72
     3
 73
     0
 90
        2
 40
0.6
 41
30.0
 62
     5
 63
     7
 74
     0
 91
        0
 64
     7
 65
   257
 75
     1
175
     1
 42
1.0
 92
        8
 66
   257
 43
1.0
 76
     1
 77
     6
 78
     2
 67
     7
 79
     3
170
     0
171
     0
290
     0
174
     0
 93
       13
 44
0.0
173
     0
291
     0
 45
0.0
1001
ACAD
1000
AcDbSavedByObjectVersion
1070
     0
  0
VISUALSTYLE
  5
4B6
102
{ACAD_REACTORS
330
32
102
}
102
{ACAD_XDICTIONARY
360
599
102
}
330
32
100
AcDbVisualStyle
  2
Shaded
 70
    27
 71
     2
 72
     2
 73
     1
 90
        2
 40
0.6
 41
30.0
 62
     5
 63
     7
 74
     0
 91
        4
 64
     7
 65
   257
 75
     1
175
     1
 42
1.0
 92
        8
 66
   257
 43
1.0
 76
     1
 77
     6
 78
     2
 67
   251
 79
     3
170
     0
171
     0
290
     0
174
     0
 93
        5
 44
0.0
173
     0
291
     0
 45
0.0
1001
ACAD
1000
AcDbSavedByObjectVersion
1070
     0
  0
VISUALSTYLE
  5
4B5
102
{ACAD_REACTORS
330
32
102
}
102
{ACAD_XDICTIONARY
360
597
102
}
330
32
100
AcDbVisualStyle
  2
Shaded with edges
 70
    26
 71
     2
 72
     2
 73
     1
 90
        2
 40
0.6
 41
30.0
 62
     5
 63
     7
 74
     1
 91
       10
 64
     7
 65
   257
 75
     2
175
     1
 42
1.0
 92
        8
 66
   257
 43
1.0
 76
     1
 77
     6
 78
     2
 67
     7
 79
     3
170
     0
171
     0
290
     0
174
     0
 93
        5
 44
0.0
173
     0
291
     0
 45
0.0
1001
ACAD
1000
AcDbSavedByObjectVersion
1070
     0
  0
VISUALSTYLE
  5
4B2
102
{ACAD_REACTORS
330
32
102
}
102
{ACAD_XDICTIONARY
360
591
102
}
330
32
100
AcDbVisualStyle
  2
Shades of Gray
 70
    23
 71
     2
 72
     2
 73
     3
 90
        0
 40
0.6
 41
30.0
 62
     5
 63
     7
 74
     2
 91
        2
 64
     7
 65
     7
 75
     1
175
     1
 42
40.0
 92
        8
 66
     7
 43
1.0
 76
     1
 77
     6
 78
     2
 67
     7
 79
     3
170
     0
171
     0
290
     0
174
     0
 93
        1
 44
0.0
173
     0
291
     0
 45
0.0
1001
ACAD
1000
AcDbSavedByObjectVersion
1070
     0
  0
VISUALSTYLE
  5
4B3
102
{ACAD_REACTORS
330
32
102
}
102
{ACAD_XDICTIONARY
360
593
102
}
330
32
100
AcDbVisualStyle
  2
Sketchy
 70
    24
 71
     1
 72
     2
 73
     2
 90
        0
 40
0.6
 41
30.0
 62
     5
 63
     7
 74
     2
 91
        2
 64
     7
 65
     7
 75
     1
175
     1
 42
40.0
 92
       11
 66
     7
 43
1.0
 76
     1
 77
     6
 78
     2
 67
     7
 79
     6
170
     0
171
     0
290
     0
174
     0
 93
        1
 44
0.0
173
     0
291
     0
 45
0.0
1001
ACAD
1000
AcDbSavedByObjectVersion
1070
     0
  0
VISUALSTYLE
  5
4AB
102
{ACAD_REACTORS
330
32
102
}
102
{ACAD_XDICTIONARY
360
583
102
}
330
32
100
AcDbVisualStyle
  2
Thicken
 70
    13
 71
     2
 72
     2
 73
     0
 90
        0
 40
0.6
 41
30.0
 62
     5
 63
     7
 74
     1
 91
        4
 64
     7
 65
   257
 75
     1
175
     1
 42
1.0
 92
       12
 66
     7
 43
1.0
 76
     1
 77
     6
 78
     2
 67
     7
 79
     5
170
     0
171
     0
290
     0
174
     0
 93
        1
 44
0.0
173
     0
291
     1
 45
0.0
1001
ACAD
1000
AcDbSavedByObjectVersion
1070
     0
  0
VISUALSTYLE
  5
4A4
102
{ACAD_REACTORS
330
32
102
}
102
{ACAD_XDICTIONARY
360
575
102
}
330
32
100
AcDbVisualStyle
  2
Wireframe
 70
     5
 71
     0
 72
     2
 73
     0
 90
        0
 40
0.6
 41
30.0
 62
     5
 63
     7
 74
     1
 91
        4
 64
     7
 65
   257
 75
     1
175
     1
 42
1.0
 92
        0
 66
   257
 43
1.0
 76
     1
 77
     6
 78
     2
 67
     7
 79
     5
170
     0
171
     0
290
     0
174
     0
 93
        1
 44
0.0
173
     0
291
     0
 45
0.0
1001
ACAD
1000
AcDbSavedByObjectVersion
1070
     0
  0
VISUALSTYLE
  5
4B4
102
{ACAD_REACTORS
330
32
102
}
102
{ACAD_XDICTIONARY
360
595
102
}
330
32
100
AcDbVisualStyle
  2
X-Ray
 70
    25
 71
     2
 72
     2
 73
     1
 90
        1
 40
0.5
 41
30.0
 62
     5
 63
     7
 74
     1
 91
        0
 64
     7
 65
   257
 75
     1
175
     1
 42
1.0
 92
        8
 66
     7
 43
1.0
 76
     1
 77
     6
 78
     2
 67
     7
 79
     3
170
     0
171
     0
290
     0
174
     0
 93
       13
 44
0.0
173
     0
291
     0
 45
0.0
1001
ACAD
1000
AcDbSavedByObjectVersion
1070
     0
  0
XRECORD
  5
55F
102
{ACAD_REACTORS
330
55E
102
}
330
55E
100
AcDbXrecord
280
     1
340
31
  0
XRECORD
  5
560
102
{ACAD_REACTORS
330
55E
102
}
330
55E
100
AcDbXrecord
280
     1
340
B
  0
DICTIONARYVAR
  5
499
102
{ACAD_REACTORS
330
498
102
}
330
498
100
DictionaryVariables
280
     0
  1
1:1
  0
DICTIONARYVAR
  5
4C5
102
{ACAD_REACTORS
330
498
102
}
330
498
100
DictionaryVariables
280
     0
  1
Standard
  0
DICTIONARYVAR
  5
4D0
102
{ACAD_REACTORS
330
498
102
}
330
498
100
DictionaryVariables
280
     0
  1
Standard
  0
DICTIONARYVAR
  5
55C
102
{ACAD_REACTORS
330
498
102
}
330
498
100
DictionaryVariables
280
     0
  1
0
  0
DICTIONARYVAR
  5
55D
102
{ACAD_REACTORS
330
498
102
}
330
498
100
DictionaryVariables
280
     0
  1
1
  0
DICTIONARYVAR
  5
564
102
{ACAD_REACTORS
330
498
102
}
330
498
100
DictionaryVariables
280
     0
  1
1
  0
DICTIONARYVAR
  5
55B
102
{ACAD_REACTORS
330
498
102
}
330
498
100
DictionaryVariables
280
     0
  1
96
  0
DICTIONARYVAR
  5
49C
102
{ACAD_REACTORS
330
498
102
}
330
498
100
DictionaryVariables
280
     0
  1
0
  0
DICTIONARY
  5
25
330
23
100
AcDbDictionary
280
     1
281
     1
  3
ADSK_XREC_LAYOUTTHUMBNAIL
360
26
  0
DICTIONARY
  5
569
330
59
100
AcDbDictionary
280
     1
281
     1
  3
ACAD_XREC_ROUNDTRIP
360
56A
  0
DICTIONARY
  5
565
330
14
100
AcDbDictionary
280
     1
281
     1
  3
ACAD_XREC_ROUNDTRIP
360
566
  0
DICTIONARY
  5
567
330
A
100
AcDbDictionary
280
     1
281
     1
  3
ACAD_XREC_ROUNDTRIP
360
568
  0
DICTIONARY
  5
59B
330
4B7
100
AcDbDictionary
280
     1
281
     1
  3
ACAD_XREC_ROUNDTRIP
360
59C
  0
DICTIONARY
  5
573
330
4A3
100
AcDbDictionary
280
     1
281
     1
  3
ACAD_XREC_ROUNDTRIP
360
574
  0
DICTIONARY
  5
579
330
4A6
100
AcDbDictionary
280
     1
281
     1
  3
ACAD_XREC_ROUNDTRIP
360
57A
  0
DICTIONARY
  5
581
330
4AA
100
AcDbDictionary
280
     1
281
     1
  3
ACAD_XREC_ROUNDTRIP
360
582
  0
DICTIONARY
  5
589
330
4AE
100
AcDbDictionary
280
     1
281
     1
  3
ACAD_XREC_ROUNDTRIP
360
58A
  0
DICTIONARY
  5
57D
330
4A8
100
AcDbDictionary
280
     1
281
     1
  3
ACAD_XREC_ROUNDTRIP
360
57E
  0
DICTIONARY
  5
57F
330
4A9
100
AcDbDictionary
280
     1
281
     1
  3
ACAD_XREC_ROUNDTRIP
360
580
  0
DICTIONARY
  5
58F
330
4B1
100
AcDbDictionary
280
     1
281
     1
  3
ACAD_XREC_ROUNDTRIP
360
590
  0
DICTIONARY
  5
587
330
4AD
100
AcDbDictionary
280
     1
281
     1
  3
ACAD_XREC_ROUNDTRIP
360
588
  0
DICTIONARY
  5
56B
330
49F
100
AcDbDictionary
280
     1
281
     1
  3
ACAD_XREC_ROUNDTRIP
360
56C
  0
DICTIONARY
  5
56D
330
4A0
100
AcDbDictionary
280
     1
281
     1
  3
ACAD_XREC_ROUNDTRIP
360
56E
  0
DICTIONARY
  5
56F
330
4A1
100
AcDbDictionary
280
     1
281
     1
  3
ACAD_XREC_ROUNDTRIP
360
570
  0
DICTIONARY
  5
571
330
4A2
100
AcDbDictionary
280
     1
281
     1
  3
ACAD_XREC_ROUNDTRIP
360
572
  0
DICTIONARY
  5
577
330
4A5
100
AcDbDictionary
280
     1
281
     1
  3
ACAD_XREC_ROUNDTRIP
360
578
  0
DICTIONARY
  5
58B
330
4AF
100
AcDbDictionary
280
     1
281
     1
  3
ACAD_XREC_ROUNDTRIP
360
58C
  0
DICTIONARY
  5
585
330
4AC
100
AcDbDictionary
280
     1
281
     1
  3
ACAD_XREC_ROUNDTRIP
360
586
  0
DICTIONARY
  5
58D
330
4B0
100
AcDbDictionary
280
     1
281
     1
  3
ACAD_XREC_ROUNDTRIP
360
58E
  0
DICTIONARY
  5
57B
330
4A7
100
AcDbDictionary
280
     1
281
     1
  3
ACAD_XREC_ROUNDTRIP
360
57C
  0
DICTIONARY
  5
599
330
4B6
100
AcDbDictionary
280
     1
281
     1
  3
ACAD_XREC_ROUNDTRIP
360
59A
  0
DICTIONARY
  5
597
330
4B5
100
AcDbDictionary
280
     1
281
     1
  3
ACAD_XREC_ROUNDTRIP
360
598
  0
DICTIONARY
  5
591
330
4B2
100
AcDbDictionary
280
     1
281
     1
  3
ACAD_XREC_ROUNDTRIP
360
592
  0
DICTIONARY
  5
593
330
4B3
100
AcDbDictionary
280
     1
281
     1
  3
ACAD_XREC_ROUNDTRIP
360
594
  0
DICTIONARY
  5
583
330
4AB
100
AcDbDictionary
280
     1
281
     1
  3
ACAD_XREC_ROUNDTRIP
360
584
  0
DICTIONARY
  5
575
330
4A4
100
AcDbDictionary
280
     1
281
     1
  3
ACAD_XREC_ROUNDTRIP
360
576
  0
DICTIONARY
  5
595
330
4B4
100
AcDbDictionary
280
     1
281
     1
  3
ACAD_XREC_ROUNDTRIP
360
596
  0
XRECORD
  5
26
102
{ACAD_REACTORS
330
25
102
}
330
25
100
AcDbXrecord
280
     1
310
280000000001000084000000010008000000000000840000000000000000000000010000000000003028210000000000C8C8C8000000000000000000000000000000000000000000000000000000000000000000330000006600000099000000CC000000FF00000000330000333300006633000099330000CC330000FF3300
310
0000660000336600006666000099660000CC660000FF66000000990000339900006699000099990000CC990000FF99000000CC000033CC000066CC000099CC0000CCCC0000FFCC000000FF000033FF000066FF000099FF0000CCFF0000FFFF000000003300330033006600330099003300CC003300FF003300003333003333
310
33006633330099333300CC333300FF33330000663300336633006666330099663300CC663300FF66330000993300339933006699330099993300CC993300FF99330000CC330033CC330066CC330099CC3300CCCC3300FFCC330000FF330033FF330066FF330099FF3300CCFF3300FFFF330000006600330066006600660099
310
006600CC006600FF00660000336600333366006633660099336600CC336600FF33660000666600336666006666660099666600CC666600FF66660000996600339966006699660099996600CC996600FF99660000CC660033CC660066CC660099CC6600CCCC6600FFCC660000FF660033FF660066FF660099FF6600CCFF6600
310
FFFF660000009900330099006600990099009900CC009900FF00990000339900333399006633990099339900CC339900FF33990000669900336699006666990099669900CC669900FF66990000999900339999006699990099999900CC999900FF99990000CC990033CC990066CC990099CC9900CCCC9900FFCC990000FF99
310
0033FF990066FF990099FF9900CCFF9900FFFF99000000CC003300CC006600CC009900CC00CC00CC00FF00CC000033CC003333CC006633CC009933CC00CC33CC00FF33CC000066CC003366CC006666CC009966CC00CC66CC00FF66CC000099CC003399CC006699CC009999CC00CC99CC00FF99CC0000CCCC0033CCCC0066CC
310
CC0099CCCC00CCCCCC00FFCCCC0000FFCC0033FFCC0066FFCC0099FFCC00CCFFCC00FFFFCC000000FF003300FF006600FF009900FF00CC00FF00FF00FF000033FF003333FF006633FF009933FF00CC33FF00FF33FF000066FF003366FF006666FF009966FF00CC66FF00FF66FF000099FF003399FF006699FF009999FF00CC
310
99FF00FF99FF0000CCFF0033CCFF0066CCFF0099CCFF00CCCCFF00FFCCFF0000FFFF0033FFFF0066FFFF0099FFFF00CCFFFF00FFFFFF00000000000D0D0D001A1A1A00282828003535350043434300505050005D5D5D006B6B6B00787878008686860093939300A1A1A100AEAEAE00BBBBBB00C9C9C900D6D6D600E4E4E400
310
F1F1F100FFFFFF000000000000000000000000000000000000000000000000000000000000000000000000000000000000000000000000000000000000000000000000000000000000000000000000000000000000000000000000000000000000000000000000000000000000000000000000000000000000000000000000
310
00000000000000000000000000000000000000000000000000000000000000000000000000000000000000000000000000000000000000000000000000000000000000000000000000000000000000000000000000000000000000000000000000000000000000000000000000000000000000000000000000000000000000
310
00000000000000000000000000000000000000000000000000000000000000000000000000000000000000000000000000000000000000000000000000000000000000000000000000000000000000000000000000000000000000000000000000000000000000000000000000000000000000000000000000000000000000
310
00000000000000000000000000000000000000000000000000000000000000000000000000000000000000000000000000000000000000000000000000000000000000000000000000000000000000000000000000000000000000000000000000000000000000000000000000000000000000000000000000000000000000
310
00000000000000000000000000000000000000000000000000000000000000000000000000000000000000000000000000000000000000000000000000000000000000000000000000000000000000000000000000000000000000000000000000000000000000000000000000000000000000000000000000000000000000
310
00000000000000000000000000000000000000000000000000000000000000000000000000000000000000000000000000000000000000000000000000000000000000000000000000000000000000000000000000000000000000000000000000000000000000000000000000000000000000000000000000000000000000
310
00000000000000000000000000000000000000000000000000000000000000000000000000000000000000000000000000000000000000000000000000000000000000000000000000000000000000000000000000000000000000000000000000000000000000000000000000000000000000000000000000000000000000
310
00000000000000000000000000000000000000000000000000000000000000000000000000000000000000000000000000000000000000000000000000000000000000000000000000000000000000000000000000000000000000000000000000000000000000000000000000000000000000000000000000000000000000
310
00000000000000000000000000000000000000000000000000000000000000000000000000000000000000000000000000000000000000000000000000000000000000000000000000000000000000000000000000000000000000000000000000000000000000000000000000000000000000000000000000000000000000
310
00000000000000000000000000000000000000000000000000000000000000000000000000000000000000000000000000000000000000000000000000000000000000000000000000000000000000000000000000000000000000000000000000000000000000000000000000000000000000000000000000000000000000
310
00000000000000000000000000000000000000000000000000000000000000000000000000000000000000000000000000000000000000000000000000000000000000000000000000000000000000000000000000000000000000000000000000000000000000000000000000000000000000000000000000000000000000
310
00000000000000000000000000000000000000000000000000000000000000000000000000000000000000000000000000000000000000000000000000000000000000000000000000000000000000000000000000000000000000000000000000000000000000000000000000000000000000000000000000000000000000
310
00000000000000000000000000000000000000000000000000000000000000000000000000000000000000000000000000000000000000000000000000000000000000000000000000000000000000000000000000000000000000000000000000000000000000000000000000000000000000000000000000000000000000
310
00000000000000000000000000000000000000000000000000000000000000000000000000000000000000000000000000000000000000000000000000000000000000000000000000000000000000000000000000000000000000000000000000000000000000000000000000000000000000000000000000000000000000
310
00000000000000000000000000000000000000000000000000000000000000000000000000000000000000000000000000000000000000000000000000000000000000000000000000000000000000000000000000000000000000000000000000000000000000000000000000000000000000000000000000000000000000
310
00000000000000000000000000000000000000000000000000000000000000000000000000000000000000000000000000000000000000000000000000000000000000000000000000000000000000000000000000000000000000000000000000000000000000000000000000000000000000000000000000000000000000
310
00000000000000000000000000000000000000000000000000000000000000000000000000000000000000000000000000000000000000000000000000000000000000000000000000000000000000000000000000000000000000000000000000000000000000000000000000000000000000000000000000000000000000
310
00000000000000000000000000000000000000000000000000000000000000000000000000000000000000000000000000000000000000000000000000000000000000000000000000000000000000000000000000000000000000000000000000000000000000000000000000000000000000000000000000000000000000
310
00000000000000000000000000000000000000000000000000000000000000000000000000000000000000000000000000000000000000000000000000000000000000000000000000000000000000000000000000000000000000000000000000000000000000000000000000000000000000000000000000000000000000
310
00000000000000000000000000000000000000000000000000000000000000000000000000000000000000000000000000000000000000000000000000000000000000000000000000000000000000000000000000000000000000000000000000000000000000000000000000000000000000000000000000000000000000
310
00000000000000000000000000000000000000000000000000000000000000000000000000000000000000000000000000000000000000000000000000000000000000000000000000000000000000000000000000000000000000000000000000000000000000000000000000000000000000000000000000000000000000
310
00000000000000000000000000000000000000000000000000000000000000000000000000000000000000000000000000000000000000000000000000000000000000000000000000000000000000000000000000000000000000000000000000000000000000000000000000000000000000000000000000000000000000
310
00000000000000000000000000000000000000000000000000000000000000000000000000000000000000000000000000000000000000000000000000000000000000000000000000000000000000000000000000000000000000000000000000000000000000000000000000000000000000000000000000000000000000
310
00000000000000000000000000000000000000000000000000000000000000000000000000000000000000000000000000000000000000000000000000000000000000000000000000000000000000000000000000000000000000000000000000000000000000000000000000000000000000000000000000000000000000
310
00000000000000000000000000000000000000000000000000000000000000000000000000000000000000000000000000000000000000000000000000000000000000000000000000000000000000000000000000000000000000000000000000000000000000000000000000000000000000000000000000000000000000
310
00000000000000000000000000000000000000000000000000000000000000000000000000000000000000000000000000000000000000000000000000000000000000000000000000000000000000000000000000000000000000000000000000000000000000000000000000000000000000000000000000000000000000
310
00000000000000000000000000000000000000000000000000000000000000000000000000000000000000000000000000000000000000000000000000000000000000000000000000000000000000000000000000000000000000000000000000000000000000000000000000000000000000000000000000000000000000
310
00000000000000000000000000000000000000000000000000000000000000000000000000000000000000000000000000000000000000000000000000000000000000000000000000000000000000000000000000000000000000000000000000000000000000000000000000000000000000000000000000000000000000
310
00000000000000000000000000000000000000000000000000000000000000000000000000000000000000000000000000000000000000000000000000000000000000000000000000000000000000000000000000000000000000000000000000000000000000000000000000000000000000000000000000000000000000
310
00000000000000000000000000000000000000000000000000000000000000000000000000000000000000000000000000000000000000000000000000000000000000000000000000000000000000000000000000000000000000000000000000000000000000000000000000000000000000000000000000000000000000
310
00000000000000000000000000000000000000000000000000000000000000000000000000000000000000000000000000000000000000000000000000000000000000000000000000000000000000000000000000000000000000000000000000000000000000000000000000000000000000000000000000000000000000
310
00000000000000000000000000000000000000000000000000000000000000000000000000000000000000000000000000000000000000000000000000000000000000000000000000000000000000000000000000000000000000000000000000000000000000000000000000000000000000000000000000000000000000
310
00000000000000000000000000000000000000000000000000000000000000000000000000000000000000000000000000000000000000000000000000000000000000000000000000000000000000000000000000000000000000000000000000000000000000000000000000000000000000000000000000000000000000
310
00000000000000000000000000000000000000000000000000000000000000000000000000000000000000000000000000000000000000000000000000000000000000000000000000000000000000000000000000000000000000000000000000000000000000000000000000000000000000000000000000000000000000
310
00000000000000000000000000000000000000000000000000000000000000000000000000000000000000000000000000000000000000000000000000000000000000000000000000000000000000000000000000000000000000000000000000000000000000000000000000000000000000000000000000000000000000
310
00000000000000000000000000000000000000000000000000000000000000000000000000000000000000000000000000000000000000000000000000000000000000000000000000000000000000000000000000000000000000000000000000000000000000000000000000000000000000000000000000000000000000
310
00000000000000000000000000000000000000000000000000000000000000000000000000000000000000000000000000000000000000000000000000000000000000000000000000000000000000000000000000000000000000000000000000000000000000000000000000000000000000000000000000000000000000
310
00000000000000000000000000000000000000000000000000000000000000000000000000000000000000000000000000000000000000000000000000000000000000000000000000000000000000000000000000000000000000000000000000000000000000000000000000000000000000000000000000000000000000
310
00000000000000000000000000000000000000000000000000000000000000000000000000000000000000000000000000000000000000000000000000000000000000000000000000000000000000000000000000000000000000000000000000000000000000000000000000000000000000000000000000000000000000
310
00000000000000000000000000000000000000000000000000000000000000000000000000000000000000000000000000000000000000000000000000000000000000000000000000000000000000000000000000000000000000000000000000000000000000000000000000000000000000000000000000000000000000
310
00000000000000000000000000000000000000000000000000000000000000000000000000000000000000000000000000000000000000000000000000000000000000000000000000000000000000000000000000000000000000000000000000000000000000000000000000000000000000000000000000000000000000
310
00000000000000000000000000000000000000000000000000000000000000000000000000000000000000000000000000000000000000000000000000000000000000000000000000000000000000000000000000000000000000000000000000000000000000000000000000000000000000000000000000000000000000
310
00000000000000000000000000000000000000000000000000000000000000000000000000000000000000000000000000000000000000000000000000000000000000000000000000000000000000000000000000000000000000000000000000000000000000000000000000000000000000000000000000000000000000
310
00000000000000000000000000000000000000000000000000000000000000000000000000000000000000000000000000000000000000000000000000000000000000000000000000000000000000000000000000000000000000000000000000000000000000000000000000000000000000000000000000000000000000
310
00000000000000000000000000000000000000000000000000000000000000000000000000000000000000000000000000000000000000000000000000000000000000000000000000000000000000000000000000000000000000000000000000000000000000000000000000000000000000000000000000000000000000
310
00000000000000000000000000000000000000000000000000000000000000000000000000000000000000000000000000000000000000000000000000000000000000000000000000000000000000000000000000000000000000000000000000000000000000000000000000000000000000000000000000000000000000
310
00000000000000000000000000000000000000000000000000000000000000000000000000000000000000000000000000000000000000000000000000000000000000000000000000000000000000000000000000000000000000000000000000000000000000000000000000000000000000000000000000000000000000
310
0000000000F5F5F5F5F5F5F5F5F5F5F5F5F5F5F5F5F5F5F5F5F5F5F5F5F5F5F5F5F5F5F5F5F5F5F5F5F5F5F5F5F5F5F5F5F5F5F5F5F5F5F5F5F5F5F5F5F5F5F5F5F5F5F5F5F5F5F5F5F5F5F5F5F5F5F5F5F5F5F5F5F5F5F5F5F5F5F5F5F5F5F5F5F5F5F5F5F5F5F5F5F5F5F5F5F5F5F5F5F5F5F5F5F5F5F5F5F5F5F5F5F5F5
310
F5F5F5F5F5F5F5F5F5F5F5F5F5F5F5F5F50000000000000000000000000000000000000000000000000000000000000000000000000000000000000000000000000000000000000000000000000000000000000000000000000000000000000000000000000000000000000000000000000000000000000000000000000000
310
00000000000000F500000000000000000000000000000000000000000000000000000000000000000000000000000000000000000000000000000000000000000000000000000000000000000000000000000000F500000000000000000000000000F000BE00BEBEF00000BEBEBEBEBEBE000000F02D2D2D2D2D2D2D002828
310
282828282828282828282828282828282828F5000000000000000000000000000000000000000000000000000000000000000000000000000000000000000000000000000000000000000000000000000000000000000000000000000000000000000000000000000000000000000000000000000000000000000000000000
310
000000000000000000F50000DCDCDCDCDCDCDCDCDCDCDCDCDCDCDCDCDCDCDCDCDCDCDCDCDCDCDCDCDCDCDCDCDCDCDCDCDCDCDCDCDCDCDCDCDCDCDCDCDCDCDCDCDCDCDCDCDCDCDCDCDCDCDCDCDCDCDCDCDCDCDCDCDC00F500000000000000000000000000BEBEBEBEBEBEBEBEBEBEBEBEBEBEBEBEBEBEBE2D2D2D2D2D2D2D28
310
2828282828282828282828282828282828282828F500000000000000000000000000000000000000000000000000000000000000000000000000000000000000000000000000000000000000000000000000000000000000000000000000000000000000000000000000000000000000000000000000000000000000000000
310
0000000000000000000000F50000DCDCDCDCDCDCDCDCDCDCDCDCDCDCDCDCDCDCDCDCDCDCDCDCDCDCDCDCDCDCDCDCDCDCDCDCDCDCDCDCDCDCDCDCDCDCDCDC0000DCDCDC00DCDCDCDCDCDC00DC000000DCDCDCDC00DCDC0000F500000000000000000000000000F0BEBEBEBEBEF02D2DBEBEBEBEBEBEBEBEBEF0F0F0F0F0F0F0
310
F0F0F0F0F0F0F0F0F0F0F0F0F0F0F0F0F0F0F0F0F0F0F50000000000000000000000000000000000000000000000000000000000000000000000000000000000000000000000000000000000000000000000000000000000000000000000000000000000000000000000000000000000000000000000000000000000000000
310
00000000000000000000000000F50000DCDCDC00DCDCDCDCDCDCDCDCDCDCDCDC00DCDCDCDCDCDCDCDCDCDCDCDCDCDCDC00DCDCDCDCDCDCDCDCDCDCDCDCDCDCDC0000000000000000000000000000000000000000000000000000F500000000000000000000000000F000BEBEBE00F000002D2D2D2D2D2D000000F000000000
310
000000F02828002828282828282800002828282800002828F5000000000000000000000000000000000000000000000000000000000000000000000000000000000000000000000000000000000000000000000000000000000000000000000000000000000000000000000000000000000000000000000000000000000000
310
000000000000000000000000000000F50000DCDCDCDCDCDCDCDCDCDCDCDCDCDCDCDCDCDCDCDCDCDCDCDCDCDCDCDCDCDCDCDCDCDCDCDCDCDCDCDCDCDCDCDCDCDCDCDCDCDC000000000000000000000000000000000000000000000000F500000000000000000000000000BEBEBEBEBEBEBEBEBEBEBEBEBEBEBEBEBEBEBE00BE
310
BEBEBEBEBEF02828282828282828282828282828282828282828F500000000000000000000000000000000000000000000000000000000000000000000000000000000000000000000000000000000000000000000000000000000000000000000000000000000000000000000000000000000000000000000000000000000
310
0000000000000000000000000000000000F50000DCDC0000DCDCDCDCDCDCDCDCDCDCDCDCDCDCDCDCDCDC00DCDCDCDCDCDCDCDCDCDCDCDCDCDCDCDCDCDCDCDCDCDCDCDCDCDC00000000000000000000000000000000000000000000000000F500000000000000000000000000F000BEBEBE00F0BEBEBEBEBEBEBEBEBEBEBEBE
310
00BEBEBEBEBE00F02828002828282828282800002828282828002828F50000000000000000000000000000000000000000000000000000000000000000000000000000000000000000000000000000000000000000000000000000000000000000000000000000000000000000000000000000000000000000000000000000
310
00000000000000000000000000000000000000F500F5DCDCDCDCDCDCF5F5DCDCDCDCDCDCDCDCDCDCDCDCF5DCDCDCDCF5DCDCDCF5F5F5F5F5F5F5F5F5F50000000000000000000000000000000000000000000000000000000000000000000000F500000000000000000000000000F0BEBEBEBEBEF0BEBEBEBEBEBEBEBEBEBE
310
BEBEF0F0F0F0F0F0F0F0F0F0F0F0F0F0F0F0F0F0F0F0F0F0F0F0F0F0F0F0F5000000000000000000000000000000000000000000000000000000000000000000000000000000000000000000000000000000000000000000000000000000000000000000000000000000000000000000000000000000000000000000000000
310
000000000000000000000000000000000000000000F500F5DCDCDCDCDCDCF5F5DCDCDCDCDCDCDCDCDCDCDCDCF5DCDCDCDCF5DCDCDCF500000000F5000000F50000000000000000000000000000000000000000000000000000000000000000000000F500000000000000000000000000F000BEBEBE00F0BEBEBEBEBEBEBEBE
310
BEBEBEBE00BEBE0000BEBEF02828280000282828282828282800000000000000F500000000000000000000000000000000000000000000000000000000000000000000000000000000000000000000000000000000000000000000000000000000000000000000000000000000000000000000000000000000000000000000
310
0000000000000000000000000000000000000000000000F500F5DCDCDCDCDCDC0000DCDCDCDCDCDCDCDCDCDCDCDC00DCDCDCDCBEDCDCDCF500000000F5000000F500002D2D2D2D2D2D2D2D2D2D2D2D00000000002D2D2D2D2D2D2D2D2D2D2D2D00000000F500000000000000000000000000BEBEBEBEBEBEBEBEBEBEBEBEBE
310
BEBEBEBEBEBE00BEBE0000BEBEF02828282828282828282828282800000000000000F50000000000000000000000000000000000000000000000000000000000000000000000000000000000000000000000000000000000000000000000000000000000000000000000000000000000000000000000000000000000000000
310
00000000000000000000000000000000000000000000000000F500F5DCDCDCDCDCDCF5F5DCDCDCDCDCDCDCDCDCDCDCDCF5DCDCDCDCF5DCDCDCF500000000F5000000F5000000DC000000DCDCDCDCDCDC00000000000000DCDC0000DCDCDCDCDCDC0000000000F500000000000000000000000000F000BE00BE00F0BEBEBEBE
310
BEBEBEBEBEBEBEBE00000000000000F00000000000000000000000000000000000000000F5000000000000000000000000000000000000000000000000000000000000000000000000000000000000000000000000000000000000000000000000000000000000000000000000000000000000000000000000000000000000
310
000000000000000000000000000000000000000000000000000000F500F5DCDCDCDCDCDCF5F5DCDCDCDCDCDCDCDCDCDCDCDCF5DCDCDCDCF5DCDCDCF500000000F5000000F5002D0000000000000000000000000000DC0000000000000000BE000000000000000000F500000000000000000000000000F0F0F0F0F0F0F0F0F0
310
F0F0F0F0F0F0F0F0F0F0F0F0F0F0F0F0F0F0F0F0F0F0F0F0F0F0F0F0F0F0F0F0F0F0F0F0F0F0F500000000000000000000000000000000000000000000000000000000000000000000000000000000000000000000000000000000000000000000000000000000000000000000000000000000000000000000000000000000
310
0000000000000000000000000000000000000000000000000000000000F500F5DCDCDCDCDCDCF5F5DCDCDCDCDCDCDCDCF5DCDCDCF5DCDCDCDCF5DCDCDCF500000000F5000000F5DCDCDC2D000000000000000000000000DCDCDC000000000000BE000000000000000000F500000000000000000000000000F0000000000000
310
0000000000000000282828F000BEBEBEBEBEBEF00000000000000000000000000000000000000000F50000000000000000000000000000000000000000000000000000000000000000000000000000000000000000000000000000000000000000000000000000000000000000000000000000000000000000000000000000
310
00000000000000000000000000000000000000000000000000000000000000F500F5DCDCDCDCDCDC0000DCDCDCDCDCDCDCDCDCDCDCDC00DCDCDCDCBEDCDCDCF500000000F5000000F5DCDCDCDCDC0000000000000000000000DCDCDCDC2DDC002828BE282800000000000000DCDCDCDCDCDC0000000000000000F000000000
310
00000000000000000000282828F000BEBEBEBEBEBEF00000000000000000000000000000000000000000F5000000000000000000000000000000000000000000000000000000000000000000000000000000000000000000000000000000000000000000000000000000000000000000000000000000000000000000000000
310
000000000000000000000000000000000000000000000000000000000000000000F500F5DCDCDCDCDCDCF5F5DCDCDCDCF5DCDCDCDCDCDCDCF5DCDCDCDCF5DCDCDCF500000000F5000000F50000DCDCDCDC00BE282D2D2D2D2D00000000DCDCDC2D2D2D00BE002800000000000000F5DCDCDCDCDCF0F0F0F0F0F0F0F0F0F0F0
310
F0F0F0F0F0F0F0F0F0F0F0F0F0F0F0F0F0F0F0F0F0F0F0F0F0F0F0F0F0F0F0F0F0F0F0F0F0F0F0F0F0F0F0F0F500000000000000000000000000000000000000000000000000000000000000000000000000000000000000000000000000000000000000000000000000000000000000000000000000000000000000000000
310
0000000000000000000000000000000000000000000000000000000000000000000000F500F5DCDCDCDCDCDCF5F5DCDCDCDCF5DCDCDCF5DCDCDCF5DCDCDCDCF5DCDCDCF500DCDC00F5DCDC00F5000000DCDCDCBEBEBEBE00DCDC00000000000000BEBEBE2DBEBEBEBEBEBEDCDC000000000000000000000000000000000000
310
00000000000000000000000000000000000000000000000000000000000000000000000000000000000000000000F50000000000000000000000000000000000000000000000000000000000000000000000000000000000000000000000000000000000000000000000000000000000000000000000000000000000000000
310
00000000000000000000000000000000000000000000000000000000000000000000000000F500F5DCDCDCDCDCDC0000DCDCDCDCF5DCDC00BEDCDCDC00DCDCDC00BEDCDCDCF500DCDC00F5DCDC00F50000000000002828282D2DDC2D2D00000000002D0000280000BE2D2D2800DC2D00000000000000000000000000000000
310
00000000000000F0F0F0F0F0F0F0F0F0F0F0F0F0F0F0F0F0F0F00000F0F0F0F0F0F0F0F0F0F0F0F0F0F0F0F0F0F0F000F5000000000000000000000000000000000000000000000000000000000000000000000000000000000000000000000000000000000000000000000000000000000000000000000000000000000000
310
000000000000000000000000000000000000000000000000000000000000000000000000000000F500F5DCDCDCDCDCDCF5F5DCDCDCDCF5DCDCF5F5DCDCDCF5DCDCDCDCF5DCDCDCF500000000F5000000F500000000000000BE00000000000000000000002D2D2D28282828282D2D2D2D2D2D00000000000000000000000000
310
000000000000000000F02828282828282828280000280000000000F00000F02828282828280000282800000000000000F000F500000000000000000000000000000000000000000000000000000000000000000000000000000000000000000000000000000000000000000000000000000000000000000000000000000000
310
0000000000000000000000000000000000000000000000000000000000000000000000000000000000F500F5DCDCDCDCDCDCF5F5DCDCDCDCF5DCDCDCF5DCDCDCF5DCDCDCDCF5DCDCDCF500000000F5000000F5000000000000000000000000000000000000002D2D2D2D282D2D28280000002D000000000000000000000000
310
0000000000000000000000F02828282828282828280028282800000000F00000F02828282828280000280028282800000000F000F50000000000000000000000000000000000000000000000000000000000000000000000000000000000000000000000000000000000000000000000000000000000000000000000000000
310
00000000000000000000000000000000000000000000000000000000000000000000000000000000000000F500F5DCDCDCDCDCDCDCDCDCDCDCDCF5DCDCDCDCDCDCDC00DCDCDCDCBEDCDCDCF500000000F5000000F5000000000000000000000000000000000000002D000000002828282D2D2D2D2D2D000000000000000000
310
00000000000000000000000000F02828282828280028280000282800000000F00000F02828282828000000280028000000000000F000F5000000000000000000000000000000000000000000000000000000000000000000000000000000000000000000000000000000000000000000000000000000000000000000000000
310
000000000000000000000000000000000000000000000000000000000000000000000000000000000000000000F500F5DCDCDCDCDCDCDCDCDCDCDCDCF5DCDCDCF5DCDCDCF5DCDCDCF5F5DCDCDCF500000000F5000000F5000000000000000000000000000000000000DCDC000000002DBE2D000000002D0000000000000000
310
000000000000000000000000000000F0F0F0F0F0F0F0F0F0F0F0F0F0F0F0F0F0F0F00000F0F0F0F0F0F0F0F0F0F0F0F0F0F0F0F0F0F0F000F500000000000000000000000000000000000000000000000000000000000000000000000000000000000000000000000000000000000000000000000000000000000000000000
310
0000000000000000000000000000000000000000000000000000000000000000000000000000000000000000000000F500F5DCDCDCDCDCDCDCDCDCDCDCDCF5DCDCDCF5DCDCDCF5DCDCDCF5F5DCDCDCF500000000F5000000F50000000000000000000000000000000000000000000000002D002D000000002D000000000000
310
0000000000000000000000000000000000000000000000000000000000000000000000000000F0F0F0F0F0F0F0F0F0F0F0F0F0F0F0F0F0F0F000F50000000000000000000000000000000000000000000000000000000000000000000000000000000000000000000000000000000000000000000000000000000000000000
310
00000000000000000000000000000000000000000000000000000000000000000000000000000000000000000000000000F500F5DCDCDCDCDCDCDCDCDCDCDCDCF5DCDCDCBEDCDCDC00DCDCDC00BEDCDCDCF500000000F5000000F5000000000000000000000000000000000000000000002D2D2D2D2D2D2D00000000000000
310
00000000000000000000000000000000000000000000000000000000000000000000000000000000F0BEBEBEBEBEBEBEBEBE00BEBEBEBEBEBEBEF000F5000000000000000000000000000000000000000000000000000000000000000000000000000000000000000000000000000000000000000000000000000000000000
310
000000000000000000000000000000000000000000000000000000000000000000000000000000000000000000000000000000F500F5DCDCDCDCDCDCDCDCDCDCDCDCF5DCDCDCF5DCDCDCF5DCDCDCF5F5DCDCDCF500000000F5000000F5000000000000000000000000000000000000000000000000000000DC000000000000
310
000000000000000000000000000000000000000000000000000000000000000000000000000000000000F0BEBEBEBEBEBEBEBEBE00BEBEBEBEBEBEBEF000F500000000000000000000000000000000000000000000000000000000000000000000000000000000000000000000000000000000000000000000000000000000
310
0000000000000000000000000000000000000000000000000000000000000000000000000000000000000000000000000000000000F500F5DCDCDCDCDCF5F5F5DCDCDCDCF5DCDCDCF5F5DCDCF5F5DCDCF5F5DCDCF5F5F5F5F5F5F5F5F5F5F5000000000000000000000000000000000000000000000000000000DCDC000000
310
0000000000000000000000000000000000000000000000000000000000000000000000000000000000000000F0F0F0F0F0F0F0F0F0F0F0F0F0F0F0F0F0F0F000F50000000000000000000000000000000000000000000000000000000000000000000000000000000000000000000000000000000000000000000000000000
310
00000000000000000000000000000000000000000000000000000000000000000000000000000000000000000000000000000000000000F500F50000000000000000F5000000BEBEBEBEBEBEBEBEBEBEBEBEBEBEBEBEBEBE00DCDC00F500DC00F5000000000000000000000000000000000000000000000000000000000000
310
00000000000000000000000000000000000000000000000000000000000000000000000000000000000000000000F0BEBEBEBEBEBE0000000000000000000000F000F5000000000000000000000000000000000000000000000000000000000000000000000000000000000000000000000000000000000000000000000000
310
000000000000000000000000000000000000000000000000000000000000000000000000000000000000000000000000000000000000000000F500F500DCDC00DCDC0000F5DCDCDCF5DCDCDCDCDCDCDCDCF5DCDCDCDCDCDCDCF5DCDCDCDCF5DCDCDCF500000000000000000000000000000000000000000000000000000000
310
000000000000000000000000000000000000000000000000000000000000000000000000000000000000000000000000F0BEBEBEBEBEBE0000000000000000000000F000F500000000000000000000000000000000000000000000000000000000000000000000000000000000000000000000000000000000000000000000
310
0000000000000000000000000000000000000000000000000000000000000000000000000000000000000000000000000000000000000000000000F500F50000DC0000DC0000F5DCDCDCBEBEBEBEBEBEBEBEBEBEBEBEBEBEBEBEBEBEDCDCDCDCF5DCDCDCF50000000000000000000000000000000000000000000000000000
310
0000002D2D000000000000000000000000000000000000000000000000000000000000000000000000000000002D2D000000F0F0F0F0F0F0F0F0F0F0F0F0F0F0F0F0F0F0F000F50000000000000000000000000000000000000000000000000000000000000000000000000000000000000000000000000000000000000000
310
00000000000000000000000000000000000000000000000000000000000000000000000000000000000000000000000000000000000000000000000000F500F5F5F5F5F5F5F5F5F5F5F5F5F5F5F5F5F5F5F5F5F5F5F5F5F5F5F5F5F5F5F5F5F5F5F5F5F5F5F5F5000000000000000000000000000000000000000000000000
310
00000000002D2D2D2D2D2D2D2D2D2D2D2D2D2D2D2D2D2D2D2DDCDCDCDC2D2D2D2D2D2D2D2D2D2D2D2D2D2D2D2D2D2D2D2D000000F00000000000000000000000000000000000F000F5000000000000000000000000000000000000000000000000000000000000000000000000000000000000000000000000000000000000
310
000000000000000000000000000000000000000000000000000000000000000000000000000000000000000000000000000000000000000000000000000000F5000000000000000000000000000000000000000000000000000000000000000000000000000000000000000000000000000000000000000000000000000000
310
000000000000002D00000000000000000000000000000000000000DCDCDCDC000000000000000000000000000000000000002D000000F00000000000000000000000000000000000F000F500000000000000000000000000000000000000000000000000000000000000000000000000000000000000000000000000000000
310
0000000000000000000000000000000000000000000000000000000000000000000000000000000000000000000000000000000000000000000000000000000000F5000000000000000000000000002D2D2D2D2D2D2D2D2D2D2D2D2D2D2D2D2D2D2D2D2D2D2D2D2D2D2D2D2D2D2D2D00000000000000000000000000000000
310
0000000000000000002D0000002D2D2D2D2D2D2D2D2D2D2D2D2D2D2D2D2D2D2D2D2D2D2D2D2D2D2D2D2D2D2D2D2D2D2D2D0000002D000000F00000000000000000000000000000000000F000F50000000000000000000000000000000000000000000000000000000000000000000000000000000000000000000000000000
310
00000000000000000000000000000000000000000000000000000000000000000000000000000000000000000000000000000000000000000000000000000000000000F5000000000000000000000000002D2D000000000000000000000000DCDCDCDC000000000000000000000000002D0000000000000000000000000000
310
00000000000000000000002D0000002D2D0000000000000000000000000000DCDCDCDC00000000000000000000000000002D2D0000002D000000F00000000000000000000000000000000000F000F5000000000000000000000000000000000000000000000000000000000000000000000000000000000000000000000000
310
000000000000000000000000000000000000000000000000000000000000000000000000000000000000000000000000000000000000000000000000000000000000000000F5000000000000000000000000002D00000000000000000000000000DCDCDCDC000000000000000000000000002D000000000000000000000000
310
000000000000000000000000002D0000002D000000000000000000000000000000DCDCDCDC0000000000000000000000000000002D0000002D000000F00000000000000000000000000000000000F000F500000000000000000000000000000000000000000000000000000000000000000000000000000000000000000000
310
0000000000000000000000000000000000000000000000000000000000000000000000000000000000000000000000000000000000000000000000000000000000000000000000F5000000000000000000000000002D0000002D2D2D2D2D2D2D2D2D2D2D2D2D2D2D2D2D2D2D2D2D2D2D2D2D00002D00000000000000000000
310
0000000000000000000000000000002D0000002D0000000000000000000000000000000000000000000000002D2D2D2D2D2D2D2D2D2D2D2D2D2D2D000000F0BEBEBE0000000000000000000000000000F000F50000000000000000000000000000000000000000000000000000000000000000000000000000000000000000
310
00000000000000000000000000000000000000000000000000000000000000000000000000000000000000000000000000000000000000000000000000000000000000000000000000F5000000000000000000000000002D0000002D00000000000000000000DCDCDC000000000000000000002D00002D0000000000000000
310
00000000000000000000000000000000002D0000002D0000000000000000000000000000000000000000000000002D0000000000DCDCDC002D0000002D000000F0F0F0F0F0F0F0F0F0F0F0F0F0F0F0F0F0F0F000F5000000000000000000000000000000000000000000000000000000000000000000000000000000000000
310
000000000000000000000000000000000000000000000000000000000000000000000000000000000000000000000000000000000000000000000000000000000000000000000000000000F5000000000000000000000000002D0000002D00000000000000000000DCDCDC000000000000000000002D00002D000000DCDCDC
310
DCDC2D000000000000000000000000000000002D0000002D0000000000000000000000000000000000000000000000002D0000000000DCDCDC002D0000002D000000F00028282828282828282828002828282800F000F500000000000000000000000000000000000000000000000000000000000000000000000000000000
310
0000000000000000000000000000000000000000000000000000000000000000000000000000000000000000000000000000000000000000000000000000000000000000000000000000000000F5000000000000000000000000002D0000002D00000000000000000000000000000000000000000000002D00002D002D2DDC
310
DCDCDCDC00000000000000000000000000000000002D0000002D0000000000000000000000000000000000000000000000002D0000000000000000002D0000002D000000F02828282828282828282828282828282828F000F50000000000000000000000000000000000000000000000000000000000000000000000000000
310
00000000000000000000000000000000000000000000000000000000000000000000000000000000000000000000000000000000000000000000000000000000000000000000000000000000000000F5000000000000000000000000002D000000BE0000000000000000000000000000000000000000000000BE00002D2D00
310
00000000000000000000000000000000000000000000002D000000BE000000000000000000DC2DDCDCDC2DDCDC2D0000000000002D000000000000000000BE0000002D000000F00028282828282828282800000028002800F000F5000000000000000000000000000000000000000000000000000000000000000000000000
310
000000000000000000000000000000000000000000000000000000000000000000000000000000000000000000000000000000000000000000000000000000000000000000000000000000000000000000F5000000000000000000000000002D000000BE0000000000000000000000BE0000000000000000000000BE2D2D2D
310
000000000000000000000000000000000000000000000000002D000000BE000000000000000000DCDCDCDCDCDCDCDCDC2D00000000002D000000000000000000BE0000002D000000F0F0F0F0F0F0F0F0F0F0F0F0F0F0F0F0F0F0F000F500000000000000000000000000000000000000000000000000000000000000000000
310
0000000000000000000000000000000000000000000000000000000000000000000000000000000000000000000000000000000000000000000000000000000000000000000000000000000000000000000000F50000000000000000000000000028282828BE2828282828282828282828BE28282828282828282828282D28
310
28282D2D2D2D2D00000000000000000000002D2D2D2D2D2D2D2D2D28282828BE282828282828282800000000000000000000002D000000002D002828282828282828BE282828282D2D2D2D2D2D2D2D2D2D2D2D2D2D2D0000000000000000F50000000000000000000000000000000000000000000000000000000000000000
310
00000000000000000000000000000000000000000000000000000000000000000000000000000000000000000000000000000000000000000000000000000000000000000000000000000000000000000000000000F50000000000000000000000000028000000BE0000000000000000000000BE0000000000000000282800
310
BE2800280000DCDC2D0000000000000000000000002D0000000000000028000000BE00280000000000282828282828282828282828282D2828BEBE282800000000002800BE0000002800000000000000000000002D00002D0000000000000000F5000000000000000000000000000000000000000000000000000000000000
310
000000000000000000000000000000000000000000000000000000000000000000000000000000000000000000000000000000000000000000000000000000000000000000000000000000000000000000000000000000F50000000000000000000000000028000000BE0000000000000000282828BE282800000000000028
310
2800BE2800280000DCDC2D0000000000000000000000002D0000000000282828000000BE0028000000000028000000000000000000000000282D00BEBE282800000000002800BE0000002800000000000000000000002D00002D0000000000000000F500000000000000000000000000000000000000000000000000000000
310
0000000000000000000000000000000000000000000000000000000000000000000000000000000000000000000000000000000000000000000000000000000000000000000000000000000000000000000000000000000000F50000000000000000000000000028282828282828280000002828280000BE00282828000000
310
28282828BE2828282D2D2D2D2D0000000000000000000000002D0000000000280028282828BE2828282828282828000000000000000000000000282D2D2828282828282828282828BE2828282800000000000000000000002D00002D0000000000000000F50000000000000000000000000000000000000000000000000000
310
00000000000000000000000000000000000000000000000000000000000000000000000000000000000000000000000000000000000000000000000000000000000000000000000000000000000000000000000000000000000000F50000000000000000000000000000000000BE00002800282800BEBEBEBEBEBEBEBE0028
310
280028000000BE00000000000000000000000000000000000000002D0000000000280028000000BE000000000000000000000000000000000000000028BE2828BE28BE00000000000000BE0000002828282800000000000000002D00002D0000000000000000F5000000000000000000000000000000000000000000000000
310
000000000000000000000000000000000000000000000000000000000000000000000000000000000000000000000000000000000000000000000000000000000000000000000000000000000000000000000000000000000000000000F5000000000000000000000000000000000000000028BE2828BEBE000000BE0000BE
310
BE2828BE280000000000000000000000000000000000000000000000002D0000002828280028282800BE00000000000000000000000000000000000000002828282828280000000000000000BE0000002800002800000000000000002D00002D0000000000000000F500000000000000000000000000000000000000000000
310
0000000000000000000000000000000000000000000000000000000000000000000000000000000000000000000000000000000000000000000000000000000000000000000000000000000000000000000000000000000000000000000000F5000000000000000000000000000000000000002828282D2D2800282828BE28
310
2800002D2D28282800000000000000000000000000000000000000000000002D000000282D2DBEBEBE2800000000000000000000000000000000000000000000002828BE28000000000000000000000000002800002800000000000000002D00002D0000000000000000F50000000000000000000000000000000000000000
310
00000000000000000000000000000000000000000000000000000000000000000000000000000000000000000000000000000000000000000000000000000000000000000000000000000000000000000000000000000000000000000000000000F50000000000002D2D2D2D2D2D2D2D2D2D000000282800282D2828280000
310
BE002828BE2D2D28282800000000000000000000000000000000000000000000002D000000282D280028002828282828282828282828000000000000000000000000000000BEBE000000000000000000000000002800002800000000000000002D00002D0000000000000000F5000000000000000000000000000000000000
310
000000000000000000000000000000000000000000000000000000000000000000000000000000000000000000000000000000000000000000000000000000000000000000000000000000000000000000000000000000000000000000000000000000F500000000000000DCDCDCDCDCDCDCDC002D2D2D2828BEBE00280000
310
0000BE000000282800BE002828000000000000000000000000000000000000000000002D000000000028002800280000000000000000002800000000000000000000000000000000BE000000000000000000000000002800002800000000000000002D00002D0000000000000000F500000000000000000000000000000000
310
0000000000000000000000000000000000000000000000000000000000000000000000000000000000000000000000000000000000000000000000000000000000000000000000000000000000000000000000000000000000000000000000000000000000F500000000000000DC00DCDCDC00DCDC000000282D2D2D002828
310
0028282828282800002800BEBE2828000000000000000000000000000000000000000000002D000000282828002800280000000000000000002800000000000000000000000000000000BE000000000000000000000000002800002800000000000000002D00002D0000000000000000F50000000000000000000000000000
310
00000000000000000000000000000000000000000000000000000000000000000000000000000000000000000000000000000000000000000000000000000000000000000000000000000000000000000000000000000000000000000000000000000000000000F50000000000000000000000000000000000002828BEBE2D
310
2D2D2D282828BE28282800282800BE28280000000000000000000000000000000000000000DCDC2D000000282828002800280000000000000000002800000000000000000000000000000000BE000000000000000000000000002800002800000000000000002D00002D0000000000000000F5000000000000000000000000
310
000000000000000000000000000000000000000000000000000000000000000000000000000000000000000000000000000000000000000000000000000000000000000000000000000000000000000000000000000000000000000000000000000000000000000000F50000000000000000000000000000000000282828BE
310
002828002D2D0000BE00282800002800BE00280000000000000000000000000000000000000000DCDC2D000000282828002800280000000000000000002800000000002828282828282828282828BE282828282828282828282828282800002800000000000000002D00002D0000000000000000F500000000000000000000
310
0000000000000000000000000000000000000000000000000000000000000000000000000000000000000000000000000000000000000000000000000000000000000000000000000000000000000000000000000000000000000000000000000000000000000000000000F500000000000000000000000000000000002828
310
28BEBEBEBEBEBE28BEBEBEBE28BEBEBEBEBEBEBE2828BE000000000000000000000000000000000000DC002D0000BE282828BE28BE28BEBEBEBEBEBEBEBEBE28BEBE282828BEBEBEBEBEBEBEBEBEBEBEBEBEBEBEBEBEBEBEBEBEBE28BEBEBEBEBE28BE0000000000DCDC2D00002D0000000000000000F50000000000000000
310
00000000000000000000000000000000000000000000000000000000000000000000000000000000000000000000000000000000000000000000000000000000000000000000000000000000000000000000000000000000000000000000000000000000000000000000000000F50000000000000000000000000000000028
310
282828BE0028000028280000BE00282800002800BE0028280000000000000000000000000000000000000000002D0000002828280028002800000000BE000000002800002800000000002828000000000000BE0000000000002828000028000000000028000000000000DCDC2D00002D0000000000000000F5000000000000
310
000000000000000000000000000000000000000000000000000000000000000000000000000000000000000000000000000000000000000000000000000000000000000000000000000000000000000000000000000000000000000000000000000000000000000000000000000000F5000000000000000000000000000000
310
BE2828BEBEBEBE00280028282800BE00282800002800BE0028280000000000000000000000000000000000000000002D000000282828002800280028282828282800002800002800000000282800000028282828BE2828280000000028280028282828000028000000000000DCDC2D00002D0000000000000000F500000000
310
0000000000000000000000000000000000000000000000000000000000000000000000000000000000000000000000000000000000000000000000000000000000000000000000000000000000000000000000000000000000000000000000000000000000000000000000000000000000F500000000000000000000000000
310
0000002828282800BE002800002828282828280000280000BE2828280000000000000000000000000000000000000000002D0000002D28280028282828280000BE000028282828002800000028000000282828000000BE000000282828000028280000002800002800000000000000002D00002D0000000000000000F50000
310
00000000000000000000000000000000000000000000000000000000000000000000000000000000000000000000000000000000000000000000000000000000000000000000000000000000000000000000000000000000000000000000000000000000000000000000000000000000000000F50000000000000000000000
310
00000000000028282800BE00282800002828BE280000282800BE002828280000000000000000000000000000000000000000002D0000002D00280028000000000000BE000000000028002800002800000028280000000000BE000000000028280000282800002800002800000000000000002D00002D0000000000000000F5
310
000000000000000000000000000000000000000000000000000000000000000000000000000000000000000000000000000000000000000000000000000000000000000000000000000000000000000000000000000000000000000000000000000000000000000000000000000000000000000000F5000000000000000000
310
000000000000000028280028BE2828BE28000000BE000028BE2828BE282828280000000000000000000000000000000000000000002D0000002D28280028000000000028BE280000000028002800280000002800000000000000BE000000000000002800000028002800002800000000000000002D00002D00000000000000
310
00F5000000000000000000000000000000000000000000000000000000000000000000000000000000000000000000000000000000000000000000000000000000000000000000000000000000000000000000000000000000000000000000000000000000000000000000000000000000000000000000F500000000000000
310
0000000000000000000028280028002D2D2828282828BE282828002D2D2828002828000000002D2D0000000000000000000000000000002D0000002D282DBEBEBE0000282828BE282828000028280028280000280000000000000000BE000000000000000028000028002800002800000000000000002D00002D0000000000
310
000000F5000000000000000000000000000000000000000000000000000000000000000000000000000000000000000000000000000000000000000000000000000000000000000000000000000000000000000000000000000000000000000000000000000000000000000000000000000000000000000000F50000000000
310
00000000000000000000000028280000BE2D2D2800000000BE000000BE2D2D2828002828000000002D2D2D00000000000000000000000000002D0000002D282D0028000000280000BE00002800000028002800002828000028282828282828282828282828000028280000282800002800000000000000002D00002D000000
310
0000000000F5000000000000000000000000000000000000000000000000000000000000000000000000000000000000000000000000000000000000000000000000000000000000000000000000000000000000000000000000000000000000000000000000000000000000000000000000000000000000000000F5000000
310
00000000000000000000000000002828000000282800BEBEBE00BEBEBEBEBE002828000028282828282D2D282D28000000000000000000000000002D0000002D00280028000028000028BE280028280000282828000028000000282828000000BE000028282828000000280000282800002800000000000000002DDCDC2D00
310
00000000000000F5000000000000000000000000000000000000000000000000000000000000000000000000000000000000000000000000000000000000000000000000000000000000000000000000000000000000000000000000000000000000000000000000000000000000000000000000000000000000000000F500
310
00000000000000002D2D2D000000BEBE28BE28BEBEBE2828BEBEBEBEBEBEBEBE2828BEBEBEBE2828BEBE28BEBEBE2D28BE2D2D2D2D2D0000000000002D2D2D2D2D2D2D2D2DBEBEBEBEBEBEBEBEBEBEBEBEBEBEBEBE00002800000028280000000000BE000000000028000000282800002828282800000000000000002DDCDC
310
2D0000000000000000F5000000000000000000000000000000000000000000000000000000000000000000000000000000000000000000000000000000000000000000000000000000000000000000000000000000000000000000000000000000000000000000000000000000000000000000000000000000000000000000
310
F50000000000000000002D002D2D00000028280028282800000028282828BE28282828000028282800280000282828282D2D000000DCDC00000000000000002D0000002D0028282800002800002828280000280000282800002800000028280000000000BE000000000028000000002800002828002D00000000000000002D
310
DCDC2D0000000000000000F500000000000000000000000000000000000000000000000000000000000000000000000000000000000000000000000000000000000000000000000000000000000000000000000000000000000000000000000000000000000000000000000000000000000000000000000000000000000000
310
0000F50000000000002828282D28282D28282828280000000028282828282828BE282828282828000000002828282800002D2D2D00000000DC000000000000DCDC2D0000002D00000028000028280000BE000028000000282800282800000028280000000000BE000000000028000000002800002828002D00000000000000
310
002DDC002D0000000000000000F50000000000000000000000000000000000000000000000000000000000000000000000000000000000000000000000000000000000000000000000000000000000000000000000000000000000000000000000000000000000000000000000000000000000000000000000000000000000
310
00000000F50000000000002800000000002D00000028280000000000000000000000BE000000000000000000002800002D000000002D0000000000000000000000DCDC2D0000002D00000028000000282800BE002828000028280000280000000028280000000000BE000000000028280000002800002828002D0000000000
310
0000002D00002D0000000000000000F5000000000000000000000000000000000000000000000000000000000000000000000000000000000000000000000000000000000000000000000000000000000000000000000000000000000000000000000000000000000000000000000000000000000000000000000000000000
310
000000000000F52D2D2D2D2DBE28BEBEBEBEBE2D2DBEBE2828BEBEBEBEBEBEBEBEBEBEBEBEBEBEBEBEBEBEBEBEBEBE28BE002D000000002D0000000000000000000000002D2D2D2D2D2D2D2D2D2D2D2D2D2D2D2D2D2D2D2D2D2D2828BEBEBEBEBEBEBE2828BEBEBEBEBEBEBEBEBEBEBE2828BEBEBEBEBEBEBE28BE2D2D2D2D
310
2D2D2D2D2D2D00002D0000000000000000F500000000000000000000000000000000000000000000000000000000000000000000000000000000000000000000000000000000000000000000000000000000000000000000000000000000000000000000000000000000000000000000000000000000000000000000000000
310
0000000000000000F500DCDC2D00002800000000002D2D000028280000000000000000000000BE000000000000000000002800002D2DDCDC2D2D00000000000000000000000000000000002D00000028000000000000BE000000000028280000280000000028280000000000BE000000000028280000002800002828002D00
310
000000000000002D00002D0000000000000000F50000000000000000000000000000000000000000000000000000000000000000000000000000000000000000000000000000000000000000000000000000000000000000000000000000000000000000000000000000000000000000000000000000000000000000000000
310
00000000000000000000F500DCDC0000002800000000002D00000028280000000000000000000000BE000000000000000000002800000000DCDC002D00000000000000000000000000000000002D00000000282800000000BE000000002828280000280000000028280000000000BE00000000002800000000280000282800
310
2D00000000000000002D00002D0000000000000000F5000000000000000000000000000000000000000000000000000000000000000000000000000000000000000000000000000000000000000000000000000000000000000000000000000000000000000000000000000000000000000000000000000000000000000000
310
000000000000000000000000F50000000000002828282828282828282828282828282828282828282828BE282828282828282828282800000000DCDC002D00000000000000000000000000000000002D0000000000002828282828282828282828282800002800000028280000000000BE0000000000280000000028000028
310
28002D00000000000000002D00002D0000000000000000F500000000000000000000000000000000000000000000000000000000000000000000000000000000000000000000000000000000000000000000000000000000000000000000000000000000000000000000000000000000000000000000000000000000000000
310
0000000000000000000000000000F50000000000002D2828282828282828282D280000280000000000000000BE0000000000000028000028000000000000002D00000000000000000000000000000000002D00000000000000000000BE000000000000282800002800000028280000000000BE000000000028000000002800
310
002828002D00000000000000002D00002D0000000000000000F50000000000000000000000000000000000000000000000000000000000000000000000000000000000000000000000000000000000000000000000000000000000000000000000000000000000000000000000000000000000000000000000000000000000
310
00000000000000000000000000000000F50000000000002D0000000000000000002D280000280000000000000000BE0000000000000028000028000000000000002D00000000000000000000000000000000002D000000000000000000002D000000000000282800002800000028280000000000BE00000000002800000028
310
2800002828002D00000000000000002D00002D0000000000000000F5000000000000000000000000000000000000000000000000000000000000000000000000000000000000000000000000000000000000000000000000000000000000000000000000000000000000000000000000000000000000000000000000000000
310
000000000000000000000000000000000000F50000000000002D0000000000000000002D280000280000000000000000BE0000000000000028000028000000000000002D00000000000000000000000000000000002D000000000000000000002D000000000000282828000028282828282828282828282828282828282828
310
28280000282800002D00000000000000002D00002D0000000000000000F500000000000000000000000000000000000000000000000000000000000000000000000000000000000000000000000000000000000000000000000000000000000000000000000000000000000000000000000000000000000000000000000000
310
0000000000000000000000000000000000000000F50000000000002D0000000000000000002D280000280000000000000000BE0000000000000028000028000000000000002D00000000000000000000000000000000002D000000000000000000002D00000000000028002800002828000028282828282828282828282828
310
000028000000282800002D00000000000000002D00002D0000000000000000F50000000000000000000000000000000000000000000000000000000000000000000000000000000000000000000000000000000000000000000000000000000000000000000000000000000000000000000000000000000000000000000000
310
00000000000000000000000000000000000000000000F50000000000002D2D000000000000002D2D280000280000000000000000BE0000000000000028000028000000000000002D00000000000000000000000000000000002D000000000000000000002D0000000000002800282800002828000000282828282828282828
310
0000002828000028002800002D000000000000DCDC2D00002D0000000000000000F5000000000000000000000000000000000000000000000000000000000000000000000000000000000000000000000000000000000000000000000000000000000000000000000000000000000000000000000000000000000000000000
310
000000000000000000000000000000000000000000000000F50000000000002D2D2D2DDCDCDC2D2D2D2D280000280000000000000000BE0000000000000028000028000000000000002D00000000000000000000000000000000002D000000000000000000002D000000000000002800282800002828000028280028282828
310
28280000282800002828002800002D000000000000DCDC2D00002D0000000000000000F500000000000000000000000000000000000000000000000000000000000000000000000000000000000000000000000000000000000000000000000000000000000000000000000000000000000000000000000000000000000000
310
0000000000000000000000000000000000000000000000000000F50000000000002D00000000DCDC00000028280000280000000000000000BE0000000000000028000028000000000000002D00000000000000000000000000000000002D000000000000000000002D00000000000000280000280000002828002828002828
310
282828280028280000282800002800002D000000000000DCDC2D00002D0000000000000000F50000000000000000000000000000000000000000000000000000000000000000000000000000000000000000000000000000000000000000000000000000000000000000000000000000000000000000000000000000000000
310
00000000000000000000000000000000000000000000000000000000F50000000000002D0000000000000000BE282DBEBEBEBE00000000000000BE0000000000000028000028000000000000002D00000000000000000000000000000000002D000000000000000000002D0000000000000028000000280000000028282800
310
2828282828282800000028280000002800002D00000000000000002D00002D0000000000000000F5000000000000000000000000000000000000000000000000000000000000000000000000000000000000000000000000000000000000000000000000000000000000000000000000000000000000000000000000000000
310
000000000000000000000000000000000000000000000000000000000000F50000000000002D000000000000000000282D0000280000000000000000BE0000000000000028000028000000000000002D00000000000000000000000000000000002D000000000000000000002D000000000000002800000000282800000000
310
282828BE282828000000002828000000002800002D00000000000000002D00002D0000000000000000F500000000000000000000000000000000000000000000000000000000000000000000000000000000000000000000000000000000000000000000000000000000000000000000000000000000000000000000000000
310
0000000000000000000000000000000000000000000000000000000000000000F50000000000002D00000000000000000000280000280000000000000000BE0000000000000028000028000000000000002D00000000000000000000000000000000002D000000000000000000002D00000000000000280000000000282828
310
0000000000BE000000000028282800000000002800002D00000000000000002D00002D0000000000000000F50000000000000000000000000000000000000000000000000000000000000000000000000000000000000000000000000000000000000000000000000000000000000000000000000000000000000000000000
310
00000000000000000000000000000000000000000000000000000000000000000000F50000000000002D00000000000000000000280000280000000000000000BE0000000000000028000028000000000000002D00000000000000000000000000000000002D000000000000000000002D0000000000000028000000000000
310
00282828280000BE000028282828000000000000282800002D00000000000000002D00002D0000000000000000F5000000000000000000000000000000000000000000000000000000000000000000000000000000000000000000000000000000000000000000000000000000000000000000000000000000000000000000
310
000000000000000000000000000000000000000000000000000000000000000000000000F50000000000002D00000000000000000000282828282828282800000000BE0000002828282828282828000000000000002D00000000000000000000000000000000002D000000000000000000002D000000000000002828282828
310
282828282828282828BE282828282828282828282828280000002D00000000000000002D00002D0000000000000000F500000000000000000000000000000000000000000000000000000000000000000000000000000000000000000000000000000000000000000000000000000000000000000000000000000000000000
310
0000000000000000000000000000000000000000000000000000000000000000000000000000F50000000000002D00000000000000000000000000000000000028282828BE2828280000000000000000000000000000002D00000000000000000000000000000000002D000000000000000000002D00000000000000000000
310
000000000000002828282828282828000000000000000000000000002D00000000000000002D00002D0000000000000000F50000000000000000000000000000000000000000000000000000000000000000000000000000000000000000000000000000000000000000000000000000000000000000000000000000000000
310
00000000000000000000000000000000000000000000000000000000000000000000000000000000F50000000000002D00000000000000000000000000000000000000282828BE2828280000000000000000000000000000002D00000000000000000000000000000000002D000000000000000000002D0000000000000000
310
0000000000000000000028282828282828000000000000000000000000002D00000000000000002D00002D0000000000000000F5000000000000000000000000000000000000000000000000000000000000000000000000000000000000000000000000000000000000000000000000000000000000000000000000000000
310
000000000000000000000000000000000000000000000000000000000000000000000000000000000000F50000000000002D00000000000000000000000000000000000000282828BE2D28280000000000000000000000000000002D00000000000000000000000000000000002D000000000000000000002D000000000000
310
0000000000000000000000002828282828282D2D2D2D2D2D2D2D2D2D2D2D2D2D2D2D2D2D2D2D2D2D2D2D2D2D2D0000000000000000F500000000000000000000000000000000000000000000000000000000000000000000000000000000000000000000000000000000000000000000000000000000000000000000000000
310
0000000000000000000000000000000000000000000000000000000000000000000000000000000000000000F50000000000002D000000000000000000000000000000000000000000002D2D00000000000000000000000000000000002D00000000000000000000000000000000002D000000000000000000002D00000000
310
00000000000000000000000000000000002D000000000000000000000000000000002D0000000000000000000000000000000000000000F50000000000000000000000000000000000000000000000000000000000000000000000000000000000000000000000000000000000000000000000000000000000000000000000
310
00000000000000000000000000000000000000000000000000000000000000000000000000000000000000000000F50000000000002D000000000000000000000000000000000000000000002D002D000000000000000000000000000000002D00000000000000000000000000000000002D000000000000000000002D0000
310
000000000000000000000000000000000000002D000000000000000000000000000000002D0000000000000000000000000000000000000000F5000000000000000000000000000000000000000000000000000000000000000000000000000000000000000000000000000000000000000000000000000000000000000000
310
000000000000000000000000000000000000000000000000000000000000000000000000000000000000000000000000F50000000000002D000000000000000000000000000000000000000000002D002D000000000000000000000000000000002D00000000000000000000000000000000002D000000000000000000002D
310
0000000000000000000000000000000000000000002D000000000000000000000000000000002D0000000000000000000000000000000000000000F500000000000000000000000000000000000000000000000000000000000000000000000000000000000000000000000000000000000000000000000000000000000000
310
0000000000000000000000000000000000000000000000000000000000000000000000000000000000000000000000000000F50000000000002D000000000000000000000000000000000000000000002D002D000000000000000000000000000000002D00000000000000000000000000000000002D000000000000000000
310
002D0000000000000000000000000000000000000000002D000000000000000000000000000000002D0000000000000000000000000000000000000000F50000000000000000000000000000000000000000000000000000000000000000000000000000000000000000000000000000000000000000000000000000000000
310
00000000000000000000000000000000000000000000000000000000000000000000000000000000000000000000000000000000F50000000000002D000000000000000000000000000000000000000000002D00002D0000000000000000000000000000002D00000000000000000000000000000000002D00000000000000
310
0000002D0000000000000000000000000000000000000000002D000000000000000000000000000000002D0000000000000000000000000000000000000000F5000000000000000000000000000000000000000000000000000000000000000000000000000000000000000000000000000000000000000000000000000000
310
000000000000000000000000000000000000000000000000000000000000000000000000000000000000000000000000000000000000F50000000000002D2D2D2D2D2D2D2D2D2D2DDCDC2D2D2D2D2D2D2D2D2D2D2D2D2D2D2D2D2D2D2DDCDC2D2D2D2D2D2D2D2D2D00000000000000000000000000000000002D2D2D2D2DDC
310
DCDC2D2D2D2D2D2D2D2D2D2D2D2D2DDCDCDC2D2D2D2D2D2D2D2D2D2D2D2D2D2D2D2D2DDCDC2D2D2D2D2D2D2D2D0000000000000000000000000000000000000000F500000000000000000000000000000000000000000000000000000000000000000000000000000000000000000000000000000000000000000000000000
310
0000000000000000000000000000000000000000000000000000000000000000000000000000000000000000000000000000000000000000F50000000000002D00000000000000000000DCDC000000000000000000000000002D0000000000DCDC00000000000000002D00000000000000000000000000000000002D000000
310
00DCDCDC00000000000000000000000000DCDC000000000000000000000000000000000000DCDC000000000000002D0000000000000000000000000000000000000000F50000000000000000000000000000000000000000000000000000000000000000000000000000000000000000000000000000000000000000000000
310
00000000000000000000000000000000000000000000000000000000000000000000000000000000000000000000000000000000000000000000F50000000000002D00000000000000000000000000000000000000000000000000002D00000000000000000000000000002D00000000000000000000000000000000002D00
310
0000000000000000000000000000000000000000000000000000000000000000000000000000000000000000000000002D0000000000000000000000000000000000000000F5000000000000000000000000000000000000000000000000000000000000000000000000000000000000000000000000000000000000000000
310
000000000000000000000000000000000000000000000000000000000000000000000000000000000000000000000000000000000000000000000000F50000000000002D2D2D2D2D2D2D2D2D2D2D2D2D2D2D2D2D2D2D2D2D2D2D2D2D2D2D2D2D2D2D2D2D2D2D2D2D2D2D2D2D2D2D0000000000000000000000000000000000
310
2D2D2D2D2D2D2D2D2D2D2D2D2D2D2D2D2D2D2D2D2D2D2D2DDCDCDC2D2D2D2D2D2D2D2D2D2D2D2D2D2D2D2D2D2D2D2D2D2D2D2D0000000000000000000000000000000000000000F500000000000000000000000000000000000000000000000000000000000000000000000000000000000000000000000000000000000000
310
0000000000000000000000000000000000000000000000000000000000000000000000000000000000000000000000000000000000000000000000000000F50000000000000000000000000000000000000000000000000000DCDCDC000000002D000000000000000000000000000000000000000000000000000000000000
310
0000000000000000000000000000000000000000000000000000DCDCDCDC00000000000000000000000000000000000000000000000000000000000000000000000000000000000000F50000000000000000000000000000000000000000000000000000000000000000000000000000000000000000000000000000000000
310
00000000000000000000000000000000000000000000000000000000000000000000000000000000000000000000000000000000000000000000000000000000F5000000000000000000000000000000000000000000000000000000000000000000002D000000000000000000000000000000000000000000000000000000
310
000000000000000000000000000000000000000000000000000000000000000000000000000000000000000000000000000000000000000000000000000000000000000000000000000000F5000000000000000000000000000000000000000000000000000000000000000000000000000000000000000000000000000000
310
000000000000000000000000000000000000000000000000000000000000000000000000000000000000000000000000000000000000000000000000000000000000F5000000000000000000000000000000000000000000000000000000000000000000002D2D2D2D2D2D0000000000000000000000000000000000000000
310
0000000000000000000000000000000000000000000000000000000000000000000000000000000000000000000000000000000000000000000000000000000000000000000000000000000000F500000000000000000000000000000000000000000000000000000000000000000000000000000000000000000000000000
310
0000000000000000000000000000000000000000000000000000000000000000000000000000000000000000000000000000000000000000000000000000000000000000F500000000000000000000000000000000000000000000000000000000000000000000DCDCDCDCDCDC000000000000000000000000000000000000
310
00000000000000000000000000000000000000000000000000000000000000000000000000000000000000000000000000000000000000000000000000000000000000000000000000000000000000F50000000000000000000000000000000000000000000000000000000000000000000000000000000000000000000000
310
00000000000000000000000000000000000000000000000000000000000000000000000000000000000000000000000000000000000000000000000000000000000000000000F500000000000000000000000000000000000000000000000000000000000000000000DCDCDCDCDCDC00000000000000000000000000000000
310
000000000000000000000000000000000000000000000000000000000000000000000000000000000000000000000000000000000000000000000000000000000000000000000000000000000000000000F5000000000000000000000000000000000000000000000000000000000000000000000000000000000000000000
310
000000000000000000000000000000000000000000000000000000000000000000000000000000000000000000000000000000000000000000000000000000000000000000000000F5000000000000000000000000000000000000000000000000000000000000000000000000000000000000000000000000000000000000
310
0000000000000000000000000000000000000000000000000000000000000000000000000000000000000000000000000000000000000000000000000000000000000000000000000000000000000000000000F500000000000000000000000000000000000000000000000000000000000000000000000000000000000000
310
0000000000000000000000000000000000000000000000000000000000000000000000000000000000000000000000000000000000000000000000000000000000000000000000000000F5F5F5F5F5F5F5F5F5F5F5F5F5F5F5F5F5F5F5F5F5F5F5F5F5F5F5F5F5F5F5F5F5F5F5F5F5F5F5F5F5F5F5F5F5F5F5F5F5F5F5F5F5
310
F5F5F5F5F5F5F5F5F5F5F5F5F5F5F5F5F5F5F5F5F5F5F5F5F5F5F5F5F5F5F5F5F5F5F5F5F5F5F5F5F5F5F5F5F5F5F5F5F5F5F5F5F5F5F5F5F5F5F5F5F5F5F5F5F5F5F5F5F5F5F5F5F5F5F5F5F5F5F5F5F5F5F5F5F5F50000000000000000000000000000000000000000000000000000000000000000000000000000000000
310
00000000000000000000000000000000000000000000000000000000000000000000000000000000000000000000000000000000000000000000000000000000000000000000000000000000000000000000000000000000000000000000000000000000000000000000000000000000000000000000000000000000000000
310
00000000000000000000000000000000000000000000000000000000000000000000000000000000000000000000000000000000000000000000000000000000000000000000000000000000000000000000000000000000000000000000000000000000000000000000000000000000000000000000000000000000000000
310
00000000000000000000000000000000000000000000000000000000000000000000000000000000000000000000000000000000000000000000000000000000000000000000000000000000000000000000000000000000000000000000000000000000000000000000000000000000000000000000000000000000000000
310
00000000000000000000000000000000000000000000000000000000000000000000000000000000000000000000000000000000000000000000000000000000000000000000000000000000000000000000000000000000000000000000000000000000000000000000000000000000000000000000000000000000000000
310
00000000000000000000000000000000000000000000000000000000000000000000000000000000000000000000000000000000000000000000000000000000000000000000000000000000000000000000000000000000000000000000000000000000000000000000000000000000000000000000000000000000000000
310
00000000000000000000000000000000000000000000000000000000000000000000000000000000000000000000000000000000000000000000000000000000000000000000000000000000000000000000000000000000000000000000000000000000000000000000000000000000000000000000000000000000000000
310
00000000000000000000000000000000000000000000000000000000000000000000000000000000000000000000000000000000000000000000000000000000000000000000000000000000000000000000000000000000000000000000000000000000000000000000000000000000000000000000000000000000000000
310
00000000000000000000000000000000000000000000000000000000000000000000000000000000000000000000000000000000000000000000000000000000000000000000000000000000000000000000000000000000000000000000000000000000000000000000000000000000000000000000000000000000000000
310
00000000000000000000000000000000000000000000000000000000000000000000000000000000000000000000000000000000000000000000000000000000000000000000000000000000000000000000000000000000000000000000000000000000000000000000000000000000000000000000000000000000000000
310
00000000000000000000000000000000000000000000000000000000000000000000000000000000000000000000000000000000000000000000000000000000000000000000000000000000000000000000000000000000000000000000000000000000000000000000000000000000000000000000000000000000000000
310
00000000000000000000000000000000000000000000000000000000000000000000000000000000000000000000000000000000000000000000000000000000000000000000000000000000000000000000000000000000000000000000000000000000000000000000000000000000000000000000000000000000000000
310
00000000000000000000000000000000000000000000000000000000000000000000000000000000000000000000000000000000000000000000000000000000000000000000000000000000000000000000000000000000000000000000000000000000000000000000000000000000000000000000000000000000000000
310
00000000000000000000000000000000000000000000000000000000000000000000000000000000000000000000000000000000000000000000000000000000000000000000000000000000000000000000000000000000000000000000000000000000000000000000000000000000000000000000000000000000000000
310
00000000000000000000000000000000000000000000000000000000000000000000000000000000000000000000000000000000000000000000000000000000000000000000000000000000000000000000000000000000000000000000000000000000000000000000000000000000000000000000000000000000000000
310
00000000000000000000000000000000000000000000000000000000000000000000000000000000000000000000000000000000000000000000000000000000000000000000000000000000000000000000000000000000000000000000000000000000000000000000000000000000000000000000000000000000000000
310
00000000000000000000000000000000000000000000000000000000000000000000000000000000000000000000000000000000000000000000000000000000000000000000000000000000000000000000000000000000000000000000000000000000000000000000000000000000000000000000000000000000000000
310
00000000000000000000000000000000000000000000000000000000000000000000000000000000000000000000000000000000000000000000000000000000000000000000000000000000000000000000000000000000000000000000000000000000000000000000000000000000000000000000000000000000000000
310
00000000000000000000000000000000000000000000000000000000000000000000000000000000000000000000000000000000000000000000000000000000000000000000000000000000000000000000000000000000000000000000000000000000000000000000000000000000000000000000000000000000000000
310
00000000000000000000000000000000000000000000000000000000000000000000000000000000000000000000000000000000000000000000000000000000000000000000000000000000000000000000000000000000000000000000000000000000000000000000000000000000000000000000000000000000000000
310
00000000000000000000000000000000000000000000000000000000000000000000000000000000000000000000000000000000000000000000000000000000000000000000000000000000000000000000000000000000000000000000000000000000000000000000000000000000000000000000000000000000000000
310
00000000000000000000000000000000000000000000000000000000000000000000000000000000000000000000000000000000000000000000
  0
XRECORD
  5
56A
102
{ACAD_REACTORS
330
569
102
}
330
569
100
AcDbXrecord
280
     1
102
MATERIAL
148
0.0
149
0.0
149
0.0
 93
        0
 94
      127
282
     0
 72
     0
 77
     0
171
     0
175
     0
179
     0
273
     0
  0
XRECORD
  5
566
102
{ACAD_REACTORS
330
565
102
}
330
565
100
AcDbXrecord
280
     1
102
MATERIAL
148
0.0
149
0.0
149
0.0
 93
        0
 94
      127
282
     0
 72
     0
 77
     0
171
     0
175
     0
179
     0
273
     0
  0
XRECORD
  5
568
102
{ACAD_REACTORS
330
567
102
}
330
567
100
AcDbXrecord
280
     1
102
MATERIAL
148
0.0
149
0.0
149
0.0
 93
        0
 94
      127
282
     0
 72
     0
 77
     0
171
     0
175
     0
179
     0
273
     0
  0
XRECORD
  5
59C
102
{ACAD_REACTORS
330
59B
102
}
330
59B
100
AcDbXrecord
280
     1
102
ACAD_ROUNDTRIP_2010_MLEADER_STYLE
  0
XRECORD
  5
574
102
{ACAD_REACTORS
330
573
102
}
330
573
100
AcDbXrecord
280
     1
102
RTVSPropertyOp0
 70
     1
102
RTVSPropertyOp1
 70
     1
102
RTVSPropertyOp2
 70
     1
102
RTVSPropertyOp3
 70
     1
102
RTVSPropertyOp4
 70
     1
102
RTVSPropertyOp5
 70
     1
102
RTVSPropertyOp6
 70
     1
102
RTVSPropertyOp7
 70
     1
102
RTVSPropertyOp8
 70
     1
102
RTVSPropertyOp9
 70
     1
102
RTVSPropertyOp10
 70
     1
102
RTVSPropertyOp11
 70
     1
102
RTVSPropertyOp12
 70
     1
102
RTVSPropertyOp13
 70
     1
102
RTVSPropertyOp14
 70
     1
102
RTVSPropertyOp15
 70
     1
102
RTVSPropertyOp16
 70
     1
102
RTVSPropertyOp17
 70
     1
102
RTVSPropertyOp18
 70
     1
102
RTVSPropertyOp19
 70
     1
102
RTVSPropertyOp20
 70
     1
102
RTVSPropertyOp21
 70
     1
102
RTVSPropertyOp22
 70
     1
102
RTVSPropertyOp23
 70
     1
102
RTVSPropertyOp24
 70
     1
102
RTVSPropertyOp25
 70
     1
102
RTVSPropertyOp26
 70
     1
102
RTVSPropertyOp27
 70
     1
102
RTVSPropertyOp28
 70
     1
102
RTVSPropertyOp29
 70
     1
102
RTVSPropertyOp30
 70
     1
102
RTVSPropertyOp31
 70
     1
102
RTVSPropertyOp32
 70
     1
102
RTVSPropertyOp33
 70
     1
102
RTVSPropertyOp34
 70
     1
102
RTVSPropertyOp35
 70
     1
102
RTVSPropertyOp36
 70
     1
102
RTVSPropertyOp37
 70
     1
102
RTVSPropertyOp38
 70
     1
102
RTVSPropertyOp39
 70
     1
102
RTVSPropertyOp40
 70
     1
102
RTVSPropertyOp41
 70
     1
102
RTVSPropertyOp42
 70
     1
102
RTVSPropertyOp43
 70
     1
102
RTVSPropertyOp44
 70
     1
102
RTVSPropertyOp45
 70
     1
102
RTVSPropertyOp46
 70
     1
102
RTVSPropertyOp47
 70
     1
102
RTVSPropertyOp48
 70
     1
102
RTVSPropertyOp49
 70
     1
102
RTVSPropertyOp50
 70
     1
102
RTVSPropertyOp51
 70
     0
102
RTVSPropertyOp52
 70
     0
102
RTVSPropertyOp53
 70
     1
102
RTVSPropertyOp54
 70
     1
102
RTVSPropertyOp55
 70
     1
102
RTVSPropertyOp56
 70
     1
102
RTVSPropertyOp57
 70
     1
102
RTVSPost2010Prop28
280
     1
102
RTVSPost2010PropOp28
 70
     1
102
RTVSPost2010Prop29
280
     1
102
RTVSPost2010PropOp29
 70
     1
102
RTVSPost2010Prop30
280
     0
102
RTVSPost2010PropOp30
 70
     1
102
RTVSPost2010Prop31
280
     0
102
RTVSPost2010PropOp31
 70
     1
102
RTVSPost2010Prop32
280
     0
102
RTVSPost2010PropOp32
 70
     1
102
RTVSPost2010Prop33
280
     0
102
RTVSPost2010PropOp33
 70
     1
102
RTVSPost2010Prop34
280
     0
102
RTVSPost2010PropOp34
 70
     1
102
RTVSPost2010Prop35
280
     0
102
RTVSPost2010PropOp35
 70
     1
102
RTVSPost2010Prop36
280
     0
102
RTVSPost2010PropOp36
 70
     1
102
RTVSPost2010Prop37
 90
       50
102
RTVSPost2010PropOp37
 70
     1
102
RTVSPost2010Prop38
140
0.0
102
RTVSPost2010PropOp38
 70
     1
102
RTVSPost2010Prop39
140
1.0
102
RTVSPost2010PropOp39
 70
     1
102
RTVSPost2010Prop40
 90
        0
102
RTVSPost2010PropOp40
 70
     1
102
RTVSPost2010Prop41ColorIndex
 90
       18
102
RTVSPost2010Prop41ColorRGB
 90
        0
102
RTVSPost2010PropOp41
 70
     1
102
RTVSPost2010Prop42
 90
       50
102
RTVSPost2010PropOp42
 70
     1
102
RTVSPost2010Prop43
 90
        3
102
RTVSPost2010PropOp43
 70
     1
102
RTVSPost2010Prop44ColorIndex
 90
        5
102
RTVSPost2010Prop44ColorRGB
 90
      255
102
RTVSPost2010PropOp44
 70
     1
102
RTVSPost2010Prop45
280
     0
102
RTVSPost2010PropOp45
 70
     1
102
RTVSPost2010Prop46
 90
       50
102
RTVSPost2010PropOp46
 70
     1
102
RTVSPost2010Prop47
 90
       50
102
RTVSPost2010PropOp47
 70
     1
102
RTVSPost2010Prop48
 90
       50
102
RTVSPost2010PropOp48
 70
     1
102
RTVSPost2010Prop49
280
     0
102
RTVSPost2010PropOp49
 70
     1
102
RTVSPost2010Prop50
 90
       50
102
RTVSPost2010PropOp50
 70
     1
102
RTVSPost2010Prop51ColorIndex
 90
      256
102
RTVSPost2010Prop51ColorRGB
 90
-16777216
102
RTVSPost2010PropOp51
 70
     0
102
RTVSPost2010Prop52
140
1.0
102
RTVSPost2010PropOp52
 70
     0
102
RTVSPost2010Prop53
 90
        2
102
RTVSPost2010PropOp53
 70
     1
102
RTVSPost2010Prop54
  1
strokes_ogs.tif
102
RTVSPost2010PropOp54
 70
     1
102
RTVSPost2010Prop55
280
     0
102
RTVSPost2010PropOp55
 70
     1
102
RTVSPost2010Prop56
140
1.0
102
RTVSPost2010PropOp56
 70
     1
102
RTVSPost2010Prop57
140
1.0
102
RTVSPost2010PropOp57
 70
     1
  0
XRECORD
  5
57A
102
{ACAD_REACTORS
330
579
102
}
330
579
100
AcDbXrecord
280
     1
102
RTVSPropertyOp0
 70
     1
102
RTVSPropertyOp1
 70
     1
102
RTVSPropertyOp2
 70
     1
102
RTVSPropertyOp3
 70
     1
102
RTVSPropertyOp4
 70
     1
102
RTVSPropertyOp5
 70
     1
102
RTVSPropertyOp6
 70
     1
102
RTVSPropertyOp7
 70
     1
102
RTVSPropertyOp8
 70
     1
102
RTVSPropertyOp9
 70
     1
102
RTVSPropertyOp10
 70
     1
102
RTVSPropertyOp11
 70
     1
102
RTVSPropertyOp12
 70
     1
102
RTVSPropertyOp13
 70
     1
102
RTVSPropertyOp14
 70
     1
102
RTVSPropertyOp15
 70
     1
102
RTVSPropertyOp16
 70
     1
102
RTVSPropertyOp17
 70
     1
102
RTVSPropertyOp18
 70
     1
102
RTVSPropertyOp19
 70
     1
102
RTVSPropertyOp20
 70
     1
102
RTVSPropertyOp21
 70
     1
102
RTVSPropertyOp22
 70
     1
102
RTVSPropertyOp23
 70
     1
102
RTVSPropertyOp24
 70
     1
102
RTVSPropertyOp25
 70
     1
102
RTVSPropertyOp26
 70
     1
102
RTVSPropertyOp27
 70
     1
102
RTVSPropertyOp28
 70
     1
102
RTVSPropertyOp29
 70
     1
102
RTVSPropertyOp30
 70
     1
102
RTVSPropertyOp31
 70
     1
102
RTVSPropertyOp32
 70
     1
102
RTVSPropertyOp33
 70
     1
102
RTVSPropertyOp34
 70
     1
102
RTVSPropertyOp35
 70
     1
102
RTVSPropertyOp36
 70
     1
102
RTVSPropertyOp37
 70
     1
102
RTVSPropertyOp38
 70
     1
102
RTVSPropertyOp39
 70
     1
102
RTVSPropertyOp40
 70
     1
102
RTVSPropertyOp41
 70
     1
102
RTVSPropertyOp42
 70
     1
102
RTVSPropertyOp43
 70
     1
102
RTVSPropertyOp44
 70
     1
102
RTVSPropertyOp45
 70
     1
102
RTVSPropertyOp46
 70
     1
102
RTVSPropertyOp47
 70
     1
102
RTVSPropertyOp48
 70
     1
102
RTVSPropertyOp49
 70
     1
102
RTVSPropertyOp50
 70
     1
102
RTVSPropertyOp51
 70
     0
102
RTVSPropertyOp52
 70
     0
102
RTVSPropertyOp53
 70
     1
102
RTVSPropertyOp54
 70
     1
102
RTVSPropertyOp55
 70
     1
102
RTVSPropertyOp56
 70
     1
102
RTVSPropertyOp57
 70
     1
102
RTVSPost2010Prop28
280
     0
102
RTVSPost2010PropOp28
 70
     1
102
RTVSPost2010Prop29
280
     1
102
RTVSPost2010PropOp29
 70
     1
102
RTVSPost2010Prop30
280
     1
102
RTVSPost2010PropOp30
 70
     1
102
RTVSPost2010Prop31
280
     0
102
RTVSPost2010PropOp31
 70
     1
102
RTVSPost2010Prop32
280
     0
102
RTVSPost2010PropOp32
 70
     1
102
RTVSPost2010Prop33
280
     0
102
RTVSPost2010PropOp33
 70
     1
102
RTVSPost2010Prop34
280
     0
102
RTVSPost2010PropOp34
 70
     1
102
RTVSPost2010Prop35
280
     0
102
RTVSPost2010PropOp35
 70
     1
102
RTVSPost2010Prop36
280
     0
102
RTVSPost2010PropOp36
 70
     1
102
RTVSPost2010Prop37
 90
       50
102
RTVSPost2010PropOp37
 70
     1
102
RTVSPost2010Prop38
140
0.0
102
RTVSPost2010PropOp38
 70
     1
102
RTVSPost2010Prop39
140
1.0
102
RTVSPost2010PropOp39
 70
     1
102
RTVSPost2010Prop40
 90
        0
102
RTVSPost2010PropOp40
 70
     1
102
RTVSPost2010Prop41ColorIndex
 90
       18
102
RTVSPost2010Prop41ColorRGB
 90
        0
102
RTVSPost2010PropOp41
 70
     1
102
RTVSPost2010Prop42
 90
       50
102
RTVSPost2010PropOp42
 70
     1
102
RTVSPost2010Prop43
 90
        3
102
RTVSPost2010PropOp43
 70
     1
102
RTVSPost2010Prop44ColorIndex
 90
        5
102
RTVSPost2010Prop44ColorRGB
 90
      255
102
RTVSPost2010PropOp44
 70
     1
102
RTVSPost2010Prop45
280
     0
102
RTVSPost2010PropOp45
 70
     1
102
RTVSPost2010Prop46
 90
       50
102
RTVSPost2010PropOp46
 70
     1
102
RTVSPost2010Prop47
 90
       50
102
RTVSPost2010PropOp47
 70
     1
102
RTVSPost2010Prop48
 90
       50
102
RTVSPost2010PropOp48
 70
     1
102
RTVSPost2010Prop49
280
     0
102
RTVSPost2010PropOp49
 70
     1
102
RTVSPost2010Prop50
 90
       50
102
RTVSPost2010PropOp50
 70
     1
102
RTVSPost2010Prop51ColorIndex
 90
      256
102
RTVSPost2010Prop51ColorRGB
 90
-16777216
102
RTVSPost2010PropOp51
 70
     0
102
RTVSPost2010Prop52
140
1.0
102
RTVSPost2010PropOp52
 70
     0
102
RTVSPost2010Prop53
 90
        2
102
RTVSPost2010PropOp53
 70
     1
102
RTVSPost2010Prop54
  1
strokes_ogs.tif
102
RTVSPost2010PropOp54
 70
     1
102
RTVSPost2010Prop55
280
     0
102
RTVSPost2010PropOp55
 70
     1
102
RTVSPost2010Prop56
140
1.0
102
RTVSPost2010PropOp56
 70
     1
102
RTVSPost2010Prop57
140
1.0
102
RTVSPost2010PropOp57
 70
     1
  0
XRECORD
  5
582
102
{ACAD_REACTORS
330
581
102
}
330
581
100
AcDbXrecord
280
     1
102
RTVSPropertyOp0
 70
     1
102
RTVSPropertyOp1
 70
     1
102
RTVSPropertyOp2
 70
     1
102
RTVSPropertyOp3
 70
     1
102
RTVSPropertyOp4
 70
     1
102
RTVSPropertyOp5
 70
     1
102
RTVSPropertyOp6
 70
     1
102
RTVSPropertyOp7
 70
     1
102
RTVSPropertyOp8
 70
     1
102
RTVSPropertyOp9
 70
     1
102
RTVSPropertyOp10
 70
     1
102
RTVSPropertyOp11
 70
     1
102
RTVSPropertyOp12
 70
     1
102
RTVSPropertyOp13
 70
     1
102
RTVSPropertyOp14
 70
     1
102
RTVSPropertyOp15
 70
     1
102
RTVSPropertyOp16
 70
     1
102
RTVSPropertyOp17
 70
     1
102
RTVSPropertyOp18
 70
     1
102
RTVSPropertyOp19
 70
     1
102
RTVSPropertyOp20
 70
     1
102
RTVSPropertyOp21
 70
     1
102
RTVSPropertyOp22
 70
     1
102
RTVSPropertyOp23
 70
     1
102
RTVSPropertyOp24
 70
     1
102
RTVSPropertyOp25
 70
     1
102
RTVSPropertyOp26
 70
     1
102
RTVSPropertyOp27
 70
     1
102
RTVSPropertyOp28
 70
     1
102
RTVSPropertyOp29
 70
     1
102
RTVSPropertyOp30
 70
     1
102
RTVSPropertyOp31
 70
     1
102
RTVSPropertyOp32
 70
     1
102
RTVSPropertyOp33
 70
     1
102
RTVSPropertyOp34
 70
     1
102
RTVSPropertyOp35
 70
     1
102
RTVSPropertyOp36
 70
     1
102
RTVSPropertyOp37
 70
     1
102
RTVSPropertyOp38
 70
     1
102
RTVSPropertyOp39
 70
     1
102
RTVSPropertyOp40
 70
     1
102
RTVSPropertyOp41
 70
     1
102
RTVSPropertyOp42
 70
     1
102
RTVSPropertyOp43
 70
     1
102
RTVSPropertyOp44
 70
     1
102
RTVSPropertyOp45
 70
     1
102
RTVSPropertyOp46
 70
     1
102
RTVSPropertyOp47
 70
     1
102
RTVSPropertyOp48
 70
     1
102
RTVSPropertyOp49
 70
     1
102
RTVSPropertyOp50
 70
     1
102
RTVSPropertyOp51
 70
     0
102
RTVSPropertyOp52
 70
     0
102
RTVSPropertyOp53
 70
     1
102
RTVSPropertyOp54
 70
     1
102
RTVSPropertyOp55
 70
     1
102
RTVSPropertyOp56
 70
     1
102
RTVSPropertyOp57
 70
     1
102
RTVSPost2010Prop28
280
     0
102
RTVSPost2010PropOp28
 70
     1
102
RTVSPost2010Prop29
280
     1
102
RTVSPost2010PropOp29
 70
     1
102
RTVSPost2010Prop30
280
     1
102
RTVSPost2010PropOp30
 70
     1
102
RTVSPost2010Prop31
280
     0
102
RTVSPost2010PropOp31
 70
     1
102
RTVSPost2010Prop32
280
     0
102
RTVSPost2010PropOp32
 70
     1
102
RTVSPost2010Prop33
280
     0
102
RTVSPost2010PropOp33
 70
     1
102
RTVSPost2010Prop34
280
     0
102
RTVSPost2010PropOp34
 70
     1
102
RTVSPost2010Prop35
280
     0
102
RTVSPost2010PropOp35
 70
     1
102
RTVSPost2010Prop36
280
     0
102
RTVSPost2010PropOp36
 70
     1
102
RTVSPost2010Prop37
 90
       50
102
RTVSPost2010PropOp37
 70
     1
102
RTVSPost2010Prop38
140
0.0
102
RTVSPost2010PropOp38
 70
     1
102
RTVSPost2010Prop39
140
1.0
102
RTVSPost2010PropOp39
 70
     1
102
RTVSPost2010Prop40
 90
        0
102
RTVSPost2010PropOp40
 70
     1
102
RTVSPost2010Prop41ColorIndex
 90
       18
102
RTVSPost2010Prop41ColorRGB
 90
        0
102
RTVSPost2010PropOp41
 70
     1
102
RTVSPost2010Prop42
 90
       50
102
RTVSPost2010PropOp42
 70
     1
102
RTVSPost2010Prop43
 90
        3
102
RTVSPost2010PropOp43
 70
     1
102
RTVSPost2010Prop44ColorIndex
 90
        5
102
RTVSPost2010Prop44ColorRGB
 90
      255
102
RTVSPost2010PropOp44
 70
     1
102
RTVSPost2010Prop45
280
     0
102
RTVSPost2010PropOp45
 70
     1
102
RTVSPost2010Prop46
 90
       50
102
RTVSPost2010PropOp46
 70
     1
102
RTVSPost2010Prop47
 90
       50
102
RTVSPost2010PropOp47
 70
     1
102
RTVSPost2010Prop48
 90
       50
102
RTVSPost2010PropOp48
 70
     1
102
RTVSPost2010Prop49
280
     0
102
RTVSPost2010PropOp49
 70
     1
102
RTVSPost2010Prop50
 90
       50
102
RTVSPost2010PropOp50
 70
     1
102
RTVSPost2010Prop51ColorIndex
 90
      256
102
RTVSPost2010Prop51ColorRGB
 90
-16777216
102
RTVSPost2010PropOp51
 70
     0
102
RTVSPost2010Prop52
140
1.0
102
RTVSPost2010PropOp52
 70
     0
102
RTVSPost2010Prop53
 90
        2
102
RTVSPost2010PropOp53
 70
     1
102
RTVSPost2010Prop54
  1
strokes_ogs.tif
102
RTVSPost2010PropOp54
 70
     1
102
RTVSPost2010Prop55
280
     0
102
RTVSPost2010PropOp55
 70
     1
102
RTVSPost2010Prop56
140
1.0
102
RTVSPost2010PropOp56
 70
     1
102
RTVSPost2010Prop57
140
1.0
102
RTVSPost2010PropOp57
 70
     1
  0
XRECORD
  5
58A
102
{ACAD_REACTORS
330
589
102
}
330
589
100
AcDbXrecord
280
     1
102
RTVSPropertyOp0
 70
     1
102
RTVSPropertyOp1
 70
     1
102
RTVSPropertyOp2
 70
     1
102
RTVSPropertyOp3
 70
     1
102
RTVSPropertyOp4
 70
     1
102
RTVSPropertyOp5
 70
     1
102
RTVSPropertyOp6
 70
     1
102
RTVSPropertyOp7
 70
     1
102
RTVSPropertyOp8
 70
     1
102
RTVSPropertyOp9
 70
     1
102
RTVSPropertyOp10
 70
     1
102
RTVSPropertyOp11
 70
     1
102
RTVSPropertyOp12
 70
     1
102
RTVSPropertyOp13
 70
     1
102
RTVSPropertyOp14
 70
     1
102
RTVSPropertyOp15
 70
     1
102
RTVSPropertyOp16
 70
     1
102
RTVSPropertyOp17
 70
     1
102
RTVSPropertyOp18
 70
     1
102
RTVSPropertyOp19
 70
     1
102
RTVSPropertyOp20
 70
     1
102
RTVSPropertyOp21
 70
     1
102
RTVSPropertyOp22
 70
     1
102
RTVSPropertyOp23
 70
     1
102
RTVSPropertyOp24
 70
     1
102
RTVSPropertyOp25
 70
     1
102
RTVSPropertyOp26
 70
     1
102
RTVSPropertyOp27
 70
     1
102
RTVSPropertyOp28
 70
     1
102
RTVSPropertyOp29
 70
     1
102
RTVSPropertyOp30
 70
     1
102
RTVSPropertyOp31
 70
     1
102
RTVSPropertyOp32
 70
     1
102
RTVSPropertyOp33
 70
     1
102
RTVSPropertyOp34
 70
     1
102
RTVSPropertyOp35
 70
     1
102
RTVSPropertyOp36
 70
     1
102
RTVSPropertyOp37
 70
     1
102
RTVSPropertyOp38
 70
     1
102
RTVSPropertyOp39
 70
     1
102
RTVSPropertyOp40
 70
     1
102
RTVSPropertyOp41
 70
     1
102
RTVSPropertyOp42
 70
     1
102
RTVSPropertyOp43
 70
     1
102
RTVSPropertyOp44
 70
     1
102
RTVSPropertyOp45
 70
     1
102
RTVSPropertyOp46
 70
     1
102
RTVSPropertyOp47
 70
     1
102
RTVSPropertyOp48
 70
     1
102
RTVSPropertyOp49
 70
     1
102
RTVSPropertyOp50
 70
     1
102
RTVSPropertyOp51
 70
     0
102
RTVSPropertyOp52
 70
     0
102
RTVSPropertyOp53
 70
     1
102
RTVSPropertyOp54
 70
     1
102
RTVSPropertyOp55
 70
     1
102
RTVSPropertyOp56
 70
     1
102
RTVSPropertyOp57
 70
     1
102
RTVSPost2010Prop28
280
     0
102
RTVSPost2010PropOp28
 70
     1
102
RTVSPost2010Prop29
280
     1
102
RTVSPost2010PropOp29
 70
     1
102
RTVSPost2010Prop30
280
     1
102
RTVSPost2010PropOp30
 70
     1
102
RTVSPost2010Prop31
280
     0
102
RTVSPost2010PropOp31
 70
     1
102
RTVSPost2010Prop32
280
     0
102
RTVSPost2010PropOp32
 70
     1
102
RTVSPost2010Prop33
280
     0
102
RTVSPost2010PropOp33
 70
     1
102
RTVSPost2010Prop34
280
     0
102
RTVSPost2010PropOp34
 70
     1
102
RTVSPost2010Prop35
280
     0
102
RTVSPost2010PropOp35
 70
     1
102
RTVSPost2010Prop36
280
     0
102
RTVSPost2010PropOp36
 70
     1
102
RTVSPost2010Prop37
 90
       50
102
RTVSPost2010PropOp37
 70
     1
102
RTVSPost2010Prop38
140
0.0
102
RTVSPost2010PropOp38
 70
     1
102
RTVSPost2010Prop39
140
1.0
102
RTVSPost2010PropOp39
 70
     1
102
RTVSPost2010Prop40
 90
        0
102
RTVSPost2010PropOp40
 70
     1
102
RTVSPost2010Prop41ColorIndex
 90
       18
102
RTVSPost2010Prop41ColorRGB
 90
        0
102
RTVSPost2010PropOp41
 70
     1
102
RTVSPost2010Prop42
 90
       50
102
RTVSPost2010PropOp42
 70
     1
102
RTVSPost2010Prop43
 90
        3
102
RTVSPost2010PropOp43
 70
     1
102
RTVSPost2010Prop44ColorIndex
 90
        5
102
RTVSPost2010Prop44ColorRGB
 90
      255
102
RTVSPost2010PropOp44
 70
     1
102
RTVSPost2010Prop45
280
     0
102
RTVSPost2010PropOp45
 70
     1
102
RTVSPost2010Prop46
 90
       50
102
RTVSPost2010PropOp46
 70
     1
102
RTVSPost2010Prop47
 90
       50
102
RTVSPost2010PropOp47
 70
     1
102
RTVSPost2010Prop48
 90
       50
102
RTVSPost2010PropOp48
 70
     1
102
RTVSPost2010Prop49
280
     0
102
RTVSPost2010PropOp49
 70
     1
102
RTVSPost2010Prop50
 90
       50
102
RTVSPost2010PropOp50
 70
     1
102
RTVSPost2010Prop51ColorIndex
 90
      256
102
RTVSPost2010Prop51ColorRGB
 90
-16777216
102
RTVSPost2010PropOp51
 70
     0
102
RTVSPost2010Prop52
140
1.0
102
RTVSPost2010PropOp52
 70
     0
102
RTVSPost2010Prop53
 90
        2
102
RTVSPost2010PropOp53
 70
     1
102
RTVSPost2010Prop54
  1
strokes_ogs.tif
102
RTVSPost2010PropOp54
 70
     1
102
RTVSPost2010Prop55
280
     0
102
RTVSPost2010PropOp55
 70
     1
102
RTVSPost2010Prop56
140
1.0
102
RTVSPost2010PropOp56
 70
     1
102
RTVSPost2010Prop57
140
1.0
102
RTVSPost2010PropOp57
 70
     1
  0
XRECORD
  5
57E
102
{ACAD_REACTORS
330
57D
102
}
330
57D
100
AcDbXrecord
280
     1
102
RTVSPropertyOp0
 70
     1
102
RTVSPropertyOp1
 70
     1
102
RTVSPropertyOp2
 70
     1
102
RTVSPropertyOp3
 70
     1
102
RTVSPropertyOp4
 70
     1
102
RTVSPropertyOp5
 70
     1
102
RTVSPropertyOp6
 70
     1
102
RTVSPropertyOp7
 70
     1
102
RTVSPropertyOp8
 70
     1
102
RTVSPropertyOp9
 70
     1
102
RTVSPropertyOp10
 70
     1
102
RTVSPropertyOp11
 70
     1
102
RTVSPropertyOp12
 70
     1
102
RTVSPropertyOp13
 70
     1
102
RTVSPropertyOp14
 70
     1
102
RTVSPropertyOp15
 70
     1
102
RTVSPropertyOp16
 70
     1
102
RTVSPropertyOp17
 70
     1
102
RTVSPropertyOp18
 70
     1
102
RTVSPropertyOp19
 70
     1
102
RTVSPropertyOp20
 70
     1
102
RTVSPropertyOp21
 70
     1
102
RTVSPropertyOp22
 70
     1
102
RTVSPropertyOp23
 70
     1
102
RTVSPropertyOp24
 70
     1
102
RTVSPropertyOp25
 70
     1
102
RTVSPropertyOp26
 70
     1
102
RTVSPropertyOp27
 70
     1
102
RTVSPropertyOp28
 70
     1
102
RTVSPropertyOp29
 70
     1
102
RTVSPropertyOp30
 70
     1
102
RTVSPropertyOp31
 70
     1
102
RTVSPropertyOp32
 70
     1
102
RTVSPropertyOp33
 70
     1
102
RTVSPropertyOp34
 70
     1
102
RTVSPropertyOp35
 70
     1
102
RTVSPropertyOp36
 70
     1
102
RTVSPropertyOp37
 70
     1
102
RTVSPropertyOp38
 70
     1
102
RTVSPropertyOp39
 70
     1
102
RTVSPropertyOp40
 70
     1
102
RTVSPropertyOp41
 70
     1
102
RTVSPropertyOp42
 70
     1
102
RTVSPropertyOp43
 70
     1
102
RTVSPropertyOp44
 70
     1
102
RTVSPropertyOp45
 70
     1
102
RTVSPropertyOp46
 70
     1
102
RTVSPropertyOp47
 70
     1
102
RTVSPropertyOp48
 70
     1
102
RTVSPropertyOp49
 70
     1
102
RTVSPropertyOp50
 70
     1
102
RTVSPropertyOp51
 70
     0
102
RTVSPropertyOp52
 70
     0
102
RTVSPropertyOp53
 70
     1
102
RTVSPropertyOp54
 70
     1
102
RTVSPropertyOp55
 70
     1
102
RTVSPropertyOp56
 70
     1
102
RTVSPropertyOp57
 70
     1
102
RTVSPost2010Prop28
280
     0
102
RTVSPost2010PropOp28
 70
     1
102
RTVSPost2010Prop29
280
     1
102
RTVSPost2010PropOp29
 70
     1
102
RTVSPost2010Prop30
280
     1
102
RTVSPost2010PropOp30
 70
     1
102
RTVSPost2010Prop31
280
     0
102
RTVSPost2010PropOp31
 70
     1
102
RTVSPost2010Prop32
280
     0
102
RTVSPost2010PropOp32
 70
     1
102
RTVSPost2010Prop33
280
     0
102
RTVSPost2010PropOp33
 70
     1
102
RTVSPost2010Prop34
280
     0
102
RTVSPost2010PropOp34
 70
     1
102
RTVSPost2010Prop35
280
     0
102
RTVSPost2010PropOp35
 70
     1
102
RTVSPost2010Prop36
280
     0
102
RTVSPost2010PropOp36
 70
     1
102
RTVSPost2010Prop37
 90
       50
102
RTVSPost2010PropOp37
 70
     1
102
RTVSPost2010Prop38
140
0.0
102
RTVSPost2010PropOp38
 70
     1
102
RTVSPost2010Prop39
140
1.0
102
RTVSPost2010PropOp39
 70
     1
102
RTVSPost2010Prop40
 90
        0
102
RTVSPost2010PropOp40
 70
     1
102
RTVSPost2010Prop41ColorIndex
 90
       18
102
RTVSPost2010Prop41ColorRGB
 90
        0
102
RTVSPost2010PropOp41
 70
     1
102
RTVSPost2010Prop42
 90
       50
102
RTVSPost2010PropOp42
 70
     1
102
RTVSPost2010Prop43
 90
        3
102
RTVSPost2010PropOp43
 70
     1
102
RTVSPost2010Prop44ColorIndex
 90
        5
102
RTVSPost2010Prop44ColorRGB
 90
      255
102
RTVSPost2010PropOp44
 70
     1
102
RTVSPost2010Prop45
280
     0
102
RTVSPost2010PropOp45
 70
     1
102
RTVSPost2010Prop46
 90
       50
102
RTVSPost2010PropOp46
 70
     1
102
RTVSPost2010Prop47
 90
       50
102
RTVSPost2010PropOp47
 70
     1
102
RTVSPost2010Prop48
 90
       50
102
RTVSPost2010PropOp48
 70
     1
102
RTVSPost2010Prop49
280
     0
102
RTVSPost2010PropOp49
 70
     1
102
RTVSPost2010Prop50
 90
       50
102
RTVSPost2010PropOp50
 70
     1
102
RTVSPost2010Prop51ColorIndex
 90
      256
102
RTVSPost2010Prop51ColorRGB
 90
-16777216
102
RTVSPost2010PropOp51
 70
     0
102
RTVSPost2010Prop52
140
1.0
102
RTVSPost2010PropOp52
 70
     0
102
RTVSPost2010Prop53
 90
        2
102
RTVSPost2010PropOp53
 70
     1
102
RTVSPost2010Prop54
  1
strokes_ogs.tif
102
RTVSPost2010PropOp54
 70
     1
102
RTVSPost2010Prop55
280
     0
102
RTVSPost2010PropOp55
 70
     1
102
RTVSPost2010Prop56
140
1.0
102
RTVSPost2010PropOp56
 70
     1
102
RTVSPost2010Prop57
140
1.0
102
RTVSPost2010PropOp57
 70
     1
  0
XRECORD
  5
580
102
{ACAD_REACTORS
330
57F
102
}
330
57F
100
AcDbXrecord
280
     1
102
RTVSPropertyOp0
 70
     1
102
RTVSPropertyOp1
 70
     1
102
RTVSPropertyOp2
 70
     1
102
RTVSPropertyOp3
 70
     1
102
RTVSPropertyOp4
 70
     1
102
RTVSPropertyOp5
 70
     1
102
RTVSPropertyOp6
 70
     1
102
RTVSPropertyOp7
 70
     1
102
RTVSPropertyOp8
 70
     1
102
RTVSPropertyOp9
 70
     1
102
RTVSPropertyOp10
 70
     1
102
RTVSPropertyOp11
 70
     1
102
RTVSPropertyOp12
 70
     1
102
RTVSPropertyOp13
 70
     1
102
RTVSPropertyOp14
 70
     1
102
RTVSPropertyOp15
 70
     1
102
RTVSPropertyOp16
 70
     1
102
RTVSPropertyOp17
 70
     1
102
RTVSPropertyOp18
 70
     1
102
RTVSPropertyOp19
 70
     1
102
RTVSPropertyOp20
 70
     1
102
RTVSPropertyOp21
 70
     1
102
RTVSPropertyOp22
 70
     1
102
RTVSPropertyOp23
 70
     1
102
RTVSPropertyOp24
 70
     1
102
RTVSPropertyOp25
 70
     1
102
RTVSPropertyOp26
 70
     1
102
RTVSPropertyOp27
 70
     1
102
RTVSPropertyOp28
 70
     1
102
RTVSPropertyOp29
 70
     1
102
RTVSPropertyOp30
 70
     1
102
RTVSPropertyOp31
 70
     1
102
RTVSPropertyOp32
 70
     1
102
RTVSPropertyOp33
 70
     1
102
RTVSPropertyOp34
 70
     1
102
RTVSPropertyOp35
 70
     1
102
RTVSPropertyOp36
 70
     1
102
RTVSPropertyOp37
 70
     1
102
RTVSPropertyOp38
 70
     1
102
RTVSPropertyOp39
 70
     1
102
RTVSPropertyOp40
 70
     1
102
RTVSPropertyOp41
 70
     1
102
RTVSPropertyOp42
 70
     1
102
RTVSPropertyOp43
 70
     1
102
RTVSPropertyOp44
 70
     1
102
RTVSPropertyOp45
 70
     1
102
RTVSPropertyOp46
 70
     1
102
RTVSPropertyOp47
 70
     1
102
RTVSPropertyOp48
 70
     1
102
RTVSPropertyOp49
 70
     1
102
RTVSPropertyOp50
 70
     1
102
RTVSPropertyOp51
 70
     0
102
RTVSPropertyOp52
 70
     0
102
RTVSPropertyOp53
 70
     1
102
RTVSPropertyOp54
 70
     1
102
RTVSPropertyOp55
 70
     1
102
RTVSPropertyOp56
 70
     1
102
RTVSPropertyOp57
 70
     1
102
RTVSPost2010Prop28
280
     0
102
RTVSPost2010PropOp28
 70
     1
102
RTVSPost2010Prop29
280
     1
102
RTVSPost2010PropOp29
 70
     1
102
RTVSPost2010Prop30
280
     1
102
RTVSPost2010PropOp30
 70
     1
102
RTVSPost2010Prop31
280
     0
102
RTVSPost2010PropOp31
 70
     1
102
RTVSPost2010Prop32
280
     0
102
RTVSPost2010PropOp32
 70
     1
102
RTVSPost2010Prop33
280
     0
102
RTVSPost2010PropOp33
 70
     1
102
RTVSPost2010Prop34
280
     0
102
RTVSPost2010PropOp34
 70
     1
102
RTVSPost2010Prop35
280
     0
102
RTVSPost2010PropOp35
 70
     1
102
RTVSPost2010Prop36
280
     0
102
RTVSPost2010PropOp36
 70
     1
102
RTVSPost2010Prop37
 90
       50
102
RTVSPost2010PropOp37
 70
     1
102
RTVSPost2010Prop38
140
0.0
102
RTVSPost2010PropOp38
 70
     1
102
RTVSPost2010Prop39
140
1.0
102
RTVSPost2010PropOp39
 70
     1
102
RTVSPost2010Prop40
 90
        0
102
RTVSPost2010PropOp40
 70
     1
102
RTVSPost2010Prop41ColorIndex
 90
       18
102
RTVSPost2010Prop41ColorRGB
 90
        0
102
RTVSPost2010PropOp41
 70
     1
102
RTVSPost2010Prop42
 90
       50
102
RTVSPost2010PropOp42
 70
     1
102
RTVSPost2010Prop43
 90
        3
102
RTVSPost2010PropOp43
 70
     1
102
RTVSPost2010Prop44ColorIndex
 90
        5
102
RTVSPost2010Prop44ColorRGB
 90
      255
102
RTVSPost2010PropOp44
 70
     1
102
RTVSPost2010Prop45
280
     0
102
RTVSPost2010PropOp45
 70
     1
102
RTVSPost2010Prop46
 90
       50
102
RTVSPost2010PropOp46
 70
     1
102
RTVSPost2010Prop47
 90
       50
102
RTVSPost2010PropOp47
 70
     1
102
RTVSPost2010Prop48
 90
       50
102
RTVSPost2010PropOp48
 70
     1
102
RTVSPost2010Prop49
280
     0
102
RTVSPost2010PropOp49
 70
     1
102
RTVSPost2010Prop50
 90
       50
102
RTVSPost2010PropOp50
 70
     1
102
RTVSPost2010Prop51ColorIndex
 90
      256
102
RTVSPost2010Prop51ColorRGB
 90
-16777216
102
RTVSPost2010PropOp51
 70
     0
102
RTVSPost2010Prop52
140
1.0
102
RTVSPost2010PropOp52
 70
     0
102
RTVSPost2010Prop53
 90
        2
102
RTVSPost2010PropOp53
 70
     1
102
RTVSPost2010Prop54
  1
strokes_ogs.tif
102
RTVSPost2010PropOp54
 70
     1
102
RTVSPost2010Prop55
280
     0
102
RTVSPost2010PropOp55
 70
     1
102
RTVSPost2010Prop56
140
1.0
102
RTVSPost2010PropOp56
 70
     1
102
RTVSPost2010Prop57
140
1.0
102
RTVSPost2010PropOp57
 70
     1
  0
XRECORD
  5
590
102
{ACAD_REACTORS
330
58F
102
}
330
58F
100
AcDbXrecord
280
     1
102
RTVSPropertyOp0
 70
     0
102
RTVSPropertyOp1
 70
     0
102
RTVSPropertyOp2
 70
     0
102
RTVSPropertyOp3
 70
     0
102
RTVSPropertyOp4
 70
     0
102
RTVSPropertyOp5
 70
     0
102
RTVSPropertyOp6
 70
     0
102
RTVSPropertyOp7
 70
     0
102
RTVSPropertyOp8
 70
     0
102
RTVSPropertyOp9
 70
     0
102
RTVSPropertyOp10
 70
     0
102
RTVSPropertyOp11
 70
     0
102
RTVSPropertyOp12
 70
     0
102
RTVSPropertyOp13
 70
     0
102
RTVSPropertyOp14
 70
     0
102
RTVSPropertyOp15
 70
     0
102
RTVSPropertyOp16
 70
     0
102
RTVSPropertyOp17
 70
     0
102
RTVSPropertyOp18
 70
     0
102
RTVSPropertyOp19
 70
     0
102
RTVSPropertyOp20
 70
     0
102
RTVSPropertyOp21
 70
     0
102
RTVSPropertyOp22
 70
     0
102
RTVSPropertyOp23
 70
     0
102
RTVSPropertyOp24
 70
     0
102
RTVSPropertyOp25
 70
     0
102
RTVSPropertyOp26
 70
     0
102
RTVSPropertyOp27
 70
     0
102
RTVSPropertyOp28
 70
     1
102
RTVSPropertyOp29
 70
     1
102
RTVSPropertyOp30
 70
     1
102
RTVSPropertyOp31
 70
     1
102
RTVSPropertyOp32
 70
     1
102
RTVSPropertyOp33
 70
     1
102
RTVSPropertyOp34
 70
     1
102
RTVSPropertyOp35
 70
     1
102
RTVSPropertyOp36
 70
     1
102
RTVSPropertyOp37
 70
     1
102
RTVSPropertyOp38
 70
     1
102
RTVSPropertyOp39
 70
     1
102
RTVSPropertyOp40
 70
     1
102
RTVSPropertyOp41
 70
     1
102
RTVSPropertyOp42
 70
     1
102
RTVSPropertyOp43
 70
     1
102
RTVSPropertyOp44
 70
     1
102
RTVSPropertyOp45
 70
     1
102
RTVSPropertyOp46
 70
     1
102
RTVSPropertyOp47
 70
     1
102
RTVSPropertyOp48
 70
     1
102
RTVSPropertyOp49
 70
     1
102
RTVSPropertyOp50
 70
     1
102
RTVSPropertyOp51
 70
     0
102
RTVSPropertyOp52
 70
     0
102
RTVSPropertyOp53
 70
     1
102
RTVSPropertyOp54
 70
     1
102
RTVSPropertyOp55
 70
     1
102
RTVSPropertyOp56
 70
     1
102
RTVSPropertyOp57
 70
     1
102
RTVSPost2010Prop28
280
     0
102
RTVSPost2010PropOp28
 70
     1
102
RTVSPost2010Prop29
280
     1
102
RTVSPost2010PropOp29
 70
     1
102
RTVSPost2010Prop30
280
     1
102
RTVSPost2010PropOp30
 70
     1
102
RTVSPost2010Prop31
280
     0
102
RTVSPost2010PropOp31
 70
     1
102
RTVSPost2010Prop32
280
     0
102
RTVSPost2010PropOp32
 70
     1
102
RTVSPost2010Prop33
280
     0
102
RTVSPost2010PropOp33
 70
     1
102
RTVSPost2010Prop34
280
     0
102
RTVSPost2010PropOp34
 70
     1
102
RTVSPost2010Prop35
280
     0
102
RTVSPost2010PropOp35
 70
     1
102
RTVSPost2010Prop36
280
     0
102
RTVSPost2010PropOp36
 70
     1
102
RTVSPost2010Prop37
 90
       50
102
RTVSPost2010PropOp37
 70
     1
102
RTVSPost2010Prop38
140
0.0
102
RTVSPost2010PropOp38
 70
     1
102
RTVSPost2010Prop39
140
1.0
102
RTVSPost2010PropOp39
 70
     1
102
RTVSPost2010Prop40
 90
        0
102
RTVSPost2010PropOp40
 70
     1
102
RTVSPost2010Prop41ColorIndex
 90
       18
102
RTVSPost2010Prop41ColorRGB
 90
        0
102
RTVSPost2010PropOp41
 70
     1
102
RTVSPost2010Prop42
 90
       50
102
RTVSPost2010PropOp42
 70
     1
102
RTVSPost2010Prop43
 90
        3
102
RTVSPost2010PropOp43
 70
     1
102
RTVSPost2010Prop44ColorIndex
 90
        5
102
RTVSPost2010Prop44ColorRGB
 90
      255
102
RTVSPost2010PropOp44
 70
     1
102
RTVSPost2010Prop45
280
     0
102
RTVSPost2010PropOp45
 70
     1
102
RTVSPost2010Prop46
 90
       50
102
RTVSPost2010PropOp46
 70
     1
102
RTVSPost2010Prop47
 90
       50
102
RTVSPost2010PropOp47
 70
     1
102
RTVSPost2010Prop48
 90
       50
102
RTVSPost2010PropOp48
 70
     1
102
RTVSPost2010Prop49
280
     0
102
RTVSPost2010PropOp49
 70
     1
102
RTVSPost2010Prop50
 90
       50
102
RTVSPost2010PropOp50
 70
     1
102
RTVSPost2010Prop51ColorIndex
 90
      256
102
RTVSPost2010Prop51ColorRGB
 90
-16777216
102
RTVSPost2010PropOp51
 70
     0
102
RTVSPost2010Prop52
140
1.0
102
RTVSPost2010PropOp52
 70
     0
102
RTVSPost2010Prop53
 90
        2
102
RTVSPost2010PropOp53
 70
     1
102
RTVSPost2010Prop54
  1
strokes_ogs.tif
102
RTVSPost2010PropOp54
 70
     1
102
RTVSPost2010Prop55
280
     0
102
RTVSPost2010PropOp55
 70
     1
102
RTVSPost2010Prop56
140
1.0
102
RTVSPost2010PropOp56
 70
     1
102
RTVSPost2010Prop57
140
1.0
102
RTVSPost2010PropOp57
 70
     1
  0
XRECORD
  5
588
102
{ACAD_REACTORS
330
587
102
}
330
587
100
AcDbXrecord
280
     1
102
RTVSPropertyOp0
 70
     1
102
RTVSPropertyOp1
 70
     1
102
RTVSPropertyOp2
 70
     1
102
RTVSPropertyOp3
 70
     1
102
RTVSPropertyOp4
 70
     1
102
RTVSPropertyOp5
 70
     1
102
RTVSPropertyOp6
 70
     1
102
RTVSPropertyOp7
 70
     1
102
RTVSPropertyOp8
 70
     1
102
RTVSPropertyOp9
 70
     1
102
RTVSPropertyOp10
 70
     1
102
RTVSPropertyOp11
 70
     1
102
RTVSPropertyOp12
 70
     1
102
RTVSPropertyOp13
 70
     1
102
RTVSPropertyOp14
 70
     1
102
RTVSPropertyOp15
 70
     1
102
RTVSPropertyOp16
 70
     1
102
RTVSPropertyOp17
 70
     1
102
RTVSPropertyOp18
 70
     1
102
RTVSPropertyOp19
 70
     1
102
RTVSPropertyOp20
 70
     1
102
RTVSPropertyOp21
 70
     1
102
RTVSPropertyOp22
 70
     1
102
RTVSPropertyOp23
 70
     1
102
RTVSPropertyOp24
 70
     1
102
RTVSPropertyOp25
 70
     1
102
RTVSPropertyOp26
 70
     1
102
RTVSPropertyOp27
 70
     1
102
RTVSPropertyOp28
 70
     1
102
RTVSPropertyOp29
 70
     1
102
RTVSPropertyOp30
 70
     1
102
RTVSPropertyOp31
 70
     1
102
RTVSPropertyOp32
 70
     1
102
RTVSPropertyOp33
 70
     1
102
RTVSPropertyOp34
 70
     1
102
RTVSPropertyOp35
 70
     1
102
RTVSPropertyOp36
 70
     1
102
RTVSPropertyOp37
 70
     1
102
RTVSPropertyOp38
 70
     1
102
RTVSPropertyOp39
 70
     1
102
RTVSPropertyOp40
 70
     1
102
RTVSPropertyOp41
 70
     1
102
RTVSPropertyOp42
 70
     1
102
RTVSPropertyOp43
 70
     1
102
RTVSPropertyOp44
 70
     1
102
RTVSPropertyOp45
 70
     1
102
RTVSPropertyOp46
 70
     1
102
RTVSPropertyOp47
 70
     1
102
RTVSPropertyOp48
 70
     1
102
RTVSPropertyOp49
 70
     1
102
RTVSPropertyOp50
 70
     1
102
RTVSPropertyOp51
 70
     0
102
RTVSPropertyOp52
 70
     0
102
RTVSPropertyOp53
 70
     1
102
RTVSPropertyOp54
 70
     1
102
RTVSPropertyOp55
 70
     1
102
RTVSPropertyOp56
 70
     1
102
RTVSPropertyOp57
 70
     1
102
RTVSPost2010Prop28
280
     0
102
RTVSPost2010PropOp28
 70
     1
102
RTVSPost2010Prop29
280
     1
102
RTVSPost2010PropOp29
 70
     1
102
RTVSPost2010Prop30
280
     1
102
RTVSPost2010PropOp30
 70
     1
102
RTVSPost2010Prop31
280
     0
102
RTVSPost2010PropOp31
 70
     1
102
RTVSPost2010Prop32
280
     0
102
RTVSPost2010PropOp32
 70
     1
102
RTVSPost2010Prop33
280
     0
102
RTVSPost2010PropOp33
 70
     1
102
RTVSPost2010Prop34
280
     0
102
RTVSPost2010PropOp34
 70
     1
102
RTVSPost2010Prop35
280
     0
102
RTVSPost2010PropOp35
 70
     1
102
RTVSPost2010Prop36
280
     0
102
RTVSPost2010PropOp36
 70
     1
102
RTVSPost2010Prop37
 90
       50
102
RTVSPost2010PropOp37
 70
     1
102
RTVSPost2010Prop38
140
0.0
102
RTVSPost2010PropOp38
 70
     1
102
RTVSPost2010Prop39
140
1.0
102
RTVSPost2010PropOp39
 70
     1
102
RTVSPost2010Prop40
 90
        0
102
RTVSPost2010PropOp40
 70
     1
102
RTVSPost2010Prop41ColorIndex
 90
       18
102
RTVSPost2010Prop41ColorRGB
 90
        0
102
RTVSPost2010PropOp41
 70
     1
102
RTVSPost2010Prop42
 90
       50
102
RTVSPost2010PropOp42
 70
     1
102
RTVSPost2010Prop43
 90
        3
102
RTVSPost2010PropOp43
 70
     1
102
RTVSPost2010Prop44ColorIndex
 90
        5
102
RTVSPost2010Prop44ColorRGB
 90
      255
102
RTVSPost2010PropOp44
 70
     1
102
RTVSPost2010Prop45
280
     0
102
RTVSPost2010PropOp45
 70
     1
102
RTVSPost2010Prop46
 90
       50
102
RTVSPost2010PropOp46
 70
     1
102
RTVSPost2010Prop47
 90
       50
102
RTVSPost2010PropOp47
 70
     1
102
RTVSPost2010Prop48
 90
       50
102
RTVSPost2010PropOp48
 70
     1
102
RTVSPost2010Prop49
280
     0
102
RTVSPost2010PropOp49
 70
     1
102
RTVSPost2010Prop50
 90
       50
102
RTVSPost2010PropOp50
 70
     1
102
RTVSPost2010Prop51ColorIndex
 90
      256
102
RTVSPost2010Prop51ColorRGB
 90
-16777216
102
RTVSPost2010PropOp51
 70
     0
102
RTVSPost2010Prop52
140
1.0
102
RTVSPost2010PropOp52
 70
     0
102
RTVSPost2010Prop53
 90
        2
102
RTVSPost2010PropOp53
 70
     1
102
RTVSPost2010Prop54
  1
strokes_ogs.tif
102
RTVSPost2010PropOp54
 70
     1
102
RTVSPost2010Prop55
280
     0
102
RTVSPost2010PropOp55
 70
     1
102
RTVSPost2010Prop56
140
1.0
102
RTVSPost2010PropOp56
 70
     1
102
RTVSPost2010Prop57
140
1.0
102
RTVSPost2010PropOp57
 70
     1
  0
XRECORD
  5
56C
102
{ACAD_REACTORS
330
56B
102
}
330
56B
100
AcDbXrecord
280
     1
102
RTVSPropertyOp0
 70
     1
102
RTVSPropertyOp1
 70
     1
102
RTVSPropertyOp2
 70
     1
102
RTVSPropertyOp3
 70
     1
102
RTVSPropertyOp4
 70
     1
102
RTVSPropertyOp5
 70
     1
102
RTVSPropertyOp6
 70
     1
102
RTVSPropertyOp7
 70
     1
102
RTVSPropertyOp8
 70
     1
102
RTVSPropertyOp9
 70
     1
102
RTVSPropertyOp10
 70
     1
102
RTVSPropertyOp11
 70
     1
102
RTVSPropertyOp12
 70
     1
102
RTVSPropertyOp13
 70
     1
102
RTVSPropertyOp14
 70
     1
102
RTVSPropertyOp15
 70
     1
102
RTVSPropertyOp16
 70
     1
102
RTVSPropertyOp17
 70
     1
102
RTVSPropertyOp18
 70
     1
102
RTVSPropertyOp19
 70
     1
102
RTVSPropertyOp20
 70
     1
102
RTVSPropertyOp21
 70
     1
102
RTVSPropertyOp22
 70
     1
102
RTVSPropertyOp23
 70
     1
102
RTVSPropertyOp24
 70
     1
102
RTVSPropertyOp25
 70
     1
102
RTVSPropertyOp26
 70
     1
102
RTVSPropertyOp27
 70
     1
102
RTVSPropertyOp28
 70
     1
102
RTVSPropertyOp29
 70
     1
102
RTVSPropertyOp30
 70
     1
102
RTVSPropertyOp31
 70
     1
102
RTVSPropertyOp32
 70
     1
102
RTVSPropertyOp33
 70
     1
102
RTVSPropertyOp34
 70
     1
102
RTVSPropertyOp35
 70
     1
102
RTVSPropertyOp36
 70
     1
102
RTVSPropertyOp37
 70
     1
102
RTVSPropertyOp38
 70
     1
102
RTVSPropertyOp39
 70
     1
102
RTVSPropertyOp40
 70
     1
102
RTVSPropertyOp41
 70
     1
102
RTVSPropertyOp42
 70
     1
102
RTVSPropertyOp43
 70
     1
102
RTVSPropertyOp44
 70
     1
102
RTVSPropertyOp45
 70
     1
102
RTVSPropertyOp46
 70
     1
102
RTVSPropertyOp47
 70
     1
102
RTVSPropertyOp48
 70
     1
102
RTVSPropertyOp49
 70
     1
102
RTVSPropertyOp50
 70
     1
102
RTVSPropertyOp51
 70
     0
102
RTVSPropertyOp52
 70
     0
102
RTVSPropertyOp53
 70
     1
102
RTVSPropertyOp54
 70
     1
102
RTVSPropertyOp55
 70
     1
102
RTVSPropertyOp56
 70
     1
102
RTVSPropertyOp57
 70
     1
102
RTVSPost2010Prop28
280
     0
102
RTVSPost2010PropOp28
 70
     1
102
RTVSPost2010Prop29
280
     1
102
RTVSPost2010PropOp29
 70
     1
102
RTVSPost2010Prop30
280
     1
102
RTVSPost2010PropOp30
 70
     1
102
RTVSPost2010Prop31
280
     0
102
RTVSPost2010PropOp31
 70
     1
102
RTVSPost2010Prop32
280
     0
102
RTVSPost2010PropOp32
 70
     1
102
RTVSPost2010Prop33
280
     0
102
RTVSPost2010PropOp33
 70
     1
102
RTVSPost2010Prop34
280
     0
102
RTVSPost2010PropOp34
 70
     1
102
RTVSPost2010Prop35
280
     0
102
RTVSPost2010PropOp35
 70
     1
102
RTVSPost2010Prop36
280
     0
102
RTVSPost2010PropOp36
 70
     1
102
RTVSPost2010Prop37
 90
       50
102
RTVSPost2010PropOp37
 70
     1
102
RTVSPost2010Prop38
140
0.0
102
RTVSPost2010PropOp38
 70
     1
102
RTVSPost2010Prop39
140
1.0
102
RTVSPost2010PropOp39
 70
     1
102
RTVSPost2010Prop40
 90
        0
102
RTVSPost2010PropOp40
 70
     1
102
RTVSPost2010Prop41ColorIndex
 90
       18
102
RTVSPost2010Prop41ColorRGB
 90
        0
102
RTVSPost2010PropOp41
 70
     1
102
RTVSPost2010Prop42
 90
       50
102
RTVSPost2010PropOp42
 70
     1
102
RTVSPost2010Prop43
 90
        3
102
RTVSPost2010PropOp43
 70
     1
102
RTVSPost2010Prop44ColorIndex
 90
        5
102
RTVSPost2010Prop44ColorRGB
 90
      255
102
RTVSPost2010PropOp44
 70
     1
102
RTVSPost2010Prop45
280
     0
102
RTVSPost2010PropOp45
 70
     1
102
RTVSPost2010Prop46
 90
       50
102
RTVSPost2010PropOp46
 70
     1
102
RTVSPost2010Prop47
 90
       50
102
RTVSPost2010PropOp47
 70
     1
102
RTVSPost2010Prop48
 90
       50
102
RTVSPost2010PropOp48
 70
     1
102
RTVSPost2010Prop49
280
     0
102
RTVSPost2010PropOp49
 70
     1
102
RTVSPost2010Prop50
 90
       50
102
RTVSPost2010PropOp50
 70
     1
102
RTVSPost2010Prop51ColorIndex
 90
      256
102
RTVSPost2010Prop51ColorRGB
 90
-16777216
102
RTVSPost2010PropOp51
 70
     0
102
RTVSPost2010Prop52
140
1.0
102
RTVSPost2010PropOp52
 70
     0
102
RTVSPost2010Prop53
 90
        2
102
RTVSPost2010PropOp53
 70
     1
102
RTVSPost2010Prop54
  1
strokes_ogs.tif
102
RTVSPost2010PropOp54
 70
     1
102
RTVSPost2010Prop55
280
     0
102
RTVSPost2010PropOp55
 70
     1
102
RTVSPost2010Prop56
140
1.0
102
RTVSPost2010PropOp56
 70
     1
102
RTVSPost2010Prop57
140
1.0
102
RTVSPost2010PropOp57
 70
     1
  0
XRECORD
  5
56E
102
{ACAD_REACTORS
330
56D
102
}
330
56D
100
AcDbXrecord
280
     1
102
RTVSPropertyOp0
 70
     1
102
RTVSPropertyOp1
 70
     1
102
RTVSPropertyOp2
 70
     1
102
RTVSPropertyOp3
 70
     1
102
RTVSPropertyOp4
 70
     1
102
RTVSPropertyOp5
 70
     1
102
RTVSPropertyOp6
 70
     1
102
RTVSPropertyOp7
 70
     1
102
RTVSPropertyOp8
 70
     1
102
RTVSPropertyOp9
 70
     1
102
RTVSPropertyOp10
 70
     1
102
RTVSPropertyOp11
 70
     1
102
RTVSPropertyOp12
 70
     1
102
RTVSPropertyOp13
 70
     1
102
RTVSPropertyOp14
 70
     1
102
RTVSPropertyOp15
 70
     1
102
RTVSPropertyOp16
 70
     1
102
RTVSPropertyOp17
 70
     1
102
RTVSPropertyOp18
 70
     1
102
RTVSPropertyOp19
 70
     1
102
RTVSPropertyOp20
 70
     1
102
RTVSPropertyOp21
 70
     1
102
RTVSPropertyOp22
 70
     1
102
RTVSPropertyOp23
 70
     1
102
RTVSPropertyOp24
 70
     1
102
RTVSPropertyOp25
 70
     1
102
RTVSPropertyOp26
 70
     1
102
RTVSPropertyOp27
 70
     1
102
RTVSPropertyOp28
 70
     1
102
RTVSPropertyOp29
 70
     1
102
RTVSPropertyOp30
 70
     1
102
RTVSPropertyOp31
 70
     1
102
RTVSPropertyOp32
 70
     1
102
RTVSPropertyOp33
 70
     1
102
RTVSPropertyOp34
 70
     1
102
RTVSPropertyOp35
 70
     1
102
RTVSPropertyOp36
 70
     1
102
RTVSPropertyOp37
 70
     1
102
RTVSPropertyOp38
 70
     1
102
RTVSPropertyOp39
 70
     1
102
RTVSPropertyOp40
 70
     1
102
RTVSPropertyOp41
 70
     1
102
RTVSPropertyOp42
 70
     1
102
RTVSPropertyOp43
 70
     1
102
RTVSPropertyOp44
 70
     1
102
RTVSPropertyOp45
 70
     1
102
RTVSPropertyOp46
 70
     1
102
RTVSPropertyOp47
 70
     1
102
RTVSPropertyOp48
 70
     1
102
RTVSPropertyOp49
 70
     1
102
RTVSPropertyOp50
 70
     1
102
RTVSPropertyOp51
 70
     0
102
RTVSPropertyOp52
 70
     0
102
RTVSPropertyOp53
 70
     1
102
RTVSPropertyOp54
 70
     1
102
RTVSPropertyOp55
 70
     1
102
RTVSPropertyOp56
 70
     1
102
RTVSPropertyOp57
 70
     1
102
RTVSPost2010Prop28
280
     0
102
RTVSPost2010PropOp28
 70
     1
102
RTVSPost2010Prop29
280
     1
102
RTVSPost2010PropOp29
 70
     1
102
RTVSPost2010Prop30
280
     1
102
RTVSPost2010PropOp30
 70
     1
102
RTVSPost2010Prop31
280
     0
102
RTVSPost2010PropOp31
 70
     1
102
RTVSPost2010Prop32
280
     0
102
RTVSPost2010PropOp32
 70
     1
102
RTVSPost2010Prop33
280
     0
102
RTVSPost2010PropOp33
 70
     1
102
RTVSPost2010Prop34
280
     0
102
RTVSPost2010PropOp34
 70
     1
102
RTVSPost2010Prop35
280
     0
102
RTVSPost2010PropOp35
 70
     1
102
RTVSPost2010Prop36
280
     0
102
RTVSPost2010PropOp36
 70
     1
102
RTVSPost2010Prop37
 90
       50
102
RTVSPost2010PropOp37
 70
     1
102
RTVSPost2010Prop38
140
0.0
102
RTVSPost2010PropOp38
 70
     1
102
RTVSPost2010Prop39
140
1.0
102
RTVSPost2010PropOp39
 70
     1
102
RTVSPost2010Prop40
 90
        0
102
RTVSPost2010PropOp40
 70
     1
102
RTVSPost2010Prop41ColorIndex
 90
       18
102
RTVSPost2010Prop41ColorRGB
 90
        0
102
RTVSPost2010PropOp41
 70
     1
102
RTVSPost2010Prop42
 90
       50
102
RTVSPost2010PropOp42
 70
     1
102
RTVSPost2010Prop43
 90
        3
102
RTVSPost2010PropOp43
 70
     1
102
RTVSPost2010Prop44ColorIndex
 90
        5
102
RTVSPost2010Prop44ColorRGB
 90
      255
102
RTVSPost2010PropOp44
 70
     1
102
RTVSPost2010Prop45
280
     0
102
RTVSPost2010PropOp45
 70
     1
102
RTVSPost2010Prop46
 90
       50
102
RTVSPost2010PropOp46
 70
     1
102
RTVSPost2010Prop47
 90
       50
102
RTVSPost2010PropOp47
 70
     1
102
RTVSPost2010Prop48
 90
       50
102
RTVSPost2010PropOp48
 70
     1
102
RTVSPost2010Prop49
280
     0
102
RTVSPost2010PropOp49
 70
     1
102
RTVSPost2010Prop50
 90
       50
102
RTVSPost2010PropOp50
 70
     1
102
RTVSPost2010Prop51ColorIndex
 90
      256
102
RTVSPost2010Prop51ColorRGB
 90
-16777216
102
RTVSPost2010PropOp51
 70
     0
102
RTVSPost2010Prop52
140
1.0
102
RTVSPost2010PropOp52
 70
     0
102
RTVSPost2010Prop53
 90
        2
102
RTVSPost2010PropOp53
 70
     1
102
RTVSPost2010Prop54
  1
strokes_ogs.tif
102
RTVSPost2010PropOp54
 70
     1
102
RTVSPost2010Prop55
280
     0
102
RTVSPost2010PropOp55
 70
     1
102
RTVSPost2010Prop56
140
1.0
102
RTVSPost2010PropOp56
 70
     1
102
RTVSPost2010Prop57
140
1.0
102
RTVSPost2010PropOp57
 70
     1
  0
XRECORD
  5
570
102
{ACAD_REACTORS
330
56F
102
}
330
56F
100
AcDbXrecord
280
     1
102
RTVSPropertyOp0
 70
     1
102
RTVSPropertyOp1
 70
     1
102
RTVSPropertyOp2
 70
     1
102
RTVSPropertyOp3
 70
     1
102
RTVSPropertyOp4
 70
     1
102
RTVSPropertyOp5
 70
     1
102
RTVSPropertyOp6
 70
     1
102
RTVSPropertyOp7
 70
     1
102
RTVSPropertyOp8
 70
     1
102
RTVSPropertyOp9
 70
     1
102
RTVSPropertyOp10
 70
     1
102
RTVSPropertyOp11
 70
     1
102
RTVSPropertyOp12
 70
     1
102
RTVSPropertyOp13
 70
     1
102
RTVSPropertyOp14
 70
     1
102
RTVSPropertyOp15
 70
     1
102
RTVSPropertyOp16
 70
     1
102
RTVSPropertyOp17
 70
     1
102
RTVSPropertyOp18
 70
     1
102
RTVSPropertyOp19
 70
     1
102
RTVSPropertyOp20
 70
     1
102
RTVSPropertyOp21
 70
     1
102
RTVSPropertyOp22
 70
     1
102
RTVSPropertyOp23
 70
     1
102
RTVSPropertyOp24
 70
     1
102
RTVSPropertyOp25
 70
     1
102
RTVSPropertyOp26
 70
     1
102
RTVSPropertyOp27
 70
     1
102
RTVSPropertyOp28
 70
     1
102
RTVSPropertyOp29
 70
     1
102
RTVSPropertyOp30
 70
     1
102
RTVSPropertyOp31
 70
     1
102
RTVSPropertyOp32
 70
     1
102
RTVSPropertyOp33
 70
     1
102
RTVSPropertyOp34
 70
     1
102
RTVSPropertyOp35
 70
     1
102
RTVSPropertyOp36
 70
     1
102
RTVSPropertyOp37
 70
     1
102
RTVSPropertyOp38
 70
     1
102
RTVSPropertyOp39
 70
     1
102
RTVSPropertyOp40
 70
     1
102
RTVSPropertyOp41
 70
     1
102
RTVSPropertyOp42
 70
     1
102
RTVSPropertyOp43
 70
     1
102
RTVSPropertyOp44
 70
     1
102
RTVSPropertyOp45
 70
     1
102
RTVSPropertyOp46
 70
     1
102
RTVSPropertyOp47
 70
     1
102
RTVSPropertyOp48
 70
     1
102
RTVSPropertyOp49
 70
     1
102
RTVSPropertyOp50
 70
     1
102
RTVSPropertyOp51
 70
     0
102
RTVSPropertyOp52
 70
     0
102
RTVSPropertyOp53
 70
     1
102
RTVSPropertyOp54
 70
     1
102
RTVSPropertyOp55
 70
     1
102
RTVSPropertyOp56
 70
     1
102
RTVSPropertyOp57
 70
     1
102
RTVSPost2010Prop28
280
     0
102
RTVSPost2010PropOp28
 70
     1
102
RTVSPost2010Prop29
280
     1
102
RTVSPost2010PropOp29
 70
     1
102
RTVSPost2010Prop30
280
     1
102
RTVSPost2010PropOp30
 70
     1
102
RTVSPost2010Prop31
280
     0
102
RTVSPost2010PropOp31
 70
     1
102
RTVSPost2010Prop32
280
     0
102
RTVSPost2010PropOp32
 70
     1
102
RTVSPost2010Prop33
280
     0
102
RTVSPost2010PropOp33
 70
     1
102
RTVSPost2010Prop34
280
     0
102
RTVSPost2010PropOp34
 70
     1
102
RTVSPost2010Prop35
280
     0
102
RTVSPost2010PropOp35
 70
     1
102
RTVSPost2010Prop36
280
     0
102
RTVSPost2010PropOp36
 70
     1
102
RTVSPost2010Prop37
 90
       50
102
RTVSPost2010PropOp37
 70
     1
102
RTVSPost2010Prop38
140
0.0
102
RTVSPost2010PropOp38
 70
     1
102
RTVSPost2010Prop39
140
1.0
102
RTVSPost2010PropOp39
 70
     1
102
RTVSPost2010Prop40
 90
        0
102
RTVSPost2010PropOp40
 70
     1
102
RTVSPost2010Prop41ColorIndex
 90
       18
102
RTVSPost2010Prop41ColorRGB
 90
        0
102
RTVSPost2010PropOp41
 70
     1
102
RTVSPost2010Prop42
 90
       50
102
RTVSPost2010PropOp42
 70
     1
102
RTVSPost2010Prop43
 90
        3
102
RTVSPost2010PropOp43
 70
     1
102
RTVSPost2010Prop44ColorIndex
 90
        5
102
RTVSPost2010Prop44ColorRGB
 90
      255
102
RTVSPost2010PropOp44
 70
     1
102
RTVSPost2010Prop45
280
     0
102
RTVSPost2010PropOp45
 70
     1
102
RTVSPost2010Prop46
 90
       50
102
RTVSPost2010PropOp46
 70
     1
102
RTVSPost2010Prop47
 90
       50
102
RTVSPost2010PropOp47
 70
     1
102
RTVSPost2010Prop48
 90
       50
102
RTVSPost2010PropOp48
 70
     1
102
RTVSPost2010Prop49
280
     0
102
RTVSPost2010PropOp49
 70
     1
102
RTVSPost2010Prop50
 90
       50
102
RTVSPost2010PropOp50
 70
     1
102
RTVSPost2010Prop51ColorIndex
 90
      256
102
RTVSPost2010Prop51ColorRGB
 90
-16777216
102
RTVSPost2010PropOp51
 70
     0
102
RTVSPost2010Prop52
140
1.0
102
RTVSPost2010PropOp52
 70
     0
102
RTVSPost2010Prop53
 90
        2
102
RTVSPost2010PropOp53
 70
     1
102
RTVSPost2010Prop54
  1
strokes_ogs.tif
102
RTVSPost2010PropOp54
 70
     1
102
RTVSPost2010Prop55
280
     0
102
RTVSPost2010PropOp55
 70
     1
102
RTVSPost2010Prop56
140
1.0
102
RTVSPost2010PropOp56
 70
     1
102
RTVSPost2010Prop57
140
1.0
102
RTVSPost2010PropOp57
 70
     1
  0
XRECORD
  5
572
102
{ACAD_REACTORS
330
571
102
}
330
571
100
AcDbXrecord
280
     1
102
RTVSPropertyOp0
 70
     1
102
RTVSPropertyOp1
 70
     1
102
RTVSPropertyOp2
 70
     1
102
RTVSPropertyOp3
 70
     1
102
RTVSPropertyOp4
 70
     1
102
RTVSPropertyOp5
 70
     1
102
RTVSPropertyOp6
 70
     1
102
RTVSPropertyOp7
 70
     1
102
RTVSPropertyOp8
 70
     1
102
RTVSPropertyOp9
 70
     1
102
RTVSPropertyOp10
 70
     1
102
RTVSPropertyOp11
 70
     1
102
RTVSPropertyOp12
 70
     1
102
RTVSPropertyOp13
 70
     1
102
RTVSPropertyOp14
 70
     1
102
RTVSPropertyOp15
 70
     1
102
RTVSPropertyOp16
 70
     1
102
RTVSPropertyOp17
 70
     1
102
RTVSPropertyOp18
 70
     1
102
RTVSPropertyOp19
 70
     1
102
RTVSPropertyOp20
 70
     1
102
RTVSPropertyOp21
 70
     1
102
RTVSPropertyOp22
 70
     1
102
RTVSPropertyOp23
 70
     1
102
RTVSPropertyOp24
 70
     1
102
RTVSPropertyOp25
 70
     1
102
RTVSPropertyOp26
 70
     1
102
RTVSPropertyOp27
 70
     1
102
RTVSPropertyOp28
 70
     1
102
RTVSPropertyOp29
 70
     1
102
RTVSPropertyOp30
 70
     1
102
RTVSPropertyOp31
 70
     1
102
RTVSPropertyOp32
 70
     1
102
RTVSPropertyOp33
 70
     1
102
RTVSPropertyOp34
 70
     1
102
RTVSPropertyOp35
 70
     1
102
RTVSPropertyOp36
 70
     1
102
RTVSPropertyOp37
 70
     1
102
RTVSPropertyOp38
 70
     1
102
RTVSPropertyOp39
 70
     1
102
RTVSPropertyOp40
 70
     1
102
RTVSPropertyOp41
 70
     1
102
RTVSPropertyOp42
 70
     1
102
RTVSPropertyOp43
 70
     1
102
RTVSPropertyOp44
 70
     1
102
RTVSPropertyOp45
 70
     1
102
RTVSPropertyOp46
 70
     1
102
RTVSPropertyOp47
 70
     1
102
RTVSPropertyOp48
 70
     1
102
RTVSPropertyOp49
 70
     1
102
RTVSPropertyOp50
 70
     1
102
RTVSPropertyOp51
 70
     0
102
RTVSPropertyOp52
 70
     0
102
RTVSPropertyOp53
 70
     1
102
RTVSPropertyOp54
 70
     1
102
RTVSPropertyOp55
 70
     1
102
RTVSPropertyOp56
 70
     1
102
RTVSPropertyOp57
 70
     1
102
RTVSPost2010Prop28
280
     0
102
RTVSPost2010PropOp28
 70
     1
102
RTVSPost2010Prop29
280
     1
102
RTVSPost2010PropOp29
 70
     1
102
RTVSPost2010Prop30
280
     1
102
RTVSPost2010PropOp30
 70
     1
102
RTVSPost2010Prop31
280
     0
102
RTVSPost2010PropOp31
 70
     1
102
RTVSPost2010Prop32
280
     0
102
RTVSPost2010PropOp32
 70
     1
102
RTVSPost2010Prop33
280
     0
102
RTVSPost2010PropOp33
 70
     1
102
RTVSPost2010Prop34
280
     0
102
RTVSPost2010PropOp34
 70
     1
102
RTVSPost2010Prop35
280
     0
102
RTVSPost2010PropOp35
 70
     1
102
RTVSPost2010Prop36
280
     0
102
RTVSPost2010PropOp36
 70
     1
102
RTVSPost2010Prop37
 90
       50
102
RTVSPost2010PropOp37
 70
     1
102
RTVSPost2010Prop38
140
0.0
102
RTVSPost2010PropOp38
 70
     1
102
RTVSPost2010Prop39
140
1.0
102
RTVSPost2010PropOp39
 70
     1
102
RTVSPost2010Prop40
 90
        0
102
RTVSPost2010PropOp40
 70
     1
102
RTVSPost2010Prop41ColorIndex
 90
       18
102
RTVSPost2010Prop41ColorRGB
 90
        0
102
RTVSPost2010PropOp41
 70
     1
102
RTVSPost2010Prop42
 90
       50
102
RTVSPost2010PropOp42
 70
     1
102
RTVSPost2010Prop43
 90
        3
102
RTVSPost2010PropOp43
 70
     1
102
RTVSPost2010Prop44ColorIndex
 90
        5
102
RTVSPost2010Prop44ColorRGB
 90
      255
102
RTVSPost2010PropOp44
 70
     1
102
RTVSPost2010Prop45
280
     0
102
RTVSPost2010PropOp45
 70
     1
102
RTVSPost2010Prop46
 90
       50
102
RTVSPost2010PropOp46
 70
     1
102
RTVSPost2010Prop47
 90
       50
102
RTVSPost2010PropOp47
 70
     1
102
RTVSPost2010Prop48
 90
       50
102
RTVSPost2010PropOp48
 70
     1
102
RTVSPost2010Prop49
280
     0
102
RTVSPost2010PropOp49
 70
     1
102
RTVSPost2010Prop50
 90
       50
102
RTVSPost2010PropOp50
 70
     1
102
RTVSPost2010Prop51ColorIndex
 90
      256
102
RTVSPost2010Prop51ColorRGB
 90
-16777216
102
RTVSPost2010PropOp51
 70
     0
102
RTVSPost2010Prop52
140
1.0
102
RTVSPost2010PropOp52
 70
     0
102
RTVSPost2010Prop53
 90
        2
102
RTVSPost2010PropOp53
 70
     1
102
RTVSPost2010Prop54
  1
strokes_ogs.tif
102
RTVSPost2010PropOp54
 70
     1
102
RTVSPost2010Prop55
280
     0
102
RTVSPost2010PropOp55
 70
     1
102
RTVSPost2010Prop56
140
1.0
102
RTVSPost2010PropOp56
 70
     1
102
RTVSPost2010Prop57
140
1.0
102
RTVSPost2010PropOp57
 70
     1
  0
XRECORD
  5
578
102
{ACAD_REACTORS
330
577
102
}
330
577
100
AcDbXrecord
280
     1
102
RTVSPropertyOp0
 70
     1
102
RTVSPropertyOp1
 70
     1
102
RTVSPropertyOp2
 70
     1
102
RTVSPropertyOp3
 70
     1
102
RTVSPropertyOp4
 70
     1
102
RTVSPropertyOp5
 70
     1
102
RTVSPropertyOp6
 70
     1
102
RTVSPropertyOp7
 70
     1
102
RTVSPropertyOp8
 70
     1
102
RTVSPropertyOp9
 70
     1
102
RTVSPropertyOp10
 70
     1
102
RTVSPropertyOp11
 70
     1
102
RTVSPropertyOp12
 70
     1
102
RTVSPropertyOp13
 70
     1
102
RTVSPropertyOp14
 70
     1
102
RTVSPropertyOp15
 70
     1
102
RTVSPropertyOp16
 70
     1
102
RTVSPropertyOp17
 70
     1
102
RTVSPropertyOp18
 70
     1
102
RTVSPropertyOp19
 70
     1
102
RTVSPropertyOp20
 70
     1
102
RTVSPropertyOp21
 70
     1
102
RTVSPropertyOp22
 70
     1
102
RTVSPropertyOp23
 70
     1
102
RTVSPropertyOp24
 70
     1
102
RTVSPropertyOp25
 70
     1
102
RTVSPropertyOp26
 70
     1
102
RTVSPropertyOp27
 70
     1
102
RTVSPropertyOp28
 70
     1
102
RTVSPropertyOp29
 70
     1
102
RTVSPropertyOp30
 70
     1
102
RTVSPropertyOp31
 70
     1
102
RTVSPropertyOp32
 70
     1
102
RTVSPropertyOp33
 70
     1
102
RTVSPropertyOp34
 70
     1
102
RTVSPropertyOp35
 70
     1
102
RTVSPropertyOp36
 70
     1
102
RTVSPropertyOp37
 70
     1
102
RTVSPropertyOp38
 70
     1
102
RTVSPropertyOp39
 70
     1
102
RTVSPropertyOp40
 70
     1
102
RTVSPropertyOp41
 70
     1
102
RTVSPropertyOp42
 70
     1
102
RTVSPropertyOp43
 70
     1
102
RTVSPropertyOp44
 70
     1
102
RTVSPropertyOp45
 70
     1
102
RTVSPropertyOp46
 70
     1
102
RTVSPropertyOp47
 70
     1
102
RTVSPropertyOp48
 70
     1
102
RTVSPropertyOp49
 70
     1
102
RTVSPropertyOp50
 70
     1
102
RTVSPropertyOp51
 70
     0
102
RTVSPropertyOp52
 70
     0
102
RTVSPropertyOp53
 70
     1
102
RTVSPropertyOp54
 70
     1
102
RTVSPropertyOp55
 70
     1
102
RTVSPropertyOp56
 70
     1
102
RTVSPropertyOp57
 70
     1
102
RTVSPost2010Prop28
280
     0
102
RTVSPost2010PropOp28
 70
     1
102
RTVSPost2010Prop29
280
     1
102
RTVSPost2010PropOp29
 70
     1
102
RTVSPost2010Prop30
280
     1
102
RTVSPost2010PropOp30
 70
     1
102
RTVSPost2010Prop31
280
     0
102
RTVSPost2010PropOp31
 70
     1
102
RTVSPost2010Prop32
280
     0
102
RTVSPost2010PropOp32
 70
     1
102
RTVSPost2010Prop33
280
     0
102
RTVSPost2010PropOp33
 70
     1
102
RTVSPost2010Prop34
280
     0
102
RTVSPost2010PropOp34
 70
     1
102
RTVSPost2010Prop35
280
     0
102
RTVSPost2010PropOp35
 70
     1
102
RTVSPost2010Prop36
280
     0
102
RTVSPost2010PropOp36
 70
     1
102
RTVSPost2010Prop37
 90
       50
102
RTVSPost2010PropOp37
 70
     1
102
RTVSPost2010Prop38
140
0.0
102
RTVSPost2010PropOp38
 70
     1
102
RTVSPost2010Prop39
140
1.0
102
RTVSPost2010PropOp39
 70
     1
102
RTVSPost2010Prop40
 90
        0
102
RTVSPost2010PropOp40
 70
     1
102
RTVSPost2010Prop41ColorIndex
 90
       18
102
RTVSPost2010Prop41ColorRGB
 90
        0
102
RTVSPost2010PropOp41
 70
     1
102
RTVSPost2010Prop42
 90
       50
102
RTVSPost2010PropOp42
 70
     1
102
RTVSPost2010Prop43
 90
        3
102
RTVSPost2010PropOp43
 70
     1
102
RTVSPost2010Prop44ColorIndex
 90
        5
102
RTVSPost2010Prop44ColorRGB
 90
      255
102
RTVSPost2010PropOp44
 70
     1
102
RTVSPost2010Prop45
280
     0
102
RTVSPost2010PropOp45
 70
     1
102
RTVSPost2010Prop46
 90
       50
102
RTVSPost2010PropOp46
 70
     1
102
RTVSPost2010Prop47
 90
       50
102
RTVSPost2010PropOp47
 70
     1
102
RTVSPost2010Prop48
 90
       50
102
RTVSPost2010PropOp48
 70
     1
102
RTVSPost2010Prop49
280
     0
102
RTVSPost2010PropOp49
 70
     1
102
RTVSPost2010Prop50
 90
       50
102
RTVSPost2010PropOp50
 70
     1
102
RTVSPost2010Prop51ColorIndex
 90
      256
102
RTVSPost2010Prop51ColorRGB
 90
-16777216
102
RTVSPost2010PropOp51
 70
     0
102
RTVSPost2010Prop52
140
1.0
102
RTVSPost2010PropOp52
 70
     0
102
RTVSPost2010Prop53
 90
        2
102
RTVSPost2010PropOp53
 70
     1
102
RTVSPost2010Prop54
  1
strokes_ogs.tif
102
RTVSPost2010PropOp54
 70
     1
102
RTVSPost2010Prop55
280
     0
102
RTVSPost2010PropOp55
 70
     1
102
RTVSPost2010Prop56
140
1.0
102
RTVSPost2010PropOp56
 70
     1
102
RTVSPost2010Prop57
140
1.0
102
RTVSPost2010PropOp57
 70
     1
  0
XRECORD
  5
58C
102
{ACAD_REACTORS
330
58B
102
}
330
58B
100
AcDbXrecord
280
     1
102
RTVSPropertyOp0
 70
     0
102
RTVSPropertyOp1
 70
     0
102
RTVSPropertyOp2
 70
     0
102
RTVSPropertyOp3
 70
     0
102
RTVSPropertyOp4
 70
     0
102
RTVSPropertyOp5
 70
     0
102
RTVSPropertyOp6
 70
     0
102
RTVSPropertyOp7
 70
     0
102
RTVSPropertyOp8
 70
     0
102
RTVSPropertyOp9
 70
     0
102
RTVSPropertyOp10
 70
     0
102
RTVSPropertyOp11
 70
     0
102
RTVSPropertyOp12
 70
     0
102
RTVSPropertyOp13
 70
     0
102
RTVSPropertyOp14
 70
     0
102
RTVSPropertyOp15
 70
     0
102
RTVSPropertyOp16
 70
     0
102
RTVSPropertyOp17
 70
     0
102
RTVSPropertyOp18
 70
     0
102
RTVSPropertyOp19
 70
     0
102
RTVSPropertyOp20
 70
     0
102
RTVSPropertyOp21
 70
     0
102
RTVSPropertyOp22
 70
     0
102
RTVSPropertyOp23
 70
     0
102
RTVSPropertyOp24
 70
     0
102
RTVSPropertyOp25
 70
     0
102
RTVSPropertyOp26
 70
     0
102
RTVSPropertyOp27
 70
     0
102
RTVSPropertyOp28
 70
     1
102
RTVSPropertyOp29
 70
     1
102
RTVSPropertyOp30
 70
     1
102
RTVSPropertyOp31
 70
     1
102
RTVSPropertyOp32
 70
     1
102
RTVSPropertyOp33
 70
     1
102
RTVSPropertyOp34
 70
     1
102
RTVSPropertyOp35
 70
     1
102
RTVSPropertyOp36
 70
     1
102
RTVSPropertyOp37
 70
     1
102
RTVSPropertyOp38
 70
     1
102
RTVSPropertyOp39
 70
     1
102
RTVSPropertyOp40
 70
     1
102
RTVSPropertyOp41
 70
     1
102
RTVSPropertyOp42
 70
     1
102
RTVSPropertyOp43
 70
     1
102
RTVSPropertyOp44
 70
     1
102
RTVSPropertyOp45
 70
     1
102
RTVSPropertyOp46
 70
     1
102
RTVSPropertyOp47
 70
     1
102
RTVSPropertyOp48
 70
     1
102
RTVSPropertyOp49
 70
     1
102
RTVSPropertyOp50
 70
     1
102
RTVSPropertyOp51
 70
     0
102
RTVSPropertyOp52
 70
     0
102
RTVSPropertyOp53
 70
     1
102
RTVSPropertyOp54
 70
     1
102
RTVSPropertyOp55
 70
     1
102
RTVSPropertyOp56
 70
     1
102
RTVSPropertyOp57
 70
     1
102
RTVSPost2010Prop28
280
     0
102
RTVSPost2010PropOp28
 70
     1
102
RTVSPost2010Prop29
280
     1
102
RTVSPost2010PropOp29
 70
     1
102
RTVSPost2010Prop30
280
     1
102
RTVSPost2010PropOp30
 70
     1
102
RTVSPost2010Prop31
280
     0
102
RTVSPost2010PropOp31
 70
     1
102
RTVSPost2010Prop32
280
     0
102
RTVSPost2010PropOp32
 70
     1
102
RTVSPost2010Prop33
280
     0
102
RTVSPost2010PropOp33
 70
     1
102
RTVSPost2010Prop34
280
     0
102
RTVSPost2010PropOp34
 70
     1
102
RTVSPost2010Prop35
280
     0
102
RTVSPost2010PropOp35
 70
     1
102
RTVSPost2010Prop36
280
     0
102
RTVSPost2010PropOp36
 70
     1
102
RTVSPost2010Prop37
 90
       50
102
RTVSPost2010PropOp37
 70
     1
102
RTVSPost2010Prop38
140
0.0
102
RTVSPost2010PropOp38
 70
     1
102
RTVSPost2010Prop39
140
1.0
102
RTVSPost2010PropOp39
 70
     1
102
RTVSPost2010Prop40
 90
        0
102
RTVSPost2010PropOp40
 70
     1
102
RTVSPost2010Prop41ColorIndex
 90
       18
102
RTVSPost2010Prop41ColorRGB
 90
        0
102
RTVSPost2010PropOp41
 70
     1
102
RTVSPost2010Prop42
 90
       50
102
RTVSPost2010PropOp42
 70
     1
102
RTVSPost2010Prop43
 90
        3
102
RTVSPost2010PropOp43
 70
     1
102
RTVSPost2010Prop44ColorIndex
 90
        5
102
RTVSPost2010Prop44ColorRGB
 90
      255
102
RTVSPost2010PropOp44
 70
     1
102
RTVSPost2010Prop45
280
     0
102
RTVSPost2010PropOp45
 70
     1
102
RTVSPost2010Prop46
 90
       50
102
RTVSPost2010PropOp46
 70
     1
102
RTVSPost2010Prop47
 90
       50
102
RTVSPost2010PropOp47
 70
     1
102
RTVSPost2010Prop48
 90
       50
102
RTVSPost2010PropOp48
 70
     1
102
RTVSPost2010Prop49
280
     0
102
RTVSPost2010PropOp49
 70
     1
102
RTVSPost2010Prop50
 90
       50
102
RTVSPost2010PropOp50
 70
     1
102
RTVSPost2010Prop51ColorIndex
 90
      256
102
RTVSPost2010Prop51ColorRGB
 90
-16777216
102
RTVSPost2010PropOp51
 70
     0
102
RTVSPost2010Prop52
140
1.0
102
RTVSPost2010PropOp52
 70
     0
102
RTVSPost2010Prop53
 90
        2
102
RTVSPost2010PropOp53
 70
     1
102
RTVSPost2010Prop54
  1
strokes_ogs.tif
102
RTVSPost2010PropOp54
 70
     1
102
RTVSPost2010Prop55
280
     0
102
RTVSPost2010PropOp55
 70
     1
102
RTVSPost2010Prop56
140
1.0
102
RTVSPost2010PropOp56
 70
     1
102
RTVSPost2010Prop57
140
1.0
102
RTVSPost2010PropOp57
 70
     1
  0
XRECORD
  5
586
102
{ACAD_REACTORS
330
585
102
}
330
585
100
AcDbXrecord
280
     1
102
RTVSPropertyOp0
 70
     1
102
RTVSPropertyOp1
 70
     1
102
RTVSPropertyOp2
 70
     1
102
RTVSPropertyOp3
 70
     1
102
RTVSPropertyOp4
 70
     1
102
RTVSPropertyOp5
 70
     1
102
RTVSPropertyOp6
 70
     1
102
RTVSPropertyOp7
 70
     1
102
RTVSPropertyOp8
 70
     1
102
RTVSPropertyOp9
 70
     1
102
RTVSPropertyOp10
 70
     1
102
RTVSPropertyOp11
 70
     1
102
RTVSPropertyOp12
 70
     1
102
RTVSPropertyOp13
 70
     1
102
RTVSPropertyOp14
 70
     1
102
RTVSPropertyOp15
 70
     1
102
RTVSPropertyOp16
 70
     1
102
RTVSPropertyOp17
 70
     1
102
RTVSPropertyOp18
 70
     1
102
RTVSPropertyOp19
 70
     1
102
RTVSPropertyOp20
 70
     1
102
RTVSPropertyOp21
 70
     1
102
RTVSPropertyOp22
 70
     1
102
RTVSPropertyOp23
 70
     1
102
RTVSPropertyOp24
 70
     1
102
RTVSPropertyOp25
 70
     1
102
RTVSPropertyOp26
 70
     1
102
RTVSPropertyOp27
 70
     1
102
RTVSPropertyOp28
 70
     1
102
RTVSPropertyOp29
 70
     1
102
RTVSPropertyOp30
 70
     1
102
RTVSPropertyOp31
 70
     1
102
RTVSPropertyOp32
 70
     1
102
RTVSPropertyOp33
 70
     1
102
RTVSPropertyOp34
 70
     1
102
RTVSPropertyOp35
 70
     1
102
RTVSPropertyOp36
 70
     1
102
RTVSPropertyOp37
 70
     1
102
RTVSPropertyOp38
 70
     1
102
RTVSPropertyOp39
 70
     1
102
RTVSPropertyOp40
 70
     1
102
RTVSPropertyOp41
 70
     1
102
RTVSPropertyOp42
 70
     1
102
RTVSPropertyOp43
 70
     1
102
RTVSPropertyOp44
 70
     1
102
RTVSPropertyOp45
 70
     1
102
RTVSPropertyOp46
 70
     1
102
RTVSPropertyOp47
 70
     1
102
RTVSPropertyOp48
 70
     1
102
RTVSPropertyOp49
 70
     1
102
RTVSPropertyOp50
 70
     1
102
RTVSPropertyOp51
 70
     0
102
RTVSPropertyOp52
 70
     0
102
RTVSPropertyOp53
 70
     1
102
RTVSPropertyOp54
 70
     1
102
RTVSPropertyOp55
 70
     1
102
RTVSPropertyOp56
 70
     1
102
RTVSPropertyOp57
 70
     1
102
RTVSPost2010Prop28
280
     0
102
RTVSPost2010PropOp28
 70
     1
102
RTVSPost2010Prop29
280
     1
102
RTVSPost2010PropOp29
 70
     1
102
RTVSPost2010Prop30
280
     1
102
RTVSPost2010PropOp30
 70
     1
102
RTVSPost2010Prop31
280
     0
102
RTVSPost2010PropOp31
 70
     1
102
RTVSPost2010Prop32
280
     0
102
RTVSPost2010PropOp32
 70
     1
102
RTVSPost2010Prop33
280
     0
102
RTVSPost2010PropOp33
 70
     1
102
RTVSPost2010Prop34
280
     0
102
RTVSPost2010PropOp34
 70
     1
102
RTVSPost2010Prop35
280
     0
102
RTVSPost2010PropOp35
 70
     1
102
RTVSPost2010Prop36
280
     0
102
RTVSPost2010PropOp36
 70
     1
102
RTVSPost2010Prop37
 90
       50
102
RTVSPost2010PropOp37
 70
     1
102
RTVSPost2010Prop38
140
0.0
102
RTVSPost2010PropOp38
 70
     1
102
RTVSPost2010Prop39
140
1.0
102
RTVSPost2010PropOp39
 70
     1
102
RTVSPost2010Prop40
 90
        0
102
RTVSPost2010PropOp40
 70
     1
102
RTVSPost2010Prop41ColorIndex
 90
       18
102
RTVSPost2010Prop41ColorRGB
 90
        0
102
RTVSPost2010PropOp41
 70
     1
102
RTVSPost2010Prop42
 90
       50
102
RTVSPost2010PropOp42
 70
     1
102
RTVSPost2010Prop43
 90
        3
102
RTVSPost2010PropOp43
 70
     1
102
RTVSPost2010Prop44ColorIndex
 90
        5
102
RTVSPost2010Prop44ColorRGB
 90
      255
102
RTVSPost2010PropOp44
 70
     1
102
RTVSPost2010Prop45
280
     0
102
RTVSPost2010PropOp45
 70
     1
102
RTVSPost2010Prop46
 90
       50
102
RTVSPost2010PropOp46
 70
     1
102
RTVSPost2010Prop47
 90
       50
102
RTVSPost2010PropOp47
 70
     1
102
RTVSPost2010Prop48
 90
       50
102
RTVSPost2010PropOp48
 70
     1
102
RTVSPost2010Prop49
280
     0
102
RTVSPost2010PropOp49
 70
     1
102
RTVSPost2010Prop50
 90
       50
102
RTVSPost2010PropOp50
 70
     1
102
RTVSPost2010Prop51ColorIndex
 90
      256
102
RTVSPost2010Prop51ColorRGB
 90
-16777216
102
RTVSPost2010PropOp51
 70
     0
102
RTVSPost2010Prop52
140
1.0
102
RTVSPost2010PropOp52
 70
     0
102
RTVSPost2010Prop53
 90
        2
102
RTVSPost2010PropOp53
 70
     1
102
RTVSPost2010Prop54
  1
strokes_ogs.tif
102
RTVSPost2010PropOp54
 70
     1
102
RTVSPost2010Prop55
280
     0
102
RTVSPost2010PropOp55
 70
     1
102
RTVSPost2010Prop56
140
1.0
102
RTVSPost2010PropOp56
 70
     1
102
RTVSPost2010Prop57
140
1.0
102
RTVSPost2010PropOp57
 70
     1
  0
XRECORD
  5
58E
102
{ACAD_REACTORS
330
58D
102
}
330
58D
100
AcDbXrecord
280
     1
102
RTVSPropertyOp0
 70
     0
102
RTVSPropertyOp1
 70
     0
102
RTVSPropertyOp2
 70
     0
102
RTVSPropertyOp3
 70
     0
102
RTVSPropertyOp4
 70
     0
102
RTVSPropertyOp5
 70
     0
102
RTVSPropertyOp6
 70
     0
102
RTVSPropertyOp7
 70
     0
102
RTVSPropertyOp8
 70
     0
102
RTVSPropertyOp9
 70
     0
102
RTVSPropertyOp10
 70
     0
102
RTVSPropertyOp11
 70
     0
102
RTVSPropertyOp12
 70
     0
102
RTVSPropertyOp13
 70
     0
102
RTVSPropertyOp14
 70
     0
102
RTVSPropertyOp15
 70
     0
102
RTVSPropertyOp16
 70
     0
102
RTVSPropertyOp17
 70
     0
102
RTVSPropertyOp18
 70
     0
102
RTVSPropertyOp19
 70
     0
102
RTVSPropertyOp20
 70
     0
102
RTVSPropertyOp21
 70
     0
102
RTVSPropertyOp22
 70
     0
102
RTVSPropertyOp23
 70
     0
102
RTVSPropertyOp24
 70
     0
102
RTVSPropertyOp25
 70
     0
102
RTVSPropertyOp26
 70
     0
102
RTVSPropertyOp27
 70
     0
102
RTVSPropertyOp28
 70
     1
102
RTVSPropertyOp29
 70
     1
102
RTVSPropertyOp30
 70
     1
102
RTVSPropertyOp31
 70
     1
102
RTVSPropertyOp32
 70
     1
102
RTVSPropertyOp33
 70
     1
102
RTVSPropertyOp34
 70
     1
102
RTVSPropertyOp35
 70
     1
102
RTVSPropertyOp36
 70
     1
102
RTVSPropertyOp37
 70
     1
102
RTVSPropertyOp38
 70
     1
102
RTVSPropertyOp39
 70
     1
102
RTVSPropertyOp40
 70
     1
102
RTVSPropertyOp41
 70
     1
102
RTVSPropertyOp42
 70
     1
102
RTVSPropertyOp43
 70
     1
102
RTVSPropertyOp44
 70
     1
102
RTVSPropertyOp45
 70
     1
102
RTVSPropertyOp46
 70
     1
102
RTVSPropertyOp47
 70
     1
102
RTVSPropertyOp48
 70
     1
102
RTVSPropertyOp49
 70
     1
102
RTVSPropertyOp50
 70
     1
102
RTVSPropertyOp51
 70
     0
102
RTVSPropertyOp52
 70
     0
102
RTVSPropertyOp53
 70
     1
102
RTVSPropertyOp54
 70
     1
102
RTVSPropertyOp55
 70
     1
102
RTVSPropertyOp56
 70
     1
102
RTVSPropertyOp57
 70
     1
102
RTVSPost2010Prop28
280
     0
102
RTVSPost2010PropOp28
 70
     1
102
RTVSPost2010Prop29
280
     1
102
RTVSPost2010PropOp29
 70
     1
102
RTVSPost2010Prop30
280
     1
102
RTVSPost2010PropOp30
 70
     1
102
RTVSPost2010Prop31
280
     0
102
RTVSPost2010PropOp31
 70
     1
102
RTVSPost2010Prop32
280
     0
102
RTVSPost2010PropOp32
 70
     1
102
RTVSPost2010Prop33
280
     0
102
RTVSPost2010PropOp33
 70
     1
102
RTVSPost2010Prop34
280
     0
102
RTVSPost2010PropOp34
 70
     1
102
RTVSPost2010Prop35
280
     0
102
RTVSPost2010PropOp35
 70
     1
102
RTVSPost2010Prop36
280
     0
102
RTVSPost2010PropOp36
 70
     1
102
RTVSPost2010Prop37
 90
       50
102
RTVSPost2010PropOp37
 70
     1
102
RTVSPost2010Prop38
140
0.0
102
RTVSPost2010PropOp38
 70
     1
102
RTVSPost2010Prop39
140
1.0
102
RTVSPost2010PropOp39
 70
     1
102
RTVSPost2010Prop40
 90
        0
102
RTVSPost2010PropOp40
 70
     1
102
RTVSPost2010Prop41ColorIndex
 90
       18
102
RTVSPost2010Prop41ColorRGB
 90
        0
102
RTVSPost2010PropOp41
 70
     1
102
RTVSPost2010Prop42
 90
       50
102
RTVSPost2010PropOp42
 70
     1
102
RTVSPost2010Prop43
 90
        3
102
RTVSPost2010PropOp43
 70
     1
102
RTVSPost2010Prop44ColorIndex
 90
        5
102
RTVSPost2010Prop44ColorRGB
 90
      255
102
RTVSPost2010PropOp44
 70
     1
102
RTVSPost2010Prop45
280
     0
102
RTVSPost2010PropOp45
 70
     1
102
RTVSPost2010Prop46
 90
       50
102
RTVSPost2010PropOp46
 70
     1
102
RTVSPost2010Prop47
 90
       50
102
RTVSPost2010PropOp47
 70
     1
102
RTVSPost2010Prop48
 90
       50
102
RTVSPost2010PropOp48
 70
     1
102
RTVSPost2010Prop49
280
     0
102
RTVSPost2010PropOp49
 70
     1
102
RTVSPost2010Prop50
 90
       50
102
RTVSPost2010PropOp50
 70
     1
102
RTVSPost2010Prop51ColorIndex
 90
      256
102
RTVSPost2010Prop51ColorRGB
 90
-16777216
102
RTVSPost2010PropOp51
 70
     0
102
RTVSPost2010Prop52
140
1.0
102
RTVSPost2010PropOp52
 70
     0
102
RTVSPost2010Prop53
 90
        2
102
RTVSPost2010PropOp53
 70
     1
102
RTVSPost2010Prop54
  1
strokes_ogs.tif
102
RTVSPost2010PropOp54
 70
     1
102
RTVSPost2010Prop55
280
     0
102
RTVSPost2010PropOp55
 70
     1
102
RTVSPost2010Prop56
140
1.0
102
RTVSPost2010PropOp56
 70
     1
102
RTVSPost2010Prop57
140
1.0
102
RTVSPost2010PropOp57
 70
     1
  0
XRECORD
  5
57C
102
{ACAD_REACTORS
330
57B
102
}
330
57B
100
AcDbXrecord
280
     1
102
RTVSPropertyOp0
 70
     1
102
RTVSPropertyOp1
 70
     1
102
RTVSPropertyOp2
 70
     1
102
RTVSPropertyOp3
 70
     1
102
RTVSPropertyOp4
 70
     1
102
RTVSPropertyOp5
 70
     1
102
RTVSPropertyOp6
 70
     1
102
RTVSPropertyOp7
 70
     1
102
RTVSPropertyOp8
 70
     1
102
RTVSPropertyOp9
 70
     1
102
RTVSPropertyOp10
 70
     1
102
RTVSPropertyOp11
 70
     1
102
RTVSPropertyOp12
 70
     1
102
RTVSPropertyOp13
 70
     1
102
RTVSPropertyOp14
 70
     1
102
RTVSPropertyOp15
 70
     1
102
RTVSPropertyOp16
 70
     1
102
RTVSPropertyOp17
 70
     1
102
RTVSPropertyOp18
 70
     1
102
RTVSPropertyOp19
 70
     1
102
RTVSPropertyOp20
 70
     1
102
RTVSPropertyOp21
 70
     1
102
RTVSPropertyOp22
 70
     1
102
RTVSPropertyOp23
 70
     1
102
RTVSPropertyOp24
 70
     1
102
RTVSPropertyOp25
 70
     1
102
RTVSPropertyOp26
 70
     1
102
RTVSPropertyOp27
 70
     1
102
RTVSPropertyOp28
 70
     1
102
RTVSPropertyOp29
 70
     1
102
RTVSPropertyOp30
 70
     1
102
RTVSPropertyOp31
 70
     1
102
RTVSPropertyOp32
 70
     1
102
RTVSPropertyOp33
 70
     1
102
RTVSPropertyOp34
 70
     1
102
RTVSPropertyOp35
 70
     1
102
RTVSPropertyOp36
 70
     1
102
RTVSPropertyOp37
 70
     1
102
RTVSPropertyOp38
 70
     1
102
RTVSPropertyOp39
 70
     1
102
RTVSPropertyOp40
 70
     1
102
RTVSPropertyOp41
 70
     1
102
RTVSPropertyOp42
 70
     1
102
RTVSPropertyOp43
 70
     1
102
RTVSPropertyOp44
 70
     1
102
RTVSPropertyOp45
 70
     1
102
RTVSPropertyOp46
 70
     1
102
RTVSPropertyOp47
 70
     1
102
RTVSPropertyOp48
 70
     1
102
RTVSPropertyOp49
 70
     1
102
RTVSPropertyOp50
 70
     1
102
RTVSPropertyOp51
 70
     0
102
RTVSPropertyOp52
 70
     0
102
RTVSPropertyOp53
 70
     1
102
RTVSPropertyOp54
 70
     1
102
RTVSPropertyOp55
 70
     1
102
RTVSPropertyOp56
 70
     1
102
RTVSPropertyOp57
 70
     1
102
RTVSPost2010Prop28
280
     0
102
RTVSPost2010PropOp28
 70
     1
102
RTVSPost2010Prop29
280
     1
102
RTVSPost2010PropOp29
 70
     1
102
RTVSPost2010Prop30
280
     1
102
RTVSPost2010PropOp30
 70
     1
102
RTVSPost2010Prop31
280
     0
102
RTVSPost2010PropOp31
 70
     1
102
RTVSPost2010Prop32
280
     0
102
RTVSPost2010PropOp32
 70
     1
102
RTVSPost2010Prop33
280
     0
102
RTVSPost2010PropOp33
 70
     1
102
RTVSPost2010Prop34
280
     0
102
RTVSPost2010PropOp34
 70
     1
102
RTVSPost2010Prop35
280
     0
102
RTVSPost2010PropOp35
 70
     1
102
RTVSPost2010Prop36
280
     0
102
RTVSPost2010PropOp36
 70
     1
102
RTVSPost2010Prop37
 90
       50
102
RTVSPost2010PropOp37
 70
     1
102
RTVSPost2010Prop38
140
0.0
102
RTVSPost2010PropOp38
 70
     1
102
RTVSPost2010Prop39
140
1.0
102
RTVSPost2010PropOp39
 70
     1
102
RTVSPost2010Prop40
 90
        0
102
RTVSPost2010PropOp40
 70
     1
102
RTVSPost2010Prop41ColorIndex
 90
       18
102
RTVSPost2010Prop41ColorRGB
 90
        0
102
RTVSPost2010PropOp41
 70
     1
102
RTVSPost2010Prop42
 90
       50
102
RTVSPost2010PropOp42
 70
     1
102
RTVSPost2010Prop43
 90
        3
102
RTVSPost2010PropOp43
 70
     1
102
RTVSPost2010Prop44ColorIndex
 90
        5
102
RTVSPost2010Prop44ColorRGB
 90
      255
102
RTVSPost2010PropOp44
 70
     1
102
RTVSPost2010Prop45
280
     0
102
RTVSPost2010PropOp45
 70
     1
102
RTVSPost2010Prop46
 90
       50
102
RTVSPost2010PropOp46
 70
     1
102
RTVSPost2010Prop47
 90
       50
102
RTVSPost2010PropOp47
 70
     1
102
RTVSPost2010Prop48
 90
       50
102
RTVSPost2010PropOp48
 70
     1
102
RTVSPost2010Prop49
280
     0
102
RTVSPost2010PropOp49
 70
     1
102
RTVSPost2010Prop50
 90
       50
102
RTVSPost2010PropOp50
 70
     1
102
RTVSPost2010Prop51ColorIndex
 90
      256
102
RTVSPost2010Prop51ColorRGB
 90
-16777216
102
RTVSPost2010PropOp51
 70
     0
102
RTVSPost2010Prop52
140
1.0
102
RTVSPost2010PropOp52
 70
     0
102
RTVSPost2010Prop53
 90
        2
102
RTVSPost2010PropOp53
 70
     1
102
RTVSPost2010Prop54
  1
strokes_ogs.tif
102
RTVSPost2010PropOp54
 70
     1
102
RTVSPost2010Prop55
280
     0
102
RTVSPost2010PropOp55
 70
     1
102
RTVSPost2010Prop56
140
1.0
102
RTVSPost2010PropOp56
 70
     1
102
RTVSPost2010Prop57
140
1.0
102
RTVSPost2010PropOp57
 70
     1
  0
XRECORD
  5
59A
102
{ACAD_REACTORS
330
599
102
}
330
599
100
AcDbXrecord
280
     1
102
RTVSPropertyOp0
 70
     1
102
RTVSPropertyOp1
 70
     1
102
RTVSPropertyOp2
 70
     1
102
RTVSPropertyOp3
 70
     1
102
RTVSPropertyOp4
 70
     1
102
RTVSPropertyOp5
 70
     1
102
RTVSPropertyOp6
 70
     1
102
RTVSPropertyOp7
 70
     1
102
RTVSPropertyOp8
 70
     1
102
RTVSPropertyOp9
 70
     1
102
RTVSPropertyOp10
 70
     1
102
RTVSPropertyOp11
 70
     1
102
RTVSPropertyOp12
 70
     1
102
RTVSPropertyOp13
 70
     1
102
RTVSPropertyOp14
 70
     1
102
RTVSPropertyOp15
 70
     1
102
RTVSPropertyOp16
 70
     1
102
RTVSPropertyOp17
 70
     1
102
RTVSPropertyOp18
 70
     1
102
RTVSPropertyOp19
 70
     1
102
RTVSPropertyOp20
 70
     1
102
RTVSPropertyOp21
 70
     1
102
RTVSPropertyOp22
 70
     1
102
RTVSPropertyOp23
 70
     1
102
RTVSPropertyOp24
 70
     1
102
RTVSPropertyOp25
 70
     1
102
RTVSPropertyOp26
 70
     1
102
RTVSPropertyOp27
 70
     1
102
RTVSPropertyOp28
 70
     1
102
RTVSPropertyOp29
 70
     1
102
RTVSPropertyOp30
 70
     1
102
RTVSPropertyOp31
 70
     1
102
RTVSPropertyOp32
 70
     1
102
RTVSPropertyOp33
 70
     1
102
RTVSPropertyOp34
 70
     1
102
RTVSPropertyOp35
 70
     1
102
RTVSPropertyOp36
 70
     1
102
RTVSPropertyOp37
 70
     1
102
RTVSPropertyOp38
 70
     1
102
RTVSPropertyOp39
 70
     1
102
RTVSPropertyOp40
 70
     1
102
RTVSPropertyOp41
 70
     1
102
RTVSPropertyOp42
 70
     1
102
RTVSPropertyOp43
 70
     1
102
RTVSPropertyOp44
 70
     1
102
RTVSPropertyOp45
 70
     1
102
RTVSPropertyOp46
 70
     1
102
RTVSPropertyOp47
 70
     1
102
RTVSPropertyOp48
 70
     1
102
RTVSPropertyOp49
 70
     1
102
RTVSPropertyOp50
 70
     1
102
RTVSPropertyOp51
 70
     0
102
RTVSPropertyOp52
 70
     0
102
RTVSPropertyOp53
 70
     1
102
RTVSPropertyOp54
 70
     1
102
RTVSPropertyOp55
 70
     1
102
RTVSPropertyOp56
 70
     1
102
RTVSPropertyOp57
 70
     1
102
RTVSPost2010Prop28
280
     0
102
RTVSPost2010PropOp28
 70
     1
102
RTVSPost2010Prop29
280
     1
102
RTVSPost2010PropOp29
 70
     1
102
RTVSPost2010Prop30
280
     1
102
RTVSPost2010PropOp30
 70
     1
102
RTVSPost2010Prop31
280
     0
102
RTVSPost2010PropOp31
 70
     1
102
RTVSPost2010Prop32
280
     0
102
RTVSPost2010PropOp32
 70
     1
102
RTVSPost2010Prop33
280
     0
102
RTVSPost2010PropOp33
 70
     1
102
RTVSPost2010Prop34
280
     0
102
RTVSPost2010PropOp34
 70
     1
102
RTVSPost2010Prop35
280
     0
102
RTVSPost2010PropOp35
 70
     1
102
RTVSPost2010Prop36
280
     0
102
RTVSPost2010PropOp36
 70
     1
102
RTVSPost2010Prop37
 90
       50
102
RTVSPost2010PropOp37
 70
     1
102
RTVSPost2010Prop38
140
0.0
102
RTVSPost2010PropOp38
 70
     1
102
RTVSPost2010Prop39
140
1.0
102
RTVSPost2010PropOp39
 70
     1
102
RTVSPost2010Prop40
 90
        0
102
RTVSPost2010PropOp40
 70
     1
102
RTVSPost2010Prop41ColorIndex
 90
       18
102
RTVSPost2010Prop41ColorRGB
 90
        0
102
RTVSPost2010PropOp41
 70
     1
102
RTVSPost2010Prop42
 90
       50
102
RTVSPost2010PropOp42
 70
     1
102
RTVSPost2010Prop43
 90
        3
102
RTVSPost2010PropOp43
 70
     1
102
RTVSPost2010Prop44ColorIndex
 90
        5
102
RTVSPost2010Prop44ColorRGB
 90
      255
102
RTVSPost2010PropOp44
 70
     1
102
RTVSPost2010Prop45
280
     0
102
RTVSPost2010PropOp45
 70
     1
102
RTVSPost2010Prop46
 90
       50
102
RTVSPost2010PropOp46
 70
     1
102
RTVSPost2010Prop47
 90
       50
102
RTVSPost2010PropOp47
 70
     1
102
RTVSPost2010Prop48
 90
       50
102
RTVSPost2010PropOp48
 70
     1
102
RTVSPost2010Prop49
280
     0
102
RTVSPost2010PropOp49
 70
     1
102
RTVSPost2010Prop50
 90
       50
102
RTVSPost2010PropOp50
 70
     1
102
RTVSPost2010Prop51ColorIndex
 90
      256
102
RTVSPost2010Prop51ColorRGB
 90
-16777216
102
RTVSPost2010PropOp51
 70
     0
102
RTVSPost2010Prop52
140
1.0
102
RTVSPost2010PropOp52
 70
     0
102
RTVSPost2010Prop53
 90
        2
102
RTVSPost2010PropOp53
 70
     1
102
RTVSPost2010Prop54
  1
strokes_ogs.tif
102
RTVSPost2010PropOp54
 70
     1
102
RTVSPost2010Prop55
280
     0
102
RTVSPost2010PropOp55
 70
     1
102
RTVSPost2010Prop56
140
1.0
102
RTVSPost2010PropOp56
 70
     1
102
RTVSPost2010Prop57
140
1.0
102
RTVSPost2010PropOp57
 70
     1
  0
XRECORD
  5
598
102
{ACAD_REACTORS
330
597
102
}
330
597
100
AcDbXrecord
280
     1
102
RTVSPropertyOp0
 70
     1
102
RTVSPropertyOp1
 70
     1
102
RTVSPropertyOp2
 70
     1
102
RTVSPropertyOp3
 70
     1
102
RTVSPropertyOp4
 70
     1
102
RTVSPropertyOp5
 70
     1
102
RTVSPropertyOp6
 70
     1
102
RTVSPropertyOp7
 70
     1
102
RTVSPropertyOp8
 70
     1
102
RTVSPropertyOp9
 70
     1
102
RTVSPropertyOp10
 70
     1
102
RTVSPropertyOp11
 70
     1
102
RTVSPropertyOp12
 70
     1
102
RTVSPropertyOp13
 70
     1
102
RTVSPropertyOp14
 70
     1
102
RTVSPropertyOp15
 70
     1
102
RTVSPropertyOp16
 70
     1
102
RTVSPropertyOp17
 70
     1
102
RTVSPropertyOp18
 70
     1
102
RTVSPropertyOp19
 70
     1
102
RTVSPropertyOp20
 70
     1
102
RTVSPropertyOp21
 70
     1
102
RTVSPropertyOp22
 70
     1
102
RTVSPropertyOp23
 70
     1
102
RTVSPropertyOp24
 70
     1
102
RTVSPropertyOp25
 70
     1
102
RTVSPropertyOp26
 70
     1
102
RTVSPropertyOp27
 70
     1
102
RTVSPropertyOp28
 70
     1
102
RTVSPropertyOp29
 70
     1
102
RTVSPropertyOp30
 70
     1
102
RTVSPropertyOp31
 70
     1
102
RTVSPropertyOp32
 70
     1
102
RTVSPropertyOp33
 70
     1
102
RTVSPropertyOp34
 70
     1
102
RTVSPropertyOp35
 70
     1
102
RTVSPropertyOp36
 70
     1
102
RTVSPropertyOp37
 70
     1
102
RTVSPropertyOp38
 70
     1
102
RTVSPropertyOp39
 70
     1
102
RTVSPropertyOp40
 70
     1
102
RTVSPropertyOp41
 70
     1
102
RTVSPropertyOp42
 70
     1
102
RTVSPropertyOp43
 70
     1
102
RTVSPropertyOp44
 70
     1
102
RTVSPropertyOp45
 70
     1
102
RTVSPropertyOp46
 70
     1
102
RTVSPropertyOp47
 70
     1
102
RTVSPropertyOp48
 70
     1
102
RTVSPropertyOp49
 70
     1
102
RTVSPropertyOp50
 70
     1
102
RTVSPropertyOp51
 70
     0
102
RTVSPropertyOp52
 70
     0
102
RTVSPropertyOp53
 70
     1
102
RTVSPropertyOp54
 70
     1
102
RTVSPropertyOp55
 70
     1
102
RTVSPropertyOp56
 70
     1
102
RTVSPropertyOp57
 70
     1
102
RTVSPost2010Prop28
280
     0
102
RTVSPost2010PropOp28
 70
     1
102
RTVSPost2010Prop29
280
     1
102
RTVSPost2010PropOp29
 70
     1
102
RTVSPost2010Prop30
280
     1
102
RTVSPost2010PropOp30
 70
     1
102
RTVSPost2010Prop31
280
     0
102
RTVSPost2010PropOp31
 70
     1
102
RTVSPost2010Prop32
280
     0
102
RTVSPost2010PropOp32
 70
     1
102
RTVSPost2010Prop33
280
     0
102
RTVSPost2010PropOp33
 70
     1
102
RTVSPost2010Prop34
280
     0
102
RTVSPost2010PropOp34
 70
     1
102
RTVSPost2010Prop35
280
     0
102
RTVSPost2010PropOp35
 70
     1
102
RTVSPost2010Prop36
280
     0
102
RTVSPost2010PropOp36
 70
     1
102
RTVSPost2010Prop37
 90
       50
102
RTVSPost2010PropOp37
 70
     1
102
RTVSPost2010Prop38
140
0.0
102
RTVSPost2010PropOp38
 70
     1
102
RTVSPost2010Prop39
140
1.0
102
RTVSPost2010PropOp39
 70
     1
102
RTVSPost2010Prop40
 90
        0
102
RTVSPost2010PropOp40
 70
     1
102
RTVSPost2010Prop41ColorIndex
 90
       18
102
RTVSPost2010Prop41ColorRGB
 90
        0
102
RTVSPost2010PropOp41
 70
     1
102
RTVSPost2010Prop42
 90
       50
102
RTVSPost2010PropOp42
 70
     1
102
RTVSPost2010Prop43
 90
        3
102
RTVSPost2010PropOp43
 70
     1
102
RTVSPost2010Prop44ColorIndex
 90
        5
102
RTVSPost2010Prop44ColorRGB
 90
      255
102
RTVSPost2010PropOp44
 70
     1
102
RTVSPost2010Prop45
280
     0
102
RTVSPost2010PropOp45
 70
     1
102
RTVSPost2010Prop46
 90
       50
102
RTVSPost2010PropOp46
 70
     1
102
RTVSPost2010Prop47
 90
       50
102
RTVSPost2010PropOp47
 70
     1
102
RTVSPost2010Prop48
 90
       50
102
RTVSPost2010PropOp48
 70
     1
102
RTVSPost2010Prop49
280
     0
102
RTVSPost2010PropOp49
 70
     1
102
RTVSPost2010Prop50
 90
       50
102
RTVSPost2010PropOp50
 70
     1
102
RTVSPost2010Prop51ColorIndex
 90
      256
102
RTVSPost2010Prop51ColorRGB
 90
-16777216
102
RTVSPost2010PropOp51
 70
     0
102
RTVSPost2010Prop52
140
1.0
102
RTVSPost2010PropOp52
 70
     0
102
RTVSPost2010Prop53
 90
        2
102
RTVSPost2010PropOp53
 70
     1
102
RTVSPost2010Prop54
  1
strokes_ogs.tif
102
RTVSPost2010PropOp54
 70
     1
102
RTVSPost2010Prop55
280
     0
102
RTVSPost2010PropOp55
 70
     1
102
RTVSPost2010Prop56
140
1.0
102
RTVSPost2010PropOp56
 70
     1
102
RTVSPost2010Prop57
140
1.0
102
RTVSPost2010PropOp57
 70
     1
  0
XRECORD
  5
592
102
{ACAD_REACTORS
330
591
102
}
330
591
100
AcDbXrecord
280
     1
102
RTVSPropertyOp0
 70
     1
102
RTVSPropertyOp1
 70
     1
102
RTVSPropertyOp2
 70
     1
102
RTVSPropertyOp3
 70
     1
102
RTVSPropertyOp4
 70
     1
102
RTVSPropertyOp5
 70
     1
102
RTVSPropertyOp6
 70
     1
102
RTVSPropertyOp7
 70
     1
102
RTVSPropertyOp8
 70
     1
102
RTVSPropertyOp9
 70
     1
102
RTVSPropertyOp10
 70
     1
102
RTVSPropertyOp11
 70
     1
102
RTVSPropertyOp12
 70
     1
102
RTVSPropertyOp13
 70
     1
102
RTVSPropertyOp14
 70
     1
102
RTVSPropertyOp15
 70
     1
102
RTVSPropertyOp16
 70
     1
102
RTVSPropertyOp17
 70
     1
102
RTVSPropertyOp18
 70
     1
102
RTVSPropertyOp19
 70
     1
102
RTVSPropertyOp20
 70
     1
102
RTVSPropertyOp21
 70
     1
102
RTVSPropertyOp22
 70
     1
102
RTVSPropertyOp23
 70
     1
102
RTVSPropertyOp24
 70
     1
102
RTVSPropertyOp25
 70
     1
102
RTVSPropertyOp26
 70
     1
102
RTVSPropertyOp27
 70
     1
102
RTVSPropertyOp28
 70
     1
102
RTVSPropertyOp29
 70
     1
102
RTVSPropertyOp30
 70
     1
102
RTVSPropertyOp31
 70
     1
102
RTVSPropertyOp32
 70
     1
102
RTVSPropertyOp33
 70
     1
102
RTVSPropertyOp34
 70
     1
102
RTVSPropertyOp35
 70
     1
102
RTVSPropertyOp36
 70
     1
102
RTVSPropertyOp37
 70
     1
102
RTVSPropertyOp38
 70
     1
102
RTVSPropertyOp39
 70
     1
102
RTVSPropertyOp40
 70
     1
102
RTVSPropertyOp41
 70
     1
102
RTVSPropertyOp42
 70
     1
102
RTVSPropertyOp43
 70
     1
102
RTVSPropertyOp44
 70
     1
102
RTVSPropertyOp45
 70
     1
102
RTVSPropertyOp46
 70
     1
102
RTVSPropertyOp47
 70
     1
102
RTVSPropertyOp48
 70
     1
102
RTVSPropertyOp49
 70
     1
102
RTVSPropertyOp50
 70
     1
102
RTVSPropertyOp51
 70
     0
102
RTVSPropertyOp52
 70
     0
102
RTVSPropertyOp53
 70
     1
102
RTVSPropertyOp54
 70
     1
102
RTVSPropertyOp55
 70
     1
102
RTVSPropertyOp56
 70
     1
102
RTVSPropertyOp57
 70
     1
102
RTVSPost2010Prop28
280
     0
102
RTVSPost2010PropOp28
 70
     1
102
RTVSPost2010Prop29
280
     1
102
RTVSPost2010PropOp29
 70
     1
102
RTVSPost2010Prop30
280
     1
102
RTVSPost2010PropOp30
 70
     1
102
RTVSPost2010Prop31
280
     0
102
RTVSPost2010PropOp31
 70
     1
102
RTVSPost2010Prop32
280
     0
102
RTVSPost2010PropOp32
 70
     1
102
RTVSPost2010Prop33
280
     0
102
RTVSPost2010PropOp33
 70
     1
102
RTVSPost2010Prop34
280
     0
102
RTVSPost2010PropOp34
 70
     1
102
RTVSPost2010Prop35
280
     0
102
RTVSPost2010PropOp35
 70
     1
102
RTVSPost2010Prop36
280
     0
102
RTVSPost2010PropOp36
 70
     1
102
RTVSPost2010Prop37
 90
       50
102
RTVSPost2010PropOp37
 70
     1
102
RTVSPost2010Prop38
140
0.0
102
RTVSPost2010PropOp38
 70
     1
102
RTVSPost2010Prop39
140
1.0
102
RTVSPost2010PropOp39
 70
     1
102
RTVSPost2010Prop40
 90
        0
102
RTVSPost2010PropOp40
 70
     1
102
RTVSPost2010Prop41ColorIndex
 90
       18
102
RTVSPost2010Prop41ColorRGB
 90
        0
102
RTVSPost2010PropOp41
 70
     1
102
RTVSPost2010Prop42
 90
       50
102
RTVSPost2010PropOp42
 70
     1
102
RTVSPost2010Prop43
 90
        3
102
RTVSPost2010PropOp43
 70
     1
102
RTVSPost2010Prop44ColorIndex
 90
        5
102
RTVSPost2010Prop44ColorRGB
 90
      255
102
RTVSPost2010PropOp44
 70
     1
102
RTVSPost2010Prop45
280
     0
102
RTVSPost2010PropOp45
 70
     1
102
RTVSPost2010Prop46
 90
       50
102
RTVSPost2010PropOp46
 70
     1
102
RTVSPost2010Prop47
 90
       50
102
RTVSPost2010PropOp47
 70
     1
102
RTVSPost2010Prop48
 90
       50
102
RTVSPost2010PropOp48
 70
     1
102
RTVSPost2010Prop49
280
     0
102
RTVSPost2010PropOp49
 70
     1
102
RTVSPost2010Prop50
 90
       50
102
RTVSPost2010PropOp50
 70
     1
102
RTVSPost2010Prop51ColorIndex
 90
      256
102
RTVSPost2010Prop51ColorRGB
 90
-16777216
102
RTVSPost2010PropOp51
 70
     0
102
RTVSPost2010Prop52
140
1.0
102
RTVSPost2010PropOp52
 70
     0
102
RTVSPost2010Prop53
 90
        2
102
RTVSPost2010PropOp53
 70
     1
102
RTVSPost2010Prop54
  1
strokes_ogs.tif
102
RTVSPost2010PropOp54
 70
     1
102
RTVSPost2010Prop55
280
     0
102
RTVSPost2010PropOp55
 70
     1
102
RTVSPost2010Prop56
140
1.0
102
RTVSPost2010PropOp56
 70
     1
102
RTVSPost2010Prop57
140
1.0
102
RTVSPost2010PropOp57
 70
     1
  0
XRECORD
  5
594
102
{ACAD_REACTORS
330
593
102
}
330
593
100
AcDbXrecord
280
     1
102
RTVSPropertyOp0
 70
     1
102
RTVSPropertyOp1
 70
     1
102
RTVSPropertyOp2
 70
     1
102
RTVSPropertyOp3
 70
     1
102
RTVSPropertyOp4
 70
     1
102
RTVSPropertyOp5
 70
     1
102
RTVSPropertyOp6
 70
     1
102
RTVSPropertyOp7
 70
     1
102
RTVSPropertyOp8
 70
     1
102
RTVSPropertyOp9
 70
     1
102
RTVSPropertyOp10
 70
     1
102
RTVSPropertyOp11
 70
     1
102
RTVSPropertyOp12
 70
     1
102
RTVSPropertyOp13
 70
     1
102
RTVSPropertyOp14
 70
     1
102
RTVSPropertyOp15
 70
     1
102
RTVSPropertyOp16
 70
     1
102
RTVSPropertyOp17
 70
     1
102
RTVSPropertyOp18
 70
     1
102
RTVSPropertyOp19
 70
     1
102
RTVSPropertyOp20
 70
     1
102
RTVSPropertyOp21
 70
     1
102
RTVSPropertyOp22
 70
     1
102
RTVSPropertyOp23
 70
     1
102
RTVSPropertyOp24
 70
     1
102
RTVSPropertyOp25
 70
     1
102
RTVSPropertyOp26
 70
     1
102
RTVSPropertyOp27
 70
     1
102
RTVSPropertyOp28
 70
     1
102
RTVSPropertyOp29
 70
     1
102
RTVSPropertyOp30
 70
     1
102
RTVSPropertyOp31
 70
     1
102
RTVSPropertyOp32
 70
     1
102
RTVSPropertyOp33
 70
     1
102
RTVSPropertyOp34
 70
     1
102
RTVSPropertyOp35
 70
     1
102
RTVSPropertyOp36
 70
     1
102
RTVSPropertyOp37
 70
     1
102
RTVSPropertyOp38
 70
     1
102
RTVSPropertyOp39
 70
     1
102
RTVSPropertyOp40
 70
     1
102
RTVSPropertyOp41
 70
     1
102
RTVSPropertyOp42
 70
     1
102
RTVSPropertyOp43
 70
     1
102
RTVSPropertyOp44
 70
     1
102
RTVSPropertyOp45
 70
     1
102
RTVSPropertyOp46
 70
     1
102
RTVSPropertyOp47
 70
     1
102
RTVSPropertyOp48
 70
     1
102
RTVSPropertyOp49
 70
     1
102
RTVSPropertyOp50
 70
     1
102
RTVSPropertyOp51
 70
     0
102
RTVSPropertyOp52
 70
     0
102
RTVSPropertyOp53
 70
     1
102
RTVSPropertyOp54
 70
     1
102
RTVSPropertyOp55
 70
     1
102
RTVSPropertyOp56
 70
     1
102
RTVSPropertyOp57
 70
     1
102
RTVSPost2010Prop28
280
     0
102
RTVSPost2010PropOp28
 70
     1
102
RTVSPost2010Prop29
280
     1
102
RTVSPost2010PropOp29
 70
     1
102
RTVSPost2010Prop30
280
     1
102
RTVSPost2010PropOp30
 70
     1
102
RTVSPost2010Prop31
280
     0
102
RTVSPost2010PropOp31
 70
     1
102
RTVSPost2010Prop32
280
     0
102
RTVSPost2010PropOp32
 70
     1
102
RTVSPost2010Prop33
280
     0
102
RTVSPost2010PropOp33
 70
     1
102
RTVSPost2010Prop34
280
     0
102
RTVSPost2010PropOp34
 70
     1
102
RTVSPost2010Prop35
280
     0
102
RTVSPost2010PropOp35
 70
     1
102
RTVSPost2010Prop36
280
     0
102
RTVSPost2010PropOp36
 70
     1
102
RTVSPost2010Prop37
 90
       50
102
RTVSPost2010PropOp37
 70
     1
102
RTVSPost2010Prop38
140
0.0
102
RTVSPost2010PropOp38
 70
     1
102
RTVSPost2010Prop39
140
1.0
102
RTVSPost2010PropOp39
 70
     1
102
RTVSPost2010Prop40
 90
        0
102
RTVSPost2010PropOp40
 70
     1
102
RTVSPost2010Prop41ColorIndex
 90
       18
102
RTVSPost2010Prop41ColorRGB
 90
        0
102
RTVSPost2010PropOp41
 70
     1
102
RTVSPost2010Prop42
 90
       50
102
RTVSPost2010PropOp42
 70
     1
102
RTVSPost2010Prop43
 90
        3
102
RTVSPost2010PropOp43
 70
     1
102
RTVSPost2010Prop44ColorIndex
 90
        5
102
RTVSPost2010Prop44ColorRGB
 90
      255
102
RTVSPost2010PropOp44
 70
     1
102
RTVSPost2010Prop45
280
     0
102
RTVSPost2010PropOp45
 70
     1
102
RTVSPost2010Prop46
 90
       50
102
RTVSPost2010PropOp46
 70
     1
102
RTVSPost2010Prop47
 90
       50
102
RTVSPost2010PropOp47
 70
     1
102
RTVSPost2010Prop48
 90
       50
102
RTVSPost2010PropOp48
 70
     1
102
RTVSPost2010Prop49
280
     0
102
RTVSPost2010PropOp49
 70
     1
102
RTVSPost2010Prop50
 90
       50
102
RTVSPost2010PropOp50
 70
     1
102
RTVSPost2010Prop51ColorIndex
 90
      256
102
RTVSPost2010Prop51ColorRGB
 90
-16777216
102
RTVSPost2010PropOp51
 70
     0
102
RTVSPost2010Prop52
140
1.0
102
RTVSPost2010PropOp52
 70
     0
102
RTVSPost2010Prop53
 90
        2
102
RTVSPost2010PropOp53
 70
     1
102
RTVSPost2010Prop54
  1
strokes_ogs.tif
102
RTVSPost2010PropOp54
 70
     1
102
RTVSPost2010Prop55
280
     0
102
RTVSPost2010PropOp55
 70
     1
102
RTVSPost2010Prop56
140
1.0
102
RTVSPost2010PropOp56
 70
     1
102
RTVSPost2010Prop57
140
1.0
102
RTVSPost2010PropOp57
 70
     1
  0
XRECORD
  5
584
102
{ACAD_REACTORS
330
583
102
}
330
583
100
AcDbXrecord
280
     1
102
RTVSPropertyOp0
 70
     1
102
RTVSPropertyOp1
 70
     1
102
RTVSPropertyOp2
 70
     1
102
RTVSPropertyOp3
 70
     1
102
RTVSPropertyOp4
 70
     1
102
RTVSPropertyOp5
 70
     1
102
RTVSPropertyOp6
 70
     1
102
RTVSPropertyOp7
 70
     1
102
RTVSPropertyOp8
 70
     1
102
RTVSPropertyOp9
 70
     1
102
RTVSPropertyOp10
 70
     1
102
RTVSPropertyOp11
 70
     1
102
RTVSPropertyOp12
 70
     1
102
RTVSPropertyOp13
 70
     1
102
RTVSPropertyOp14
 70
     1
102
RTVSPropertyOp15
 70
     1
102
RTVSPropertyOp16
 70
     1
102
RTVSPropertyOp17
 70
     1
102
RTVSPropertyOp18
 70
     1
102
RTVSPropertyOp19
 70
     1
102
RTVSPropertyOp20
 70
     1
102
RTVSPropertyOp21
 70
     1
102
RTVSPropertyOp22
 70
     1
102
RTVSPropertyOp23
 70
     1
102
RTVSPropertyOp24
 70
     1
102
RTVSPropertyOp25
 70
     1
102
RTVSPropertyOp26
 70
     1
102
RTVSPropertyOp27
 70
     1
102
RTVSPropertyOp28
 70
     1
102
RTVSPropertyOp29
 70
     1
102
RTVSPropertyOp30
 70
     1
102
RTVSPropertyOp31
 70
     1
102
RTVSPropertyOp32
 70
     1
102
RTVSPropertyOp33
 70
     1
102
RTVSPropertyOp34
 70
     1
102
RTVSPropertyOp35
 70
     1
102
RTVSPropertyOp36
 70
     1
102
RTVSPropertyOp37
 70
     1
102
RTVSPropertyOp38
 70
     1
102
RTVSPropertyOp39
 70
     1
102
RTVSPropertyOp40
 70
     1
102
RTVSPropertyOp41
 70
     1
102
RTVSPropertyOp42
 70
     1
102
RTVSPropertyOp43
 70
     1
102
RTVSPropertyOp44
 70
     1
102
RTVSPropertyOp45
 70
     1
102
RTVSPropertyOp46
 70
     1
102
RTVSPropertyOp47
 70
     1
102
RTVSPropertyOp48
 70
     1
102
RTVSPropertyOp49
 70
     1
102
RTVSPropertyOp50
 70
     1
102
RTVSPropertyOp51
 70
     0
102
RTVSPropertyOp52
 70
     0
102
RTVSPropertyOp53
 70
     1
102
RTVSPropertyOp54
 70
     1
102
RTVSPropertyOp55
 70
     1
102
RTVSPropertyOp56
 70
     1
102
RTVSPropertyOp57
 70
     1
102
RTVSPost2010Prop28
280
     0
102
RTVSPost2010PropOp28
 70
     1
102
RTVSPost2010Prop29
280
     1
102
RTVSPost2010PropOp29
 70
     1
102
RTVSPost2010Prop30
280
     1
102
RTVSPost2010PropOp30
 70
     1
102
RTVSPost2010Prop31
280
     0
102
RTVSPost2010PropOp31
 70
     1
102
RTVSPost2010Prop32
280
     0
102
RTVSPost2010PropOp32
 70
     1
102
RTVSPost2010Prop33
280
     0
102
RTVSPost2010PropOp33
 70
     1
102
RTVSPost2010Prop34
280
     0
102
RTVSPost2010PropOp34
 70
     1
102
RTVSPost2010Prop35
280
     0
102
RTVSPost2010PropOp35
 70
     1
102
RTVSPost2010Prop36
280
     0
102
RTVSPost2010PropOp36
 70
     1
102
RTVSPost2010Prop37
 90
       50
102
RTVSPost2010PropOp37
 70
     1
102
RTVSPost2010Prop38
140
0.0
102
RTVSPost2010PropOp38
 70
     1
102
RTVSPost2010Prop39
140
1.0
102
RTVSPost2010PropOp39
 70
     1
102
RTVSPost2010Prop40
 90
        0
102
RTVSPost2010PropOp40
 70
     1
102
RTVSPost2010Prop41ColorIndex
 90
       18
102
RTVSPost2010Prop41ColorRGB
 90
        0
102
RTVSPost2010PropOp41
 70
     1
102
RTVSPost2010Prop42
 90
       50
102
RTVSPost2010PropOp42
 70
     1
102
RTVSPost2010Prop43
 90
        3
102
RTVSPost2010PropOp43
 70
     1
102
RTVSPost2010Prop44ColorIndex
 90
        5
102
RTVSPost2010Prop44ColorRGB
 90
      255
102
RTVSPost2010PropOp44
 70
     1
102
RTVSPost2010Prop45
280
     0
102
RTVSPost2010PropOp45
 70
     1
102
RTVSPost2010Prop46
 90
       50
102
RTVSPost2010PropOp46
 70
     1
102
RTVSPost2010Prop47
 90
       50
102
RTVSPost2010PropOp47
 70
     1
102
RTVSPost2010Prop48
 90
       50
102
RTVSPost2010PropOp48
 70
     1
102
RTVSPost2010Prop49
280
     0
102
RTVSPost2010PropOp49
 70
     1
102
RTVSPost2010Prop50
 90
       50
102
RTVSPost2010PropOp50
 70
     1
102
RTVSPost2010Prop51ColorIndex
 90
      256
102
RTVSPost2010Prop51ColorRGB
 90
-16777216
102
RTVSPost2010PropOp51
 70
     0
102
RTVSPost2010Prop52
140
1.0
102
RTVSPost2010PropOp52
 70
     0
102
RTVSPost2010Prop53
 90
        2
102
RTVSPost2010PropOp53
 70
     1
102
RTVSPost2010Prop54
  1
strokes_ogs.tif
102
RTVSPost2010PropOp54
 70
     1
102
RTVSPost2010Prop55
280
     0
102
RTVSPost2010PropOp55
 70
     1
102
RTVSPost2010Prop56
140
1.0
102
RTVSPost2010PropOp56
 70
     1
102
RTVSPost2010Prop57
140
1.0
102
RTVSPost2010PropOp57
 70
     1
  0
XRECORD
  5
576
102
{ACAD_REACTORS
330
575
102
}
330
575
100
AcDbXrecord
280
     1
102
RTVSPropertyOp0
 70
     1
102
RTVSPropertyOp1
 70
     1
102
RTVSPropertyOp2
 70
     1
102
RTVSPropertyOp3
 70
     1
102
RTVSPropertyOp4
 70
     1
102
RTVSPropertyOp5
 70
     1
102
RTVSPropertyOp6
 70
     1
102
RTVSPropertyOp7
 70
     1
102
RTVSPropertyOp8
 70
     1
102
RTVSPropertyOp9
 70
     1
102
RTVSPropertyOp10
 70
     1
102
RTVSPropertyOp11
 70
     1
102
RTVSPropertyOp12
 70
     1
102
RTVSPropertyOp13
 70
     1
102
RTVSPropertyOp14
 70
     1
102
RTVSPropertyOp15
 70
     1
102
RTVSPropertyOp16
 70
     1
102
RTVSPropertyOp17
 70
     1
102
RTVSPropertyOp18
 70
     1
102
RTVSPropertyOp19
 70
     1
102
RTVSPropertyOp20
 70
     1
102
RTVSPropertyOp21
 70
     1
102
RTVSPropertyOp22
 70
     1
102
RTVSPropertyOp23
 70
     1
102
RTVSPropertyOp24
 70
     1
102
RTVSPropertyOp25
 70
     1
102
RTVSPropertyOp26
 70
     1
102
RTVSPropertyOp27
 70
     1
102
RTVSPropertyOp28
 70
     1
102
RTVSPropertyOp29
 70
     1
102
RTVSPropertyOp30
 70
     1
102
RTVSPropertyOp31
 70
     1
102
RTVSPropertyOp32
 70
     1
102
RTVSPropertyOp33
 70
     1
102
RTVSPropertyOp34
 70
     1
102
RTVSPropertyOp35
 70
     1
102
RTVSPropertyOp36
 70
     1
102
RTVSPropertyOp37
 70
     1
102
RTVSPropertyOp38
 70
     1
102
RTVSPropertyOp39
 70
     1
102
RTVSPropertyOp40
 70
     1
102
RTVSPropertyOp41
 70
     1
102
RTVSPropertyOp42
 70
     1
102
RTVSPropertyOp43
 70
     1
102
RTVSPropertyOp44
 70
     1
102
RTVSPropertyOp45
 70
     1
102
RTVSPropertyOp46
 70
     1
102
RTVSPropertyOp47
 70
     1
102
RTVSPropertyOp48
 70
     1
102
RTVSPropertyOp49
 70
     1
102
RTVSPropertyOp50
 70
     1
102
RTVSPropertyOp51
 70
     0
102
RTVSPropertyOp52
 70
     0
102
RTVSPropertyOp53
 70
     1
102
RTVSPropertyOp54
 70
     1
102
RTVSPropertyOp55
 70
     1
102
RTVSPropertyOp56
 70
     1
102
RTVSPropertyOp57
 70
     1
102
RTVSPost2010Prop28
280
     0
102
RTVSPost2010PropOp28
 70
     1
102
RTVSPost2010Prop29
280
     1
102
RTVSPost2010PropOp29
 70
     1
102
RTVSPost2010Prop30
280
     1
102
RTVSPost2010PropOp30
 70
     1
102
RTVSPost2010Prop31
280
     0
102
RTVSPost2010PropOp31
 70
     1
102
RTVSPost2010Prop32
280
     0
102
RTVSPost2010PropOp32
 70
     1
102
RTVSPost2010Prop33
280
     0
102
RTVSPost2010PropOp33
 70
     1
102
RTVSPost2010Prop34
280
     0
102
RTVSPost2010PropOp34
 70
     1
102
RTVSPost2010Prop35
280
     0
102
RTVSPost2010PropOp35
 70
     1
102
RTVSPost2010Prop36
280
     0
102
RTVSPost2010PropOp36
 70
     1
102
RTVSPost2010Prop37
 90
       50
102
RTVSPost2010PropOp37
 70
     1
102
RTVSPost2010Prop38
140
0.0
102
RTVSPost2010PropOp38
 70
     1
102
RTVSPost2010Prop39
140
1.0
102
RTVSPost2010PropOp39
 70
     1
102
RTVSPost2010Prop40
 90
        0
102
RTVSPost2010PropOp40
 70
     1
102
RTVSPost2010Prop41ColorIndex
 90
       18
102
RTVSPost2010Prop41ColorRGB
 90
        0
102
RTVSPost2010PropOp41
 70
     1
102
RTVSPost2010Prop42
 90
       50
102
RTVSPost2010PropOp42
 70
     1
102
RTVSPost2010Prop43
 90
        3
102
RTVSPost2010PropOp43
 70
     1
102
RTVSPost2010Prop44ColorIndex
 90
        5
102
RTVSPost2010Prop44ColorRGB
 90
      255
102
RTVSPost2010PropOp44
 70
     1
102
RTVSPost2010Prop45
280
     0
102
RTVSPost2010PropOp45
 70
     1
102
RTVSPost2010Prop46
 90
       50
102
RTVSPost2010PropOp46
 70
     1
102
RTVSPost2010Prop47
 90
       50
102
RTVSPost2010PropOp47
 70
     1
102
RTVSPost2010Prop48
 90
       50
102
RTVSPost2010PropOp48
 70
     1
102
RTVSPost2010Prop49
280
     0
102
RTVSPost2010PropOp49
 70
     1
102
RTVSPost2010Prop50
 90
       50
102
RTVSPost2010PropOp50
 70
     1
102
RTVSPost2010Prop51ColorIndex
 90
      256
102
RTVSPost2010Prop51ColorRGB
 90
-16777216
102
RTVSPost2010PropOp51
 70
     0
102
RTVSPost2010Prop52
140
1.0
102
RTVSPost2010PropOp52
 70
     0
102
RTVSPost2010Prop53
 90
        2
102
RTVSPost2010PropOp53
 70
     1
102
RTVSPost2010Prop54
  1
strokes_ogs.tif
102
RTVSPost2010PropOp54
 70
     1
102
RTVSPost2010Prop55
280
     0
102
RTVSPost2010PropOp55
 70
     1
102
RTVSPost2010Prop56
140
1.0
102
RTVSPost2010PropOp56
 70
     1
102
RTVSPost2010Prop57
140
1.0
102
RTVSPost2010PropOp57
 70
     1
  0
XRECORD
  5
596
102
{ACAD_REACTORS
330
595
102
}
330
595
100
AcDbXrecord
280
     1
102
RTVSPropertyOp0
 70
     1
102
RTVSPropertyOp1
 70
     1
102
RTVSPropertyOp2
 70
     1
102
RTVSPropertyOp3
 70
     1
102
RTVSPropertyOp4
 70
     1
102
RTVSPropertyOp5
 70
     1
102
RTVSPropertyOp6
 70
     1
102
RTVSPropertyOp7
 70
     1
102
RTVSPropertyOp8
 70
     1
102
RTVSPropertyOp9
 70
     1
102
RTVSPropertyOp10
 70
     1
102
RTVSPropertyOp11
 70
     1
102
RTVSPropertyOp12
 70
     1
102
RTVSPropertyOp13
 70
     1
102
RTVSPropertyOp14
 70
     1
102
RTVSPropertyOp15
 70
     1
102
RTVSPropertyOp16
 70
     1
102
RTVSPropertyOp17
 70
     1
102
RTVSPropertyOp18
 70
     1
102
RTVSPropertyOp19
 70
     1
102
RTVSPropertyOp20
 70
     1
102
RTVSPropertyOp21
 70
     1
102
RTVSPropertyOp22
 70
     1
102
RTVSPropertyOp23
 70
     1
102
RTVSPropertyOp24
 70
     1
102
RTVSPropertyOp25
 70
     1
102
RTVSPropertyOp26
 70
     1
102
RTVSPropertyOp27
 70
     1
102
RTVSPropertyOp28
 70
     1
102
RTVSPropertyOp29
 70
     1
102
RTVSPropertyOp30
 70
     1
102
RTVSPropertyOp31
 70
     1
102
RTVSPropertyOp32
 70
     1
102
RTVSPropertyOp33
 70
     1
102
RTVSPropertyOp34
 70
     1
102
RTVSPropertyOp35
 70
     1
102
RTVSPropertyOp36
 70
     1
102
RTVSPropertyOp37
 70
     1
102
RTVSPropertyOp38
 70
     1
102
RTVSPropertyOp39
 70
     1
102
RTVSPropertyOp40
 70
     1
102
RTVSPropertyOp41
 70
     1
102
RTVSPropertyOp42
 70
     1
102
RTVSPropertyOp43
 70
     1
102
RTVSPropertyOp44
 70
     1
102
RTVSPropertyOp45
 70
     1
102
RTVSPropertyOp46
 70
     1
102
RTVSPropertyOp47
 70
     1
102
RTVSPropertyOp48
 70
     1
102
RTVSPropertyOp49
 70
     1
102
RTVSPropertyOp50
 70
     1
102
RTVSPropertyOp51
 70
     0
102
RTVSPropertyOp52
 70
     0
102
RTVSPropertyOp53
 70
     1
102
RTVSPropertyOp54
 70
     1
102
RTVSPropertyOp55
 70
     1
102
RTVSPropertyOp56
 70
     1
102
RTVSPropertyOp57
 70
     1
102
RTVSPost2010Prop28
280
     0
102
RTVSPost2010PropOp28
 70
     1
102
RTVSPost2010Prop29
280
     1
102
RTVSPost2010PropOp29
 70
     1
102
RTVSPost2010Prop30
280
     1
102
RTVSPost2010PropOp30
 70
     1
102
RTVSPost2010Prop31
280
     0
102
RTVSPost2010PropOp31
 70
     1
102
RTVSPost2010Prop32
280
     0
102
RTVSPost2010PropOp32
 70
     1
102
RTVSPost2010Prop33
280
     0
102
RTVSPost2010PropOp33
 70
     1
102
RTVSPost2010Prop34
280
     0
102
RTVSPost2010PropOp34
 70
     1
102
RTVSPost2010Prop35
280
     0
102
RTVSPost2010PropOp35
 70
     1
102
RTVSPost2010Prop36
280
     0
102
RTVSPost2010PropOp36
 70
     1
102
RTVSPost2010Prop37
 90
       50
102
RTVSPost2010PropOp37
 70
     1
102
RTVSPost2010Prop38
140
0.0
102
RTVSPost2010PropOp38
 70
     1
102
RTVSPost2010Prop39
140
1.0
102
RTVSPost2010PropOp39
 70
     1
102
RTVSPost2010Prop40
 90
        0
102
RTVSPost2010PropOp40
 70
     1
102
RTVSPost2010Prop41ColorIndex
 90
       18
102
RTVSPost2010Prop41ColorRGB
 90
        0
102
RTVSPost2010PropOp41
 70
     1
102
RTVSPost2010Prop42
 90
       50
102
RTVSPost2010PropOp42
 70
     1
102
RTVSPost2010Prop43
 90
        3
102
RTVSPost2010PropOp43
 70
     1
102
RTVSPost2010Prop44ColorIndex
 90
        5
102
RTVSPost2010Prop44ColorRGB
 90
      255
102
RTVSPost2010PropOp44
 70
     1
102
RTVSPost2010Prop45
280
     0
102
RTVSPost2010PropOp45
 70
     1
102
RTVSPost2010Prop46
 90
       50
102
RTVSPost2010PropOp46
 70
     1
102
RTVSPost2010Prop47
 90
       50
102
RTVSPost2010PropOp47
 70
     1
102
RTVSPost2010Prop48
 90
       50
102
RTVSPost2010PropOp48
 70
     1
102
RTVSPost2010Prop49
280
     0
102
RTVSPost2010PropOp49
 70
     1
102
RTVSPost2010Prop50
 90
       50
102
RTVSPost2010PropOp50
 70
     1
102
RTVSPost2010Prop51ColorIndex
 90
      256
102
RTVSPost2010Prop51ColorRGB
 90
-16777216
102
RTVSPost2010PropOp51
 70
     0
102
RTVSPost2010Prop52
140
1.0
102
RTVSPost2010PropOp52
 70
     0
102
RTVSPost2010Prop53
 90
        2
102
RTVSPost2010PropOp53
 70
     1
102
RTVSPost2010Prop54
  1
strokes_ogs.tif
102
RTVSPost2010PropOp54
 70
     1
102
RTVSPost2010Prop55
280
     0
102
RTVSPost2010PropOp55
 70
     1
102
RTVSPost2010Prop56
140
1.0
102
RTVSPost2010PropOp56
 70
     1
102
RTVSPost2010Prop57
140
1.0
102
RTVSPost2010PropOp57
 70
     1
  0
ENDSEC
  0
EOF
