  0
SECTION
  2
HEADER
  9
$ACADVER
  1
AC1015
  9
$ACADMAINTVER
 70
     6
  9
$DWGCODEPAGE
  3
ANSI_932
  9
$INSBASE
 10
2394.809690443102
 20
1357.957377799471
 30
0.0
  9
$EXTMIN
 10
251.3382996246842
 20
58.40768094969349
 30
0.0
  9
$EXTMAX
 10
2679.917429141263
 20
1902.771004521608
 30
0.0
  9
$LIMMIN
 10
0.0
 20
0.0
  9
$LIMMAX
 10
816.5000000000001
 20
565.0
  9
$ORTHOMODE
 70
     1
  9
$REGENMODE
 70
     1
  9
$FILLMODE
 70
     1
  9
$QTEXTMODE
 70
     0
  9
$MIRRTEXT
 70
     1
  9
$LTSCALE
 40
20.0
  9
$ATTMODE
 70
     1
  9
$TEXTSIZE
 40
21.0
  9
$TRACEWID
 40
0.05
  9
$TEXTSTYLE
  7
KANJI
  9
$CLAYER
  8
2
  9
$CELTYPE
  6
BYLAYER
  9
$CECOLOR
 62
   256
  9
$CELTSCALE
 40
1.0
  9
$DISPSILH
 70
     0
  9
$DIMSCALE
 40
7.0
  9
$DIMASZ
 40
2.0
  9
$DIMEXO
 40
0.5
  9
$DIMDLI
 40
0.0
  9
$DIMRND
 40
0.0
  9
$DIMDLE
 40
0.0
  9
$DIMEXE
 40
1.0
  9
$DIMTP
 40
0.0
  9
$DIMTM
 40
0.0
  9
$DIMTXT
 40
3.0
  9
$DIMCEN
 40
0.09
  9
$DIMTSZ
 40
0.0
  9
$DIMTOL
 70
     0
  9
$DIMLIM
 70
     0
  9
$DIMTIH
 70
     0
  9
$DIMTOH
 70
     0
  9
$DIMSE1
 70
     0
  9
$DIMSE2
 70
     0
  9
$DIMTAD
 70
     0
  9
$DIMZIN
 70
     8
  9
$DIMBLK
  1

  9
$DIMASO
 70
     0
  9
$DIMSHO
 70
     0
  9
$DIMPOST
  1

  9
$DIMAPOST
  1

  9
$DIMALT
 70
     0
  9
$DIMALTD
 70
     2
  9
$DIMALTF
 40
25.4
  9
$DIMLFAC
 40
1.0
  9
$DIMTOFL
 70
     1
  9
$DIMTVP
 40
1.0
  9
$DIMTIX
 70
     1
  9
$DIMSOXD
 70
     1
  9
$DIMSAH
 70
     0
  9
$DIMBLK1
  1

  9
$DIMBLK2
  1

  9
$DIMSTYLE
  2
STANDARD
  9
$DIMCLRD
 70
   256
  9
$DIMCLRE
 70
   256
  9
$DIMCLRT
 70
   256
  9
$DIMTFAC
 40
1.0
  9
$DIMGAP
 40
0.09
  9
$DIMJUST
 70
     0
  9
$DIMSD1
 70
     0
  9
$DIMSD2
 70
     0
  9
$DIMTOLJ
 70
     1
  9
$DIMTZIN
 70
     0
  9
$DIMALTZ
 70
     0
  9
$DIMALTTZ
 70
     0
  9
$DIMUPT
 70
     0
  9
$DIMDEC
 70
     1
  9
$DIMTDEC
 70
     4
  9
$DIMALTU
 70
     2
  9
$DIMALTTD
 70
     2
  9
$DIMTXSTY
  7
STANDARD
  9
$DIMAUNIT
 70
     0
  9
$DIMADEC
 70
     0
  9
$DIMALTRND
 40
0.0
  9
$DIMAZIN
 70
     0
  9
$DIMDSEP
 70
    46
  9
$DIMATFIT
 70
     3
  9
$DIMFRAC
 70
     0
  9
$DIMLDRBLK
  1

  9
$DIMLUNIT
 70
     2
  9
$DIMLWD
 70
    -2
  9
$DIMLWE
 70
    -2
  9
$DIMTMOVE
 70
     0
  9
$LUNITS
 70
     2
  9
$LUPREC
 70
     3
  9
$SKETCHINC
 40
0.1
  9
$FILLETRAD
 40
1.0
  9
$AUNITS
 70
     0
  9
$AUPREC
 70
     3
  9
$MENU
  1
C:\R13\WIN\SUPPORT\ACADFULL
  9
$ELEVATION
 40
0.0
  9
$PELEVATION
 40
0.0
  9
$THICKNESS
 40
0.0
  9
$LIMCHECK
 70
     0
  9
$CHAMFERA
 40
0.0
  9
$CHAMFERB
 40
0.0
  9
$CHAMFERC
 40
0.0
  9
$CHAMFERD
 40
0.0
  9
$SKPOLY
 70
     0
  9
$TDCREATE
 40
2457464.455073333
  9
$TDUCREATE
 40
2457464.080073333
  9
$TDUPDATE
 40
2458115.693712176
  9
$TDUUPDATE
 40
2458115.318712176
  9
$TDINDWG
 40
0.0157751042
  9
$TDUSRTIMER
 40
0.0157742245
  9
$USRTIMER
 70
     1
  9
$ANGBASE
 50
0.0
  9
$ANGDIR
 70
     0
  9
$PDMODE
 70
     0
  9
$PDSIZE
 40
0.0
  9
$PLINEWID
 40
0.0
  9
$SPLFRAME
 70
     0
  9
$SPLINETYPE
 70
     6
  9
$SPLINESEGS
 70
     8
  9
$HANDSEED
  5
773
  9
$SURFTAB1
 70
     6
  9
$SURFTAB2
 70
     6
  9
$SURFTYPE
 70
     6
  9
$SURFU
 70
     6
  9
$SURFV
 70
     6
  9
$UCSBASE
  2

  9
$UCSNAME
  2

  9
$UCSORG
 10
0.0
 20
0.0
 30
0.0
  9
$UCSXDIR
 10
1.0
 20
0.0
 30
0.0
  9
$UCSYDIR
 10
0.0
 20
1.0
 30
0.0
  9
$UCSORTHOREF
  2

  9
$UCSORTHOVIEW
 70
     0
  9
$UCSORGTOP
 10
0.0
 20
0.0
 30
0.0
  9
$UCSORGBOTTOM
 10
0.0
 20
0.0
 30
0.0
  9
$UCSORGLEFT
 10
0.0
 20
0.0
 30
0.0
  9
$UCSORGRIGHT
 10
0.0
 20
0.0
 30
0.0
  9
$UCSORGFRONT
 10
0.0
 20
0.0
 30
0.0
  9
$UCSORGBACK
 10
0.0
 20
0.0
 30
0.0
  9
$PUCSBASE
  2

  9
$PUCSNAME
  2

  9
$PUCSORG
 10
0.0
 20
0.0
 30
0.0
  9
$PUCSXDIR
 10
1.0
 20
0.0
 30
0.0
  9
$PUCSYDIR
 10
0.0
 20
1.0
 30
0.0
  9
$PUCSORTHOREF
  2

  9
$PUCSORTHOVIEW
 70
     0
  9
$PUCSORGTOP
 10
0.0
 20
0.0
 30
0.0
  9
$PUCSORGBOTTOM
 10
0.0
 20
0.0
 30
0.0
  9
$PUCSORGLEFT
 10
0.0
 20
0.0
 30
0.0
  9
$PUCSORGRIGHT
 10
0.0
 20
0.0
 30
0.0
  9
$PUCSORGFRONT
 10
0.0
 20
0.0
 30
0.0
  9
$PUCSORGBACK
 10
0.0
 20
0.0
 30
0.0
  9
$USERI1
 70
     0
  9
$USERI2
 70
     0
  9
$USERI3
 70
     0
  9
$USERI4
 70
     0
  9
$USERI5
 70
     0
  9
$USERR1
 40
0.0
  9
$USERR2
 40
0.0
  9
$USERR3
 40
0.0
  9
$USERR4
 40
2448925.372986111
  9
$USERR5
 40
0.04166667
  9
$WORLDVIEW
 70
     1
  9
$SHADEDGE
 70
     3
  9
$SHADEDIF
 70
    70
  9
$TILEMODE
 70
     1
  9
$MAXACTVP
 70
    16
  9
$PINSBASE
 10
0.0
 20
0.0
 30
0.0
  9
$PLIMCHECK
 70
     0
  9
$PEXTMIN
 10
1000000000000000E+20
 20
1000000000000000E+20
 30
1000000000000000E+20
  9
$PEXTMAX
 10
-1000000000000000E+20
 20
-1000000000000000E+20
 30
-1000000000000000E+20
  9
$PLIMMIN
 10
0.0
 20
0.0
  9
$PLIMMAX
 10
12.0
 20
9.0
  9
$UNITMODE
 70
     0
  9
$VISRETAIN
 70
     0
  9
$PLINEGEN
 70
     0
  9
$PSLTSCALE
 70
     0
  9
$TREEDEPTH
 70
  3020
  9
$CMLSTYLE
  2
STANDARD
  9
$CMLJUST
 70
     0
  9
$CMLSCALE
 40
1.0
  9
$PROXYGRAPHICS
 70
     1
  9
$MEASUREMENT
 70
     0
  9
$CELWEIGHT
370
    -1
  9
$ENDCAPS
280
     0
  9
$JOINSTYLE
280
     0
  9
$LWDISPLAY
290
     0
  9
$INSUNITS
 70
     0
  9
$HYPERLINKBASE
  1

  9
$STYLESHEET
  1

  9
$XEDIT
290
     1
  9
$CEPSNTYPE
380
     0
  9
$PSTYLEMODE
290
     1
  9
$FINGERPRINTGUID
  2
{0F18731C-6CE4-4B19-942C-0B3B300E65AB}
  9
$VERSIONGUID
  2
{9CA4B058-046A-48BC-BBF9-3B4ED55932D5}
  9
$EXTNAMES
290
     1
  9
$PSVPSCALE
 40
0.0
  9
$OLESTARTUP
290
     0
  0
ENDSEC
  0
SECTION
  2
CLASSES
  0
CLASS
  1
ACDBDICTIONARYWDFLT
  2
AcDbDictionaryWithDefault
  3
ObjectDBX Classes
 90
        0
280
     0
281
     0
  0
CLASS
  1
MATERIAL
  2
AcDbMaterial
  3
ObjectDBX Classes
 90
     1153
280
     0
281
     0
  0
CLASS
  1
SORTENTSTABLE
  2
AcDbSortentsTable
  3
ObjectDBX Classes
 90
        0
280
     0
281
     0
  0
CLASS
  1
VISUALSTYLE
  2
AcDbVisualStyle
  3
ObjectDBX Classes
 90
     4095
280
     0
281
     0
  0
CLASS
  1
SCALE
  2
AcDbScale
  3
ObjectDBX Classes
 90
     1153
280
     0
281
     0
  0
CLASS
  1
DICTIONARYVAR
  2
AcDbDictionaryVar
  3
ObjectDBX Classes
 90
        0
280
     0
281
     0
  0
CLASS
  1
TABLESTYLE
  2
AcDbTableStyle
  3
ObjectDBX Classes
 90
     4095
280
     0
281
     0
  0
CLASS
  1
MLEADERSTYLE
  2
AcDbMLeaderStyle
  3
ACDB_MLEADERSTYLE_CLASS
 90
     4095
280
     0
281
     0
  0
CLASS
  1
ACDBPLACEHOLDER
  2
AcDbPlaceHolder
  3
ObjectDBX Classes
 90
        0
280
     0
281
     0
  0
CLASS
  1
LAYOUT
  2
AcDbLayout
  3
ObjectDBX Classes
 90
        0
280
     0
281
     0
  0
ENDSEC
  0
SECTION
  2
TABLES
  0
TABLE
  2
VPORT
  5
2C
102
{ACAD_XDICTIONARY
360
738
102
}
330
0
100
AcDbSymbolTable
 70
     1
  0
VPORT
  5
33
330
2C
100
AcDbSymbolTableRecord
100
AcDbViewportTableRecord
  2
*ACTIVE
 70
     0
 10
0.0
 20
0.0
 11
1.0
 21
1.0
 12
2027.515879490271
 22
936.8197182113005
 13
0.0
 23
0.0
 14
1.0
 24
1.0
 15
50.0
 25
50.0
 16
0.0
 26
0.0
 36
1.0
 17
0.0
 27
0.0
 37
0.0
 40
2101.500391892182
 41
1.82716049382716
 42
50.0
 43
0.0
 44
0.0
 50
0.0
 51
0.0
 71
     0
 72
  5000
 73
     1
 74
     0
 75
     0
 76
     0
 77
     0
 78
     0
281
     0
 65
     1
110
0.0
120
0.0
130
0.0
111
1.0
121
0.0
131
0.0
112
0.0
122
1.0
132
0.0
 79
     0
146
0.0
1001
ACAD_NAV_VCDISPLAY
1070
     3
  0
ENDTAB
  0
TABLE
  2
LTYPE
  5
F
330
0
100
AcDbSymbolTable
 70
     2
  0
LTYPE
  5
10
330
F
100
AcDbSymbolTableRecord
100
AcDbLinetypeTableRecord
  2
BYBLOCK
 70
     0
  3

 72
    65
 73
     0
 40
0.0
  0
LTYPE
  5
11
330
F
100
AcDbSymbolTableRecord
100
AcDbLinetypeTableRecord
  2
BYLAYER
 70
     0
  3

 72
    65
 73
     0
 40
0.0
  0
LTYPE
  5
E
330
F
100
AcDbSymbolTableRecord
100
AcDbLinetypeTableRecord
  2
CONTINUOUS
 70
     0
  3
Solid line
 72
    65
 73
     0
 40
0.0
  0
LTYPE
  5
81
330
F
100
AcDbSymbolTableRecord
100
AcDbLinetypeTableRecord
  2
CENTER
 70
     0
  3
____ _ ____ _ ____ _ ____ _ ____ _ ____ _ ____
 72
    65
 73
     4
 40
2.0
 49
1.25
 74
     0
 49
-0.25
 74
     0
 49
0.25
 74
     0
 49
-0.25
 74
     0
  0
ENDTAB
  0
TABLE
  2
LAYER
  5
2
102
{ACAD_XDICTIONARY
360
3
102
}
330
0
100
AcDbSymbolTable
 70
     9
  0
LAYER
  5
1F
102
{ACAD_XDICTIONARY
360
20
102
}
330
2
100
AcDbSymbolTableRecord
100
AcDbLayerTableRecord
  2
0
 70
     0
 62
     7
  6
CONTINUOUS
370
    -3
390
7
  0
LAYER
  5
5BE
102
{ACAD_XDICTIONARY
360
5BF
102
}
330
2
100
AcDbSymbolTableRecord
100
AcDbLayerTableRecord
  2
1
 70
     0
 62
     9
  6
CONTINUOUS
370
    -3
390
7
  0
LAYER
  5
1
102
{ACAD_XDICTIONARY
360
5
102
}
330
2
100
AcDbSymbolTableRecord
100
AcDbLayerTableRecord
  2
2
 70
     0
 62
     4
  6
CONTINUOUS
370
    -3
390
7
  0
LAYER
  5
83
102
{ACAD_XDICTIONARY
360
84
102
}
330
2
100
AcDbSymbolTableRecord
100
AcDbLayerTableRecord
  2
4
 70
     0
 62
     3
  6
CONTINUOUS
370
    -3
390
7
  0
LAYER
  5
7E
102
{ACAD_XDICTIONARY
360
7F
102
}
330
2
100
AcDbSymbolTableRecord
100
AcDbLayerTableRecord
  2
L-CENTER
 70
     0
 62
     1
  6
CENTER
370
    -3
390
7
  0
LAYER
  5
6C
102
{ACAD_XDICTIONARY
360
6D
102
}
330
2
100
AcDbSymbolTableRecord
100
AcDbLayerTableRecord
  2
3
 70
     0
 62
     2
  6
CONTINUOUS
370
    -3
390
7
  0
LAYER
  5
D0
102
{ACAD_XDICTIONARY
360
D1
102
}
330
2
100
AcDbSymbolTableRecord
100
AcDbLayerTableRecord
  2
CENTER
 70
     0
 62
     1
  6
CENTER
370
    -3
390
7
  0
LAYER
  5
5B8
330
2
100
AcDbSymbolTableRecord
100
AcDbLayerTableRecord
  2
5
 70
     0
 62
     6
  6
CONTINUOUS
370
    -3
390
7
  0
LAYER
  5
6FD
330
2
100
AcDbSymbolTableRecord
100
AcDbLayerTableRecord
  2
Defpoints
 70
     0
 62
     7
  6
CONTINUOUS
290
     0
370
    -3
390
7
  0
ENDTAB
  0
TABLE
  2
STYLE
  5
13
330
0
100
AcDbSymbolTable
 70
     2
  0
STYLE
  5
17
330
13
100
AcDbSymbolTableRecord
100
AcDbTextStyleTableRecord
  2
STANDARD
 70
     0
 40
0.0
 41
1.0
 50
0.0
 71
     0
 42
12.6
  3
TXT
  4

  0
STYLE
  5
12
330
13
100
AcDbSymbolTableRecord
100
AcDbTextStyleTableRecord
  2
KANJI
 70
     0
 40
0.0
 41
1.0
 50
0.0
 71
     0
 42
21.0
  3
TXT
  4
BIGFONT
  0
ENDTAB
  0
TABLE
  2
VIEW
  5
2A
330
0
100
AcDbSymbolTable
 70
     0
  0
ENDTAB
  0
TABLE
  2
UCS
  5
2B
330
0
100
AcDbSymbolTable
 70
     0
  0
ENDTAB
  0
TABLE
  2
APPID
  5
D
330
0
100
AcDbSymbolTable
 70
     6
  0
APPID
  5
C
330
D
100
AcDbSymbolTableRecord
100
AcDbRegAppTableRecord
  2
ACAD
 70
     0
  0
APPID
  5
34
330
D
100
AcDbSymbolTableRecord
100
AcDbRegAppTableRecord
  2
ACAD_NAV_VCDISPLAY
 70
     0
  0
APPID
  5
25
330
D
100
AcDbSymbolTableRecord
100
AcDbRegAppTableRecord
  2
ACAD_PSEXT
 70
     0
  0
APPID
  5
6D6
330
D
100
AcDbSymbolTableRecord
100
AcDbRegAppTableRecord
  2
ACAD_MLEADERVER
 70
     0
  0
ENDTAB
  0
TABLE
  2
DIMSTYLE
  5
16
330
0
100
AcDbSymbolTable
 70
     1
100
AcDbDimStyleTable
  0
DIMSTYLE
105
15
330
16
100
AcDbSymbolTableRecord
100
AcDbDimStyleTableRecord
  2
STANDARD
 70
     0
178
     0
340
17
  0
ENDTAB
  0
TABLE
  2
BLOCK_RECORD
  5
1A
330
0
100
AcDbSymbolTable
 70
     0
  0
BLOCK_RECORD
  5
1B
102
{ACAD_XDICTIONARY
360
1C
102
}
330
1A
100
AcDbSymbolTableRecord
100
AcDbBlockTableRecord
  2
*MODEL_SPACE
340
23
  0
BLOCK_RECORD
  5
26
330
1A
100
AcDbSymbolTableRecord
100
AcDbBlockTableRecord
  2
*PAPER_SPACE
340
29
  0
ENDTAB
  0
ENDSEC
  0
SECTION
  2
BLOCKS
  0
BLOCK
  5
1E
330
1B
100
AcDbEntity
  8
0
100
AcDbBlockBegin
  2
*MODEL_SPACE
 70
     0
 10
0.0
 20
0.0
 30
0.0
  3
*MODEL_SPACE
  1

  0
ENDBLK
  5
22
330
1B
100
AcDbEntity
  8
0
100
AcDbBlockEnd
  0
BLOCK
  5
27
330
26
100
AcDbEntity
 67
     1
  8
0
100
AcDbBlockBegin
  2
*PAPER_SPACE
 70
     0
 10
0.0
 20
0.0
 30
0.0
  3
*PAPER_SPACE
  1

  0
ENDBLK
  5
28
330
26
100
AcDbEntity
 67
     1
  8
0
100
AcDbBlockEnd
  0
ENDSEC
  0
SECTION
  2
ENTITIES
  0
TEXT
  5
BC
330
1B
100
AcDbEntity
  8
3
100
AcDbText
 10
1560.074077022327
 20
63.6511038889671
 30
0.0
 40
21.0
  1
LDC9-01
  7
KANJI
100
AcDbText
  0
ARC
  5
BE
330
1B
100
AcDbEntity
  8
4
100
AcDbCircle
 10
2588.188182141264
 20
74.57028494969336
 30
0.0
 40
7.616209999999999
100
AcDbArc
 50
305.987537999995
 51
30.25471399999988
  0
ARC
  5
BF
330
1B
100
AcDbEntity
  8
4
100
AcDbCircle
 10
2588.188182141264
 20
74.57028494969336
 30
0.0
 40
7.616209999999999
100
AcDbArc
 50
305.987537999995
 51
30.25471399999988
  0
ARC
  5
C1
330
1B
100
AcDbEntity
  8
4
100
AcDbCircle
 10
2596.602245141264
 20
114.5702799496935
 30
0.0
 40
7.616209999999999
100
AcDbArc
 50
305.9875319999896
 51
30.25471800000382
  0
ARC
  5
C2
330
1B
100
AcDbEntity
  8
4
100
AcDbCircle
 10
2596.602245141264
 20
114.5702799496935
 30
0.0
 40
7.616209999999999
100
AcDbArc
 50
305.9875319999896
 51
30.25471800000382
  0
ARC
  5
C3
330
1B
100
AcDbEntity
  8
4
100
AcDbCircle
 10
2592.395210141265
 20
94.5702789496936
 30
0.0
 40
7.616209999999999
100
AcDbArc
 50
305.987537999995
 51
30.25471399999988
  0
ARC
  5
C4
330
1B
100
AcDbEntity
  8
4
100
AcDbCircle
 10
2592.395210141265
 20
94.5702789496936
 30
0.0
 40
7.616209999999999
100
AcDbArc
 50
305.987537999995
 51
30.25471399999988
  0
ARC
  5
C5
330
1B
100
AcDbEntity
  8
4
100
AcDbCircle
 10
2601.345893141264
 20
82.24508494969359
 30
0.0
 40
7.616209999999999
100
AcDbArc
 50
125.9875430000027
 51
210.2547239999982
  0
ARC
  5
C6
330
1B
100
AcDbEntity
  8
4
100
AcDbCircle
 10
2601.345893141264
 20
82.24508494969359
 30
0.0
 40
7.616209999999999
100
AcDbArc
 50
125.9875430000027
 51
210.2547239999982
  0
ARC
  5
C7
330
1B
100
AcDbEntity
  8
4
100
AcDbCircle
 10
2605.552928141263
 20
102.2450859496935
 30
0.0
 40
7.616209999999999
100
AcDbArc
 50
125.9875430000027
 51
210.2547239999982
  0
ARC
  5
C8
330
1B
100
AcDbEntity
  8
4
100
AcDbCircle
 10
2605.552928141263
 20
102.2450859496935
 30
0.0
 40
7.616209999999999
100
AcDbArc
 50
125.9875430000027
 51
210.2547239999982
  0
LINE
  5
CC
330
1B
100
AcDbEntity
  8
4
100
AcDbLine
 10
570.662421244032
 20
1902.771004521608
 30
0.0
 11
760.6624212440324
 21
1902.771004521608
 31
0.0
  0
LINE
  5
CD
330
1B
100
AcDbEntity
  8
4
100
AcDbLine
 10
570.662421244032
 20
1067.771004521608
 30
0.0
 11
760.6624212440324
 21
1067.771004521608
 31
0.0
  0
LINE
  5
CE
330
1B
100
AcDbEntity
  8
4
100
AcDbLine
 10
538.662421244032
 20
427.4076809496933
 30
0.0
 11
940.6624212440324
 21
427.4076809496933
 31
0.0
  0
LINE
  5
CF
330
1B
100
AcDbEntity
  8
CENTER
100
AcDbLine
 10
1364.489571244032
 20
1470.771004521608
 30
0.0
 11
516.8352712440319
 21
1470.771004521608
 31
0.0
  0
LINE
  5
D3
330
1B
100
AcDbEntity
  8
CENTER
100
AcDbLine
 10
976.3565706457025
 20
1289.771004521608
 30
0.0
 11
904.9682718423614
 21
1289.771004521608
 31
0.0
  0
LINE
  5
D4
330
1B
100
AcDbEntity
  8
4
100
AcDbLine
 10
550.662421244032
 20
432.4076809496933
 30
0.0
 11
1330.662421244032
 21
432.4076809496933
 31
0.0
  0
LINE
  5
D5
330
1B
100
AcDbEntity
  8
CENTER
100
AcDbLine
 10
1377.25347927134
 20
1707.771004521608
 30
0.0
 11
369.5226514417805
 21
1707.771004521608
 31
0.0
  0
CIRCLE
  5
D6
330
1B
100
AcDbEntity
  8
4
100
AcDbCircle
 10
940.6624212440324
 20
1470.771004521608
 30
0.0
 40
402.0
  0
CIRCLE
  5
D7
330
1B
100
AcDbEntity
  8
4
100
AcDbCircle
 10
940.6624212440324
 20
1470.771004521608
 30
0.0
 40
390.0
  0
LINE
  5
D8
330
1B
100
AcDbEntity
  8
4
100
AcDbLine
 10
744.6624212440324
 20
228.4076809496933
 30
0.0
 11
760.6624212440324
 21
228.4076809496933
 31
0.0
  0
LINE
  5
D9
330
1B
100
AcDbEntity
  8
4
100
AcDbLine
 10
570.662421244032
 20
68.40768094969349
 30
0.0
 11
760.6624212440324
 21
68.40768094969349
 31
0.0
  0
LINE
  5
DA
330
1B
100
AcDbEntity
  8
CENTER
100
AcDbLine
 10
369.5226514417805
 20
243.4076809496933
 30
0.0
 11
1377.25347927134
 21
243.4076809496933
 31
0.0
  0
LINE
  5
DB
330
1B
100
AcDbEntity
  8
4
100
AcDbLine
 10
538.662421244032
 20
118.4076809496935
 30
0.0
 11
1342.662421244032
 21
118.4076809496935
 31
0.0
  0
LINE
  5
DC
330
1B
100
AcDbEntity
  8
4
100
AcDbLine
 10
570.662421244032
 20
1067.771004521608
 30
0.0
 11
570.662421244032
 21
1270.771004521608
 31
0.0
  0
LINE
  5
DD
330
1B
100
AcDbEntity
  8
4
100
AcDbLine
 10
744.6624212440324
 20
228.4076809496933
 30
0.0
 11
744.6624212440324
 21
118.4076809496935
 31
0.0
  0
LINE
  5
DE
330
1B
100
AcDbEntity
  8
4
100
AcDbLine
 10
529.662421244032
 20
153.4076809496935
 30
0.0
 11
529.662421244032
 21
333.4076809496933
 31
0.0
  0
LINE
  5
DF
330
1B
100
AcDbEntity
  8
4
100
AcDbLine
 10
538.662421244032
 20
134.4076809496935
 30
0.0
 11
744.6624212440324
 21
134.4076809496935
 31
0.0
  0
LINE
  5
E0
330
1B
100
AcDbEntity
  8
4
100
AcDbLine
 10
570.662421244032
 20
118.4076809496935
 30
0.0
 11
570.662421244032
 21
68.40768094969349
 31
0.0
  0
LINE
  5
E1
330
1B
100
AcDbEntity
  8
4
100
AcDbLine
 10
512.2624232440321
 20
153.4076809496935
 30
0.0
 11
538.662421244032
 21
153.4076809496935
 31
0.0
  0
LINE
  5
E2
330
1B
100
AcDbEntity
  8
CENTER
100
AcDbLine
 10
635.6624212440324
 20
58.40768094969349
 30
0.0
 11
635.6624212440324
 21
128.4076809496935
 31
0.0
  0
LINE
  5
E3
330
1B
100
AcDbEntity
  8
4
100
AcDbLine
 10
512.2624232440321
 20
333.4076809496933
 30
0.0
 11
538.6624212440329
 21
333.4076809496933
 31
0.0
  0
LINE
  5
E4
330
1B
100
AcDbEntity
  8
4
100
AcDbLine
 10
550.662421244032
 20
427.4076809496933
 30
0.0
 11
550.662421244032
 21
432.4076809496933
 31
0.0
  0
LINE
  5
E5
330
1B
100
AcDbEntity
  8
4
100
AcDbLine
 10
744.6624212440324
 20
1067.771004521608
 30
0.0
 11
744.6624212440324
 21
1119.789559521608
 31
0.0
  0
CIRCLE
  5
E6
330
1B
100
AcDbEntity
  8
4
100
AcDbCircle
 10
635.6624212440324
 20
1117.771004521608
 30
0.0
 40
13.0
  0
LINE
  5
E7
330
1B
100
AcDbEntity
  8
CENTER
100
AcDbLine
 10
635.6624212440324
 20
1084.694344521608
 30
0.0
 11
635.6624212440324
 21
1150.847664521608
 31
0.0
  0
LINE
  5
E8
330
1B
100
AcDbEntity
  8
CENTER
100
AcDbLine
 10
602.5857612440318
 20
1117.771004521608
 30
0.0
 11
668.7390812440321
 21
1117.771004521608
 31
0.0
  0
LINE
  5
E9
330
1B
100
AcDbEntity
  8
4
100
AcDbLine
 10
529.662421244032
 20
1617.771004521608
 30
0.0
 11
529.662421244032
 21
1797.771004521608
 31
0.0
  0
LINE
  5
EA
330
1B
100
AcDbEntity
  8
4
100
AcDbLine
 10
570.662421244032
 20
1270.771004521608
 30
0.0
 11
591.9448912440321
 21
1270.771004521608
 31
0.0
  0
LINE
  5
EB
330
1B
100
AcDbEntity
  8
4
100
AcDbLine
 10
566.5034862440325
 20
1617.771004521608
 30
0.0
 11
512.2917618820929
 21
1617.771004521608
 31
0.0
  0
LINE
  5
EC
330
1B
100
AcDbEntity
  8
4
100
AcDbLine
 10
706.8355162440325
 20
1797.771004521608
 30
0.0
 11
512.2903476626916
 21
1797.771004521608
 31
0.0
  0
LINE
  5
ED
330
1B
100
AcDbEntity
  8
4
100
AcDbLine
 10
570.662421244032
 20
1797.771004521608
 30
0.0
 11
570.662421244032
 21
1902.771004521608
 31
0.0
  0
LINE
  5
EE
330
1B
100
AcDbEntity
  8
4
100
AcDbLine
 10
744.6624212440324
 20
1902.771004521608
 30
0.0
 11
744.6624212440324
 21
1821.752449521608
 31
0.0
  0
LINE
  5
EF
330
1B
100
AcDbEntity
  8
CENTER
100
AcDbLine
 10
635.6624212440324
 20
1885.847664521608
 30
0.0
 11
635.6624212440324
 21
1819.694344521608
 31
0.0
  0
LINE
  5
F0
330
1B
100
AcDbEntity
  8
CENTER
100
AcDbLine
 10
602.5857612440318
 20
1852.771004521608
 30
0.0
 11
668.7390812440321
 21
1852.771004521608
 31
0.0
  0
CIRCLE
  5
F1
330
1B
100
AcDbEntity
  8
4
100
AcDbCircle
 10
635.6624212440324
 20
1852.771004521608
 30
0.0
 40
13.0
  0
LINE
  5
F2
330
1B
100
AcDbEntity
  8
4
100
AcDbLine
 10
1310.662421244032
 20
1067.771004521608
 30
0.0
 11
1310.662421244032
 21
1270.771004521608
 31
0.0
  0
LINE
  5
F3
330
1B
100
AcDbEntity
  8
CENTER
100
AcDbLine
 10
940.6624212440324
 20
1046.943854521608
 30
0.0
 11
940.6624212440324
 21
1894.598154521608
 31
0.0
  0
LINE
  5
F4
330
1B
100
AcDbEntity
  8
4
 62
     3
100
AcDbLine
 10
1857.917429141263
 20
432.4076809496933
 30
0.0
 11
2637.917429141263
 21
432.4076809496933
 31
0.0
  0
LINE
  5
F5
330
1B
100
AcDbEntity
  8
4
 62
     3
100
AcDbLine
 10
1845.917429141263
 20
427.4076809496933
 30
0.0
 11
2247.917429141263
 21
427.4076809496933
 31
0.0
  0
LINE
  5
F6
330
1B
100
AcDbEntity
  8
4
 62
     3
100
AcDbLine
 10
2599.917429141263
 20
134.4076809496935
 30
0.0
 11
1894.917429141263
 21
134.4076809496935
 31
0.0
  0
LINE
  5
F7
330
1B
100
AcDbEntity
  8
CENTER
100
AcDbLine
 10
2597.48954732004
 20
243.4076809496933
 30
0.0
 11
2372.345310962487
 21
243.4076809496933
 31
0.0
  0
LINE
  5
F8
330
1B
100
AcDbEntity
  8
4
 62
     3
100
AcDbLine
 10
1844.917429141263
 20
118.4076809496935
 30
0.0
 11
2679.917429141263
 21
118.4076809496935
 31
0.0
  0
LINE
  5
F9
330
1B
100
AcDbEntity
  8
CENTER
100
AcDbLine
 10
940.6624212440324
 20
98.71503909972807
 30
0.0
 11
940.6624212440324
 21
563.5102976047633
 31
0.0
  0
LINE
  5
FA
330
1B
100
AcDbEntity
  8
4
100
AcDbLine
 10
940.6624212440324
 20
427.4076809496933
 30
0.0
 11
1342.662421244032
 21
427.4076809496933
 31
0.0
  0
LINE
  5
FB
330
1B
100
AcDbEntity
  8
4
100
AcDbLine
 10
760.6624212440324
 20
134.4076809496935
 30
0.0
 11
1120.662421244032
 21
134.4076809496935
 31
0.0
  0
LINE
  5
FC
330
1B
100
AcDbEntity
  8
4
100
AcDbLine
 10
760.6624212440324
 20
228.4076809496933
 30
0.0
 11
760.6624212440324
 21
68.40768094969349
 31
0.0
  0
LINE
  5
FD
330
1B
100
AcDbEntity
  8
4
100
AcDbLine
 10
1351.662421244032
 20
333.4076809496933
 30
0.0
 11
1351.662421244032
 21
153.4076809496935
 31
0.0
  0
LINE
  5
FE
330
1B
100
AcDbEntity
  8
4
100
AcDbLine
 10
1136.662421244032
 20
118.4076809496935
 30
0.0
 11
1136.662421244032
 21
228.4076809496933
 31
0.0
  0
LINE
  5
FF
330
1B
100
AcDbEntity
  8
4
100
AcDbLine
 10
1120.662421244032
 20
228.4076809496933
 30
0.0
 11
1120.662421244032
 21
68.40768094969349
 31
0.0
  0
LINE
  5
100
330
1B
100
AcDbEntity
  8
4
100
AcDbLine
 10
1136.662421244032
 20
134.4076809496935
 30
0.0
 11
1342.662421244032
 21
134.4076809496935
 31
0.0
  0
LINE
  5
101
330
1B
100
AcDbEntity
  8
4
100
AcDbLine
 10
1120.662421244032
 20
68.40768094969349
 30
0.0
 11
1310.662421244032
 21
68.40768094969349
 31
0.0
  0
LINE
  5
102
330
1B
100
AcDbEntity
  8
CENTER
100
AcDbLine
 10
1245.662421244032
 20
58.40768094969349
 30
0.0
 11
1245.662421244032
 21
128.4076809496935
 31
0.0
  0
LINE
  5
103
330
1B
100
AcDbEntity
  8
4
100
AcDbLine
 10
1310.662421244032
 20
118.4076809496935
 30
0.0
 11
1310.662421244032
 21
68.40768094969349
 31
0.0
  0
LINE
  5
104
330
1B
100
AcDbEntity
  8
4
100
AcDbLine
 10
1369.062419244031
 20
153.4076809496935
 30
0.0
 11
1342.662421244032
 21
153.4076809496935
 31
0.0
  0
LINE
  5
105
330
1B
100
AcDbEntity
  8
4
100
AcDbLine
 10
1136.662421244032
 20
228.4076809496933
 30
0.0
 11
1120.662421244032
 21
228.4076809496933
 31
0.0
  0
LINE
  5
106
330
1B
100
AcDbEntity
  8
4
100
AcDbLine
 10
1369.063833456548
 20
333.4076809496937
 30
0.0
 11
1342.662421244031
 21
333.4076809496933
 31
0.0
  0
LINE
  5
107
330
1B
100
AcDbEntity
  8
4
100
AcDbLine
 10
1330.662421244032
 20
427.4076809496933
 30
0.0
 11
1330.662421244032
 21
432.4076809496933
 31
0.0
  0
LINE
  5
108
330
1B
100
AcDbEntity
  8
4
100
AcDbLine
 10
760.6624212440324
 20
1067.771004521608
 30
0.0
 11
760.6624212440324
 21
1111.321544521608
 31
0.0
  0
LINE
  5
109
330
1B
100
AcDbEntity
  8
CENTER
100
AcDbLine
 10
1278.739081244032
 20
1117.771004521608
 30
0.0
 11
1212.585761244032
 21
1117.771004521608
 31
0.0
  0
LINE
  5
10A
330
1B
100
AcDbEntity
  8
4
100
AcDbLine
 10
1310.662421244032
 20
1067.771004521608
 30
0.0
 11
1120.662421244032
 21
1067.771004521608
 31
0.0
  0
CIRCLE
  5
10B
330
1B
100
AcDbEntity
  8
4
100
AcDbCircle
 10
1245.662421244032
 20
1117.771004521608
 30
0.0
 40
13.0
  0
LINE
  5
10C
330
1B
100
AcDbEntity
  8
CENTER
100
AcDbLine
 10
1245.662421244032
 20
1084.694344521608
 30
0.0
 11
1245.662421244032
 21
1150.847664521608
 31
0.0
  0
LINE
  5
10D
330
1B
100
AcDbEntity
  8
4
100
AcDbLine
 10
1136.662421244032
 20
1067.771004521608
 30
0.0
 11
1136.662421244032
 21
1119.789559521608
 31
0.0
  0
LINE
  5
10E
330
1B
100
AcDbEntity
  8
4
100
AcDbLine
 10
1120.662421244032
 20
1067.771004521608
 30
0.0
 11
1120.662421244032
 21
1111.321544521608
 31
0.0
  0
LINE
  5
10F
330
1B
100
AcDbEntity
  8
4
100
AcDbLine
 10
1136.662421244032
 20
1117.771004521608
 30
0.0
 11
1133.003241244032
 21
1117.771004521608
 31
0.0
  0
LINE
  5
110
330
1B
100
AcDbEntity
  8
4
 62
     3
100
AcDbLine
 10
1844.917429141263
 20
118.4076809496935
 30
0.0
 11
1894.917429141263
 21
228.4076809496933
 31
0.0
  0
LINE
  5
111
330
1B
100
AcDbEntity
  8
4
 62
     3
100
AcDbLine
 10
2047.917429141263
 20
68.40768094969349
 30
0.0
 11
1844.917429141263
 21
68.40768094969349
 31
0.0
  0
LINE
  5
112
330
1B
100
AcDbEntity
  8
4
 62
     3
100
AcDbLine
 10
1845.917429141263
 20
118.4076809496935
 30
0.0
 11
1845.917429141263
 21
427.4076809496933
 31
0.0
  0
LINE
  5
113
330
1B
100
AcDbEntity
  8
4
 62
     3
100
AcDbLine
 10
1844.917429141263
 20
118.4076809496935
 30
0.0
 11
1844.917429141263
 21
68.40768094969349
 31
0.0
  0
LINE
  5
114
330
1B
100
AcDbEntity
  8
4
 62
     3
100
AcDbLine
 10
1845.917429141263
 20
134.4076809496935
 30
0.0
 11
1852.190134141264
 21
134.4076809496935
 31
0.0
  0
LINE
  5
115
330
1B
100
AcDbEntity
  8
4
 62
     3
100
AcDbLine
 10
1894.917429141263
 20
118.4076809496935
 30
0.0
 11
1894.917429141263
 21
228.4076809496933
 31
0.0
  0
LINE
  5
116
330
1B
100
AcDbEntity
  8
CENTER
100
AcDbLine
 10
1894.917429141263
 20
58.40768094969349
 30
0.0
 11
1894.917429141263
 21
128.4076809496935
 31
0.0
  0
LINE
  5
117
330
1B
100
AcDbEntity
  8
4
 62
     3
100
AcDbLine
 10
2047.917429141263
 20
118.4076809496935
 30
0.0
 11
2047.917429141263
 21
68.40768094969349
 31
0.0
  0
LINE
  5
118
330
1B
100
AcDbEntity
  8
4
 62
     3
100
AcDbLine
 10
1857.917429141263
 20
427.4076809496933
 30
0.0
 11
1857.917429141263
 21
432.4076809496933
 31
0.0
  0
LINE
  5
119
330
1B
100
AcDbEntity
  8
4
 62
     3
100
AcDbLine
 10
2649.917429141263
 20
427.4076809496933
 30
0.0
 11
2247.917429141263
 21
427.4076809496933
 31
0.0
  0
LINE
  5
11A
330
1B
100
AcDbEntity
  8
4
 62
     3
100
AcDbLine
 10
2574.917429141263
 20
333.4076809496933
 30
0.0
 11
2394.917429141263
 21
333.4076809496933
 31
0.0
  0
LINE
  5
11B
330
1B
100
AcDbEntity
  8
4
 62
     3
100
AcDbLine
 10
2574.917429141263
 20
153.4076809496935
 30
0.0
 11
2394.917429141263
 21
153.4076809496935
 31
0.0
  0
LINE
  5
11C
330
1B
100
AcDbEntity
  8
4
 62
     3
100
AcDbLine
 10
2679.917429141263
 20
68.40768094969349
 30
0.0
 11
2476.917429141263
 21
68.40768094969349
 31
0.0
  0
LINE
  5
11D
330
1B
100
AcDbEntity
  8
CENTER
100
AcDbLine
 10
2484.917429141263
 20
130.8355627709166
 30
0.0
 11
2484.917429141263
 21
355.9797991284699
 31
0.0
  0
LINE
  5
11E
330
1B
100
AcDbEntity
  8
4
 62
     3
100
AcDbLine
 10
2394.917429141263
 20
153.4076809496935
 30
0.0
 11
2394.917429141263
 21
333.4076809496933
 31
0.0
  0
LINE
  5
11F
330
1B
100
AcDbEntity
  8
CENTER
100
AcDbLine
 10
2247.917429141263
 20
104.4115741501059
 30
0.0
 11
2247.917429141263
 21
490.2092827187093
 31
0.0
  0
LINE
  5
120
330
1B
100
AcDbEntity
  8
CENTER
100
AcDbLine
 10
2066.917429141263
 20
438.6040224621488
 30
0.0
 11
2066.917429141263
 21
482.5630873874402
 31
0.0
  0
LINE
  5
121
330
1B
100
AcDbEntity
  8
4
 62
     3
100
AcDbLine
 10
2476.917429141263
 20
118.4076809496935
 30
0.0
 11
2476.917429141263
 21
68.40768094969349
 31
0.0
  0
LINE
  5
122
330
1B
100
AcDbEntity
  8
4
 62
     3
100
AcDbLine
 10
2649.917429141263
 20
159.6576809496935
 30
0.0
 11
2649.917429141263
 21
366.4076809496933
 31
0.0
  0
LINE
  5
123
330
1B
100
AcDbEntity
  8
4
 62
     3
100
AcDbLine
 10
2599.917429141263
 20
228.4076809496933
 30
0.0
 11
2599.917429141263
 21
118.4076809496935
 31
0.0
  0
LINE
  5
124
330
1B
100
AcDbEntity
  8
4
 62
     3
100
AcDbLine
 10
2574.917429141263
 20
333.4076809496933
 30
0.0
 11
2574.917429141263
 21
153.4076809496935
 31
0.0
  0
LINE
  5
125
330
1B
100
AcDbEntity
  8
4
 62
     3
100
AcDbLine
 10
2599.917429141263
 20
228.4076809496933
 30
0.0
 11
2679.917429141263
 21
118.4076809496935
 31
0.0
  0
LINE
  5
126
330
1B
100
AcDbEntity
  8
4
 62
     3
100
AcDbLine
 10
2679.917429141263
 20
118.4076809496935
 30
0.0
 11
2679.917429141263
 21
68.40768094969349
 31
0.0
  0
LINE
  5
127
330
1B
100
AcDbEntity
  8
CENTER
100
AcDbLine
 10
2629.917429141263
 20
128.4076809496935
 30
0.0
 11
2629.917429141263
 21
58.40768094969349
 31
0.0
  0
LINE
  5
128
330
1B
100
AcDbEntity
  8
4
 62
     3
100
AcDbLine
 10
2651.917429141263
 20
156.9076809496935
 30
0.0
 11
2651.917429141263
 21
160.9076809496935
 31
0.0
  0
LINE
  5
129
330
1B
100
AcDbEntity
  8
4
 62
     3
100
AcDbLine
 10
2649.917429141263
 20
160.9076809496935
 30
0.0
 11
2651.917429141263
 21
160.9076809496935
 31
0.0
  0
LINE
  5
12A
330
1B
100
AcDbEntity
  8
4
 62
     3
100
AcDbLine
 10
2651.917429141263
 20
346.4076809496933
 30
0.0
 11
2651.917429141263
 21
386.4076809496933
 31
0.0
  0
LINE
  5
12B
330
1B
100
AcDbEntity
  8
4
 62
     3
100
AcDbLine
 10
2649.917429141263
 20
346.4076809496933
 30
0.0
 11
2651.917429141263
 21
346.4076809496933
 31
0.0
  0
LINE
  5
12C
330
1B
100
AcDbEntity
  8
CENTER
100
AcDbLine
 10
2664.886911589977
 20
366.4076809496933
 30
0.0
 11
2630.090279141264
 21
366.4076809496933
 31
0.0
  0
LINE
  5
12D
330
1B
100
AcDbEntity
  8
4
 62
     3
100
AcDbLine
 10
2649.917429141263
 20
366.4076809496933
 30
0.0
 11
2649.917429141263
 21
427.4076809496933
 31
0.0
  0
LINE
  5
12E
330
1B
100
AcDbEntity
  8
4
 62
     3
100
AcDbLine
 10
2649.917429141263
 20
386.4076809496933
 30
0.0
 11
2651.917429141263
 21
386.4076809496933
 31
0.0
  0
LINE
  5
12F
330
1B
100
AcDbEntity
  8
4
 62
     3
100
AcDbLine
 10
2637.917429141263
 20
427.4076809496933
 30
0.0
 11
2637.917429141263
 21
432.4076809496933
 31
0.0
  0
LINE
  5
130
330
1B
100
AcDbEntity
  8
4
100
AcDbLine
 10
1351.662421244032
 20
1797.771004521608
 30
0.0
 11
1351.662421244032
 21
1617.771004521608
 31
0.0
  0
LINE
  5
131
330
1B
100
AcDbEntity
  8
4
100
AcDbLine
 10
1310.662421244032
 20
1270.771004521608
 30
0.0
 11
1289.379951244032
 21
1270.771004521608
 31
0.0
  0
LINE
  5
132
330
1B
100
AcDbEntity
  8
4
100
AcDbLine
 10
1314.821356244032
 20
1617.771004521608
 30
0.0
 11
1369.271859081623
 21
1617.771004521608
 31
0.0
  0
LINE
  5
133
330
1B
100
AcDbEntity
  8
4
100
AcDbLine
 10
760.6624212440324
 20
1830.220469521608
 30
0.0
 11
760.6624212440324
 21
1902.771004521608
 31
0.0
  0
LINE
  5
134
330
1B
100
AcDbEntity
  8
CENTER
100
AcDbLine
 10
1278.739081244032
 20
1852.771004521608
 30
0.0
 11
1212.585761244032
 21
1852.771004521608
 31
0.0
  0
LINE
  5
135
330
1B
100
AcDbEntity
  8
4
100
AcDbLine
 10
1174.489326244032
 20
1797.771004521608
 30
0.0
 11
1369.062419244031
 21
1797.771004521608
 31
0.0
  0
LINE
  5
136
330
1B
100
AcDbEntity
  8
4
100
AcDbLine
 10
1310.662421244032
 20
1902.771004521608
 30
0.0
 11
1120.662421244032
 21
1902.771004521608
 31
0.0
  0
LINE
  5
137
330
1B
100
AcDbEntity
  8
CENTER
100
AcDbLine
 10
1245.662421244032
 20
1885.847664521608
 30
0.0
 11
1245.662421244032
 21
1819.694344521608
 31
0.0
  0
LINE
  5
138
330
1B
100
AcDbEntity
  8
4
100
AcDbLine
 10
1136.662421244032
 20
1902.771004521608
 30
0.0
 11
1136.662421244032
 21
1821.752449521608
 31
0.0
  0
LINE
  5
139
330
1B
100
AcDbEntity
  8
4
100
AcDbLine
 10
1120.662421244032
 20
1830.220469521608
 30
0.0
 11
1120.662421244032
 21
1902.771004521608
 31
0.0
  0
LINE
  5
13A
330
1B
100
AcDbEntity
  8
4
100
AcDbLine
 10
1136.662421244032
 20
1822.771004521608
 30
0.0
 11
1134.827216244033
 21
1822.771004521608
 31
0.0
  0
CIRCLE
  5
13B
330
1B
100
AcDbEntity
  8
4
100
AcDbCircle
 10
1245.662421244032
 20
1852.771004521608
 30
0.0
 40
13.0
  0
LINE
  5
13C
330
1B
100
AcDbEntity
  8
4
100
AcDbLine
 10
1310.662421244032
 20
1797.771004521608
 30
0.0
 11
1310.662421244032
 21
1902.771004521608
 31
0.0
  0
LINE
  5
13D
330
1B
100
AcDbEntity
  8
4
100
AcDbLine
 10
529.662421244032
 20
153.4076809496935
 30
0.0
 11
529.662421244032
 21
333.4076809496933
 31
0.0
  0
LINE
  5
13E
330
1B
100
AcDbEntity
  8
4
100
AcDbLine
 10
538.662421244032
 20
118.4076809496935
 30
0.0
 11
538.662421244032
 21
427.4076809496933
 31
0.0
  0
LINE
  5
13F
330
1B
100
AcDbEntity
  8
4
100
AcDbLine
 10
1342.662421244032
 20
118.4076809496935
 30
0.0
 11
1342.662421244032
 21
427.4076809496933
 31
0.0
  0
LINE
  5
140
330
1B
100
AcDbEntity
  8
L-CENTER
100
AcDbLine
 10
2531.15794580063
 20
289.6482037067217
 30
0.0
 11
2562.420596790021
 21
320.9108472998328
 31
0.0
  0
LINE
  5
141
330
1B
100
AcDbEntity
  8
4
100
AcDbLine
 10
2536.991312324193
 20
315.0774844744101
 30
0.0
 11
2533.405010435521
 21
301.6932236146054
 31
0.0
  0
CIRCLE
  5
142
330
1B
100
AcDbEntity
  8
4
100
AcDbCircle
 10
2546.789271295327
 20
305.2795255032775
 30
0.0
 40
12.0
  0
LINE
  5
143
330
1B
100
AcDbEntity
  8
4
100
AcDbLine
 10
2560.173532155131
 20
308.8658273919496
 30
0.0
 11
2550.375573183999
 21
318.6637863630822
 31
0.0
  0
LINE
  5
144
330
1B
100
AcDbEntity
  8
4
100
AcDbLine
 10
2543.202969406655
 20
291.8952646434723
 30
0.0
 11
2556.587230266459
 21
295.4815665321444
 31
0.0
  0
LINE
  5
145
330
1B
100
AcDbEntity
  8
4
100
AcDbLine
 10
2533.405010435521
 20
301.6932236146054
 30
0.0
 11
2543.202969406655
 21
291.8952646434723
 31
0.0
  0
LINE
  5
146
330
1B
100
AcDbEntity
  8
4
100
AcDbLine
 10
2556.587230266459
 20
295.4815665321444
 30
0.0
 11
2560.173532155131
 21
308.8658273919496
 31
0.0
  0
LINE
  5
147
330
1B
100
AcDbEntity
  8
4
100
AcDbLine
 10
2550.375573183999
 20
318.6637863630822
 30
0.0
 11
2536.991312324193
 21
315.0774844744101
 31
0.0
  0
CIRCLE
  5
148
330
1B
100
AcDbEntity
  8
L-CENTER
100
AcDbCircle
 10
2484.917429141263
 20
243.4076809496933
 30
0.0
 40
87.5
  0
LINE
  5
14F
330
1B
100
AcDbEntity
  8
L-CENTER
100
AcDbLine
 10
2531.157948849462
 20
197.1671612414966
 30
0.0
 11
2562.420596140713
 21
165.904513950245
 31
0.0
  0
LINE
  5
150
330
1B
100
AcDbEntity
  8
4
100
AcDbLine
 10
2556.587231466221
 20
191.3337965670034
 30
0.0
 11
2543.202970606415
 21
194.9200984556755
 31
0.0
  0
LINE
  5
151
330
1B
100
AcDbEntity
  8
4
100
AcDbLine
 10
2550.375574383759
 20
168.1515767360656
 30
0.0
 11
2560.173533354893
 21
177.9495357071992
 31
0.0
  0
CIRCLE
  5
152
330
1B
100
AcDbEntity
  8
4
100
AcDbCircle
 10
2546.789272495087
 20
181.5358375958708
 30
0.0
 40
12.0
  0
LINE
  5
153
330
1B
100
AcDbEntity
  8
4
100
AcDbLine
 10
2543.202970606415
 20
194.9200984556755
 30
0.0
 11
2533.405011635282
 21
185.1221394845429
 31
0.0
  0
LINE
  5
154
330
1B
100
AcDbEntity
  8
4
100
AcDbLine
 10
2536.991313523954
 20
171.7378786247386
 30
0.0
 11
2550.375574383759
 21
168.1515767360656
 31
0.0
  0
LINE
  5
155
330
1B
100
AcDbEntity
  8
4
100
AcDbLine
 10
2533.405011635282
 20
185.1221394845429
 30
0.0
 11
2536.991313523954
 21
171.7378786247386
 31
0.0
  0
LINE
  5
156
330
1B
100
AcDbEntity
  8
4
100
AcDbLine
 10
2560.173533354893
 20
177.9495357071992
 30
0.0
 11
2556.587231466221
 21
191.3337965670034
 31
0.0
  0
LINE
  5
157
330
1B
100
AcDbEntity
  8
4
100
AcDbLine
 10
2419.459280398768
 20
168.1515802360657
 30
0.0
 11
2432.843541258575
 21
171.7378821247378
 31
0.0
  0
CIRCLE
  5
158
330
1B
100
AcDbEntity
  8
4
100
AcDbCircle
 10
2423.045582287441
 20
181.5358410958706
 30
0.0
 40
12.0
  0
LINE
  5
159
330
1B
100
AcDbEntity
  8
4
100
AcDbLine
 10
2436.429843147247
 20
185.122142984543
 30
0.0
 11
2426.631884176113
 21
194.9201019556754
 31
0.0
  0
LINE
  5
15A
330
1B
100
AcDbEntity
  8
4
100
AcDbLine
 10
2413.247623316308
 20
191.3338000670033
 30
0.0
 11
2409.661321427636
 21
177.9495392071985
 31
0.0
  0
LINE
  5
15B
330
1B
100
AcDbEntity
  8
4
100
AcDbLine
 10
2409.661321427636
 20
177.9495392071985
 30
0.0
 11
2419.459280398768
 21
168.1515802360657
 31
0.0
  0
LINE
  5
15C
330
1B
100
AcDbEntity
  8
4
100
AcDbLine
 10
2426.631884176113
 20
194.9201019556754
 30
0.0
 11
2413.247623316308
 21
191.3338000670033
 31
0.0
  0
LINE
  5
15D
330
1B
100
AcDbEntity
  8
4
100
AcDbLine
 10
2432.843541258575
 20
171.7378821247378
 30
0.0
 11
2436.429843147247
 21
185.122142984543
 31
0.0
  0
LINE
  5
15E
330
1B
100
AcDbEntity
  8
L-CENTER
100
AcDbLine
 10
2407.414258641816
 20
165.9045174502446
 30
0.0
 11
2438.676905933067
 21
197.1671647414964
 31
0.0
  0
ARC
  5
15F
330
1B
100
AcDbEntity
  8
4
100
AcDbCircle
 10
2794.917427141264
 20
243.4076809496933
 30
0.0
 40
399.999985
100
AcDbArc
 50
168.7072470000001
 51
191.2931499999999
  0
ARC
  5
160
330
1B
100
AcDbEntity
  8
4
100
AcDbCircle
 10
2484.917429141263
 20
553.4074409496934
 30
0.0
 40
399.999943
100
AcDbArc
 50
258.7073500000001
 51
281.2935410000001
  0
ARC
  5
161
330
1B
100
AcDbEntity
  8
4
100
AcDbCircle
 10
2407.565378141263
 20
166.0553919496933
 30
0.0
 40
4.999910999999999
100
AcDbArc
 50
191.2945689999995
 51
258.7054310000055
  0
ARC
  5
162
330
1B
100
AcDbEntity
  8
4
100
AcDbCircle
 10
2562.269480141265
 20
166.0553919496933
 30
0.0
 40
4.999910999999999
100
AcDbArc
 50
281.2945689999945
 51
348.7054310000005
  0
ARC
  5
163
330
1B
100
AcDbEntity
  8
4
100
AcDbCircle
 10
2174.917431141264
 20
243.4076809496933
 30
0.0
 40
399.999894
100
AcDbArc
 50
348.7075629999999
 51
11.29315000000006
  0
ARC
  5
164
330
1B
100
AcDbEntity
  8
4
100
AcDbCircle
 10
2562.269480141265
 20
320.7599769496933
 30
0.0
 40
4.999910999999999
100
AcDbArc
 50
11.2945690000021
 51
78.70543100000558
  0
ARC
  5
165
330
1B
100
AcDbEntity
  8
4
100
AcDbCircle
 10
2484.917429141263
 20
-66.59207205030634
 30
0.0
 40
400.000013
100
AcDbArc
 50
78.70689099999996
 51
101.2931849999999
  0
ARC
  5
166
330
1B
100
AcDbEntity
  8
4
100
AcDbCircle
 10
2407.565378141263
 20
320.7599769496933
 30
0.0
 40
4.999910999999999
100
AcDbArc
 50
101.2945689999944
 51
168.7054309999979
  0
LINE
  5
167
330
1B
100
AcDbEntity
  8
L-CENTER
100
AcDbLine
 10
2407.436969716893
 20
320.8881403740652
 30
0.0
 11
2438.663357499061
 21
289.6617525918969
 31
0.0
  0
LINE
  5
168
330
1B
100
AcDbEntity
  8
4
100
AcDbLine
 10
2432.843544758574
 20
315.0774832746492
 30
0.0
 11
2419.45928389877
 21
318.6637851633213
 31
0.0
  0
LINE
  5
169
330
1B
100
AcDbEntity
  8
4
100
AcDbLine
 10
2426.631887676114
 20
291.895263443711
 30
0.0
 11
2436.429846647246
 21
301.6932224148445
 31
0.0
  0
CIRCLE
  5
16A
330
1B
100
AcDbEntity
  8
4
100
AcDbCircle
 10
2423.04558578744
 20
305.2795243035166
 30
0.0
 40
12.0
  0
LINE
  5
16B
330
1B
100
AcDbEntity
  8
4
100
AcDbLine
 10
2419.45928389877
 20
318.6637851633213
 30
0.0
 11
2409.661324927636
 21
308.8658261921887
 31
0.0
  0
LINE
  5
16C
330
1B
100
AcDbEntity
  8
4
100
AcDbLine
 10
2413.247626816308
 20
295.481565332384
 30
0.0
 11
2426.631887676114
 21
291.895263443711
 31
0.0
  0
LINE
  5
16D
330
1B
100
AcDbEntity
  8
4
100
AcDbLine
 10
2409.661324927636
 20
308.8658261921887
 30
0.0
 11
2413.247626816308
 21
295.481565332384
 31
0.0
  0
LINE
  5
16E
330
1B
100
AcDbEntity
  8
4
100
AcDbLine
 10
2436.429846647246
 20
301.6932224148445
 30
0.0
 11
2432.843544758574
 21
315.0774832746492
 31
0.0
  0
LINE
  5
16F
330
1B
100
AcDbEntity
  8
4
100
AcDbLine
 10
2651.917429141263
 20
349.4076839496934
 30
0.0
 11
2653.417424141263
 21
349.4076839496934
 31
0.0
  0
LINE
  5
170
330
1B
100
AcDbEntity
  8
4
100
AcDbLine
 10
2653.417424141263
 20
348.4076849496937
 30
0.0
 11
2660.417424141263
 21
348.4076849496937
 31
0.0
  0
LINE
  5
171
330
1B
100
AcDbEntity
  8
4
100
AcDbLine
 10
2655.417429141263
 20
357.4076829496935
 30
0.0
 11
2660.417424141263
 21
357.4076829496935
 31
0.0
  0
LINE
  5
172
330
1B
100
AcDbEntity
  8
4
100
AcDbLine
 10
2653.417424141263
 20
383.4076849496937
 30
0.0
 11
2651.917429141263
 21
383.4076849496937
 31
0.0
  0
LINE
  5
173
330
1B
100
AcDbEntity
  8
4
100
AcDbLine
 10
2653.417424141263
 20
384.4076839496934
 30
0.0
 11
2660.417424141263
 21
384.4076839496934
 31
0.0
  0
LINE
  5
174
330
1B
100
AcDbEntity
  8
4
100
AcDbLine
 10
2655.417429141263
 20
375.4076859496936
 30
0.0
 11
2660.417424141263
 21
375.4076859496936
 31
0.0
  0
LINE
  5
175
330
1B
100
AcDbEntity
  8
4
100
AcDbLine
 10
2655.417429141263
 20
384.4076839496934
 30
0.0
 11
2655.417429141263
 21
348.4076849496937
 31
0.0
  0
LINE
  5
176
330
1B
100
AcDbEntity
  8
4
100
AcDbLine
 10
2653.417424141263
 20
384.4076839496934
 30
0.0
 11
2653.417424141263
 21
348.4076849496937
 31
0.0
  0
LINE
  5
177
330
1B
100
AcDbEntity
  8
4
100
AcDbLine
 10
2651.917429141263
 20
383.4076849496937
 30
0.0
 11
2651.917429141263
 21
349.4076839496934
 31
0.0
  0
LINE
  5
178
330
1B
100
AcDbEntity
  8
4
100
AcDbLine
 10
2660.417424141263
 20
384.4076839496934
 30
0.0
 11
2660.417424141263
 21
348.4076849496937
 31
0.0
  0
LINE
  5
17C
330
1B
100
AcDbEntity
  8
4
100
AcDbLine
 10
1384.062425244032
 20
294.8872194581031
 30
0.0
 11
1384.062425244032
 21
315.6718291489301
 31
0.0
  0
ARC
  5
17D
330
1B
100
AcDbEntity
  8
4
100
AcDbCircle
 10
1365.741251670298
 20
305.2795243035166
 30
0.0
 40
18.32117357373317
100
AcDbArc
 50
337.7806898294696
 51
22.21931017052972
  0
LINE
  5
17E
330
1B
100
AcDbEntity
  8
4
100
AcDbLine
 10
1370.062425244032
 20
319.1359307640682
 30
0.0
 11
1370.062425244032
 21
291.4231178429659
 31
0.0
  0
LINE
  5
17F
330
1B
100
AcDbEntity
  8
4
100
AcDbLine
 10
1374.062425244032
 20
319.1359307640682
 30
0.0
 11
1374.062425244032
 21
291.4231178429659
 31
0.0
  0
LINE
  5
180
330
1B
100
AcDbEntity
  8
4
100
AcDbLine
 10
1370.062425244032
 20
154.4076859496936
 30
0.0
 11
1370.062425244032
 21
332.4076829496935
 31
0.0
  0
LINE
  5
183
330
1B
100
AcDbEntity
  8
4
100
AcDbLine
 10
1370.062425244033
 20
195.3922440564209
 30
0.0
 11
1382.701953339714
 21
195.3922440564211
 31
0.0
  0
LINE
  5
184
330
1B
100
AcDbEntity
  8
4
100
AcDbLine
 10
1382.701953339714
 20
167.6794311353187
 30
0.0
 11
1370.062425244033
 21
167.6794311353183
 31
0.0
  0
LINE
  5
185
330
1B
100
AcDbEntity
  8
4
100
AcDbLine
 10
1370.062425244033
 20
167.6794311353183
 30
0.0
 11
1370.062425244033
 21
195.3922440564209
 31
0.0
  0
ARC
  5
186
330
1B
100
AcDbEntity
  8
4
100
AcDbCircle
 10
1369.062419244031
 20
154.4076859496936
 30
0.0
 40
0.9999989999999999
100
AcDbArc
 50
270.0
 51
0.0
  0
LINE
  5
187
330
1B
100
AcDbEntity
  8
4
100
AcDbLine
 10
1374.062425244033
 20
167.6794311353183
 30
0.0
 11
1374.062425244033
 21
195.3922440564211
 31
0.0
  0
ARC
  5
188
330
1B
100
AcDbEntity
  8
4
100
AcDbCircle
 10
1378.971954886479
 20
191.9281424412839
 30
0.0
 40
5.090470357553002
100
AcDbArc
 50
317.1167115949158
 51
42.88328840508593
  0
LINE
  5
189
330
1B
100
AcDbEntity
  8
4
100
AcDbLine
 10
1384.062425244033
 20
191.9281424412839
 30
0.0
 11
1384.062425244033
 21
171.1435327504569
 31
0.0
  0
LINE
  5
18A
330
1B
100
AcDbEntity
  8
4
100
AcDbLine
 10
1382.701953339714
 20
188.4640408261457
 30
0.0
 11
1374.062425244033
 21
188.4640408261457
 31
0.0
  0
LINE
  5
18B
330
1B
100
AcDbEntity
  8
4
100
AcDbLine
 10
1382.701953339714
 20
174.607634365595
 30
0.0
 11
1374.062425244033
 21
174.607634365595
 31
0.0
  0
ARC
  5
18C
330
1B
100
AcDbEntity
  8
4
100
AcDbCircle
 10
1378.971954886479
 20
171.1435327504569
 30
0.0
 40
5.090470357553012
100
AcDbArc
 50
317.1167115949158
 51
42.88328840508593
  0
ARC
  5
18D
330
1B
100
AcDbEntity
  8
4
100
AcDbCircle
 10
1365.7412516703
 20
181.5358375958699
 30
0.0
 40
18.32117357373317
100
AcDbArc
 50
337.7806898294703
 51
22.2193101705313
  0
LINE
  5
190
330
1B
100
AcDbEntity
  8
4
100
AcDbLine
 10
1370.062425244032
 20
291.4231178429659
 30
0.0
 11
1382.701953339712
 21
291.4231178429659
 31
0.0
  0
ARC
  5
192
330
1B
100
AcDbEntity
  8
4
100
AcDbCircle
 10
1378.971954886479
 20
294.8872194581031
 30
0.0
 40
5.090470357553002
100
AcDbArc
 50
317.1167115949122
 51
42.8832884050878
  0
LINE
  5
193
330
1B
100
AcDbEntity
  8
4
100
AcDbLine
 10
1382.701953339712
 20
298.3513210732413
 30
0.0
 11
1374.062425244032
 21
298.3513210732413
 31
0.0
  0
LINE
  5
196
330
1B
100
AcDbEntity
  8
4
100
AcDbLine
 10
1382.701953339712
 20
319.1359307640682
 30
0.0
 11
1370.062425244032
 21
319.1359307640682
 31
0.0
  0
ARC
  5
197
330
1B
100
AcDbEntity
  8
4
100
AcDbCircle
 10
1369.062419244031
 20
332.4076829496935
 30
0.0
 40
0.9999989999999999
100
AcDbArc
 50
0.0
 51
90.0
  0
ARC
  5
198
330
1B
100
AcDbEntity
  8
4
100
AcDbCircle
 10
1378.971954886479
 20
315.6718291489301
 30
0.0
 40
5.090470357553012
100
AcDbArc
 50
317.1167115949122
 51
42.8832884050878
  0
LINE
  5
199
330
1B
100
AcDbEntity
  8
4
100
AcDbLine
 10
1382.701953339712
 20
312.207727533792
 30
0.0
 11
1374.062425244032
 21
312.207727533792
 31
0.0
  0
LINE
  5
19E
330
1B
100
AcDbEntity
  8
L-CENTER
100
AcDbLine
 10
1388.619313952185
 20
181.5358375958706
 30
0.0
 11
1329.120756531543
 21
181.5358375958692
 31
0.0
  0
LINE
  5
19F
330
1B
100
AcDbEntity
  8
L-CENTER
100
AcDbLine
 10
1388.619313952185
 20
305.2795243035166
 30
0.0
 11
1329.120756531541
 21
305.2795243035166
 31
0.0
  0
LINE
  5
1A0
330
1B
100
AcDbEntity
  8
4
100
AcDbLine
 10
507.2624242440324
 20
319.1359307640682
 30
0.0
 11
507.2624242440324
 21
291.4231178429654
 31
0.0
  0
LINE
  5
1A1
330
1B
100
AcDbEntity
  8
4
100
AcDbLine
 10
511.2624242440324
 20
319.1359307640682
 30
0.0
 11
511.2624242440324
 21
291.4231178429654
 31
0.0
  0
ARC
  5
1A2
330
1B
100
AcDbEntity
  8
4
100
AcDbCircle
 10
515.5835978177656
 20
305.2795243035162
 30
0.0
 40
18.32117357373317
100
AcDbArc
 50
157.7806898294704
 51
202.2193101705296
  0
LINE
  5
1A3
330
1B
100
AcDbEntity
  8
4
100
AcDbLine
 10
497.2624242440324
 20
294.8872194581027
 30
0.0
 11
497.2624242440324
 21
315.6718291489301
 31
0.0
  0
LINE
  5
1A4
330
1B
100
AcDbEntity
  8
4
100
AcDbLine
 10
498.6228961483521
 20
298.3513210732408
 30
0.0
 11
507.2624242440324
 21
298.3513210732408
 31
0.0
  0
LINE
  5
1A5
330
1B
100
AcDbEntity
  8
4
100
AcDbLine
 10
511.2624242440324
 20
291.4231178429654
 30
0.0
 11
498.6228961483521
 21
291.4231178429654
 31
0.0
  0
ARC
  5
1A6
330
1B
100
AcDbEntity
  8
4
100
AcDbCircle
 10
502.3528946015858
 20
294.8872194581027
 30
0.0
 40
5.090470357553002
100
AcDbArc
 50
137.1167115949141
 51
222.8832884050859
  0
LINE
  5
1A7
330
1B
100
AcDbEntity
  8
4
100
AcDbLine
 10
498.6228961483521
 20
312.2077275337915
 30
0.0
 11
507.2624242440324
 21
312.2077275337915
 31
0.0
  0
LINE
  5
1A8
330
1B
100
AcDbEntity
  8
4
100
AcDbLine
 10
498.6228961483521
 20
319.1359307640682
 30
0.0
 11
511.2624242440324
 21
319.1359307640682
 31
0.0
  0
ARC
  5
1A9
330
1B
100
AcDbEntity
  8
4
100
AcDbCircle
 10
502.3528946015858
 20
315.6718291489301
 30
0.0
 40
5.090470357553012
100
AcDbArc
 50
137.1167115949141
 51
222.8832884050859
  0
ARC
  5
1AA
330
1B
100
AcDbEntity
  8
4
100
AcDbCircle
 10
512.2624232440321
 20
332.4076829496935
 30
0.0
 40
0.9999989999999999
100
AcDbArc
 50
90.0
 51
180.0
  0
LINE
  5
1AB
330
1B
100
AcDbEntity
  8
4
100
AcDbLine
 10
511.2624242440324
 20
154.4076859496934
 30
0.0
 11
511.2624242440324
 21
332.4076829496935
 31
0.0
  0
LINE
  5
1AC
330
1B
100
AcDbEntity
  8
L-CENTER
100
AcDbLine
 10
490.468657988461
 20
305.2795243035162
 30
0.0
 11
552.2040929565228
 21
305.2795243035162
 31
0.0
  0
LINE
  5
1AD
330
1B
100
AcDbEntity
  8
L-CENTER
100
AcDbLine
 10
491.4817038663887
 20
181.5358375958704
 30
0.0
 11
552.2040929565219
 21
181.535837595869
 31
0.0
  0
LINE
  5
1AE
330
1B
100
AcDbEntity
  8
4
100
AcDbLine
 10
498.6228961483512
 20
167.6794311353185
 30
0.0
 11
511.2624242440315
 21
167.6794311353183
 31
0.0
  0
LINE
  5
1AF
330
1B
100
AcDbEntity
  8
4
100
AcDbLine
 10
498.6228961483512
 20
174.607634365595
 30
0.0
 11
507.2624242440315
 21
174.6076343655948
 31
0.0
  0
LINE
  5
1B0
330
1B
100
AcDbEntity
  8
4
100
AcDbLine
 10
498.6228961483512
 20
188.4640408261457
 30
0.0
 11
507.2624242440315
 21
188.4640408261455
 31
0.0
  0
LINE
  5
1B1
330
1B
100
AcDbEntity
  8
4
100
AcDbLine
 10
511.2624242440315
 20
195.3922440564206
 30
0.0
 11
498.6228961483512
 21
195.3922440564211
 31
0.0
  0
ARC
  5
1B2
330
1B
100
AcDbEntity
  8
4
100
AcDbCircle
 10
515.5835978177647
 20
181.5358375958699
 30
0.0
 40
18.32117357373317
100
AcDbArc
 50
157.7806898294688
 51
202.219310170528
  0
ARC
  5
1B3
330
1B
100
AcDbEntity
  8
4
100
AcDbCircle
 10
502.352894601584
 20
171.1435327504566
 30
0.0
 40
5.090470357553012
100
AcDbArc
 50
137.1167115949109
 51
222.8832884050859
  0
LINE
  5
1B4
330
1B
100
AcDbEntity
  8
4
100
AcDbLine
 10
497.2624242440315
 20
191.9281424412839
 30
0.0
 11
497.2624242440315
 21
171.1435327504566
 31
0.0
  0
ARC
  5
1B5
330
1B
100
AcDbEntity
  8
4
100
AcDbCircle
 10
502.3528946015849
 20
191.9281424412839
 30
0.0
 40
5.090470357553002
100
AcDbArc
 50
137.1167115949141
 51
222.8832884050859
  0
LINE
  5
1B6
330
1B
100
AcDbEntity
  8
4
100
AcDbLine
 10
511.2624242440315
 20
167.6794311353183
 30
0.0
 11
511.2624242440315
 21
195.3922440564206
 31
0.0
  0
LINE
  5
1B7
330
1B
100
AcDbEntity
  8
4
100
AcDbLine
 10
507.2624242440315
 20
167.6794311353183
 30
0.0
 11
507.2624242440315
 21
195.3922440564209
 31
0.0
  0
ARC
  5
1B8
330
1B
100
AcDbEntity
  8
4
100
AcDbCircle
 10
512.2624232440321
 20
154.4076859496934
 30
0.0
 40
0.9999989999999999
100
AcDbArc
 50
180.0
 51
270.0
  0
CIRCLE
  5
1B9
330
1B
100
AcDbEntity
  8
4
100
AcDbCircle
 10
940.6624212440306
 20
1470.771004521609
 30
0.0
 40
328.0
  0
CIRCLE
  5
1BA
330
1B
100
AcDbEntity
  8
4
100
AcDbCircle
 10
940.6624212440306
 20
1470.771004521609
 30
0.0
 40
347.9999999999999
  0
CIRCLE
  5
1BB
330
1B
100
AcDbEntity
  8
CENTER
100
AcDbCircle
 10
940.6624212440306
 20
1470.771004521609
 30
0.0
 40
370.0
  0
LINE
  5
1BC
330
1B
100
AcDbEntity
  8
CENTER
100
AcDbLine
 10
660.4041808873058
 20
1477.771004521608
 30
0.0
 11
980.4041808873058
 21
1477.771004521608
 31
0.0
  0
LINE
  5
1BD
330
1B
100
AcDbEntity
  8
CENTER
100
AcDbLine
 10
959.6624212440324
 20
1457.771004521608
 30
0.0
 11
1219.662421244031
 21
1457.771004521608
 31
0.0
  0
LINE
  5
1BE
330
1B
100
AcDbEntity
  8
CENTER
100
AcDbLine
 10
1089.662421244031
 20
1327.771004521608
 30
0.0
 11
1089.662421244031
 21
1587.771004521608
 31
0.0
  0
CIRCLE
  5
1BF
330
1B
100
AcDbEntity
  8
CENTER
100
AcDbCircle
 10
1089.662421244031
 20
1457.771004521609
 30
0.0
 40
90.0
  0
CIRCLE
  5
1C0
330
1B
100
AcDbEntity
  8
4
100
AcDbCircle
 10
1089.662421244031
 20
1457.771004521609
 30
0.0
 40
110.0
  0
LINE
  5
1C1
330
1B
100
AcDbEntity
  8
CENTER
100
AcDbLine
 10
820.4041808873058
 20
1637.771004521608
 30
0.0
 11
820.4041808873058
 21
1317.771004521608
 31
0.0
  0
CIRCLE
  5
1C2
330
1B
100
AcDbEntity
  8
CENTER
100
AcDbCircle
 10
820.4041808873058
 20
1477.771004521609
 30
0.0
 40
120.0
  0
CIRCLE
  5
1C3
330
1B
100
AcDbEntity
  8
4
100
AcDbCircle
 10
820.4041808873058
 20
1477.771004521609
 30
0.0
 40
140.0
  0
LINE
  5
1C4
330
1B
100
AcDbEntity
  8
CENTER
 48
3.0
100
AcDbLine
 10
1025.576541363983
 20
1494.771004521608
 30
0.0
 11
997.8637284428819
 21
1510.771004521608
 31
0.0
  0
LINE
  5
1C5
330
1B
100
AcDbEntity
  8
CENTER
 48
3.0
100
AcDbLine
 10
730.3375388937252
 20
1529.771004521608
 30
0.0
 11
702.6247259726238
 21
1545.771004521608
 31
0.0
  0
LINE
  5
1C6
330
1B
100
AcDbEntity
  8
CENTER
 48
3.0
100
AcDbLine
 10
730.3375388937252
 20
1425.771004521608
 30
0.0
 11
702.6247259726238
 21
1409.771004521608
 31
0.0
  0
LINE
  5
1C7
330
1B
100
AcDbEntity
  8
CENTER
 48
3.0
100
AcDbLine
 10
910.4708228808881
 20
1425.771004521608
 30
0.0
 11
938.1836358019896
 21
1409.771004521608
 31
0.0
  0
LINE
  5
1C8
330
1B
100
AcDbEntity
  8
CENTER
 48
3.0
100
AcDbLine
 10
910.4708228808881
 20
1529.771004521608
 30
0.0
 11
938.1836358019896
 21
1545.771004521608
 31
0.0
  0
LINE
  5
1C9
330
1B
100
AcDbEntity
  8
CENTER
 48
3.0
100
AcDbLine
 10
1025.576541363983
 20
1420.771004521608
 30
0.0
 11
997.8637284428819
 21
1404.771004521608
 31
0.0
  0
LINE
  5
1CA
330
1B
100
AcDbEntity
  8
CENTER
 48
3.0
100
AcDbLine
 10
1153.74830112408
 20
1420.771004521608
 30
0.0
 11
1181.461114045183
 21
1404.771004521608
 31
0.0
  0
LINE
  5
1CB
330
1B
100
AcDbEntity
  8
CENTER
 48
3.0
100
AcDbLine
 10
1153.74830112408
 20
1494.771004521608
 30
0.0
 11
1181.461114045183
 21
1510.771004521608
 31
0.0
  0
LINE
  5
1CC
330
1B
100
AcDbEntity
  8
CENTER
100
AcDbLine
 10
900.6624212440324
 20
1750.771004521609
 30
0.0
 11
980.6624212440324
 21
1750.771004521609
 31
0.0
  0
ARC
  5
1CD
330
1B
100
AcDbEntity
  8
4
100
AcDbCircle
 10
940.6624212440306
 20
1750.771004521609
 30
0.0
 40
25.0
100
AcDbArc
 50
113.5781784781973
 51
246.4218215218027
  0
LINE
  5
1CE
330
1B
100
AcDbEntity
  8
4
100
AcDbLine
 10
1857.917429141263
 20
452.4076809496933
 30
0.0
 11
1857.917429141263
 21
432.4076809496933
 31
0.0
  0
LINE
  5
1CF
330
1B
100
AcDbEntity
  8
4
100
AcDbLine
 10
2637.917429141263
 20
452.4076809496933
 30
0.0
 11
2637.917429141263
 21
432.4076809496933
 31
0.0
  0
LINE
  5
1D0
330
1B
100
AcDbEntity
  8
4
100
AcDbLine
 10
1899.917429141263
 20
467.4076809496933
 30
0.0
 11
2595.917429141263
 21
467.4076809496933
 31
0.0
  0
LINE
  5
1D1
330
1B
100
AcDbEntity
  8
4
100
AcDbLine
 10
1899.917429141263
 20
467.4076809496933
 30
0.0
 11
1899.917429141263
 21
452.4076809496933
 31
0.0
  0
LINE
  5
1D2
330
1B
100
AcDbEntity
  8
4
100
AcDbLine
 10
2595.917429141263
 20
467.4076809496933
 30
0.0
 11
2595.917429141263
 21
452.4076809496933
 31
0.0
  0
LINE
  5
1D3
330
1B
100
AcDbEntity
  8
4
100
AcDbLine
 10
1857.917429141263
 20
452.4076809496933
 30
0.0
 11
2637.917429141263
 21
452.4076809496933
 31
0.0
  0
LINE
  5
1D4
330
1B
100
AcDbEntity
  8
4
100
AcDbLine
 10
2114.917429141263
 20
473.4076809496933
 30
0.0
 11
2394.917429141263
 21
473.4076809496933
 31
0.0
  0
LINE
  5
1D5
330
1B
100
AcDbEntity
  8
CENTER
100
AcDbLine
 10
701.4547510121806
 20
1709.978674753459
 30
0.0
 11
656.6110733978362
 21
1754.822352367803
 31
0.0
  0
LINE
  5
1D6
330
1B
100
AcDbEntity
  8
CENTER
100
AcDbLine
 10
1179.870091475882
 20
1709.978674753459
 30
0.0
 11
1224.713769090227
 21
1754.822352367803
 31
0.0
  0
LINE
  5
1D7
330
1B
100
AcDbEntity
  8
CENTER
100
AcDbLine
 10
1179.870091475882
 20
1231.563334289757
 30
0.0
 11
1224.713769090227
 21
1186.719656675413
 31
0.0
  0
LINE
  5
1D8
330
1B
100
AcDbEntity
  8
CENTER
100
AcDbLine
 10
701.4547510121806
 20
1231.563334289757
 30
0.0
 11
656.6110733978362
 21
1186.719656675413
 31
0.0
  0
LINE
  5
1D9
330
1B
100
AcDbEntity
  8
CENTER
100
AcDbLine
 10
820.4041808873058
 20
698.8031403981781
 30
0.0
 11
820.4041808873058
 21
100.3179721388128
 31
0.0
  0
LINE
  5
1DA
330
1B
100
AcDbEntity
  8
4
100
AcDbLine
 10
592.662421244032
 20
467.4076809496933
 30
0.0
 11
1288.662421244032
 21
467.4076809496933
 31
0.0
  0
LINE
  5
1DB
330
1B
100
AcDbEntity
  8
4
100
AcDbLine
 10
550.6624212440311
 20
452.4076809496933
 30
0.0
 11
1330.662421244032
 21
452.4076809496933
 31
0.0
  0
LINE
  5
1DC
330
1B
100
AcDbEntity
  8
4
100
AcDbLine
 10
680.4041808873058
 20
473.4076809496933
 30
0.0
 11
918.6873213606773
 21
473.4076809496933
 31
0.0
  0
LINE
  5
1DD
330
1B
100
AcDbEntity
  8
4
100
AcDbLine
 10
550.6624212440311
 20
452.4076809496933
 30
0.0
 11
550.662421244032
 21
432.4076809496933
 31
0.0
  0
LINE
  5
1DE
330
1B
100
AcDbEntity
  8
4
100
AcDbLine
 10
592.662421244032
 20
467.4076809496933
 30
0.0
 11
592.662421244032
 21
452.4076809496933
 31
0.0
  0
LINE
  5
1DF
330
1B
100
AcDbEntity
  8
4
100
AcDbLine
 10
680.4041808873094
 20
488.8076809496938
 30
0.0
 11
680.4041808873058
 21
467.4076809496933
 31
0.0
  0
LINE
  5
1E0
330
1B
100
AcDbEntity
  8
CENTER
100
AcDbLine
 10
1089.662421244032
 20
97.04320155289452
 30
0.0
 11
1089.662421244032
 21
504.8987498486126
 31
0.0
  0
LINE
  5
1E1
330
1B
100
AcDbEntity
  8
CENTER
100
AcDbLine
 10
1310.662421244032
 20
472.7955955426473
 30
0.0
 11
1310.662421244032
 21
419.4076809496933
 31
0.0
  0
LINE
  5
1E2
330
1B
100
AcDbEntity
  8
4
100
AcDbLine
 10
979.6624212440324
 20
473.4076809496933
 30
0.0
 11
1199.662421244032
 21
473.4076809496933
 31
0.0
  0
LINE
  5
1E3
330
1B
100
AcDbEntity
  8
4
100
AcDbLine
 10
960.4041808873094
 20
488.8076809496947
 30
0.0
 11
960.4041808873076
 21
485.5207933331271
 31
0.0
  0
LINE
  5
1E4
330
1B
100
AcDbEntity
  8
4
100
AcDbLine
 10
979.6624212440361
 20
488.8076809496947
 30
0.0
 11
979.6624212440306
 21
467.4076809496933
 31
0.0
  0
LINE
  5
1E5
330
1B
100
AcDbEntity
  8
4
100
AcDbLine
 10
1199.662421244029
 20
488.8076809496947
 30
0.0
 11
1199.662421244032
 21
467.4076809496933
 31
0.0
  0
LINE
  5
1E6
330
1B
100
AcDbEntity
  8
4
100
AcDbLine
 10
1288.662421244032
 20
467.4076809496933
 30
0.0
 11
1288.662421244032
 21
452.4076809496933
 31
0.0
  0
LINE
  5
1E7
330
1B
100
AcDbEntity
  8
4
100
AcDbLine
 10
1330.662421244032
 20
452.4076809496933
 30
0.0
 11
1330.662421244032
 21
432.4076809496933
 31
0.0
  0
LINE
  5
1E8
330
1B
100
AcDbEntity
  8
4
100
AcDbLine
 10
705.8432511776932
 20
488.8076809496938
 30
0.0
 11
727.7825614069002
 21
488.8076809496938
 31
0.0
  0
LINE
  5
1E9
330
1B
100
AcDbEntity
  8
4
100
AcDbLine
 10
705.8432511776932
 20
491.8076809496938
 30
0.0
 11
727.7825614069002
 21
491.8076809496938
 31
0.0
  0
ARC
  5
1EA
330
1B
100
AcDbEntity
  8
4
100
AcDbCircle
 10
716.8129062922976
 20
486.0119368145165
 30
0.0
 40
13.7957441351769
100
AcDbArc
 50
66.57340249137673
 51
113.4265975086313
  0
LINE
  5
1EB
330
1B
100
AcDbEntity
  8
4
100
AcDbLine
 10
725.0401476282491
 20
499.8076809496938
 30
0.0
 11
708.5856649563443
 21
499.8076809496938
 31
0.0
  0
ARC
  5
1EC
330
1B
100
AcDbEntity
  8
4
100
AcDbCircle
 10
708.5856649563443
 20
495.9323020744146
 30
0.0
 40
3.875378875279244
100
AcDbArc
 50
44.95592676273806
 51
135.0440732372477
  0
LINE
  5
1ED
330
1B
100
AcDbEntity
  8
4
100
AcDbLine
 10
711.3280787349954
 20
498.6705000390671
 30
0.0
 11
711.3280787349954
 21
491.8076809496938
 31
0.0
  0
LINE
  5
1EE
330
1B
100
AcDbEntity
  8
4
100
AcDbLine
 10
705.8432511776932
 20
498.6705000390671
 30
0.0
 11
705.8432511776932
 21
488.8076809496938
 31
0.0
  0
ARC
  5
1EF
330
1B
100
AcDbEntity
  8
4
100
AcDbCircle
 10
725.0401476282491
 20
495.9323020744146
 30
0.0
 40
3.875378875279264
100
AcDbArc
 50
44.95592676273806
 51
135.0440732372477
  0
LINE
  5
1F0
330
1B
100
AcDbEntity
  8
4
100
AcDbLine
 10
722.297733849598
 20
498.6705000390671
 30
0.0
 11
722.297733849598
 21
491.8076809496938
 31
0.0
  0
LINE
  5
1F1
330
1B
100
AcDbEntity
  8
4
100
AcDbLine
 10
727.7825614069002
 20
488.8076809496938
 30
0.0
 11
727.7825614069002
 21
498.6705000390671
 31
0.0
  0
LINE
  5
1F2
330
1B
100
AcDbEntity
  8
L-CENTER
100
AcDbLine
 10
716.8129062922976
 20
503.4085208297979
 30
0.0
 11
716.8129062922976
 21
450.3249866226574
 31
0.0
  0
ARC
  5
1F3
330
1B
100
AcDbEntity
  8
4
100
AcDbCircle
 10
812.1769395513543
 20
495.9323020744146
 30
0.0
 40
3.875378875279244
100
AcDbArc
 50
44.95592676275351
 51
135.044073237262
  0
LINE
  5
1F4
330
1B
100
AcDbEntity
  8
4
100
AcDbLine
 10
828.631422223259
 20
499.8076809496938
 30
0.0
 11
812.1769395513543
 21
499.8076809496938
 31
0.0
  0
LINE
  5
1F5
330
1B
100
AcDbEntity
  8
4
100
AcDbLine
 10
809.4345257727032
 20
491.8076809496938
 30
0.0
 11
831.3738360019083
 21
491.8076809496938
 31
0.0
  0
LINE
  5
1F6
330
1B
100
AcDbEntity
  8
4
100
AcDbLine
 10
809.4345257727032
 20
488.8076809496938
 30
0.0
 11
831.3738360019083
 21
488.8076809496938
 31
0.0
  0
LINE
  5
1F7
330
1B
100
AcDbEntity
  8
4
100
AcDbLine
 10
809.4345257727032
 20
498.6705000390671
 30
0.0
 11
809.4345257727032
 21
488.8076809496938
 31
0.0
  0
ARC
  5
1F8
330
1B
100
AcDbEntity
  8
4
100
AcDbCircle
 10
828.631422223259
 20
495.9323020744146
 30
0.0
 40
3.875378875279264
100
AcDbArc
 50
44.95592676275351
 51
135.044073237262
  0
ARC
  5
1F9
330
1B
100
AcDbEntity
  8
4
100
AcDbCircle
 10
820.4041808873058
 20
486.0119368145165
 30
0.0
 40
13.7957441351769
100
AcDbArc
 50
66.57340249136868
 51
113.4265975086271
  0
LINE
  5
1FA
330
1B
100
AcDbEntity
  8
4
100
AcDbLine
 10
814.9193533300054
 20
498.6705000390671
 30
0.0
 11
814.9193533300054
 21
491.8076809496938
 31
0.0
  0
LINE
  5
1FB
330
1B
100
AcDbEntity
  8
4
100
AcDbLine
 10
831.3738360019083
 20
488.8076809496938
 30
0.0
 11
831.3738360019083
 21
498.6705000390671
 31
0.0
  0
LINE
  5
1FC
330
1B
100
AcDbEntity
  8
4
100
AcDbLine
 10
825.889008444608
 20
498.6705000390671
 30
0.0
 11
825.889008444608
 21
491.8076809496938
 31
0.0
  0
LINE
  5
1FD
330
1B
100
AcDbEntity
  8
4
100
AcDbLine
 10
750.4041808873058
 20
489.8076809496938
 30
0.0
 11
809.4345257727032
 21
489.8076809496938
 31
0.0
  0
LINE
  5
1FE
330
1B
100
AcDbEntity
  8
4
100
AcDbLine
 10
765.4041808873058
 20
503.4076809496933
 30
0.0
 11
875.4041808873058
 21
503.4076809496933
 31
0.0
  0
LINE
  5
1FF
330
1B
100
AcDbEntity
  8
4
100
AcDbLine
 10
750.4041808873058
 20
488.8076809496938
 30
0.0
 11
750.4041808873058
 21
489.8076809496938
 31
0.0
  0
LINE
  5
200
330
1B
100
AcDbEntity
  8
4
100
AcDbLine
 10
765.4041808873058
 20
503.4076809496933
 30
0.0
 11
765.4041808873058
 21
489.8076809496938
 31
0.0
  0
ARC
  5
201
330
1B
100
AcDbEntity
  8
4
100
AcDbCircle
 10
765.4041808873058
 20
505.9076809496933
 30
0.0
 40
2.5
100
AcDbArc
 50
270.0
 51
0.0
  0
LINE
  5
202
330
1B
100
AcDbEntity
  8
4
100
AcDbLine
 10
820.4041808873058
 20
513.4076809496933
 30
0.0
 11
820.4041808873058
 21
513.4076809496933
 31
0.0
  0
ARC
  5
203
330
1B
100
AcDbEntity
  8
4
100
AcDbCircle
 10
875.4041808873058
 20
505.9076809496933
 30
0.0
 40
2.5
100
AcDbArc
 50
180.0
 51
270.0
  0
LINE
  5
204
330
1B
100
AcDbEntity
  8
4
100
AcDbLine
 10
890.4041808873058
 20
488.8076809496947
 30
0.0
 11
890.4041808873058
 21
489.8076809496947
 31
0.0
  0
LINE
  5
205
330
1B
100
AcDbEntity
  8
4
100
AcDbLine
 10
875.4041808873058
 20
503.4076809496933
 30
0.0
 11
875.4041808873058
 21
489.8076809496947
 31
0.0
  0
LINE
  5
206
330
1B
100
AcDbEntity
  8
4
100
AcDbLine
 10
918.5106279250135
 20
498.6705000390671
 30
0.0
 11
918.5106279250135
 21
491.8076809496938
 31
0.0
  0
ARC
  5
207
330
1B
100
AcDbEntity
  8
4
100
AcDbCircle
 10
915.7682141463624
 20
495.9323020744146
 30
0.0
 40
3.875378875279264
100
AcDbArc
 50
44.95592676273806
 51
135.0440732372465
  0
LINE
  5
208
330
1B
100
AcDbEntity
  8
4
100
AcDbLine
 10
913.0258003677131
 20
488.8076809496938
 30
0.0
 11
913.0258003677131
 21
498.6705000390671
 31
0.0
  0
LINE
  5
209
330
1B
100
AcDbEntity
  8
4
100
AcDbLine
 10
929.4802830396161
 20
498.6705000390671
 30
0.0
 11
929.4802830396161
 21
491.8076809496938
 31
0.0
  0
ARC
  5
20A
330
1B
100
AcDbEntity
  8
4
100
AcDbCircle
 10
932.2226968182672
 20
495.9323020744146
 30
0.0
 40
3.875378875279244
100
AcDbArc
 50
113.7416584781166
 51
135.0440732372465
  0
LINE
  5
20B
330
1B
100
AcDbEntity
  8
4
100
AcDbLine
 10
915.7682141463624
 20
499.8076809496938
 30
0.0
 11
930.6624172440311
 21
499.8076809496938
 31
0.0
  0
ARC
  5
20C
330
1B
100
AcDbEntity
  8
4
100
AcDbCircle
 10
923.9954554823157
 20
486.0119368145165
 30
0.0
 40
13.7957441351769
100
AcDbArc
 50
66.57340249137289
 51
113.4265975086313
  0
LINE
  5
20D
330
1B
100
AcDbEntity
  8
4
100
AcDbLine
 10
930.6624172440311
 20
491.8076809496938
 30
0.0
 11
913.0258003677131
 21
491.8076809496938
 31
0.0
  0
LINE
  5
20E
330
1B
100
AcDbEntity
  8
4
100
AcDbLine
 10
930.6624172440311
 20
488.8076809496938
 30
0.0
 11
913.0258003677131
 21
488.8076809496938
 31
0.0
  0
LINE
  5
20F
330
1B
100
AcDbEntity
  8
L-CENTER
100
AcDbLine
 10
923.9954554823157
 20
503.4085208297979
 30
0.0
 11
923.9954554823157
 21
450.3249866226574
 31
0.0
  0
LINE
  5
210
330
1B
100
AcDbEntity
  8
4
100
AcDbLine
 10
680.4041808873058
 20
488.8076809496938
 30
0.0
 11
809.4345257727032
 21
488.8076809496943
 31
0.0
  0
LINE
  5
211
330
1B
100
AcDbEntity
  8
4
100
AcDbLine
 10
767.9041808873058
 20
681.4076809496933
 30
0.0
 11
767.9041808873058
 21
505.9076809496933
 31
0.0
  0
LINE
  5
212
330
1B
100
AcDbEntity
  8
4
100
AcDbLine
 10
834.4041808873058
 20
683.4076809496933
 30
0.0
 11
834.4041808873058
 21
527.4076809496933
 31
0.0
  0
LINE
  5
213
330
1B
100
AcDbEntity
  8
4
100
AcDbLine
 10
872.9041808873058
 20
681.4076809496933
 30
0.0
 11
872.9041808873058
 21
505.9076809496933
 31
0.0
  0
LINE
  5
214
330
1B
100
AcDbEntity
  8
4
100
AcDbLine
 10
806.4041808873058
 20
683.4076809496933
 30
0.0
 11
806.4041808873058
 21
527.4076809496933
 31
0.0
  0
ARC
  5
215
330
1B
100
AcDbEntity
  8
4
100
AcDbCircle
 10
820.4041808873058
 20
527.4076809496933
 30
0.0
 40
14.0
100
AcDbArc
 50
180.0
 51
270.0
  0
ARC
  5
216
330
1B
100
AcDbEntity
  8
4
100
AcDbCircle
 10
820.4041808873058
 20
527.4076809496933
 30
0.0
 40
14.0
100
AcDbArc
 50
270.0
 51
0.0
  0
LINE
  5
217
330
1B
100
AcDbEntity
  8
4
100
AcDbLine
 10
834.4041808873058
 20
681.4076809496933
 30
0.0
 11
872.9041808873058
 21
681.4076809496933
 31
0.0
  0
LINE
  5
218
330
1B
100
AcDbEntity
  8
4
100
AcDbLine
 10
769.9041808873058
 20
683.4076809496933
 30
0.0
 11
870.9041808873058
 21
683.4076809496933
 31
0.0
  0
LINE
  5
219
330
1B
100
AcDbEntity
  8
4
100
AcDbLine
 10
767.9041808873058
 20
681.4076809496933
 30
0.0
 11
806.4041808873058
 21
681.4076809496933
 31
0.0
  0
LINE
  5
21A
330
1B
100
AcDbEntity
  8
4
100
AcDbLine
 10
767.9041808873058
 20
681.4076809496933
 30
0.0
 11
769.9041808873058
 21
683.4076809496933
 31
0.0
  0
LINE
  5
21B
330
1B
100
AcDbEntity
  8
4
100
AcDbLine
 10
870.9041808873058
 20
683.4076809496933
 30
0.0
 11
872.9041808873058
 21
681.4076809496933
 31
0.0
  0
LINE
  5
21C
330
1B
100
AcDbEntity
  8
4
100
AcDbLine
 10
979.6624212440324
 20
488.8076809496947
 30
0.0
 11
1199.662421244032
 21
488.8076809496947
 31
0.0
  0
LINE
  5
21D
330
1B
100
AcDbEntity
  8
4
100
AcDbLine
 10
1078.692766129428
 20
488.8076809496947
 30
0.0
 11
1100.632076358635
 21
488.8076809496947
 31
0.0
  0
LINE
  5
21E
330
1B
100
AcDbEntity
  8
4
100
AcDbLine
 10
1097.889662579984
 20
499.8076809496947
 30
0.0
 11
1081.435179908079
 21
499.8076809496947
 31
0.0
  0
ARC
  5
21F
330
1B
100
AcDbEntity
  8
4
100
AcDbCircle
 10
1089.662421244032
 20
486.0119368145174
 30
0.0
 40
13.7957441351769
100
AcDbArc
 50
66.57340249137289
 51
113.4265975086313
  0
LINE
  5
220
330
1B
100
AcDbEntity
  8
4
100
AcDbLine
 10
1078.692766129428
 20
491.8076809496947
 30
0.0
 11
1100.632076358635
 21
491.8076809496947
 31
0.0
  0
LINE
  5
221
330
1B
100
AcDbEntity
  8
4
100
AcDbLine
 10
1000.340390968831
 20
488.8076809496947
 30
0.0
 11
1022.279701198036
 21
488.8076809496947
 31
0.0
  0
LINE
  5
222
330
1B
100
AcDbEntity
  8
4
100
AcDbLine
 10
1000.340390968831
 20
491.8076809496947
 30
0.0
 11
1022.279701198036
 21
491.8076809496947
 31
0.0
  0
ARC
  5
223
330
1B
100
AcDbEntity
  8
4
100
AcDbCircle
 10
1011.310046083433
 20
486.0119368145174
 30
0.0
 40
13.7957441351769
100
AcDbArc
 50
66.57340249137289
 51
113.4265975086313
  0
LINE
  5
224
330
1B
100
AcDbEntity
  8
4
100
AcDbLine
 10
1019.537287419387
 20
499.8076809496947
 30
0.0
 11
1003.082804747482
 21
499.8076809496947
 31
0.0
  0
ARC
  5
225
330
1B
100
AcDbEntity
  8
4
100
AcDbCircle
 10
1003.082804747482
 20
495.9323020744155
 30
0.0
 40
3.875378875279244
100
AcDbArc
 50
44.95592676275351
 51
135.044073237262
  0
ARC
  5
226
330
1B
100
AcDbEntity
  8
4
100
AcDbCircle
 10
1019.537287419387
 20
495.9323020744155
 30
0.0
 40
3.875378875279264
100
AcDbArc
 50
44.95592676275351
 51
135.044073237262
  0
LINE
  5
227
330
1B
100
AcDbEntity
  8
4
100
AcDbLine
 10
1005.825218526133
 20
498.670500039068
 30
0.0
 11
1005.825218526133
 21
491.8076809496947
 31
0.0
  0
LINE
  5
228
330
1B
100
AcDbEntity
  8
4
100
AcDbLine
 10
1000.340390968831
 20
498.670500039068
 30
0.0
 11
1000.340390968831
 21
488.8076809496947
 31
0.0
  0
LINE
  5
229
330
1B
100
AcDbEntity
  8
4
100
AcDbLine
 10
1016.794873640736
 20
498.670500039068
 30
0.0
 11
1016.794873640736
 21
491.8076809496947
 31
0.0
  0
LINE
  5
22A
330
1B
100
AcDbEntity
  8
4
100
AcDbLine
 10
1022.279701198036
 20
488.8076809496947
 30
0.0
 11
1022.279701198036
 21
498.670500039068
 31
0.0
  0
ARC
  5
22B
330
1B
100
AcDbEntity
  8
4
100
AcDbCircle
 10
1081.435179908079
 20
495.9323020744155
 30
0.0
 40
3.875378875279244
100
AcDbArc
 50
44.95592676273806
 51
135.0440732372453
  0
LINE
  5
22C
330
1B
100
AcDbEntity
  8
4
100
AcDbLine
 10
1078.692766129428
 20
498.670500039068
 30
0.0
 11
1078.692766129428
 21
488.8076809496947
 31
0.0
  0
LINE
  5
22D
330
1B
100
AcDbEntity
  8
4
100
AcDbLine
 10
1084.17759368673
 20
498.670500039068
 30
0.0
 11
1084.17759368673
 21
491.8076809496947
 31
0.0
  0
ARC
  5
22E
330
1B
100
AcDbEntity
  8
4
100
AcDbCircle
 10
1097.889662579984
 20
495.9323020744155
 30
0.0
 40
3.875378875279264
100
AcDbArc
 50
44.95592676273806
 51
135.0440732372453
  0
LINE
  5
22F
330
1B
100
AcDbEntity
  8
4
100
AcDbLine
 10
1100.632076358635
 20
488.8076809496947
 30
0.0
 11
1100.632076358635
 21
498.670500039068
 31
0.0
  0
LINE
  5
230
330
1B
100
AcDbEntity
  8
4
100
AcDbLine
 10
1095.147248801333
 20
498.670500039068
 30
0.0
 11
1095.147248801333
 21
491.8076809496947
 31
0.0
  0
LINE
  5
231
330
1B
100
AcDbEntity
  8
4
100
AcDbLine
 10
1162.529968847327
 20
498.6705000390698
 30
0.0
 11
1162.529968847327
 21
491.8076809496965
 31
0.0
  0
LINE
  5
232
330
1B
100
AcDbEntity
  8
4
100
AcDbLine
 10
1173.49962396193
 20
498.6705000390707
 30
0.0
 11
1173.49962396193
 21
491.8076809496974
 31
0.0
  0
ARC
  5
233
330
1B
100
AcDbEntity
  8
4
100
AcDbCircle
 10
1159.787555068676
 20
495.9323020744173
 30
0.0
 40
3.875378875279264
100
AcDbArc
 50
44.9559267627547
 51
135.044073237262
  0
ARC
  5
234
330
1B
100
AcDbEntity
  8
4
100
AcDbCircle
 10
1176.242037740581
 20
495.9323020744182
 30
0.0
 40
3.875378875279244
100
AcDbArc
 50
44.9559267627547
 51
135.044073237262
  0
LINE
  5
235
330
1B
100
AcDbEntity
  8
4
100
AcDbLine
 10
1159.787555068676
 20
499.8076809496965
 30
0.0
 11
1176.242037740581
 21
499.8076809496974
 31
0.0
  0
ARC
  5
236
330
1B
100
AcDbEntity
  8
4
100
AcDbCircle
 10
1168.014796404628
 20
486.0119368145192
 30
0.0
 40
13.7957441351769
100
AcDbArc
 50
66.57340249137289
 51
113.4265975086271
  0
LINE
  5
237
330
1B
100
AcDbEntity
  8
4
100
AcDbLine
 10
1178.984451519232
 20
491.8076809496974
 30
0.0
 11
1157.045141290025
 21
491.8076809496965
 31
0.0
  0
LINE
  5
238
330
1B
100
AcDbEntity
  8
4
100
AcDbLine
 10
1178.984451519232
 20
488.8076809496974
 30
0.0
 11
1157.045141290025
 21
488.8076809496965
 31
0.0
  0
LINE
  5
239
330
1B
100
AcDbEntity
  8
4
100
AcDbLine
 10
1157.045141290025
 20
488.8076809496965
 30
0.0
 11
1157.045141290025
 21
498.6705000390698
 31
0.0
  0
LINE
  5
23A
330
1B
100
AcDbEntity
  8
4
100
AcDbLine
 10
1178.984451519232
 20
498.6705000390707
 30
0.0
 11
1178.984451519232
 21
488.8076809496974
 31
0.0
  0
LINE
  5
23B
330
1B
100
AcDbEntity
  8
L-CENTER
100
AcDbLine
 10
1168.014796404628
 20
503.4085208298006
 30
0.0
 11
1168.01479640463
 21
450.3249866226602
 31
0.0
  0
LINE
  5
23C
330
1B
100
AcDbEntity
  8
L-CENTER
100
AcDbLine
 10
1011.310046083433
 20
503.4085208297988
 30
0.0
 11
1011.310046083433
 21
450.3249866226583
 31
0.0
  0
LINE
  5
23D
330
1B
100
AcDbEntity
  8
4
100
AcDbLine
 10
831.3738360019083
 20
488.8076809496943
 30
0.0
 11
930.6624172440311
 21
488.8076809496947
 31
0.0
  0
LINE
  5
23E
330
1B
100
AcDbEntity
  8
4
100
AcDbLine
 10
831.3738360019083
 20
489.8076809496938
 30
0.0
 11
890.4041808873058
 21
489.8076809496938
 31
0.0
  0
LINE
  5
23F
330
1B
100
AcDbEntity
  8
4
100
AcDbLine
 10
760.6624212440324
 20
114.4076809496942
 30
0.0
 11
960.4041808873058
 21
114.4076809496939
 31
0.0
  0
LINE
  5
240
330
1B
100
AcDbEntity
  8
4
100
AcDbLine
 10
809.4345257727032
 20
111.407680949693
 30
0.0
 11
831.3738360019083
 21
111.407680949693
 31
0.0
  0
LINE
  5
241
330
1B
100
AcDbEntity
  8
4
100
AcDbLine
 10
809.4345257727032
 20
114.407680949693
 30
0.0
 11
831.3738360019083
 21
114.407680949693
 31
0.0
  0
ARC
  5
242
330
1B
100
AcDbEntity
  8
4
100
AcDbCircle
 10
812.1769395513543
 20
107.2830598249723
 30
0.0
 40
3.875378875279244
100
AcDbArc
 50
224.9559267627369
 51
315.0440732372441
  0
LINE
  5
243
330
1B
100
AcDbEntity
  8
4
100
AcDbLine
 10
828.631422223259
 20
103.407680949693
 30
0.0
 11
812.1769395513543
 21
103.407680949693
 31
0.0
  0
LINE
  5
244
330
1B
100
AcDbEntity
  8
4
100
AcDbLine
 10
809.4345257727032
 20
104.5448618603198
 30
0.0
 11
809.4345257727032
 21
114.407680949693
 31
0.0
  0
ARC
  5
245
330
1B
100
AcDbEntity
  8
4
100
AcDbCircle
 10
828.631422223259
 20
107.2830598249723
 30
0.0
 40
3.875378875279264
100
AcDbArc
 50
224.955926762738
 51
315.0440732372453
  0
ARC
  5
246
330
1B
100
AcDbEntity
  8
4
100
AcDbCircle
 10
820.4041808873058
 20
117.2034250848703
 30
0.0
 40
13.7957441351769
100
AcDbArc
 50
246.5734024913727
 51
293.4265975086313
  0
LINE
  5
247
330
1B
100
AcDbEntity
  8
4
100
AcDbLine
 10
814.9193533300054
 20
104.5448618603198
 30
0.0
 11
814.9193533300054
 21
111.407680949693
 31
0.0
  0
LINE
  5
248
330
1B
100
AcDbEntity
  8
4
100
AcDbLine
 10
825.889008444608
 20
104.5448618603198
 30
0.0
 11
825.889008444608
 21
111.407680949693
 31
0.0
  0
LINE
  5
249
330
1B
100
AcDbEntity
  8
4
100
AcDbLine
 10
831.3738360019083
 20
114.407680949693
 30
0.0
 11
831.3738360019083
 21
104.5448618603198
 31
0.0
  0
LINE
  5
24A
330
1B
100
AcDbEntity
  8
4
100
AcDbLine
 10
934.9651105969183
 20
111.407680949693
 30
0.0
 11
913.0258003677131
 21
111.407680949693
 31
0.0
  0
ARC
  5
24B
330
1B
100
AcDbEntity
  8
4
100
AcDbCircle
 10
923.9954554823157
 20
117.2034250848703
 30
0.0
 40
13.7957441351769
100
AcDbArc
 50
246.5734024913687
 51
293.4265975086273
  0
LINE
  5
24C
330
1B
100
AcDbEntity
  8
4
100
AcDbLine
 10
915.7682141463624
 20
103.407680949693
 30
0.0
 11
932.2226968182672
 21
103.407680949693
 31
0.0
  0
ARC
  5
24D
330
1B
100
AcDbEntity
  8
4
100
AcDbCircle
 10
932.2226968182672
 20
107.2830598249723
 30
0.0
 40
3.875378875279244
100
AcDbArc
 50
224.9559267627535
 51
315.0440732372608
  0
LINE
  5
24E
330
1B
100
AcDbEntity
  8
4
100
AcDbLine
 10
929.4802830396161
 20
104.5448618603198
 30
0.0
 11
929.4802830396161
 21
111.407680949693
 31
0.0
  0
ARC
  5
24F
330
1B
100
AcDbEntity
  8
4
100
AcDbCircle
 10
915.7682141463624
 20
107.2830598249723
 30
0.0
 40
3.875378875279264
100
AcDbArc
 50
224.9559267627547
 51
315.044073237262
  0
LINE
  5
250
330
1B
100
AcDbEntity
  8
4
100
AcDbLine
 10
918.5106279250135
 20
104.5448618603198
 30
0.0
 11
918.5106279250135
 21
111.407680949693
 31
0.0
  0
LINE
  5
251
330
1B
100
AcDbEntity
  8
4
100
AcDbLine
 10
934.9651105969183
 20
114.407680949693
 30
0.0
 11
913.0258003677131
 21
114.407680949693
 31
0.0
  0
LINE
  5
252
330
1B
100
AcDbEntity
  8
4
100
AcDbLine
 10
934.9651105969183
 20
104.5448618603198
 30
0.0
 11
934.9651105969183
 21
114.407680949693
 31
0.0
  0
LINE
  5
253
330
1B
100
AcDbEntity
  8
4
100
AcDbLine
 10
913.0258003677131
 20
114.407680949693
 30
0.0
 11
913.0258003677131
 21
104.5448618603198
 31
0.0
  0
LINE
  5
254
330
1B
100
AcDbEntity
  8
4
100
AcDbLine
 10
960.4041808873058
 20
118.4076809496935
 30
0.0
 11
960.4041808873058
 21
114.4076809496939
 31
0.0
  0
LINE
  5
255
330
1B
100
AcDbEntity
  8
4
100
AcDbLine
 10
980.4041808873058
 20
114.4076809496935
 30
0.0
 11
1120.662421244032
 21
114.4076809496935
 31
0.0
  0
LINE
  5
256
330
1B
100
AcDbEntity
  8
4
100
AcDbLine
 10
980.4041808873058
 20
118.4076809496935
 30
0.0
 11
980.4041808873058
 21
114.4076809496935
 31
0.0
  0
LINE
  5
257
330
1B
100
AcDbEntity
  8
4
100
AcDbLine
 10
1017.536633284009
 20
104.5448618603193
 30
0.0
 11
1017.536633284009
 21
111.4076809496926
 31
0.0
  0
LINE
  5
258
330
1B
100
AcDbEntity
  8
4
100
AcDbLine
 10
1006.566978169406
 20
104.5448618603193
 30
0.0
 11
1006.566978169406
 21
111.4076809496926
 31
0.0
  0
ARC
  5
259
330
1B
100
AcDbEntity
  8
4
100
AcDbCircle
 10
1020.27904706266
 20
107.2830598249718
 30
0.0
 40
3.875378875279264
100
AcDbArc
 50
224.955926762738
 51
315.0440732372453
  0
ARC
  5
25A
330
1B
100
AcDbEntity
  8
4
100
AcDbCircle
 10
1003.824564390755
 20
107.2830598249718
 30
0.0
 40
3.875378875279244
100
AcDbArc
 50
224.9559267627369
 51
315.0440732372441
  0
LINE
  5
25B
330
1B
100
AcDbEntity
  8
4
100
AcDbLine
 10
1020.27904706266
 20
103.4076809496926
 30
0.0
 11
1003.824564390755
 21
103.4076809496926
 31
0.0
  0
ARC
  5
25C
330
1B
100
AcDbEntity
  8
4
100
AcDbCircle
 10
1012.051805726709
 20
117.2034250848699
 30
0.0
 40
13.7957441351769
100
AcDbArc
 50
246.5734024913687
 51
293.4265975086273
  0
LINE
  5
25D
330
1B
100
AcDbEntity
  8
4
100
AcDbLine
 10
1001.082150612104
 20
111.4076809496926
 30
0.0
 11
1023.021460841311
 21
111.4076809496926
 31
0.0
  0
LINE
  5
25E
330
1B
100
AcDbEntity
  8
4
100
AcDbLine
 10
1001.082150612104
 20
114.4076809496926
 30
0.0
 11
1023.021460841311
 21
114.4076809496926
 31
0.0
  0
LINE
  5
25F
330
1B
100
AcDbEntity
  8
4
100
AcDbLine
 10
1023.021460841311
 20
114.4076809496926
 30
0.0
 11
1023.021460841311
 21
104.5448618603193
 31
0.0
  0
LINE
  5
260
330
1B
100
AcDbEntity
  8
4
100
AcDbLine
 10
1001.082150612104
 20
104.5448618603193
 30
0.0
 11
1001.082150612104
 21
114.4076809496926
 31
0.0
  0
LINE
  5
261
330
1B
100
AcDbEntity
  8
L-CENTER
100
AcDbLine
 10
1012.051805726709
 20
99.80684106958847
 30
0.0
 11
1012.051805726709
 21
152.8903752767289
 31
0.0
  0
LINE
  5
262
330
1B
100
AcDbEntity
  8
4
100
AcDbLine
 10
1079.434525772703
 20
111.4076809496926
 30
0.0
 11
1101.373836001908
 21
111.4076809496926
 31
0.0
  0
LINE
  5
263
330
1B
100
AcDbEntity
  8
4
100
AcDbLine
 10
1079.434525772703
 20
114.4076809496926
 30
0.0
 11
1101.373836001908
 21
114.4076809496926
 31
0.0
  0
LINE
  5
264
330
1B
100
AcDbEntity
  8
4
100
AcDbLine
 10
1098.631422223259
 20
103.4076809496926
 30
0.0
 11
1082.176939551354
 21
103.4076809496926
 31
0.0
  0
ARC
  5
265
330
1B
100
AcDbEntity
  8
4
100
AcDbCircle
 10
1090.404180887306
 20
117.2034250848699
 30
0.0
 40
13.7957441351769
100
AcDbArc
 50
246.5734024913727
 51
293.4265975086313
  0
ARC
  5
266
330
1B
100
AcDbEntity
  8
4
100
AcDbCircle
 10
1082.176939551354
 20
107.2830598249718
 30
0.0
 40
3.875378875279244
100
AcDbArc
 50
224.9559267627369
 51
315.0440732372441
  0
LINE
  5
267
330
1B
100
AcDbEntity
  8
4
100
AcDbLine
 10
1084.919353330005
 20
104.5448618603193
 30
0.0
 11
1084.919353330005
 21
111.4076809496926
 31
0.0
  0
LINE
  5
268
330
1B
100
AcDbEntity
  8
4
100
AcDbLine
 10
1079.434525772703
 20
104.5448618603193
 30
0.0
 11
1079.434525772703
 21
114.4076809496926
 31
0.0
  0
ARC
  5
269
330
1B
100
AcDbEntity
  8
4
100
AcDbCircle
 10
1098.631422223259
 20
107.2830598249718
 30
0.0
 40
3.875378875279264
100
AcDbArc
 50
224.955926762738
 51
315.0440732372441
  0
LINE
  5
26A
330
1B
100
AcDbEntity
  8
4
100
AcDbLine
 10
1095.889008444608
 20
104.5448618603193
 30
0.0
 11
1095.889008444608
 21
111.4076809496926
 31
0.0
  0
LINE
  5
26B
330
1B
100
AcDbEntity
  8
4
100
AcDbLine
 10
1101.373836001908
 20
114.4076809496926
 30
0.0
 11
1101.373836001908
 21
104.5448618603193
 31
0.0
  0
LINE
  5
26C
330
1B
100
AcDbEntity
  8
4
100
AcDbLine
 10
2290.887233685391
 20
491.4076869496935
 30
0.0
 11
2268.947923456184
 21
491.4076869496935
 31
0.0
  0
LINE
  5
26D
330
1B
100
AcDbEntity
  8
4
100
AcDbLine
 10
2290.887233685391
 20
488.4076869496935
 30
0.0
 11
2268.947923456184
 21
488.4076869496935
 31
0.0
  0
LINE
  5
26E
330
1B
100
AcDbEntity
  8
4
100
AcDbLine
 10
2268.947923456184
 20
488.4076869496935
 30
0.0
 11
2268.947923456184
 21
498.2705060390667
 31
0.0
  0
ARC
  5
26F
330
1B
100
AcDbEntity
  8
4
100
AcDbCircle
 10
2271.690337234835
 20
495.5323080744151
 30
0.0
 40
3.875378875279264
100
AcDbArc
 50
44.95592676274758
 51
135.044073237262
  0
LINE
  5
270
330
1B
100
AcDbEntity
  8
4
100
AcDbLine
 10
2129.432602583961
 20
498.2705060390667
 30
0.0
 11
2129.432602583961
 21
491.4076869496935
 31
0.0
  0
LINE
  5
271
330
1B
100
AcDbEntity
  8
4
100
AcDbLine
 10
2123.947775026661
 20
488.4076869496935
 30
0.0
 11
2123.947775026661
 21
498.2705060390667
 31
0.0
  0
ARC
  5
272
330
1B
100
AcDbEntity
  8
4
100
AcDbCircle
 10
2126.69018880531
 20
495.5323080744161
 30
0.0
 40
3.875378875279264
100
AcDbArc
 50
44.95592676273806
 51
135.0440732372524
  0
LINE
  5
273
330
1B
100
AcDbEntity
  8
4
100
AcDbLine
 10
2145.887085255866
 20
491.4076869496935
 30
0.0
 11
2123.947775026661
 21
491.4076869496935
 31
0.0
  0
LINE
  5
274
330
1B
100
AcDbEntity
  8
4
100
AcDbLine
 10
2126.69018880531
 20
499.4076869496935
 30
0.0
 11
2143.144671477215
 21
499.4076869496935
 31
0.0
  0
LINE
  5
275
330
1B
100
AcDbEntity
  8
4
100
AcDbLine
 10
2145.887085255866
 20
488.4076869496935
 30
0.0
 11
2123.947775026661
 21
488.4076869496935
 31
0.0
  0
ARC
  5
276
330
1B
100
AcDbEntity
  8
4
100
AcDbCircle
 10
2134.917430141262
 20
485.6119428145171
 30
0.0
 40
13.7957441351769
100
AcDbArc
 50
85.17845215864331
 51
113.4265975086271
  0
LINE
  5
277
330
1B
100
AcDbEntity
  8
4
100
AcDbLine
 10
2133.94777202666
 20
488.4076869496935
 30
0.0
 11
2133.94777202666
 21
498.2705060390667
 31
0.0
  0
LINE
  5
278
330
1B
100
AcDbEntity
  8
L-CENTER
100
AcDbLine
 10
2134.917430141264
 20
503.0085268297976
 30
0.0
 11
2134.917430141264
 21
449.9249926226571
 31
0.0
  0
ARC
  5
279
330
1B
100
AcDbEntity
  8
4
100
AcDbCircle
 10
2144.917427141263
 20
485.6119428145171
 30
0.0
 40
13.7957441351769
100
AcDbArc
 50
66.57340249136868
 51
113.4265975086271
  0
LINE
  5
27A
330
1B
100
AcDbEntity
  8
4
100
AcDbLine
 10
2136.690185805311
 20
499.4076869496935
 30
0.0
 11
2153.144668477216
 21
499.4076869496935
 31
0.0
  0
LINE
  5
27B
330
1B
100
AcDbEntity
  8
4
100
AcDbLine
 10
2150.402254698565
 20
498.2705060390667
 30
0.0
 11
2150.402254698565
 21
491.4076869496935
 31
0.0
  0
LINE
  5
27C
330
1B
100
AcDbEntity
  8
4
100
AcDbLine
 10
2155.887082255867
 20
498.2705060390667
 30
0.0
 11
2155.887082255867
 21
488.4076869496935
 31
0.0
  0
ARC
  5
27D
330
1B
100
AcDbEntity
  8
4
100
AcDbCircle
 10
2153.144668477216
 20
495.5323080744161
 30
0.0
 40
3.875378875279244
100
AcDbArc
 50
44.95592676274758
 51
135.044073237262
  0
LINE
  5
27E
330
1B
100
AcDbEntity
  8
4
100
AcDbLine
 10
2139.432599583962
 20
498.2705060390667
 30
0.0
 11
2139.432599583962
 21
491.4076869496935
 31
0.0
  0
LINE
  5
27F
330
1B
100
AcDbEntity
  8
4
100
AcDbLine
 10
2200.88693230548
 20
491.4076869496935
 30
0.0
 11
2178.947622076275
 21
491.4076869496935
 31
0.0
  0
ARC
  5
280
330
1B
100
AcDbEntity
  8
4
100
AcDbCircle
 10
2189.917277190876
 20
485.6119428145171
 30
0.0
 40
13.7957441351769
100
AcDbArc
 50
66.57340249136868
 51
113.4265975086271
  0
LINE
  5
281
330
1B
100
AcDbEntity
  8
4
100
AcDbLine
 10
2181.690035854924
 20
499.4076869496935
 30
0.0
 11
2198.144518526829
 21
499.4076869496935
 31
0.0
  0
LINE
  5
282
330
1B
100
AcDbEntity
  8
4
100
AcDbLine
 10
2200.88693230548
 20
488.4076869496935
 30
0.0
 11
2178.947622076275
 21
488.4076869496935
 31
0.0
  0
LINE
  5
283
330
1B
100
AcDbEntity
  8
4
100
AcDbLine
 10
2195.402104748178
 20
498.2705060390667
 30
0.0
 11
2195.402104748178
 21
491.4076869496935
 31
0.0
  0
LINE
  5
284
330
1B
100
AcDbEntity
  8
4
100
AcDbLine
 10
2200.88693230548
 20
498.2705060390667
 30
0.0
 11
2200.88693230548
 21
488.4076869496935
 31
0.0
  0
ARC
  5
285
330
1B
100
AcDbEntity
  8
4
100
AcDbCircle
 10
2198.144518526829
 20
495.5323080744151
 30
0.0
 40
3.875378875279244
100
AcDbArc
 50
44.95592676273806
 51
135.0440732372524
  0
LINE
  5
286
330
1B
100
AcDbEntity
  8
4
100
AcDbLine
 10
2184.432449633575
 20
498.2705060390667
 30
0.0
 11
2184.432449633575
 21
491.4076869496935
 31
0.0
  0
LINE
  5
287
330
1B
100
AcDbEntity
  8
4
100
AcDbLine
 10
2178.947622076275
 20
488.4076869496935
 30
0.0
 11
2178.947622076275
 21
498.2705060390667
 31
0.0
  0
ARC
  5
288
330
1B
100
AcDbEntity
  8
4
100
AcDbCircle
 10
2181.690035854924
 20
495.5323080744151
 30
0.0
 40
3.875378875279264
100
AcDbArc
 50
44.95592676273806
 51
135.0440732372524
  0
LINE
  5
289
330
1B
100
AcDbEntity
  8
4
100
AcDbLine
 10
2198.144518526829
 20
499.4076869496935
 30
0.0
 11
2203.144368316523
 21
499.4076869496935
 31
0.0
  0
LINE
  5
28A
330
1B
100
AcDbEntity
  8
4
100
AcDbLine
 10
2205.886782095174
 20
498.2705060390667
 30
0.0
 11
2205.886782095174
 21
488.4076869496935
 31
0.0
  0
ARC
  5
28B
330
1B
100
AcDbEntity
  8
4
100
AcDbCircle
 10
2203.144368316521
 20
495.5323080744151
 30
0.0
 40
3.875378875279244
100
AcDbArc
 50
44.95592676273806
 51
130.1715865965468
  0
LINE
  5
28C
330
1B
100
AcDbEntity
  8
4
100
AcDbLine
 10
2205.886782095174
 20
491.4076869496935
 30
0.0
 11
2183.947471865967
 21
491.4076869496935
 31
0.0
  0
LINE
  5
28D
330
1B
100
AcDbEntity
  8
4
100
AcDbLine
 10
2205.886782095174
 20
488.4076869496935
 30
0.0
 11
2183.947471865967
 21
488.4076869496935
 31
0.0
  0
LINE
  5
28E
330
1B
100
AcDbEntity
  8
L-CENTER
100
AcDbLine
 10
2144.917427141263
 20
503.0085268297976
 30
0.0
 11
2144.917427141263
 21
449.9249926226571
 31
0.0
  0
LINE
  5
28F
330
1B
100
AcDbEntity
  8
L-CENTER
100
AcDbLine
 10
2194.91712698057
 20
503.0085268297976
 30
0.0
 11
2194.91712698057
 21
449.9249926226571
 31
0.0
  0
LINE
  5
290
330
1B
100
AcDbEntity
  8
L-CENTER
100
AcDbLine
 10
2189.917277190877
 20
503.0085268297976
 30
0.0
 11
2189.917277190877
 21
449.9249926226571
 31
0.0
  0
LINE
  5
291
330
1B
100
AcDbEntity
  8
4
100
AcDbLine
 10
2155.887082255867
 20
491.4076869496935
 30
0.0
 11
2133.94777202666
 21
491.4076869496935
 31
0.0
  0
LINE
  5
292
330
1B
100
AcDbEntity
  8
4
100
AcDbLine
 10
2155.887082255867
 20
488.4076869496935
 30
0.0
 11
2133.94777202666
 21
488.4076869496935
 31
0.0
  0
ARC
  5
293
330
1B
100
AcDbEntity
  8
4
100
AcDbCircle
 10
2136.690185805311
 20
495.5323080744161
 30
0.0
 40
3.875378875279264
100
AcDbArc
 50
44.95592676274758
 51
135.044073237262
  0
ARC
  5
294
330
1B
100
AcDbEntity
  8
4
100
AcDbCircle
 10
2279.917578570786
 20
485.6119428145171
 30
0.0
 40
13.7957441351769
100
AcDbArc
 50
66.57340249136868
 51
113.4265975086233
  0
LINE
  5
295
330
1B
100
AcDbEntity
  8
4
100
AcDbLine
 10
2271.690337234835
 20
499.4076869496935
 30
0.0
 11
2288.144819906739
 21
499.4076869496935
 31
0.0
  0
LINE
  5
296
330
1B
100
AcDbEntity
  8
4
100
AcDbLine
 10
2285.402406128088
 20
498.2705060390667
 30
0.0
 11
2285.402406128088
 21
491.4076869496935
 31
0.0
  0
LINE
  5
297
330
1B
100
AcDbEntity
  8
4
100
AcDbLine
 10
2290.887233685391
 20
498.2705060390667
 30
0.0
 11
2290.887233685391
 21
488.4076869496935
 31
0.0
  0
ARC
  5
298
330
1B
100
AcDbEntity
  8
4
100
AcDbCircle
 10
2288.144819906739
 20
495.5323080744151
 30
0.0
 40
3.875378875279244
100
AcDbArc
 50
44.9559267627547
 51
135.044073237262
  0
LINE
  5
299
330
1B
100
AcDbEntity
  8
4
100
AcDbLine
 10
2274.432751013486
 20
498.2705060390667
 30
0.0
 11
2274.432751013486
 21
491.4076869496935
 31
0.0
  0
LINE
  5
29A
330
1B
100
AcDbEntity
  8
4
100
AcDbLine
 10
2325.886785034339
 20
491.4076869496935
 30
0.0
 11
2303.947474805132
 21
491.4076869496935
 31
0.0
  0
LINE
  5
29B
330
1B
100
AcDbEntity
  8
4
100
AcDbLine
 10
2306.689888583783
 20
499.4076869496935
 30
0.0
 11
2323.144371255688
 21
499.4076869496935
 31
0.0
  0
LINE
  5
29C
330
1B
100
AcDbEntity
  8
4
100
AcDbLine
 10
2325.886785034339
 20
488.4076869496935
 30
0.0
 11
2303.947474805132
 21
488.4076869496935
 31
0.0
  0
LINE
  5
29D
330
1B
100
AcDbEntity
  8
4
100
AcDbLine
 10
2309.432302362434
 20
498.2705060390667
 30
0.0
 11
2309.432302362434
 21
491.4076869496935
 31
0.0
  0
LINE
  5
29E
330
1B
100
AcDbEntity
  8
4
100
AcDbLine
 10
2303.947474805132
 20
488.4076869496935
 30
0.0
 11
2303.947474805132
 21
498.2705060390667
 31
0.0
  0
ARC
  5
29F
330
1B
100
AcDbEntity
  8
4
100
AcDbCircle
 10
2306.689888583781
 20
495.5323080744151
 30
0.0
 40
3.875378875279264
100
AcDbArc
 50
44.95592676273806
 51
135.0440732372453
  0
LINE
  5
2A0
330
1B
100
AcDbEntity
  8
4
100
AcDbLine
 10
2335.887084255866
 20
491.4076869496935
 30
0.0
 11
2313.947774026661
 21
491.4076869496935
 31
0.0
  0
ARC
  5
2A1
330
1B
100
AcDbEntity
  8
4
100
AcDbCircle
 10
2324.917429141263
 20
485.6119428145171
 30
0.0
 40
13.7957441351769
100
AcDbArc
 50
66.57340249137673
 51
113.4265975086313
  0
LINE
  5
2A2
330
1B
100
AcDbEntity
  8
4
100
AcDbLine
 10
2316.69018780531
 20
499.4076869496935
 30
0.0
 11
2333.144670477215
 21
499.4076869496935
 31
0.0
  0
LINE
  5
2A3
330
1B
100
AcDbEntity
  8
4
100
AcDbLine
 10
2335.887084255866
 20
488.4076869496935
 30
0.0
 11
2313.947774026661
 21
488.4076869496935
 31
0.0
  0
LINE
  5
2A4
330
1B
100
AcDbEntity
  8
4
100
AcDbLine
 10
2330.402256698564
 20
498.2705060390667
 30
0.0
 11
2330.402256698564
 21
491.4076869496935
 31
0.0
  0
LINE
  5
2A5
330
1B
100
AcDbEntity
  8
4
100
AcDbLine
 10
2335.887084255866
 20
498.2705060390667
 30
0.0
 11
2335.887084255866
 21
488.4076869496935
 31
0.0
  0
ARC
  5
2A6
330
1B
100
AcDbEntity
  8
4
100
AcDbCircle
 10
2333.144670477215
 20
495.5323080744161
 30
0.0
 40
3.875378875279244
100
AcDbArc
 50
44.95592676273806
 51
135.0440732372453
  0
LINE
  5
2A7
330
1B
100
AcDbEntity
  8
4
100
AcDbLine
 10
2319.432601583961
 20
498.2705060390667
 30
0.0
 11
2319.432601583961
 21
491.4076869496935
 31
0.0
  0
LINE
  5
2A8
330
1B
100
AcDbEntity
  8
4
100
AcDbLine
 10
2313.947774026661
 20
488.4076869496935
 30
0.0
 11
2313.947774026661
 21
498.2705060390667
 31
0.0
  0
ARC
  5
2A9
330
1B
100
AcDbEntity
  8
4
100
AcDbCircle
 10
2316.69018780531
 20
495.5323080744161
 30
0.0
 40
3.875378875279264
100
AcDbArc
 50
44.95592676273806
 51
135.0440732372453
  0
ARC
  5
2AA
330
1B
100
AcDbEntity
  8
4
100
AcDbCircle
 10
2314.917129919735
 20
485.6119428145171
 30
0.0
 40
13.7957441351769
100
AcDbArc
 50
85.1776269230303
 51
113.4265975086233
  0
LINE
  5
2AB
330
1B
100
AcDbEntity
  8
L-CENTER
100
AcDbLine
 10
2279.917578570786
 20
503.0085268297976
 30
0.0
 11
2279.917578570786
 21
449.9249926226571
 31
0.0
  0
LINE
  5
2AC
330
1B
100
AcDbEntity
  8
L-CENTER
100
AcDbLine
 10
2314.917129919735
 20
503.0085268297976
 30
0.0
 11
2314.917129919735
 21
449.9249926226571
 31
0.0
  0
LINE
  5
2AD
330
1B
100
AcDbEntity
  8
L-CENTER
100
AcDbLine
 10
2324.917429141263
 20
503.0085268297976
 30
0.0
 11
2324.917429141263
 21
449.9249926226571
 31
0.0
  0
LINE
  5
2AE
330
1B
100
AcDbEntity
  8
4
100
AcDbLine
 10
2385.887083255867
 20
491.4076869496935
 30
0.0
 11
2363.94777302666
 21
491.4076869496935
 31
0.0
  0
ARC
  5
2AF
330
1B
100
AcDbEntity
  8
4
100
AcDbCircle
 10
2374.917428141263
 20
485.611942814518
 30
0.0
 40
13.7957441351769
100
AcDbArc
 50
66.57340249136868
 51
113.4265975086233
  0
LINE
  5
2B0
330
1B
100
AcDbEntity
  8
4
100
AcDbLine
 10
2366.690186805311
 20
499.4076869496935
 30
0.0
 11
2383.144669477216
 21
499.4076869496935
 31
0.0
  0
LINE
  5
2B1
330
1B
100
AcDbEntity
  8
4
100
AcDbLine
 10
2385.887083255867
 20
488.4076869496935
 30
0.0
 11
2363.94777302666
 21
488.4076869496935
 31
0.0
  0
LINE
  5
2B2
330
1B
100
AcDbEntity
  8
4
100
AcDbLine
 10
2380.402255698565
 20
498.2705060390676
 30
0.0
 11
2380.402255698565
 21
491.4076869496935
 31
0.0
  0
LINE
  5
2B3
330
1B
100
AcDbEntity
  8
4
100
AcDbLine
 10
2385.887083255867
 20
498.2705060390676
 30
0.0
 11
2385.887083255867
 21
488.4076869496935
 31
0.0
  0
ARC
  5
2B4
330
1B
100
AcDbEntity
  8
4
100
AcDbCircle
 10
2383.144669477214
 20
495.5323080744161
 30
0.0
 40
3.875378875279244
100
AcDbArc
 50
44.95592676273806
 51
135.0440732372453
  0
LINE
  5
2B5
330
1B
100
AcDbEntity
  8
4
100
AcDbLine
 10
2369.432600583963
 20
498.2705060390676
 30
0.0
 11
2369.432600583963
 21
491.4076869496935
 31
0.0
  0
LINE
  5
2B6
330
1B
100
AcDbEntity
  8
4
100
AcDbLine
 10
2363.94777302666
 20
488.4076869496935
 30
0.0
 11
2363.94777302666
 21
498.2705060390676
 31
0.0
  0
ARC
  5
2B7
330
1B
100
AcDbEntity
  8
4
100
AcDbCircle
 10
2366.69018680531
 20
495.5323080744161
 30
0.0
 40
3.875378875279264
100
AcDbArc
 50
44.95592676273806
 51
135.0440732372453
  0
LINE
  5
2B8
330
1B
100
AcDbEntity
  8
L-CENTER
100
AcDbLine
 10
2374.917428141263
 20
503.0085268297976
 30
0.0
 11
2374.917428141263
 21
449.9249926226571
 31
0.0
  0
LINE
  5
2B9
330
1B
100
AcDbEntity
  8
4
100
AcDbLine
 10
2202.417429141263
 20
681.4076829496939
 30
0.0
 11
2204.417427141263
 21
683.4076809496933
 31
0.0
  0
LINE
  5
2BA
330
1B
100
AcDbEntity
  8
4
100
AcDbLine
 10
2114.917429141263
 20
488.4076869496935
 30
0.0
 11
2114.917429141263
 21
473.4076809496933
 31
0.0
  0
LINE
  5
2BB
330
1B
100
AcDbEntity
  8
4
100
AcDbLine
 10
2124.917433141263
 20
488.4076869496935
 30
0.0
 11
2124.917433141263
 21
473.4076809496933
 31
0.0
  0
LINE
  5
2BC
330
1B
100
AcDbEntity
  8
4
100
AcDbLine
 10
2114.917429141263
 20
467.4076809496933
 30
0.0
 11
2114.917429141263
 21
473.4076809496933
 31
0.0
  0
LINE
  5
2BD
330
1B
100
AcDbEntity
  8
4
100
AcDbLine
 10
2124.917433141263
 20
467.4076809496933
 30
0.0
 11
2124.917433141263
 21
473.4076809496933
 31
0.0
  0
LINE
  5
2BE
330
1B
100
AcDbEntity
  8
4
100
AcDbLine
 10
2202.417429141263
 20
513.4076829496939
 30
0.0
 11
2193.417431141264
 21
513.4076829496939
 31
0.0
  0
LINE
  5
2BF
330
1B
100
AcDbEntity
  8
4
100
AcDbLine
 10
2199.917428141263
 20
499.4076869496935
 30
0.0
 11
2199.917428141263
 21
503.4076859496931
 31
0.0
  0
LINE
  5
2C0
330
1B
100
AcDbEntity
  8
4
100
AcDbLine
 10
2193.417431141264
 20
683.4076809496933
 30
0.0
 11
2193.417431141264
 21
513.4076829496939
 31
0.0
  0
LINE
  5
2C1
330
1B
100
AcDbEntity
  8
4
100
AcDbLine
 10
2202.417429141263
 20
503.4076859496931
 30
0.0
 11
2202.417429141263
 21
681.4076829496939
 31
0.0
  0
LINE
  5
2C2
330
1B
100
AcDbEntity
  8
4
100
AcDbLine
 10
2305.417431141264
 20
683.4076809496933
 30
0.0
 11
2307.417429141263
 21
681.4076829496939
 31
0.0
  0
LINE
  5
2C4
330
1B
100
AcDbEntity
  8
4
100
AcDbLine
 10
2309.917430141264
 20
499.4076869496935
 30
0.0
 11
2309.917430141264
 21
503.4076859496931
 31
0.0
  0
LINE
  5
2C5
330
1B
100
AcDbEntity
  8
4
100
AcDbLine
 10
2344.917430141264
 20
488.4076869496935
 30
0.0
 11
2344.917430141264
 21
473.4076809496933
 31
0.0
  0
LINE
  5
2C6
330
1B
100
AcDbEntity
  8
4
100
AcDbLine
 10
2344.917430141264
 20
473.4076809496933
 30
0.0
 11
2344.917430141264
 21
467.4076809496933
 31
0.0
  0
LINE
  5
2C7
330
1B
100
AcDbEntity
  8
4
100
AcDbLine
 10
2394.917429141263
 20
488.4076869496935
 30
0.0
 11
2394.917429141263
 21
473.4076809496933
 31
0.0
  0
LINE
  5
2C8
330
1B
100
AcDbEntity
  8
4
100
AcDbLine
 10
2394.917429141263
 20
467.4076809496933
 30
0.0
 11
2394.917429141263
 21
473.4076809496933
 31
0.0
  0
LINE
  5
2C9
330
1B
100
AcDbEntity
  8
4
100
AcDbLine
 10
2307.417429141263
 20
503.4076859496931
 30
0.0
 11
2307.417429141263
 21
681.4076829496939
 31
0.0
  0
LINE
  5
2CA
330
1B
100
AcDbEntity
  8
4
100
AcDbLine
 10
2305.417431141264
 20
683.4076809496933
 30
0.0
 11
2193.417431141264
 21
683.4076809496933
 31
0.0
  0
LINE
  5
2CB
330
1B
100
AcDbEntity
  8
4
100
AcDbLine
 10
2202.417429141263
 20
681.4076829496939
 30
0.0
 11
2307.417429141263
 21
681.4076829496939
 31
0.0
  0
LINE
  5
2CC
330
1B
100
AcDbEntity
  8
4
100
AcDbLine
 10
2309.917430141264
 20
503.4076859496931
 30
0.0
 11
2199.917428141263
 21
503.4076859496931
 31
0.0
  0
LINE
  5
2CD
330
1B
100
AcDbEntity
  8
4
100
AcDbLine
 10
2268.947923456184
 20
489.4076859496931
 30
0.0
 11
2205.886782095174
 21
489.4076859496931
 31
0.0
  0
LINE
  5
2CE
330
1B
100
AcDbEntity
  8
4
100
AcDbLine
 10
2394.917429141263
 20
488.4076869496935
 30
0.0
 11
2114.917429141263
 21
488.4076869496935
 31
0.0
  0
LINE
  5
2CF
330
1B
100
AcDbEntity
  8
4
100
AcDbLine
 10
2394.917429141263
 20
473.4076809496933
 30
0.0
 11
2114.917429141263
 21
473.4076809496933
 31
0.0
  0
LINE
  5
2D0
330
1B
100
AcDbEntity
  8
CENTER
100
AcDbLine
 10
2254.917429141263
 20
104.4115741501059
 30
0.0
 11
2254.917429141263
 21
697.6122297827583
 31
0.0
  0
ARC
  5
2D1
330
1B
100
AcDbEntity
  8
4
100
AcDbCircle
 10
2366.690186805311
 20
107.2830558249716
 30
0.0
 40
3.875378875279264
100
AcDbArc
 50
224.955926762738
 51
315.0440732372441
  0
LINE
  5
2D2
330
1B
100
AcDbEntity
  8
4
100
AcDbLine
 10
2363.947773026662
 20
114.4076769496928
 30
0.0
 11
2363.947773026662
 21
104.5448578603205
 31
0.0
  0
LINE
  5
2D3
330
1B
100
AcDbEntity
  8
4
100
AcDbLine
 10
2369.432600583963
 20
104.5448578603205
 30
0.0
 11
2369.432600583963
 21
111.4076769496928
 31
0.0
  0
ARC
  5
2D4
330
1B
100
AcDbEntity
  8
4
100
AcDbCircle
 10
2383.144669477216
 20
107.2830558249716
 30
0.0
 40
3.875378875279244
100
AcDbArc
 50
224.9559267627369
 51
315.0440732372441
  0
LINE
  5
2D5
330
1B
100
AcDbEntity
  8
4
100
AcDbLine
 10
2385.887083255867
 20
104.5448578603205
 30
0.0
 11
2385.887083255867
 21
114.4076769496928
 31
0.0
  0
LINE
  5
2D6
330
1B
100
AcDbEntity
  8
4
100
AcDbLine
 10
2380.402255698565
 20
104.5448578603205
 30
0.0
 11
2380.402255698565
 21
111.4076769496928
 31
0.0
  0
LINE
  5
2D7
330
1B
100
AcDbEntity
  8
4
100
AcDbLine
 10
2385.887083255867
 20
114.4076769496928
 30
0.0
 11
2363.947773026662
 21
114.4076769496928
 31
0.0
  0
LINE
  5
2D8
330
1B
100
AcDbEntity
  8
4
100
AcDbLine
 10
2366.690186805311
 20
103.4076769496928
 30
0.0
 11
2383.144669477216
 21
103.4076769496928
 31
0.0
  0
ARC
  5
2D9
330
1B
100
AcDbEntity
  8
4
100
AcDbCircle
 10
2374.917428141263
 20
117.2034210848697
 30
0.0
 40
13.7957441351769
100
AcDbArc
 50
246.5734024913769
 51
293.4265975086313
  0
LINE
  5
2DA
330
1B
100
AcDbEntity
  8
4
100
AcDbLine
 10
2385.887083255867
 20
111.4076769496928
 30
0.0
 11
2363.947773026662
 21
111.4076769496928
 31
0.0
  0
ARC
  5
2DB
330
1B
100
AcDbEntity
  8
4
100
AcDbCircle
 10
2316.690187805312
 20
107.2830558249725
 30
0.0
 40
3.875378875279264
100
AcDbArc
 50
224.955926762738
 51
315.0440732372441
  0
LINE
  5
2DC
330
1B
100
AcDbEntity
  8
4
100
AcDbLine
 10
2313.947774026661
 20
114.4076769496937
 30
0.0
 11
2313.947774026661
 21
104.5448578603205
 31
0.0
  0
LINE
  5
2DD
330
1B
100
AcDbEntity
  8
4
100
AcDbLine
 10
2319.432601583963
 20
104.5448578603205
 30
0.0
 11
2319.432601583963
 21
111.4076769496937
 31
0.0
  0
ARC
  5
2DE
330
1B
100
AcDbEntity
  8
4
100
AcDbCircle
 10
2333.144670477217
 20
107.2830558249725
 30
0.0
 40
3.875378875279244
100
AcDbArc
 50
224.9559267627369
 51
315.0440732372441
  0
LINE
  5
2DF
330
1B
100
AcDbEntity
  8
4
100
AcDbLine
 10
2335.887084255868
 20
104.5448578603205
 30
0.0
 11
2335.887084255868
 21
114.4076769496937
 31
0.0
  0
LINE
  5
2E0
330
1B
100
AcDbEntity
  8
4
100
AcDbLine
 10
2330.402256698565
 20
104.5448578603205
 30
0.0
 11
2330.402256698565
 21
111.4076769496937
 31
0.0
  0
LINE
  5
2E1
330
1B
100
AcDbEntity
  8
4
100
AcDbLine
 10
2335.887084255868
 20
114.4076769496937
 30
0.0
 11
2313.947774026661
 21
114.4076769496937
 31
0.0
  0
LINE
  5
2E2
330
1B
100
AcDbEntity
  8
4
100
AcDbLine
 10
2316.690187805312
 20
103.4076769496937
 30
0.0
 11
2333.144670477217
 21
103.4076769496937
 31
0.0
  0
ARC
  5
2E3
330
1B
100
AcDbEntity
  8
4
100
AcDbCircle
 10
2324.917429141263
 20
117.2034210848697
 30
0.0
 40
13.7957441351769
100
AcDbArc
 50
246.5734024913769
 51
293.4265975086313
  0
LINE
  5
2E4
330
1B
100
AcDbEntity
  8
4
100
AcDbLine
 10
2335.887084255868
 20
111.4076769496937
 30
0.0
 11
2313.947774026661
 21
111.4076769496937
 31
0.0
  0
ARC
  5
2E5
330
1B
100
AcDbEntity
  8
4
100
AcDbCircle
 10
2306.689888583783
 20
107.2830558249725
 30
0.0
 40
3.875378875279264
100
AcDbArc
 50
224.955926762738
 51
315.0440732372441
  0
LINE
  5
2E6
330
1B
100
AcDbEntity
  8
4
100
AcDbLine
 10
2303.947474805134
 20
114.4076769496937
 30
0.0
 11
2303.947474805134
 21
104.5448578603205
 31
0.0
  0
LINE
  5
2E7
330
1B
100
AcDbEntity
  8
4
100
AcDbLine
 10
2309.432302362434
 20
104.5448578603205
 30
0.0
 11
2309.432302362434
 21
111.4076769496937
 31
0.0
  0
LINE
  5
2E8
330
1B
100
AcDbEntity
  8
4
100
AcDbLine
 10
2325.886785034339
 20
114.4076769496937
 30
0.0
 11
2303.947474805134
 21
114.4076769496937
 31
0.0
  0
LINE
  5
2E9
330
1B
100
AcDbEntity
  8
4
100
AcDbLine
 10
2306.689888583783
 20
103.4076769496937
 30
0.0
 11
2323.144371255688
 21
103.4076769496937
 31
0.0
  0
ARC
  5
2EA
330
1B
100
AcDbEntity
  8
4
100
AcDbCircle
 10
2314.917129919735
 20
117.2034210848706
 30
0.0
 40
13.7957441351769
100
AcDbArc
 50
246.5734024913769
 51
274.8223730769697
  0
LINE
  5
2EB
330
1B
100
AcDbEntity
  8
4
100
AcDbLine
 10
2325.886785034339
 20
111.4076769496937
 30
0.0
 11
2303.947474805134
 21
111.4076769496937
 31
0.0
  0
ARC
  5
2EC
330
1B
100
AcDbEntity
  8
4
100
AcDbCircle
 10
2271.690337234835
 20
107.2830558249725
 30
0.0
 40
3.875378875279264
100
AcDbArc
 50
224.9559267627487
 51
315.044073237262
  0
LINE
  5
2ED
330
1B
100
AcDbEntity
  8
4
100
AcDbLine
 10
2268.947923456185
 20
114.4076769496937
 30
0.0
 11
2268.947923456185
 21
104.5448578603205
 31
0.0
  0
LINE
  5
2EE
330
1B
100
AcDbEntity
  8
4
100
AcDbLine
 10
2274.432751013486
 20
104.5448578603205
 30
0.0
 11
2274.432751013486
 21
111.4076769496937
 31
0.0
  0
ARC
  5
2EF
330
1B
100
AcDbEntity
  8
4
100
AcDbCircle
 10
2288.144819906739
 20
107.2830558249725
 30
0.0
 40
3.875378875279244
100
AcDbArc
 50
224.9559267627547
 51
315.044073237262
  0
LINE
  5
2F0
330
1B
100
AcDbEntity
  8
4
100
AcDbLine
 10
2290.887233685391
 20
104.5448578603205
 30
0.0
 11
2290.887233685391
 21
114.4076769496937
 31
0.0
  0
LINE
  5
2F1
330
1B
100
AcDbEntity
  8
4
100
AcDbLine
 10
2285.402406128088
 20
104.5448578603205
 30
0.0
 11
2285.402406128088
 21
111.4076769496937
 31
0.0
  0
LINE
  5
2F2
330
1B
100
AcDbEntity
  8
4
100
AcDbLine
 10
2290.887233685391
 20
114.4076769496937
 30
0.0
 11
2268.947923456185
 21
114.4076769496937
 31
0.0
  0
LINE
  5
2F3
330
1B
100
AcDbEntity
  8
4
100
AcDbLine
 10
2271.690337234835
 20
103.4076769496937
 30
0.0
 11
2288.144819906739
 21
103.4076769496937
 31
0.0
  0
ARC
  5
2F4
330
1B
100
AcDbEntity
  8
4
100
AcDbCircle
 10
2279.917578570788
 20
117.2034210848706
 30
0.0
 40
13.7957441351769
100
AcDbArc
 50
246.5734024913687
 51
293.4265975086231
  0
LINE
  5
2F5
330
1B
100
AcDbEntity
  8
4
100
AcDbLine
 10
2290.887233685391
 20
111.4076769496937
 30
0.0
 11
2268.947923456185
 21
111.4076769496937
 31
0.0
  0
ARC
  5
2F6
330
1B
100
AcDbEntity
  8
4
100
AcDbCircle
 10
2181.690035854924
 20
107.2830558249725
 30
0.0
 40
3.875378875279264
100
AcDbArc
 50
224.9559267627487
 51
315.044073237262
  0
LINE
  5
2F7
330
1B
100
AcDbEntity
  8
4
100
AcDbLine
 10
2178.947622076275
 20
114.4076769496937
 30
0.0
 11
2178.947622076275
 21
104.5448578603205
 31
0.0
  0
LINE
  5
2F8
330
1B
100
AcDbEntity
  8
4
100
AcDbLine
 10
2184.432449633577
 20
104.5448578603205
 30
0.0
 11
2184.432449633577
 21
111.4076769496937
 31
0.0
  0
ARC
  5
2F9
330
1B
100
AcDbEntity
  8
4
100
AcDbCircle
 10
2198.144518526829
 20
107.2830558249725
 30
0.0
 40
3.875378875279244
100
AcDbArc
 50
224.9559267627476
 51
315.044073237262
  0
LINE
  5
2FA
330
1B
100
AcDbEntity
  8
4
100
AcDbLine
 10
2200.886932305482
 20
104.5448578603205
 30
0.0
 11
2200.886932305482
 21
114.4076769496937
 31
0.0
  0
LINE
  5
2FB
330
1B
100
AcDbEntity
  8
4
100
AcDbLine
 10
2195.40210474818
 20
104.5448578603205
 30
0.0
 11
2195.40210474818
 21
111.4076769496937
 31
0.0
  0
LINE
  5
2FC
330
1B
100
AcDbEntity
  8
4
100
AcDbLine
 10
2200.886932305482
 20
114.4076769496937
 30
0.0
 11
2178.947622076275
 21
114.4076769496937
 31
0.0
  0
LINE
  5
2FD
330
1B
100
AcDbEntity
  8
4
100
AcDbLine
 10
2181.690035854926
 20
103.4076769496937
 30
0.0
 11
2198.144518526831
 21
103.4076769496937
 31
0.0
  0
ARC
  5
2FE
330
1B
100
AcDbEntity
  8
4
100
AcDbCircle
 10
2189.917277190877
 20
117.2034210848706
 30
0.0
 40
13.7957441351769
100
AcDbArc
 50
246.5734024913687
 51
293.4265975086273
  0
LINE
  5
2FF
330
1B
100
AcDbEntity
  8
4
100
AcDbLine
 10
2200.886932305482
 20
111.4076769496937
 30
0.0
 11
2178.947622076275
 21
111.4076769496937
 31
0.0
  0
ARC
  5
300
330
1B
100
AcDbEntity
  8
4
100
AcDbCircle
 10
2203.144368316523
 20
107.2830558249725
 30
0.0
 40
3.875378875279244
100
AcDbArc
 50
229.8284134034364
 51
315.0440732372441
  0
LINE
  5
301
330
1B
100
AcDbEntity
  8
4
100
AcDbLine
 10
2205.886782095174
 20
104.5448578603205
 30
0.0
 11
2205.886782095174
 21
114.4076769496937
 31
0.0
  0
LINE
  5
302
330
1B
100
AcDbEntity
  8
4
100
AcDbLine
 10
2205.886782095174
 20
114.4076769496937
 30
0.0
 11
2183.947471865967
 21
114.4076769496937
 31
0.0
  0
LINE
  5
303
330
1B
100
AcDbEntity
  8
4
100
AcDbLine
 10
2198.144518526831
 20
103.4076769496937
 30
0.0
 11
2203.144368316523
 21
103.4076769496937
 31
0.0
  0
LINE
  5
304
330
1B
100
AcDbEntity
  8
4
100
AcDbLine
 10
2205.886782095174
 20
111.4076769496937
 30
0.0
 11
2183.947471865967
 21
111.4076769496937
 31
0.0
  0
ARC
  5
305
330
1B
100
AcDbEntity
  8
4
100
AcDbCircle
 10
2136.690185805311
 20
107.2830558249725
 30
0.0
 40
3.875378875279264
100
AcDbArc
 50
224.9559267627487
 51
315.044073237262
  0
LINE
  5
306
330
1B
100
AcDbEntity
  8
4
100
AcDbLine
 10
2133.947772026662
 20
114.4076769496937
 30
0.0
 11
2133.947772026662
 21
104.5448578603205
 31
0.0
  0
LINE
  5
307
330
1B
100
AcDbEntity
  8
4
100
AcDbLine
 10
2139.432599583962
 20
104.5448578603205
 30
0.0
 11
2139.432599583962
 21
111.4076769496937
 31
0.0
  0
ARC
  5
308
330
1B
100
AcDbEntity
  8
4
100
AcDbCircle
 10
2153.144668477216
 20
107.2830558249725
 30
0.0
 40
3.875378875279244
100
AcDbArc
 50
224.9559267627476
 51
315.044073237262
  0
LINE
  5
309
330
1B
100
AcDbEntity
  8
4
100
AcDbLine
 10
2155.887082255867
 20
104.5448578603205
 30
0.0
 11
2155.887082255867
 21
114.4076769496937
 31
0.0
  0
LINE
  5
30A
330
1B
100
AcDbEntity
  8
4
100
AcDbLine
 10
2150.402254698565
 20
104.5448578603205
 30
0.0
 11
2150.402254698565
 21
111.4076769496937
 31
0.0
  0
LINE
  5
30B
330
1B
100
AcDbEntity
  8
4
100
AcDbLine
 10
2155.887082255867
 20
114.4076769496937
 30
0.0
 11
2133.947772026662
 21
114.4076769496937
 31
0.0
  0
LINE
  5
30C
330
1B
100
AcDbEntity
  8
4
100
AcDbLine
 10
2136.690185805311
 20
103.4076769496937
 30
0.0
 11
2153.144668477216
 21
103.4076769496937
 31
0.0
  0
ARC
  5
30D
330
1B
100
AcDbEntity
  8
4
100
AcDbCircle
 10
2144.917427141264
 20
117.2034210848697
 30
0.0
 40
13.7957441351769
100
AcDbArc
 50
246.5734024913687
 51
293.4265975086273
  0
LINE
  5
30E
330
1B
100
AcDbEntity
  8
4
100
AcDbLine
 10
2155.887082255867
 20
111.4076769496937
 30
0.0
 11
2133.947772026662
 21
111.4076769496937
 31
0.0
  0
ARC
  5
30F
330
1B
100
AcDbEntity
  8
4
100
AcDbCircle
 10
2126.69018880531
 20
107.2830558249725
 30
0.0
 40
3.875378875279264
100
AcDbArc
 50
224.9559267627487
 51
315.044073237262
  0
LINE
  5
310
330
1B
100
AcDbEntity
  8
4
100
AcDbLine
 10
2123.947775026661
 20
114.4076769496937
 30
0.0
 11
2123.947775026661
 21
104.5448578603205
 31
0.0
  0
LINE
  5
311
330
1B
100
AcDbEntity
  8
4
100
AcDbLine
 10
2129.432602583963
 20
104.5448578603205
 30
0.0
 11
2129.432602583963
 21
111.4076769496937
 31
0.0
  0
LINE
  5
312
330
1B
100
AcDbEntity
  8
4
100
AcDbLine
 10
2145.887085255868
 20
114.4076769496937
 30
0.0
 11
2123.947775026661
 21
114.4076769496937
 31
0.0
  0
LINE
  5
313
330
1B
100
AcDbEntity
  8
4
100
AcDbLine
 10
2126.690188805312
 20
103.4076769496937
 30
0.0
 11
2143.144671477217
 21
103.4076769496937
 31
0.0
  0
ARC
  5
314
330
1B
100
AcDbEntity
  8
4
100
AcDbCircle
 10
2134.917430141264
 20
117.2034210848697
 30
0.0
 40
13.7957441351769
100
AcDbArc
 50
246.5734024913687
 51
274.8215478413529
  0
LINE
  5
315
330
1B
100
AcDbEntity
  8
4
100
AcDbLine
 10
2145.887085255868
 20
111.4076769496937
 30
0.0
 11
2123.947775026661
 21
111.4076769496937
 31
0.0
  0
LINE
  5
316
330
1B
100
AcDbEntity
  8
4
100
AcDbLine
 10
2114.917429141263
 20
114.4076769496937
 30
0.0
 11
2114.917429141263
 21
118.4076809496935
 31
0.0
  0
LINE
  5
317
330
1B
100
AcDbEntity
  8
4
100
AcDbLine
 10
2124.917433141265
 20
114.4076769496937
 30
0.0
 11
2124.917433141265
 21
118.4076809496935
 31
0.0
  0
LINE
  5
318
330
1B
100
AcDbEntity
  8
4
100
AcDbLine
 10
2344.917430141264
 20
114.4076769496937
 30
0.0
 11
2344.917430141264
 21
118.4076809496935
 31
0.0
  0
LINE
  5
319
330
1B
100
AcDbEntity
  8
4
100
AcDbLine
 10
2394.917429141263
 20
114.4076769496937
 30
0.0
 11
2394.917429141263
 21
118.4076809496935
 31
0.0
  0
LINE
  5
31A
330
1B
100
AcDbEntity
  8
4
100
AcDbLine
 10
2114.917429141263
 20
114.4076769496937
 30
0.0
 11
2394.917429141263
 21
114.4076769496937
 31
0.0
  0
LINE
  5
31B
330
1B
100
AcDbEntity
  8
L-CENTER
100
AcDbLine
 10
2189.917277190877
 20
99.80683706958962
 30
0.0
 11
2189.917277190877
 21
152.8903712767301
 31
0.0
  0
LINE
  5
31C
330
1B
100
AcDbEntity
  8
L-CENTER
100
AcDbLine
 10
2194.91712698057
 20
99.80683706958962
 30
0.0
 11
2194.91712698057
 21
152.8903712767301
 31
0.0
  0
LINE
  5
31D
330
1B
100
AcDbEntity
  8
L-CENTER
100
AcDbLine
 10
2144.917427141264
 20
99.80683706958962
 30
0.0
 11
2144.917427141264
 21
152.8903712767301
 31
0.0
  0
LINE
  5
31E
330
1B
100
AcDbEntity
  8
L-CENTER
100
AcDbLine
 10
2134.917430141264
 20
99.80683706958962
 30
0.0
 11
2134.917430141264
 21
152.8903712767301
 31
0.0
  0
LINE
  5
31F
330
1B
100
AcDbEntity
  8
L-CENTER
100
AcDbLine
 10
2374.917428141265
 20
99.80683706958871
 30
0.0
 11
2374.917428141265
 21
152.8903712767292
 31
0.0
  0
LINE
  5
320
330
1B
100
AcDbEntity
  8
L-CENTER
100
AcDbLine
 10
2324.917429141263
 20
99.80683706958962
 30
0.0
 11
2324.917429141263
 21
152.8903712767301
 31
0.0
  0
LINE
  5
321
330
1B
100
AcDbEntity
  8
L-CENTER
100
AcDbLine
 10
2314.917129919736
 20
99.80683706958962
 30
0.0
 11
2314.917129919736
 21
152.8903712767301
 31
0.0
  0
LINE
  5
322
330
1B
100
AcDbEntity
  8
L-CENTER
100
AcDbLine
 10
2279.917578570788
 20
99.80683706958962
 30
0.0
 11
2279.917578570788
 21
152.8903712767301
 31
0.0
  0
LINE
  5
323
330
1B
100
AcDbEntity
  8
4
100
AcDbLine
 10
834.4041808873058
 20
1416.271006521608
 30
0.0
 11
806.4041808873058
 21
1416.271006521608
 31
0.0
  0
LINE
  5
324
330
1B
100
AcDbEntity
  8
4
100
AcDbLine
 10
806.4041808873058
 20
1434.271002521608
 30
0.0
 11
834.4041808873058
 21
1434.271002521608
 31
0.0
  0
ARC
  5
325
330
1B
100
AcDbEntity
  8
4
100
AcDbCircle
 10
820.4041808873058
 20
1477.771004521609
 30
0.0
 40
52.500014
100
AcDbArc
 50
285.4660057259744
 51
254.5339950000001
  0
LINE
  5
326
330
1B
100
AcDbEntity
  8
4
100
AcDbLine
 10
806.4041808873058
 20
1416.271006521608
 30
0.0
 11
806.4041808873058
 21
1434.271002521608
 31
0.0
  0
LINE
  5
327
330
1B
100
AcDbEntity
  8
4
100
AcDbLine
 10
834.4041808873058
 20
1416.271006521608
 30
0.0
 11
834.4041808873058
 21
1434.271002521608
 31
0.0
  0
CIRCLE
  5
328
330
1B
100
AcDbEntity
  8
4
100
AcDbCircle
 10
820.4041808873058
 20
1477.771004521608
 30
0.0
 40
70.00580180323877
  0
LINE
  5
329
330
1B
100
AcDbEntity
  8
4
100
AcDbLine
 10
721.9657878495977
 20
1547.270704363867
 30
0.0
 11
710.9961327349952
 21
1547.270704363867
 31
0.0
  0
LINE
  5
32A
330
1B
100
AcDbEntity
  8
4
100
AcDbLine
 10
721.9657878495977
 20
1528.270704363867
 30
0.0
 11
727.4506154068999
 21
1537.770704363867
 31
0.0
  0
LINE
  5
32B
330
1B
100
AcDbEntity
  8
4
100
AcDbLine
 10
710.9961327349952
 20
1528.270704363867
 30
0.0
 11
721.9657878495977
 21
1528.270704363867
 31
0.0
  0
LINE
  5
32C
330
1B
100
AcDbEntity
  8
4
100
AcDbLine
 10
705.5113051776948
 20
1537.770704363867
 30
0.0
 11
710.9961327349952
 21
1528.270704363867
 31
0.0
  0
CIRCLE
  5
32D
330
1B
100
AcDbEntity
  8
4
100
AcDbCircle
 10
716.4809602922974
 20
1537.770704363867
 30
0.0
 40
9.5
  0
LINE
  5
32E
330
1B
100
AcDbEntity
  8
4
100
AcDbLine
 10
727.4506154068999
 20
1537.770704363867
 30
0.0
 11
721.9657878495977
 21
1547.270704363867
 31
0.0
  0
LINE
  5
32F
330
1B
100
AcDbEntity
  8
4
100
AcDbLine
 10
710.9961327349952
 20
1547.270704363867
 30
0.0
 11
705.5113051776948
 21
1537.770704363867
 31
0.0
  0
LINE
  5
330
330
1B
100
AcDbEntity
  8
4
100
AcDbLine
 10
721.9661324947988
 20
1427.270707736338
 30
0.0
 11
710.9964773801962
 21
1427.270707736338
 31
0.0
  0
LINE
  5
331
330
1B
100
AcDbEntity
  8
4
100
AcDbLine
 10
721.9661324947988
 20
1408.270707736338
 30
0.0
 11
727.450960052101
 21
1417.770707736338
 31
0.0
  0
LINE
  5
332
330
1B
100
AcDbEntity
  8
4
100
AcDbLine
 10
710.9964773801962
 20
1408.270707736338
 30
0.0
 11
721.9661324947988
 21
1408.270707736338
 31
0.0
  0
LINE
  5
333
330
1B
100
AcDbEntity
  8
4
100
AcDbLine
 10
705.511649822894
 20
1417.770707736338
 30
0.0
 11
710.9964773801962
 21
1408.270707736338
 31
0.0
  0
CIRCLE
  5
334
330
1B
100
AcDbEntity
  8
4
100
AcDbCircle
 10
716.4813049374966
 20
1417.770707736338
 30
0.0
 40
9.5
  0
LINE
  5
335
330
1B
100
AcDbEntity
  8
4
100
AcDbLine
 10
727.450960052101
 20
1417.770707736338
 30
0.0
 11
721.9661324947988
 21
1427.270707736338
 31
0.0
  0
LINE
  5
336
330
1B
100
AcDbEntity
  8
4
100
AcDbLine
 10
710.9964773801962
 20
1427.270707736338
 30
0.0
 11
705.511649822894
 21
1417.770707736338
 31
0.0
  0
LINE
  5
337
330
1B
100
AcDbEntity
  8
4
100
AcDbLine
 10
825.889008444608
 20
1367.271005521608
 30
0.0
 11
814.9193533300054
 21
1367.271005521608
 31
0.0
  0
LINE
  5
338
330
1B
100
AcDbEntity
  8
4
100
AcDbLine
 10
825.889008444608
 20
1348.271005521608
 30
0.0
 11
831.3738360019101
 21
1357.771005521608
 31
0.0
  0
LINE
  5
339
330
1B
100
AcDbEntity
  8
4
100
AcDbLine
 10
814.9193533300054
 20
1348.271005521608
 30
0.0
 11
825.889008444608
 21
1348.271005521608
 31
0.0
  0
LINE
  5
33A
330
1B
100
AcDbEntity
  8
4
100
AcDbLine
 10
809.4345257727032
 20
1357.771005521608
 30
0.0
 11
814.9193533300054
 21
1348.271005521608
 31
0.0
  0
CIRCLE
  5
33B
330
1B
100
AcDbEntity
  8
4
100
AcDbCircle
 10
820.4041808873058
 20
1357.771005521608
 30
0.0
 40
9.5
  0
LINE
  5
33C
330
1B
100
AcDbEntity
  8
4
100
AcDbLine
 10
831.3738360019101
 20
1357.771005521608
 30
0.0
 11
825.889008444608
 21
1367.271005521608
 31
0.0
  0
LINE
  5
33D
330
1B
100
AcDbEntity
  8
4
100
AcDbLine
 10
814.9193533300054
 20
1367.271005521608
 30
0.0
 11
809.4345257727032
 21
1357.771005521608
 31
0.0
  0
LINE
  5
33E
330
1B
100
AcDbEntity
  8
4
100
AcDbLine
 10
929.8122284990964
 20
1427.271303743136
 30
0.0
 11
918.8425733844938
 21
1427.271303743136
 31
0.0
  0
LINE
  5
33F
330
1B
100
AcDbEntity
  8
4
100
AcDbLine
 10
929.8122284990964
 20
1408.271303743136
 30
0.0
 11
935.2970560563986
 21
1417.771303743136
 31
0.0
  0
LINE
  5
340
330
1B
100
AcDbEntity
  8
4
100
AcDbLine
 10
918.8425733844938
 20
1408.271303743136
 30
0.0
 11
929.8122284990964
 21
1408.271303743136
 31
0.0
  0
LINE
  5
341
330
1B
100
AcDbEntity
  8
4
100
AcDbLine
 10
913.3577458271934
 20
1417.771303743136
 30
0.0
 11
918.8425733844938
 21
1408.271303743136
 31
0.0
  0
CIRCLE
  5
342
330
1B
100
AcDbEntity
  8
4
100
AcDbCircle
 10
924.327400941796
 20
1417.771303743136
 30
0.0
 40
9.5
  0
LINE
  5
343
330
1B
100
AcDbEntity
  8
4
100
AcDbLine
 10
935.2970560563986
 20
1417.771303743136
 30
0.0
 11
929.8122284990964
 21
1427.271303743136
 31
0.0
  0
LINE
  5
344
330
1B
100
AcDbEntity
  8
4
100
AcDbLine
 10
918.8425733844938
 20
1427.271303743136
 30
0.0
 11
913.3577458271934
 21
1417.771303743136
 31
0.0
  0
LINE
  5
345
330
1B
100
AcDbEntity
  8
4
100
AcDbLine
 10
929.8118812908938
 20
1547.271306682301
 30
0.0
 11
918.8422261762912
 21
1547.271306682301
 31
0.0
  0
LINE
  5
346
330
1B
100
AcDbEntity
  8
4
100
AcDbLine
 10
929.8118812908938
 20
1528.271306682301
 30
0.0
 11
935.296708848196
 21
1537.771306682301
 31
0.0
  0
LINE
  5
347
330
1B
100
AcDbEntity
  8
4
100
AcDbLine
 10
918.8422261762912
 20
1528.271306682301
 30
0.0
 11
929.8118812908938
 21
1528.271306682301
 31
0.0
  0
LINE
  5
348
330
1B
100
AcDbEntity
  8
4
100
AcDbLine
 10
913.3573986189908
 20
1537.771306682301
 30
0.0
 11
918.8422261762912
 21
1528.271306682301
 31
0.0
  0
CIRCLE
  5
349
330
1B
100
AcDbEntity
  8
4
100
AcDbCircle
 10
924.3270537335934
 20
1537.771306682301
 30
0.0
 40
9.5
  0
LINE
  5
34A
330
1B
100
AcDbEntity
  8
4
100
AcDbLine
 10
935.296708848196
 20
1537.771306682301
 30
0.0
 11
929.8118812908938
 21
1547.271306682301
 31
0.0
  0
LINE
  5
34B
330
1B
100
AcDbEntity
  8
4
100
AcDbLine
 10
918.8422261762912
 20
1547.271306682301
 30
0.0
 11
913.3573986189908
 21
1537.771306682301
 31
0.0
  0
LINE
  5
34C
330
1B
100
AcDbEntity
  8
4
100
AcDbLine
 10
825.889008444608
 20
1607.271003521608
 30
0.0
 11
814.9193533300054
 21
1607.271003521608
 31
0.0
  0
LINE
  5
34D
330
1B
100
AcDbEntity
  8
4
100
AcDbLine
 10
825.889008444608
 20
1588.271003521608
 30
0.0
 11
831.3738360019101
 21
1597.771003521608
 31
0.0
  0
LINE
  5
34E
330
1B
100
AcDbEntity
  8
4
100
AcDbLine
 10
814.9193533300054
 20
1588.271003521608
 30
0.0
 11
825.889008444608
 21
1588.271003521608
 31
0.0
  0
LINE
  5
34F
330
1B
100
AcDbEntity
  8
4
100
AcDbLine
 10
809.4345257727032
 20
1597.771003521608
 30
0.0
 11
814.9193533300054
 21
1588.271003521608
 31
0.0
  0
CIRCLE
  5
350
330
1B
100
AcDbEntity
  8
4
100
AcDbCircle
 10
820.4041808873058
 20
1597.771003521608
 30
0.0
 40
9.5
  0
LINE
  5
351
330
1B
100
AcDbEntity
  8
4
100
AcDbLine
 10
831.3738360019101
 20
1597.771003521608
 30
0.0
 11
825.889008444608
 21
1607.271003521608
 31
0.0
  0
LINE
  5
352
330
1B
100
AcDbEntity
  8
4
100
AcDbLine
 10
814.9193533300054
 20
1607.271003521608
 30
0.0
 11
809.4345257727032
 21
1597.771003521608
 31
0.0
  0
LINE
  5
353
330
1B
100
AcDbEntity
  8
4
100
AcDbLine
 10
1017.204875640734
 20
1512.27085614463
 30
0.0
 11
1006.235220526132
 21
1512.27085614463
 31
0.0
  0
LINE
  5
354
330
1B
100
AcDbEntity
  8
4
100
AcDbLine
 10
1017.204875640734
 20
1493.27085614463
 30
0.0
 11
1022.689703198037
 21
1502.77085614463
 31
0.0
  0
LINE
  5
355
330
1B
100
AcDbEntity
  8
4
100
AcDbLine
 10
1006.235220526132
 20
1493.27085614463
 30
0.0
 11
1017.204875640734
 21
1493.27085614463
 31
0.0
  0
LINE
  5
356
330
1B
100
AcDbEntity
  8
4
100
AcDbLine
 10
1000.75039296883
 20
1502.77085614463
 30
0.0
 11
1006.235220526132
 21
1493.27085614463
 31
0.0
  0
CIRCLE
  5
357
330
1B
100
AcDbEntity
  8
4
100
AcDbCircle
 10
1011.720048083432
 20
1502.77085614463
 30
0.0
 40
9.5
  0
LINE
  5
358
330
1B
100
AcDbEntity
  8
4
100
AcDbLine
 10
1022.689703198037
 20
1502.77085614463
 30
0.0
 11
1017.204875640734
 21
1512.27085614463
 31
0.0
  0
LINE
  5
359
330
1B
100
AcDbEntity
  8
4
100
AcDbLine
 10
1006.235220526132
 20
1512.27085614463
 30
0.0
 11
1000.75039296883
 21
1502.77085614463
 31
0.0
  0
LINE
  5
35A
330
1B
100
AcDbEntity
  8
4
100
AcDbLine
 10
1095.147248801333
 20
1557.271005521608
 30
0.0
 11
1084.17759368673
 21
1557.271005521608
 31
0.0
  0
LINE
  5
35B
330
1B
100
AcDbEntity
  8
4
100
AcDbLine
 10
1095.147248801333
 20
1538.271005521608
 30
0.0
 11
1100.632076358635
 21
1547.771005521608
 31
0.0
  0
LINE
  5
35C
330
1B
100
AcDbEntity
  8
4
100
AcDbLine
 10
1084.17759368673
 20
1538.271005521608
 30
0.0
 11
1095.147248801333
 21
1538.271005521608
 31
0.0
  0
LINE
  5
35D
330
1B
100
AcDbEntity
  8
4
100
AcDbLine
 10
1078.692766129428
 20
1547.771005521608
 30
0.0
 11
1084.17759368673
 21
1538.271005521608
 31
0.0
  0
CIRCLE
  5
35E
330
1B
100
AcDbEntity
  8
4
100
AcDbCircle
 10
1089.662421244031
 20
1547.771005521608
 30
0.0
 40
9.5
  0
LINE
  5
35F
330
1B
100
AcDbEntity
  8
4
100
AcDbLine
 10
1100.632076358635
 20
1547.771005521608
 30
0.0
 11
1095.147248801333
 21
1557.271005521608
 31
0.0
  0
LINE
  5
360
330
1B
100
AcDbEntity
  8
4
100
AcDbLine
 10
1084.17759368673
 20
1557.271005521608
 30
0.0
 11
1078.692766129428
 21
1547.771005521608
 31
0.0
  0
LINE
  5
361
330
1B
100
AcDbEntity
  8
4
100
AcDbLine
 10
1173.089449145192
 20
1512.271155471994
 30
0.0
 11
1162.11979403059
 21
1512.271155471994
 31
0.0
  0
LINE
  5
362
330
1B
100
AcDbEntity
  8
4
100
AcDbLine
 10
1173.089449145192
 20
1493.271155471994
 30
0.0
 11
1178.574276702494
 21
1502.771155471994
 31
0.0
  0
LINE
  5
363
330
1B
100
AcDbEntity
  8
4
100
AcDbLine
 10
1162.11979403059
 20
1493.271155471994
 30
0.0
 11
1173.089449145192
 21
1493.271155471994
 31
0.0
  0
LINE
  5
364
330
1B
100
AcDbEntity
  8
4
100
AcDbLine
 10
1156.634966473287
 20
1502.771155471994
 30
0.0
 11
1162.11979403059
 21
1493.271155471994
 31
0.0
  0
CIRCLE
  5
365
330
1B
100
AcDbEntity
  8
4
100
AcDbCircle
 10
1167.60462158789
 20
1502.771155471994
 30
0.0
 40
9.5
  0
LINE
  5
366
330
1B
100
AcDbEntity
  8
4
100
AcDbLine
 10
1178.574276702494
 20
1502.771155471994
 30
0.0
 11
1173.089449145192
 21
1512.271155471994
 31
0.0
  0
LINE
  5
367
330
1B
100
AcDbEntity
  8
4
100
AcDbLine
 10
1162.11979403059
 20
1512.271155471994
 30
0.0
 11
1156.634966473287
 21
1502.771155471994
 31
0.0
  0
LINE
  5
368
330
1B
100
AcDbEntity
  8
4
100
AcDbLine
 10
1173.089622722529
 20
1422.271154215985
 30
0.0
 11
1162.119967607926
 21
1422.271154215985
 31
0.0
  0
LINE
  5
369
330
1B
100
AcDbEntity
  8
4
100
AcDbLine
 10
1173.089622722529
 20
1403.271154215985
 30
0.0
 11
1178.574450279831
 21
1412.771154215985
 31
0.0
  0
LINE
  5
36A
330
1B
100
AcDbEntity
  8
4
100
AcDbLine
 10
1162.119967607926
 20
1403.271154215985
 30
0.0
 11
1173.089622722529
 21
1403.271154215985
 31
0.0
  0
CIRCLE
  5
36B
330
1B
100
AcDbEntity
  8
4
100
AcDbCircle
 10
1167.604795165227
 20
1412.771154215985
 30
0.0
 40
9.5
  0
LINE
  5
36C
330
1B
100
AcDbEntity
  8
4
100
AcDbLine
 10
1178.574450279831
 20
1412.771154215985
 30
0.0
 11
1173.089622722529
 21
1422.271154215985
 31
0.0
  0
LINE
  5
36D
330
1B
100
AcDbEntity
  8
4
100
AcDbLine
 10
1156.635140050624
 20
1412.771154215985
 30
0.0
 11
1162.119967607926
 21
1403.271154215985
 31
0.0
  0
LINE
  5
36E
330
1B
100
AcDbEntity
  8
4
100
AcDbLine
 10
1162.119967607926
 20
1422.271154215985
 30
0.0
 11
1156.635140050624
 21
1412.771154215985
 31
0.0
  0
LINE
  5
36F
330
1B
100
AcDbEntity
  8
4
100
AcDbLine
 10
1095.147248801333
 20
1377.271003521608
 30
0.0
 11
1084.17759368673
 21
1377.271003521608
 31
0.0
  0
LINE
  5
370
330
1B
100
AcDbEntity
  8
4
100
AcDbLine
 10
1095.147248801333
 20
1358.271003521608
 30
0.0
 11
1100.632076358635
 21
1367.771003521608
 31
0.0
  0
LINE
  5
371
330
1B
100
AcDbEntity
  8
4
100
AcDbLine
 10
1084.17759368673
 20
1358.271003521608
 30
0.0
 11
1095.147248801333
 21
1358.271003521608
 31
0.0
  0
LINE
  5
372
330
1B
100
AcDbEntity
  8
4
100
AcDbLine
 10
1078.692766129428
 20
1367.771003521608
 30
0.0
 11
1084.17759368673
 21
1358.271003521608
 31
0.0
  0
CIRCLE
  5
373
330
1B
100
AcDbEntity
  8
4
100
AcDbCircle
 10
1089.662421244031
 20
1367.771003521608
 30
0.0
 40
9.5
  0
LINE
  5
374
330
1B
100
AcDbEntity
  8
4
100
AcDbLine
 10
1100.632076358635
 20
1367.771003521608
 30
0.0
 11
1095.147248801333
 21
1377.271003521608
 31
0.0
  0
LINE
  5
375
330
1B
100
AcDbEntity
  8
4
100
AcDbLine
 10
1084.17759368673
 20
1377.271003521608
 30
0.0
 11
1078.692766129428
 21
1367.771003521608
 31
0.0
  0
LINE
  5
376
330
1B
100
AcDbEntity
  8
4
100
AcDbLine
 10
1017.205048156751
 20
1422.270854092084
 30
0.0
 11
1006.235393042148
 21
1422.270854092084
 31
0.0
  0
LINE
  5
377
330
1B
100
AcDbEntity
  8
4
100
AcDbLine
 10
1006.235393042148
 20
1403.270854092084
 30
0.0
 11
1017.205048156751
 21
1403.270854092084
 31
0.0
  0
LINE
  5
378
330
1B
100
AcDbEntity
  8
4
100
AcDbLine
 10
1000.750565484846
 20
1412.770854092084
 30
0.0
 11
1006.235393042148
 21
1403.270854092084
 31
0.0
  0
CIRCLE
  5
379
330
1B
100
AcDbEntity
  8
4
100
AcDbCircle
 10
1011.720220599449
 20
1412.770854092084
 30
0.0
 40
9.5
  0
LINE
  5
37A
330
1B
100
AcDbEntity
  8
4
100
AcDbLine
 10
1006.235393042148
 20
1422.270854092084
 30
0.0
 11
1000.750565484846
 21
1412.770854092084
 31
0.0
  0
LINE
  5
37B
330
1B
100
AcDbEntity
  8
4
100
AcDbLine
 10
1017.205048156751
 20
1403.270854092084
 30
0.0
 11
1022.689875714053
 21
1412.770854092084
 31
0.0
  0
LINE
  5
37C
330
1B
100
AcDbEntity
  8
4
100
AcDbLine
 10
1022.689875714053
 20
1412.770854092084
 30
0.0
 11
1017.205048156751
 21
1422.270854092084
 31
0.0
  0
LINE
  5
37D
330
1B
100
AcDbEntity
  8
CENTER
100
AcDbLine
 10
1967.917429141263
 20
455.433802949693
 30
0.0
 11
1967.917429141263
 21
569.3815529496942
 31
0.0
  0
CIRCLE
  5
37E
330
1B
100
AcDbEntity
  8
4
100
AcDbCircle
 10
1967.917429141263
 20
512.4076779496936
 30
0.0
 40
25.000003
  0
ARC
  5
37F
330
1B
100
AcDbEntity
  8
4
100
AcDbCircle
 10
1967.917429141263
 20
512.4076779496936
 30
0.0
 40
45.000025
100
AcDbArc
 50
299.2650450000004
 51
240.7363440000009
  0
LINE
  5
380
330
1B
100
AcDbEntity
  8
4
100
AcDbLine
 10
1967.917429141263
 20
487.4076819496936
 30
0.0
 11
1988.842963141263
 21
485.4076769496937
 31
0.0
  0
LINE
  5
381
330
1B
100
AcDbEntity
  8
4
100
AcDbLine
 10
1988.842963141263
 20
485.4076769496937
 30
0.0
 11
1946.992378141263
 21
485.4076769496937
 31
0.0
  0
LINE
  5
382
330
1B
100
AcDbEntity
  8
L-CENTER
100
AcDbLine
 10
1910.943554141264
 20
512.4076779496936
 30
0.0
 11
2024.891304141265
 21
512.4076779496936
 31
0.0
  0
LINE
  5
383
330
1B
100
AcDbEntity
  8
4
100
AcDbLine
 10
1946.992378141263
 20
485.4076769496937
 30
0.0
 11
1967.917429141263
 21
487.4076819496936
 31
0.0
  0
LINE
  5
384
330
1B
100
AcDbEntity
  8
4
100
AcDbLine
 10
1944.917431141264
 20
473.4076819496936
 30
0.0
 11
1945.467477141264
 21
473.4076819496936
 31
0.0
  0
LINE
  5
385
330
1B
100
AcDbEntity
  8
4
100
AcDbLine
 10
1990.367381141264
 20
473.4076819496936
 30
0.0
 11
1990.917427141264
 21
473.4076819496936
 31
0.0
  0
LINE
  5
386
330
1B
100
AcDbEntity
  8
4
100
AcDbLine
 10
1989.917428141265
 20
467.4076809496933
 30
0.0
 11
1945.917430141264
 21
467.4076809496933
 31
0.0
  0
LINE
  5
387
330
1B
100
AcDbEntity
  8
4
100
AcDbLine
 10
1945.917430141264
 20
467.4076809496933
 30
0.0
 11
1989.917428141265
 21
467.4076809496933
 31
0.0
  0
LINE
  5
388
330
1B
100
AcDbEntity
  8
4
100
AcDbLine
 10
1944.917431141264
 20
469.4076789496935
 30
0.0
 11
1945.592476141264
 21
469.4076789496935
 31
0.0
  0
LINE
  5
389
330
1B
100
AcDbEntity
  8
4
100
AcDbLine
 10
1944.917431141264
 20
469.4076789496935
 30
0.0
 11
1944.917431141264
 21
473.4076819496936
 31
0.0
  0
LINE
  5
38A
330
1B
100
AcDbEntity
  8
4
100
AcDbLine
 10
1946.992378141263
 20
485.4076769496937
 30
0.0
 11
1945.417427141264
 21
467.4076809496933
 31
0.0
  0
LINE
  5
38B
330
1B
100
AcDbEntity
  8
4
100
AcDbLine
 10
1990.242627141264
 20
469.4076789496935
 30
0.0
 11
1990.917427141264
 21
469.4076789496935
 31
0.0
  0
LINE
  5
38C
330
1B
100
AcDbEntity
  8
4
100
AcDbLine
 10
1990.917427141264
 20
469.4076789496935
 30
0.0
 11
1990.917427141264
 21
473.4076819496936
 31
0.0
  0
LINE
  5
38D
330
1B
100
AcDbEntity
  8
4
100
AcDbLine
 10
1988.842963141263
 20
485.4076769496937
 30
0.0
 11
1990.417676141263
 21
467.4076809496933
 31
0.0
  0
LINE
  5
38E
330
1B
100
AcDbEntity
  8
CENTER
100
AcDbLine
 10
2527.917429141263
 20
455.433802949693
 30
0.0
 11
2527.917429141263
 21
569.3815529496942
 31
0.0
  0
ARC
  5
38F
330
1B
100
AcDbEntity
  8
4
100
AcDbCircle
 10
2527.917429141263
 20
512.4076779496936
 30
0.0
 40
45.000025
100
AcDbArc
 50
299.2636560000004
 51
240.7349550000009
  0
CIRCLE
  5
390
330
1B
100
AcDbEntity
  8
4
100
AcDbCircle
 10
2527.917429141263
 20
512.4076779496936
 30
0.0
 40
25.000003
  0
LINE
  5
391
330
1B
100
AcDbEntity
  8
L-CENTER
100
AcDbLine
 10
2584.891304141265
 20
512.4076779496936
 30
0.0
 11
2470.943554141264
 21
512.4076779496936
 31
0.0
  0
LINE
  5
392
330
1B
100
AcDbEntity
  8
4
100
AcDbLine
 10
2506.991895141263
 20
485.4076769496937
 30
0.0
 11
2505.417182141263
 21
467.4076809496933
 31
0.0
  0
LINE
  5
393
330
1B
100
AcDbEntity
  8
4
100
AcDbLine
 10
2548.842480141263
 20
485.4076769496937
 30
0.0
 11
2550.417431141264
 21
467.4076809496933
 31
0.0
  0
LINE
  5
394
330
1B
100
AcDbEntity
  8
4
100
AcDbLine
 10
2548.842480141263
 20
485.4076769496937
 30
0.0
 11
2527.917429141263
 21
487.4076819496936
 31
0.0
  0
LINE
  5
395
330
1B
100
AcDbEntity
  8
4
100
AcDbLine
 10
2506.991895141263
 20
485.4076769496937
 30
0.0
 11
2548.842480141263
 21
485.4076769496937
 31
0.0
  0
LINE
  5
396
330
1B
100
AcDbEntity
  8
4
100
AcDbLine
 10
2527.917429141263
 20
487.4076819496936
 30
0.0
 11
2506.991895141263
 21
485.4076769496937
 31
0.0
  0
LINE
  5
397
330
1B
100
AcDbEntity
  8
4
100
AcDbLine
 10
2504.917431141264
 20
469.4076789496935
 30
0.0
 11
2504.917431141264
 21
473.4076819496936
 31
0.0
  0
LINE
  5
398
330
1B
100
AcDbEntity
  8
4
100
AcDbLine
 10
2505.592231141265
 20
469.4076789496935
 30
0.0
 11
2504.917431141264
 21
469.4076789496935
 31
0.0
  0
LINE
  5
399
330
1B
100
AcDbEntity
  8
4
100
AcDbLine
 10
2550.917427141264
 20
469.4076789496935
 30
0.0
 11
2550.917427141264
 21
473.4076819496936
 31
0.0
  0
LINE
  5
39A
330
1B
100
AcDbEntity
  8
4
100
AcDbLine
 10
2550.917427141264
 20
469.4076789496935
 30
0.0
 11
2550.242382141264
 21
469.4076789496935
 31
0.0
  0
LINE
  5
39B
330
1B
100
AcDbEntity
  8
4
100
AcDbLine
 10
2549.917428141265
 20
467.4076809496933
 30
0.0
 11
2505.917430141264
 21
467.4076809496933
 31
0.0
  0
LINE
  5
39C
330
1B
100
AcDbEntity
  8
4
100
AcDbLine
 10
2505.917430141264
 20
467.4076809496933
 30
0.0
 11
2549.917428141265
 21
467.4076809496933
 31
0.0
  0
LINE
  5
39D
330
1B
100
AcDbEntity
  8
4
100
AcDbLine
 10
2505.467477141264
 20
473.4076819496936
 30
0.0
 11
2504.917431141264
 21
473.4076819496936
 31
0.0
  0
LINE
  5
39E
330
1B
100
AcDbEntity
  8
4
100
AcDbLine
 10
2550.917427141264
 20
473.4076819496936
 30
0.0
 11
2550.367381141264
 21
473.4076819496936
 31
0.0
  0
ARC
  5
39F
330
1B
100
AcDbEntity
  8
4
100
AcDbCircle
 10
940.6624212440324
 20
1785.771004521609
 30
0.0
 40
10.0
100
AcDbArc
 50
0.0
 51
180.0
  0
ARC
  5
3A0
330
1B
100
AcDbEntity
  8
4
100
AcDbCircle
 10
940.6624212440324
 20
1715.771004521609
 30
0.0
 40
10.0
100
AcDbArc
 50
180.0
 51
0.0
  0
ARC
  5
3A1
330
1B
100
AcDbEntity
  8
4
100
AcDbCircle
 10
940.6624212440324
 20
1750.771004521609
 30
0.0
 40
22.5
100
AcDbArc
 50
116.387799961243
 51
243.612200038757
  0
ARC
  5
3A2
330
1B
100
AcDbEntity
  8
4
100
AcDbCircle
 10
940.6624212440324
 20
1750.771004521609
 30
0.0
 40
20.0
100
AcDbArc
 50
119.9999999999999
 51
240.0000000000001
  0
LINE
  5
3A3
330
1B
100
AcDbEntity
  8
4
100
AcDbLine
 10
930.6624212440324
 20
1715.771004521609
 30
0.0
 11
930.6624212440324
 21
1785.771004521609
 31
0.0
  0
ARC
  5
3A4
330
1B
100
AcDbEntity
  8
4
100
AcDbCircle
 10
940.6624212440324
 20
1750.771004521609
 30
0.0
 40
20.0
100
AcDbArc
 50
299.9999999999998
 51
60.00000000000011
  0
ARC
  5
3A5
330
1B
100
AcDbEntity
  8
4
100
AcDbCircle
 10
940.6624212440324
 20
1750.771004521609
 30
0.0
 40
22.5
100
AcDbArc
 50
296.387799961243
 51
63.61220003875699
  0
LINE
  5
3A6
330
1B
100
AcDbEntity
  8
4
100
AcDbLine
 10
950.6624212440324
 20
1715.771004521609
 30
0.0
 11
950.6624212440324
 21
1785.771004521609
 31
0.0
  0
ARC
  5
3A7
330
1B
100
AcDbEntity
  8
4
100
AcDbCircle
 10
940.6624212440306
 20
1750.771004521609
 30
0.0
 40
25.0
100
AcDbArc
 50
293.5781784782057
 51
66.42182152179429
  0
ARC
  5
3A8
330
1B
100
AcDbEntity
  8
4
100
AcDbCircle
 10
940.6624212440306
 20
1190.771004521607
 30
0.0
 40
25.0
100
AcDbArc
 50
113.5781784781973
 51
246.4218215218027
  0
ARC
  5
3A9
330
1B
100
AcDbEntity
  8
4
100
AcDbCircle
 10
940.6624212440324
 20
1190.771004521607
 30
0.0
 40
20.0
100
AcDbArc
 50
119.9999999999999
 51
240.0000000000001
  0
ARC
  5
3AA
330
1B
100
AcDbEntity
  8
4
100
AcDbCircle
 10
940.6624212440324
 20
1190.771004521607
 30
0.0
 40
22.5
100
AcDbArc
 50
116.387799961243
 51
243.612200038757
  0
LINE
  5
3AB
330
1B
100
AcDbEntity
  8
CENTER
100
AcDbLine
 10
900.6624212440324
 20
1190.771004521607
 30
0.0
 11
980.6624212440324
 21
1190.771004521607
 31
0.0
  0
ARC
  5
3AC
330
1B
100
AcDbEntity
  8
4
100
AcDbCircle
 10
940.6624212440306
 20
1190.771004521607
 30
0.0
 40
25.0
100
AcDbArc
 50
293.5781784782057
 51
66.42182152179429
  0
LINE
  5
3AD
330
1B
100
AcDbEntity
  8
4
100
AcDbLine
 10
950.6624212440324
 20
1225.771004521607
 30
0.0
 11
950.6624212440324
 21
1155.771004521607
 31
0.0
  0
ARC
  5
3AE
330
1B
100
AcDbEntity
  8
4
100
AcDbCircle
 10
940.6624212440324
 20
1190.771004521607
 30
0.0
 40
22.5
100
AcDbArc
 50
296.387799961243
 51
63.61220003875699
  0
ARC
  5
3AF
330
1B
100
AcDbEntity
  8
4
100
AcDbCircle
 10
940.6624212440324
 20
1190.771004521607
 30
0.0
 40
20.0
100
AcDbArc
 50
299.9999999999998
 51
60.00000000000011
  0
LINE
  5
3B0
330
1B
100
AcDbEntity
  8
4
100
AcDbLine
 10
930.6624212440324
 20
1225.771004521607
 30
0.0
 11
930.6624212440324
 21
1155.771004521607
 31
0.0
  0
ARC
  5
3B1
330
1B
100
AcDbEntity
  8
4
100
AcDbCircle
 10
940.6624212440324
 20
1225.771004521607
 30
0.0
 40
10.0
100
AcDbArc
 50
0.0
 51
180.0
  0
ARC
  5
3B2
330
1B
100
AcDbEntity
  8
4
100
AcDbCircle
 10
940.6624212440324
 20
1155.771004521607
 30
0.0
 40
10.0
100
AcDbArc
 50
180.0
 51
0.0
  0
LINE
  5
3B3
330
1B
100
AcDbEntity
  8
L-CENTER
100
AcDbLine
 10
920.7840032440322
 20
512.4076779496936
 30
0.0
 11
963.6709662440312
 21
512.4076779496936
 31
0.0
  0
ARC
  5
3B4
330
1B
100
AcDbEntity
  8
4
100
AcDbCircle
 10
940.6624212440324
 20
547.4076779496936
 30
0.0
 40
9.999996999999999
100
AcDbArc
 50
0.0
 51
180.0
  0
LINE
  5
3B5
330
1B
100
AcDbEntity
  8
4
100
AcDbLine
 10
930.6624172440311
 20
475.4076799496938
 30
0.0
 11
930.6624172440311
 21
547.4076779496936
 31
0.0
  0
LINE
  5
3B6
330
1B
100
AcDbEntity
  8
4
100
AcDbLine
 10
930.6624172440311
 20
486.4518669496933
 30
0.0
 11
919.7371252440312
 21
485.4076769496937
 31
0.0
  0
LINE
  5
3B7
330
1B
100
AcDbEntity
  8
4
100
AcDbLine
 10
919.7371252440312
 20
485.4076769496937
 30
0.0
 11
930.6624172440311
 21
485.4076769496937
 31
0.0
  0
LINE
  5
3B8
330
1B
100
AcDbEntity
  8
4
100
AcDbLine
 10
919.7371252440312
 20
485.4076769496937
 30
0.0
 11
918.1624192440318
 21
467.4076809496933
 31
0.0
  0
ARC
  5
3B9
330
1B
100
AcDbEntity
  8
4
100
AcDbCircle
 10
926.6624212440324
 20
475.4076799496938
 30
0.0
 40
4.000003
100
AcDbArc
 50
270.0
 51
0.0
  0
LINE
  5
3BA
330
1B
100
AcDbEntity
  8
4
100
AcDbLine
 10
950.6624182440314
 20
475.4076799496938
 30
0.0
 11
950.6624182440314
 21
547.4076779496936
 31
0.0
  0
LINE
  5
3BB
330
1B
100
AcDbEntity
  8
4
100
AcDbLine
 10
950.6624182440314
 20
486.4518669496933
 30
0.0
 11
961.5877102440313
 21
485.4076769496937
 31
0.0
  0
LINE
  5
3BC
330
1B
100
AcDbEntity
  8
4
100
AcDbLine
 10
950.6624182440314
 20
485.4076769496937
 30
0.0
 11
961.5877102440313
 21
485.4076769496937
 31
0.0
  0
ARC
  5
3BD
330
1B
100
AcDbEntity
  8
4
100
AcDbCircle
 10
954.6624212440324
 20
475.4076799496938
 30
0.0
 40
4.000003
100
AcDbArc
 50
180.0
 51
270.0
  0
LINE
  5
3BE
330
1B
100
AcDbEntity
  8
4
100
AcDbLine
 10
961.5877102440313
 20
485.4076769496937
 30
0.0
 11
963.1624232440313
 21
467.4076809496933
 31
0.0
  0
LINE
  5
3BF
330
1B
100
AcDbEntity
  8
4
100
AcDbLine
 10
950.6624182440314
 20
488.8076809496947
 30
0.0
 11
960.4041808873058
 21
488.8076809496947
 31
0.0
  0
ARC
  5
3C0
330
1B
100
AcDbEntity
  8
4
100
AcDbCircle
 10
1365.7412466703
 20
1645.899161167785
 30
0.0
 40
18.32117357373317
100
AcDbArc
 50
337.7806898294728
 51
22.21931017053041
  0
LINE
  5
3C1
330
1B
100
AcDbEntity
  8
4
100
AcDbLine
 10
1384.062420244034
 20
1656.291466013198
 30
0.0
 11
1384.062420244034
 21
1635.506856322371
 31
0.0
  0
LINE
  5
3C2
330
1B
100
AcDbEntity
  8
4
100
AcDbLine
 10
1370.062420244034
 20
1632.042754707233
 30
0.0
 11
1370.062420244034
 21
1659.755567628335
 31
0.0
  0
LINE
  5
3C3
330
1B
100
AcDbEntity
  8
4
100
AcDbLine
 10
1374.062420244034
 20
1632.042754707233
 30
0.0
 11
1374.062420244034
 21
1659.755567628335
 31
0.0
  0
LINE
  5
3C4
330
1B
100
AcDbEntity
  8
4
100
AcDbLine
 10
1370.062425244032
 20
1618.771009521608
 30
0.0
 11
1370.062425244032
 21
1796.771006521608
 31
0.0
  0
LINE
  5
3C5
330
1B
100
AcDbEntity
  8
4
100
AcDbLine
 10
1382.701948339714
 20
1632.042754707233
 30
0.0
 11
1370.062420244034
 21
1632.042754707233
 31
0.0
  0
LINE
  5
3C6
330
1B
100
AcDbEntity
  8
4
100
AcDbLine
 10
1382.701948339714
 20
1638.970957937509
 30
0.0
 11
1374.062420244034
 21
1638.970957937509
 31
0.0
  0
ARC
  5
3C7
330
1B
100
AcDbEntity
  8
4
100
AcDbCircle
 10
1369.062419244031
 20
1618.771009521608
 30
0.0
 40
0.9999989999999999
100
AcDbArc
 50
270.0
 51
0.0
  0
ARC
  5
3C8
330
1B
100
AcDbEntity
  8
4
100
AcDbCircle
 10
1378.971949886481
 20
1635.506856322371
 30
0.0
 40
5.090470357553012
100
AcDbArc
 50
317.1167115949086
 51
42.88328840509141
  0
LINE
  5
3CB
330
1B
100
AcDbEntity
  8
4
100
AcDbLine
 10
1382.701948339714
 20
1652.82736439806
 30
0.0
 11
1374.062420244034
 21
1652.82736439806
 31
0.0
  0
LINE
  5
3CC
330
1B
100
AcDbEntity
  8
4
100
AcDbLine
 10
1370.062420244034
 20
1659.755567628335
 30
0.0
 11
1382.701948339714
 21
1659.755567628335
 31
0.0
  0
ARC
  5
3D5
330
1B
100
AcDbEntity
  8
4
100
AcDbCircle
 10
1378.971949886479
 20
1656.291466013198
 30
0.0
 40
5.090470357553002
100
AcDbArc
 50
317.1167115949213
 51
42.88328840508593
  0
LINE
  5
3DE
330
1B
100
AcDbEntity
  8
4
100
AcDbLine
 10
1382.701948339712
 20
1762.714644645156
 30
0.0
 11
1374.062420244032
 21
1762.714644645156
 31
0.0
  0
LINE
  5
3DF
330
1B
100
AcDbEntity
  8
4
100
AcDbLine
 10
1370.062420244032
 20
1755.78644141488
 30
0.0
 11
1382.701948339712
 21
1755.78644141488
 31
0.0
  0
LINE
  5
3E0
330
1B
100
AcDbEntity
  8
4
100
AcDbLine
 10
1382.701948339712
 20
1776.571051105706
 30
0.0
 11
1374.062420244032
 21
1776.571051105706
 31
0.0
  0
LINE
  5
3E1
330
1B
100
AcDbEntity
  8
4
100
AcDbLine
 10
1382.701948339712
 20
1783.499254335983
 30
0.0
 11
1370.062420244032
 21
1783.499254335983
 31
0.0
  0
LINE
  5
3E2
330
1B
100
AcDbEntity
  8
4
100
AcDbLine
 10
1374.062420244032
 20
1783.499254335983
 30
0.0
 11
1374.062420244032
 21
1755.78644141488
 31
0.0
  0
LINE
  5
3E3
330
1B
100
AcDbEntity
  8
4
100
AcDbLine
 10
1370.062420244032
 20
1783.499254335983
 30
0.0
 11
1370.062420244032
 21
1755.78644141488
 31
0.0
  0
ARC
  5
3E4
330
1B
100
AcDbEntity
  8
4
100
AcDbCircle
 10
1369.062419244031
 20
1796.771006521608
 30
0.0
 40
0.9999989999999999
100
AcDbArc
 50
0.0
 51
90.0
  0
ARC
  5
3E5
330
1B
100
AcDbEntity
  8
4
100
AcDbCircle
 10
1378.971949886479
 20
1759.250543030018
 30
0.0
 40
5.090470357553002
100
AcDbArc
 50
317.1167115949086
 51
42.88328840509141
  0
ARC
  5
3E6
330
1B
100
AcDbEntity
  8
4
100
AcDbCircle
 10
1378.971949886479
 20
1780.035152720845
 30
0.0
 40
5.090470357553012
100
AcDbArc
 50
317.1167115949086
 51
42.88328840509141
  0
ARC
  5
3E7
330
1B
100
AcDbEntity
  8
4
100
AcDbCircle
 10
1365.741246670299
 20
1769.642847875431
 30
0.0
 40
18.32117357373317
100
AcDbArc
 50
337.7806898294712
 51
22.21931017052882
  0
LINE
  5
3E8
330
1B
100
AcDbEntity
  8
4
100
AcDbLine
 10
1384.062420244032
 20
1759.250543030018
 30
0.0
 11
1384.062420244032
 21
1780.035152720845
 31
0.0
  0
LINE
  5
3E9
330
1B
100
AcDbEntity
  8
4
100
AcDbLine
 10
1351.662421244031
 20
1617.771004521608
 30
0.0
 11
1351.662421244031
 21
1797.771004521608
 31
0.0
  0
LINE
  5
3EA
330
1B
100
AcDbEntity
  8
L-CENTER
100
AcDbLine
 10
1385.663260124138
 20
1645.899161167785
 30
0.0
 11
1329.120751531543
 21
1645.899161167784
 31
0.0
  0
LINE
  5
3EB
330
1B
100
AcDbEntity
  8
L-CENTER
100
AcDbLine
 10
1385.663260124136
 20
1769.642847875431
 30
0.0
 11
1329.120751531541
 21
1769.642847875431
 31
0.0
  0
LINE
  5
3EC
330
1B
100
AcDbEntity
  8
4
100
AcDbLine
 10
507.2917608820944
 20
1632.042754707233
 30
0.0
 11
507.2917608820944
 21
1659.755567628335
 31
0.0
  0
LINE
  5
3ED
330
1B
100
AcDbEntity
  8
4
100
AcDbLine
 10
511.2917608820944
 20
1632.042754707233
 30
0.0
 11
511.2917608820944
 21
1659.755567628335
 31
0.0
  0
LINE
  5
3EE
330
1B
100
AcDbEntity
  8
4
100
AcDbLine
 10
497.2917608820944
 20
1656.291466013198
 30
0.0
 11
497.2917608820944
 21
1635.506856322371
 31
0.0
  0
ARC
  5
3EF
330
1B
100
AcDbEntity
  8
4
100
AcDbCircle
 10
515.6129344558276
 20
1645.899161167785
 30
0.0
 40
18.32117357373317
100
AcDbArc
 50
157.7806898294696
 51
202.2193101705273
  0
LINE
  5
3F0
330
1B
100
AcDbEntity
  8
4
100
AcDbLine
 10
511.2917558820927
 20
1618.771009521618
 30
0.0
 11
511.2917558820964
 21
1796.771006521618
 31
0.0
  0
LINE
  5
3F1
330
1B
100
AcDbEntity
  8
4
100
AcDbLine
 10
498.6522327864141
 20
1638.970957937509
 30
0.0
 11
507.2917608820944
 21
1638.970957937509
 31
0.0
  0
LINE
  5
3F2
330
1B
100
AcDbEntity
  8
4
100
AcDbLine
 10
498.6522327864141
 20
1632.042754707233
 30
0.0
 11
511.2917608820944
 21
1632.042754707233
 31
0.0
  0
ARC
  5
3F3
330
1B
100
AcDbEntity
  8
4
100
AcDbCircle
 10
502.3822312396478
 20
1635.506856322371
 30
0.0
 40
5.090470357553012
100
AcDbArc
 50
137.1167115949141
 51
222.8832884050859
  0
ARC
  5
3F4
330
1B
100
AcDbEntity
  8
4
100
AcDbCircle
 10
512.2917618820929
 20
1618.771009521618
 30
0.0
 40
0.9999989999999999
100
AcDbArc
 50
180.0
 51
270.0
  0
LINE
  5
3F5
330
1B
100
AcDbEntity
  8
4
100
AcDbLine
 10
511.2917608820944
 20
1659.755567628335
 30
0.0
 11
498.6522327864141
 21
1659.755567628335
 31
0.0
  0
LINE
  5
3F6
330
1B
100
AcDbEntity
  8
4
100
AcDbLine
 10
498.6522327864141
 20
1652.82736439806
 30
0.0
 11
507.2917608820944
 21
1652.82736439806
 31
0.0
  0
ARC
  5
3F7
330
1B
100
AcDbEntity
  8
4
100
AcDbCircle
 10
502.3822312396478
 20
1656.291466013198
 30
0.0
 40
5.090470357553002
100
AcDbArc
 50
137.1167115949141
 51
222.8832884050859
  0
LINE
  5
3F8
330
1B
100
AcDbEntity
  8
4
100
AcDbLine
 10
498.652232786415
 20
1783.499254335983
 30
0.0
 11
511.2917608820953
 21
1783.499254335983
 31
0.0
  0
LINE
  5
3F9
330
1B
100
AcDbEntity
  8
4
100
AcDbLine
 10
498.652232786415
 20
1776.571051105706
 30
0.0
 11
507.2917608820953
 21
1776.571051105706
 31
0.0
  0
LINE
  5
3FA
330
1B
100
AcDbEntity
  8
4
100
AcDbLine
 10
511.2917608820953
 20
1755.78644141488
 30
0.0
 11
498.652232786415
 21
1755.78644141488
 31
0.0
  0
LINE
  5
3FB
330
1B
100
AcDbEntity
  8
4
100
AcDbLine
 10
498.652232786415
 20
1762.714644645156
 30
0.0
 11
507.2917608820953
 21
1762.714644645156
 31
0.0
  0
LINE
  5
3FC
330
1B
100
AcDbEntity
  8
4
100
AcDbLine
 10
497.2917608820953
 20
1759.250543030018
 30
0.0
 11
497.2917608820953
 21
1780.035152720845
 31
0.0
  0
ARC
  5
3FD
330
1B
100
AcDbEntity
  8
4
100
AcDbCircle
 10
515.6129344558285
 20
1769.642847875431
 30
0.0
 40
18.32117357373317
100
AcDbArc
 50
157.7806898294711
 51
202.2193101705289
  0
ARC
  5
3FE
330
1B
100
AcDbEntity
  8
4
100
AcDbCircle
 10
502.3822312396487
 20
1780.035152720845
 30
0.0
 40
5.090470357553012
100
AcDbArc
 50
137.1167115949141
 51
222.8832884050859
  0
ARC
  5
3FF
330
1B
100
AcDbEntity
  8
4
100
AcDbCircle
 10
502.3822312396487
 20
1759.250543030018
 30
0.0
 40
5.090470357553002
100
AcDbArc
 50
137.1167115949141
 51
222.8832884050859
  0
LINE
  5
400
330
1B
100
AcDbEntity
  8
4
100
AcDbLine
 10
511.2917608820953
 20
1783.499254335983
 30
0.0
 11
511.2917608820953
 21
1755.78644141488
 31
0.0
  0
LINE
  5
401
330
1B
100
AcDbEntity
  8
4
100
AcDbLine
 10
507.2917608820953
 20
1783.499254335983
 30
0.0
 11
507.2917608820953
 21
1755.78644141488
 31
0.0
  0
ARC
  5
402
330
1B
100
AcDbEntity
  8
4
100
AcDbCircle
 10
512.2917618820966
 20
1796.771006521618
 30
0.0
 40
0.9999989999999999
100
AcDbArc
 50
90.0
 51
180.0
  0
LINE
  5
403
330
1B
100
AcDbEntity
  8
L-CENTER
100
AcDbLine
 10
495.6909210019903
 20
1645.899161167785
 30
0.0
 11
552.2334295945848
 21
1645.899161167784
 31
0.0
  0
LINE
  5
404
330
1B
100
AcDbEntity
  8
L-CENTER
100
AcDbLine
 10
495.6909210019912
 20
1769.642847875431
 30
0.0
 11
552.2334295945857
 21
1769.642847875431
 31
0.0
  0
CIRCLE
  5
405
330
1B
100
AcDbEntity
  8
4
100
AcDbCircle
 10
1089.662421244031
 20
1457.771004521608
 30
0.0
 40
60.000003
  0
LINE
  5
406
330
1B
100
AcDbEntity
  8
4
100
AcDbLine
 10
925.0737992440313
 20
1883.270999521609
 30
0.0
 11
956.2507982440325
 21
1883.270999521609
 31
0.0
  0
LINE
  5
407
330
1B
100
AcDbEntity
  8
4
100
AcDbLine
 10
923.6624172440329
 20
1874.771004521609
 30
0.0
 11
957.6624182440314
 21
1874.771004521609
 31
0.0
  0
LINE
  5
408
330
1B
100
AcDbEntity
  8
4
100
AcDbLine
 10
922.6624182440314
 20
1876.270999521609
 30
0.0
 11
958.6624172440329
 21
1876.270999521609
 31
0.0
  0
LINE
  5
409
330
1B
100
AcDbEntity
  8
4
100
AcDbLine
 10
922.6624182440314
 20
1878.271004521609
 30
0.0
 11
958.6624172440329
 21
1878.271004521609
 31
0.0
  0
LINE
  5
40A
330
1B
100
AcDbEntity
  8
4
 62
     3
100
AcDbLine
 10
960.6624212440324
 20
1874.771004521609
 30
0.0
 11
920.6624212440324
 21
1874.771004521609
 31
0.0
  0
LINE
  5
40B
330
1B
100
AcDbEntity
  8
4
100
AcDbLine
 10
958.6624172440329
 20
1876.270999521609
 30
0.0
 11
958.6624172440329
 21
1878.271004521609
 31
0.0
  0
LINE
  5
40C
330
1B
100
AcDbEntity
  8
4
100
AcDbLine
 10
957.6624182440314
 20
1874.771004521609
 30
0.0
 11
957.6624182440314
 21
1876.270999521609
 31
0.0
  0
LINE
  5
40D
330
1B
100
AcDbEntity
  8
4
 62
     3
100
AcDbLine
 10
960.6624212440324
 20
1872.273183843215
 30
0.0
 11
960.6624212440324
 21
1874.771004521609
 31
0.0
  0
LINE
  5
40E
330
1B
100
AcDbEntity
  8
4
100
AcDbLine
 10
922.6624182440314
 20
1876.270999521609
 30
0.0
 11
922.6624182440314
 21
1878.271004521609
 31
0.0
  0
LINE
  5
40F
330
1B
100
AcDbEntity
  8
4
100
AcDbLine
 10
923.6624172440329
 20
1876.270999521609
 30
0.0
 11
923.6624172440329
 21
1874.771004521609
 31
0.0
  0
LINE
  5
410
330
1B
100
AcDbEntity
  8
4
 62
     3
100
AcDbLine
 10
920.6624212440324
 20
1872.273183843215
 30
0.0
 11
920.6624212440324
 21
1874.771004521609
 31
0.0
  0
LINE
  5
411
330
1B
100
AcDbEntity
  8
4
100
AcDbLine
 10
956.2507982440325
 20
1878.271004521609
 30
0.0
 11
956.2507982440325
 21
1883.270999521609
 31
0.0
  0
LINE
  5
412
330
1B
100
AcDbEntity
  8
4
100
AcDbLine
 10
925.0737992440313
 20
1878.271004521609
 30
0.0
 11
925.0737992440313
 21
1883.270999521609
 31
0.0
  0
LINE
  5
413
330
1B
100
AcDbEntity
  8
4
100
AcDbLine
 10
692.4171730648136
 20
1728.814211671959
 30
0.0
 11
688.8308711761415
 21
1742.198472531764
 31
0.0
  0
CIRCLE
  5
414
330
1B
100
AcDbEntity
  8
4
100
AcDbCircle
 10
679.0329122050075
 20
1732.400513560631
 30
0.0
 40
12.0
  0
LINE
  5
415
330
1B
100
AcDbEntity
  8
4
100
AcDbLine
 10
669.2349532338753
 20
1722.602554589499
 30
0.0
 11
682.6192140936814
 21
1719.016252700826
 31
0.0
  0
LINE
  5
416
330
1B
100
AcDbEntity
  8
4
100
AcDbLine
 10
682.6192140936814
 20
1719.016252700826
 30
0.0
 11
692.4171730648136
 21
1728.814211671959
 31
0.0
  0
LINE
  5
417
330
1B
100
AcDbEntity
  8
4
100
AcDbLine
 10
688.8308711761415
 20
1742.198472531764
 30
0.0
 11
675.4466103163372
 21
1745.784774420436
 31
0.0
  0
LINE
  5
418
330
1B
100
AcDbEntity
  8
4
100
AcDbLine
 10
675.4466103163372
 20
1745.784774420436
 30
0.0
 11
665.6486513452032
 21
1735.986815449303
 31
0.0
  0
LINE
  5
419
330
1B
100
AcDbEntity
  8
4
100
AcDbLine
 10
665.6486513452032
 20
1735.986815449303
 30
0.0
 11
669.2349532338753
 21
1722.602554589499
 31
0.0
  0
LINE
  5
41A
330
1B
100
AcDbEntity
  8
4
100
AcDbLine
 10
1215.67619114286
 20
1735.986815449303
 30
0.0
 11
1212.089889254188
 21
1722.602554589499
 31
0.0
  0
LINE
  5
41B
330
1B
100
AcDbEntity
  8
4
100
AcDbLine
 10
1205.878232171728
 20
1745.784774420436
 30
0.0
 11
1215.67619114286
 21
1735.986815449303
 31
0.0
  0
LINE
  5
41C
330
1B
100
AcDbEntity
  8
4
100
AcDbLine
 10
1192.493971311923
 20
1742.198472531764
 30
0.0
 11
1205.878232171728
 21
1745.784774420436
 31
0.0
  0
LINE
  5
41D
330
1B
100
AcDbEntity
  8
4
100
AcDbLine
 10
1198.705628394383
 20
1719.016252700826
 30
0.0
 11
1188.907669423251
 21
1728.814211671959
 31
0.0
  0
LINE
  5
41E
330
1B
100
AcDbEntity
  8
4
100
AcDbLine
 10
1212.089889254188
 20
1722.602554589499
 30
0.0
 11
1198.705628394383
 21
1719.016252700826
 31
0.0
  0
CIRCLE
  5
41F
330
1B
100
AcDbEntity
  8
4
100
AcDbCircle
 10
1202.291930283056
 20
1732.400513560631
 30
0.0
 40
12.0
  0
LINE
  5
420
330
1B
100
AcDbEntity
  8
4
100
AcDbLine
 10
1188.907669423251
 20
1728.814211671959
 30
0.0
 11
1192.493971311923
 21
1742.198472531764
 31
0.0
  0
CIRCLE
  5
421
330
1B
100
AcDbEntity
  8
4
100
AcDbCircle
 10
1202.291930283056
 20
1209.141495482585
 30
0.0
 40
12.0
  0
LINE
  5
422
330
1B
100
AcDbEntity
  8
4
100
AcDbLine
 10
1212.089889254188
 20
1218.939454453718
 30
0.0
 11
1198.705628394383
 21
1222.525756342391
 31
0.0
  0
LINE
  5
423
330
1B
100
AcDbEntity
  8
4
100
AcDbLine
 10
1205.878232171728
 20
1195.75723462278
 30
0.0
 11
1215.67619114286
 21
1205.555193593913
 31
0.0
  0
LINE
  5
424
330
1B
100
AcDbEntity
  8
4
100
AcDbLine
 10
1188.907669423251
 20
1212.727797371257
 30
0.0
 11
1192.493971311923
 21
1199.343536511452
 31
0.0
  0
LINE
  5
425
330
1B
100
AcDbEntity
  8
4
100
AcDbLine
 10
1198.705628394383
 20
1222.525756342391
 30
0.0
 11
1188.907669423251
 21
1212.727797371257
 31
0.0
  0
LINE
  5
426
330
1B
100
AcDbEntity
  8
4
100
AcDbLine
 10
1192.493971311923
 20
1199.343536511452
 30
0.0
 11
1205.878232171728
 21
1195.75723462278
 31
0.0
  0
LINE
  5
427
330
1B
100
AcDbEntity
  8
4
100
AcDbLine
 10
1215.67619114286
 20
1205.555193593913
 30
0.0
 11
1212.089889254188
 21
1218.939454453718
 31
0.0
  0
LINE
  5
428
330
1B
100
AcDbEntity
  8
4
100
AcDbLine
 10
665.6486513452032
 20
1205.555193593913
 30
0.0
 11
669.2349532338753
 21
1218.939454453718
 31
0.0
  0
LINE
  5
429
330
1B
100
AcDbEntity
  8
4
100
AcDbLine
 10
675.4466103163372
 20
1195.75723462278
 30
0.0
 11
665.6486513452032
 21
1205.555193593913
 31
0.0
  0
LINE
  5
42A
330
1B
100
AcDbEntity
  8
4
100
AcDbLine
 10
688.8308711761415
 20
1199.343536511452
 30
0.0
 11
675.4466103163372
 21
1195.75723462278
 31
0.0
  0
LINE
  5
42B
330
1B
100
AcDbEntity
  8
4
100
AcDbLine
 10
682.6192140936814
 20
1222.525756342391
 30
0.0
 11
692.4171730648136
 21
1212.727797371257
 31
0.0
  0
LINE
  5
42C
330
1B
100
AcDbEntity
  8
4
100
AcDbLine
 10
669.2349532338753
 20
1218.939454453718
 30
0.0
 11
682.6192140936814
 21
1222.525756342391
 31
0.0
  0
CIRCLE
  5
42D
330
1B
100
AcDbEntity
  8
4
100
AcDbCircle
 10
679.0329122050075
 20
1209.141495482585
 30
0.0
 40
12.0
  0
LINE
  5
42E
330
1B
100
AcDbEntity
  8
4
100
AcDbLine
 10
692.4171730648136
 20
1212.727797371257
 30
0.0
 11
688.8308711761415
 21
1199.343536511452
 31
0.0
  0
CIRCLE
  5
42F
330
1B
100
AcDbEntity
  8
4
100
AcDbCircle
 10
940.6624212440324
 20
1840.771004521609
 30
0.0
 40
12.0
  0
LINE
  5
430
330
1B
100
AcDbEntity
  8
4
100
AcDbLine
 10
952.6624212440324
 20
1833.842801291335
 30
0.0
 11
940.6624212440324
 21
1826.914598061058
 31
0.0
  0
LINE
  5
431
330
1B
100
AcDbEntity
  8
4
100
AcDbLine
 10
940.6624212440324
 20
1854.627410982161
 30
0.0
 11
952.6624212440324
 21
1847.699207751885
 31
0.0
  0
LINE
  5
432
330
1B
100
AcDbEntity
  8
4
100
AcDbLine
 10
928.6624212440324
 20
1833.842801291335
 30
0.0
 11
928.6624212440324
 21
1847.699207751885
 31
0.0
  0
LINE
  5
433
330
1B
100
AcDbEntity
  8
4
100
AcDbLine
 10
940.6624212440324
 20
1826.914598061058
 30
0.0
 11
928.6624212440324
 21
1833.842801291335
 31
0.0
  0
LINE
  5
434
330
1B
100
AcDbEntity
  8
4
100
AcDbLine
 10
928.6624212440324
 20
1847.699207751885
 30
0.0
 11
940.6624212440324
 21
1854.627410982161
 31
0.0
  0
LINE
  5
435
330
1B
100
AcDbEntity
  8
4
100
AcDbLine
 10
952.6624212440324
 20
1847.699207751885
 30
0.0
 11
952.6624212440324
 21
1833.842801291335
 31
0.0
  0
LINE
  5
436
330
1B
100
AcDbEntity
  8
4
100
AcDbLine
 10
582.662421244032
 20
1477.699207751884
 30
0.0
 11
582.6624212440311
 21
1463.842801291334
 31
0.0
  0
LINE
  5
437
330
1B
100
AcDbEntity
  8
4
100
AcDbLine
 10
558.6624212440311
 20
1477.699207751885
 30
0.0
 11
570.662421244032
 21
1484.62741098216
 31
0.0
  0
LINE
  5
438
330
1B
100
AcDbEntity
  8
4
100
AcDbLine
 10
570.662421244032
 20
1456.914598061058
 30
0.0
 11
558.662421244032
 21
1463.842801291334
 31
0.0
  0
LINE
  5
439
330
1B
100
AcDbEntity
  8
4
100
AcDbLine
 10
558.662421244032
 20
1463.842801291334
 30
0.0
 11
558.6624212440311
 21
1477.699207751885
 31
0.0
  0
LINE
  5
43A
330
1B
100
AcDbEntity
  8
4
100
AcDbLine
 10
570.662421244032
 20
1484.62741098216
 30
0.0
 11
582.662421244032
 21
1477.699207751884
 31
0.0
  0
LINE
  5
43B
330
1B
100
AcDbEntity
  8
4
100
AcDbLine
 10
582.6624212440311
 20
1463.842801291334
 30
0.0
 11
570.662421244032
 21
1456.914598061058
 31
0.0
  0
CIRCLE
  5
43C
330
1B
100
AcDbEntity
  8
4
100
AcDbCircle
 10
570.662421244032
 20
1470.771004521609
 30
0.0
 40
12.0
  0
CIRCLE
  5
43D
330
1B
100
AcDbEntity
  8
4
100
AcDbCircle
 10
940.6624212440324
 20
1100.771004521609
 30
0.0
 40
12.0
  0
LINE
  5
43E
330
1B
100
AcDbEntity
  8
4
100
AcDbLine
 10
928.6624212440324
 20
1093.842801291335
 30
0.0
 11
928.6624212440324
 21
1107.699207751885
 31
0.0
  0
LINE
  5
43F
330
1B
100
AcDbEntity
  8
4
100
AcDbLine
 10
952.6624212440324
 20
1107.699207751885
 30
0.0
 11
952.6624212440324
 21
1093.842801291335
 31
0.0
  0
LINE
  5
440
330
1B
100
AcDbEntity
  8
4
100
AcDbLine
 10
952.6624212440324
 20
1093.842801291335
 30
0.0
 11
940.6624212440324
 21
1086.914598061058
 31
0.0
  0
LINE
  5
441
330
1B
100
AcDbEntity
  8
4
100
AcDbLine
 10
940.6624212440324
 20
1086.914598061058
 30
0.0
 11
928.6624212440324
 21
1093.842801291335
 31
0.0
  0
LINE
  5
442
330
1B
100
AcDbEntity
  8
4
100
AcDbLine
 10
940.6624212440324
 20
1114.627410982161
 30
0.0
 11
952.6624212440324
 21
1107.699207751885
 31
0.0
  0
LINE
  5
443
330
1B
100
AcDbEntity
  8
4
100
AcDbLine
 10
928.6624212440324
 20
1107.699207751885
 30
0.0
 11
940.6624212440324
 21
1114.627410982161
 31
0.0
  0
CIRCLE
  5
444
330
1B
100
AcDbEntity
  8
4
100
AcDbCircle
 10
1310.662421244032
 20
1470.771004521609
 30
0.0
 40
12.0
  0
LINE
  5
445
330
1B
100
AcDbEntity
  8
4
100
AcDbLine
 10
1298.662421244032
 20
1463.842801291334
 30
0.0
 11
1298.662421244031
 21
1477.699207751885
 31
0.0
  0
LINE
  5
446
330
1B
100
AcDbEntity
  8
4
100
AcDbLine
 10
1322.662421244032
 20
1477.699207751884
 30
0.0
 11
1322.662421244031
 21
1463.842801291334
 31
0.0
  0
LINE
  5
447
330
1B
100
AcDbEntity
  8
4
100
AcDbLine
 10
1322.662421244031
 20
1463.842801291334
 30
0.0
 11
1310.662421244032
 21
1456.914598061058
 31
0.0
  0
LINE
  5
448
330
1B
100
AcDbEntity
  8
4
100
AcDbLine
 10
1310.662421244032
 20
1456.914598061058
 30
0.0
 11
1298.662421244032
 21
1463.842801291334
 31
0.0
  0
LINE
  5
449
330
1B
100
AcDbEntity
  8
4
100
AcDbLine
 10
1310.662421244032
 20
1484.62741098216
 30
0.0
 11
1322.662421244032
 21
1477.699207751884
 31
0.0
  0
LINE
  5
44A
330
1B
100
AcDbEntity
  8
4
100
AcDbLine
 10
1298.662421244031
 20
1477.699207751885
 30
0.0
 11
1310.662421244032
 21
1484.62741098216
 31
0.0
  0
LINE
  5
44B
330
1B
100
AcDbEntity
  8
4
100
AcDbLine
 10
1296.80601478348
 20
456.4076809496933
 30
0.0
 11
1324.518827704583
 21
456.4076809496933
 31
0.0
  0
LINE
  5
44C
330
1B
100
AcDbEntity
  8
4
100
AcDbLine
 10
1296.80601478348
 20
452.4076809496933
 30
0.0
 11
1324.518827704583
 21
452.4076809496933
 31
0.0
  0
ARC
  5
44D
330
1B
100
AcDbEntity
  8
4
100
AcDbCircle
 10
1310.662421244032
 20
448.0865073759596
 30
0.0
 40
18.32117357373317
100
AcDbArc
 50
67.7806898294712
 51
112.219310170532
  0
LINE
  5
44E
330
1B
100
AcDbEntity
  8
4
100
AcDbLine
 10
1321.054726089445
 20
466.4076809496933
 30
0.0
 11
1300.270116398618
 21
466.4076809496933
 31
0.0
  0
LINE
  5
44F
330
1B
100
AcDbEntity
  8
4
100
AcDbLine
 10
1317.590624474307
 20
465.0472090453736
 30
0.0
 11
1317.590624474307
 21
456.4076809496933
 31
0.0
  0
ARC
  5
450
330
1B
100
AcDbEntity
  8
4
100
AcDbCircle
 10
1321.054726089445
 20
461.3172105921403
 30
0.0
 40
5.090470357553002
100
AcDbArc
 50
47.11671159490859
 51
132.8832884050787
  0
LINE
  5
451
330
1B
100
AcDbEntity
  8
4
100
AcDbLine
 10
1324.518827704583
 20
452.4076809496933
 30
0.0
 11
1324.518827704583
 21
465.0472090453736
 31
0.0
  0
LINE
  5
452
330
1B
100
AcDbEntity
  8
4
100
AcDbLine
 10
1303.734218013756
 20
465.0472090453736
 30
0.0
 11
1303.734218013756
 21
456.4076809496933
 31
0.0
  0
ARC
  5
453
330
1B
100
AcDbEntity
  8
4
100
AcDbCircle
 10
1300.270116398618
 20
461.3172105921403
 30
0.0
 40
5.090470357553012
100
AcDbArc
 50
47.11671159490859
 51
132.8832884050787
  0
LINE
  5
454
330
1B
100
AcDbEntity
  8
4
100
AcDbLine
 10
1296.80601478348
 20
465.0472090453736
 30
0.0
 11
1296.80601478348
 21
452.4076809496933
 31
0.0
  0
LINE
  5
455
330
1B
100
AcDbEntity
  8
4
100
AcDbLine
 10
1188.435523822503
 20
456.4076809496933
 30
0.0
 11
1216.148336743604
 21
456.4076809496933
 31
0.0
  0
LINE
  5
456
330
1B
100
AcDbEntity
  8
4
100
AcDbLine
 10
1188.435523822503
 20
452.4076809496933
 30
0.0
 11
1216.148336743604
 21
452.4076809496933
 31
0.0
  0
ARC
  5
457
330
1B
100
AcDbEntity
  8
4
100
AcDbCircle
 10
1202.291930283054
 20
448.0865073759596
 30
0.0
 40
18.32117357373317
100
AcDbArc
 50
67.78068982946803
 51
112.2193101705288
  0
LINE
  5
458
330
1B
100
AcDbEntity
  8
4
100
AcDbLine
 10
1212.684235128468
 20
466.4076809496933
 30
0.0
 11
1191.899625437641
 21
466.4076809496933
 31
0.0
  0
LINE
  5
459
330
1B
100
AcDbEntity
  8
4
100
AcDbLine
 10
1209.22013351333
 20
465.0472090453736
 30
0.0
 11
1209.22013351333
 21
456.4076809496933
 31
0.0
  0
ARC
  5
45A
330
1B
100
AcDbEntity
  8
4
100
AcDbCircle
 10
1212.684235128468
 20
461.3172105921403
 30
0.0
 40
5.090470357553002
100
AcDbArc
 50
47.11671159492132
 51
132.8832884050914
  0
LINE
  5
45B
330
1B
100
AcDbEntity
  8
4
100
AcDbLine
 10
1216.148336743604
 20
452.4076809496933
 30
0.0
 11
1216.148336743604
 21
465.0472090453736
 31
0.0
  0
LINE
  5
45C
330
1B
100
AcDbEntity
  8
4
100
AcDbLine
 10
1195.363727052779
 20
465.0472090453736
 30
0.0
 11
1195.363727052779
 21
456.4076809496933
 31
0.0
  0
ARC
  5
45D
330
1B
100
AcDbEntity
  8
4
100
AcDbCircle
 10
1191.899625437641
 20
461.3172105921403
 30
0.0
 40
5.090470357553012
100
AcDbArc
 50
47.11671159492132
 51
132.8832884050914
  0
LINE
  5
45E
330
1B
100
AcDbEntity
  8
4
100
AcDbLine
 10
1188.435523822503
 20
465.0472090453736
 30
0.0
 11
1188.435523822503
 21
452.4076809496933
 31
0.0
  0
LINE
  5
45F
330
1B
100
AcDbEntity
  8
CENTER
100
AcDbLine
 10
1202.291930283054
 20
472.7955955426473
 30
0.0
 11
1202.291930283054
 21
419.4076809496933
 31
0.0
  0
LINE
  5
460
330
1B
100
AcDbEntity
  8
4
100
AcDbLine
 10
926.8060147834799
 20
456.4076809496933
 30
0.0
 11
954.5188277045831
 21
456.4076809496933
 31
0.0
  0
LINE
  5
461
330
1B
100
AcDbEntity
  8
4
100
AcDbLine
 10
926.8060147834799
 20
452.4076809496933
 30
0.0
 11
954.5188277045831
 21
452.4076809496933
 31
0.0
  0
ARC
  5
462
330
1B
100
AcDbEntity
  8
4
100
AcDbCircle
 10
940.6624212440324
 20
448.0865073759596
 30
0.0
 40
18.32117357373317
100
AcDbArc
 50
67.7806898294712
 51
112.219310170532
  0
LINE
  5
463
330
1B
100
AcDbEntity
  8
4
100
AcDbLine
 10
951.054726089445
 20
466.4076809496933
 30
0.0
 11
930.270116398618
 21
466.4076809496933
 31
0.0
  0
LINE
  5
464
330
1B
100
AcDbEntity
  8
4
100
AcDbLine
 10
947.5906244743069
 20
465.0472090453736
 30
0.0
 11
947.5906244743069
 21
456.4076809496933
 31
0.0
  0
ARC
  5
465
330
1B
100
AcDbEntity
  8
4
100
AcDbCircle
 10
951.054726089445
 20
461.3172105921403
 30
0.0
 40
5.090470357553002
100
AcDbArc
 50
47.11671159490953
 51
132.8832884050787
  0
LINE
  5
466
330
1B
100
AcDbEntity
  8
4
100
AcDbLine
 10
954.5188277045831
 20
452.4076809496933
 30
0.0
 11
954.5188277045831
 21
465.0472090453736
 31
0.0
  0
LINE
  5
467
330
1B
100
AcDbEntity
  8
4
100
AcDbLine
 10
933.7342180137562
 20
465.0472090453736
 30
0.0
 11
933.7342180137562
 21
456.4076809496933
 31
0.0
  0
ARC
  5
468
330
1B
100
AcDbEntity
  8
4
100
AcDbCircle
 10
930.270116398618
 20
461.3172105921403
 30
0.0
 40
5.090470357553012
100
AcDbArc
 50
47.11671159490953
 51
132.8832884050787
  0
LINE
  5
469
330
1B
100
AcDbEntity
  8
4
100
AcDbLine
 10
926.8060147834799
 20
465.0472090453736
 30
0.0
 11
926.8060147834799
 21
452.4076809496933
 31
0.0
  0
ARC
  5
46A
330
1B
100
AcDbEntity
  8
4
100
AcDbCircle
 10
668.6406073595967
 20
461.3172105921403
 30
0.0
 40
5.090470357553002
100
AcDbArc
 50
47.11671159492132
 51
132.8832884050905
  0
LINE
  5
46B
330
1B
100
AcDbEntity
  8
4
100
AcDbLine
 10
668.6406073595967
 20
466.4076809496933
 30
0.0
 11
689.4252170504237
 21
466.4076809496933
 31
0.0
  0
LINE
  5
46C
330
1B
100
AcDbEntity
  8
4
100
AcDbLine
 10
692.8893186655619
 20
452.4076809496933
 30
0.0
 11
665.1765057444586
 21
452.4076809496933
 31
0.0
  0
LINE
  5
46D
330
1B
100
AcDbEntity
  8
4
100
AcDbLine
 10
692.8893186655619
 20
456.4076809496933
 30
0.0
 11
665.1765057444586
 21
456.4076809496933
 31
0.0
  0
LINE
  5
46E
330
1B
100
AcDbEntity
  8
CENTER
100
AcDbLine
 10
679.0329122050093
 20
472.7955955426473
 30
0.0
 11
679.0329122050093
 21
419.4076809496933
 31
0.0
  0
LINE
  5
46F
330
1B
100
AcDbEntity
  8
4
100
AcDbLine
 10
692.8893186655619
 20
465.0472090453736
 30
0.0
 11
692.8893186655619
 21
452.4076809496933
 31
0.0
  0
ARC
  5
470
330
1B
100
AcDbEntity
  8
4
100
AcDbCircle
 10
689.4252170504237
 20
461.3172105921403
 30
0.0
 40
5.090470357553012
100
AcDbArc
 50
47.11671159492038
 51
132.8832884050905
  0
LINE
  5
471
330
1B
100
AcDbEntity
  8
4
100
AcDbLine
 10
685.9611154352856
 20
465.0472090453736
 30
0.0
 11
685.9611154352856
 21
456.4076809496933
 31
0.0
  0
LINE
  5
472
330
1B
100
AcDbEntity
  8
4
100
AcDbLine
 10
672.1047089747349
 20
465.0472090453736
 30
0.0
 11
672.1047089747349
 21
456.4076809496933
 31
0.0
  0
ARC
  5
473
330
1B
100
AcDbEntity
  8
4
100
AcDbCircle
 10
679.0329122050093
 20
448.0865073759596
 30
0.0
 40
18.32117357373317
100
AcDbArc
 50
67.78068982946803
 51
112.2193101705259
  0
LINE
  5
474
330
1B
100
AcDbEntity
  8
4
100
AcDbLine
 10
665.1765057444586
 20
452.4076809496933
 30
0.0
 11
665.1765057444586
 21
465.0472090453736
 31
0.0
  0
LINE
  5
475
330
1B
100
AcDbEntity
  8
CENTER
100
AcDbLine
 10
570.662421244032
 20
472.7955955426473
 30
0.0
 11
570.662421244032
 21
419.4076809496933
 31
0.0
  0
LINE
  5
476
330
1B
100
AcDbEntity
  8
4
100
AcDbLine
 10
584.5188277045836
 20
456.4076809496933
 30
0.0
 11
556.8060147834813
 21
456.4076809496933
 31
0.0
  0
LINE
  5
477
330
1B
100
AcDbEntity
  8
4
100
AcDbLine
 10
584.5188277045836
 20
452.4076809496933
 30
0.0
 11
556.8060147834813
 21
452.4076809496933
 31
0.0
  0
ARC
  5
478
330
1B
100
AcDbEntity
  8
4
100
AcDbCircle
 10
570.662421244032
 20
448.0865073759596
 30
0.0
 40
18.32117357373317
100
AcDbArc
 50
67.7806898294712
 51
112.2193101705288
  0
LINE
  5
479
330
1B
100
AcDbEntity
  8
4
100
AcDbLine
 10
560.2701163986185
 20
466.4076809496933
 30
0.0
 11
581.0547260894455
 21
466.4076809496933
 31
0.0
  0
LINE
  5
47A
330
1B
100
AcDbEntity
  8
4
100
AcDbLine
 10
563.7342180137566
 20
465.0472090453736
 30
0.0
 11
563.7342180137566
 21
456.4076809496933
 31
0.0
  0
ARC
  5
47B
330
1B
100
AcDbEntity
  8
4
100
AcDbCircle
 10
560.2701163986185
 20
461.3172105921403
 30
0.0
 40
5.090470357553002
100
AcDbArc
 50
47.11671159491409
 51
132.8832884050859
  0
LINE
  5
47C
330
1B
100
AcDbEntity
  8
4
100
AcDbLine
 10
556.8060147834813
 20
452.4076809496933
 30
0.0
 11
556.8060147834813
 21
465.0472090453736
 31
0.0
  0
LINE
  5
47D
330
1B
100
AcDbEntity
  8
4
100
AcDbLine
 10
577.5906244743073
 20
465.0472090453736
 30
0.0
 11
577.5906244743073
 21
456.4076809496933
 31
0.0
  0
ARC
  5
47E
330
1B
100
AcDbEntity
  8
4
100
AcDbCircle
 10
581.0547260894455
 20
461.3172105921403
 30
0.0
 40
5.090470357553012
100
AcDbArc
 50
47.11671159491409
 51
132.8832884050859
  0
LINE
  5
47F
330
1B
100
AcDbEntity
  8
4
100
AcDbLine
 10
584.5188277045836
 20
465.0472090453736
 30
0.0
 11
584.5188277045836
 21
452.4076809496933
 31
0.0
  0
LINE
  5
480
330
1B
100
AcDbEntity
  8
4
100
AcDbLine
 10
1891.773835601816
 20
465.0472090453736
 30
0.0
 11
1891.773835601816
 21
452.4076809496933
 31
0.0
  0
ARC
  5
481
330
1B
100
AcDbEntity
  8
4
100
AcDbCircle
 10
1888.309733986678
 20
461.3172105921403
 30
0.0
 40
5.090470357553012
100
AcDbArc
 50
47.11671159491944
 51
132.8832884050914
  0
LINE
  5
482
330
1B
100
AcDbEntity
  8
4
100
AcDbLine
 10
1884.84563237154
 20
465.0472090453736
 30
0.0
 11
1884.84563237154
 21
456.4076809496933
 31
0.0
  0
LINE
  5
483
330
1B
100
AcDbEntity
  8
4
100
AcDbLine
 10
1864.061022680713
 20
452.4076809496933
 30
0.0
 11
1864.061022680713
 21
465.0472090453736
 31
0.0
  0
ARC
  5
484
330
1B
100
AcDbEntity
  8
4
100
AcDbCircle
 10
1867.525124295851
 20
461.3172105921403
 30
0.0
 40
5.090470357553002
100
AcDbArc
 50
47.11671159492132
 51
132.8832884050914
  0
LINE
  5
485
330
1B
100
AcDbEntity
  8
4
100
AcDbLine
 10
1870.989225910989
 20
465.0472090453736
 30
0.0
 11
1870.989225910989
 21
456.4076809496933
 31
0.0
  0
LINE
  5
486
330
1B
100
AcDbEntity
  8
4
100
AcDbLine
 10
1867.525124295851
 20
466.4076809496933
 30
0.0
 11
1888.309733986678
 21
466.4076809496933
 31
0.0
  0
ARC
  5
487
330
1B
100
AcDbEntity
  8
4
100
AcDbCircle
 10
1877.917429141263
 20
448.0865073759596
 30
0.0
 40
18.32117357373317
100
AcDbArc
 50
67.78068982946803
 51
112.2193101705288
  0
LINE
  5
488
330
1B
100
AcDbEntity
  8
4
100
AcDbLine
 10
1891.773835601816
 20
452.4076809496933
 30
0.0
 11
1864.061022680713
 21
452.4076809496933
 31
0.0
  0
LINE
  5
489
330
1B
100
AcDbEntity
  8
4
100
AcDbLine
 10
1891.773835601816
 20
456.4076809496933
 30
0.0
 11
1864.061022680713
 21
456.4076809496933
 31
0.0
  0
LINE
  5
48A
330
1B
100
AcDbEntity
  8
CENTER
100
AcDbLine
 10
1877.917429141263
 20
472.7955955426473
 30
0.0
 11
1877.917429141263
 21
419.4076809496933
 31
0.0
  0
LINE
  5
48B
330
1B
100
AcDbEntity
  8
4
100
AcDbLine
 10
1972.431513641691
 20
452.4076809496933
 30
0.0
 11
1972.431513641691
 21
465.0472090453736
 31
0.0
  0
ARC
  5
48C
330
1B
100
AcDbEntity
  8
4
100
AcDbCircle
 10
1986.287920102242
 20
448.0865073759596
 30
0.0
 40
18.32117357373317
100
AcDbArc
 50
67.7806898294712
 51
112.219310170532
  0
LINE
  5
48D
330
1B
100
AcDbEntity
  8
4
100
AcDbLine
 10
1979.359716871966
 20
465.0472090453736
 30
0.0
 11
1979.359716871966
 21
456.4076809496933
 31
0.0
  0
LINE
  5
48E
330
1B
100
AcDbEntity
  8
4
100
AcDbLine
 10
1993.216123332516
 20
465.0472090453736
 30
0.0
 11
1993.216123332516
 21
456.4076809496933
 31
0.0
  0
ARC
  5
48F
330
1B
100
AcDbEntity
  8
4
100
AcDbCircle
 10
1996.680224947655
 20
461.3172105921403
 30
0.0
 40
5.090470357553012
100
AcDbArc
 50
47.11671159490859
 51
132.8832884050805
  0
LINE
  5
490
330
1B
100
AcDbEntity
  8
4
100
AcDbLine
 10
2000.144326562793
 20
465.0472090453736
 30
0.0
 11
2000.144326562793
 21
452.4076809496933
 31
0.0
  0
LINE
  5
491
330
1B
100
AcDbEntity
  8
4
100
AcDbLine
 10
2000.144326562793
 20
456.4076809496933
 30
0.0
 11
1972.431513641691
 21
456.4076809496933
 31
0.0
  0
LINE
  5
492
330
1B
100
AcDbEntity
  8
4
100
AcDbLine
 10
2000.144326562793
 20
452.4076809496933
 30
0.0
 11
1972.431513641691
 21
452.4076809496933
 31
0.0
  0
LINE
  5
493
330
1B
100
AcDbEntity
  8
4
100
AcDbLine
 10
1975.895615256828
 20
466.4076809496933
 30
0.0
 11
1996.680224947655
 21
466.4076809496933
 31
0.0
  0
ARC
  5
494
330
1B
100
AcDbEntity
  8
4
100
AcDbCircle
 10
1975.895615256828
 20
461.3172105921403
 30
0.0
 40
5.090470357553002
100
AcDbArc
 50
47.11671159490859
 51
132.8832884050787
  0
LINE
  5
495
330
1B
100
AcDbEntity
  8
CENTER
100
AcDbLine
 10
1986.287920102242
 20
472.7955955426473
 30
0.0
 11
1986.287920102242
 21
419.4076809496933
 31
0.0
  0
LINE
  5
496
330
1B
100
AcDbEntity
  8
4
100
AcDbLine
 10
2234.061022680713
 20
465.0472090453736
 30
0.0
 11
2234.061022680713
 21
452.4076809496933
 31
0.0
  0
ARC
  5
497
330
1B
100
AcDbEntity
  8
4
100
AcDbCircle
 10
2237.525124295851
 20
461.3172105921403
 30
0.0
 40
5.090470357553012
100
AcDbArc
 50
47.11671159491583
 51
132.8832884050914
  0
LINE
  5
498
330
1B
100
AcDbEntity
  8
4
100
AcDbLine
 10
2240.989225910989
 20
465.0472090453736
 30
0.0
 11
2240.989225910989
 21
456.4076809496933
 31
0.0
  0
LINE
  5
499
330
1B
100
AcDbEntity
  8
4
100
AcDbLine
 10
2261.773835601814
 20
452.4076809496933
 30
0.0
 11
2261.773835601814
 21
465.0472090453736
 31
0.0
  0
ARC
  5
49A
330
1B
100
AcDbEntity
  8
4
100
AcDbCircle
 10
2258.309733986678
 20
461.3172105921403
 30
0.0
 40
5.090470357553002
100
AcDbArc
 50
47.11671159492132
 51
132.8832884050914
  0
LINE
  5
49B
330
1B
100
AcDbEntity
  8
4
100
AcDbLine
 10
2254.84563237154
 20
465.0472090453736
 30
0.0
 11
2254.84563237154
 21
456.4076809496933
 31
0.0
  0
LINE
  5
49C
330
1B
100
AcDbEntity
  8
4
100
AcDbLine
 10
2258.309733986678
 20
466.4076809496933
 30
0.0
 11
2237.525124295851
 21
466.4076809496933
 31
0.0
  0
ARC
  5
49D
330
1B
100
AcDbEntity
  8
4
100
AcDbCircle
 10
2247.917429141263
 20
448.0865073759596
 30
0.0
 40
18.32117357373317
100
AcDbArc
 50
67.78068982946803
 51
112.2193101705288
  0
LINE
  5
49E
330
1B
100
AcDbEntity
  8
4
100
AcDbLine
 10
2234.061022680713
 20
452.4076809496933
 30
0.0
 11
2261.773835601814
 21
452.4076809496933
 31
0.0
  0
LINE
  5
49F
330
1B
100
AcDbEntity
  8
4
100
AcDbLine
 10
2234.061022680713
 20
456.4076809496933
 30
0.0
 11
2261.773835601814
 21
456.4076809496933
 31
0.0
  0
ARC
  5
4A0
330
1B
100
AcDbEntity
  8
4
100
AcDbCircle
 10
2519.939243025699
 20
461.3172105921403
 30
0.0
 40
5.090470357553002
100
AcDbArc
 50
47.11671159490859
 51
132.8832884050787
  0
LINE
  5
4A1
330
1B
100
AcDbEntity
  8
4
100
AcDbLine
 10
2519.939243025699
 20
466.4076809496933
 30
0.0
 11
2499.154633334872
 21
466.4076809496933
 31
0.0
  0
LINE
  5
4A2
330
1B
100
AcDbEntity
  8
4
100
AcDbLine
 10
2495.690531719734
 20
452.4076809496933
 30
0.0
 11
2523.403344640837
 21
452.4076809496933
 31
0.0
  0
LINE
  5
4A3
330
1B
100
AcDbEntity
  8
4
100
AcDbLine
 10
2495.690531719734
 20
456.4076809496933
 30
0.0
 11
2523.403344640837
 21
456.4076809496933
 31
0.0
  0
LINE
  5
4A4
330
1B
100
AcDbEntity
  8
4
100
AcDbLine
 10
2495.690531719734
 20
465.0472090453736
 30
0.0
 11
2495.690531719734
 21
452.4076809496933
 31
0.0
  0
ARC
  5
4A5
330
1B
100
AcDbEntity
  8
4
100
AcDbCircle
 10
2499.154633334872
 20
461.3172105921403
 30
0.0
 40
5.090470357553012
100
AcDbArc
 50
47.11671159490859
 51
132.8832884050787
  0
LINE
  5
4A6
330
1B
100
AcDbEntity
  8
4
100
AcDbLine
 10
2502.61873495001
 20
465.0472090453736
 30
0.0
 11
2502.61873495001
 21
456.4076809496933
 31
0.0
  0
LINE
  5
4A7
330
1B
100
AcDbEntity
  8
4
100
AcDbLine
 10
2516.475141410561
 20
465.0472090453736
 30
0.0
 11
2516.475141410561
 21
456.4076809496933
 31
0.0
  0
ARC
  5
4A8
330
1B
100
AcDbEntity
  8
4
100
AcDbCircle
 10
2509.546938180286
 20
448.0865073759596
 30
0.0
 40
18.32117357373317
100
AcDbArc
 50
67.7806898294741
 51
112.219310170532
  0
LINE
  5
4A9
330
1B
100
AcDbEntity
  8
4
100
AcDbLine
 10
2523.403344640837
 20
452.4076809496933
 30
0.0
 11
2523.403344640837
 21
465.0472090453736
 31
0.0
  0
LINE
  5
4AA
330
1B
100
AcDbEntity
  8
CENTER
100
AcDbLine
 10
2509.546938180286
 20
472.7955955426473
 30
0.0
 11
2509.546938180286
 21
419.4076809496933
 31
0.0
  0
LINE
  5
4AB
330
1B
100
AcDbEntity
  8
4
100
AcDbLine
 10
2604.061022680713
 20
456.4076809496933
 30
0.0
 11
2631.773835601814
 21
456.4076809496933
 31
0.0
  0
LINE
  5
4AC
330
1B
100
AcDbEntity
  8
4
100
AcDbLine
 10
2604.061022680713
 20
452.4076809496933
 30
0.0
 11
2631.773835601814
 21
452.4076809496933
 31
0.0
  0
ARC
  5
4AD
330
1B
100
AcDbEntity
  8
4
100
AcDbCircle
 10
2617.917429141263
 20
448.0865073759596
 30
0.0
 40
18.32117357373317
100
AcDbArc
 50
67.78068982946803
 51
112.2193101705259
  0
LINE
  5
4AE
330
1B
100
AcDbEntity
  8
4
100
AcDbLine
 10
2628.309733986678
 20
466.4076809496933
 30
0.0
 11
2607.525124295851
 21
466.4076809496933
 31
0.0
  0
LINE
  5
4AF
330
1B
100
AcDbEntity
  8
4
100
AcDbLine
 10
2624.84563237154
 20
465.0472090453736
 30
0.0
 11
2624.84563237154
 21
456.4076809496933
 31
0.0
  0
ARC
  5
4B0
330
1B
100
AcDbEntity
  8
4
100
AcDbCircle
 10
2628.309733986678
 20
461.3172105921403
 30
0.0
 40
5.090470357553002
100
AcDbArc
 50
47.11671159492132
 51
132.8832884050914
  0
LINE
  5
4B1
330
1B
100
AcDbEntity
  8
4
100
AcDbLine
 10
2631.773835601814
 20
452.4076809496933
 30
0.0
 11
2631.773835601814
 21
465.0472090453736
 31
0.0
  0
LINE
  5
4B2
330
1B
100
AcDbEntity
  8
4
100
AcDbLine
 10
2610.989225910989
 20
465.0472090453736
 30
0.0
 11
2610.989225910989
 21
456.4076809496933
 31
0.0
  0
ARC
  5
4B3
330
1B
100
AcDbEntity
  8
4
100
AcDbCircle
 10
2607.525124295851
 20
461.3172105921403
 30
0.0
 40
5.090470357553012
100
AcDbArc
 50
47.11671159492132
 51
132.8832884050914
  0
LINE
  5
4B4
330
1B
100
AcDbEntity
  8
4
100
AcDbLine
 10
2604.061022680713
 20
465.0472090453736
 30
0.0
 11
2604.061022680713
 21
452.4076809496933
 31
0.0
  0
LINE
  5
4B5
330
1B
100
AcDbEntity
  8
CENTER
100
AcDbLine
 10
2617.917429141263
 20
472.7955955426473
 30
0.0
 11
2617.917429141263
 21
419.4076809496933
 31
0.0
  0
LINE
  5
4B6
330
1B
100
AcDbEntity
  8
L-CENTER
100
AcDbLine
 10
923.9954554823175
 20
99.80684106958847
 30
0.0
 11
923.9954554823175
 21
152.8903752767289
 31
0.0
  0
LINE
  5
4FE
330
1B
100
AcDbEntity
  8
4
 62
     3
100
AcDbLine
 10
2616.917429141263
 20
118.4076809496935
 30
0.0
 11
2616.917429141263
 21
68.40768094969349
 31
0.0
  0
LINE
  5
4FF
330
1B
100
AcDbEntity
  8
4
 62
     3
100
AcDbLine
 10
2642.917429141263
 20
118.4076809496935
 30
0.0
 11
2642.917429141263
 21
68.40768094969349
 31
0.0
  0
LINE
  5
68C
330
1B
100
AcDbEntity
  8
4
100
AcDbLine
 10
2089.417429141263
 20
477.9076809496937
 30
0.0
 11
2044.417429141263
 21
477.9076809496937
 31
0.0
  0
LINE
  5
68D
330
1B
100
AcDbEntity
  8
4
100
AcDbLine
 10
2089.917429141263
 20
477.4076809496937
 30
0.0
 11
2089.917429141263
 21
468.9076809496937
 31
0.0
  0
LINE
  5
68E
330
1B
100
AcDbEntity
  8
4
100
AcDbLine
 10
2043.917429141263
 20
477.4076809496937
 30
0.0
 11
2043.917429141263
 21
468.9076809496937
 31
0.0
  0
ARC
  5
68F
330
1B
100
AcDbEntity
  8
4
100
AcDbCircle
 10
2089.417429141263
 20
477.4076809496937
 30
0.0
 40
0.5
100
AcDbArc
 50
0.0
 51
90.0
  0
ARC
  5
690
330
1B
100
AcDbEntity
  8
4
100
AcDbCircle
 10
2044.417429141263
 20
477.4076809496937
 30
0.0
 40
0.5
100
AcDbArc
 50
90.0
 51
180.0
  0
LINE
  5
691
330
1B
100
AcDbEntity
  8
4
100
AcDbLine
 10
2089.917429141263
 20
472.9076809496937
 30
0.0
 11
2043.917429141263
 21
472.9076809496937
 31
0.0
  0
LINE
  5
692
330
1B
100
AcDbEntity
  8
4
100
AcDbLine
 10
2089.917429141263
 20
468.9076809496937
 30
0.0
 11
2043.917429141263
 21
468.9076809496937
 31
0.0
  0
LINE
  5
693
330
1B
100
AcDbEntity
  8
4
100
AcDbLine
 10
2078.608772092354
 20
477.9076809496937
 30
0.0
 11
2078.608772092354
 21
472.9076809496937
 31
0.0
  0
LINE
  5
694
330
1B
100
AcDbEntity
  8
4
100
AcDbLine
 10
2089.417429141263
 20
467.4076809496937
 30
0.0
 11
2044.417429141263
 21
467.4076809496933
 31
0.0
  0
LINE
  5
695
330
1B
100
AcDbEntity
  8
4
100
AcDbLine
 10
2089.417429141263
 20
468.9076809496937
 30
0.0
 11
2089.417429141263
 21
467.4076809496937
 31
0.0
  0
LINE
  5
696
330
1B
100
AcDbEntity
  8
4
100
AcDbLine
 10
2044.417429141263
 20
468.9076809496937
 30
0.0
 11
2044.417429141263
 21
467.4076809496937
 31
0.0
  0
LINE
  5
697
330
1B
100
AcDbEntity
  8
4
100
AcDbLine
 10
2055.226086190174
 20
477.9076809496937
 30
0.0
 11
2055.226086190174
 21
472.9076809496937
 31
0.0
  0
LINE
  5
698
330
1B
100
AcDbEntity
  8
4
100
AcDbLine
 10
963.6624212440324
 20
472.9076809496937
 30
0.0
 11
963.6624212440324
 21
468.9076809496937
 31
0.0
  0
LINE
  5
699
330
1B
100
AcDbEntity
  8
4
100
AcDbLine
 10
917.6624212440324
 20
472.9076809496937
 30
0.0
 11
917.6624212440324
 21
468.9076809496937
 31
0.0
  0
LINE
  5
69A
330
1B
100
AcDbEntity
  8
4
100
AcDbLine
 10
963.6624212440324
 20
472.9076809496937
 30
0.0
 11
962.6812608315508
 21
472.9076809496937
 31
0.0
  0
LINE
  5
69B
330
1B
100
AcDbEntity
  8
4
100
AcDbLine
 10
918.6435795176235
 20
472.9076809496937
 30
0.0
 11
917.6624212440324
 21
472.9076809496937
 31
0.0
  0
LINE
  5
69C
330
1B
100
AcDbEntity
  8
4
100
AcDbLine
 10
963.6624212440324
 20
468.9076809496937
 30
0.0
 11
963.0311971315373
 21
468.9076809496937
 31
0.0
  0
LINE
  5
69D
330
1B
100
AcDbEntity
  8
4
100
AcDbLine
 10
918.2936447731931
 20
468.9076809496937
 30
0.0
 11
917.6624212440324
 21
468.9076809496937
 31
0.0
  0
LINE
  5
69E
330
1B
100
AcDbEntity
  8
4
100
AcDbLine
 10
963.1624212440324
 20
467.4076809496937
 30
0.0
 11
918.1624212440324
 21
467.4076809496933
 31
0.0
  0
LINE
  5
69F
330
1B
100
AcDbEntity
  8
4
100
AcDbLine
 10
963.1624212440324
 20
468.9076809496937
 30
0.0
 11
963.1624212440324
 21
467.4076809496937
 31
0.0
  0
LINE
  5
6A0
330
1B
100
AcDbEntity
  8
4
100
AcDbLine
 10
918.1624212440324
 20
468.9076809496937
 30
0.0
 11
918.1624212440324
 21
467.4076809496937
 31
0.0
  0
CIRCLE
  5
6A1
330
1B
100
AcDbEntity
  8
4
100
AcDbCircle
 10
940.6624212440324
 20
1289.771004521608
 30
0.0
 40
23.0
  0
LINE
  5
6A2
330
1B
100
AcDbEntity
  8
4
100
AcDbLine
 10
960.9124212440324
 20
1299.730296665129
 30
0.0
 11
960.9124212440324
 21
1279.811712378087
 31
0.0
  0
LINE
  5
6A3
330
1B
100
AcDbEntity
  8
4
100
AcDbLine
 10
920.4124212440324
 20
1299.730296665129
 30
0.0
 11
920.4124212440324
 21
1279.811712373179
 31
0.0
  0
LINE
  5
6A4
330
1B
100
AcDbEntity
  8
4
100
AcDbLine
 10
921.9124212434995
 20
1277.213636162133
 30
0.0
 11
939.1624212273678
 21
1267.254344023213
 31
0.0
  0
LINE
  5
6A5
330
1B
100
AcDbEntity
  8
4
100
AcDbLine
 10
942.1624212440324
 20
1312.287665020003
 30
0.0
 11
959.4124212440324
 21
1302.328372876482
 31
0.0
  0
LINE
  5
6A6
330
1B
100
AcDbEntity
  8
4
100
AcDbLine
 10
939.1624212440324
 20
1312.287665020003
 30
0.0
 11
921.9124212440324
 21
1302.328372876482
 31
0.0
  0
LINE
  5
6A7
330
1B
100
AcDbEntity
  8
4
100
AcDbLine
 10
959.4124212440324
 20
1277.213636166734
 30
0.0
 11
942.1624212273678
 21
1267.254344023213
 31
0.0
  0
ARC
  5
6A8
330
1B
100
AcDbEntity
  8
4
100
AcDbCircle
 10
940.6624212440324
 20
1309.68958880865
 30
0.0
 40
3.0
100
AcDbArc
 50
59.9999999999965
 51
120.000000000021
  0
ARC
  5
6A9
330
1B
100
AcDbEntity
  8
4
100
AcDbCircle
 10
957.9124212440324
 20
1299.730296665129
 30
0.0
 40
3.0
100
AcDbArc
 50
0.0
 51
59.9999999999965
  0
ARC
  5
6AA
330
1B
100
AcDbEntity
  8
4
100
AcDbCircle
 10
957.9124212440324
 20
1279.811712378087
 30
0.0
 40
3.0
100
AcDbArc
 50
299.999999999986
 51
0.0
  0
ARC
  5
6AB
330
1B
100
AcDbEntity
  8
4
100
AcDbCircle
 10
940.6624212273678
 20
1269.852420234566
 30
0.0
 40
3.0
100
AcDbArc
 50
240.0000000000062
 51
299.9999999999938
  0
ARC
  5
6AC
330
1B
100
AcDbEntity
  8
4
100
AcDbCircle
 10
923.4124212440324
 20
1279.811712373179
 30
0.0
 40
3.0
100
AcDbArc
 50
180.0
 51
239.9999999882477
  0
ARC
  5
6AD
330
1B
100
AcDbEntity
  8
4
100
AcDbCircle
 10
923.4124212440324
 20
1299.730296665129
 30
0.0
 40
3.0
100
AcDbArc
 50
120.000000000021
 51
180.0
  0
CIRCLE
  5
6AE
330
1B
100
AcDbEntity
  8
4
100
AcDbCircle
 10
940.6624212440324
 20
1289.771004521608
 30
0.0
 40
1.5
  0
CIRCLE
  5
6AF
330
1B
100
AcDbEntity
  8
4
100
AcDbCircle
 10
940.6624212440324
 20
1289.771004521608
 30
0.0
 40
25.0
  0
LINE
  5
6DB
330
1B
100
AcDbEntity
  8
4
100
AcDbLine
 10
496.6624192440336
 20
214.4076819496936
 30
0.0
 11
378.6624182440332
 21
214.4076819496936
 31
0.0
  0
LINE
  5
6DC
330
1B
100
AcDbEntity
  8
4
100
AcDbLine
 10
496.6624192440336
 20
272.4076799496934
 30
0.0
 11
378.6624182440332
 21
272.4076799496934
 31
0.0
  0
LINE
  5
6DD
330
1B
100
AcDbEntity
  8
4
100
AcDbLine
 10
486.6624222440328
 20
277.4076819496936
 30
0.0
 11
376.6624202440339
 21
277.4076819496936
 31
0.0
  0
LINE
  5
6DE
330
1B
100
AcDbEntity
  8
4
100
AcDbLine
 10
510.2624182440336
 20
288.4076849496937
 30
0.0
 11
510.2624182440336
 21
198.4076839496934
 31
0.0
  0
LINE
  5
6DF
330
1B
100
AcDbEntity
  8
4
100
AcDbLine
 10
510.2624182440336
 20
198.4076769496935
 30
0.0
 11
511.2624172440333
 21
198.4076769496935
 31
0.0
  0
LINE
  5
6E0
330
1B
100
AcDbEntity
  8
4
100
AcDbLine
 10
496.6624192440336
 20
210.9076819496936
 30
0.0
 11
496.6624192440336
 21
275.9076799496934
 31
0.0
  0
LINE
  5
6E1
330
1B
100
AcDbEntity
  8
4
100
AcDbLine
 10
510.2624182440336
 20
210.9076819496936
 30
0.0
 11
496.6624192440336
 21
210.9076819496936
 31
0.0
  0
LINE
  5
6E2
330
1B
100
AcDbEntity
  8
4
100
AcDbLine
 10
510.2624182440336
 20
288.4076849496937
 30
0.0
 11
511.2624172440333
 21
288.4076849496937
 31
0.0
  0
LINE
  5
6E3
330
1B
100
AcDbEntity
  8
4
100
AcDbLine
 10
510.2624182440336
 20
275.9076799496934
 30
0.0
 11
496.6624192440336
 21
275.9076799496934
 31
0.0
  0
LINE
  5
6E4
330
1B
100
AcDbEntity
  8
4
100
AcDbLine
 10
486.6624222440328
 20
277.4076819496936
 30
0.0
 11
486.6624222440328
 21
272.4076799496934
 31
0.0
  0
LINE
  5
6E5
330
1B
100
AcDbEntity
  8
4
100
AcDbLine
 10
378.6624182440332
 20
272.4076799496934
 30
0.0
 11
378.6624182440332
 21
214.4076819496936
 31
0.0
  0
LINE
  5
6E6
330
1B
100
AcDbEntity
  8
4
100
AcDbLine
 10
376.6624202440339
 20
216.4076869496935
 30
0.0
 11
376.6624202440339
 21
277.4076819496936
 31
0.0
  0
LINE
  5
6E7
330
1B
100
AcDbEntity
  8
4
100
AcDbLine
 10
376.6624202440339
 20
216.4076869496935
 30
0.0
 11
378.6624182440332
 21
214.4076819496936
 31
0.0
  0
LINE
  5
6E8
330
1B
100
AcDbEntity
  8
4
100
AcDbLine
 10
378.6624182440332
 20
272.4076799496934
 30
0.0
 11
376.6624202440339
 21
270.4076819496936
 31
0.0
  0
LINE
  5
6EB
330
1B
100
AcDbEntity
  8
4
100
AcDbLine
 10
510.2624172440333
 20
1675.27100452161
 30
0.0
 11
496.2524212440326
 21
1675.27100452161
 31
0.0
  0
LINE
  5
6EC
330
1B
100
AcDbEntity
  8
4
100
AcDbLine
 10
510.2624172440333
 20
1740.27100452161
 30
0.0
 11
496.2524212440326
 21
1740.27100452161
 31
0.0
  0
LINE
  5
6ED
330
1B
100
AcDbEntity
  8
4
100
AcDbLine
 10
510.2624172440333
 20
1662.771004521608
 30
0.0
 11
510.2624172440333
 21
1752.771004521608
 31
0.0
  0
LINE
  5
6EE
330
1B
100
AcDbEntity
  8
4
100
AcDbLine
 10
511.2624172440333
 20
1662.771004521608
 30
0.0
 11
510.2624172440333
 21
1662.771004521608
 31
0.0
  0
LINE
  5
6EF
330
1B
100
AcDbEntity
  8
4
100
AcDbLine
 10
511.2624172440333
 20
1752.771004521608
 30
0.0
 11
510.2624172440333
 21
1752.771004521608
 31
0.0
  0
LINE
  5
6F0
330
1B
100
AcDbEntity
  8
4
100
AcDbLine
 10
376.2524212440326
 20
1734.77100452161
 30
0.0
 11
376.2524212440326
 21
1680.77100452161
 31
0.0
  0
LINE
  5
6F1
330
1B
100
AcDbEntity
  8
4
100
AcDbLine
 10
378.2524212440326
 20
1700.27100452161
 30
0.0
 11
378.2524212440326
 21
1678.77100452161
 31
0.0
  0
LINE
  5
6F2
330
1B
100
AcDbEntity
  8
4
100
AcDbLine
 10
496.2524212440326
 20
1740.27100452161
 30
0.0
 11
496.2524212440326
 21
1675.27100452161
 31
0.0
  0
LINE
  5
6F3
330
1B
100
AcDbEntity
  8
4
100
AcDbLine
 10
494.2524212440326
 20
1678.77100452161
 30
0.0
 11
378.2524212440326
 21
1678.77100452161
 31
0.0
  0
ARC
  5
6F4
330
1B
100
AcDbEntity
  8
4
100
AcDbCircle
 10
494.2524212440326
 20
1676.77100452161
 30
0.0
 40
2.0
100
AcDbArc
 50
0.0
 51
90.0
  0
LINE
  5
6F5
330
1B
100
AcDbEntity
  8
4
100
AcDbLine
 10
378.2524212440326
 20
1678.77100452161
 30
0.0
 11
376.2524212440326
 21
1680.77100452161
 31
0.0
  0
LINE
  5
6F6
330
1B
100
AcDbEntity
  8
4
100
AcDbLine
 10
494.2524212440326
 20
1736.77100452161
 30
0.0
 11
378.2524212440326
 21
1736.77100452161
 31
0.0
  0
LINE
  5
6F7
330
1B
100
AcDbEntity
  8
4
100
AcDbLine
 10
478.7524212440326
 20
1715.27100452161
 30
0.0
 11
376.2524212440326
 21
1715.27100452161
 31
0.0
  0
LINE
  5
6F8
330
1B
100
AcDbEntity
  8
4
100
AcDbLine
 10
478.7524212440326
 20
1700.27100452161
 30
0.0
 11
376.2524212440326
 21
1700.27100452161
 31
0.0
  0
ARC
  5
6F9
330
1B
100
AcDbEntity
  8
4
100
AcDbCircle
 10
478.7524212440326
 20
1707.77100452161
 30
0.0
 40
7.5
100
AcDbArc
 50
270.0
 51
90.0
  0
ARC
  5
6FA
330
1B
100
AcDbEntity
  8
4
100
AcDbCircle
 10
494.2524212440326
 20
1738.77100452161
 30
0.0
 40
2.0
100
AcDbArc
 50
270.0
 51
0.0
  0
LINE
  5
6FB
330
1B
100
AcDbEntity
  8
4
100
AcDbLine
 10
378.2524212440326
 20
1736.77100452161
 30
0.0
 11
378.2524212440326
 21
1715.27100452161
 31
0.0
  0
LINE
  5
6FC
330
1B
100
AcDbEntity
  8
4
100
AcDbLine
 10
378.2524212440326
 20
1736.77100452161
 30
0.0
 11
376.2524212440326
 21
1734.77100452161
 31
0.0
  0
CIRCLE
  5
724
330
1B
100
AcDbEntity
  8
4
100
AcDbCircle
 10
2484.917429141263
 20
243.4076809496933
 30
0.0
 40
60.0
  0
LINE
  5
725
330
1B
100
AcDbEntity
  8
4
100
AcDbLine
 10
2290.887233685389
 20
489.4076859496931
 30
0.0
 11
2303.947474805132
 21
489.4076859496931
 31
0.0
  0
LINE
  5
726
330
1B
100
AcDbEntity
  8
L-CENTER
100
AcDbLine
 10
291.4281933438137
 20
203.3177872305637
 30
0.0
 11
291.4281933438137
 21
283.4975746688228
 31
0.0
  0
ARC
  5
727
330
1B
100
AcDbEntity
  8
4
100
AcDbCircle
 10
291.4281933438137
 20
243.4076809496933
 30
0.0
 40
29.00002
100
AcDbArc
 50
104.9882157219826
 51
75.01177499999957
  0
LINE
  5
729
330
1B
100
AcDbEntity
  8
L-CENTER
100
AcDbLine
 10
251.3382996246843
 20
243.4076809496933
 30
0.0
 11
331.5180870629433
 21
243.4076809496933
 31
0.0
  0
LINE
  5
72B
330
1B
100
AcDbEntity
  8
4
100
AcDbLine
 10
298.9281963438138
 20
277.4076819496931
 30
0.0
 11
283.9281973438139
 21
277.4076819496931
 31
0.0
  0
LINE
  5
72C
330
1B
100
AcDbEntity
  8
4
100
AcDbLine
 10
298.9281963438138
 20
267.4076849496932
 30
0.0
 11
283.9281973438139
 21
267.4076849496932
 31
0.0
  0
LINE
  5
72D
330
1B
100
AcDbEntity
  8
4
100
AcDbLine
 10
283.9281973438139
 20
277.4076819496931
 30
0.0
 11
283.9281973438139
 21
267.4076849496932
 31
0.0
  0
LINE
  5
72E
330
1B
100
AcDbEntity
  8
4
100
AcDbLine
 10
298.9281963438138
 20
267.4076849496932
 30
0.0
 11
298.9281963438138
 21
277.4076819496931
 31
0.0
  0
ENDSEC
  0
SECTION
  2
OBJECTS
  0
DICTIONARY
  5
9
330
0
100
AcDbDictionary
281
     1
  3
ACAD_COLOR
350
2F
  3
ACAD_GROUP
350
2D
  3
ACAD_LAYOUT
350
24
  3
ACAD_MATERIAL
350
B
  3
ACAD_MLEADERSTYLE
350
6BB
  3
ACAD_MLINESTYLE
350
19
  3
ACAD_PLOTSETTINGS
350
2E
  3
ACAD_PLOTSTYLENAME
350
8
  3
ACAD_SCALELIST
350
36
  3
ACAD_TABLESTYLE
350
6BA
  3
ACAD_VISUALSTYLE
350
30
  3
ACDBHEADERROUNDTRIPXREC
350
734
  3
AcDbVariableDictionary
350
6B8
  3
DWGPROPS
350
737
  0
DICTIONARY
  5
738
330
2C
100
AcDbDictionary
280
     1
281
     1
  3
ACAD_XREC_ROUNDTRIP
360
739
  0
DICTIONARY
  5
3
330
2
100
AcDbDictionary
280
     1
281
     1
  3
ACAD_LAYERSTATES
360
4
  0
DICTIONARY
  5
20
330
1F
100
AcDbDictionary
280
     1
281
     1
  3
ADSK_XREC_LAYER_RECONCILED
360
21
  0
DICTIONARY
  5
5BF
330
5BE
100
AcDbDictionary
280
     1
281
     1
  3
ADSK_XREC_LAYER_RECONCILED
360
5C0
  0
DICTIONARY
  5
5
330
1
100
AcDbDictionary
280
     1
281
     1
  3
ADSK_XREC_LAYER_RECONCILED
360
6
  0
DICTIONARY
  5
84
330
83
100
AcDbDictionary
280
     1
281
     1
  3
ADSK_XREC_LAYER_RECONCILED
360
85
  0
DICTIONARY
  5
7F
330
7E
100
AcDbDictionary
280
     1
281
     1
  3
ADSK_XREC_LAYER_RECONCILED
360
80
  0
DICTIONARY
  5
6D
330
6C
100
AcDbDictionary
280
     1
281
     1
  3
ADSK_XREC_LAYER_RECONCILED
360
6E
  0
DICTIONARY
  5
D1
330
D0
100
AcDbDictionary
280
     1
281
     1
  3
ADSK_XREC_LAYER_RECONCILED
360
D2
  0
DICTIONARY
  5
1C
330
1B
100
AcDbDictionary
280
     1
281
     1
  3
ACAD_SORTENTS
360
1D
  0
DICTIONARY
  5
2F
102
{ACAD_REACTORS
330
9
102
}
330
9
100
AcDbDictionary
281
     1
  0
DICTIONARY
  5
2D
102
{ACAD_REACTORS
330
9
102
}
330
9
100
AcDbDictionary
281
     1
  0
DICTIONARY
  5
24
102
{ACAD_REACTORS
330
9
102
}
330
9
100
AcDbDictionary
281
     1
  3
Model
350
23
  3
ﾚｲｱｳﾄ1
350
29
  0
DICTIONARY
  5
B
102
{ACAD_REACTORS
330
9
102
}
330
9
100
AcDbDictionary
281
     1
  3
ByBlock
350
69
  3
ByLayer
350
14
  3
Global
350
A
  0
DICTIONARY
  5
6BB
102
{ACAD_REACTORS
330
9
102
}
330
9
100
AcDbDictionary
281
     1
  3
Standard
350
6D5
  0
DICTIONARY
  5
19
102
{ACAD_REACTORS
330
9
102
}
330
9
100
AcDbDictionary
281
     1
  3
STANDARD
350
18
  0
DICTIONARY
  5
2E
102
{ACAD_REACTORS
330
9
102
}
330
9
100
AcDbDictionary
281
     1
  0
ACDBDICTIONARYWDFLT
  5
8
102
{ACAD_REACTORS
330
9
102
}
330
9
100
AcDbDictionary
281
     1
  3
Normal
350
7
100
AcDbDictionaryWithDefault
340
7
  0
DICTIONARY
  5
36
102
{ACAD_REACTORS
330
9
102
}
330
9
100
AcDbDictionary
281
     1
  3
*A1
350
58
  3
*A10
350
61
  3
*A11
350
62
  3
*A12
350
63
  3
*A13
350
64
  3
*A14
350
65
  3
*A15
350
66
  3
*A16
350
67
  3
*A17
350
68
  3
*A2
350
59
  3
*A3
350
5A
  3
*A4
350
5B
  3
*A5
350
5C
  3
*A6
350
5D
  3
*A7
350
5E
  3
*A8
350
5F
  3
*A9
350
60
  0
DICTIONARY
  5
6BA
102
{ACAD_REACTORS
330
9
102
}
330
9
100
AcDbDictionary
281
     1
  3
Standard
350
6D4
  0
DICTIONARY
  5
30
102
{ACAD_REACTORS
330
9
102
}
330
9
100
AcDbDictionary
281
     1
  3
2dWireframe
350
6C2
  3
Basic
350
6C4
  3
Brighten
350
6C7
  3
ColorChange
350
6CB
  3
Conceptual
350
6C5
  3
Dim
350
6C6
  3
EdgeColorOff
350
6CE
  3
Facepattern
350
6CA
  3
Flat
350
6BE
  3
FlatWithEdges
350
6BF
  3
Gouraud
350
6C0
  3
GouraudWithEdges
350
6C1
  3
Hidden
350
6C3
  3
JitterOff
350
6CC
  3
Linepattern
350
6C9
  3
OverhangOff
350
6CD
  3
Realistic
350
31
  3
Shaded
350
6D3
  3
Shaded with edges
350
6D2
  3
Shades of Gray
350
6CF
  3
Sketchy
350
6D0
  3
Thicken
350
6C8
  3
Wireframe
350
32
  3
X-Ray
350
6D1
  0
DICTIONARY
  5
734
102
{ACAD_REACTORS
330
9
102
}
330
9
100
AcDbDictionary
281
     1
  3
COLORDICT
350
735
  3
MATERIALDICT
350
736
  0
DICTIONARY
  5
6B8
102
{ACAD_REACTORS
330
9
102
}
330
9
100
AcDbDictionary
281
     1
  3
CANNOSCALE
350
6B9
  3
CMLEADERSTYLE
350
6D8
  3
CTABLESTYLE
350
6D7
  3
DIMASSOC
350
731
  3
HIDETEXT
350
733
  3
MSLTSCALE
350
73A
  3
XCLIPFRAME
350
732
  0
XRECORD
  5
737
102
{ACAD_REACTORS
330
9
102
}
330
9
100
AcDbXrecord
280
     1
  1
DWGPROPS COOKIE
  2

  3

  4

  6

  7

  8
sg-d03
  9

300
=
301
=
302
=
303
=
304
=
305
=
306
=
307
=
308
=
309
=
 40
0.0
 41
2457464.080073333
 42
2458115.318712176
  1

 90
        0
  0
XRECORD
  5
739
102
{ACAD_REACTORS
330
738
102
}
330
738
100
AcDbXrecord
280
     1
102
VTR_0.000_0.000_1.000_1.000_GRIDDISPLAY
 70
     3
102
VTR_0.000_0.000_1.000_1.000_GRIDMAJOR
 70
     5
102
VTR_0.000_0.000_1.000_1.000_DEFAULTLIGHTING
280
     1
102
VTR_0.000_0.000_1.000_1.000_DEFAULTLIGHTINGTYPE
 70
     1
102
VTR_0.000_0.000_1.000_1.000_BRIGHTNESS
141
0.0
102
VTR_0.000_0.000_1.000_1.000_CONTRAST
142
0.0
  0
DICTIONARY
  5
4
102
{ACAD_REACTORS
330
3
102
}
330
3
100
AcDbDictionary
281
     1
  0
XRECORD
  5
21
102
{ACAD_REACTORS
330
20
102
}
330
20
100
AcDbXrecord
280
     1
290
     1
  0
XRECORD
  5
5C0
102
{ACAD_REACTORS
330
5BF
102
}
330
5BF
100
AcDbXrecord
280
     1
290
     1
  0
XRECORD
  5
6
102
{ACAD_REACTORS
330
5
102
}
330
5
100
AcDbXrecord
280
     1
290
     1
  0
XRECORD
  5
85
102
{ACAD_REACTORS
330
84
102
}
330
84
100
AcDbXrecord
280
     1
290
     1
  0
XRECORD
  5
80
102
{ACAD_REACTORS
330
7F
102
}
330
7F
100
AcDbXrecord
280
     1
290
     1
  0
XRECORD
  5
6E
102
{ACAD_REACTORS
330
6D
102
}
330
6D
100
AcDbXrecord
280
     1
290
     1
  0
XRECORD
  5
D2
102
{ACAD_REACTORS
330
D1
102
}
330
D1
100
AcDbXrecord
280
     1
290
     1
  0
SORTENTSTABLE
  5
1D
102
{ACAD_REACTORS
330
1C
102
}
330
1C
100
AcDbSortentsTable
330
1B
  0
LAYOUT
  5
23
102
{ACAD_REACTORS
330
24
102
}
330
24
100
AcDbPlotSettings
  1

  2
Bullzip PDF Printer.pc3
  4
A3
  6

 40
0.2
 41
0.0
 42
0.0
 43
0.0
 44
420.2
 45
297.1
 46
25.0
 47
12.0
 48
209.9999997783334
 49
10.0
140
2883.999993653333
141
1917.499995549166
142
1.0
143
7.0
 70
 11936
 72
     1
 73
     0
 74
     4
  7
monochrome.ctb
 75
     0
147
0.1428571428571428
148
-209.9999997783334
149
-10.0
100
AcDbLayout
  1
Model
 70
     0
 71
     0
 10
0.0
 20
0.0
 11
12.0
 21
9.0
 12
0.0
 22
0.0
 32
0.0
 14
251.3382996246842
 24
58.40768094969349
 34
0.0
 15
2679.917429141263
 25
1902.771004521608
 35
0.0
146
0.0
 13
0.0
 23
0.0
 33
0.0
 16
1.0
 26
0.0
 36
0.0
 17
0.0
 27
1.0
 37
0.0
 76
     0
330
1B
331
33
1001
ACAD_PSEXT
1000
Bullzip PDF Printer.pc3
1000
Bullzip PDF Printer
1000
BULLZIP
1000
Bullzip PDF Printer 10.1.0.1871
1070
     0
  0
LAYOUT
  5
29
102
{ACAD_REACTORS
330
24
102
}
330
24
100
AcDbPlotSettings
  1

  2
SR-LP8300F
  4

  6

 40
0.0
 41
0.0
 42
0.0
 43
0.0
 44
0.0
 45
0.0
 46
0.0
 47
0.0
 48
0.0
 49
0.0
140
0.0
141
0.0
142
1.0
143
1.0
 70
   688
 72
     0
 73
     0
 74
     5
  7
monochrome.ctb
 75
    16
147
1.0
148
0.0
149
0.0
100
AcDbLayout
  1
ﾚｲｱｳﾄ1
 70
     0
 71
     1
 10
0.0
 20
0.0
 11
12.0
 21
9.0
 12
0.0
 22
0.0
 32
0.0
 14
1000000000000000E+20
 24
1000000000000000E+20
 34
1000000000000000E+20
 15
-1000000000000000E+20
 25
-1000000000000000E+20
 35
-1000000000000000E+20
146
0.0
 13
0.0
 23
0.0
 33
0.0
 16
1.0
 26
0.0
 36
0.0
 17
0.0
 27
1.0
 37
0.0
 76
     0
330
26
  0
MATERIAL
  5
69
102
{ACAD_REACTORS
330
B
102
}
102
{ACAD_XDICTIONARY
360
73F
102
}
330
B
100
AcDbMaterial
  1
ByBlock
 72
     0
 73
     2
 43
0.0208333333333333
 43
0.0
 43
0.0
 43
0.0
 43
0.0
 43
0.0208333333333333
 43
0.0
 43
0.0
 43
0.0
 43
0.0
 43
1.0
 43
0.0
 43
0.0
 43
0.0
 43
0.0
 43
1.0
 77
     0
 78
     2
 47
0.0208333333333333
 47
0.0
 47
0.0
 47
0.0
 47
0.0
 47
0.0208333333333333
 47
0.0
 47
0.0
 47
0.0
 47
0.0
 47
1.0
 47
0.0
 47
0.0
 47
0.0
 47
0.0
 47
1.0
171
     0
172
     2
 49
0.0208333333333333
 49
0.0
 49
0.0
 49
0.0
 49
0.0
 49
0.0208333333333333
 49
0.0
 49
0.0
 49
0.0
 49
0.0
 49
1.0
 49
0.0
 49
0.0
 49
0.0
 49
0.0
 49
1.0
175
     0
176
     2
142
0.0208333333333333
142
0.0
142
0.0
142
0.0
142
0.0
142
0.0208333333333333
142
0.0
142
0.0
142
0.0
142
0.0
142
1.0
142
0.0
142
0.0
142
0.0
142
0.0
142
1.0
179
     0
270
     2
144
0.0208333333333333
144
0.0
144
0.0
144
0.0
144
0.0
144
0.0208333333333333
144
0.0
144
0.0
144
0.0
144
0.0
144
1.0
144
0.0
144
0.0
144
0.0
144
0.0
144
1.0
274
     2
147
0.0208333333333333
147
0.0
147
0.0
147
0.0
147
0.0
147
0.0208333333333333
147
0.0
147
0.0
147
0.0
147
0.0
147
1.0
147
0.0
147
0.0
147
0.0
147
0.0
147
1.0
  0
MATERIAL
  5
14
102
{ACAD_REACTORS
330
B
102
}
102
{ACAD_XDICTIONARY
360
73B
102
}
330
B
100
AcDbMaterial
  1
ByLayer
 72
     0
 73
     2
 43
0.0208333333333333
 43
0.0
 43
0.0
 43
0.0
 43
0.0
 43
0.0208333333333333
 43
0.0
 43
0.0
 43
0.0
 43
0.0
 43
1.0
 43
0.0
 43
0.0
 43
0.0
 43
0.0
 43
1.0
 77
     0
 78
     2
 47
0.0208333333333333
 47
0.0
 47
0.0
 47
0.0
 47
0.0
 47
0.0208333333333333
 47
0.0
 47
0.0
 47
0.0
 47
0.0
 47
1.0
 47
0.0
 47
0.0
 47
0.0
 47
0.0
 47
1.0
171
     0
172
     2
 49
0.0208333333333333
 49
0.0
 49
0.0
 49
0.0
 49
0.0
 49
0.0208333333333333
 49
0.0
 49
0.0
 49
0.0
 49
0.0
 49
1.0
 49
0.0
 49
0.0
 49
0.0
 49
0.0
 49
1.0
175
     0
176
     2
142
0.0208333333333333
142
0.0
142
0.0
142
0.0
142
0.0
142
0.0208333333333333
142
0.0
142
0.0
142
0.0
142
0.0
142
1.0
142
0.0
142
0.0
142
0.0
142
0.0
142
1.0
179
     0
270
     2
144
0.0208333333333333
144
0.0
144
0.0
144
0.0
144
0.0
144
0.0208333333333333
144
0.0
144
0.0
144
0.0
144
0.0
144
1.0
144
0.0
144
0.0
144
0.0
144
0.0
144
1.0
274
     2
147
0.0208333333333333
147
0.0
147
0.0
147
0.0
147
0.0
147
0.0208333333333333
147
0.0
147
0.0
147
0.0
147
0.0
147
1.0
147
0.0
147
0.0
147
0.0
147
0.0
147
1.0
  0
MATERIAL
  5
A
102
{ACAD_REACTORS
330
B
102
}
102
{ACAD_XDICTIONARY
360
73D
102
}
330
B
100
AcDbMaterial
  1
Global
 72
     0
 73
     2
 43
0.0208333333333333
 43
0.0
 43
0.0
 43
0.0
 43
0.0
 43
0.0208333333333333
 43
0.0
 43
0.0
 43
0.0
 43
0.0
 43
1.0
 43
0.0
 43
0.0
 43
0.0
 43
0.0
 43
1.0
 77
     0
 78
     2
 47
0.0208333333333333
 47
0.0
 47
0.0
 47
0.0
 47
0.0
 47
0.0208333333333333
 47
0.0
 47
0.0
 47
0.0
 47
0.0
 47
1.0
 47
0.0
 47
0.0
 47
0.0
 47
0.0
 47
1.0
171
     0
172
     2
 49
0.0208333333333333
 49
0.0
 49
0.0
 49
0.0
 49
0.0
 49
0.0208333333333333
 49
0.0
 49
0.0
 49
0.0
 49
0.0
 49
1.0
 49
0.0
 49
0.0
 49
0.0
 49
0.0
 49
1.0
175
     0
176
     2
142
0.0208333333333333
142
0.0
142
0.0
142
0.0
142
0.0
142
0.0208333333333333
142
0.0
142
0.0
142
0.0
142
0.0
142
1.0
142
0.0
142
0.0
142
0.0
142
0.0
142
1.0
179
     0
270
     2
144
0.0208333333333333
144
0.0
144
0.0
144
0.0
144
0.0
144
0.0208333333333333
144
0.0
144
0.0
144
0.0
144
0.0
144
1.0
144
0.0
144
0.0
144
0.0
144
0.0
144
1.0
274
     2
147
0.0208333333333333
147
0.0
147
0.0
147
0.0
147
0.0
147
0.0208333333333333
147
0.0
147
0.0
147
0.0
147
0.0
147
1.0
147
0.0
147
0.0
147
0.0
147
0.0
147
1.0
1001
ACAD
1070
    -1
1070
     3
1070
     0
1000

1071
        0
  0
MLEADERSTYLE
  5
6D5
102
{ACAD_REACTORS
330
6BB
102
}
102
{ACAD_XDICTIONARY
360
771
102
}
330
6BB
100
AcDbMLeaderStyle
170
     2
171
     1
172
     0
 90
        2
 40
0.0
 41
0.0
173
     1
 91
-1056964608
340
11
 92
       -2
290
     1
 42
0.09
291
     1
 43
0.36
  3
Standard
341
0
 44
0.18
300

342
12
174
     1
178
     6
175
     1
176
     0
 93
-1056964608
 45
0.18
292
     0
297
     0
 46
0.18
343
0
 94
-1056964608
 47
1.0
 49
1.0
140
1.0
293
     1
141
0.0
294
     1
177
     0
142
1.0
295
     0
296
     0
143
0.125
1001
ACAD_MLEADERVER
1070
     2
  0
MLINESTYLE
  5
18
102
{ACAD_REACTORS
330
19
102
}
330
19
100
AcDbMlineStyle
  2
STANDARD
 70
     0
  3

 62
     0
 51
90.0
 52
90.0
 71
     2
 49
0.5
 62
   256
  6
BYLAYER
 49
-0.5
 62
   256
  6
BYLAYER
  0
ACDBPLACEHOLDER
  5
7
102
{ACAD_REACTORS
330
8
102
}
330
8
  0
SCALE
  5
58
102
{ACAD_REACTORS
330
36
102
}
330
36
100
AcDbScale
 70
     0
300
1:1
140
1.0
141
1.0
290
     1
  0
SCALE
  5
61
102
{ACAD_REACTORS
330
36
102
}
330
36
100
AcDbScale
 70
     0
300
3/8" = 1'-0"
140
0.375
141
12.0
290
     0
  0
SCALE
  5
62
102
{ACAD_REACTORS
330
36
102
}
330
36
100
AcDbScale
 70
     0
300
1/2" = 1'-0"
140
0.5
141
12.0
290
     0
  0
SCALE
  5
63
102
{ACAD_REACTORS
330
36
102
}
330
36
100
AcDbScale
 70
     0
300
3/4" = 1'-0"
140
0.75
141
12.0
290
     0
  0
SCALE
  5
64
102
{ACAD_REACTORS
330
36
102
}
330
36
100
AcDbScale
 70
     0
300
1" = 1'-0"
140
1.0
141
12.0
290
     0
  0
SCALE
  5
65
102
{ACAD_REACTORS
330
36
102
}
330
36
100
AcDbScale
 70
     0
300
1-1/2" = 1'-0"
140
1.5
141
12.0
290
     0
  0
SCALE
  5
66
102
{ACAD_REACTORS
330
36
102
}
330
36
100
AcDbScale
 70
     0
300
3" = 1'-0"
140
3.0
141
12.0
290
     0
  0
SCALE
  5
67
102
{ACAD_REACTORS
330
36
102
}
330
36
100
AcDbScale
 70
     0
300
6" = 1'-0"
140
6.0
141
12.0
290
     0
  0
SCALE
  5
68
102
{ACAD_REACTORS
330
36
102
}
330
36
100
AcDbScale
 70
     0
300
1'-0" = 1'-0"
140
12.0
141
12.0
290
     0
  0
SCALE
  5
59
102
{ACAD_REACTORS
330
36
102
}
330
36
100
AcDbScale
 70
     0
300
1/128" = 1'-0"
140
0.0078125
141
12.0
290
     0
  0
SCALE
  5
5A
102
{ACAD_REACTORS
330
36
102
}
330
36
100
AcDbScale
 70
     0
300
1/64" = 1'-0"
140
0.015625
141
12.0
290
     0
  0
SCALE
  5
5B
102
{ACAD_REACTORS
330
36
102
}
330
36
100
AcDbScale
 70
     0
300
1/32" = 1'-0"
140
0.03125
141
12.0
290
     0
  0
SCALE
  5
5C
102
{ACAD_REACTORS
330
36
102
}
330
36
100
AcDbScale
 70
     0
300
1/16" = 1'-0"
140
0.0625
141
12.0
290
     0
  0
SCALE
  5
5D
102
{ACAD_REACTORS
330
36
102
}
330
36
100
AcDbScale
 70
     0
300
3/32" = 1'-0"
140
0.09375
141
12.0
290
     0
  0
SCALE
  5
5E
102
{ACAD_REACTORS
330
36
102
}
330
36
100
AcDbScale
 70
     0
300
1/8" = 1'-0"
140
0.125
141
12.0
290
     0
  0
SCALE
  5
5F
102
{ACAD_REACTORS
330
36
102
}
330
36
100
AcDbScale
 70
     0
300
3/16" = 1'-0"
140
0.1875
141
12.0
290
     0
  0
SCALE
  5
60
102
{ACAD_REACTORS
330
36
102
}
330
36
100
AcDbScale
 70
     0
300
1/4" = 1'-0"
140
0.25
141
12.0
290
     0
  0
TABLESTYLE
  5
6D4
102
{ACAD_REACTORS
330
6BA
102
}
330
6BA
100
AcDbTableStyle
  3
Standard
 70
     0
 71
     0
 40
0.06
 41
0.06
280
     0
281
     0
  7
STANDARD
140
0.18
170
     2
 62
     0
 63
   257
283
     0
274
    -2
284
     1
 64
     0
275
    -2
285
     1
 65
     0
276
    -2
286
     1
 66
     0
277
    -2
287
     1
 67
     0
278
    -2
288
     1
 68
     0
279
    -2
289
     1
 69
     0
  7
STANDARD
140
0.25
170
     5
 62
     0
 63
   257
283
     0
274
    -2
284
     1
 64
     0
275
    -2
285
     1
 65
     0
276
    -2
286
     1
 66
     0
277
    -2
287
     1
 67
     0
278
    -2
288
     1
 68
     0
279
    -2
289
     1
 69
     0
  7
STANDARD
140
0.18
170
     5
 62
     0
 63
   257
283
     0
274
    -2
284
     1
 64
     0
275
    -2
285
     1
 65
     0
276
    -2
286
     1
 66
     0
277
    -2
287
     1
 67
     0
278
    -2
288
     1
 68
     0
279
    -2
289
     1
 69
     0
  0
VISUALSTYLE
  5
6C2
102
{ACAD_REACTORS
330
30
102
}
102
{ACAD_XDICTIONARY
360
74D
102
}
330
30
100
AcDbVisualStyle
  2
2dWireframe
 70
     4
 71
     0
 72
     2
 73
     0
 90
        0
 40
0.6
 41
30.0
 62
     5
 63
     7
 74
     1
 91
        4
 64
     7
 65
   257
 75
     1
175
     1
 42
1.0
 92
        0
 66
   257
 43
1.0
 76
     1
 77
     6
 78
     2
 67
     7
 79
     5
170
     0
171
     0
290
     0
174
     0
 93
        1
 44
0.0
173
     0
291
     0
 45
0.0
1001
ACAD
1000
AcDbSavedByObjectVersion
1070
     0
  0
VISUALSTYLE
  5
6C4
102
{ACAD_REACTORS
330
30
102
}
102
{ACAD_XDICTIONARY
360
751
102
}
330
30
100
AcDbVisualStyle
  2
Basic
 70
     7
 71
     1
 72
     0
 73
     1
 90
        0
 40
0.6
 41
30.0
 62
     5
 63
     7
 74
     0
 91
        4
 64
     7
 65
   257
 75
     1
175
     1
 42
1.0
 92
        8
 66
     7
 43
1.0
 76
     1
 77
     6
 78
     2
 67
     7
 79
     5
170
     0
171
     0
290
     0
174
     0
 93
        1
 44
0.0
173
     0
291
     1
 45
0.0
1001
ACAD
1000
AcDbSavedByObjectVersion
1070
     0
  0
VISUALSTYLE
  5
6C7
102
{ACAD_REACTORS
330
30
102
}
102
{ACAD_XDICTIONARY
360
757
102
}
330
30
100
AcDbVisualStyle
  2
Brighten
 70
    12
 71
     2
 72
     2
 73
     0
 90
        0
 40
0.6
 41
30.0
 62
     5
 63
     7
 74
     1
 91
        4
 64
     7
 65
   257
 75
     1
175
     1
 42
1.0
 92
        8
 66
     7
 43
1.0
 76
     1
 77
     6
 78
     2
 67
     7
 79
     5
170
     0
171
     0
290
     0
174
     0
 93
        1
 44
50.0
173
     0
291
     1
 45
0.0
1001
ACAD
1000
AcDbSavedByObjectVersion
1070
     0
  0
VISUALSTYLE
  5
6CB
102
{ACAD_REACTORS
330
30
102
}
102
{ACAD_XDICTIONARY
360
75F
102
}
330
30
100
AcDbVisualStyle
  2
ColorChange
 70
    16
 71
     2
 72
     2
 73
     3
 90
        0
 40
0.6
 41
30.0
 62
     5
 63
     8
 74
     1
 91
        4
 64
     7
 65
   257
 75
     1
175
     1
 42
1.0
 92
        8
 66
     8
 43
1.0
 76
     1
 77
     6
 78
     2
 67
     7
 79
     5
170
     0
171
     0
290
     0
174
     0
 93
        1
 44
0.0
173
     0
291
     1
 45
0.0
1001
ACAD
1000
AcDbSavedByObjectVersion
1070
     0
  0
VISUALSTYLE
  5
6C5
102
{ACAD_REACTORS
330
30
102
}
102
{ACAD_XDICTIONARY
360
753
102
}
330
30
100
AcDbVisualStyle
  2
Conceptual
 70
     9
 71
     3
 72
     2
 73
     0
 90
        0
 40
0.6
 41
30.0
 62
     5
 63
     7
 74
     2
 91
        2
 64
     7
 65
   257
 75
     1
175
     1
 42
40.0
 92
        8
 66
     7
 43
1.0
 76
     1
 77
     6
 78
     2
 67
     7
 79
     3
170
     0
171
     0
290
     0
174
     0
 93
        1
 44
0.0
173
     0
291
     0
 45
0.0
1001
ACAD
1000
AcDbSavedByObjectVersion
1070
     0
  0
VISUALSTYLE
  5
6C6
102
{ACAD_REACTORS
330
30
102
}
102
{ACAD_XDICTIONARY
360
755
102
}
330
30
100
AcDbVisualStyle
  2
Dim
 70
    11
 71
     2
 72
     2
 73
     0
 90
        0
 40
0.6
 41
30.0
 62
     5
 63
     7
 74
     1
 91
        4
 64
     7
 65
   257
 75
     1
175
     1
 42
1.0
 92
        8
 66
     7
 43
1.0
 76
     1
 77
     6
 78
     2
 67
     7
 79
     5
170
     0
171
     0
290
     0
174
     0
 93
        1
 44
-50.0
173
     0
291
     1
 45
0.0
1001
ACAD
1000
AcDbSavedByObjectVersion
1070
     0
  0
VISUALSTYLE
  5
6CE
102
{ACAD_REACTORS
330
30
102
}
102
{ACAD_XDICTIONARY
360
765
102
}
330
30
100
AcDbVisualStyle
  2
EdgeColorOff
 70
    22
 71
     2
 72
     2
 73
     0
 90
        0
 40
0.6
 41
30.0
 62
     5
 63
     7
 74
     1
 91
        4
 64
     7
 65
   257
 75
     1
175
     1
 42
1.0
 92
        8
 66
     7
 43
1.0
 76
     1
 77
     6
 78
     2
 67
     7
 79
     5
170
     0
171
     0
290
     0
174
     0
 93
        1
 44
0.0
173
     0
291
     1
 45
0.0
1001
ACAD
1000
AcDbSavedByObjectVersion
1070
     0
  0
VISUALSTYLE
  5
6CA
102
{ACAD_REACTORS
330
30
102
}
102
{ACAD_XDICTIONARY
360
75D
102
}
330
30
100
AcDbVisualStyle
  2
Facepattern
 70
    15
 71
     2
 72
     2
 73
     0
 90
        0
 40
0.6
 41
30.0
 62
     5
 63
     7
 74
     1
 91
        4
 64
     7
 65
   257
 75
     1
175
     1
 42
1.0
 92
        8
 66
     7
 43
1.0
 76
     1
 77
     6
 78
     2
 67
     7
 79
     5
170
     0
171
     0
290
     0
174
     0
 93
        1
 44
0.0
173
     0
291
     1
 45
0.0
1001
ACAD
1000
AcDbSavedByObjectVersion
1070
     0
  0
VISUALSTYLE
  5
6BE
102
{ACAD_REACTORS
330
30
102
}
102
{ACAD_XDICTIONARY
360
745
102
}
330
30
100
AcDbVisualStyle
  2
Flat
 70
     0
 71
     2
 72
     1
 73
     1
 90
        2
 40
0.6
 41
30.0
 62
     5
 63
     7
 74
     0
 91
        4
 64
     7
 65
   257
 75
     1
175
     1
 42
1.0
 92
        8
 66
     7
 43
1.0
 76
     1
 77
     6
 78
     2
 67
     7
 79
     5
170
     0
171
     0
290
     0
174
     0
 93
       13
 44
0.0
173
     0
291
     1
 45
0.0
1001
ACAD
1000
AcDbSavedByObjectVersion
1070
     0
  0
VISUALSTYLE
  5
6BF
102
{ACAD_REACTORS
330
30
102
}
102
{ACAD_XDICTIONARY
360
747
102
}
330
30
100
AcDbVisualStyle
  2
FlatWithEdges
 70
     1
 71
     2
 72
     1
 73
     1
 90
        2
 40
0.6
 41
30.0
 62
     5
 63
     7
 74
     1
 91
        4
 64
     7
 65
   257
 75
     1
175
     1
 42
1.0
 92
        0
 66
   257
 43
1.0
 76
     1
 77
     6
 78
     2
 67
     7
 79
     5
170
     0
171
     0
290
     0
174
     0
 93
       13
 44
0.0
173
     0
291
     1
 45
0.0
1001
ACAD
1000
AcDbSavedByObjectVersion
1070
     0
  0
VISUALSTYLE
  5
6C0
102
{ACAD_REACTORS
330
30
102
}
102
{ACAD_XDICTIONARY
360
749
102
}
330
30
100
AcDbVisualStyle
  2
Gouraud
 70
     2
 71
     2
 72
     2
 73
     1
 90
        2
 40
0.6
 41
30.0
 62
     5
 63
     7
 74
     0
 91
        4
 64
     7
 65
   257
 75
     1
175
     1
 42
1.0
 92
        0
 66
     7
 43
1.0
 76
     1
 77
     6
 78
     2
 67
     7
 79
     5
170
     0
171
     0
290
     0
174
     0
 93
       13
 44
0.0
173
     0
291
     1
 45
0.0
1001
ACAD
1000
AcDbSavedByObjectVersion
1070
     0
  0
VISUALSTYLE
  5
6C1
102
{ACAD_REACTORS
330
30
102
}
102
{ACAD_XDICTIONARY
360
74B
102
}
330
30
100
AcDbVisualStyle
  2
GouraudWithEdges
 70
     3
 71
     2
 72
     2
 73
     1
 90
        2
 40
0.6
 41
30.0
 62
     5
 63
     7
 74
     1
 91
        4
 64
     7
 65
   257
 75
     1
175
     1
 42
1.0
 92
        0
 66
   257
 43
1.0
 76
     1
 77
     6
 78
     2
 67
     7
 79
     5
170
     0
171
     0
290
     0
174
     0
 93
       13
 44
0.0
173
     0
291
     1
 45
0.0
1001
ACAD
1000
AcDbSavedByObjectVersion
1070
     0
  0
VISUALSTYLE
  5
6C3
102
{ACAD_REACTORS
330
30
102
}
102
{ACAD_XDICTIONARY
360
74F
102
}
330
30
100
AcDbVisualStyle
  2
Hidden
 70
     6
 71
     1
 72
     2
 73
     2
 90
        0
 40
0.6
 41
30.0
 62
     5
 63
     7
 74
     2
 91
        2
 64
     7
 65
   257
 75
     2
175
     1
 42
40.0
 92
        0
 66
   257
 43
1.0
 76
     1
 77
     6
 78
     2
 67
     7
 79
     3
170
     0
171
     0
290
     0
174
     0
 93
        1
 44
0.0
173
     0
291
     0
 45
0.0
1001
ACAD
1000
AcDbSavedByObjectVersion
1070
     0
  0
VISUALSTYLE
  5
6CC
102
{ACAD_REACTORS
330
30
102
}
102
{ACAD_XDICTIONARY
360
761
102
}
330
30
100
AcDbVisualStyle
  2
JitterOff
 70
    20
 71
     2
 72
     2
 73
     0
 90
        0
 40
0.6
 41
30.0
 62
     5
 63
     7
 74
     1
 91
        4
 64
     7
 65
   257
 75
     1
175
     1
 42
1.0
 92
       10
 66
     7
 43
1.0
 76
     1
 77
     6
 78
     2
 67
     7
 79
     5
170
     0
171
     0
290
     0
174
     0
 93
        1
 44
0.0
173
     0
291
     1
 45
0.0
1001
ACAD
1000
AcDbSavedByObjectVersion
1070
     0
  0
VISUALSTYLE
  5
6C9
102
{ACAD_REACTORS
330
30
102
}
102
{ACAD_XDICTIONARY
360
75B
102
}
330
30
100
AcDbVisualStyle
  2
Linepattern
 70
    14
 71
     2
 72
     2
 73
     0
 90
        0
 40
0.6
 41
30.0
 62
     5
 63
     7
 74
     1
 91
        4
 64
     7
 65
   257
 75
     7
175
     7
 42
1.0
 92
        8
 66
     7
 43
1.0
 76
     1
 77
     6
 78
     2
 67
     7
 79
     5
170
     0
171
     0
290
     0
174
     0
 93
        1
 44
0.0
173
     0
291
     1
 45
0.0
1001
ACAD
1000
AcDbSavedByObjectVersion
1070
     0
  0
VISUALSTYLE
  5
6CD
102
{ACAD_REACTORS
330
30
102
}
102
{ACAD_XDICTIONARY
360
763
102
}
330
30
100
AcDbVisualStyle
  2
OverhangOff
 70
    21
 71
     2
 72
     2
 73
     0
 90
        0
 40
0.6
 41
30.0
 62
     5
 63
     7
 74
     1
 91
        4
 64
     7
 65
   257
 75
     1
175
     1
 42
1.0
 92
        9
 66
     7
 43
1.0
 76
     1
 77
     6
 78
     2
 67
     7
 79
     5
170
     0
171
     0
290
     0
174
     0
 93
        1
 44
0.0
173
     0
291
     1
 45
0.0
1001
ACAD
1000
AcDbSavedByObjectVersion
1070
     0
  0
VISUALSTYLE
  5
31
102
{ACAD_REACTORS
330
30
102
}
102
{ACAD_XDICTIONARY
360
741
102
}
330
30
100
AcDbVisualStyle
  2
Realistic
 70
     8
 71
     2
 72
     3
 73
     0
 90
        2
 40
0.6
 41
30.0
 62
     5
 63
     7
 74
     0
 91
        0
 64
     7
 65
   257
 75
     1
175
     1
 42
1.0
 92
        8
 66
   257
 43
1.0
 76
     1
 77
     6
 78
     2
 67
     7
 79
     3
170
     0
171
     0
290
     0
174
     0
 93
       13
 44
0.0
173
     0
291
     0
 45
0.0
1001
ACAD
1000
AcDbSavedByObjectVersion
1070
     0
  0
VISUALSTYLE
  5
6D3
102
{ACAD_REACTORS
330
30
102
}
102
{ACAD_XDICTIONARY
360
76F
102
}
330
30
100
AcDbVisualStyle
  2
Shaded
 70
    27
 71
     2
 72
     2
 73
     1
 90
        2
 40
0.6
 41
30.0
 62
     5
 63
     7
 74
     0
 91
        4
 64
     7
 65
   257
 75
     1
175
     1
 42
1.0
 92
        8
 66
   257
 43
1.0
 76
     1
 77
     6
 78
     2
 67
   251
 79
     3
170
     0
171
     0
290
     0
174
     0
 93
        5
 44
0.0
173
     0
291
     0
 45
0.0
1001
ACAD
1000
AcDbSavedByObjectVersion
1070
     0
  0
VISUALSTYLE
  5
6D2
102
{ACAD_REACTORS
330
30
102
}
102
{ACAD_XDICTIONARY
360
76D
102
}
330
30
100
AcDbVisualStyle
  2
Shaded with edges
 70
    26
 71
     2
 72
     2
 73
     1
 90
        2
 40
0.6
 41
30.0
 62
     5
 63
     7
 74
     1
 91
       10
 64
     7
 65
   257
 75
     2
175
     1
 42
1.0
 92
        8
 66
   257
 43
1.0
 76
     1
 77
     6
 78
     2
 67
     7
 79
     3
170
     0
171
     0
290
     0
174
     0
 93
        5
 44
0.0
173
     0
291
     0
 45
0.0
1001
ACAD
1000
AcDbSavedByObjectVersion
1070
     0
  0
VISUALSTYLE
  5
6CF
102
{ACAD_REACTORS
330
30
102
}
102
{ACAD_XDICTIONARY
360
767
102
}
330
30
100
AcDbVisualStyle
  2
Shades of Gray
 70
    23
 71
     2
 72
     2
 73
     3
 90
        0
 40
0.6
 41
30.0
 62
     5
 63
     7
 74
     2
 91
        2
 64
     7
 65
     7
 75
     1
175
     1
 42
40.0
 92
        8
 66
     7
 43
1.0
 76
     1
 77
     6
 78
     2
 67
     7
 79
     3
170
     0
171
     0
290
     0
174
     0
 93
        1
 44
0.0
173
     0
291
     0
 45
0.0
1001
ACAD
1000
AcDbSavedByObjectVersion
1070
     0
  0
VISUALSTYLE
  5
6D0
102
{ACAD_REACTORS
330
30
102
}
102
{ACAD_XDICTIONARY
360
769
102
}
330
30
100
AcDbVisualStyle
  2
Sketchy
 70
    24
 71
     1
 72
     2
 73
     2
 90
        0
 40
0.6
 41
30.0
 62
     5
 63
     7
 74
     2
 91
        2
 64
     7
 65
     7
 75
     1
175
     1
 42
40.0
 92
       11
 66
     7
 43
1.0
 76
     1
 77
     6
 78
     2
 67
     7
 79
     6
170
     0
171
     0
290
     0
174
     0
 93
        1
 44
0.0
173
     0
291
     0
 45
0.0
1001
ACAD
1000
AcDbSavedByObjectVersion
1070
     0
  0
VISUALSTYLE
  5
6C8
102
{ACAD_REACTORS
330
30
102
}
102
{ACAD_XDICTIONARY
360
759
102
}
330
30
100
AcDbVisualStyle
  2
Thicken
 70
    13
 71
     2
 72
     2
 73
     0
 90
        0
 40
0.6
 41
30.0
 62
     5
 63
     7
 74
     1
 91
        4
 64
     7
 65
   257
 75
     1
175
     1
 42
1.0
 92
       12
 66
     7
 43
1.0
 76
     1
 77
     6
 78
     2
 67
     7
 79
     5
170
     0
171
     0
290
     0
174
     0
 93
        1
 44
0.0
173
     0
291
     1
 45
0.0
1001
ACAD
1000
AcDbSavedByObjectVersion
1070
     0
  0
VISUALSTYLE
  5
32
102
{ACAD_REACTORS
330
30
102
}
102
{ACAD_XDICTIONARY
360
743
102
}
330
30
100
AcDbVisualStyle
  2
Wireframe
 70
     5
 71
     0
 72
     2
 73
     0
 90
        0
 40
0.6
 41
30.0
 62
     5
 63
     7
 74
     1
 91
        4
 64
     7
 65
   257
 75
     1
175
     1
 42
1.0
 92
        0
 66
   257
 43
1.0
 76
     1
 77
     6
 78
     2
 67
     7
 79
     3
170
     0
171
     0
290
     0
174
     0
 93
        1
 44
0.0
173
     0
291
     0
 45
0.0
1001
ACAD
1000
AcDbSavedByObjectVersion
1070
     0
  0
VISUALSTYLE
  5
6D1
102
{ACAD_REACTORS
330
30
102
}
102
{ACAD_XDICTIONARY
360
76B
102
}
330
30
100
AcDbVisualStyle
  2
X-Ray
 70
    25
 71
     2
 72
     2
 73
     1
 90
        1
 40
0.5
 41
30.0
 62
     5
 63
     7
 74
     1
 91
        0
 64
     7
 65
   257
 75
     1
175
     1
 42
1.0
 92
        8
 66
     7
 43
1.0
 76
     1
 77
     6
 78
     2
 67
     7
 79
     3
170
     0
171
     0
290
     0
174
     0
 93
       13
 44
0.0
173
     0
291
     0
 45
0.0
1001
ACAD
1000
AcDbSavedByObjectVersion
1070
     0
  0
XRECORD
  5
735
102
{ACAD_REACTORS
330
734
102
}
330
734
100
AcDbXrecord
280
     1
340
2F
  0
XRECORD
  5
736
102
{ACAD_REACTORS
330
734
102
}
330
734
100
AcDbXrecord
280
     1
340
B
  0
DICTIONARYVAR
  5
6B9
102
{ACAD_REACTORS
330
6B8
102
}
330
6B8
100
DictionaryVariables
280
     0
  1
1:1
  0
DICTIONARYVAR
  5
6D8
102
{ACAD_REACTORS
330
6B8
102
}
330
6B8
100
DictionaryVariables
280
     0
  1
Standard
  0
DICTIONARYVAR
  5
6D7
102
{ACAD_REACTORS
330
6B8
102
}
330
6B8
100
DictionaryVariables
280
     0
  1
Standard
  0
DICTIONARYVAR
  5
731
102
{ACAD_REACTORS
330
6B8
102
}
330
6B8
100
DictionaryVariables
280
     0
  1
0
  0
DICTIONARYVAR
  5
733
102
{ACAD_REACTORS
330
6B8
102
}
330
6B8
100
DictionaryVariables
280
     0
  1
1
  0
DICTIONARYVAR
  5
73A
102
{ACAD_REACTORS
330
6B8
102
}
330
6B8
100
DictionaryVariables
280
     0
  1
1
  0
DICTIONARYVAR
  5
732
102
{ACAD_REACTORS
330
6B8
102
}
330
6B8
100
DictionaryVariables
280
     0
  1
0
  0
DICTIONARY
  5
73F
330
69
100
AcDbDictionary
280
     1
281
     1
  3
ACAD_XREC_ROUNDTRIP
360
740
  0
DICTIONARY
  5
73B
330
14
100
AcDbDictionary
280
     1
281
     1
  3
ACAD_XREC_ROUNDTRIP
360
73C
  0
DICTIONARY
  5
73D
330
A
100
AcDbDictionary
280
     1
281
     1
  3
ACAD_XREC_ROUNDTRIP
360
73E
  0
DICTIONARY
  5
771
330
6D5
100
AcDbDictionary
280
     1
281
     1
  3
ACAD_XREC_ROUNDTRIP
360
772
  0
DICTIONARY
  5
74D
330
6C2
100
AcDbDictionary
280
     1
281
     1
  3
ACAD_XREC_ROUNDTRIP
360
74E
  0
DICTIONARY
  5
751
330
6C4
100
AcDbDictionary
280
     1
281
     1
  3
ACAD_XREC_ROUNDTRIP
360
752
  0
DICTIONARY
  5
757
330
6C7
100
AcDbDictionary
280
     1
281
     1
  3
ACAD_XREC_ROUNDTRIP
360
758
  0
DICTIONARY
  5
75F
330
6CB
100
AcDbDictionary
280
     1
281
     1
  3
ACAD_XREC_ROUNDTRIP
360
760
  0
DICTIONARY
  5
753
330
6C5
100
AcDbDictionary
280
     1
281
     1
  3
ACAD_XREC_ROUNDTRIP
360
754
  0
DICTIONARY
  5
755
330
6C6
100
AcDbDictionary
280
     1
281
     1
  3
ACAD_XREC_ROUNDTRIP
360
756
  0
DICTIONARY
  5
765
330
6CE
100
AcDbDictionary
280
     1
281
     1
  3
ACAD_XREC_ROUNDTRIP
360
766
  0
DICTIONARY
  5
75D
330
6CA
100
AcDbDictionary
280
     1
281
     1
  3
ACAD_XREC_ROUNDTRIP
360
75E
  0
DICTIONARY
  5
745
330
6BE
100
AcDbDictionary
280
     1
281
     1
  3
ACAD_XREC_ROUNDTRIP
360
746
  0
DICTIONARY
  5
747
330
6BF
100
AcDbDictionary
280
     1
281
     1
  3
ACAD_XREC_ROUNDTRIP
360
748
  0
DICTIONARY
  5
749
330
6C0
100
AcDbDictionary
280
     1
281
     1
  3
ACAD_XREC_ROUNDTRIP
360
74A
  0
DICTIONARY
  5
74B
330
6C1
100
AcDbDictionary
280
     1
281
     1
  3
ACAD_XREC_ROUNDTRIP
360
74C
  0
DICTIONARY
  5
74F
330
6C3
100
AcDbDictionary
280
     1
281
     1
  3
ACAD_XREC_ROUNDTRIP
360
750
  0
DICTIONARY
  5
761
330
6CC
100
AcDbDictionary
280
     1
281
     1
  3
ACAD_XREC_ROUNDTRIP
360
762
  0
DICTIONARY
  5
75B
330
6C9
100
AcDbDictionary
280
     1
281
     1
  3
ACAD_XREC_ROUNDTRIP
360
75C
  0
DICTIONARY
  5
763
330
6CD
100
AcDbDictionary
280
     1
281
     1
  3
ACAD_XREC_ROUNDTRIP
360
764
  0
DICTIONARY
  5
741
330
31
100
AcDbDictionary
280
     1
281
     1
  3
ACAD_XREC_ROUNDTRIP
360
742
  0
DICTIONARY
  5
76F
330
6D3
100
AcDbDictionary
280
     1
281
     1
  3
ACAD_XREC_ROUNDTRIP
360
770
  0
DICTIONARY
  5
76D
330
6D2
100
AcDbDictionary
280
     1
281
     1
  3
ACAD_XREC_ROUNDTRIP
360
76E
  0
DICTIONARY
  5
767
330
6CF
100
AcDbDictionary
280
     1
281
     1
  3
ACAD_XREC_ROUNDTRIP
360
768
  0
DICTIONARY
  5
769
330
6D0
100
AcDbDictionary
280
     1
281
     1
  3
ACAD_XREC_ROUNDTRIP
360
76A
  0
DICTIONARY
  5
759
330
6C8
100
AcDbDictionary
280
     1
281
     1
  3
ACAD_XREC_ROUNDTRIP
360
75A
  0
DICTIONARY
  5
743
330
32
100
AcDbDictionary
280
     1
281
     1
  3
ACAD_XREC_ROUNDTRIP
360
744
  0
DICTIONARY
  5
76B
330
6D1
100
AcDbDictionary
280
     1
281
     1
  3
ACAD_XREC_ROUNDTRIP
360
76C
  0
XRECORD
  5
740
102
{ACAD_REACTORS
330
73F
102
}
330
73F
100
AcDbXrecord
280
     1
102
MATERIAL
148
0.0
149
0.0
149
0.0
 93
        0
 94
      127
282
     0
 72
     0
 77
     0
171
     0
175
     0
179
     0
273
     0
  0
XRECORD
  5
73C
102
{ACAD_REACTORS
330
73B
102
}
330
73B
100
AcDbXrecord
280
     1
102
MATERIAL
148
0.0
149
0.0
149
0.0
 93
        0
 94
      127
282
     0
 72
     0
 77
     0
171
     0
175
     0
179
     0
273
     0
  0
XRECORD
  5
73E
102
{ACAD_REACTORS
330
73D
102
}
330
73D
100
AcDbXrecord
280
     1
102
MATERIAL
148
0.0
149
0.0
149
0.0
 93
        0
 94
      127
282
     0
 72
     0
 77
     0
171
     0
175
     0
179
     0
273
     0
  0
XRECORD
  5
772
102
{ACAD_REACTORS
330
771
102
}
330
771
100
AcDbXrecord
280
     1
102
ACAD_ROUNDTRIP_2010_MLEADER_STYLE
  0
XRECORD
  5
74E
102
{ACAD_REACTORS
330
74D
102
}
330
74D
100
AcDbXrecord
280
     1
102
RTVSPropertyOp0
 70
     1
102
RTVSPropertyOp1
 70
     1
102
RTVSPropertyOp2
 70
     1
102
RTVSPropertyOp3
 70
     1
102
RTVSPropertyOp4
 70
     1
102
RTVSPropertyOp5
 70
     1
102
RTVSPropertyOp6
 70
     1
102
RTVSPropertyOp7
 70
     1
102
RTVSPropertyOp8
 70
     1
102
RTVSPropertyOp9
 70
     1
102
RTVSPropertyOp10
 70
     1
102
RTVSPropertyOp11
 70
     1
102
RTVSPropertyOp12
 70
     1
102
RTVSPropertyOp13
 70
     1
102
RTVSPropertyOp14
 70
     1
102
RTVSPropertyOp15
 70
     1
102
RTVSPropertyOp16
 70
     1
102
RTVSPropertyOp17
 70
     1
102
RTVSPropertyOp18
 70
     1
102
RTVSPropertyOp19
 70
     1
102
RTVSPropertyOp20
 70
     1
102
RTVSPropertyOp21
 70
     1
102
RTVSPropertyOp22
 70
     1
102
RTVSPropertyOp23
 70
     1
102
RTVSPropertyOp24
 70
     1
102
RTVSPropertyOp25
 70
     1
102
RTVSPropertyOp26
 70
     1
102
RTVSPropertyOp27
 70
     1
102
RTVSPropertyOp28
 70
     1
102
RTVSPropertyOp29
 70
     1
102
RTVSPropertyOp30
 70
     1
102
RTVSPropertyOp31
 70
     1
102
RTVSPropertyOp32
 70
     1
102
RTVSPropertyOp33
 70
     1
102
RTVSPropertyOp34
 70
     1
102
RTVSPropertyOp35
 70
     1
102
RTVSPropertyOp36
 70
     1
102
RTVSPropertyOp37
 70
     1
102
RTVSPropertyOp38
 70
     1
102
RTVSPropertyOp39
 70
     1
102
RTVSPropertyOp40
 70
     1
102
RTVSPropertyOp41
 70
     1
102
RTVSPropertyOp42
 70
     1
102
RTVSPropertyOp43
 70
     1
102
RTVSPropertyOp44
 70
     1
102
RTVSPropertyOp45
 70
     1
102
RTVSPropertyOp46
 70
     1
102
RTVSPropertyOp47
 70
     1
102
RTVSPropertyOp48
 70
     1
102
RTVSPropertyOp49
 70
     1
102
RTVSPropertyOp50
 70
     1
102
RTVSPropertyOp51
 70
     0
102
RTVSPropertyOp52
 70
     0
102
RTVSPropertyOp53
 70
     1
102
RTVSPropertyOp54
 70
     1
102
RTVSPropertyOp55
 70
     1
102
RTVSPropertyOp56
 70
     1
102
RTVSPropertyOp57
 70
     1
102
RTVSPost2010Prop28
280
     1
102
RTVSPost2010PropOp28
 70
     1
102
RTVSPost2010Prop29
280
     1
102
RTVSPost2010PropOp29
 70
     1
102
RTVSPost2010Prop30
280
     0
102
RTVSPost2010PropOp30
 70
     1
102
RTVSPost2010Prop31
280
     0
102
RTVSPost2010PropOp31
 70
     1
102
RTVSPost2010Prop32
280
     0
102
RTVSPost2010PropOp32
 70
     1
102
RTVSPost2010Prop33
280
     0
102
RTVSPost2010PropOp33
 70
     1
102
RTVSPost2010Prop34
280
     0
102
RTVSPost2010PropOp34
 70
     1
102
RTVSPost2010Prop35
280
     0
102
RTVSPost2010PropOp35
 70
     1
102
RTVSPost2010Prop36
280
     0
102
RTVSPost2010PropOp36
 70
     1
102
RTVSPost2010Prop37
 90
       50
102
RTVSPost2010PropOp37
 70
     1
102
RTVSPost2010Prop38
140
0.0
102
RTVSPost2010PropOp38
 70
     1
102
RTVSPost2010Prop39
140
1.0
102
RTVSPost2010PropOp39
 70
     1
102
RTVSPost2010Prop40
 90
        0
102
RTVSPost2010PropOp40
 70
     1
102
RTVSPost2010Prop41ColorIndex
 90
       18
102
RTVSPost2010Prop41ColorRGB
 90
        0
102
RTVSPost2010PropOp41
 70
     1
102
RTVSPost2010Prop42
 90
       50
102
RTVSPost2010PropOp42
 70
     1
102
RTVSPost2010Prop43
 90
        3
102
RTVSPost2010PropOp43
 70
     1
102
RTVSPost2010Prop44ColorIndex
 90
        5
102
RTVSPost2010Prop44ColorRGB
 90
      255
102
RTVSPost2010PropOp44
 70
     1
102
RTVSPost2010Prop45
280
     0
102
RTVSPost2010PropOp45
 70
     1
102
RTVSPost2010Prop46
 90
       50
102
RTVSPost2010PropOp46
 70
     1
102
RTVSPost2010Prop47
 90
       50
102
RTVSPost2010PropOp47
 70
     1
102
RTVSPost2010Prop48
 90
       50
102
RTVSPost2010PropOp48
 70
     1
102
RTVSPost2010Prop49
280
     0
102
RTVSPost2010PropOp49
 70
     1
102
RTVSPost2010Prop50
 90
       50
102
RTVSPost2010PropOp50
 70
     1
102
RTVSPost2010Prop51ColorIndex
 90
      256
102
RTVSPost2010Prop51ColorRGB
 90
-16777216
102
RTVSPost2010PropOp51
 70
     0
102
RTVSPost2010Prop52
140
1.0
102
RTVSPost2010PropOp52
 70
     0
102
RTVSPost2010Prop53
 90
        2
102
RTVSPost2010PropOp53
 70
     1
102
RTVSPost2010Prop54
  1
strokes_ogs.tif
102
RTVSPost2010PropOp54
 70
     1
102
RTVSPost2010Prop55
280
     0
102
RTVSPost2010PropOp55
 70
     1
102
RTVSPost2010Prop56
140
1.0
102
RTVSPost2010PropOp56
 70
     1
102
RTVSPost2010Prop57
140
1.0
102
RTVSPost2010PropOp57
 70
     1
  0
XRECORD
  5
752
102
{ACAD_REACTORS
330
751
102
}
330
751
100
AcDbXrecord
280
     1
102
RTVSPropertyOp0
 70
     1
102
RTVSPropertyOp1
 70
     1
102
RTVSPropertyOp2
 70
     1
102
RTVSPropertyOp3
 70
     1
102
RTVSPropertyOp4
 70
     1
102
RTVSPropertyOp5
 70
     1
102
RTVSPropertyOp6
 70
     1
102
RTVSPropertyOp7
 70
     1
102
RTVSPropertyOp8
 70
     1
102
RTVSPropertyOp9
 70
     1
102
RTVSPropertyOp10
 70
     1
102
RTVSPropertyOp11
 70
     1
102
RTVSPropertyOp12
 70
     1
102
RTVSPropertyOp13
 70
     1
102
RTVSPropertyOp14
 70
     1
102
RTVSPropertyOp15
 70
     1
102
RTVSPropertyOp16
 70
     1
102
RTVSPropertyOp17
 70
     1
102
RTVSPropertyOp18
 70
     1
102
RTVSPropertyOp19
 70
     1
102
RTVSPropertyOp20
 70
     1
102
RTVSPropertyOp21
 70
     1
102
RTVSPropertyOp22
 70
     1
102
RTVSPropertyOp23
 70
     1
102
RTVSPropertyOp24
 70
     1
102
RTVSPropertyOp25
 70
     1
102
RTVSPropertyOp26
 70
     1
102
RTVSPropertyOp27
 70
     1
102
RTVSPropertyOp28
 70
     1
102
RTVSPropertyOp29
 70
     1
102
RTVSPropertyOp30
 70
     1
102
RTVSPropertyOp31
 70
     1
102
RTVSPropertyOp32
 70
     1
102
RTVSPropertyOp33
 70
     1
102
RTVSPropertyOp34
 70
     1
102
RTVSPropertyOp35
 70
     1
102
RTVSPropertyOp36
 70
     1
102
RTVSPropertyOp37
 70
     1
102
RTVSPropertyOp38
 70
     1
102
RTVSPropertyOp39
 70
     1
102
RTVSPropertyOp40
 70
     1
102
RTVSPropertyOp41
 70
     1
102
RTVSPropertyOp42
 70
     1
102
RTVSPropertyOp43
 70
     1
102
RTVSPropertyOp44
 70
     1
102
RTVSPropertyOp45
 70
     1
102
RTVSPropertyOp46
 70
     1
102
RTVSPropertyOp47
 70
     1
102
RTVSPropertyOp48
 70
     1
102
RTVSPropertyOp49
 70
     1
102
RTVSPropertyOp50
 70
     1
102
RTVSPropertyOp51
 70
     0
102
RTVSPropertyOp52
 70
     0
102
RTVSPropertyOp53
 70
     1
102
RTVSPropertyOp54
 70
     1
102
RTVSPropertyOp55
 70
     1
102
RTVSPropertyOp56
 70
     1
102
RTVSPropertyOp57
 70
     1
102
RTVSPost2010Prop28
280
     0
102
RTVSPost2010PropOp28
 70
     1
102
RTVSPost2010Prop29
280
     1
102
RTVSPost2010PropOp29
 70
     1
102
RTVSPost2010Prop30
280
     1
102
RTVSPost2010PropOp30
 70
     1
102
RTVSPost2010Prop31
280
     0
102
RTVSPost2010PropOp31
 70
     1
102
RTVSPost2010Prop32
280
     0
102
RTVSPost2010PropOp32
 70
     1
102
RTVSPost2010Prop33
280
     0
102
RTVSPost2010PropOp33
 70
     1
102
RTVSPost2010Prop34
280
     0
102
RTVSPost2010PropOp34
 70
     1
102
RTVSPost2010Prop35
280
     0
102
RTVSPost2010PropOp35
 70
     1
102
RTVSPost2010Prop36
280
     0
102
RTVSPost2010PropOp36
 70
     1
102
RTVSPost2010Prop37
 90
       50
102
RTVSPost2010PropOp37
 70
     1
102
RTVSPost2010Prop38
140
0.0
102
RTVSPost2010PropOp38
 70
     1
102
RTVSPost2010Prop39
140
1.0
102
RTVSPost2010PropOp39
 70
     1
102
RTVSPost2010Prop40
 90
        0
102
RTVSPost2010PropOp40
 70
     1
102
RTVSPost2010Prop41ColorIndex
 90
       18
102
RTVSPost2010Prop41ColorRGB
 90
        0
102
RTVSPost2010PropOp41
 70
     1
102
RTVSPost2010Prop42
 90
       50
102
RTVSPost2010PropOp42
 70
     1
102
RTVSPost2010Prop43
 90
        3
102
RTVSPost2010PropOp43
 70
     1
102
RTVSPost2010Prop44ColorIndex
 90
        5
102
RTVSPost2010Prop44ColorRGB
 90
      255
102
RTVSPost2010PropOp44
 70
     1
102
RTVSPost2010Prop45
280
     0
102
RTVSPost2010PropOp45
 70
     1
102
RTVSPost2010Prop46
 90
       50
102
RTVSPost2010PropOp46
 70
     1
102
RTVSPost2010Prop47
 90
       50
102
RTVSPost2010PropOp47
 70
     1
102
RTVSPost2010Prop48
 90
       50
102
RTVSPost2010PropOp48
 70
     1
102
RTVSPost2010Prop49
280
     0
102
RTVSPost2010PropOp49
 70
     1
102
RTVSPost2010Prop50
 90
       50
102
RTVSPost2010PropOp50
 70
     1
102
RTVSPost2010Prop51ColorIndex
 90
      256
102
RTVSPost2010Prop51ColorRGB
 90
-16777216
102
RTVSPost2010PropOp51
 70
     0
102
RTVSPost2010Prop52
140
1.0
102
RTVSPost2010PropOp52
 70
     0
102
RTVSPost2010Prop53
 90
        2
102
RTVSPost2010PropOp53
 70
     1
102
RTVSPost2010Prop54
  1
strokes_ogs.tif
102
RTVSPost2010PropOp54
 70
     1
102
RTVSPost2010Prop55
280
     0
102
RTVSPost2010PropOp55
 70
     1
102
RTVSPost2010Prop56
140
1.0
102
RTVSPost2010PropOp56
 70
     1
102
RTVSPost2010Prop57
140
1.0
102
RTVSPost2010PropOp57
 70
     1
  0
XRECORD
  5
758
102
{ACAD_REACTORS
330
757
102
}
330
757
100
AcDbXrecord
280
     1
102
RTVSPropertyOp0
 70
     1
102
RTVSPropertyOp1
 70
     1
102
RTVSPropertyOp2
 70
     1
102
RTVSPropertyOp3
 70
     1
102
RTVSPropertyOp4
 70
     1
102
RTVSPropertyOp5
 70
     1
102
RTVSPropertyOp6
 70
     1
102
RTVSPropertyOp7
 70
     1
102
RTVSPropertyOp8
 70
     1
102
RTVSPropertyOp9
 70
     1
102
RTVSPropertyOp10
 70
     1
102
RTVSPropertyOp11
 70
     1
102
RTVSPropertyOp12
 70
     1
102
RTVSPropertyOp13
 70
     1
102
RTVSPropertyOp14
 70
     1
102
RTVSPropertyOp15
 70
     1
102
RTVSPropertyOp16
 70
     1
102
RTVSPropertyOp17
 70
     1
102
RTVSPropertyOp18
 70
     1
102
RTVSPropertyOp19
 70
     1
102
RTVSPropertyOp20
 70
     1
102
RTVSPropertyOp21
 70
     1
102
RTVSPropertyOp22
 70
     1
102
RTVSPropertyOp23
 70
     1
102
RTVSPropertyOp24
 70
     1
102
RTVSPropertyOp25
 70
     1
102
RTVSPropertyOp26
 70
     1
102
RTVSPropertyOp27
 70
     1
102
RTVSPropertyOp28
 70
     1
102
RTVSPropertyOp29
 70
     1
102
RTVSPropertyOp30
 70
     1
102
RTVSPropertyOp31
 70
     1
102
RTVSPropertyOp32
 70
     1
102
RTVSPropertyOp33
 70
     1
102
RTVSPropertyOp34
 70
     1
102
RTVSPropertyOp35
 70
     1
102
RTVSPropertyOp36
 70
     1
102
RTVSPropertyOp37
 70
     1
102
RTVSPropertyOp38
 70
     1
102
RTVSPropertyOp39
 70
     1
102
RTVSPropertyOp40
 70
     1
102
RTVSPropertyOp41
 70
     1
102
RTVSPropertyOp42
 70
     1
102
RTVSPropertyOp43
 70
     1
102
RTVSPropertyOp44
 70
     1
102
RTVSPropertyOp45
 70
     1
102
RTVSPropertyOp46
 70
     1
102
RTVSPropertyOp47
 70
     1
102
RTVSPropertyOp48
 70
     1
102
RTVSPropertyOp49
 70
     1
102
RTVSPropertyOp50
 70
     1
102
RTVSPropertyOp51
 70
     0
102
RTVSPropertyOp52
 70
     0
102
RTVSPropertyOp53
 70
     1
102
RTVSPropertyOp54
 70
     1
102
RTVSPropertyOp55
 70
     1
102
RTVSPropertyOp56
 70
     1
102
RTVSPropertyOp57
 70
     1
102
RTVSPost2010Prop28
280
     0
102
RTVSPost2010PropOp28
 70
     1
102
RTVSPost2010Prop29
280
     1
102
RTVSPost2010PropOp29
 70
     1
102
RTVSPost2010Prop30
280
     1
102
RTVSPost2010PropOp30
 70
     1
102
RTVSPost2010Prop31
280
     0
102
RTVSPost2010PropOp31
 70
     1
102
RTVSPost2010Prop32
280
     0
102
RTVSPost2010PropOp32
 70
     1
102
RTVSPost2010Prop33
280
     0
102
RTVSPost2010PropOp33
 70
     1
102
RTVSPost2010Prop34
280
     0
102
RTVSPost2010PropOp34
 70
     1
102
RTVSPost2010Prop35
280
     0
102
RTVSPost2010PropOp35
 70
     1
102
RTVSPost2010Prop36
280
     0
102
RTVSPost2010PropOp36
 70
     1
102
RTVSPost2010Prop37
 90
       50
102
RTVSPost2010PropOp37
 70
     1
102
RTVSPost2010Prop38
140
0.0
102
RTVSPost2010PropOp38
 70
     1
102
RTVSPost2010Prop39
140
1.0
102
RTVSPost2010PropOp39
 70
     1
102
RTVSPost2010Prop40
 90
        0
102
RTVSPost2010PropOp40
 70
     1
102
RTVSPost2010Prop41ColorIndex
 90
       18
102
RTVSPost2010Prop41ColorRGB
 90
        0
102
RTVSPost2010PropOp41
 70
     1
102
RTVSPost2010Prop42
 90
       50
102
RTVSPost2010PropOp42
 70
     1
102
RTVSPost2010Prop43
 90
        3
102
RTVSPost2010PropOp43
 70
     1
102
RTVSPost2010Prop44ColorIndex
 90
        5
102
RTVSPost2010Prop44ColorRGB
 90
      255
102
RTVSPost2010PropOp44
 70
     1
102
RTVSPost2010Prop45
280
     0
102
RTVSPost2010PropOp45
 70
     1
102
RTVSPost2010Prop46
 90
       50
102
RTVSPost2010PropOp46
 70
     1
102
RTVSPost2010Prop47
 90
       50
102
RTVSPost2010PropOp47
 70
     1
102
RTVSPost2010Prop48
 90
       50
102
RTVSPost2010PropOp48
 70
     1
102
RTVSPost2010Prop49
280
     0
102
RTVSPost2010PropOp49
 70
     1
102
RTVSPost2010Prop50
 90
       50
102
RTVSPost2010PropOp50
 70
     1
102
RTVSPost2010Prop51ColorIndex
 90
      256
102
RTVSPost2010Prop51ColorRGB
 90
-16777216
102
RTVSPost2010PropOp51
 70
     0
102
RTVSPost2010Prop52
140
1.0
102
RTVSPost2010PropOp52
 70
     0
102
RTVSPost2010Prop53
 90
        2
102
RTVSPost2010PropOp53
 70
     1
102
RTVSPost2010Prop54
  1
strokes_ogs.tif
102
RTVSPost2010PropOp54
 70
     1
102
RTVSPost2010Prop55
280
     0
102
RTVSPost2010PropOp55
 70
     1
102
RTVSPost2010Prop56
140
1.0
102
RTVSPost2010PropOp56
 70
     1
102
RTVSPost2010Prop57
140
1.0
102
RTVSPost2010PropOp57
 70
     1
  0
XRECORD
  5
760
102
{ACAD_REACTORS
330
75F
102
}
330
75F
100
AcDbXrecord
280
     1
102
RTVSPropertyOp0
 70
     1
102
RTVSPropertyOp1
 70
     1
102
RTVSPropertyOp2
 70
     1
102
RTVSPropertyOp3
 70
     1
102
RTVSPropertyOp4
 70
     1
102
RTVSPropertyOp5
 70
     1
102
RTVSPropertyOp6
 70
     1
102
RTVSPropertyOp7
 70
     1
102
RTVSPropertyOp8
 70
     1
102
RTVSPropertyOp9
 70
     1
102
RTVSPropertyOp10
 70
     1
102
RTVSPropertyOp11
 70
     1
102
RTVSPropertyOp12
 70
     1
102
RTVSPropertyOp13
 70
     1
102
RTVSPropertyOp14
 70
     1
102
RTVSPropertyOp15
 70
     1
102
RTVSPropertyOp16
 70
     1
102
RTVSPropertyOp17
 70
     1
102
RTVSPropertyOp18
 70
     1
102
RTVSPropertyOp19
 70
     1
102
RTVSPropertyOp20
 70
     1
102
RTVSPropertyOp21
 70
     1
102
RTVSPropertyOp22
 70
     1
102
RTVSPropertyOp23
 70
     1
102
RTVSPropertyOp24
 70
     1
102
RTVSPropertyOp25
 70
     1
102
RTVSPropertyOp26
 70
     1
102
RTVSPropertyOp27
 70
     1
102
RTVSPropertyOp28
 70
     1
102
RTVSPropertyOp29
 70
     1
102
RTVSPropertyOp30
 70
     1
102
RTVSPropertyOp31
 70
     1
102
RTVSPropertyOp32
 70
     1
102
RTVSPropertyOp33
 70
     1
102
RTVSPropertyOp34
 70
     1
102
RTVSPropertyOp35
 70
     1
102
RTVSPropertyOp36
 70
     1
102
RTVSPropertyOp37
 70
     1
102
RTVSPropertyOp38
 70
     1
102
RTVSPropertyOp39
 70
     1
102
RTVSPropertyOp40
 70
     1
102
RTVSPropertyOp41
 70
     1
102
RTVSPropertyOp42
 70
     1
102
RTVSPropertyOp43
 70
     1
102
RTVSPropertyOp44
 70
     1
102
RTVSPropertyOp45
 70
     1
102
RTVSPropertyOp46
 70
     1
102
RTVSPropertyOp47
 70
     1
102
RTVSPropertyOp48
 70
     1
102
RTVSPropertyOp49
 70
     1
102
RTVSPropertyOp50
 70
     1
102
RTVSPropertyOp51
 70
     0
102
RTVSPropertyOp52
 70
     0
102
RTVSPropertyOp53
 70
     1
102
RTVSPropertyOp54
 70
     1
102
RTVSPropertyOp55
 70
     1
102
RTVSPropertyOp56
 70
     1
102
RTVSPropertyOp57
 70
     1
102
RTVSPost2010Prop28
280
     0
102
RTVSPost2010PropOp28
 70
     1
102
RTVSPost2010Prop29
280
     1
102
RTVSPost2010PropOp29
 70
     1
102
RTVSPost2010Prop30
280
     1
102
RTVSPost2010PropOp30
 70
     1
102
RTVSPost2010Prop31
280
     0
102
RTVSPost2010PropOp31
 70
     1
102
RTVSPost2010Prop32
280
     0
102
RTVSPost2010PropOp32
 70
     1
102
RTVSPost2010Prop33
280
     0
102
RTVSPost2010PropOp33
 70
     1
102
RTVSPost2010Prop34
280
     0
102
RTVSPost2010PropOp34
 70
     1
102
RTVSPost2010Prop35
280
     0
102
RTVSPost2010PropOp35
 70
     1
102
RTVSPost2010Prop36
280
     0
102
RTVSPost2010PropOp36
 70
     1
102
RTVSPost2010Prop37
 90
       50
102
RTVSPost2010PropOp37
 70
     1
102
RTVSPost2010Prop38
140
0.0
102
RTVSPost2010PropOp38
 70
     1
102
RTVSPost2010Prop39
140
1.0
102
RTVSPost2010PropOp39
 70
     1
102
RTVSPost2010Prop40
 90
        0
102
RTVSPost2010PropOp40
 70
     1
102
RTVSPost2010Prop41ColorIndex
 90
       18
102
RTVSPost2010Prop41ColorRGB
 90
        0
102
RTVSPost2010PropOp41
 70
     1
102
RTVSPost2010Prop42
 90
       50
102
RTVSPost2010PropOp42
 70
     1
102
RTVSPost2010Prop43
 90
        3
102
RTVSPost2010PropOp43
 70
     1
102
RTVSPost2010Prop44ColorIndex
 90
        5
102
RTVSPost2010Prop44ColorRGB
 90
      255
102
RTVSPost2010PropOp44
 70
     1
102
RTVSPost2010Prop45
280
     0
102
RTVSPost2010PropOp45
 70
     1
102
RTVSPost2010Prop46
 90
       50
102
RTVSPost2010PropOp46
 70
     1
102
RTVSPost2010Prop47
 90
       50
102
RTVSPost2010PropOp47
 70
     1
102
RTVSPost2010Prop48
 90
       50
102
RTVSPost2010PropOp48
 70
     1
102
RTVSPost2010Prop49
280
     0
102
RTVSPost2010PropOp49
 70
     1
102
RTVSPost2010Prop50
 90
       50
102
RTVSPost2010PropOp50
 70
     1
102
RTVSPost2010Prop51ColorIndex
 90
      256
102
RTVSPost2010Prop51ColorRGB
 90
-16777216
102
RTVSPost2010PropOp51
 70
     0
102
RTVSPost2010Prop52
140
1.0
102
RTVSPost2010PropOp52
 70
     0
102
RTVSPost2010Prop53
 90
        2
102
RTVSPost2010PropOp53
 70
     1
102
RTVSPost2010Prop54
  1
strokes_ogs.tif
102
RTVSPost2010PropOp54
 70
     1
102
RTVSPost2010Prop55
280
     0
102
RTVSPost2010PropOp55
 70
     1
102
RTVSPost2010Prop56
140
1.0
102
RTVSPost2010PropOp56
 70
     1
102
RTVSPost2010Prop57
140
1.0
102
RTVSPost2010PropOp57
 70
     1
  0
XRECORD
  5
754
102
{ACAD_REACTORS
330
753
102
}
330
753
100
AcDbXrecord
280
     1
102
RTVSPropertyOp0
 70
     1
102
RTVSPropertyOp1
 70
     1
102
RTVSPropertyOp2
 70
     1
102
RTVSPropertyOp3
 70
     1
102
RTVSPropertyOp4
 70
     1
102
RTVSPropertyOp5
 70
     1
102
RTVSPropertyOp6
 70
     1
102
RTVSPropertyOp7
 70
     1
102
RTVSPropertyOp8
 70
     1
102
RTVSPropertyOp9
 70
     1
102
RTVSPropertyOp10
 70
     1
102
RTVSPropertyOp11
 70
     1
102
RTVSPropertyOp12
 70
     1
102
RTVSPropertyOp13
 70
     1
102
RTVSPropertyOp14
 70
     1
102
RTVSPropertyOp15
 70
     1
102
RTVSPropertyOp16
 70
     1
102
RTVSPropertyOp17
 70
     1
102
RTVSPropertyOp18
 70
     1
102
RTVSPropertyOp19
 70
     1
102
RTVSPropertyOp20
 70
     1
102
RTVSPropertyOp21
 70
     1
102
RTVSPropertyOp22
 70
     1
102
RTVSPropertyOp23
 70
     1
102
RTVSPropertyOp24
 70
     1
102
RTVSPropertyOp25
 70
     1
102
RTVSPropertyOp26
 70
     1
102
RTVSPropertyOp27
 70
     1
102
RTVSPropertyOp28
 70
     1
102
RTVSPropertyOp29
 70
     1
102
RTVSPropertyOp30
 70
     1
102
RTVSPropertyOp31
 70
     1
102
RTVSPropertyOp32
 70
     1
102
RTVSPropertyOp33
 70
     1
102
RTVSPropertyOp34
 70
     1
102
RTVSPropertyOp35
 70
     1
102
RTVSPropertyOp36
 70
     1
102
RTVSPropertyOp37
 70
     1
102
RTVSPropertyOp38
 70
     1
102
RTVSPropertyOp39
 70
     1
102
RTVSPropertyOp40
 70
     1
102
RTVSPropertyOp41
 70
     1
102
RTVSPropertyOp42
 70
     1
102
RTVSPropertyOp43
 70
     1
102
RTVSPropertyOp44
 70
     1
102
RTVSPropertyOp45
 70
     1
102
RTVSPropertyOp46
 70
     1
102
RTVSPropertyOp47
 70
     1
102
RTVSPropertyOp48
 70
     1
102
RTVSPropertyOp49
 70
     1
102
RTVSPropertyOp50
 70
     1
102
RTVSPropertyOp51
 70
     0
102
RTVSPropertyOp52
 70
     0
102
RTVSPropertyOp53
 70
     1
102
RTVSPropertyOp54
 70
     1
102
RTVSPropertyOp55
 70
     1
102
RTVSPropertyOp56
 70
     1
102
RTVSPropertyOp57
 70
     1
102
RTVSPost2010Prop28
280
     0
102
RTVSPost2010PropOp28
 70
     1
102
RTVSPost2010Prop29
280
     1
102
RTVSPost2010PropOp29
 70
     1
102
RTVSPost2010Prop30
280
     1
102
RTVSPost2010PropOp30
 70
     1
102
RTVSPost2010Prop31
280
     0
102
RTVSPost2010PropOp31
 70
     1
102
RTVSPost2010Prop32
280
     0
102
RTVSPost2010PropOp32
 70
     1
102
RTVSPost2010Prop33
280
     0
102
RTVSPost2010PropOp33
 70
     1
102
RTVSPost2010Prop34
280
     0
102
RTVSPost2010PropOp34
 70
     1
102
RTVSPost2010Prop35
280
     0
102
RTVSPost2010PropOp35
 70
     1
102
RTVSPost2010Prop36
280
     0
102
RTVSPost2010PropOp36
 70
     1
102
RTVSPost2010Prop37
 90
       50
102
RTVSPost2010PropOp37
 70
     1
102
RTVSPost2010Prop38
140
0.0
102
RTVSPost2010PropOp38
 70
     1
102
RTVSPost2010Prop39
140
1.0
102
RTVSPost2010PropOp39
 70
     1
102
RTVSPost2010Prop40
 90
        0
102
RTVSPost2010PropOp40
 70
     1
102
RTVSPost2010Prop41ColorIndex
 90
       18
102
RTVSPost2010Prop41ColorRGB
 90
        0
102
RTVSPost2010PropOp41
 70
     1
102
RTVSPost2010Prop42
 90
       50
102
RTVSPost2010PropOp42
 70
     1
102
RTVSPost2010Prop43
 90
        3
102
RTVSPost2010PropOp43
 70
     1
102
RTVSPost2010Prop44ColorIndex
 90
        5
102
RTVSPost2010Prop44ColorRGB
 90
      255
102
RTVSPost2010PropOp44
 70
     1
102
RTVSPost2010Prop45
280
     0
102
RTVSPost2010PropOp45
 70
     1
102
RTVSPost2010Prop46
 90
       50
102
RTVSPost2010PropOp46
 70
     1
102
RTVSPost2010Prop47
 90
       50
102
RTVSPost2010PropOp47
 70
     1
102
RTVSPost2010Prop48
 90
       50
102
RTVSPost2010PropOp48
 70
     1
102
RTVSPost2010Prop49
280
     0
102
RTVSPost2010PropOp49
 70
     1
102
RTVSPost2010Prop50
 90
       50
102
RTVSPost2010PropOp50
 70
     1
102
RTVSPost2010Prop51ColorIndex
 90
      256
102
RTVSPost2010Prop51ColorRGB
 90
-16777216
102
RTVSPost2010PropOp51
 70
     0
102
RTVSPost2010Prop52
140
1.0
102
RTVSPost2010PropOp52
 70
     0
102
RTVSPost2010Prop53
 90
        2
102
RTVSPost2010PropOp53
 70
     1
102
RTVSPost2010Prop54
  1
strokes_ogs.tif
102
RTVSPost2010PropOp54
 70
     1
102
RTVSPost2010Prop55
280
     0
102
RTVSPost2010PropOp55
 70
     1
102
RTVSPost2010Prop56
140
1.0
102
RTVSPost2010PropOp56
 70
     1
102
RTVSPost2010Prop57
140
1.0
102
RTVSPost2010PropOp57
 70
     1
  0
XRECORD
  5
756
102
{ACAD_REACTORS
330
755
102
}
330
755
100
AcDbXrecord
280
     1
102
RTVSPropertyOp0
 70
     1
102
RTVSPropertyOp1
 70
     1
102
RTVSPropertyOp2
 70
     1
102
RTVSPropertyOp3
 70
     1
102
RTVSPropertyOp4
 70
     1
102
RTVSPropertyOp5
 70
     1
102
RTVSPropertyOp6
 70
     1
102
RTVSPropertyOp7
 70
     1
102
RTVSPropertyOp8
 70
     1
102
RTVSPropertyOp9
 70
     1
102
RTVSPropertyOp10
 70
     1
102
RTVSPropertyOp11
 70
     1
102
RTVSPropertyOp12
 70
     1
102
RTVSPropertyOp13
 70
     1
102
RTVSPropertyOp14
 70
     1
102
RTVSPropertyOp15
 70
     1
102
RTVSPropertyOp16
 70
     1
102
RTVSPropertyOp17
 70
     1
102
RTVSPropertyOp18
 70
     1
102
RTVSPropertyOp19
 70
     1
102
RTVSPropertyOp20
 70
     1
102
RTVSPropertyOp21
 70
     1
102
RTVSPropertyOp22
 70
     1
102
RTVSPropertyOp23
 70
     1
102
RTVSPropertyOp24
 70
     1
102
RTVSPropertyOp25
 70
     1
102
RTVSPropertyOp26
 70
     1
102
RTVSPropertyOp27
 70
     1
102
RTVSPropertyOp28
 70
     1
102
RTVSPropertyOp29
 70
     1
102
RTVSPropertyOp30
 70
     1
102
RTVSPropertyOp31
 70
     1
102
RTVSPropertyOp32
 70
     1
102
RTVSPropertyOp33
 70
     1
102
RTVSPropertyOp34
 70
     1
102
RTVSPropertyOp35
 70
     1
102
RTVSPropertyOp36
 70
     1
102
RTVSPropertyOp37
 70
     1
102
RTVSPropertyOp38
 70
     1
102
RTVSPropertyOp39
 70
     1
102
RTVSPropertyOp40
 70
     1
102
RTVSPropertyOp41
 70
     1
102
RTVSPropertyOp42
 70
     1
102
RTVSPropertyOp43
 70
     1
102
RTVSPropertyOp44
 70
     1
102
RTVSPropertyOp45
 70
     1
102
RTVSPropertyOp46
 70
     1
102
RTVSPropertyOp47
 70
     1
102
RTVSPropertyOp48
 70
     1
102
RTVSPropertyOp49
 70
     1
102
RTVSPropertyOp50
 70
     1
102
RTVSPropertyOp51
 70
     0
102
RTVSPropertyOp52
 70
     0
102
RTVSPropertyOp53
 70
     1
102
RTVSPropertyOp54
 70
     1
102
RTVSPropertyOp55
 70
     1
102
RTVSPropertyOp56
 70
     1
102
RTVSPropertyOp57
 70
     1
102
RTVSPost2010Prop28
280
     0
102
RTVSPost2010PropOp28
 70
     1
102
RTVSPost2010Prop29
280
     1
102
RTVSPost2010PropOp29
 70
     1
102
RTVSPost2010Prop30
280
     1
102
RTVSPost2010PropOp30
 70
     1
102
RTVSPost2010Prop31
280
     0
102
RTVSPost2010PropOp31
 70
     1
102
RTVSPost2010Prop32
280
     0
102
RTVSPost2010PropOp32
 70
     1
102
RTVSPost2010Prop33
280
     0
102
RTVSPost2010PropOp33
 70
     1
102
RTVSPost2010Prop34
280
     0
102
RTVSPost2010PropOp34
 70
     1
102
RTVSPost2010Prop35
280
     0
102
RTVSPost2010PropOp35
 70
     1
102
RTVSPost2010Prop36
280
     0
102
RTVSPost2010PropOp36
 70
     1
102
RTVSPost2010Prop37
 90
       50
102
RTVSPost2010PropOp37
 70
     1
102
RTVSPost2010Prop38
140
0.0
102
RTVSPost2010PropOp38
 70
     1
102
RTVSPost2010Prop39
140
1.0
102
RTVSPost2010PropOp39
 70
     1
102
RTVSPost2010Prop40
 90
        0
102
RTVSPost2010PropOp40
 70
     1
102
RTVSPost2010Prop41ColorIndex
 90
       18
102
RTVSPost2010Prop41ColorRGB
 90
        0
102
RTVSPost2010PropOp41
 70
     1
102
RTVSPost2010Prop42
 90
       50
102
RTVSPost2010PropOp42
 70
     1
102
RTVSPost2010Prop43
 90
        3
102
RTVSPost2010PropOp43
 70
     1
102
RTVSPost2010Prop44ColorIndex
 90
        5
102
RTVSPost2010Prop44ColorRGB
 90
      255
102
RTVSPost2010PropOp44
 70
     1
102
RTVSPost2010Prop45
280
     0
102
RTVSPost2010PropOp45
 70
     1
102
RTVSPost2010Prop46
 90
       50
102
RTVSPost2010PropOp46
 70
     1
102
RTVSPost2010Prop47
 90
       50
102
RTVSPost2010PropOp47
 70
     1
102
RTVSPost2010Prop48
 90
       50
102
RTVSPost2010PropOp48
 70
     1
102
RTVSPost2010Prop49
280
     0
102
RTVSPost2010PropOp49
 70
     1
102
RTVSPost2010Prop50
 90
       50
102
RTVSPost2010PropOp50
 70
     1
102
RTVSPost2010Prop51ColorIndex
 90
      256
102
RTVSPost2010Prop51ColorRGB
 90
-16777216
102
RTVSPost2010PropOp51
 70
     0
102
RTVSPost2010Prop52
140
1.0
102
RTVSPost2010PropOp52
 70
     0
102
RTVSPost2010Prop53
 90
        2
102
RTVSPost2010PropOp53
 70
     1
102
RTVSPost2010Prop54
  1
strokes_ogs.tif
102
RTVSPost2010PropOp54
 70
     1
102
RTVSPost2010Prop55
280
     0
102
RTVSPost2010PropOp55
 70
     1
102
RTVSPost2010Prop56
140
1.0
102
RTVSPost2010PropOp56
 70
     1
102
RTVSPost2010Prop57
140
1.0
102
RTVSPost2010PropOp57
 70
     1
  0
XRECORD
  5
766
102
{ACAD_REACTORS
330
765
102
}
330
765
100
AcDbXrecord
280
     1
102
RTVSPropertyOp0
 70
     0
102
RTVSPropertyOp1
 70
     0
102
RTVSPropertyOp2
 70
     0
102
RTVSPropertyOp3
 70
     0
102
RTVSPropertyOp4
 70
     0
102
RTVSPropertyOp5
 70
     0
102
RTVSPropertyOp6
 70
     0
102
RTVSPropertyOp7
 70
     0
102
RTVSPropertyOp8
 70
     0
102
RTVSPropertyOp9
 70
     0
102
RTVSPropertyOp10
 70
     0
102
RTVSPropertyOp11
 70
     0
102
RTVSPropertyOp12
 70
     0
102
RTVSPropertyOp13
 70
     0
102
RTVSPropertyOp14
 70
     0
102
RTVSPropertyOp15
 70
     0
102
RTVSPropertyOp16
 70
     0
102
RTVSPropertyOp17
 70
     0
102
RTVSPropertyOp18
 70
     0
102
RTVSPropertyOp19
 70
     0
102
RTVSPropertyOp20
 70
     0
102
RTVSPropertyOp21
 70
     0
102
RTVSPropertyOp22
 70
     0
102
RTVSPropertyOp23
 70
     0
102
RTVSPropertyOp24
 70
     0
102
RTVSPropertyOp25
 70
     0
102
RTVSPropertyOp26
 70
     0
102
RTVSPropertyOp27
 70
     0
102
RTVSPropertyOp28
 70
     1
102
RTVSPropertyOp29
 70
     1
102
RTVSPropertyOp30
 70
     1
102
RTVSPropertyOp31
 70
     1
102
RTVSPropertyOp32
 70
     1
102
RTVSPropertyOp33
 70
     1
102
RTVSPropertyOp34
 70
     1
102
RTVSPropertyOp35
 70
     1
102
RTVSPropertyOp36
 70
     1
102
RTVSPropertyOp37
 70
     1
102
RTVSPropertyOp38
 70
     1
102
RTVSPropertyOp39
 70
     1
102
RTVSPropertyOp40
 70
     1
102
RTVSPropertyOp41
 70
     1
102
RTVSPropertyOp42
 70
     1
102
RTVSPropertyOp43
 70
     1
102
RTVSPropertyOp44
 70
     1
102
RTVSPropertyOp45
 70
     1
102
RTVSPropertyOp46
 70
     1
102
RTVSPropertyOp47
 70
     1
102
RTVSPropertyOp48
 70
     1
102
RTVSPropertyOp49
 70
     1
102
RTVSPropertyOp50
 70
     1
102
RTVSPropertyOp51
 70
     0
102
RTVSPropertyOp52
 70
     0
102
RTVSPropertyOp53
 70
     1
102
RTVSPropertyOp54
 70
     1
102
RTVSPropertyOp55
 70
     1
102
RTVSPropertyOp56
 70
     1
102
RTVSPropertyOp57
 70
     1
102
RTVSPost2010Prop28
280
     0
102
RTVSPost2010PropOp28
 70
     1
102
RTVSPost2010Prop29
280
     1
102
RTVSPost2010PropOp29
 70
     1
102
RTVSPost2010Prop30
280
     1
102
RTVSPost2010PropOp30
 70
     1
102
RTVSPost2010Prop31
280
     0
102
RTVSPost2010PropOp31
 70
     1
102
RTVSPost2010Prop32
280
     0
102
RTVSPost2010PropOp32
 70
     1
102
RTVSPost2010Prop33
280
     0
102
RTVSPost2010PropOp33
 70
     1
102
RTVSPost2010Prop34
280
     0
102
RTVSPost2010PropOp34
 70
     1
102
RTVSPost2010Prop35
280
     0
102
RTVSPost2010PropOp35
 70
     1
102
RTVSPost2010Prop36
280
     0
102
RTVSPost2010PropOp36
 70
     1
102
RTVSPost2010Prop37
 90
       50
102
RTVSPost2010PropOp37
 70
     1
102
RTVSPost2010Prop38
140
0.0
102
RTVSPost2010PropOp38
 70
     1
102
RTVSPost2010Prop39
140
1.0
102
RTVSPost2010PropOp39
 70
     1
102
RTVSPost2010Prop40
 90
        0
102
RTVSPost2010PropOp40
 70
     1
102
RTVSPost2010Prop41ColorIndex
 90
       18
102
RTVSPost2010Prop41ColorRGB
 90
        0
102
RTVSPost2010PropOp41
 70
     1
102
RTVSPost2010Prop42
 90
       50
102
RTVSPost2010PropOp42
 70
     1
102
RTVSPost2010Prop43
 90
        3
102
RTVSPost2010PropOp43
 70
     1
102
RTVSPost2010Prop44ColorIndex
 90
        5
102
RTVSPost2010Prop44ColorRGB
 90
      255
102
RTVSPost2010PropOp44
 70
     1
102
RTVSPost2010Prop45
280
     0
102
RTVSPost2010PropOp45
 70
     1
102
RTVSPost2010Prop46
 90
       50
102
RTVSPost2010PropOp46
 70
     1
102
RTVSPost2010Prop47
 90
       50
102
RTVSPost2010PropOp47
 70
     1
102
RTVSPost2010Prop48
 90
       50
102
RTVSPost2010PropOp48
 70
     1
102
RTVSPost2010Prop49
280
     0
102
RTVSPost2010PropOp49
 70
     1
102
RTVSPost2010Prop50
 90
       50
102
RTVSPost2010PropOp50
 70
     1
102
RTVSPost2010Prop51ColorIndex
 90
      256
102
RTVSPost2010Prop51ColorRGB
 90
-16777216
102
RTVSPost2010PropOp51
 70
     0
102
RTVSPost2010Prop52
140
1.0
102
RTVSPost2010PropOp52
 70
     0
102
RTVSPost2010Prop53
 90
        2
102
RTVSPost2010PropOp53
 70
     1
102
RTVSPost2010Prop54
  1
strokes_ogs.tif
102
RTVSPost2010PropOp54
 70
     1
102
RTVSPost2010Prop55
280
     0
102
RTVSPost2010PropOp55
 70
     1
102
RTVSPost2010Prop56
140
1.0
102
RTVSPost2010PropOp56
 70
     1
102
RTVSPost2010Prop57
140
1.0
102
RTVSPost2010PropOp57
 70
     1
  0
XRECORD
  5
75E
102
{ACAD_REACTORS
330
75D
102
}
330
75D
100
AcDbXrecord
280
     1
102
RTVSPropertyOp0
 70
     1
102
RTVSPropertyOp1
 70
     1
102
RTVSPropertyOp2
 70
     1
102
RTVSPropertyOp3
 70
     1
102
RTVSPropertyOp4
 70
     1
102
RTVSPropertyOp5
 70
     1
102
RTVSPropertyOp6
 70
     1
102
RTVSPropertyOp7
 70
     1
102
RTVSPropertyOp8
 70
     1
102
RTVSPropertyOp9
 70
     1
102
RTVSPropertyOp10
 70
     1
102
RTVSPropertyOp11
 70
     1
102
RTVSPropertyOp12
 70
     1
102
RTVSPropertyOp13
 70
     1
102
RTVSPropertyOp14
 70
     1
102
RTVSPropertyOp15
 70
     1
102
RTVSPropertyOp16
 70
     1
102
RTVSPropertyOp17
 70
     1
102
RTVSPropertyOp18
 70
     1
102
RTVSPropertyOp19
 70
     1
102
RTVSPropertyOp20
 70
     1
102
RTVSPropertyOp21
 70
     1
102
RTVSPropertyOp22
 70
     1
102
RTVSPropertyOp23
 70
     1
102
RTVSPropertyOp24
 70
     1
102
RTVSPropertyOp25
 70
     1
102
RTVSPropertyOp26
 70
     1
102
RTVSPropertyOp27
 70
     1
102
RTVSPropertyOp28
 70
     1
102
RTVSPropertyOp29
 70
     1
102
RTVSPropertyOp30
 70
     1
102
RTVSPropertyOp31
 70
     1
102
RTVSPropertyOp32
 70
     1
102
RTVSPropertyOp33
 70
     1
102
RTVSPropertyOp34
 70
     1
102
RTVSPropertyOp35
 70
     1
102
RTVSPropertyOp36
 70
     1
102
RTVSPropertyOp37
 70
     1
102
RTVSPropertyOp38
 70
     1
102
RTVSPropertyOp39
 70
     1
102
RTVSPropertyOp40
 70
     1
102
RTVSPropertyOp41
 70
     1
102
RTVSPropertyOp42
 70
     1
102
RTVSPropertyOp43
 70
     1
102
RTVSPropertyOp44
 70
     1
102
RTVSPropertyOp45
 70
     1
102
RTVSPropertyOp46
 70
     1
102
RTVSPropertyOp47
 70
     1
102
RTVSPropertyOp48
 70
     1
102
RTVSPropertyOp49
 70
     1
102
RTVSPropertyOp50
 70
     1
102
RTVSPropertyOp51
 70
     0
102
RTVSPropertyOp52
 70
     0
102
RTVSPropertyOp53
 70
     1
102
RTVSPropertyOp54
 70
     1
102
RTVSPropertyOp55
 70
     1
102
RTVSPropertyOp56
 70
     1
102
RTVSPropertyOp57
 70
     1
102
RTVSPost2010Prop28
280
     0
102
RTVSPost2010PropOp28
 70
     1
102
RTVSPost2010Prop29
280
     1
102
RTVSPost2010PropOp29
 70
     1
102
RTVSPost2010Prop30
280
     1
102
RTVSPost2010PropOp30
 70
     1
102
RTVSPost2010Prop31
280
     0
102
RTVSPost2010PropOp31
 70
     1
102
RTVSPost2010Prop32
280
     0
102
RTVSPost2010PropOp32
 70
     1
102
RTVSPost2010Prop33
280
     0
102
RTVSPost2010PropOp33
 70
     1
102
RTVSPost2010Prop34
280
     0
102
RTVSPost2010PropOp34
 70
     1
102
RTVSPost2010Prop35
280
     0
102
RTVSPost2010PropOp35
 70
     1
102
RTVSPost2010Prop36
280
     0
102
RTVSPost2010PropOp36
 70
     1
102
RTVSPost2010Prop37
 90
       50
102
RTVSPost2010PropOp37
 70
     1
102
RTVSPost2010Prop38
140
0.0
102
RTVSPost2010PropOp38
 70
     1
102
RTVSPost2010Prop39
140
1.0
102
RTVSPost2010PropOp39
 70
     1
102
RTVSPost2010Prop40
 90
        0
102
RTVSPost2010PropOp40
 70
     1
102
RTVSPost2010Prop41ColorIndex
 90
       18
102
RTVSPost2010Prop41ColorRGB
 90
        0
102
RTVSPost2010PropOp41
 70
     1
102
RTVSPost2010Prop42
 90
       50
102
RTVSPost2010PropOp42
 70
     1
102
RTVSPost2010Prop43
 90
        3
102
RTVSPost2010PropOp43
 70
     1
102
RTVSPost2010Prop44ColorIndex
 90
        5
102
RTVSPost2010Prop44ColorRGB
 90
      255
102
RTVSPost2010PropOp44
 70
     1
102
RTVSPost2010Prop45
280
     0
102
RTVSPost2010PropOp45
 70
     1
102
RTVSPost2010Prop46
 90
       50
102
RTVSPost2010PropOp46
 70
     1
102
RTVSPost2010Prop47
 90
       50
102
RTVSPost2010PropOp47
 70
     1
102
RTVSPost2010Prop48
 90
       50
102
RTVSPost2010PropOp48
 70
     1
102
RTVSPost2010Prop49
280
     0
102
RTVSPost2010PropOp49
 70
     1
102
RTVSPost2010Prop50
 90
       50
102
RTVSPost2010PropOp50
 70
     1
102
RTVSPost2010Prop51ColorIndex
 90
      256
102
RTVSPost2010Prop51ColorRGB
 90
-16777216
102
RTVSPost2010PropOp51
 70
     0
102
RTVSPost2010Prop52
140
1.0
102
RTVSPost2010PropOp52
 70
     0
102
RTVSPost2010Prop53
 90
        2
102
RTVSPost2010PropOp53
 70
     1
102
RTVSPost2010Prop54
  1
strokes_ogs.tif
102
RTVSPost2010PropOp54
 70
     1
102
RTVSPost2010Prop55
280
     0
102
RTVSPost2010PropOp55
 70
     1
102
RTVSPost2010Prop56
140
1.0
102
RTVSPost2010PropOp56
 70
     1
102
RTVSPost2010Prop57
140
1.0
102
RTVSPost2010PropOp57
 70
     1
  0
XRECORD
  5
746
102
{ACAD_REACTORS
330
745
102
}
330
745
100
AcDbXrecord
280
     1
102
RTVSPropertyOp0
 70
     1
102
RTVSPropertyOp1
 70
     1
102
RTVSPropertyOp2
 70
     1
102
RTVSPropertyOp3
 70
     1
102
RTVSPropertyOp4
 70
     1
102
RTVSPropertyOp5
 70
     1
102
RTVSPropertyOp6
 70
     1
102
RTVSPropertyOp7
 70
     1
102
RTVSPropertyOp8
 70
     1
102
RTVSPropertyOp9
 70
     1
102
RTVSPropertyOp10
 70
     1
102
RTVSPropertyOp11
 70
     1
102
RTVSPropertyOp12
 70
     1
102
RTVSPropertyOp13
 70
     1
102
RTVSPropertyOp14
 70
     1
102
RTVSPropertyOp15
 70
     1
102
RTVSPropertyOp16
 70
     1
102
RTVSPropertyOp17
 70
     1
102
RTVSPropertyOp18
 70
     1
102
RTVSPropertyOp19
 70
     1
102
RTVSPropertyOp20
 70
     1
102
RTVSPropertyOp21
 70
     1
102
RTVSPropertyOp22
 70
     1
102
RTVSPropertyOp23
 70
     1
102
RTVSPropertyOp24
 70
     1
102
RTVSPropertyOp25
 70
     1
102
RTVSPropertyOp26
 70
     1
102
RTVSPropertyOp27
 70
     1
102
RTVSPropertyOp28
 70
     1
102
RTVSPropertyOp29
 70
     1
102
RTVSPropertyOp30
 70
     1
102
RTVSPropertyOp31
 70
     1
102
RTVSPropertyOp32
 70
     1
102
RTVSPropertyOp33
 70
     1
102
RTVSPropertyOp34
 70
     1
102
RTVSPropertyOp35
 70
     1
102
RTVSPropertyOp36
 70
     1
102
RTVSPropertyOp37
 70
     1
102
RTVSPropertyOp38
 70
     1
102
RTVSPropertyOp39
 70
     1
102
RTVSPropertyOp40
 70
     1
102
RTVSPropertyOp41
 70
     1
102
RTVSPropertyOp42
 70
     1
102
RTVSPropertyOp43
 70
     1
102
RTVSPropertyOp44
 70
     1
102
RTVSPropertyOp45
 70
     1
102
RTVSPropertyOp46
 70
     1
102
RTVSPropertyOp47
 70
     1
102
RTVSPropertyOp48
 70
     1
102
RTVSPropertyOp49
 70
     1
102
RTVSPropertyOp50
 70
     1
102
RTVSPropertyOp51
 70
     0
102
RTVSPropertyOp52
 70
     0
102
RTVSPropertyOp53
 70
     1
102
RTVSPropertyOp54
 70
     1
102
RTVSPropertyOp55
 70
     1
102
RTVSPropertyOp56
 70
     1
102
RTVSPropertyOp57
 70
     1
102
RTVSPost2010Prop28
280
     0
102
RTVSPost2010PropOp28
 70
     1
102
RTVSPost2010Prop29
280
     1
102
RTVSPost2010PropOp29
 70
     1
102
RTVSPost2010Prop30
280
     1
102
RTVSPost2010PropOp30
 70
     1
102
RTVSPost2010Prop31
280
     0
102
RTVSPost2010PropOp31
 70
     1
102
RTVSPost2010Prop32
280
     0
102
RTVSPost2010PropOp32
 70
     1
102
RTVSPost2010Prop33
280
     0
102
RTVSPost2010PropOp33
 70
     1
102
RTVSPost2010Prop34
280
     0
102
RTVSPost2010PropOp34
 70
     1
102
RTVSPost2010Prop35
280
     0
102
RTVSPost2010PropOp35
 70
     1
102
RTVSPost2010Prop36
280
     0
102
RTVSPost2010PropOp36
 70
     1
102
RTVSPost2010Prop37
 90
       50
102
RTVSPost2010PropOp37
 70
     1
102
RTVSPost2010Prop38
140
0.0
102
RTVSPost2010PropOp38
 70
     1
102
RTVSPost2010Prop39
140
1.0
102
RTVSPost2010PropOp39
 70
     1
102
RTVSPost2010Prop40
 90
        0
102
RTVSPost2010PropOp40
 70
     1
102
RTVSPost2010Prop41ColorIndex
 90
       18
102
RTVSPost2010Prop41ColorRGB
 90
        0
102
RTVSPost2010PropOp41
 70
     1
102
RTVSPost2010Prop42
 90
       50
102
RTVSPost2010PropOp42
 70
     1
102
RTVSPost2010Prop43
 90
        3
102
RTVSPost2010PropOp43
 70
     1
102
RTVSPost2010Prop44ColorIndex
 90
        5
102
RTVSPost2010Prop44ColorRGB
 90
      255
102
RTVSPost2010PropOp44
 70
     1
102
RTVSPost2010Prop45
280
     0
102
RTVSPost2010PropOp45
 70
     1
102
RTVSPost2010Prop46
 90
       50
102
RTVSPost2010PropOp46
 70
     1
102
RTVSPost2010Prop47
 90
       50
102
RTVSPost2010PropOp47
 70
     1
102
RTVSPost2010Prop48
 90
       50
102
RTVSPost2010PropOp48
 70
     1
102
RTVSPost2010Prop49
280
     0
102
RTVSPost2010PropOp49
 70
     1
102
RTVSPost2010Prop50
 90
       50
102
RTVSPost2010PropOp50
 70
     1
102
RTVSPost2010Prop51ColorIndex
 90
      256
102
RTVSPost2010Prop51ColorRGB
 90
-16777216
102
RTVSPost2010PropOp51
 70
     0
102
RTVSPost2010Prop52
140
1.0
102
RTVSPost2010PropOp52
 70
     0
102
RTVSPost2010Prop53
 90
        2
102
RTVSPost2010PropOp53
 70
     1
102
RTVSPost2010Prop54
  1
strokes_ogs.tif
102
RTVSPost2010PropOp54
 70
     1
102
RTVSPost2010Prop55
280
     0
102
RTVSPost2010PropOp55
 70
     1
102
RTVSPost2010Prop56
140
1.0
102
RTVSPost2010PropOp56
 70
     1
102
RTVSPost2010Prop57
140
1.0
102
RTVSPost2010PropOp57
 70
     1
  0
XRECORD
  5
748
102
{ACAD_REACTORS
330
747
102
}
330
747
100
AcDbXrecord
280
     1
102
RTVSPropertyOp0
 70
     1
102
RTVSPropertyOp1
 70
     1
102
RTVSPropertyOp2
 70
     1
102
RTVSPropertyOp3
 70
     1
102
RTVSPropertyOp4
 70
     1
102
RTVSPropertyOp5
 70
     1
102
RTVSPropertyOp6
 70
     1
102
RTVSPropertyOp7
 70
     1
102
RTVSPropertyOp8
 70
     1
102
RTVSPropertyOp9
 70
     1
102
RTVSPropertyOp10
 70
     1
102
RTVSPropertyOp11
 70
     1
102
RTVSPropertyOp12
 70
     1
102
RTVSPropertyOp13
 70
     1
102
RTVSPropertyOp14
 70
     1
102
RTVSPropertyOp15
 70
     1
102
RTVSPropertyOp16
 70
     1
102
RTVSPropertyOp17
 70
     1
102
RTVSPropertyOp18
 70
     1
102
RTVSPropertyOp19
 70
     1
102
RTVSPropertyOp20
 70
     1
102
RTVSPropertyOp21
 70
     1
102
RTVSPropertyOp22
 70
     1
102
RTVSPropertyOp23
 70
     1
102
RTVSPropertyOp24
 70
     1
102
RTVSPropertyOp25
 70
     1
102
RTVSPropertyOp26
 70
     1
102
RTVSPropertyOp27
 70
     1
102
RTVSPropertyOp28
 70
     1
102
RTVSPropertyOp29
 70
     1
102
RTVSPropertyOp30
 70
     1
102
RTVSPropertyOp31
 70
     1
102
RTVSPropertyOp32
 70
     1
102
RTVSPropertyOp33
 70
     1
102
RTVSPropertyOp34
 70
     1
102
RTVSPropertyOp35
 70
     1
102
RTVSPropertyOp36
 70
     1
102
RTVSPropertyOp37
 70
     1
102
RTVSPropertyOp38
 70
     1
102
RTVSPropertyOp39
 70
     1
102
RTVSPropertyOp40
 70
     1
102
RTVSPropertyOp41
 70
     1
102
RTVSPropertyOp42
 70
     1
102
RTVSPropertyOp43
 70
     1
102
RTVSPropertyOp44
 70
     1
102
RTVSPropertyOp45
 70
     1
102
RTVSPropertyOp46
 70
     1
102
RTVSPropertyOp47
 70
     1
102
RTVSPropertyOp48
 70
     1
102
RTVSPropertyOp49
 70
     1
102
RTVSPropertyOp50
 70
     1
102
RTVSPropertyOp51
 70
     0
102
RTVSPropertyOp52
 70
     0
102
RTVSPropertyOp53
 70
     1
102
RTVSPropertyOp54
 70
     1
102
RTVSPropertyOp55
 70
     1
102
RTVSPropertyOp56
 70
     1
102
RTVSPropertyOp57
 70
     1
102
RTVSPost2010Prop28
280
     0
102
RTVSPost2010PropOp28
 70
     1
102
RTVSPost2010Prop29
280
     1
102
RTVSPost2010PropOp29
 70
     1
102
RTVSPost2010Prop30
280
     1
102
RTVSPost2010PropOp30
 70
     1
102
RTVSPost2010Prop31
280
     0
102
RTVSPost2010PropOp31
 70
     1
102
RTVSPost2010Prop32
280
     0
102
RTVSPost2010PropOp32
 70
     1
102
RTVSPost2010Prop33
280
     0
102
RTVSPost2010PropOp33
 70
     1
102
RTVSPost2010Prop34
280
     0
102
RTVSPost2010PropOp34
 70
     1
102
RTVSPost2010Prop35
280
     0
102
RTVSPost2010PropOp35
 70
     1
102
RTVSPost2010Prop36
280
     0
102
RTVSPost2010PropOp36
 70
     1
102
RTVSPost2010Prop37
 90
       50
102
RTVSPost2010PropOp37
 70
     1
102
RTVSPost2010Prop38
140
0.0
102
RTVSPost2010PropOp38
 70
     1
102
RTVSPost2010Prop39
140
1.0
102
RTVSPost2010PropOp39
 70
     1
102
RTVSPost2010Prop40
 90
        0
102
RTVSPost2010PropOp40
 70
     1
102
RTVSPost2010Prop41ColorIndex
 90
       18
102
RTVSPost2010Prop41ColorRGB
 90
        0
102
RTVSPost2010PropOp41
 70
     1
102
RTVSPost2010Prop42
 90
       50
102
RTVSPost2010PropOp42
 70
     1
102
RTVSPost2010Prop43
 90
        3
102
RTVSPost2010PropOp43
 70
     1
102
RTVSPost2010Prop44ColorIndex
 90
        5
102
RTVSPost2010Prop44ColorRGB
 90
      255
102
RTVSPost2010PropOp44
 70
     1
102
RTVSPost2010Prop45
280
     0
102
RTVSPost2010PropOp45
 70
     1
102
RTVSPost2010Prop46
 90
       50
102
RTVSPost2010PropOp46
 70
     1
102
RTVSPost2010Prop47
 90
       50
102
RTVSPost2010PropOp47
 70
     1
102
RTVSPost2010Prop48
 90
       50
102
RTVSPost2010PropOp48
 70
     1
102
RTVSPost2010Prop49
280
     0
102
RTVSPost2010PropOp49
 70
     1
102
RTVSPost2010Prop50
 90
       50
102
RTVSPost2010PropOp50
 70
     1
102
RTVSPost2010Prop51ColorIndex
 90
      256
102
RTVSPost2010Prop51ColorRGB
 90
-16777216
102
RTVSPost2010PropOp51
 70
     0
102
RTVSPost2010Prop52
140
1.0
102
RTVSPost2010PropOp52
 70
     0
102
RTVSPost2010Prop53
 90
        2
102
RTVSPost2010PropOp53
 70
     1
102
RTVSPost2010Prop54
  1
strokes_ogs.tif
102
RTVSPost2010PropOp54
 70
     1
102
RTVSPost2010Prop55
280
     0
102
RTVSPost2010PropOp55
 70
     1
102
RTVSPost2010Prop56
140
1.0
102
RTVSPost2010PropOp56
 70
     1
102
RTVSPost2010Prop57
140
1.0
102
RTVSPost2010PropOp57
 70
     1
  0
XRECORD
  5
74A
102
{ACAD_REACTORS
330
749
102
}
330
749
100
AcDbXrecord
280
     1
102
RTVSPropertyOp0
 70
     1
102
RTVSPropertyOp1
 70
     1
102
RTVSPropertyOp2
 70
     1
102
RTVSPropertyOp3
 70
     1
102
RTVSPropertyOp4
 70
     1
102
RTVSPropertyOp5
 70
     1
102
RTVSPropertyOp6
 70
     1
102
RTVSPropertyOp7
 70
     1
102
RTVSPropertyOp8
 70
     1
102
RTVSPropertyOp9
 70
     1
102
RTVSPropertyOp10
 70
     1
102
RTVSPropertyOp11
 70
     1
102
RTVSPropertyOp12
 70
     1
102
RTVSPropertyOp13
 70
     1
102
RTVSPropertyOp14
 70
     1
102
RTVSPropertyOp15
 70
     1
102
RTVSPropertyOp16
 70
     1
102
RTVSPropertyOp17
 70
     1
102
RTVSPropertyOp18
 70
     1
102
RTVSPropertyOp19
 70
     1
102
RTVSPropertyOp20
 70
     1
102
RTVSPropertyOp21
 70
     1
102
RTVSPropertyOp22
 70
     1
102
RTVSPropertyOp23
 70
     1
102
RTVSPropertyOp24
 70
     1
102
RTVSPropertyOp25
 70
     1
102
RTVSPropertyOp26
 70
     1
102
RTVSPropertyOp27
 70
     1
102
RTVSPropertyOp28
 70
     1
102
RTVSPropertyOp29
 70
     1
102
RTVSPropertyOp30
 70
     1
102
RTVSPropertyOp31
 70
     1
102
RTVSPropertyOp32
 70
     1
102
RTVSPropertyOp33
 70
     1
102
RTVSPropertyOp34
 70
     1
102
RTVSPropertyOp35
 70
     1
102
RTVSPropertyOp36
 70
     1
102
RTVSPropertyOp37
 70
     1
102
RTVSPropertyOp38
 70
     1
102
RTVSPropertyOp39
 70
     1
102
RTVSPropertyOp40
 70
     1
102
RTVSPropertyOp41
 70
     1
102
RTVSPropertyOp42
 70
     1
102
RTVSPropertyOp43
 70
     1
102
RTVSPropertyOp44
 70
     1
102
RTVSPropertyOp45
 70
     1
102
RTVSPropertyOp46
 70
     1
102
RTVSPropertyOp47
 70
     1
102
RTVSPropertyOp48
 70
     1
102
RTVSPropertyOp49
 70
     1
102
RTVSPropertyOp50
 70
     1
102
RTVSPropertyOp51
 70
     0
102
RTVSPropertyOp52
 70
     0
102
RTVSPropertyOp53
 70
     1
102
RTVSPropertyOp54
 70
     1
102
RTVSPropertyOp55
 70
     1
102
RTVSPropertyOp56
 70
     1
102
RTVSPropertyOp57
 70
     1
102
RTVSPost2010Prop28
280
     0
102
RTVSPost2010PropOp28
 70
     1
102
RTVSPost2010Prop29
280
     1
102
RTVSPost2010PropOp29
 70
     1
102
RTVSPost2010Prop30
280
     1
102
RTVSPost2010PropOp30
 70
     1
102
RTVSPost2010Prop31
280
     0
102
RTVSPost2010PropOp31
 70
     1
102
RTVSPost2010Prop32
280
     0
102
RTVSPost2010PropOp32
 70
     1
102
RTVSPost2010Prop33
280
     0
102
RTVSPost2010PropOp33
 70
     1
102
RTVSPost2010Prop34
280
     0
102
RTVSPost2010PropOp34
 70
     1
102
RTVSPost2010Prop35
280
     0
102
RTVSPost2010PropOp35
 70
     1
102
RTVSPost2010Prop36
280
     0
102
RTVSPost2010PropOp36
 70
     1
102
RTVSPost2010Prop37
 90
       50
102
RTVSPost2010PropOp37
 70
     1
102
RTVSPost2010Prop38
140
0.0
102
RTVSPost2010PropOp38
 70
     1
102
RTVSPost2010Prop39
140
1.0
102
RTVSPost2010PropOp39
 70
     1
102
RTVSPost2010Prop40
 90
        0
102
RTVSPost2010PropOp40
 70
     1
102
RTVSPost2010Prop41ColorIndex
 90
       18
102
RTVSPost2010Prop41ColorRGB
 90
        0
102
RTVSPost2010PropOp41
 70
     1
102
RTVSPost2010Prop42
 90
       50
102
RTVSPost2010PropOp42
 70
     1
102
RTVSPost2010Prop43
 90
        3
102
RTVSPost2010PropOp43
 70
     1
102
RTVSPost2010Prop44ColorIndex
 90
        5
102
RTVSPost2010Prop44ColorRGB
 90
      255
102
RTVSPost2010PropOp44
 70
     1
102
RTVSPost2010Prop45
280
     0
102
RTVSPost2010PropOp45
 70
     1
102
RTVSPost2010Prop46
 90
       50
102
RTVSPost2010PropOp46
 70
     1
102
RTVSPost2010Prop47
 90
       50
102
RTVSPost2010PropOp47
 70
     1
102
RTVSPost2010Prop48
 90
       50
102
RTVSPost2010PropOp48
 70
     1
102
RTVSPost2010Prop49
280
     0
102
RTVSPost2010PropOp49
 70
     1
102
RTVSPost2010Prop50
 90
       50
102
RTVSPost2010PropOp50
 70
     1
102
RTVSPost2010Prop51ColorIndex
 90
      256
102
RTVSPost2010Prop51ColorRGB
 90
-16777216
102
RTVSPost2010PropOp51
 70
     0
102
RTVSPost2010Prop52
140
1.0
102
RTVSPost2010PropOp52
 70
     0
102
RTVSPost2010Prop53
 90
        2
102
RTVSPost2010PropOp53
 70
     1
102
RTVSPost2010Prop54
  1
strokes_ogs.tif
102
RTVSPost2010PropOp54
 70
     1
102
RTVSPost2010Prop55
280
     0
102
RTVSPost2010PropOp55
 70
     1
102
RTVSPost2010Prop56
140
1.0
102
RTVSPost2010PropOp56
 70
     1
102
RTVSPost2010Prop57
140
1.0
102
RTVSPost2010PropOp57
 70
     1
  0
XRECORD
  5
74C
102
{ACAD_REACTORS
330
74B
102
}
330
74B
100
AcDbXrecord
280
     1
102
RTVSPropertyOp0
 70
     1
102
RTVSPropertyOp1
 70
     1
102
RTVSPropertyOp2
 70
     1
102
RTVSPropertyOp3
 70
     1
102
RTVSPropertyOp4
 70
     1
102
RTVSPropertyOp5
 70
     1
102
RTVSPropertyOp6
 70
     1
102
RTVSPropertyOp7
 70
     1
102
RTVSPropertyOp8
 70
     1
102
RTVSPropertyOp9
 70
     1
102
RTVSPropertyOp10
 70
     1
102
RTVSPropertyOp11
 70
     1
102
RTVSPropertyOp12
 70
     1
102
RTVSPropertyOp13
 70
     1
102
RTVSPropertyOp14
 70
     1
102
RTVSPropertyOp15
 70
     1
102
RTVSPropertyOp16
 70
     1
102
RTVSPropertyOp17
 70
     1
102
RTVSPropertyOp18
 70
     1
102
RTVSPropertyOp19
 70
     1
102
RTVSPropertyOp20
 70
     1
102
RTVSPropertyOp21
 70
     1
102
RTVSPropertyOp22
 70
     1
102
RTVSPropertyOp23
 70
     1
102
RTVSPropertyOp24
 70
     1
102
RTVSPropertyOp25
 70
     1
102
RTVSPropertyOp26
 70
     1
102
RTVSPropertyOp27
 70
     1
102
RTVSPropertyOp28
 70
     1
102
RTVSPropertyOp29
 70
     1
102
RTVSPropertyOp30
 70
     1
102
RTVSPropertyOp31
 70
     1
102
RTVSPropertyOp32
 70
     1
102
RTVSPropertyOp33
 70
     1
102
RTVSPropertyOp34
 70
     1
102
RTVSPropertyOp35
 70
     1
102
RTVSPropertyOp36
 70
     1
102
RTVSPropertyOp37
 70
     1
102
RTVSPropertyOp38
 70
     1
102
RTVSPropertyOp39
 70
     1
102
RTVSPropertyOp40
 70
     1
102
RTVSPropertyOp41
 70
     1
102
RTVSPropertyOp42
 70
     1
102
RTVSPropertyOp43
 70
     1
102
RTVSPropertyOp44
 70
     1
102
RTVSPropertyOp45
 70
     1
102
RTVSPropertyOp46
 70
     1
102
RTVSPropertyOp47
 70
     1
102
RTVSPropertyOp48
 70
     1
102
RTVSPropertyOp49
 70
     1
102
RTVSPropertyOp50
 70
     1
102
RTVSPropertyOp51
 70
     0
102
RTVSPropertyOp52
 70
     0
102
RTVSPropertyOp53
 70
     1
102
RTVSPropertyOp54
 70
     1
102
RTVSPropertyOp55
 70
     1
102
RTVSPropertyOp56
 70
     1
102
RTVSPropertyOp57
 70
     1
102
RTVSPost2010Prop28
280
     0
102
RTVSPost2010PropOp28
 70
     1
102
RTVSPost2010Prop29
280
     1
102
RTVSPost2010PropOp29
 70
     1
102
RTVSPost2010Prop30
280
     1
102
RTVSPost2010PropOp30
 70
     1
102
RTVSPost2010Prop31
280
     0
102
RTVSPost2010PropOp31
 70
     1
102
RTVSPost2010Prop32
280
     0
102
RTVSPost2010PropOp32
 70
     1
102
RTVSPost2010Prop33
280
     0
102
RTVSPost2010PropOp33
 70
     1
102
RTVSPost2010Prop34
280
     0
102
RTVSPost2010PropOp34
 70
     1
102
RTVSPost2010Prop35
280
     0
102
RTVSPost2010PropOp35
 70
     1
102
RTVSPost2010Prop36
280
     0
102
RTVSPost2010PropOp36
 70
     1
102
RTVSPost2010Prop37
 90
       50
102
RTVSPost2010PropOp37
 70
     1
102
RTVSPost2010Prop38
140
0.0
102
RTVSPost2010PropOp38
 70
     1
102
RTVSPost2010Prop39
140
1.0
102
RTVSPost2010PropOp39
 70
     1
102
RTVSPost2010Prop40
 90
        0
102
RTVSPost2010PropOp40
 70
     1
102
RTVSPost2010Prop41ColorIndex
 90
       18
102
RTVSPost2010Prop41ColorRGB
 90
        0
102
RTVSPost2010PropOp41
 70
     1
102
RTVSPost2010Prop42
 90
       50
102
RTVSPost2010PropOp42
 70
     1
102
RTVSPost2010Prop43
 90
        3
102
RTVSPost2010PropOp43
 70
     1
102
RTVSPost2010Prop44ColorIndex
 90
        5
102
RTVSPost2010Prop44ColorRGB
 90
      255
102
RTVSPost2010PropOp44
 70
     1
102
RTVSPost2010Prop45
280
     0
102
RTVSPost2010PropOp45
 70
     1
102
RTVSPost2010Prop46
 90
       50
102
RTVSPost2010PropOp46
 70
     1
102
RTVSPost2010Prop47
 90
       50
102
RTVSPost2010PropOp47
 70
     1
102
RTVSPost2010Prop48
 90
       50
102
RTVSPost2010PropOp48
 70
     1
102
RTVSPost2010Prop49
280
     0
102
RTVSPost2010PropOp49
 70
     1
102
RTVSPost2010Prop50
 90
       50
102
RTVSPost2010PropOp50
 70
     1
102
RTVSPost2010Prop51ColorIndex
 90
      256
102
RTVSPost2010Prop51ColorRGB
 90
-16777216
102
RTVSPost2010PropOp51
 70
     0
102
RTVSPost2010Prop52
140
1.0
102
RTVSPost2010PropOp52
 70
     0
102
RTVSPost2010Prop53
 90
        2
102
RTVSPost2010PropOp53
 70
     1
102
RTVSPost2010Prop54
  1
strokes_ogs.tif
102
RTVSPost2010PropOp54
 70
     1
102
RTVSPost2010Prop55
280
     0
102
RTVSPost2010PropOp55
 70
     1
102
RTVSPost2010Prop56
140
1.0
102
RTVSPost2010PropOp56
 70
     1
102
RTVSPost2010Prop57
140
1.0
102
RTVSPost2010PropOp57
 70
     1
  0
XRECORD
  5
750
102
{ACAD_REACTORS
330
74F
102
}
330
74F
100
AcDbXrecord
280
     1
102
RTVSPropertyOp0
 70
     1
102
RTVSPropertyOp1
 70
     1
102
RTVSPropertyOp2
 70
     1
102
RTVSPropertyOp3
 70
     1
102
RTVSPropertyOp4
 70
     1
102
RTVSPropertyOp5
 70
     1
102
RTVSPropertyOp6
 70
     1
102
RTVSPropertyOp7
 70
     1
102
RTVSPropertyOp8
 70
     1
102
RTVSPropertyOp9
 70
     1
102
RTVSPropertyOp10
 70
     1
102
RTVSPropertyOp11
 70
     1
102
RTVSPropertyOp12
 70
     1
102
RTVSPropertyOp13
 70
     1
102
RTVSPropertyOp14
 70
     1
102
RTVSPropertyOp15
 70
     1
102
RTVSPropertyOp16
 70
     1
102
RTVSPropertyOp17
 70
     1
102
RTVSPropertyOp18
 70
     1
102
RTVSPropertyOp19
 70
     1
102
RTVSPropertyOp20
 70
     1
102
RTVSPropertyOp21
 70
     1
102
RTVSPropertyOp22
 70
     1
102
RTVSPropertyOp23
 70
     1
102
RTVSPropertyOp24
 70
     1
102
RTVSPropertyOp25
 70
     1
102
RTVSPropertyOp26
 70
     1
102
RTVSPropertyOp27
 70
     1
102
RTVSPropertyOp28
 70
     1
102
RTVSPropertyOp29
 70
     1
102
RTVSPropertyOp30
 70
     1
102
RTVSPropertyOp31
 70
     1
102
RTVSPropertyOp32
 70
     1
102
RTVSPropertyOp33
 70
     1
102
RTVSPropertyOp34
 70
     1
102
RTVSPropertyOp35
 70
     1
102
RTVSPropertyOp36
 70
     1
102
RTVSPropertyOp37
 70
     1
102
RTVSPropertyOp38
 70
     1
102
RTVSPropertyOp39
 70
     1
102
RTVSPropertyOp40
 70
     1
102
RTVSPropertyOp41
 70
     1
102
RTVSPropertyOp42
 70
     1
102
RTVSPropertyOp43
 70
     1
102
RTVSPropertyOp44
 70
     1
102
RTVSPropertyOp45
 70
     1
102
RTVSPropertyOp46
 70
     1
102
RTVSPropertyOp47
 70
     1
102
RTVSPropertyOp48
 70
     1
102
RTVSPropertyOp49
 70
     1
102
RTVSPropertyOp50
 70
     1
102
RTVSPropertyOp51
 70
     0
102
RTVSPropertyOp52
 70
     0
102
RTVSPropertyOp53
 70
     1
102
RTVSPropertyOp54
 70
     1
102
RTVSPropertyOp55
 70
     1
102
RTVSPropertyOp56
 70
     1
102
RTVSPropertyOp57
 70
     1
102
RTVSPost2010Prop28
280
     0
102
RTVSPost2010PropOp28
 70
     1
102
RTVSPost2010Prop29
280
     1
102
RTVSPost2010PropOp29
 70
     1
102
RTVSPost2010Prop30
280
     1
102
RTVSPost2010PropOp30
 70
     1
102
RTVSPost2010Prop31
280
     0
102
RTVSPost2010PropOp31
 70
     1
102
RTVSPost2010Prop32
280
     0
102
RTVSPost2010PropOp32
 70
     1
102
RTVSPost2010Prop33
280
     0
102
RTVSPost2010PropOp33
 70
     1
102
RTVSPost2010Prop34
280
     0
102
RTVSPost2010PropOp34
 70
     1
102
RTVSPost2010Prop35
280
     0
102
RTVSPost2010PropOp35
 70
     1
102
RTVSPost2010Prop36
280
     0
102
RTVSPost2010PropOp36
 70
     1
102
RTVSPost2010Prop37
 90
       50
102
RTVSPost2010PropOp37
 70
     1
102
RTVSPost2010Prop38
140
0.0
102
RTVSPost2010PropOp38
 70
     1
102
RTVSPost2010Prop39
140
1.0
102
RTVSPost2010PropOp39
 70
     1
102
RTVSPost2010Prop40
 90
        0
102
RTVSPost2010PropOp40
 70
     1
102
RTVSPost2010Prop41ColorIndex
 90
       18
102
RTVSPost2010Prop41ColorRGB
 90
        0
102
RTVSPost2010PropOp41
 70
     1
102
RTVSPost2010Prop42
 90
       50
102
RTVSPost2010PropOp42
 70
     1
102
RTVSPost2010Prop43
 90
        3
102
RTVSPost2010PropOp43
 70
     1
102
RTVSPost2010Prop44ColorIndex
 90
        5
102
RTVSPost2010Prop44ColorRGB
 90
      255
102
RTVSPost2010PropOp44
 70
     1
102
RTVSPost2010Prop45
280
     0
102
RTVSPost2010PropOp45
 70
     1
102
RTVSPost2010Prop46
 90
       50
102
RTVSPost2010PropOp46
 70
     1
102
RTVSPost2010Prop47
 90
       50
102
RTVSPost2010PropOp47
 70
     1
102
RTVSPost2010Prop48
 90
       50
102
RTVSPost2010PropOp48
 70
     1
102
RTVSPost2010Prop49
280
     0
102
RTVSPost2010PropOp49
 70
     1
102
RTVSPost2010Prop50
 90
       50
102
RTVSPost2010PropOp50
 70
     1
102
RTVSPost2010Prop51ColorIndex
 90
      256
102
RTVSPost2010Prop51ColorRGB
 90
-16777216
102
RTVSPost2010PropOp51
 70
     0
102
RTVSPost2010Prop52
140
1.0
102
RTVSPost2010PropOp52
 70
     0
102
RTVSPost2010Prop53
 90
        2
102
RTVSPost2010PropOp53
 70
     1
102
RTVSPost2010Prop54
  1
strokes_ogs.tif
102
RTVSPost2010PropOp54
 70
     1
102
RTVSPost2010Prop55
280
     0
102
RTVSPost2010PropOp55
 70
     1
102
RTVSPost2010Prop56
140
1.0
102
RTVSPost2010PropOp56
 70
     1
102
RTVSPost2010Prop57
140
1.0
102
RTVSPost2010PropOp57
 70
     1
  0
XRECORD
  5
762
102
{ACAD_REACTORS
330
761
102
}
330
761
100
AcDbXrecord
280
     1
102
RTVSPropertyOp0
 70
     0
102
RTVSPropertyOp1
 70
     0
102
RTVSPropertyOp2
 70
     0
102
RTVSPropertyOp3
 70
     0
102
RTVSPropertyOp4
 70
     0
102
RTVSPropertyOp5
 70
     0
102
RTVSPropertyOp6
 70
     0
102
RTVSPropertyOp7
 70
     0
102
RTVSPropertyOp8
 70
     0
102
RTVSPropertyOp9
 70
     0
102
RTVSPropertyOp10
 70
     0
102
RTVSPropertyOp11
 70
     0
102
RTVSPropertyOp12
 70
     0
102
RTVSPropertyOp13
 70
     0
102
RTVSPropertyOp14
 70
     0
102
RTVSPropertyOp15
 70
     0
102
RTVSPropertyOp16
 70
     0
102
RTVSPropertyOp17
 70
     0
102
RTVSPropertyOp18
 70
     0
102
RTVSPropertyOp19
 70
     0
102
RTVSPropertyOp20
 70
     0
102
RTVSPropertyOp21
 70
     0
102
RTVSPropertyOp22
 70
     0
102
RTVSPropertyOp23
 70
     0
102
RTVSPropertyOp24
 70
     0
102
RTVSPropertyOp25
 70
     0
102
RTVSPropertyOp26
 70
     0
102
RTVSPropertyOp27
 70
     0
102
RTVSPropertyOp28
 70
     1
102
RTVSPropertyOp29
 70
     1
102
RTVSPropertyOp30
 70
     1
102
RTVSPropertyOp31
 70
     1
102
RTVSPropertyOp32
 70
     1
102
RTVSPropertyOp33
 70
     1
102
RTVSPropertyOp34
 70
     1
102
RTVSPropertyOp35
 70
     1
102
RTVSPropertyOp36
 70
     1
102
RTVSPropertyOp37
 70
     1
102
RTVSPropertyOp38
 70
     1
102
RTVSPropertyOp39
 70
     1
102
RTVSPropertyOp40
 70
     1
102
RTVSPropertyOp41
 70
     1
102
RTVSPropertyOp42
 70
     1
102
RTVSPropertyOp43
 70
     1
102
RTVSPropertyOp44
 70
     1
102
RTVSPropertyOp45
 70
     1
102
RTVSPropertyOp46
 70
     1
102
RTVSPropertyOp47
 70
     1
102
RTVSPropertyOp48
 70
     1
102
RTVSPropertyOp49
 70
     1
102
RTVSPropertyOp50
 70
     1
102
RTVSPropertyOp51
 70
     0
102
RTVSPropertyOp52
 70
     0
102
RTVSPropertyOp53
 70
     1
102
RTVSPropertyOp54
 70
     1
102
RTVSPropertyOp55
 70
     1
102
RTVSPropertyOp56
 70
     1
102
RTVSPropertyOp57
 70
     1
102
RTVSPost2010Prop28
280
     0
102
RTVSPost2010PropOp28
 70
     1
102
RTVSPost2010Prop29
280
     1
102
RTVSPost2010PropOp29
 70
     1
102
RTVSPost2010Prop30
280
     1
102
RTVSPost2010PropOp30
 70
     1
102
RTVSPost2010Prop31
280
     0
102
RTVSPost2010PropOp31
 70
     1
102
RTVSPost2010Prop32
280
     0
102
RTVSPost2010PropOp32
 70
     1
102
RTVSPost2010Prop33
280
     0
102
RTVSPost2010PropOp33
 70
     1
102
RTVSPost2010Prop34
280
     0
102
RTVSPost2010PropOp34
 70
     1
102
RTVSPost2010Prop35
280
     0
102
RTVSPost2010PropOp35
 70
     1
102
RTVSPost2010Prop36
280
     0
102
RTVSPost2010PropOp36
 70
     1
102
RTVSPost2010Prop37
 90
       50
102
RTVSPost2010PropOp37
 70
     1
102
RTVSPost2010Prop38
140
0.0
102
RTVSPost2010PropOp38
 70
     1
102
RTVSPost2010Prop39
140
1.0
102
RTVSPost2010PropOp39
 70
     1
102
RTVSPost2010Prop40
 90
        0
102
RTVSPost2010PropOp40
 70
     1
102
RTVSPost2010Prop41ColorIndex
 90
       18
102
RTVSPost2010Prop41ColorRGB
 90
        0
102
RTVSPost2010PropOp41
 70
     1
102
RTVSPost2010Prop42
 90
       50
102
RTVSPost2010PropOp42
 70
     1
102
RTVSPost2010Prop43
 90
        3
102
RTVSPost2010PropOp43
 70
     1
102
RTVSPost2010Prop44ColorIndex
 90
        5
102
RTVSPost2010Prop44ColorRGB
 90
      255
102
RTVSPost2010PropOp44
 70
     1
102
RTVSPost2010Prop45
280
     0
102
RTVSPost2010PropOp45
 70
     1
102
RTVSPost2010Prop46
 90
       50
102
RTVSPost2010PropOp46
 70
     1
102
RTVSPost2010Prop47
 90
       50
102
RTVSPost2010PropOp47
 70
     1
102
RTVSPost2010Prop48
 90
       50
102
RTVSPost2010PropOp48
 70
     1
102
RTVSPost2010Prop49
280
     0
102
RTVSPost2010PropOp49
 70
     1
102
RTVSPost2010Prop50
 90
       50
102
RTVSPost2010PropOp50
 70
     1
102
RTVSPost2010Prop51ColorIndex
 90
      256
102
RTVSPost2010Prop51ColorRGB
 90
-16777216
102
RTVSPost2010PropOp51
 70
     0
102
RTVSPost2010Prop52
140
1.0
102
RTVSPost2010PropOp52
 70
     0
102
RTVSPost2010Prop53
 90
        2
102
RTVSPost2010PropOp53
 70
     1
102
RTVSPost2010Prop54
  1
strokes_ogs.tif
102
RTVSPost2010PropOp54
 70
     1
102
RTVSPost2010Prop55
280
     0
102
RTVSPost2010PropOp55
 70
     1
102
RTVSPost2010Prop56
140
1.0
102
RTVSPost2010PropOp56
 70
     1
102
RTVSPost2010Prop57
140
1.0
102
RTVSPost2010PropOp57
 70
     1
  0
XRECORD
  5
75C
102
{ACAD_REACTORS
330
75B
102
}
330
75B
100
AcDbXrecord
280
     1
102
RTVSPropertyOp0
 70
     1
102
RTVSPropertyOp1
 70
     1
102
RTVSPropertyOp2
 70
     1
102
RTVSPropertyOp3
 70
     1
102
RTVSPropertyOp4
 70
     1
102
RTVSPropertyOp5
 70
     1
102
RTVSPropertyOp6
 70
     1
102
RTVSPropertyOp7
 70
     1
102
RTVSPropertyOp8
 70
     1
102
RTVSPropertyOp9
 70
     1
102
RTVSPropertyOp10
 70
     1
102
RTVSPropertyOp11
 70
     1
102
RTVSPropertyOp12
 70
     1
102
RTVSPropertyOp13
 70
     1
102
RTVSPropertyOp14
 70
     1
102
RTVSPropertyOp15
 70
     1
102
RTVSPropertyOp16
 70
     1
102
RTVSPropertyOp17
 70
     1
102
RTVSPropertyOp18
 70
     1
102
RTVSPropertyOp19
 70
     1
102
RTVSPropertyOp20
 70
     1
102
RTVSPropertyOp21
 70
     1
102
RTVSPropertyOp22
 70
     1
102
RTVSPropertyOp23
 70
     1
102
RTVSPropertyOp24
 70
     1
102
RTVSPropertyOp25
 70
     1
102
RTVSPropertyOp26
 70
     1
102
RTVSPropertyOp27
 70
     1
102
RTVSPropertyOp28
 70
     1
102
RTVSPropertyOp29
 70
     1
102
RTVSPropertyOp30
 70
     1
102
RTVSPropertyOp31
 70
     1
102
RTVSPropertyOp32
 70
     1
102
RTVSPropertyOp33
 70
     1
102
RTVSPropertyOp34
 70
     1
102
RTVSPropertyOp35
 70
     1
102
RTVSPropertyOp36
 70
     1
102
RTVSPropertyOp37
 70
     1
102
RTVSPropertyOp38
 70
     1
102
RTVSPropertyOp39
 70
     1
102
RTVSPropertyOp40
 70
     1
102
RTVSPropertyOp41
 70
     1
102
RTVSPropertyOp42
 70
     1
102
RTVSPropertyOp43
 70
     1
102
RTVSPropertyOp44
 70
     1
102
RTVSPropertyOp45
 70
     1
102
RTVSPropertyOp46
 70
     1
102
RTVSPropertyOp47
 70
     1
102
RTVSPropertyOp48
 70
     1
102
RTVSPropertyOp49
 70
     1
102
RTVSPropertyOp50
 70
     1
102
RTVSPropertyOp51
 70
     0
102
RTVSPropertyOp52
 70
     0
102
RTVSPropertyOp53
 70
     1
102
RTVSPropertyOp54
 70
     1
102
RTVSPropertyOp55
 70
     1
102
RTVSPropertyOp56
 70
     1
102
RTVSPropertyOp57
 70
     1
102
RTVSPost2010Prop28
280
     0
102
RTVSPost2010PropOp28
 70
     1
102
RTVSPost2010Prop29
280
     1
102
RTVSPost2010PropOp29
 70
     1
102
RTVSPost2010Prop30
280
     1
102
RTVSPost2010PropOp30
 70
     1
102
RTVSPost2010Prop31
280
     0
102
RTVSPost2010PropOp31
 70
     1
102
RTVSPost2010Prop32
280
     0
102
RTVSPost2010PropOp32
 70
     1
102
RTVSPost2010Prop33
280
     0
102
RTVSPost2010PropOp33
 70
     1
102
RTVSPost2010Prop34
280
     0
102
RTVSPost2010PropOp34
 70
     1
102
RTVSPost2010Prop35
280
     0
102
RTVSPost2010PropOp35
 70
     1
102
RTVSPost2010Prop36
280
     0
102
RTVSPost2010PropOp36
 70
     1
102
RTVSPost2010Prop37
 90
       50
102
RTVSPost2010PropOp37
 70
     1
102
RTVSPost2010Prop38
140
0.0
102
RTVSPost2010PropOp38
 70
     1
102
RTVSPost2010Prop39
140
1.0
102
RTVSPost2010PropOp39
 70
     1
102
RTVSPost2010Prop40
 90
        0
102
RTVSPost2010PropOp40
 70
     1
102
RTVSPost2010Prop41ColorIndex
 90
       18
102
RTVSPost2010Prop41ColorRGB
 90
        0
102
RTVSPost2010PropOp41
 70
     1
102
RTVSPost2010Prop42
 90
       50
102
RTVSPost2010PropOp42
 70
     1
102
RTVSPost2010Prop43
 90
        3
102
RTVSPost2010PropOp43
 70
     1
102
RTVSPost2010Prop44ColorIndex
 90
        5
102
RTVSPost2010Prop44ColorRGB
 90
      255
102
RTVSPost2010PropOp44
 70
     1
102
RTVSPost2010Prop45
280
     0
102
RTVSPost2010PropOp45
 70
     1
102
RTVSPost2010Prop46
 90
       50
102
RTVSPost2010PropOp46
 70
     1
102
RTVSPost2010Prop47
 90
       50
102
RTVSPost2010PropOp47
 70
     1
102
RTVSPost2010Prop48
 90
       50
102
RTVSPost2010PropOp48
 70
     1
102
RTVSPost2010Prop49
280
     0
102
RTVSPost2010PropOp49
 70
     1
102
RTVSPost2010Prop50
 90
       50
102
RTVSPost2010PropOp50
 70
     1
102
RTVSPost2010Prop51ColorIndex
 90
      256
102
RTVSPost2010Prop51ColorRGB
 90
-16777216
102
RTVSPost2010PropOp51
 70
     0
102
RTVSPost2010Prop52
140
1.0
102
RTVSPost2010PropOp52
 70
     0
102
RTVSPost2010Prop53
 90
        2
102
RTVSPost2010PropOp53
 70
     1
102
RTVSPost2010Prop54
  1
strokes_ogs.tif
102
RTVSPost2010PropOp54
 70
     1
102
RTVSPost2010Prop55
280
     0
102
RTVSPost2010PropOp55
 70
     1
102
RTVSPost2010Prop56
140
1.0
102
RTVSPost2010PropOp56
 70
     1
102
RTVSPost2010Prop57
140
1.0
102
RTVSPost2010PropOp57
 70
     1
  0
XRECORD
  5
764
102
{ACAD_REACTORS
330
763
102
}
330
763
100
AcDbXrecord
280
     1
102
RTVSPropertyOp0
 70
     0
102
RTVSPropertyOp1
 70
     0
102
RTVSPropertyOp2
 70
     0
102
RTVSPropertyOp3
 70
     0
102
RTVSPropertyOp4
 70
     0
102
RTVSPropertyOp5
 70
     0
102
RTVSPropertyOp6
 70
     0
102
RTVSPropertyOp7
 70
     0
102
RTVSPropertyOp8
 70
     0
102
RTVSPropertyOp9
 70
     0
102
RTVSPropertyOp10
 70
     0
102
RTVSPropertyOp11
 70
     0
102
RTVSPropertyOp12
 70
     0
102
RTVSPropertyOp13
 70
     0
102
RTVSPropertyOp14
 70
     0
102
RTVSPropertyOp15
 70
     0
102
RTVSPropertyOp16
 70
     0
102
RTVSPropertyOp17
 70
     0
102
RTVSPropertyOp18
 70
     0
102
RTVSPropertyOp19
 70
     0
102
RTVSPropertyOp20
 70
     0
102
RTVSPropertyOp21
 70
     0
102
RTVSPropertyOp22
 70
     0
102
RTVSPropertyOp23
 70
     0
102
RTVSPropertyOp24
 70
     0
102
RTVSPropertyOp25
 70
     0
102
RTVSPropertyOp26
 70
     0
102
RTVSPropertyOp27
 70
     0
102
RTVSPropertyOp28
 70
     1
102
RTVSPropertyOp29
 70
     1
102
RTVSPropertyOp30
 70
     1
102
RTVSPropertyOp31
 70
     1
102
RTVSPropertyOp32
 70
     1
102
RTVSPropertyOp33
 70
     1
102
RTVSPropertyOp34
 70
     1
102
RTVSPropertyOp35
 70
     1
102
RTVSPropertyOp36
 70
     1
102
RTVSPropertyOp37
 70
     1
102
RTVSPropertyOp38
 70
     1
102
RTVSPropertyOp39
 70
     1
102
RTVSPropertyOp40
 70
     1
102
RTVSPropertyOp41
 70
     1
102
RTVSPropertyOp42
 70
     1
102
RTVSPropertyOp43
 70
     1
102
RTVSPropertyOp44
 70
     1
102
RTVSPropertyOp45
 70
     1
102
RTVSPropertyOp46
 70
     1
102
RTVSPropertyOp47
 70
     1
102
RTVSPropertyOp48
 70
     1
102
RTVSPropertyOp49
 70
     1
102
RTVSPropertyOp50
 70
     1
102
RTVSPropertyOp51
 70
     0
102
RTVSPropertyOp52
 70
     0
102
RTVSPropertyOp53
 70
     1
102
RTVSPropertyOp54
 70
     1
102
RTVSPropertyOp55
 70
     1
102
RTVSPropertyOp56
 70
     1
102
RTVSPropertyOp57
 70
     1
102
RTVSPost2010Prop28
280
     0
102
RTVSPost2010PropOp28
 70
     1
102
RTVSPost2010Prop29
280
     1
102
RTVSPost2010PropOp29
 70
     1
102
RTVSPost2010Prop30
280
     1
102
RTVSPost2010PropOp30
 70
     1
102
RTVSPost2010Prop31
280
     0
102
RTVSPost2010PropOp31
 70
     1
102
RTVSPost2010Prop32
280
     0
102
RTVSPost2010PropOp32
 70
     1
102
RTVSPost2010Prop33
280
     0
102
RTVSPost2010PropOp33
 70
     1
102
RTVSPost2010Prop34
280
     0
102
RTVSPost2010PropOp34
 70
     1
102
RTVSPost2010Prop35
280
     0
102
RTVSPost2010PropOp35
 70
     1
102
RTVSPost2010Prop36
280
     0
102
RTVSPost2010PropOp36
 70
     1
102
RTVSPost2010Prop37
 90
       50
102
RTVSPost2010PropOp37
 70
     1
102
RTVSPost2010Prop38
140
0.0
102
RTVSPost2010PropOp38
 70
     1
102
RTVSPost2010Prop39
140
1.0
102
RTVSPost2010PropOp39
 70
     1
102
RTVSPost2010Prop40
 90
        0
102
RTVSPost2010PropOp40
 70
     1
102
RTVSPost2010Prop41ColorIndex
 90
       18
102
RTVSPost2010Prop41ColorRGB
 90
        0
102
RTVSPost2010PropOp41
 70
     1
102
RTVSPost2010Prop42
 90
       50
102
RTVSPost2010PropOp42
 70
     1
102
RTVSPost2010Prop43
 90
        3
102
RTVSPost2010PropOp43
 70
     1
102
RTVSPost2010Prop44ColorIndex
 90
        5
102
RTVSPost2010Prop44ColorRGB
 90
      255
102
RTVSPost2010PropOp44
 70
     1
102
RTVSPost2010Prop45
280
     0
102
RTVSPost2010PropOp45
 70
     1
102
RTVSPost2010Prop46
 90
       50
102
RTVSPost2010PropOp46
 70
     1
102
RTVSPost2010Prop47
 90
       50
102
RTVSPost2010PropOp47
 70
     1
102
RTVSPost2010Prop48
 90
       50
102
RTVSPost2010PropOp48
 70
     1
102
RTVSPost2010Prop49
280
     0
102
RTVSPost2010PropOp49
 70
     1
102
RTVSPost2010Prop50
 90
       50
102
RTVSPost2010PropOp50
 70
     1
102
RTVSPost2010Prop51ColorIndex
 90
      256
102
RTVSPost2010Prop51ColorRGB
 90
-16777216
102
RTVSPost2010PropOp51
 70
     0
102
RTVSPost2010Prop52
140
1.0
102
RTVSPost2010PropOp52
 70
     0
102
RTVSPost2010Prop53
 90
        2
102
RTVSPost2010PropOp53
 70
     1
102
RTVSPost2010Prop54
  1
strokes_ogs.tif
102
RTVSPost2010PropOp54
 70
     1
102
RTVSPost2010Prop55
280
     0
102
RTVSPost2010PropOp55
 70
     1
102
RTVSPost2010Prop56
140
1.0
102
RTVSPost2010PropOp56
 70
     1
102
RTVSPost2010Prop57
140
1.0
102
RTVSPost2010PropOp57
 70
     1
  0
XRECORD
  5
742
102
{ACAD_REACTORS
330
741
102
}
330
741
100
AcDbXrecord
280
     1
102
RTVSPropertyOp0
 70
     1
102
RTVSPropertyOp1
 70
     1
102
RTVSPropertyOp2
 70
     1
102
RTVSPropertyOp3
 70
     1
102
RTVSPropertyOp4
 70
     1
102
RTVSPropertyOp5
 70
     1
102
RTVSPropertyOp6
 70
     1
102
RTVSPropertyOp7
 70
     1
102
RTVSPropertyOp8
 70
     1
102
RTVSPropertyOp9
 70
     1
102
RTVSPropertyOp10
 70
     1
102
RTVSPropertyOp11
 70
     1
102
RTVSPropertyOp12
 70
     1
102
RTVSPropertyOp13
 70
     1
102
RTVSPropertyOp14
 70
     1
102
RTVSPropertyOp15
 70
     1
102
RTVSPropertyOp16
 70
     1
102
RTVSPropertyOp17
 70
     1
102
RTVSPropertyOp18
 70
     1
102
RTVSPropertyOp19
 70
     1
102
RTVSPropertyOp20
 70
     1
102
RTVSPropertyOp21
 70
     1
102
RTVSPropertyOp22
 70
     1
102
RTVSPropertyOp23
 70
     1
102
RTVSPropertyOp24
 70
     1
102
RTVSPropertyOp25
 70
     1
102
RTVSPropertyOp26
 70
     1
102
RTVSPropertyOp27
 70
     1
102
RTVSPropertyOp28
 70
     1
102
RTVSPropertyOp29
 70
     1
102
RTVSPropertyOp30
 70
     1
102
RTVSPropertyOp31
 70
     1
102
RTVSPropertyOp32
 70
     1
102
RTVSPropertyOp33
 70
     1
102
RTVSPropertyOp34
 70
     1
102
RTVSPropertyOp35
 70
     1
102
RTVSPropertyOp36
 70
     1
102
RTVSPropertyOp37
 70
     1
102
RTVSPropertyOp38
 70
     1
102
RTVSPropertyOp39
 70
     1
102
RTVSPropertyOp40
 70
     1
102
RTVSPropertyOp41
 70
     1
102
RTVSPropertyOp42
 70
     1
102
RTVSPropertyOp43
 70
     1
102
RTVSPropertyOp44
 70
     1
102
RTVSPropertyOp45
 70
     1
102
RTVSPropertyOp46
 70
     1
102
RTVSPropertyOp47
 70
     1
102
RTVSPropertyOp48
 70
     1
102
RTVSPropertyOp49
 70
     1
102
RTVSPropertyOp50
 70
     1
102
RTVSPropertyOp51
 70
     0
102
RTVSPropertyOp52
 70
     0
102
RTVSPropertyOp53
 70
     1
102
RTVSPropertyOp54
 70
     1
102
RTVSPropertyOp55
 70
     1
102
RTVSPropertyOp56
 70
     1
102
RTVSPropertyOp57
 70
     1
102
RTVSPost2010Prop28
280
     0
102
RTVSPost2010PropOp28
 70
     1
102
RTVSPost2010Prop29
280
     1
102
RTVSPost2010PropOp29
 70
     1
102
RTVSPost2010Prop30
280
     1
102
RTVSPost2010PropOp30
 70
     1
102
RTVSPost2010Prop31
280
     0
102
RTVSPost2010PropOp31
 70
     1
102
RTVSPost2010Prop32
280
     0
102
RTVSPost2010PropOp32
 70
     1
102
RTVSPost2010Prop33
280
     0
102
RTVSPost2010PropOp33
 70
     1
102
RTVSPost2010Prop34
280
     0
102
RTVSPost2010PropOp34
 70
     1
102
RTVSPost2010Prop35
280
     0
102
RTVSPost2010PropOp35
 70
     1
102
RTVSPost2010Prop36
280
     0
102
RTVSPost2010PropOp36
 70
     1
102
RTVSPost2010Prop37
 90
       50
102
RTVSPost2010PropOp37
 70
     1
102
RTVSPost2010Prop38
140
0.0
102
RTVSPost2010PropOp38
 70
     1
102
RTVSPost2010Prop39
140
1.0
102
RTVSPost2010PropOp39
 70
     1
102
RTVSPost2010Prop40
 90
        0
102
RTVSPost2010PropOp40
 70
     1
102
RTVSPost2010Prop41ColorIndex
 90
       18
102
RTVSPost2010Prop41ColorRGB
 90
        0
102
RTVSPost2010PropOp41
 70
     1
102
RTVSPost2010Prop42
 90
       50
102
RTVSPost2010PropOp42
 70
     1
102
RTVSPost2010Prop43
 90
        3
102
RTVSPost2010PropOp43
 70
     1
102
RTVSPost2010Prop44ColorIndex
 90
        5
102
RTVSPost2010Prop44ColorRGB
 90
      255
102
RTVSPost2010PropOp44
 70
     1
102
RTVSPost2010Prop45
280
     0
102
RTVSPost2010PropOp45
 70
     1
102
RTVSPost2010Prop46
 90
       50
102
RTVSPost2010PropOp46
 70
     1
102
RTVSPost2010Prop47
 90
       50
102
RTVSPost2010PropOp47
 70
     1
102
RTVSPost2010Prop48
 90
       50
102
RTVSPost2010PropOp48
 70
     1
102
RTVSPost2010Prop49
280
     0
102
RTVSPost2010PropOp49
 70
     1
102
RTVSPost2010Prop50
 90
       50
102
RTVSPost2010PropOp50
 70
     1
102
RTVSPost2010Prop51ColorIndex
 90
      256
102
RTVSPost2010Prop51ColorRGB
 90
-16777216
102
RTVSPost2010PropOp51
 70
     0
102
RTVSPost2010Prop52
140
1.0
102
RTVSPost2010PropOp52
 70
     0
102
RTVSPost2010Prop53
 90
        2
102
RTVSPost2010PropOp53
 70
     1
102
RTVSPost2010Prop54
  1
strokes_ogs.tif
102
RTVSPost2010PropOp54
 70
     1
102
RTVSPost2010Prop55
280
     0
102
RTVSPost2010PropOp55
 70
     1
102
RTVSPost2010Prop56
140
1.0
102
RTVSPost2010PropOp56
 70
     1
102
RTVSPost2010Prop57
140
1.0
102
RTVSPost2010PropOp57
 70
     1
  0
XRECORD
  5
770
102
{ACAD_REACTORS
330
76F
102
}
330
76F
100
AcDbXrecord
280
     1
102
RTVSPropertyOp0
 70
     1
102
RTVSPropertyOp1
 70
     1
102
RTVSPropertyOp2
 70
     1
102
RTVSPropertyOp3
 70
     1
102
RTVSPropertyOp4
 70
     1
102
RTVSPropertyOp5
 70
     1
102
RTVSPropertyOp6
 70
     1
102
RTVSPropertyOp7
 70
     1
102
RTVSPropertyOp8
 70
     1
102
RTVSPropertyOp9
 70
     1
102
RTVSPropertyOp10
 70
     1
102
RTVSPropertyOp11
 70
     1
102
RTVSPropertyOp12
 70
     1
102
RTVSPropertyOp13
 70
     1
102
RTVSPropertyOp14
 70
     1
102
RTVSPropertyOp15
 70
     1
102
RTVSPropertyOp16
 70
     1
102
RTVSPropertyOp17
 70
     1
102
RTVSPropertyOp18
 70
     1
102
RTVSPropertyOp19
 70
     1
102
RTVSPropertyOp20
 70
     1
102
RTVSPropertyOp21
 70
     1
102
RTVSPropertyOp22
 70
     1
102
RTVSPropertyOp23
 70
     1
102
RTVSPropertyOp24
 70
     1
102
RTVSPropertyOp25
 70
     1
102
RTVSPropertyOp26
 70
     1
102
RTVSPropertyOp27
 70
     1
102
RTVSPropertyOp28
 70
     1
102
RTVSPropertyOp29
 70
     1
102
RTVSPropertyOp30
 70
     1
102
RTVSPropertyOp31
 70
     1
102
RTVSPropertyOp32
 70
     1
102
RTVSPropertyOp33
 70
     1
102
RTVSPropertyOp34
 70
     1
102
RTVSPropertyOp35
 70
     1
102
RTVSPropertyOp36
 70
     1
102
RTVSPropertyOp37
 70
     1
102
RTVSPropertyOp38
 70
     1
102
RTVSPropertyOp39
 70
     1
102
RTVSPropertyOp40
 70
     1
102
RTVSPropertyOp41
 70
     1
102
RTVSPropertyOp42
 70
     1
102
RTVSPropertyOp43
 70
     1
102
RTVSPropertyOp44
 70
     1
102
RTVSPropertyOp45
 70
     1
102
RTVSPropertyOp46
 70
     1
102
RTVSPropertyOp47
 70
     1
102
RTVSPropertyOp48
 70
     1
102
RTVSPropertyOp49
 70
     1
102
RTVSPropertyOp50
 70
     1
102
RTVSPropertyOp51
 70
     0
102
RTVSPropertyOp52
 70
     0
102
RTVSPropertyOp53
 70
     1
102
RTVSPropertyOp54
 70
     1
102
RTVSPropertyOp55
 70
     1
102
RTVSPropertyOp56
 70
     1
102
RTVSPropertyOp57
 70
     1
102
RTVSPost2010Prop28
280
     0
102
RTVSPost2010PropOp28
 70
     1
102
RTVSPost2010Prop29
280
     1
102
RTVSPost2010PropOp29
 70
     1
102
RTVSPost2010Prop30
280
     1
102
RTVSPost2010PropOp30
 70
     1
102
RTVSPost2010Prop31
280
     0
102
RTVSPost2010PropOp31
 70
     1
102
RTVSPost2010Prop32
280
     0
102
RTVSPost2010PropOp32
 70
     1
102
RTVSPost2010Prop33
280
     0
102
RTVSPost2010PropOp33
 70
     1
102
RTVSPost2010Prop34
280
     0
102
RTVSPost2010PropOp34
 70
     1
102
RTVSPost2010Prop35
280
     0
102
RTVSPost2010PropOp35
 70
     1
102
RTVSPost2010Prop36
280
     0
102
RTVSPost2010PropOp36
 70
     1
102
RTVSPost2010Prop37
 90
       50
102
RTVSPost2010PropOp37
 70
     1
102
RTVSPost2010Prop38
140
0.0
102
RTVSPost2010PropOp38
 70
     1
102
RTVSPost2010Prop39
140
1.0
102
RTVSPost2010PropOp39
 70
     1
102
RTVSPost2010Prop40
 90
        0
102
RTVSPost2010PropOp40
 70
     1
102
RTVSPost2010Prop41ColorIndex
 90
       18
102
RTVSPost2010Prop41ColorRGB
 90
        0
102
RTVSPost2010PropOp41
 70
     1
102
RTVSPost2010Prop42
 90
       50
102
RTVSPost2010PropOp42
 70
     1
102
RTVSPost2010Prop43
 90
        3
102
RTVSPost2010PropOp43
 70
     1
102
RTVSPost2010Prop44ColorIndex
 90
        5
102
RTVSPost2010Prop44ColorRGB
 90
      255
102
RTVSPost2010PropOp44
 70
     1
102
RTVSPost2010Prop45
280
     0
102
RTVSPost2010PropOp45
 70
     1
102
RTVSPost2010Prop46
 90
       50
102
RTVSPost2010PropOp46
 70
     1
102
RTVSPost2010Prop47
 90
       50
102
RTVSPost2010PropOp47
 70
     1
102
RTVSPost2010Prop48
 90
       50
102
RTVSPost2010PropOp48
 70
     1
102
RTVSPost2010Prop49
280
     0
102
RTVSPost2010PropOp49
 70
     1
102
RTVSPost2010Prop50
 90
       50
102
RTVSPost2010PropOp50
 70
     1
102
RTVSPost2010Prop51ColorIndex
 90
      256
102
RTVSPost2010Prop51ColorRGB
 90
-16777216
102
RTVSPost2010PropOp51
 70
     0
102
RTVSPost2010Prop52
140
1.0
102
RTVSPost2010PropOp52
 70
     0
102
RTVSPost2010Prop53
 90
        2
102
RTVSPost2010PropOp53
 70
     1
102
RTVSPost2010Prop54
  1
strokes_ogs.tif
102
RTVSPost2010PropOp54
 70
     1
102
RTVSPost2010Prop55
280
     0
102
RTVSPost2010PropOp55
 70
     1
102
RTVSPost2010Prop56
140
1.0
102
RTVSPost2010PropOp56
 70
     1
102
RTVSPost2010Prop57
140
1.0
102
RTVSPost2010PropOp57
 70
     1
  0
XRECORD
  5
76E
102
{ACAD_REACTORS
330
76D
102
}
330
76D
100
AcDbXrecord
280
     1
102
RTVSPropertyOp0
 70
     1
102
RTVSPropertyOp1
 70
     1
102
RTVSPropertyOp2
 70
     1
102
RTVSPropertyOp3
 70
     1
102
RTVSPropertyOp4
 70
     1
102
RTVSPropertyOp5
 70
     1
102
RTVSPropertyOp6
 70
     1
102
RTVSPropertyOp7
 70
     1
102
RTVSPropertyOp8
 70
     1
102
RTVSPropertyOp9
 70
     1
102
RTVSPropertyOp10
 70
     1
102
RTVSPropertyOp11
 70
     1
102
RTVSPropertyOp12
 70
     1
102
RTVSPropertyOp13
 70
     1
102
RTVSPropertyOp14
 70
     1
102
RTVSPropertyOp15
 70
     1
102
RTVSPropertyOp16
 70
     1
102
RTVSPropertyOp17
 70
     1
102
RTVSPropertyOp18
 70
     1
102
RTVSPropertyOp19
 70
     1
102
RTVSPropertyOp20
 70
     1
102
RTVSPropertyOp21
 70
     1
102
RTVSPropertyOp22
 70
     1
102
RTVSPropertyOp23
 70
     1
102
RTVSPropertyOp24
 70
     1
102
RTVSPropertyOp25
 70
     1
102
RTVSPropertyOp26
 70
     1
102
RTVSPropertyOp27
 70
     1
102
RTVSPropertyOp28
 70
     1
102
RTVSPropertyOp29
 70
     1
102
RTVSPropertyOp30
 70
     1
102
RTVSPropertyOp31
 70
     1
102
RTVSPropertyOp32
 70
     1
102
RTVSPropertyOp33
 70
     1
102
RTVSPropertyOp34
 70
     1
102
RTVSPropertyOp35
 70
     1
102
RTVSPropertyOp36
 70
     1
102
RTVSPropertyOp37
 70
     1
102
RTVSPropertyOp38
 70
     1
102
RTVSPropertyOp39
 70
     1
102
RTVSPropertyOp40
 70
     1
102
RTVSPropertyOp41
 70
     1
102
RTVSPropertyOp42
 70
     1
102
RTVSPropertyOp43
 70
     1
102
RTVSPropertyOp44
 70
     1
102
RTVSPropertyOp45
 70
     1
102
RTVSPropertyOp46
 70
     1
102
RTVSPropertyOp47
 70
     1
102
RTVSPropertyOp48
 70
     1
102
RTVSPropertyOp49
 70
     1
102
RTVSPropertyOp50
 70
     1
102
RTVSPropertyOp51
 70
     0
102
RTVSPropertyOp52
 70
     0
102
RTVSPropertyOp53
 70
     1
102
RTVSPropertyOp54
 70
     1
102
RTVSPropertyOp55
 70
     1
102
RTVSPropertyOp56
 70
     1
102
RTVSPropertyOp57
 70
     1
102
RTVSPost2010Prop28
280
     0
102
RTVSPost2010PropOp28
 70
     1
102
RTVSPost2010Prop29
280
     1
102
RTVSPost2010PropOp29
 70
     1
102
RTVSPost2010Prop30
280
     1
102
RTVSPost2010PropOp30
 70
     1
102
RTVSPost2010Prop31
280
     0
102
RTVSPost2010PropOp31
 70
     1
102
RTVSPost2010Prop32
280
     0
102
RTVSPost2010PropOp32
 70
     1
102
RTVSPost2010Prop33
280
     0
102
RTVSPost2010PropOp33
 70
     1
102
RTVSPost2010Prop34
280
     0
102
RTVSPost2010PropOp34
 70
     1
102
RTVSPost2010Prop35
280
     0
102
RTVSPost2010PropOp35
 70
     1
102
RTVSPost2010Prop36
280
     0
102
RTVSPost2010PropOp36
 70
     1
102
RTVSPost2010Prop37
 90
       50
102
RTVSPost2010PropOp37
 70
     1
102
RTVSPost2010Prop38
140
0.0
102
RTVSPost2010PropOp38
 70
     1
102
RTVSPost2010Prop39
140
1.0
102
RTVSPost2010PropOp39
 70
     1
102
RTVSPost2010Prop40
 90
        0
102
RTVSPost2010PropOp40
 70
     1
102
RTVSPost2010Prop41ColorIndex
 90
       18
102
RTVSPost2010Prop41ColorRGB
 90
        0
102
RTVSPost2010PropOp41
 70
     1
102
RTVSPost2010Prop42
 90
       50
102
RTVSPost2010PropOp42
 70
     1
102
RTVSPost2010Prop43
 90
        3
102
RTVSPost2010PropOp43
 70
     1
102
RTVSPost2010Prop44ColorIndex
 90
        5
102
RTVSPost2010Prop44ColorRGB
 90
      255
102
RTVSPost2010PropOp44
 70
     1
102
RTVSPost2010Prop45
280
     0
102
RTVSPost2010PropOp45
 70
     1
102
RTVSPost2010Prop46
 90
       50
102
RTVSPost2010PropOp46
 70
     1
102
RTVSPost2010Prop47
 90
       50
102
RTVSPost2010PropOp47
 70
     1
102
RTVSPost2010Prop48
 90
       50
102
RTVSPost2010PropOp48
 70
     1
102
RTVSPost2010Prop49
280
     0
102
RTVSPost2010PropOp49
 70
     1
102
RTVSPost2010Prop50
 90
       50
102
RTVSPost2010PropOp50
 70
     1
102
RTVSPost2010Prop51ColorIndex
 90
      256
102
RTVSPost2010Prop51ColorRGB
 90
-16777216
102
RTVSPost2010PropOp51
 70
     0
102
RTVSPost2010Prop52
140
1.0
102
RTVSPost2010PropOp52
 70
     0
102
RTVSPost2010Prop53
 90
        2
102
RTVSPost2010PropOp53
 70
     1
102
RTVSPost2010Prop54
  1
strokes_ogs.tif
102
RTVSPost2010PropOp54
 70
     1
102
RTVSPost2010Prop55
280
     0
102
RTVSPost2010PropOp55
 70
     1
102
RTVSPost2010Prop56
140
1.0
102
RTVSPost2010PropOp56
 70
     1
102
RTVSPost2010Prop57
140
1.0
102
RTVSPost2010PropOp57
 70
     1
  0
XRECORD
  5
768
102
{ACAD_REACTORS
330
767
102
}
330
767
100
AcDbXrecord
280
     1
102
RTVSPropertyOp0
 70
     1
102
RTVSPropertyOp1
 70
     1
102
RTVSPropertyOp2
 70
     1
102
RTVSPropertyOp3
 70
     1
102
RTVSPropertyOp4
 70
     1
102
RTVSPropertyOp5
 70
     1
102
RTVSPropertyOp6
 70
     1
102
RTVSPropertyOp7
 70
     1
102
RTVSPropertyOp8
 70
     1
102
RTVSPropertyOp9
 70
     1
102
RTVSPropertyOp10
 70
     1
102
RTVSPropertyOp11
 70
     1
102
RTVSPropertyOp12
 70
     1
102
RTVSPropertyOp13
 70
     1
102
RTVSPropertyOp14
 70
     1
102
RTVSPropertyOp15
 70
     1
102
RTVSPropertyOp16
 70
     1
102
RTVSPropertyOp17
 70
     1
102
RTVSPropertyOp18
 70
     1
102
RTVSPropertyOp19
 70
     1
102
RTVSPropertyOp20
 70
     1
102
RTVSPropertyOp21
 70
     1
102
RTVSPropertyOp22
 70
     1
102
RTVSPropertyOp23
 70
     1
102
RTVSPropertyOp24
 70
     1
102
RTVSPropertyOp25
 70
     1
102
RTVSPropertyOp26
 70
     1
102
RTVSPropertyOp27
 70
     1
102
RTVSPropertyOp28
 70
     1
102
RTVSPropertyOp29
 70
     1
102
RTVSPropertyOp30
 70
     1
102
RTVSPropertyOp31
 70
     1
102
RTVSPropertyOp32
 70
     1
102
RTVSPropertyOp33
 70
     1
102
RTVSPropertyOp34
 70
     1
102
RTVSPropertyOp35
 70
     1
102
RTVSPropertyOp36
 70
     1
102
RTVSPropertyOp37
 70
     1
102
RTVSPropertyOp38
 70
     1
102
RTVSPropertyOp39
 70
     1
102
RTVSPropertyOp40
 70
     1
102
RTVSPropertyOp41
 70
     1
102
RTVSPropertyOp42
 70
     1
102
RTVSPropertyOp43
 70
     1
102
RTVSPropertyOp44
 70
     1
102
RTVSPropertyOp45
 70
     1
102
RTVSPropertyOp46
 70
     1
102
RTVSPropertyOp47
 70
     1
102
RTVSPropertyOp48
 70
     1
102
RTVSPropertyOp49
 70
     1
102
RTVSPropertyOp50
 70
     1
102
RTVSPropertyOp51
 70
     0
102
RTVSPropertyOp52
 70
     0
102
RTVSPropertyOp53
 70
     1
102
RTVSPropertyOp54
 70
     1
102
RTVSPropertyOp55
 70
     1
102
RTVSPropertyOp56
 70
     1
102
RTVSPropertyOp57
 70
     1
102
RTVSPost2010Prop28
280
     0
102
RTVSPost2010PropOp28
 70
     1
102
RTVSPost2010Prop29
280
     1
102
RTVSPost2010PropOp29
 70
     1
102
RTVSPost2010Prop30
280
     1
102
RTVSPost2010PropOp30
 70
     1
102
RTVSPost2010Prop31
280
     0
102
RTVSPost2010PropOp31
 70
     1
102
RTVSPost2010Prop32
280
     0
102
RTVSPost2010PropOp32
 70
     1
102
RTVSPost2010Prop33
280
     0
102
RTVSPost2010PropOp33
 70
     1
102
RTVSPost2010Prop34
280
     0
102
RTVSPost2010PropOp34
 70
     1
102
RTVSPost2010Prop35
280
     0
102
RTVSPost2010PropOp35
 70
     1
102
RTVSPost2010Prop36
280
     0
102
RTVSPost2010PropOp36
 70
     1
102
RTVSPost2010Prop37
 90
       50
102
RTVSPost2010PropOp37
 70
     1
102
RTVSPost2010Prop38
140
0.0
102
RTVSPost2010PropOp38
 70
     1
102
RTVSPost2010Prop39
140
1.0
102
RTVSPost2010PropOp39
 70
     1
102
RTVSPost2010Prop40
 90
        0
102
RTVSPost2010PropOp40
 70
     1
102
RTVSPost2010Prop41ColorIndex
 90
       18
102
RTVSPost2010Prop41ColorRGB
 90
        0
102
RTVSPost2010PropOp41
 70
     1
102
RTVSPost2010Prop42
 90
       50
102
RTVSPost2010PropOp42
 70
     1
102
RTVSPost2010Prop43
 90
        3
102
RTVSPost2010PropOp43
 70
     1
102
RTVSPost2010Prop44ColorIndex
 90
        5
102
RTVSPost2010Prop44ColorRGB
 90
      255
102
RTVSPost2010PropOp44
 70
     1
102
RTVSPost2010Prop45
280
     0
102
RTVSPost2010PropOp45
 70
     1
102
RTVSPost2010Prop46
 90
       50
102
RTVSPost2010PropOp46
 70
     1
102
RTVSPost2010Prop47
 90
       50
102
RTVSPost2010PropOp47
 70
     1
102
RTVSPost2010Prop48
 90
       50
102
RTVSPost2010PropOp48
 70
     1
102
RTVSPost2010Prop49
280
     0
102
RTVSPost2010PropOp49
 70
     1
102
RTVSPost2010Prop50
 90
       50
102
RTVSPost2010PropOp50
 70
     1
102
RTVSPost2010Prop51ColorIndex
 90
      256
102
RTVSPost2010Prop51ColorRGB
 90
-16777216
102
RTVSPost2010PropOp51
 70
     0
102
RTVSPost2010Prop52
140
1.0
102
RTVSPost2010PropOp52
 70
     0
102
RTVSPost2010Prop53
 90
        2
102
RTVSPost2010PropOp53
 70
     1
102
RTVSPost2010Prop54
  1
strokes_ogs.tif
102
RTVSPost2010PropOp54
 70
     1
102
RTVSPost2010Prop55
280
     0
102
RTVSPost2010PropOp55
 70
     1
102
RTVSPost2010Prop56
140
1.0
102
RTVSPost2010PropOp56
 70
     1
102
RTVSPost2010Prop57
140
1.0
102
RTVSPost2010PropOp57
 70
     1
  0
XRECORD
  5
76A
102
{ACAD_REACTORS
330
769
102
}
330
769
100
AcDbXrecord
280
     1
102
RTVSPropertyOp0
 70
     1
102
RTVSPropertyOp1
 70
     1
102
RTVSPropertyOp2
 70
     1
102
RTVSPropertyOp3
 70
     1
102
RTVSPropertyOp4
 70
     1
102
RTVSPropertyOp5
 70
     1
102
RTVSPropertyOp6
 70
     1
102
RTVSPropertyOp7
 70
     1
102
RTVSPropertyOp8
 70
     1
102
RTVSPropertyOp9
 70
     1
102
RTVSPropertyOp10
 70
     1
102
RTVSPropertyOp11
 70
     1
102
RTVSPropertyOp12
 70
     1
102
RTVSPropertyOp13
 70
     1
102
RTVSPropertyOp14
 70
     1
102
RTVSPropertyOp15
 70
     1
102
RTVSPropertyOp16
 70
     1
102
RTVSPropertyOp17
 70
     1
102
RTVSPropertyOp18
 70
     1
102
RTVSPropertyOp19
 70
     1
102
RTVSPropertyOp20
 70
     1
102
RTVSPropertyOp21
 70
     1
102
RTVSPropertyOp22
 70
     1
102
RTVSPropertyOp23
 70
     1
102
RTVSPropertyOp24
 70
     1
102
RTVSPropertyOp25
 70
     1
102
RTVSPropertyOp26
 70
     1
102
RTVSPropertyOp27
 70
     1
102
RTVSPropertyOp28
 70
     1
102
RTVSPropertyOp29
 70
     1
102
RTVSPropertyOp30
 70
     1
102
RTVSPropertyOp31
 70
     1
102
RTVSPropertyOp32
 70
     1
102
RTVSPropertyOp33
 70
     1
102
RTVSPropertyOp34
 70
     1
102
RTVSPropertyOp35
 70
     1
102
RTVSPropertyOp36
 70
     1
102
RTVSPropertyOp37
 70
     1
102
RTVSPropertyOp38
 70
     1
102
RTVSPropertyOp39
 70
     1
102
RTVSPropertyOp40
 70
     1
102
RTVSPropertyOp41
 70
     1
102
RTVSPropertyOp42
 70
     1
102
RTVSPropertyOp43
 70
     1
102
RTVSPropertyOp44
 70
     1
102
RTVSPropertyOp45
 70
     1
102
RTVSPropertyOp46
 70
     1
102
RTVSPropertyOp47
 70
     1
102
RTVSPropertyOp48
 70
     1
102
RTVSPropertyOp49
 70
     1
102
RTVSPropertyOp50
 70
     1
102
RTVSPropertyOp51
 70
     0
102
RTVSPropertyOp52
 70
     0
102
RTVSPropertyOp53
 70
     1
102
RTVSPropertyOp54
 70
     1
102
RTVSPropertyOp55
 70
     1
102
RTVSPropertyOp56
 70
     1
102
RTVSPropertyOp57
 70
     1
102
RTVSPost2010Prop28
280
     0
102
RTVSPost2010PropOp28
 70
     1
102
RTVSPost2010Prop29
280
     1
102
RTVSPost2010PropOp29
 70
     1
102
RTVSPost2010Prop30
280
     1
102
RTVSPost2010PropOp30
 70
     1
102
RTVSPost2010Prop31
280
     0
102
RTVSPost2010PropOp31
 70
     1
102
RTVSPost2010Prop32
280
     0
102
RTVSPost2010PropOp32
 70
     1
102
RTVSPost2010Prop33
280
     0
102
RTVSPost2010PropOp33
 70
     1
102
RTVSPost2010Prop34
280
     0
102
RTVSPost2010PropOp34
 70
     1
102
RTVSPost2010Prop35
280
     0
102
RTVSPost2010PropOp35
 70
     1
102
RTVSPost2010Prop36
280
     0
102
RTVSPost2010PropOp36
 70
     1
102
RTVSPost2010Prop37
 90
       50
102
RTVSPost2010PropOp37
 70
     1
102
RTVSPost2010Prop38
140
0.0
102
RTVSPost2010PropOp38
 70
     1
102
RTVSPost2010Prop39
140
1.0
102
RTVSPost2010PropOp39
 70
     1
102
RTVSPost2010Prop40
 90
        0
102
RTVSPost2010PropOp40
 70
     1
102
RTVSPost2010Prop41ColorIndex
 90
       18
102
RTVSPost2010Prop41ColorRGB
 90
        0
102
RTVSPost2010PropOp41
 70
     1
102
RTVSPost2010Prop42
 90
       50
102
RTVSPost2010PropOp42
 70
     1
102
RTVSPost2010Prop43
 90
        3
102
RTVSPost2010PropOp43
 70
     1
102
RTVSPost2010Prop44ColorIndex
 90
        5
102
RTVSPost2010Prop44ColorRGB
 90
      255
102
RTVSPost2010PropOp44
 70
     1
102
RTVSPost2010Prop45
280
     0
102
RTVSPost2010PropOp45
 70
     1
102
RTVSPost2010Prop46
 90
       50
102
RTVSPost2010PropOp46
 70
     1
102
RTVSPost2010Prop47
 90
       50
102
RTVSPost2010PropOp47
 70
     1
102
RTVSPost2010Prop48
 90
       50
102
RTVSPost2010PropOp48
 70
     1
102
RTVSPost2010Prop49
280
     0
102
RTVSPost2010PropOp49
 70
     1
102
RTVSPost2010Prop50
 90
       50
102
RTVSPost2010PropOp50
 70
     1
102
RTVSPost2010Prop51ColorIndex
 90
      256
102
RTVSPost2010Prop51ColorRGB
 90
-16777216
102
RTVSPost2010PropOp51
 70
     0
102
RTVSPost2010Prop52
140
1.0
102
RTVSPost2010PropOp52
 70
     0
102
RTVSPost2010Prop53
 90
        2
102
RTVSPost2010PropOp53
 70
     1
102
RTVSPost2010Prop54
  1
strokes_ogs.tif
102
RTVSPost2010PropOp54
 70
     1
102
RTVSPost2010Prop55
280
     0
102
RTVSPost2010PropOp55
 70
     1
102
RTVSPost2010Prop56
140
1.0
102
RTVSPost2010PropOp56
 70
     1
102
RTVSPost2010Prop57
140
1.0
102
RTVSPost2010PropOp57
 70
     1
  0
XRECORD
  5
75A
102
{ACAD_REACTORS
330
759
102
}
330
759
100
AcDbXrecord
280
     1
102
RTVSPropertyOp0
 70
     1
102
RTVSPropertyOp1
 70
     1
102
RTVSPropertyOp2
 70
     1
102
RTVSPropertyOp3
 70
     1
102
RTVSPropertyOp4
 70
     1
102
RTVSPropertyOp5
 70
     1
102
RTVSPropertyOp6
 70
     1
102
RTVSPropertyOp7
 70
     1
102
RTVSPropertyOp8
 70
     1
102
RTVSPropertyOp9
 70
     1
102
RTVSPropertyOp10
 70
     1
102
RTVSPropertyOp11
 70
     1
102
RTVSPropertyOp12
 70
     1
102
RTVSPropertyOp13
 70
     1
102
RTVSPropertyOp14
 70
     1
102
RTVSPropertyOp15
 70
     1
102
RTVSPropertyOp16
 70
     1
102
RTVSPropertyOp17
 70
     1
102
RTVSPropertyOp18
 70
     1
102
RTVSPropertyOp19
 70
     1
102
RTVSPropertyOp20
 70
     1
102
RTVSPropertyOp21
 70
     1
102
RTVSPropertyOp22
 70
     1
102
RTVSPropertyOp23
 70
     1
102
RTVSPropertyOp24
 70
     1
102
RTVSPropertyOp25
 70
     1
102
RTVSPropertyOp26
 70
     1
102
RTVSPropertyOp27
 70
     1
102
RTVSPropertyOp28
 70
     1
102
RTVSPropertyOp29
 70
     1
102
RTVSPropertyOp30
 70
     1
102
RTVSPropertyOp31
 70
     1
102
RTVSPropertyOp32
 70
     1
102
RTVSPropertyOp33
 70
     1
102
RTVSPropertyOp34
 70
     1
102
RTVSPropertyOp35
 70
     1
102
RTVSPropertyOp36
 70
     1
102
RTVSPropertyOp37
 70
     1
102
RTVSPropertyOp38
 70
     1
102
RTVSPropertyOp39
 70
     1
102
RTVSPropertyOp40
 70
     1
102
RTVSPropertyOp41
 70
     1
102
RTVSPropertyOp42
 70
     1
102
RTVSPropertyOp43
 70
     1
102
RTVSPropertyOp44
 70
     1
102
RTVSPropertyOp45
 70
     1
102
RTVSPropertyOp46
 70
     1
102
RTVSPropertyOp47
 70
     1
102
RTVSPropertyOp48
 70
     1
102
RTVSPropertyOp49
 70
     1
102
RTVSPropertyOp50
 70
     1
102
RTVSPropertyOp51
 70
     0
102
RTVSPropertyOp52
 70
     0
102
RTVSPropertyOp53
 70
     1
102
RTVSPropertyOp54
 70
     1
102
RTVSPropertyOp55
 70
     1
102
RTVSPropertyOp56
 70
     1
102
RTVSPropertyOp57
 70
     1
102
RTVSPost2010Prop28
280
     0
102
RTVSPost2010PropOp28
 70
     1
102
RTVSPost2010Prop29
280
     1
102
RTVSPost2010PropOp29
 70
     1
102
RTVSPost2010Prop30
280
     1
102
RTVSPost2010PropOp30
 70
     1
102
RTVSPost2010Prop31
280
     0
102
RTVSPost2010PropOp31
 70
     1
102
RTVSPost2010Prop32
280
     0
102
RTVSPost2010PropOp32
 70
     1
102
RTVSPost2010Prop33
280
     0
102
RTVSPost2010PropOp33
 70
     1
102
RTVSPost2010Prop34
280
     0
102
RTVSPost2010PropOp34
 70
     1
102
RTVSPost2010Prop35
280
     0
102
RTVSPost2010PropOp35
 70
     1
102
RTVSPost2010Prop36
280
     0
102
RTVSPost2010PropOp36
 70
     1
102
RTVSPost2010Prop37
 90
       50
102
RTVSPost2010PropOp37
 70
     1
102
RTVSPost2010Prop38
140
0.0
102
RTVSPost2010PropOp38
 70
     1
102
RTVSPost2010Prop39
140
1.0
102
RTVSPost2010PropOp39
 70
     1
102
RTVSPost2010Prop40
 90
        0
102
RTVSPost2010PropOp40
 70
     1
102
RTVSPost2010Prop41ColorIndex
 90
       18
102
RTVSPost2010Prop41ColorRGB
 90
        0
102
RTVSPost2010PropOp41
 70
     1
102
RTVSPost2010Prop42
 90
       50
102
RTVSPost2010PropOp42
 70
     1
102
RTVSPost2010Prop43
 90
        3
102
RTVSPost2010PropOp43
 70
     1
102
RTVSPost2010Prop44ColorIndex
 90
        5
102
RTVSPost2010Prop44ColorRGB
 90
      255
102
RTVSPost2010PropOp44
 70
     1
102
RTVSPost2010Prop45
280
     0
102
RTVSPost2010PropOp45
 70
     1
102
RTVSPost2010Prop46
 90
       50
102
RTVSPost2010PropOp46
 70
     1
102
RTVSPost2010Prop47
 90
       50
102
RTVSPost2010PropOp47
 70
     1
102
RTVSPost2010Prop48
 90
       50
102
RTVSPost2010PropOp48
 70
     1
102
RTVSPost2010Prop49
280
     0
102
RTVSPost2010PropOp49
 70
     1
102
RTVSPost2010Prop50
 90
       50
102
RTVSPost2010PropOp50
 70
     1
102
RTVSPost2010Prop51ColorIndex
 90
      256
102
RTVSPost2010Prop51ColorRGB
 90
-16777216
102
RTVSPost2010PropOp51
 70
     0
102
RTVSPost2010Prop52
140
1.0
102
RTVSPost2010PropOp52
 70
     0
102
RTVSPost2010Prop53
 90
        2
102
RTVSPost2010PropOp53
 70
     1
102
RTVSPost2010Prop54
  1
strokes_ogs.tif
102
RTVSPost2010PropOp54
 70
     1
102
RTVSPost2010Prop55
280
     0
102
RTVSPost2010PropOp55
 70
     1
102
RTVSPost2010Prop56
140
1.0
102
RTVSPost2010PropOp56
 70
     1
102
RTVSPost2010Prop57
140
1.0
102
RTVSPost2010PropOp57
 70
     1
  0
XRECORD
  5
744
102
{ACAD_REACTORS
330
743
102
}
330
743
100
AcDbXrecord
280
     1
102
RTVSPropertyOp0
 70
     1
102
RTVSPropertyOp1
 70
     1
102
RTVSPropertyOp2
 70
     1
102
RTVSPropertyOp3
 70
     1
102
RTVSPropertyOp4
 70
     1
102
RTVSPropertyOp5
 70
     1
102
RTVSPropertyOp6
 70
     1
102
RTVSPropertyOp7
 70
     1
102
RTVSPropertyOp8
 70
     1
102
RTVSPropertyOp9
 70
     1
102
RTVSPropertyOp10
 70
     1
102
RTVSPropertyOp11
 70
     1
102
RTVSPropertyOp12
 70
     1
102
RTVSPropertyOp13
 70
     1
102
RTVSPropertyOp14
 70
     1
102
RTVSPropertyOp15
 70
     1
102
RTVSPropertyOp16
 70
     1
102
RTVSPropertyOp17
 70
     1
102
RTVSPropertyOp18
 70
     1
102
RTVSPropertyOp19
 70
     1
102
RTVSPropertyOp20
 70
     1
102
RTVSPropertyOp21
 70
     1
102
RTVSPropertyOp22
 70
     1
102
RTVSPropertyOp23
 70
     1
102
RTVSPropertyOp24
 70
     1
102
RTVSPropertyOp25
 70
     1
102
RTVSPropertyOp26
 70
     1
102
RTVSPropertyOp27
 70
     1
102
RTVSPropertyOp28
 70
     1
102
RTVSPropertyOp29
 70
     1
102
RTVSPropertyOp30
 70
     1
102
RTVSPropertyOp31
 70
     1
102
RTVSPropertyOp32
 70
     1
102
RTVSPropertyOp33
 70
     1
102
RTVSPropertyOp34
 70
     1
102
RTVSPropertyOp35
 70
     1
102
RTVSPropertyOp36
 70
     1
102
RTVSPropertyOp37
 70
     1
102
RTVSPropertyOp38
 70
     1
102
RTVSPropertyOp39
 70
     1
102
RTVSPropertyOp40
 70
     1
102
RTVSPropertyOp41
 70
     1
102
RTVSPropertyOp42
 70
     1
102
RTVSPropertyOp43
 70
     1
102
RTVSPropertyOp44
 70
     1
102
RTVSPropertyOp45
 70
     1
102
RTVSPropertyOp46
 70
     1
102
RTVSPropertyOp47
 70
     1
102
RTVSPropertyOp48
 70
     1
102
RTVSPropertyOp49
 70
     1
102
RTVSPropertyOp50
 70
     1
102
RTVSPropertyOp51
 70
     0
102
RTVSPropertyOp52
 70
     0
102
RTVSPropertyOp53
 70
     1
102
RTVSPropertyOp54
 70
     1
102
RTVSPropertyOp55
 70
     1
102
RTVSPropertyOp56
 70
     1
102
RTVSPropertyOp57
 70
     1
102
RTVSPost2010Prop28
280
     0
102
RTVSPost2010PropOp28
 70
     1
102
RTVSPost2010Prop29
280
     1
102
RTVSPost2010PropOp29
 70
     1
102
RTVSPost2010Prop30
280
     1
102
RTVSPost2010PropOp30
 70
     1
102
RTVSPost2010Prop31
280
     0
102
RTVSPost2010PropOp31
 70
     1
102
RTVSPost2010Prop32
280
     0
102
RTVSPost2010PropOp32
 70
     1
102
RTVSPost2010Prop33
280
     0
102
RTVSPost2010PropOp33
 70
     1
102
RTVSPost2010Prop34
280
     0
102
RTVSPost2010PropOp34
 70
     1
102
RTVSPost2010Prop35
280
     0
102
RTVSPost2010PropOp35
 70
     1
102
RTVSPost2010Prop36
280
     0
102
RTVSPost2010PropOp36
 70
     1
102
RTVSPost2010Prop37
 90
       50
102
RTVSPost2010PropOp37
 70
     1
102
RTVSPost2010Prop38
140
0.0
102
RTVSPost2010PropOp38
 70
     1
102
RTVSPost2010Prop39
140
1.0
102
RTVSPost2010PropOp39
 70
     1
102
RTVSPost2010Prop40
 90
        0
102
RTVSPost2010PropOp40
 70
     1
102
RTVSPost2010Prop41ColorIndex
 90
       18
102
RTVSPost2010Prop41ColorRGB
 90
        0
102
RTVSPost2010PropOp41
 70
     1
102
RTVSPost2010Prop42
 90
       50
102
RTVSPost2010PropOp42
 70
     1
102
RTVSPost2010Prop43
 90
        3
102
RTVSPost2010PropOp43
 70
     1
102
RTVSPost2010Prop44ColorIndex
 90
        5
102
RTVSPost2010Prop44ColorRGB
 90
      255
102
RTVSPost2010PropOp44
 70
     1
102
RTVSPost2010Prop45
280
     0
102
RTVSPost2010PropOp45
 70
     1
102
RTVSPost2010Prop46
 90
       50
102
RTVSPost2010PropOp46
 70
     1
102
RTVSPost2010Prop47
 90
       50
102
RTVSPost2010PropOp47
 70
     1
102
RTVSPost2010Prop48
 90
       50
102
RTVSPost2010PropOp48
 70
     1
102
RTVSPost2010Prop49
280
     0
102
RTVSPost2010PropOp49
 70
     1
102
RTVSPost2010Prop50
 90
       50
102
RTVSPost2010PropOp50
 70
     1
102
RTVSPost2010Prop51ColorIndex
 90
      256
102
RTVSPost2010Prop51ColorRGB
 90
-16777216
102
RTVSPost2010PropOp51
 70
     0
102
RTVSPost2010Prop52
140
1.0
102
RTVSPost2010PropOp52
 70
     0
102
RTVSPost2010Prop53
 90
        2
102
RTVSPost2010PropOp53
 70
     1
102
RTVSPost2010Prop54
  1
strokes_ogs.tif
102
RTVSPost2010PropOp54
 70
     1
102
RTVSPost2010Prop55
280
     0
102
RTVSPost2010PropOp55
 70
     1
102
RTVSPost2010Prop56
140
1.0
102
RTVSPost2010PropOp56
 70
     1
102
RTVSPost2010Prop57
140
1.0
102
RTVSPost2010PropOp57
 70
     1
  0
XRECORD
  5
76C
102
{ACAD_REACTORS
330
76B
102
}
330
76B
100
AcDbXrecord
280
     1
102
RTVSPropertyOp0
 70
     1
102
RTVSPropertyOp1
 70
     1
102
RTVSPropertyOp2
 70
     1
102
RTVSPropertyOp3
 70
     1
102
RTVSPropertyOp4
 70
     1
102
RTVSPropertyOp5
 70
     1
102
RTVSPropertyOp6
 70
     1
102
RTVSPropertyOp7
 70
     1
102
RTVSPropertyOp8
 70
     1
102
RTVSPropertyOp9
 70
     1
102
RTVSPropertyOp10
 70
     1
102
RTVSPropertyOp11
 70
     1
102
RTVSPropertyOp12
 70
     1
102
RTVSPropertyOp13
 70
     1
102
RTVSPropertyOp14
 70
     1
102
RTVSPropertyOp15
 70
     1
102
RTVSPropertyOp16
 70
     1
102
RTVSPropertyOp17
 70
     1
102
RTVSPropertyOp18
 70
     1
102
RTVSPropertyOp19
 70
     1
102
RTVSPropertyOp20
 70
     1
102
RTVSPropertyOp21
 70
     1
102
RTVSPropertyOp22
 70
     1
102
RTVSPropertyOp23
 70
     1
102
RTVSPropertyOp24
 70
     1
102
RTVSPropertyOp25
 70
     1
102
RTVSPropertyOp26
 70
     1
102
RTVSPropertyOp27
 70
     1
102
RTVSPropertyOp28
 70
     1
102
RTVSPropertyOp29
 70
     1
102
RTVSPropertyOp30
 70
     1
102
RTVSPropertyOp31
 70
     1
102
RTVSPropertyOp32
 70
     1
102
RTVSPropertyOp33
 70
     1
102
RTVSPropertyOp34
 70
     1
102
RTVSPropertyOp35
 70
     1
102
RTVSPropertyOp36
 70
     1
102
RTVSPropertyOp37
 70
     1
102
RTVSPropertyOp38
 70
     1
102
RTVSPropertyOp39
 70
     1
102
RTVSPropertyOp40
 70
     1
102
RTVSPropertyOp41
 70
     1
102
RTVSPropertyOp42
 70
     1
102
RTVSPropertyOp43
 70
     1
102
RTVSPropertyOp44
 70
     1
102
RTVSPropertyOp45
 70
     1
102
RTVSPropertyOp46
 70
     1
102
RTVSPropertyOp47
 70
     1
102
RTVSPropertyOp48
 70
     1
102
RTVSPropertyOp49
 70
     1
102
RTVSPropertyOp50
 70
     1
102
RTVSPropertyOp51
 70
     0
102
RTVSPropertyOp52
 70
     0
102
RTVSPropertyOp53
 70
     1
102
RTVSPropertyOp54
 70
     1
102
RTVSPropertyOp55
 70
     1
102
RTVSPropertyOp56
 70
     1
102
RTVSPropertyOp57
 70
     1
102
RTVSPost2010Prop28
280
     0
102
RTVSPost2010PropOp28
 70
     1
102
RTVSPost2010Prop29
280
     1
102
RTVSPost2010PropOp29
 70
     1
102
RTVSPost2010Prop30
280
     1
102
RTVSPost2010PropOp30
 70
     1
102
RTVSPost2010Prop31
280
     0
102
RTVSPost2010PropOp31
 70
     1
102
RTVSPost2010Prop32
280
     0
102
RTVSPost2010PropOp32
 70
     1
102
RTVSPost2010Prop33
280
     0
102
RTVSPost2010PropOp33
 70
     1
102
RTVSPost2010Prop34
280
     0
102
RTVSPost2010PropOp34
 70
     1
102
RTVSPost2010Prop35
280
     0
102
RTVSPost2010PropOp35
 70
     1
102
RTVSPost2010Prop36
280
     0
102
RTVSPost2010PropOp36
 70
     1
102
RTVSPost2010Prop37
 90
       50
102
RTVSPost2010PropOp37
 70
     1
102
RTVSPost2010Prop38
140
0.0
102
RTVSPost2010PropOp38
 70
     1
102
RTVSPost2010Prop39
140
1.0
102
RTVSPost2010PropOp39
 70
     1
102
RTVSPost2010Prop40
 90
        0
102
RTVSPost2010PropOp40
 70
     1
102
RTVSPost2010Prop41ColorIndex
 90
       18
102
RTVSPost2010Prop41ColorRGB
 90
        0
102
RTVSPost2010PropOp41
 70
     1
102
RTVSPost2010Prop42
 90
       50
102
RTVSPost2010PropOp42
 70
     1
102
RTVSPost2010Prop43
 90
        3
102
RTVSPost2010PropOp43
 70
     1
102
RTVSPost2010Prop44ColorIndex
 90
        5
102
RTVSPost2010Prop44ColorRGB
 90
      255
102
RTVSPost2010PropOp44
 70
     1
102
RTVSPost2010Prop45
280
     0
102
RTVSPost2010PropOp45
 70
     1
102
RTVSPost2010Prop46
 90
       50
102
RTVSPost2010PropOp46
 70
     1
102
RTVSPost2010Prop47
 90
       50
102
RTVSPost2010PropOp47
 70
     1
102
RTVSPost2010Prop48
 90
       50
102
RTVSPost2010PropOp48
 70
     1
102
RTVSPost2010Prop49
280
     0
102
RTVSPost2010PropOp49
 70
     1
102
RTVSPost2010Prop50
 90
       50
102
RTVSPost2010PropOp50
 70
     1
102
RTVSPost2010Prop51ColorIndex
 90
      256
102
RTVSPost2010Prop51ColorRGB
 90
-16777216
102
RTVSPost2010PropOp51
 70
     0
102
RTVSPost2010Prop52
140
1.0
102
RTVSPost2010PropOp52
 70
     0
102
RTVSPost2010Prop53
 90
        2
102
RTVSPost2010PropOp53
 70
     1
102
RTVSPost2010Prop54
  1
strokes_ogs.tif
102
RTVSPost2010PropOp54
 70
     1
102
RTVSPost2010Prop55
280
     0
102
RTVSPost2010PropOp55
 70
     1
102
RTVSPost2010Prop56
140
1.0
102
RTVSPost2010PropOp56
 70
     1
102
RTVSPost2010Prop57
140
1.0
102
RTVSPost2010PropOp57
 70
     1
  0
ENDSEC
  0
SECTION
  2
THUMBNAILIMAGE
 90
    16364
310
28000000B4000000550000000100080000000000C43B000000000000000000000001000000010000FFFFFF000000FF0000FFFF0000FF0000FFFF0000FF000000FF00FF000000000080808000C0C0C0000000FF007F7FFF000000A5005252A50000007F003F3F7F0000004C0026264C000000260013132600003FFF007F9FFF
310
000029A5005267A500001F7F003F4F7F0000134C00262F4C000009260013172600007FFF007FBFFF000052A500527CA500003F7F003F5F7F0000264C0026394C0000132600131C260000BFFF007FDFFF00007CA5005291A500005F7F003F6F7F0000394C0026424C00001C26001321260000FFFF007FFFFF0000A5A50052A5
310
A500007F7F003F7F7F00004C4C00264C4C00002626001326260000FFBF007FFFDF0000A57C0052A59100007F5F003F7F6F00004C3900264C420000261C001326210000FF7F007FFFBF0000A5520052A57C00007F3F003F7F5F00004C2600264C39000026130013261C0000FF3F007FFF9F0000A5290052A56700007F1F003F
310
7F4F00004C1300264C2F00002609001326170000FF00007FFF7F0000A5000052A55200007F00003F7F3F00004C0000264C260000260000132613003FFF00009FFF7F0029A5000067A552001F7F00004F7F3F00134C00002F4C260009260000172613007FFF0000BFFF7F0052A500007CA552003F7F00005F7F3F00264C0000
310
394C2600132600001C261300BFFF0000DFFF7F007CA5000091A552005F7F00006F7F3F00394C0000424C26001C26000021261300FFFF0000FFFF7F00A5A50000A5A552007F7F00007F7F3F004C4C00004C4C26002626000026261300FFBF0000FFDF7F00A57C0000A59152007F5F00007F6F3F004C3900004C422600261C00
310
0026211300FF7F0000FFBF7F00A5520000A57C52007F3F00007F5F3F004C2600004C39260026130000261C1300FF3F0000FF9F7F00A5290000A56752007F1F00007F4F3F004C1300004C2F26002609000026171300FF000000FF7F7F00A5000000A55252007F0000007F3F3F004C0000004C2626002600000026131300FF00
310
3F00FF7F9F00A5002900A55267007F001F007F3F4F004C0013004C262F002600090026131700FF007F00FF7FBF00A5005200A5527C007F003F007F3F5F004C0026004C2639002600130026131C00FF00BF00FF7FDF00A5007C00A55291007F005F007F3F6F004C0039004C26420026001C0026132100FF00FF00FF7FFF00A5
310
00A500A552A5007F007F007F3F7F004C004C004C264C002600260026132600BF00FF00DF7FFF007C00A5009152A5005F007F006F3F7F0039004C0042264C001C002600211326007F00FF00BF7FFF005200A5007C52A5003F007F005F3F7F0026004C0039264C00130026001C1326003F00FF009F7FFF002900A5006752A500
310
1F007F004F3F7F0013004C002F264C000900260017132600000000002D2D2D005B5B5B0089898900B7B7B700B3B3B30000000000000000000000000000000000000000000000000000000000000000000000000000000000000000000000000000000000000000000000000000000000000000000000000000000000000000
310
00000000000000000000000000000000000000000000000000000000000000000000000000000000000000000000000000000000000000000000000000000000000000000000000000000000000000000000000000000000000000000000000000000000000000000000000000000000000000000000000000000000000000
310
00000000000000000000000000000000000000000000000000000000000000000000000000000000000000000000000000000000000000000000000000000000000000000000000000000000000000000000000000000000000000000000000000000000000000000000000000000000000000000000000000000000000000
310
00000000000000000000000000000000000000000000000000000000000000000000000000000000000000000000000000000000000000000000000000000000000000000000000000000000000000000000000000000000000000000000000000000000000000000000000000000000000000000000000000000000000000
310
00000000000000000000000000000000000000000000000000000000000000000000000000000000000000000000000000000000000000000000000000000000000000000000000000000000000000000000000000000000000000000000000000000000000000000000000000000000000000000000000000000000000000
310
00000000000000000000000000000000000000000000000000000000000000000000000000000000000000000000000000000000000000000000000000000000000000000000000000000000000000000000000000000000000000000000000000000000000000000000000000000000000000000000000000000000000000
310
00000000000000000000000000000000000000000000000000000000000000000000000000000000000000000000000000000000000000000000000000000000000000000000000000000000000000000000000000000000000000000000000000000000000000000000000000000000000000000000000000000000000000
310
00000000000000000000000000000000000000000000000000000000000000000000000000000000000000000000000000000000000000000000000000000000000000000000000000000000000000000000000000000000000000000000000000000000000000000000000000000000000000000000000000000000000000
310
00000000000000000000000000000000000000000000000000000000000000000000000000000000000000000000000000000000000000000000000000000000000000000000000000000000000000000000000000000000000000000000000000000000000000000000000000000000000000000000000000000000000000
310
00000000000000000000000000000000030303010303030303000000000000000000000000000303030303010303030000000000000000000202020202020000000000000303010303030303030000000000000000000000000000000003030303030303030300000000000000000000000000000000000000000000000000
310
00000000000000000000000000000000000000000000000000000000000000000000000000000000000000000000000000000000000000000000000000000000000000000003000001000000000300000000000000000000000000030000000001000003000000000000000000020202020202000000000000030001000000
310
00000300000000000000000000000000000000030000000003030303000000000000000000000000000000000000000000000000000000000000000000000000000000000000000000000000000000000000000000000000000000000000000000000000000000000000000000000000000000000000000000030303030103
310
03030303030303030301030303010303030303030303010303030300000000000000000000000000000000000000000303010303030303030303010103010303010301030103030303030303030303030300000000000000000000000000000000000000000000000000000000000000000000000000000000000000000000
310
00000000000000000000000000000000000000000000000000000000000000000000000000000000000000000000000303030301030303030303010303030103030301030301030303030301030303030000000000000000000000000000000000000000030001030303030303030301010301030101030103010303030103
310
03030303010300000000000000000000000000000000000000000000000000000000000000000000000000000000000000000000000000000000000000000000000000000000000000000000000000000000000000000000000000000000000000000303030000000000000003030001000000010100000100000103030000
310
00000000000303030000000000000000000000000000000000000303030000000000000000010100010001010001000103030303030303030300030000000000000000000000000000000000000000000000000000000000000000000000000000000000000000000000000000000000000000000000000000000000000000
310
00000000000000000000000000000000000000000000000003030100000000000000030300010000000001000000000001030300000000000000010101000000000000000000000000000000000000030303000000000000000000000000000100000000000301030303030303030303000000000000000000000000000000
310
00000000000000000000000000000000000000000000000000000000000000000000000000000000000000000000000000000000000000000000000000000000000000000303000003030303030303030000000000000003030001000000000100000000000103030000000000000003030300000000000000000000000000
310
00000000000300030000000000000000000000000001000000000003030301000303030303030000000000000000000000000000000000000000000000000000000000000000000000000000000000000000000000000000000000000000000000000000000000000000000000000000000000000000000001010101000301
310
01010103030301010101010101030301010101010101010101010101030301010101010101030301000000000000000000000000000000000000030003000000000000000000000000000100000000010303010101010303030003000000000000000000000000000000000000000000000000000000000000000000000000
310
00000000000000000000000000000000000000000000000000000000000000000000000000000000000000000000000303030003000000000303030000000000000000000001000000000100000000000100000000000000000003030000000000000000000000000000000000000003000000000000000000000000000000
310
01000000000003030001000003030000030000000000000000000000000000000000000000000000000000000000000000000000000000000000000000000000000000000000000000000000000000000000000000000000000000000000000000000000030300000303030303030303000000000000000000000100000000
310
01000000000001000000000000000000030303000000000000000000000000000000000000030000000000000000000000000000000100000000000303030100030303000003000000000000000000000000000000000000000000000000000000000000000000000000000000000000000000000000000000000000000000
310
00000000000000000000000000000000000000000000000000000000000000000000000101010000000000000000000001000000000100000000000100000000000000000001010100000000000000000000000000000000000003000000000000000000000000000000010000000000030303030303010300000300000000
310
00000000000000000000000000000000000000000000000000000000000000000000000000000000000000000000000000000000000000000000000000000000000000000000000000000000000000000000000000000000030303000000000000000000000100000000010000000000010000000000000000000303030000
310
00000000000000000000000000000000030000000000000000000000000000000100000000000103030303030303000003000000000000000000000000000000000000000000000000000000000000000000000000000000000000000000000000000000000000000000000000000000000000000000000000000000000000
310
00000000000000000000000000000000030000000000000000000001000000000100000000000100000000000000000003000000000000000000000000000000000000000003000000000000000000000000000000010000000000000000010000000000010303000000000000000000000000000000000000000000000000
310
00000000000000000000000000000000000000000000000000000000000000000000000000000000000000000000000000000000000000000000000000000000000000000003000000000000000000000100000000010000000000010000000000000000000300000000000000000000000000000000000000000300000000
310
00000000000000000000000100000000000000000000000000000003030000000000000000000000000000000000000000000000000000000000000000000000000000000000000000000000000000000000000000000000000000000000000000000000000000000000000000000000000000000000000000000300000000
310
00000000000001000000000100000000000100000000000000000003000000000000000000000000000000000000000003000000000000000000000000000000010000000000000000000000000000000300000000000000000000000000000000000000000000000000000000000000000000000000000000000000000000
310
00000000000000000000000000000000000000000000000000000000000000000000000000000000000000000000000003010303030103030303030103030303030303030303010303030301030303010300000000000000000000000000000000000000000301030303010303030103030303030301030303030303030303
310
01030303030103000000000000000000000000000000000000000000000000000000000000000000000000000000000000000000000000000000000000000000000000000000000000000000000000000000000000000000000000000000000000000000000303030303030301030303030303030303030301030301030301
310
03010303030303000000000000000000000000000000000000000003010303030103030303030101030103030103010301030303030103030303010300000000000000000000000000000000000000000000000000000000000000000000000000000000000000000000000000000000000000000000000000000000000000
310
00000000000000000000000000000000000000000000000000000000010303030103030303030303030303030303010303030303010301030303010000000000000000000000000000000000000000000001030303010303030303030303030301030303030303030303010303030301000000000000000000000000000000
310
00000000000000000000000000000000000000000000000000000000000000000000000000000000000000000000000000000000000000000000000000000000000000000000000000000000000000000000000000000001000303030303000103010301000003030001030000000000000000000000000000000000000000
310
00000000000000000101010101010000000303030303010303010001000000010101010101000000000000000000000000000000000000000000000000000000000000000000000000000000000000000000000000000000000000000000000000000000000000000000000000000000000000000000000000000000000000
310
00000000000000000000000000000003000303030000030000000000000000000000000000000000000000000000000000000000000000000000000000000303030300000000000000030001000300000000000003030303030000000000000000000000000000000000000000000000000000000000000000000000000000
310
00000000000000000000000000000000000000000000000000000000000000000000000000000000000000000000000000000000000000000000000000000000000000000300030303000003000000000000000000000000000000000000000000000000000000000000000000000000000000030303030000000000000003
310
00010003000000000000000303030300000000000000000000000000000000000000000000000000000000000000000000000000000000000000000000000000000000000000000000000000000000000000000000000000000000000000000000000000000000000000000000000000000000000000000000030003030300
310
00000000000000000000000000000000000000000000000000000000000000000000000000000000000000010000000000000000030001000300000000000000000100000000000000000000000000000000000000000000000000000000000000000000000000000000000000000000000000000000000000000000000000
310
00000000000000000000000000000000000000000000000000000000000000000000000000000000000000000000000300030303000000000000000000000000000000000000000000000000000000000000000000000000000000000000000000000000000000000003000100030000000000000000000000000000000000
310
00000000000000000000000000000000000000000000000000000000000000000000000000000000000000000000000000000000000000000000000000000000000000000000000000000000000000000000000000000000000000000000000000000000030003030300000000000000000000000000000000000000000000
310
00000000000000000000000000000000000000000000000000000000000000030001000300000000000000000000000000000000000000000000000000000000000000000000000000000000000000000000000000000000000000000000000000000000000000000000000000000000000000000000000000000000000000
310
00000000000000000000000000000000000000000000000000000300030303000000000000000000000000000000000000000000000000000000000000000000000000000000000000000000000000000000000003000100030000000000000000000000000000000000000000000000000000000000000000000000000000
310
00000000000000000000000000000000000000000000000000000000000000000000000000000000000000000000000000000000000000000000000000000000000000000000000000000000000000030303030300000000000000000000000000000000000000000000000000000000000000000000000000000000000000
310
00000000000000000000030301030300000000000000000000000000000000000000000000000000000000000000000000000000000000000000000000000000000000000000000000000000000000000000000000000000000000000000000000000000000000000000000000000000000000000000000000000000000000
310
00000000000000010000000000000000000000000000000000000000000000000000000000000000000000000000000000000000000000000000000000000000000100000000000000000000000000000000000000000000000000000000000000000000000000000000000000000000000000000000000000000000000000
310
00000000000000000000000000000000000000000000000000000000000000000000000000000000000000000000000000000000000000000000000000000000000000000000000000000000000000000000000000000000000000000000000000000000000000000000000000000000000000000000000000000000000000
310
00000000000000000000000000000000000000000000000000000000000000000000000000000000000000000000000000000000000000000000000000000000000000000000000000000000000000000000000000000000000000000000000000000000000000000000000000000000000000000000000000000000000000
310
00000000000000000000000000000000000000000000000000000000000000000000000000000000000000000000000000000000000000000000000000000000000000000000000000000000000000000000000000000000000000000000000000000000000000000000000000000000000000000000000000000000000000
310
00000000000000000000000000000000000000000000000000000000000000000000000000000000000000000000000000000000000000000000000000000000000000000000000000000000000000000000000000000000000000000000000000000000000000000000000000000000000000000000000000000000000000
310
00000000000000000000000000000000000000000000000000000000000000000000000000000000000000000000000000000000000000000000000000000000000000000000000000000000000000000000000000000000000000000000000000000000000000000000000000000000000000000000000000000000000000
310
00000000000000000000000000000000000000000000000000000000000000000000000000000000000000000000000000000000000000000000000000000000000000000000000000000000000000000000000000000000000000000000000000000000000000000000000000000000000000000000000000000000000000
310
00000000000000000000000000000000000000000000000000000000000000000000000000000000000000000000000000000000000000000000000000000000000000000000000000000000000000000000000000000000000000000000000000000000000000000000000000000000000000000000000000000000000000
310
00000000000000000000000000000000000000000000000000000000000000000000000000000000000000000000000000000000000000000000000000000000000000000000000000000000000000000000000000000000000000000000000000000000000000000000000000000000000000000000000000000000000000
310
00000000000000000000000000000000000000000000000000000000000000000000000000000000000000000000000000000000000000000000000000000000000000000000000000000000000000000000000000000000000000000000000000000000000000000000000000000000000000000000000000000000000000
310
00000000000000000000000000000000000000000000000000000000000000000000000000000000000000000000000000000000000000000000000000000000000000000000000000000000000000000000000000000000000000000000000000000000000000000000000000000000000000000000000000000000000000
310
00000000000000000000000000000000000000000000000000000000000000000000000000000000000000000000000000000000000000000000000000000000000000000000000000000000000000000000000000000000000000000000000000000000000000000000000000000000000000000000000000000000000000
310
00000000000000000000000000000000000000000000000000000000000000000000000000000000000000000000000000000000000000000000000000000000000000000000000000000000000000000000000000000000000000000000000000000000000000000000000000000000000000000000000000000000000000
310
00000000000000000000000000000000000000000000000000000000000000000000000000000000000000000000000000000000000000000000000000000000000000000000000000000000000000000000000000000000000000000000000000000000000000000000000000000000000000000000000000000000000000
310
00000000000000000000000000000000000000000000000000000000000000000000000000000000000000000000000000000000000000000000000000000000000000000000000000000000000000000000000000000000000000000000000000000000000000000000000000000000000000000000000000000000000000
310
00000000000000000000000000000000000000000000000000000000000000000000000000000000000000000000000000000000000000000000000000000000000000000000000000000000000000000000000000000000000000000000000000000000000000000000000000000000000000000000000000000000000000
310
00000000000000000000000000000000000000000000000000000000000000000000000000000000000000000000000000000000000000000000000000000000000000000000000000000000000000000000000000000000000000000000000000000000000000000000000000000000000000000000000000000000000000
310
00000000000000000000000000000000000000000000000000000000000000000000000000000000000000000000000000000000000000000000000000000000000000000000000000000000000000000000000000000000000000000000000000000000000000000000000000000000000000000000000000000000000000
310
00000000000000000000000000000000000000000000000000000000000000000000000000000000000000000000000000000000000000000000000000000000000000000000000000000000000000000000000000000000000000000000000000000000000000000000000000000000000000000000000000000000000000
310
00000000000000000000000000000000000000000000000000000000000000000000000000000000000000000000000000000000000000000000000000000000000000000000000000000000000000000000000000000000000000000000000000000000000000000000000000000000000000000000000100000000000000
310
00000000000000000000000000000000000000000000000000000000000000000000000000000000000000000000000000000000000000000000000000000000000000000000000000000000000000000000000000000000000000000000000000000000000000000000000000000000000000000000000000000000000000
310
00000000000000000000000000000000000000000000000000000000000003030301030303030300000303030301030303030000030303030301030303000000000000000000000000000000000000000000000000000000000000000000000000000000000000000000000000000000000000000000000000000000000000
310
00000000000000000000000000000000000000000000000000000000000000000000000000000000000000000000000000000000000000000000000000000000000000000000000000000000000000000000000300030100000003030303030101010303010103030303030000000103000300000000000000000000000000
310
00000000000000000000000000000000000000000000000000000000000000000000000000000000000000000000000000000000000000000000000000000000000000000000000000000000000000000000000000000000000000000000000000000000000000000000000000000000000000000000000000000000000000
310
00000000000000000003010101010000030301010103030303030301010101030300000101030103000000000000000000000000000000000000000000000000000000000000000000000000000000000000000000000000000000000000000000000000000000000000000000000000000000000000000000000000000000
310
00000000000000000000000000000000000000000000000000000000000000000000000000000000000000000000000000000000000000000000000000000300000100000301010103030303030303030303030101010300000100000300000000000000000000000000000000000000000000000000000000000000000000
310
00000000000000000000000000000000000000000000000000000000000000000000000000000000000000000000000000000000000000000000000000000000000000000000000000000000000000000000000000000000000000000000000000000000000000000000000000000000000000030000000003010103030300
310
00000303030000000303030101030300000003000000000000000000000000000000000000000000000000000000000000000000000000000000000000000000000000000000000000000000000000000000000000000000000000000000000000000000000000000000000000000000000000000000000000000000000000
310
00000000000000000000000000000000000000000000000000000000000000000000000000000000000300000303030003030000000001010303010000000003030003030100000300000000000000000000000000000000000000000000000000000000000000000000000000000000000000000000000000000000000000
310
00000000000000000000000000000000000000000000000000000000000000000000000000000000000000000000000000000000000000000000000000000000000000000000000000000000000000000000000000000000000000000000030003030303030000000000000003030300000000000000030303030300030000
310
00000000000000000000000000000000000000000000000000000000000000000000000000000000000000000000000000000000000000000000000000000000000000000000000000000000000000000000000000000000000000000000000000000000000000000000000000000000000000000000000000000000000000
310
00000000000000000000000000000000000000000300030101030000000000000000000300000000000000000003030103030300000000000000000000000000000000000000000000000000000000000000000000000000000000000000000000000000000000000000000000000000000000000000000000000000000000
310
00000000000000000000000000000000000000000000000000000000000000000000000000000000000000000000000000000000000000000000000000000000000000000000000000030301010300000000000000000003030300000000000000000003000103030000000000000000000000000000000000000000000000
310
00000000000000000000000000000000000000000000000000000000000000000000000000000000000000000000000000000000000000000000000000000000000000000000000000000000000000000000000000000000000000000000000000000000000000000000000000000000000000000000000000000000000000
310
03010303000000000000000000030303000000000000000000000301030000000000000000000000000000000000000000000000000000000000000000000000000000000000000000000000000000000000000000000000000000000000000000000000000000000000000000000000000000000000000000000000000000
310
00000000000000000000000000000000000000000000000000000000000000000000000000000000000000000000000000000000030103000300000000000100000000030000000000010000000000030301030000000000000000000000000000000000000000000000000000000000000000000000000000000000000000
310
00000000000000000000000000000000000000000000000000000000000000000000000000000000000000000000000000000000000000000000000000000000000000000000000000000000000000000000000000000000000000000000000000000000000000000303010303000000000303030303030001000000000303
310
03030000000303010303000000000000000000000000000000000000000000000000000000000000000000000000000000000000000000000000000000000000000000000000000000000000000000000000000000000000000000000000000000000000000000000000000000000000000000000000000000000000000000
310
00000000000000000000000000000000000000000000000000000000000003030103000000030301010303010103010000030301030303030000000301010300000000000000000000000000000000000000000000000000000000000000000000000000000000000000000000000000000000000000000000000000000000
310
00000000000000000000000000000000000000000000000000000000000000000000000000000000000000000000000000000000000000000000000000000000000000000000000000000000000000000000000301030300000003010000010000010103000103010303030103010000030301030000000000000000000000
310
00000000000000000000000000000000000000000000000000000000000000000000000000000000000000000000000000000000000000000000000000000000000000000000000000000000000000000000000000000000000000000000000000000000000000000000000000000000000000000000000000000000000000
310
00000000000000000003010303000001030103030303030003030003030303010003030300000303010300000000000000000000000000000000000000000000000000000000000000000000000000000000000000000000000000000000000000000000000000000000000000000000000000000000000000000000000000
310
00000000000000000000000000000000000000000000000000000000000000000000000000000000000000000000000000000000000000000000000000000301030300000301000303030303030001030301030001000300030000030301030000000000000000000000000000000000000000000000000000000000000000
310
00000000000000000000000000000000000000000000000000000000000000000000000000000000000000000000000000000000000000000000000000000000000000000000000000000000000000000000000000000000000000000000000000000000000000000000000000000000000001030303030101030103030101
310
01030301010303010301010103010303010303030301000000000000000000000000000000000000000000000000000000000000000000000000000000000000000000000000000000000000000000000000000000000000000000000000000000000000000000000000000000000000000000000000000000000000000000
310
00000000000000000000000000000000000000000000000000000000000000000000000000000000000303030300000300030300010003030001030303030301000303030000030303030000000000000000000000000000000000000000000000000000000000000000000000000000000000000000000000000000000000
310
00000000000000000000000000000000000000000000000000000000000000000000000000000000000000000000000000000000000000000000000000000000000000000000000000000000000000000000000000000000000000000000030103030000030301030303030303030303010301030303010301000003030103
310
00000000000000000000000000000000000000000000000000000000000000000000000000000000000000000000000000000000000000000000000000000000000000000000000000000000000000000000000000000000000000000000000000000000000000000000000000000000000000000000000000000000000000
310
00000000000000000000000000000000000000000301030300000103000303030303000303000003030103030303000000030301030000000000000000000000000000000000000000000000000000000000000000000000000000000000000000000000000000000000000000000000000000000000000000000000000000
310
00000000000000000000000000000000000000000000000000000000000000000000000000000000000000000000000000000000000000000000000000000000000000000000000000030101030000000301010001000001030300000000030303030000000003010103000000000000000000000000000000000000000000
310
00000000000000000000000000000000000000000000000000000000000000000000000000000000000000000000000000000000000000000000000000000000000000000000000000000000000000000000000000000000000000000000000000000000000000000000000000000000000000000000000000000000000003
310
03010303000000030301030301030301000000000001000000000003030103030000000000000000000000000000000000000000000000000000000000000000000000000000000000000000000000000000000000000000000000000000000000000000000000000000000000000000000000000000000000000000000000
310
00000000000000000000000000000000000000000000000000000000000000000000000000000000000000000000000000000003030301030300000000030303030300000100000000000000000000000303010303030000000000000000000000000000000000000000000000000000000000000000000000000000000000
310
00000000000000000000000000000000000000000000000000000000000000000000000000000000000000000000000000000000000000000000000000000000000000000000000000000000000000000000000000000000000000000000000000000000000000010101030001030300000000000100000000010000000000
310
00000000000003010003010101000000000000000000000000000000000000000000000000000000000000000000000000000000000000000000000000000000000000000000000000000000000000000000000000000000000000000000000000000000000000000000000000000000000000000000000000000000000000
310
00000000000000000000000000000000000000000000000000000000000303000003010103000000000000000000000100000000000000000000030001030000030300000000000000000000000000000000000000000000000000000000000000000000000000000000000000000000000000000000000000000000000000
310
00000000000000000000000000000000000000000000000000000000000000000000000000000000000000000000000000000000000000000000000000000000000000000000000000000000000303030303030300000003010303000000000000000000010000000000000000000303010303000003000000000000000000
310
00000000000000000000000000000000000000000000000000000000000000000000000000000000000000000000000000000000000000000000000000000000000000000000000000000000000000000000000000000000000000000000000000000000000000000000000000000000000000000000000000000000000000
310
00000003030303030303010101030303030301010101010101010301010101010101010303030103010101030100000000000000000000000000000000000000000000000000000000000000000000000000000000000000000000000000000000000000000000000000000000000000000000000000000000000000000000
310
00000000000000000000000000000000000000000000000000000000000000000000000000000000000000000000000000000000000000000303030303030300000000030303030300000000000103030301000000000003030303000300000003000000000000000000000000000000000000000000000000000000000000
310
00000000000000000000000000000000000000000000000000000000000000000000000000000000000000000000000000000000000000000000000000000000000000000000000000000000000000000000000000000000000000000000000000000000000000000000000000000000000001010100000000010301010303
310
03000000030303000000030303010101030100000001010100000000000000000000000000000000000000000000000000000000000000000000000000000000000000000000000000000000000000000000000000000000000000000000000000000000000000000000000000000000000000000000000000000000000000
310
00000000000000000000000000000000000000000000000000000000000000000000000000000000030303030303030303030101030303030303030303030303030101030303030303030303030000000000000000000000000000000000000000000000000000000000000000000000000000000000000000000000000000
310
00000000000000000000000000000000000000000000000000000000000000000000000000000000000000000000000000000000000000000000000000000000000000000000000000000000000000000000000000000000000000000000000003000001000003030301010103030303030303010101030303000001000003
310
00000000000000000000000000000000000000000000000000000000000000000000000000000000000000000000000000000000000000000000000000000000000000000000000000000000000000000000000000000000000000000000000000000000000000000000000000000000000000000000000000000000000000
310
00000000000000000000000000000000000000000000030003030000000303030301010101030301010103030303000000030300030000000000000000000000000000000000000000000000000000000000000000000000000000000000000000000000000000000000000000000000000000000000000000000000000000
310
00000000000000000000000000000000000000000000000000000000000000000000000000000000000000000000000000000000000000000000000000000000000000000000000000000003010303010000030300030303030303030303030300030300000103030103000000000000000000000000000000000000000000
310
00000000000000000000000000000000000000000000000000000000000000000000000000000000000000000000000000000000000000000000000000000000000000000000000000000000000000000000000000000000000000000000000000000000000000000000000000000000000000000000000000000000000000
310
00030000010000000303000000000003030300000000000303000000010000030000000000000000000000000000000000000000000000000000000000000000000000000000000000000000000000000000000000000000000000000000000000000000000000000000000000000000000000000000000000000000000000
310
00000000000000000000000000000000000000000000000000000000000000000000000000000000000000000000000000000000000003030303030303030300000000000000000000000000030303030303030303000000000000000000000000000000000000000000000000000000000000000000000000000000000000
310
00000000000000000000000000000000000000000000000000000000000000000000000000000000000000000000000000000000000000000000000000000000000000000000000000000000000000000000000000000000000000000000000000000000000000000000000000000000000000000000000000000000000000
310
00000000000000000000000000000000000000000000000000000000000000000000000000000000000000000000000000000000000000000000000000000000000000000000000000000000000000000000000000000000000000000000000000000000000000000000000000000000000000000000000000000000000000
310
00000000000000000000000000000000000000000000000000000000000000000000000000000000000000000000000000000000000000000000000000000000000000000000000000000000000000000000000000000000000000000000000000000000000000000000000000000000000000000000000000000000000000
310
00000000000000000000000000000000000000000000000000000000000000000000000000000000000000000000000000000000000000000000000000000000000000000000000000000000000000000000000000000000000000000000000000000000000000000000000000000000000000000000000000000000000000
310
000000000000000000000000000000000000000000000000000000000000000000000000000000000000000000000000000000000000000000000000000000000000000000000000000000000000000000000000000000000000000000000000000000000000000000000000
  0
ENDSEC
  0
EOF
