  0
SECTION
  2
HEADER
  9
$ACADVER
  1
AC1015
  9
$ACADMAINTVER
 70
     6
  9
$DWGCODEPAGE
  3
ANSI_932
  9
$INSBASE
 10
2338.924747886368
 20
1439.730190057071
 30
0.0
  9
$EXTMIN
 10
250.8802790135574
 20
23.81112765135515
 30
0.0
  9
$EXTMAX
 10
2217.126981274096
 20
1828.680130506027
 30
0.0
  9
$LIMMIN
 10
0.0
 20
0.0
  9
$LIMMAX
 10
4200.0
 20
2970.0
  9
$ORTHOMODE
 70
     1
  9
$REGENMODE
 70
     1
  9
$FILLMODE
 70
     1
  9
$QTEXTMODE
 70
     0
  9
$MIRRTEXT
 70
     1
  9
$LTSCALE
 40
30.0
  9
$ATTMODE
 70
     1
  9
$TEXTSIZE
 40
12.0
  9
$TRACEWID
 40
0.05
  9
$TEXTSTYLE
  7
STANDARD
  9
$CLAYER
  8
2
  9
$CELTYPE
  6
BYLAYER
  9
$CECOLOR
 62
   256
  9
$CELTSCALE
 40
1.0
  9
$DISPSILH
 70
     0
  9
$DIMSCALE
 40
6.0
  9
$DIMASZ
 40
2.0
  9
$DIMEXO
 40
0.5
  9
$DIMDLI
 40
0.0
  9
$DIMRND
 40
0.0
  9
$DIMDLE
 40
0.0
  9
$DIMEXE
 40
1.0
  9
$DIMTP
 40
0.0
  9
$DIMTM
 40
0.0
  9
$DIMTXT
 40
3.0
  9
$DIMCEN
 40
0.09
  9
$DIMTSZ
 40
0.0
  9
$DIMTOL
 70
     0
  9
$DIMLIM
 70
     0
  9
$DIMTIH
 70
     0
  9
$DIMTOH
 70
     0
  9
$DIMSE1
 70
     0
  9
$DIMSE2
 70
     0
  9
$DIMTAD
 70
     0
  9
$DIMZIN
 70
     8
  9
$DIMBLK
  1

  9
$DIMASO
 70
     0
  9
$DIMSHO
 70
     0
  9
$DIMPOST
  1

  9
$DIMAPOST
  1

  9
$DIMALT
 70
     0
  9
$DIMALTD
 70
     2
  9
$DIMALTF
 40
25.4
  9
$DIMLFAC
 40
1.0
  9
$DIMTOFL
 70
     1
  9
$DIMTVP
 40
1.0
  9
$DIMTIX
 70
     1
  9
$DIMSOXD
 70
     1
  9
$DIMSAH
 70
     0
  9
$DIMBLK1
  1

  9
$DIMBLK2
  1

  9
$DIMSTYLE
  2
STANDARD
  9
$DIMCLRD
 70
   256
  9
$DIMCLRE
 70
   256
  9
$DIMCLRT
 70
     2
  9
$DIMTFAC
 40
1.0
  9
$DIMGAP
 40
0.09
  9
$DIMJUST
 70
     0
  9
$DIMSD1
 70
     0
  9
$DIMSD2
 70
     0
  9
$DIMTOLJ
 70
     1
  9
$DIMTZIN
 70
     0
  9
$DIMALTZ
 70
     0
  9
$DIMALTTZ
 70
     0
  9
$DIMUPT
 70
     0
  9
$DIMDEC
 70
     3
  9
$DIMTDEC
 70
     3
  9
$DIMALTU
 70
     2
  9
$DIMALTTD
 70
     2
  9
$DIMTXSTY
  7
STANDARD
  9
$DIMAUNIT
 70
     0
  9
$DIMADEC
 70
     0
  9
$DIMALTRND
 40
0.0
  9
$DIMAZIN
 70
     0
  9
$DIMDSEP
 70
    46
  9
$DIMATFIT
 70
     3
  9
$DIMFRAC
 70
     0
  9
$DIMLDRBLK
  1

  9
$DIMLUNIT
 70
     2
  9
$DIMLWD
 70
    -2
  9
$DIMLWE
 70
    -2
  9
$DIMTMOVE
 70
     0
  9
$LUNITS
 70
     2
  9
$LUPREC
 70
     3
  9
$SKETCHINC
 40
0.1
  9
$FILLETRAD
 40
15.0
  9
$AUNITS
 70
     0
  9
$AUPREC
 70
     3
  9
$MENU
  1
C:\R13\WIN\SUPPORT\ACADFULL
  9
$ELEVATION
 40
0.0
  9
$PELEVATION
 40
0.0
  9
$THICKNESS
 40
0.0
  9
$LIMCHECK
 70
     0
  9
$CHAMFERA
 40
0.0
  9
$CHAMFERB
 40
0.0
  9
$CHAMFERC
 40
0.0
  9
$CHAMFERD
 40
0.0
  9
$SKPOLY
 70
     0
  9
$TDCREATE
 40
2450157.58412037
  9
$TDUCREATE
 40
2450157.20912037
  9
$TDUPDATE
 40
2458115.677501991
  9
$TDUUPDATE
 40
2458115.302501991
  9
$TDINDWG
 40
0.6449453588
  9
$TDUSRTIMER
 40
0.6449428356
  9
$USRTIMER
 70
     1
  9
$ANGBASE
 50
0.0
  9
$ANGDIR
 70
     0
  9
$PDMODE
 70
     0
  9
$PDSIZE
 40
0.0
  9
$PLINEWID
 40
0.0
  9
$SPLFRAME
 70
     0
  9
$SPLINETYPE
 70
     6
  9
$SPLINESEGS
 70
     8
  9
$HANDSEED
  5
720
  9
$SURFTAB1
 70
     6
  9
$SURFTAB2
 70
     6
  9
$SURFTYPE
 70
     6
  9
$SURFU
 70
     6
  9
$SURFV
 70
     6
  9
$UCSBASE
  2

  9
$UCSNAME
  2

  9
$UCSORG
 10
0.0
 20
0.0
 30
0.0
  9
$UCSXDIR
 10
1.0
 20
0.0
 30
0.0
  9
$UCSYDIR
 10
0.0
 20
1.0
 30
0.0
  9
$UCSORTHOREF
  2

  9
$UCSORTHOVIEW
 70
     0
  9
$UCSORGTOP
 10
0.0
 20
0.0
 30
0.0
  9
$UCSORGBOTTOM
 10
0.0
 20
0.0
 30
0.0
  9
$UCSORGLEFT
 10
0.0
 20
0.0
 30
0.0
  9
$UCSORGRIGHT
 10
0.0
 20
0.0
 30
0.0
  9
$UCSORGFRONT
 10
0.0
 20
0.0
 30
0.0
  9
$UCSORGBACK
 10
0.0
 20
0.0
 30
0.0
  9
$PUCSBASE
  2

  9
$PUCSNAME
  2

  9
$PUCSORG
 10
0.0
 20
0.0
 30
0.0
  9
$PUCSXDIR
 10
1.0
 20
0.0
 30
0.0
  9
$PUCSYDIR
 10
0.0
 20
1.0
 30
0.0
  9
$PUCSORTHOREF
  2

  9
$PUCSORTHOVIEW
 70
     0
  9
$PUCSORGTOP
 10
0.0
 20
0.0
 30
0.0
  9
$PUCSORGBOTTOM
 10
0.0
 20
0.0
 30
0.0
  9
$PUCSORGLEFT
 10
0.0
 20
0.0
 30
0.0
  9
$PUCSORGRIGHT
 10
0.0
 20
0.0
 30
0.0
  9
$PUCSORGFRONT
 10
0.0
 20
0.0
 30
0.0
  9
$PUCSORGBACK
 10
0.0
 20
0.0
 30
0.0
  9
$USERI1
 70
     0
  9
$USERI2
 70
     0
  9
$USERI3
 70
     0
  9
$USERI4
 70
     0
  9
$USERI5
 70
     0
  9
$USERR1
 40
0.0
  9
$USERR2
 40
0.0
  9
$USERR3
 40
0.0
  9
$USERR4
 40
2448925.372986111
  9
$USERR5
 40
0.04166667
  9
$WORLDVIEW
 70
     1
  9
$SHADEDGE
 70
     3
  9
$SHADEDIF
 70
    70
  9
$TILEMODE
 70
     1
  9
$MAXACTVP
 70
    16
  9
$PINSBASE
 10
0.0
 20
0.0
 30
0.0
  9
$PLIMCHECK
 70
     0
  9
$PEXTMIN
 10
1000000000000000E+20
 20
1000000000000000E+20
 30
1000000000000000E+20
  9
$PEXTMAX
 10
-1000000000000000E+20
 20
-1000000000000000E+20
 30
-1000000000000000E+20
  9
$PLIMMIN
 10
0.0
 20
0.0
  9
$PLIMMAX
 10
12.0
 20
9.0
  9
$UNITMODE
 70
     0
  9
$VISRETAIN
 70
     0
  9
$PLINEGEN
 70
     0
  9
$PSLTSCALE
 70
     0
  9
$TREEDEPTH
 70
  3020
  9
$CMLSTYLE
  2
STANDARD
  9
$CMLJUST
 70
     0
  9
$CMLSCALE
 40
1.0
  9
$PROXYGRAPHICS
 70
     1
  9
$MEASUREMENT
 70
     0
  9
$CELWEIGHT
370
    -1
  9
$ENDCAPS
280
     0
  9
$JOINSTYLE
280
     0
  9
$LWDISPLAY
290
     0
  9
$INSUNITS
 70
     0
  9
$HYPERLINKBASE
  1

  9
$STYLESHEET
  1
monochrome.ctb
  9
$XEDIT
290
     1
  9
$CEPSNTYPE
380
     0
  9
$PSTYLEMODE
290
     1
  9
$FINGERPRINTGUID
  2
{87F7F482-FC05-461E-99B3-FD1EC1C4D1BB}
  9
$VERSIONGUID
  2
{2C917999-45BD-40D5-9508-2847F087CD07}
  9
$EXTNAMES
290
     1
  9
$PSVPSCALE
 40
0.0
  9
$OLESTARTUP
290
     0
  0
ENDSEC
  0
SECTION
  2
CLASSES
  0
CLASS
  1
ACDBDICTIONARYWDFLT
  2
AcDbDictionaryWithDefault
  3
ObjectDBX Classes
 90
        0
280
     0
281
     0
  0
CLASS
  1
MATERIAL
  2
AcDbMaterial
  3
ObjectDBX Classes
 90
     1153
280
     0
281
     0
  0
CLASS
  1
SORTENTSTABLE
  2
AcDbSortentsTable
  3
ObjectDBX Classes
 90
        0
280
     0
281
     0
  0
CLASS
  1
VISUALSTYLE
  2
AcDbVisualStyle
  3
ObjectDBX Classes
 90
     4095
280
     0
281
     0
  0
CLASS
  1
SCALE
  2
AcDbScale
  3
ObjectDBX Classes
 90
     1153
280
     0
281
     0
  0
CLASS
  1
DICTIONARYVAR
  2
AcDbDictionaryVar
  3
ObjectDBX Classes
 90
        0
280
     0
281
     0
  0
CLASS
  1
MLEADERSTYLE
  2
AcDbMLeaderStyle
  3
ACDB_MLEADERSTYLE_CLASS
 90
     4095
280
     0
281
     0
  0
CLASS
  1
TABLESTYLE
  2
AcDbTableStyle
  3
ObjectDBX Classes
 90
     4095
280
     0
281
     0
  0
CLASS
  1
ACDBPLACEHOLDER
  2
AcDbPlaceHolder
  3
ObjectDBX Classes
 90
        0
280
     0
281
     0
  0
CLASS
  1
LAYOUT
  2
AcDbLayout
  3
ObjectDBX Classes
 90
        0
280
     0
281
     0
  0
ENDSEC
  0
SECTION
  2
TABLES
  0
TABLE
  2
VPORT
  5
2C
102
{ACAD_XDICTIONARY
360
6E5
102
}
330
0
100
AcDbSymbolTable
 70
     1
  0
VPORT
  5
34
330
2C
100
AcDbSymbolTableRecord
100
AcDbViewportTableRecord
  2
*ACTIVE
 70
     0
 10
0.0
 20
0.0
 11
1.0
 21
1.0
 12
166.5641242216459
 22
824.9131970100602
 13
0.0
 23
0.0
 14
1.0
 24
1.0
 15
40.0
 25
40.0
 16
0.0
 26
0.0
 36
1138.438156774555
 17
1497.696919839021
 27
159.1917999344669
 37
0.0
 40
2042.671742903824
 41
1.82716049382716
 42
50.0
 43
0.0
 44
0.0
 50
0.0
 51
0.0
 71
     0
 72
  5000
 73
     1
 74
     0
 75
     0
 76
     0
 77
     0
 78
     0
281
     0
 65
     1
110
0.0
120
0.0
130
0.0
111
1.0
121
0.0
131
0.0
112
0.0
122
1.0
132
0.0
 79
     0
146
0.0
1001
ACAD_NAV_VCDISPLAY
1070
     3
  0
ENDTAB
  0
TABLE
  2
LTYPE
  5
D
330
0
100
AcDbSymbolTable
 70
     2
  0
LTYPE
  5
E
330
D
100
AcDbSymbolTableRecord
100
AcDbLinetypeTableRecord
  2
BYBLOCK
 70
     0
  3

 72
    65
 73
     0
 40
0.0
  0
LTYPE
  5
F
330
D
100
AcDbSymbolTableRecord
100
AcDbLinetypeTableRecord
  2
BYLAYER
 70
     0
  3

 72
    65
 73
     0
 40
0.0
  0
LTYPE
  5
C
330
D
100
AcDbSymbolTableRecord
100
AcDbLinetypeTableRecord
  2
CONTINUOUS
 70
     0
  3
Solid line
 72
    65
 73
     0
 40
0.0
  0
LTYPE
  5
79
330
D
100
AcDbSymbolTableRecord
100
AcDbLinetypeTableRecord
  2
CENTER
 70
     0
  3
____ _ ____ _ ____ _ ____ _ ____ _ ____ _ ____
 72
    65
 73
     4
 40
2.0
 49
1.25
 74
     0
 49
-0.25
 74
     0
 49
0.25
 74
     0
 49
-0.25
 74
     0
  0
ENDTAB
  0
TABLE
  2
LAYER
  5
2
102
{ACAD_XDICTIONARY
360
3
102
}
330
0
100
AcDbSymbolTable
 70
     8
  0
LAYER
  5
1D
102
{ACAD_XDICTIONARY
360
1E
102
}
330
2
100
AcDbSymbolTableRecord
100
AcDbLayerTableRecord
  2
0
 70
     0
 62
     7
  6
CONTINUOUS
370
    -3
390
7
  0
LAYER
  5
6D
102
{ACAD_XDICTIONARY
360
6E
102
}
330
2
100
AcDbSymbolTableRecord
100
AcDbLayerTableRecord
  2
4
 70
     0
 62
     3
  6
CONTINUOUS
370
    -3
390
7
  0
LAYER
  5
76
102
{ACAD_XDICTIONARY
360
77
102
}
330
2
100
AcDbSymbolTableRecord
100
AcDbLayerTableRecord
  2
L-CENTER
 70
     0
 62
     1
  6
CENTER
370
    -3
390
7
  0
LAYER
  5
3CF
102
{ACAD_XDICTIONARY
360
3D0
102
}
330
2
100
AcDbSymbolTableRecord
100
AcDbLayerTableRecord
  2
1
 70
     0
 62
     9
  6
CONTINUOUS
370
    -3
390
7
  0
LAYER
  5
1
102
{ACAD_XDICTIONARY
360
5
102
}
330
2
100
AcDbSymbolTableRecord
100
AcDbLayerTableRecord
  2
2
 70
     0
 62
     4
  6
CONTINUOUS
370
    -3
390
7
  0
LAYER
  5
7B
330
2
100
AcDbSymbolTableRecord
100
AcDbLayerTableRecord
  2
3
 70
     0
 62
     2
  6
CONTINUOUS
370
    -3
390
7
1001
AcAecLayerStandard
1000

1000

1001
AcCmTransparency
1071
        0
  0
LAYER
  5
3C9
330
2
100
AcDbSymbolTableRecord
100
AcDbLayerTableRecord
  2
5
 70
     0
 62
     6
  6
CONTINUOUS
370
    -3
390
7
  0
LAYER
  5
66A
330
2
100
AcDbSymbolTableRecord
100
AcDbLayerTableRecord
  2
Defpoints
 70
     0
 62
     7
  6
CONTINUOUS
290
     0
370
    -3
390
7
  0
ENDTAB
  0
TABLE
  2
STYLE
  5
11
330
0
100
AcDbSymbolTable
 70
     2
  0
STYLE
  5
10
330
11
100
AcDbSymbolTableRecord
100
AcDbTextStyleTableRecord
  2
STANDARD
 70
     0
 40
0.0
 41
1.0
 50
0.0
 71
     0
 42
12.0
  3
TXT
  4

  0
STYLE
  5
15
330
11
100
AcDbSymbolTableRecord
100
AcDbTextStyleTableRecord
  2
KANJI
 70
     0
 40
0.0
 41
1.0
 50
0.0
 71
     0
 42
12.0
  3
TXT
  4
BIGFONT
  0
ENDTAB
  0
TABLE
  2
VIEW
  5
2A
330
0
100
AcDbSymbolTable
 70
     0
  0
ENDTAB
  0
TABLE
  2
UCS
  5
2B
330
0
100
AcDbSymbolTable
 70
     0
  0
ENDTAB
  0
TABLE
  2
APPID
  5
25
330
0
100
AcDbSymbolTable
 70
     6
  0
APPID
  5
33
330
25
100
AcDbSymbolTableRecord
100
AcDbRegAppTableRecord
  2
ACAD
 70
     0
  0
APPID
  5
36
330
25
100
AcDbSymbolTableRecord
100
AcDbRegAppTableRecord
  2
ACAD_NAV_VCDISPLAY
 70
     0
  0
APPID
  5
7C
330
25
100
AcDbSymbolTableRecord
100
AcDbRegAppTableRecord
  2
AcAecLayerStandard
 70
     0
  0
APPID
  5
7D
330
25
100
AcDbSymbolTableRecord
100
AcDbRegAppTableRecord
  2
AcCmTransparency
 70
     0
  0
APPID
  5
24
330
25
100
AcDbSymbolTableRecord
100
AcDbRegAppTableRecord
  2
ACAD_PSEXT
 70
     0
  0
APPID
  5
636
330
25
100
AcDbSymbolTableRecord
100
AcDbRegAppTableRecord
  2
ACAD_MLEADERVER
 70
     0
  0
ENDTAB
  0
TABLE
  2
DIMSTYLE
  5
14
330
0
100
AcDbSymbolTable
 70
     1
100
AcDbDimStyleTable
  0
DIMSTYLE
105
13
330
14
100
AcDbSymbolTableRecord
100
AcDbDimStyleTableRecord
  2
STANDARD
 70
     0
178
     0
271
     3
272
     3
279
     2
340
15
  0
ENDTAB
  0
TABLE
  2
BLOCK_RECORD
  5
18
330
0
100
AcDbSymbolTable
 70
     0
  0
BLOCK_RECORD
  5
19
102
{ACAD_XDICTIONARY
360
1A
102
}
330
18
100
AcDbSymbolTableRecord
100
AcDbBlockTableRecord
  2
*MODEL_SPACE
340
21
  0
BLOCK_RECORD
  5
26
330
18
100
AcDbSymbolTableRecord
100
AcDbBlockTableRecord
  2
*PAPER_SPACE
340
29
  0
ENDTAB
  0
ENDSEC
  0
SECTION
  2
BLOCKS
  0
BLOCK
  5
1C
330
19
100
AcDbEntity
  8
0
100
AcDbBlockBegin
  2
*MODEL_SPACE
 70
     0
 10
0.0
 20
0.0
 30
0.0
  3
*MODEL_SPACE
  1

  0
ENDBLK
  5
20
330
19
100
AcDbEntity
  8
0
100
AcDbBlockEnd
  0
BLOCK
  5
27
330
26
100
AcDbEntity
 67
     1
  8
0
100
AcDbBlockBegin
  2
*PAPER_SPACE
 70
     0
 10
0.0
 20
0.0
 30
0.0
  3
*PAPER_SPACE
  1

  0
ENDBLK
  5
28
330
26
100
AcDbEntity
 67
     1
  8
0
100
AcDbBlockEnd
  0
ENDSEC
  0
SECTION
  2
ENTITIES
  0
LINE
  5
6C
330
19
100
AcDbEntity
  8
4
100
AcDbLine
 10
845.9298662783463
 20
664.1493346040688
 30
0.0
 11
823.9905560491402
 21
664.1493346040688
 31
0.0
  0
LINE
  5
70
330
19
100
AcDbEntity
  8
4
100
AcDbLine
 10
845.9298662783463
 20
661.1493346040688
 30
0.0
 11
823.9905560491402
 21
661.1493346040688
 31
0.0
  0
LINE
  5
71
330
19
100
AcDbEntity
  8
4
100
AcDbLine
 10
826.7329698277913
 20
672.1493346040688
 30
0.0
 11
843.1874524996952
 21
672.1493346040688
 31
0.0
  0
ARC
  5
72
330
19
100
AcDbEntity
  8
4
100
AcDbCircle
 10
834.9602111637437
 20
658.3535904688915
 30
0.0
 40
13.7957441351769
100
AcDbArc
 50
66.57340249137164
 51
113.4265975086284
  0
LINE
  5
7F
330
19
100
AcDbEntity
  8
4
100
AcDbLine
 10
1044.155181454216
 20
388.1493346040688
 30
0.0
 11
396.1551814542163
 21
388.1493346040688
 31
0.0
  0
LINE
  5
80
330
19
100
AcDbEntity
  8
L-CENTER
100
AcDbLine
 10
1189.430083894877
 20
488.1493346040697
 30
0.0
 11
250.8802790135569
 21
488.1493346040697
 31
0.0
  0
LINE
  5
81
330
19
100
AcDbEntity
  8
4
100
AcDbLine
 10
870.1551814542172
 20
397.1493346040688
 30
0.0
 11
570.1551814542172
 21
397.1493346040688
 31
0.0
  0
LINE
  5
82
330
19
100
AcDbEntity
  8
4
100
AcDbLine
 10
1044.155181454217
 20
633.1493346040688
 30
0.0
 11
396.1551814542172
 21
633.1493346040688
 31
0.0
  0
LINE
  5
83
330
19
100
AcDbEntity
  8
4
100
AcDbLine
 10
435.1551814542172
 20
677.1493346040688
 30
0.0
 11
1005.155181454217
 21
677.1493346040688
 31
0.0
  0
LINE
  5
84
330
19
100
AcDbEntity
  8
4
100
AcDbLine
 10
1035.15503937934
 20
661.1493346040688
 30
0.0
 11
405.1550393793395
 21
661.1493346040688
 31
0.0
  0
LINE
  5
85
330
19
100
AcDbEntity
  8
4
100
AcDbLine
 10
1005.15503937934
 20
677.1493346040688
 30
0.0
 11
435.1550393793395
 21
677.1493346040688
 31
0.0
  0
LINE
  5
86
330
19
100
AcDbEntity
  8
4
100
AcDbLine
 10
935.1550393793395
 20
692.1493346040688
 30
0.0
 11
755.1550393793395
 21
692.1493346040688
 31
0.0
  0
LINE
  5
87
330
19
100
AcDbEntity
  8
4
100
AcDbLine
 10
870.1550393793395
 20
373.1493346040688
 30
0.0
 11
755.1550393793395
 21
373.1493346040688
 31
0.0
  0
LINE
  5
97
330
19
100
AcDbEntity
  8
L-CENTER
100
AcDbLine
 10
720.1551814542172
 20
364.5052785344888
 30
0.0
 11
720.1551814542172
 21
775.9357984901394
 31
0.0
  0
LINE
  5
98
330
19
100
AcDbEntity
  8
4
100
AcDbLine
 10
396.1551814542172
 20
633.1493346040688
 30
0.0
 11
396.1551814542163
 21
388.1493346040688
 31
0.0
  0
LINE
  5
99
330
19
100
AcDbEntity
  8
4
100
AcDbLine
 10
384.1551814542172
 20
563.1493346040697
 30
0.0
 11
384.1551814542172
 21
413.1493346040706
 31
0.0
  0
LINE
  5
9A
330
19
100
AcDbEntity
  8
4
100
AcDbLine
 10
372.1551814542163
 20
560.1493346040697
 30
0.0
 11
372.1551814542163
 21
416.1493346040706
 31
0.0
  0
LINE
  5
9B
330
19
100
AcDbEntity
  8
L-CENTER
100
AcDbLine
 10
623.8070393793389
 20
697.1493346040688
 30
0.0
 11
623.8070393793396
 21
192.9649391772814
 31
0.0
  0
LINE
  5
9C
330
19
100
AcDbEntity
  8
4
100
AcDbLine
 10
558.1551814542172
 20
397.1493346040688
 30
0.0
 11
396.1551814542163
 21
397.1493346040688
 31
0.0
  0
LINE
  5
9D
330
19
100
AcDbEntity
  8
4
100
AcDbLine
 10
570.1551814542163
 20
348.1493346040688
 30
0.0
 11
410.1551814542163
 21
348.1493346040688
 31
0.0
  0
ARC
  5
9E
330
19
100
AcDbEntity
  8
4
100
AcDbCircle
 10
376.4343467516755
 20
436.8843346040694
 30
0.0
 40
13.77916529745958
100
AcDbArc
 50
159.1359356360806
 51
200.8640643639194
  0
LINE
  5
9F
330
19
100
AcDbEntity
  8
4
100
AcDbLine
 10
362.6551814542163
 20
444.2455505362368
 30
0.0
 11
362.6551814542163
 21
429.523118671902
 31
0.0
  0
LINE
  5
A0
330
19
100
AcDbEntity
  8
4
100
AcDbLine
 10
369.6551814542163
 20
427.0693800278459
 30
0.0
 11
369.6551814542163
 21
446.6992891802938
 31
0.0
  0
LINE
  5
A1
330
19
100
AcDbEntity
  8
4
100
AcDbLine
 10
372.1551814542163
 20
427.0693800278459
 30
0.0
 11
372.1551814542163
 21
446.6992891802938
 31
0.0
  0
LINE
  5
A2
330
19
100
AcDbEntity
  8
4
100
AcDbLine
 10
410.1551814542163
 20
388.1493346040688
 30
0.0
 11
410.1551814542163
 21
348.1493346040688
 31
0.0
  0
LINE
  5
A3
330
19
100
AcDbEntity
  8
4
 48
0.8
100
AcDbLine
 10
396.1551814542172
 20
413.1493346040706
 30
0.0
 11
384.1551814542172
 21
413.1493346040706
 31
0.0
  0
LINE
  5
A4
330
19
100
AcDbEntity
  8
4
100
AcDbLine
 10
396.1551814542172
 20
413.1493346040697
 30
0.0
 11
384.1551814542172
 21
413.1493346040706
 31
0.0
  0
LINE
  5
A5
330
19
100
AcDbEntity
  8
L-CENTER
100
AcDbLine
 10
400.2462581519931
 20
436.8843346040694
 30
0.0
 11
359.7872031996358
 21
436.8843346040694
 31
0.0
  0
LINE
  5
A6
330
19
100
AcDbEntity
  8
4
 48
0.8
100
AcDbLine
 10
372.1551814542172
 20
416.1493346040697
 30
0.0
 11
384.1551814542163
 21
416.1493346040697
 31
0.0
  0
LINE
  5
A7
330
19
100
AcDbEntity
  8
4
100
AcDbLine
 10
363.558708400069
 20
431.9768573159572
 30
0.0
 11
369.6551814542163
 21
431.9768573159572
 31
0.0
  0
LINE
  5
A8
330
19
100
AcDbEntity
  8
4
100
AcDbLine
 10
363.558708400069
 20
427.0693800278459
 30
0.0
 11
372.1551814542163
 21
427.0693800278459
 31
0.0
  0
ARC
  5
A9
330
19
100
AcDbEntity
  8
4
100
AcDbCircle
 10
366.4387953832756
 20
429.523118671902
 30
0.0
 40
3.783613929059507
100
AcDbArc
 50
139.5701031551772
 51
220.4298968448228
  0
LINE
  5
AA
330
19
100
AcDbEntity
  8
L-CENTER
100
AcDbLine
 10
470.1551814542163
 20
408.1493346040688
 30
0.0
 11
470.1551814542172
 21
328.1493346040697
 31
0.0
  0
LINE
  5
AB
330
19
100
AcDbEntity
  8
4
100
AcDbLine
 10
363.558708400069
 20
441.7918118921816
 30
0.0
 11
369.6551814542163
 21
441.7918118921816
 31
0.0
  0
ARC
  5
AC
330
19
100
AcDbEntity
  8
4
100
AcDbCircle
 10
366.4387953832756
 20
444.2455505362368
 30
0.0
 40
3.783613929059507
100
AcDbArc
 50
139.5701031551772
 51
220.4298968448228
  0
LINE
  5
AD
330
19
100
AcDbEntity
  8
4
100
AcDbLine
 10
372.1551814542163
 20
446.6992891802938
 30
0.0
 11
363.558708400069
 21
446.6992891802938
 31
0.0
  0
LINE
  5
AE
330
19
100
AcDbEntity
  8
L-CENTER
100
AcDbLine
 10
400.2462581519931
 20
539.4143346040701
 30
0.0
 11
359.7872031996358
 21
539.4143346040701
 31
0.0
  0
ARC
  5
AF
330
19
100
AcDbEntity
  8
4
100
AcDbCircle
 10
366.4387953832756
 20
546.7755505362375
 30
0.0
 40
3.783613929059507
100
AcDbArc
 50
139.5701031551772
 51
220.4298968448228
  0
LINE
  5
B0
330
19
100
AcDbEntity
  8
4
100
AcDbLine
 10
372.1551814542163
 20
549.2292891802927
 30
0.0
 11
363.558708400069
 21
549.2292891802927
 31
0.0
  0
LINE
  5
B1
330
19
100
AcDbEntity
  8
4
100
AcDbLine
 10
362.6551814542163
 20
546.7755505362375
 30
0.0
 11
362.6551814542163
 21
532.0531186719018
 31
0.0
  0
LINE
  5
B2
330
19
100
AcDbEntity
  8
4
100
AcDbLine
 10
369.6551814542163
 20
529.5993800278457
 30
0.0
 11
369.6551814542163
 21
549.2292891802927
 31
0.0
  0
LINE
  5
B3
330
19
100
AcDbEntity
  8
4
100
AcDbLine
 10
372.1551814542163
 20
529.5993800278457
 30
0.0
 11
372.1551814542163
 21
549.2292891802927
 31
0.0
  0
LINE
  5
B4
330
19
100
AcDbEntity
  8
4
100
AcDbLine
 10
363.558708400069
 20
544.3218118921814
 30
0.0
 11
369.6551814542163
 21
544.3218118921814
 31
0.0
  0
LINE
  5
B5
330
19
100
AcDbEntity
  8
4
100
AcDbLine
 10
363.558708400069
 20
534.5068573159579
 30
0.0
 11
369.6551814542163
 21
534.5068573159579
 31
0.0
  0
ARC
  5
B6
330
19
100
AcDbEntity
  8
4
100
AcDbCircle
 10
376.4343467516755
 20
539.4143346040701
 30
0.0
 40
13.77916529745958
100
AcDbArc
 50
159.1359356360806
 51
200.8640643639194
  0
LINE
  5
B7
330
19
100
AcDbEntity
  8
4
100
AcDbLine
 10
363.558708400069
 20
529.5993800278457
 30
0.0
 11
372.1551814542163
 21
529.5993800278457
 31
0.0
  0
ARC
  5
B8
330
19
100
AcDbEntity
  8
4
100
AcDbCircle
 10
366.4387953832756
 20
532.0531186719018
 30
0.0
 40
3.783613929059507
100
AcDbArc
 50
139.5701031551772
 51
220.4298968448228
  0
LINE
  5
B9
330
19
100
AcDbEntity
  8
4
100
AcDbLine
 10
738.8070393793396
 20
373.1493346040688
 30
0.0
 11
570.1550393793395
 21
373.1493346040688
 31
0.0
  0
LINE
  5
BA
330
19
100
AcDbEntity
  8
4
100
AcDbLine
 10
570.1551814542172
 20
432.55710377791
 30
0.0
 11
570.1551814542163
 21
348.1493346040688
 31
0.0
  0
LINE
  5
BB
330
19
100
AcDbEntity
  8
4
100
AcDbLine
 10
558.1551814542172
 20
432.55710377791
 30
0.0
 11
558.1551814542172
 21
388.1493346040688
 31
0.0
  0
LINE
  5
BC
330
19
100
AcDbEntity
  8
4
100
AcDbLine
 10
570.1551814542172
 20
432.55710377791
 30
0.0
 11
558.1551814542163
 21
432.55710377791
 31
0.0
  0
LINE
  5
BD
330
19
100
AcDbEntity
  8
L-CENTER
100
AcDbLine
 10
623.8070393793396
 20
557.1493346040706
 30
0.0
 11
623.8070393793396
 21
557.1493346040706
 31
0.0
  0
LINE
  5
BE
330
19
100
AcDbEntity
  8
L-CENTER
100
AcDbLine
 10
694.5177174979952
 20
401.585290021681
 30
0.0
 11
694.5177174979952
 21
360.7813563494892
 31
0.0
  0
LINE
  5
BF
330
19
100
AcDbEntity
  8
4
100
AcDbLine
 10
755.1550393793395
 20
373.1493346040688
 30
0.0
 11
755.1550393793395
 21
388.1493346040688
 31
0.0
  0
LINE
  5
C0
330
19
100
AcDbEntity
  8
4
100
AcDbLine
 10
738.8070393793396
 20
373.1493346040688
 30
0.0
 11
738.8070393793396
 21
388.1493346040688
 31
0.0
  0
ARC
  5
C1
330
19
100
AcDbEntity
  8
4
100
AcDbCircle
 10
687.1565015658269
 20
367.4329485331282
 30
0.0
 40
3.783613929059507
100
AcDbArc
 50
229.5701031551699
 51
310.4298968448301
  0
LINE
  5
C2
330
19
100
AcDbEntity
  8
4
100
AcDbLine
 10
689.610240209883
 20
364.5528615499206
 30
0.0
 11
689.610240209883
 21
370.6493346040688
 31
0.0
  0
LINE
  5
C3
330
19
100
AcDbEntity
  8
4
100
AcDbLine
 10
684.7027629217718
 20
373.1493346040688
 30
0.0
 11
684.7027629217718
 21
364.5528615499206
 31
0.0
  0
ARC
  5
C4
330
19
100
AcDbEntity
  8
4
100
AcDbCircle
 10
701.8789334301626
 20
367.4329485331282
 30
0.0
 40
3.783613929059507
100
AcDbArc
 50
229.5701031551699
 51
310.4298968448301
  0
LINE
  5
C5
330
19
100
AcDbEntity
  8
4
100
AcDbLine
 10
704.3326720742187
 20
364.5528615499206
 30
0.0
 11
704.3326720742187
 21
373.1493346040688
 31
0.0
  0
LINE
  5
C6
330
19
100
AcDbEntity
  8
4
100
AcDbLine
 10
699.4251947861065
 20
364.5528615499206
 30
0.0
 11
699.4251947861065
 21
370.6493346040688
 31
0.0
  0
LINE
  5
C7
330
19
100
AcDbEntity
  8
4
100
AcDbLine
 10
704.3326720742187
 20
370.6493346040688
 30
0.0
 11
684.7027629217718
 21
370.6493346040688
 31
0.0
  0
LINE
  5
C8
330
19
100
AcDbEntity
  8
4
100
AcDbLine
 10
704.3326720742187
 20
373.1493346040688
 30
0.0
 11
684.7027629217718
 21
373.1493346040688
 31
0.0
  0
ARC
  5
C9
330
19
100
AcDbEntity
  8
4
100
AcDbCircle
 10
694.5177174979952
 20
377.4284999015281
 30
0.0
 40
13.77916529745958
100
AcDbArc
 50
249.1359356360801
 51
290.8640643639195
  0
LINE
  5
CA
330
19
100
AcDbEntity
  8
4
100
AcDbLine
 10
687.1565015658269
 20
363.6493346040688
 30
0.0
 11
701.8789334301626
 21
363.6493346040688
 31
0.0
  0
LINE
  5
CB
330
19
100
AcDbEntity
  8
L-CENTER
100
AcDbLine
 10
792.1221728652216
 20
401.585290021681
 30
0.0
 11
792.1221728652216
 21
360.7813563494892
 31
0.0
  0
ARC
  5
CC
330
19
100
AcDbEntity
  8
4
100
AcDbCircle
 10
799.483388797389
 20
367.4329485331282
 30
0.0
 40
3.783613929059507
100
AcDbArc
 50
229.5701031551699
 51
310.4298968448301
  0
LINE
  5
CD
330
19
100
AcDbEntity
  8
4
100
AcDbLine
 10
801.9371274414451
 20
370.6493346040688
 30
0.0
 11
782.3072182889981
 21
370.6493346040688
 31
0.0
  0
LINE
  5
CE
330
19
100
AcDbEntity
  8
4
100
AcDbLine
 10
801.9371274414451
 20
373.1493346040688
 30
0.0
 11
782.3072182889981
 21
373.1493346040688
 31
0.0
  0
LINE
  5
CF
330
19
100
AcDbEntity
  8
4
100
AcDbLine
 10
784.7609569330533
 20
363.6493346040688
 30
0.0
 11
799.483388797389
 21
363.6493346040688
 31
0.0
  0
ARC
  5
D0
330
19
100
AcDbEntity
  8
4
100
AcDbCircle
 10
784.7609569330533
 20
367.4329485331282
 30
0.0
 40
3.783613929059507
100
AcDbArc
 50
229.5701031551699
 51
310.4298968448301
  0
LINE
  5
D1
330
19
100
AcDbEntity
  8
4
100
AcDbLine
 10
787.2146955771094
 20
364.5528615499206
 30
0.0
 11
787.2146955771094
 21
370.6493346040688
 31
0.0
  0
LINE
  5
D2
330
19
100
AcDbEntity
  8
4
100
AcDbLine
 10
782.3072182889981
 20
373.1493346040688
 30
0.0
 11
782.3072182889981
 21
364.5528615499206
 31
0.0
  0
LINE
  5
D3
330
19
100
AcDbEntity
  8
4
100
AcDbLine
 10
797.0296501533329
 20
364.5528615499206
 30
0.0
 11
797.0296501533329
 21
370.6493346040688
 31
0.0
  0
ARC
  5
D4
330
19
100
AcDbEntity
  8
4
100
AcDbCircle
 10
792.1221728652216
 20
377.4284999015281
 30
0.0
 40
13.77916529745958
100
AcDbArc
 50
249.1359356360801
 51
290.8640643639195
  0
LINE
  5
D5
330
19
100
AcDbEntity
  8
4
100
AcDbLine
 10
801.9371274414451
 20
364.5528615499206
 30
0.0
 11
801.9371274414451
 21
373.1493346040688
 31
0.0
  0
LINE
  5
D6
330
19
100
AcDbEntity
  8
4
100
AcDbLine
 10
697.6550393793395
 20
692.1493346040688
 30
0.0
 11
508.8070393793396
 21
692.1493346040688
 31
0.0
  0
LINE
  5
D7
330
19
100
AcDbEntity
  8
4
100
AcDbLine
 10
508.8070393793396
 20
692.1493346040688
 30
0.0
 11
508.8070393793396
 21
677.1493346040688
 31
0.0
  0
LINE
  5
D8
330
19
100
AcDbEntity
  8
4
100
AcDbLine
 10
405.1551814542172
 20
661.1493346040688
 30
0.0
 11
435.1551814542172
 21
661.1493346040688
 31
0.0
  0
LINE
  5
D9
330
19
100
AcDbEntity
  8
4
 48
0.8
100
AcDbLine
 10
396.1551814542172
 20
563.1493346040697
 30
0.0
 11
384.1551814542172
 21
563.1493346040697
 31
0.0
  0
LINE
  5
DA
330
19
100
AcDbEntity
  8
4
100
AcDbLine
 10
396.1551814542172
 20
563.1493346040697
 30
0.0
 11
384.1551814542172
 21
563.1493346040706
 31
0.0
  0
LINE
  5
DB
330
19
100
AcDbEntity
  8
4
 48
0.8
100
AcDbLine
 10
372.1551814542172
 20
560.1493346040688
 30
0.0
 11
384.1551814542163
 21
560.1493346040697
 31
0.0
  0
LINE
  5
DC
330
19
100
AcDbEntity
  8
4
100
AcDbLine
 10
405.1551814542172
 20
643.1493346040688
 30
0.0
 11
405.1551814542172
 21
633.1493346040688
 31
0.0
  0
LINE
  5
DD
330
19
100
AcDbEntity
  8
4
100
AcDbLine
 10
405.1551814542172
 20
661.1493346040688
 30
0.0
 11
405.1551814542172
 21
643.1493346040688
 31
0.0
  0
LINE
  5
DE
330
19
100
AcDbEntity
  8
4
100
AcDbLine
 10
405.1550393793395
 20
633.1493346040688
 30
0.0
 11
405.1550393793395
 21
661.1493346040688
 31
0.0
  0
ARC
  5
DF
330
19
100
AcDbEntity
  8
4
100
AcDbCircle
 10
442.9913217008313
 20
658.3535904688915
 30
0.0
 40
13.7957441351769
100
AcDbArc
 50
66.57340249137185
 51
113.4265975086282
  0
LINE
  5
E0
330
19
100
AcDbEntity
  8
4
100
AcDbLine
 10
451.2185630367837
 20
672.1493346040688
 30
0.0
 11
434.7640803648799
 21
672.1493346040688
 31
0.0
  0
LINE
  5
E1
330
19
100
AcDbEntity
  8
4
100
AcDbLine
 10
432.0216665862288
 20
661.1493346040688
 30
0.0
 11
453.9609768154348
 21
661.1493346040688
 31
0.0
  0
LINE
  5
E2
330
19
100
AcDbEntity
  8
4
100
AcDbLine
 10
432.0216665862288
 20
664.1493346040688
 30
0.0
 11
453.9609768154348
 21
664.1493346040688
 31
0.0
  0
LINE
  5
E3
330
19
100
AcDbEntity
  8
4
100
AcDbLine
 10
437.5064941435301
 20
671.0121536934421
 30
0.0
 11
437.5064941435301
 21
664.1493346040688
 31
0.0
  0
LINE
  5
E4
330
19
100
AcDbEntity
  8
4
100
AcDbLine
 10
432.0216665862288
 20
671.0121536934421
 30
0.0
 11
432.0216665862288
 21
661.1493346040688
 31
0.0
  0
ARC
  5
E5
330
19
100
AcDbEntity
  8
4
100
AcDbCircle
 10
434.7640803648799
 20
668.2739557287896
 30
0.0
 40
3.875378875279244
100
AcDbArc
 50
44.955926762744
 51
135.044073237256
  0
ARC
  5
E6
330
19
100
AcDbEntity
  8
4
100
AcDbCircle
 10
451.2185630367837
 20
668.2739557287896
 30
0.0
 40
3.875378875279264
100
AcDbArc
 50
44.955926762744
 51
135.044073237256
  0
LINE
  5
E7
330
19
100
AcDbEntity
  8
4
100
AcDbLine
 10
448.4761492581326
 20
671.0121536934421
 30
0.0
 11
448.4761492581326
 21
664.1493346040688
 31
0.0
  0
LINE
  5
E8
330
19
100
AcDbEntity
  8
4
100
AcDbLine
 10
453.9609768154348
 20
661.1493346040688
 30
0.0
 11
453.9609768154348
 21
671.0121536934421
 31
0.0
  0
LINE
  5
E9
330
19
100
AcDbEntity
  8
L-CENTER
100
AcDbLine
 10
442.9913217008313
 20
675.7501744841729
 30
0.0
 11
442.9913217008313
 21
628.6966230741823
 31
0.0
  0
LINE
  5
EA
330
19
100
AcDbEntity
  8
4
100
AcDbLine
 10
435.1551814542172
 20
677.1493346040688
 30
0.0
 11
435.1551814542172
 21
672.1493346040688
 31
0.0
  0
LINE
  5
EB
330
19
100
AcDbEntity
  8
4
100
AcDbLine
 10
435.1550393793395
 20
672.1493346040688
 30
0.0
 11
435.1550393793395
 21
677.1493346040688
 31
0.0
  0
LINE
  5
F1
330
19
100
AcDbEntity
  8
L-CENTER
100
AcDbLine
 10
553.0963612606832
 20
663.7133791864608
 30
0.0
 11
553.0963612606856
 21
704.5173128586525
 31
0.0
  0
ARC
  5
F2
330
19
100
AcDbEntity
  8
4
100
AcDbCircle
 10
605.3501517446907
 20
658.3535904688915
 30
0.0
 40
13.7957441351769
100
AcDbArc
 50
66.57340249137164
 51
113.4265975086284
  0
LINE
  5
F3
330
19
100
AcDbEntity
  8
4
100
AcDbLine
 10
613.5773930806431
 20
672.1493346040688
 30
0.0
 11
597.1229104087392
 21
672.1493346040688
 31
0.0
  0
LINE
  5
F4
330
19
100
AcDbEntity
  8
4
100
AcDbLine
 10
594.3804966300881
 20
661.1493346040688
 30
0.0
 11
616.3198068592942
 21
661.1493346040688
 31
0.0
  0
LINE
  5
F5
330
19
100
AcDbEntity
  8
4
100
AcDbLine
 10
594.3804966300881
 20
664.1493346040688
 30
0.0
 11
616.3198068592942
 21
664.1493346040688
 31
0.0
  0
LINE
  5
F6
330
19
100
AcDbEntity
  8
4
100
AcDbLine
 10
599.8653241873894
 20
671.0121536934421
 30
0.0
 11
599.8653241873894
 21
664.1493346040688
 31
0.0
  0
LINE
  5
F7
330
19
100
AcDbEntity
  8
4
100
AcDbLine
 10
594.3804966300881
 20
671.0121536934421
 30
0.0
 11
594.3804966300881
 21
661.1493346040688
 31
0.0
  0
ARC
  5
F8
330
19
100
AcDbEntity
  8
4
100
AcDbCircle
 10
597.1229104087392
 20
668.2739557287896
 30
0.0
 40
3.875378875279244
100
AcDbArc
 50
44.955926762744
 51
135.044073237256
  0
ARC
  5
F9
330
19
100
AcDbEntity
  8
4
100
AcDbCircle
 10
613.5773930806431
 20
668.2739557287896
 30
0.0
 40
3.875378875279264
100
AcDbArc
 50
44.955926762744
 51
135.044073237256
  0
LINE
  5
FA
330
19
100
AcDbEntity
  8
4
100
AcDbLine
 10
610.834979301992
 20
671.0121536934421
 30
0.0
 11
610.834979301992
 21
664.1493346040688
 31
0.0
  0
LINE
  5
FB
330
19
100
AcDbEntity
  8
4
100
AcDbLine
 10
616.3198068592942
 20
661.1493346040688
 30
0.0
 11
616.3198068592942
 21
671.0121536934421
 31
0.0
  0
LINE
  5
FC
330
19
100
AcDbEntity
  8
L-CENTER
100
AcDbLine
 10
605.3501517446907
 20
675.7501744841729
 30
0.0
 11
605.3501517446907
 21
628.6966230741823
 31
0.0
  0
ARC
  5
FE
330
19
100
AcDbEntity
  8
4
100
AcDbCircle
 10
553.0963612606847
 20
687.8701693066137
 30
0.0
 40
13.77916529745958
100
AcDbArc
 50
69.13593563607698
 51
110.8640643639175
  0
LINE
  5
FF
330
19
100
AcDbEntity
  8
4
100
AcDbLine
 10
545.7351453285172
 20
701.6493346040734
 30
0.0
 11
560.4575771928529
 21
701.6493346040725
 31
0.0
  0
LINE
  5
100
330
19
100
AcDbEntity
  8
4
100
AcDbLine
 10
562.9113158369084
 20
692.1493346040725
 30
0.0
 11
543.2814066844614
 21
692.1493346040734
 31
0.0
  0
LINE
  5
101
330
19
100
AcDbEntity
  8
4
100
AcDbLine
 10
562.9113158369086
 20
694.6493346040725
 30
0.0
 11
543.2814066844616
 21
694.6493346040734
 31
0.0
  0
ARC
  5
102
330
19
100
AcDbEntity
  8
4
100
AcDbCircle
 10
545.735145328517
 20
697.865720675014
 30
0.0
 40
3.783613929059507
100
AcDbArc
 50
49.57010315516856
 51
130.4298968448301
  0
LINE
  5
103
330
19
100
AcDbEntity
  8
4
100
AcDbLine
 10
548.1888839725732
 20
700.7458076582216
 30
0.0
 11
548.1888839725729
 21
694.6493346040734
 31
0.0
  0
LINE
  5
104
330
19
100
AcDbEntity
  8
4
100
AcDbLine
 10
543.2814066844614
 20
692.1493346040734
 30
0.0
 11
543.2814066844619
 21
700.7458076582216
 31
0.0
  0
ARC
  5
105
330
19
100
AcDbEntity
  8
4
100
AcDbCircle
 10
560.4575771928527
 20
697.8657206750131
 30
0.0
 40
3.783613929059507
100
AcDbArc
 50
49.57010315516856
 51
130.4298968448301
  0
LINE
  5
106
330
19
100
AcDbEntity
  8
4
100
AcDbLine
 10
562.9113158369089
 20
700.7458076582207
 30
0.0
 11
562.9113158369084
 21
692.1493346040725
 31
0.0
  0
LINE
  5
107
330
19
100
AcDbEntity
  8
4
100
AcDbLine
 10
558.0038385487967
 20
700.7458076582207
 30
0.0
 11
558.0038385487964
 21
694.6493346040725
 31
0.0
  0
LINE
  5
110
330
19
100
AcDbEntity
  8
L-CENTER
100
AcDbLine
 10
694.5177174979952
 20
663.7133791864567
 30
0.0
 11
694.5177174979952
 21
704.5173128586484
 31
0.0
  0
LINE
  5
111
330
19
100
AcDbEntity
  8
L-CENTER
100
AcDbLine
 10
792.1221728652216
 20
663.7133791864567
 30
0.0
 11
792.1221728652216
 21
704.5173128586484
 31
0.0
  0
LINE
  5
112
330
19
100
AcDbEntity
  8
4
100
AcDbLine
 10
742.6550393793395
 20
677.1493346040688
 30
0.0
 11
742.6550393793395
 21
695.1493346040688
 31
0.0
  0
LINE
  5
113
330
19
100
AcDbEntity
  8
4
100
AcDbLine
 10
755.1550393793395
 20
692.1493346040688
 30
0.0
 11
755.1550393793395
 21
677.1493346040688
 31
0.0
  0
LINE
  5
114
330
19
100
AcDbEntity
  8
4
100
AcDbLine
 10
697.6550393793395
 20
677.1493346040688
 30
0.0
 11
697.6550393793395
 21
695.1493346040688
 31
0.0
  0
LINE
  5
115
330
19
100
AcDbEntity
  8
4
100
AcDbLine
 10
823.9905560491402
 20
661.1493346040688
 30
0.0
 11
823.9905560491402
 21
671.0121536934421
 31
0.0
  0
LINE
  5
116
330
19
100
AcDbEntity
  8
4
100
AcDbLine
 10
829.4753836064424
 20
671.0121536934421
 30
0.0
 11
829.4753836064424
 21
664.1493346040688
 31
0.0
  0
ARC
  5
117
330
19
100
AcDbEntity
  8
4
100
AcDbCircle
 10
826.7329698277913
 20
668.2739557287896
 30
0.0
 40
3.875378875279264
100
AcDbArc
 50
44.955926762744
 51
135.044073237256
  0
LINE
  5
118
330
19
100
AcDbEntity
  8
L-CENTER
100
AcDbLine
 10
834.9602111637437
 20
675.7501744841729
 30
0.0
 11
834.9602111637437
 21
628.6966230741823
 31
0.0
  0
LINE
  5
119
330
19
100
AcDbEntity
  8
4
100
AcDbLine
 10
710.1550393793395
 20
757.1493346040688
 30
0.0
 11
710.1553235290945
 21
693.1781914327598
 31
0.0
  0
LINE
  5
11A
330
19
100
AcDbEntity
  8
4
100
AcDbLine
 10
730.1550393793395
 20
757.1493346040688
 30
0.0
 11
730.1550393793395
 21
693.1028063257531
 31
0.0
  0
LINE
  5
11B
330
19
100
AcDbEntity
  8
L-CENTER
100
AcDbLine
 10
739.1879679212586
 20
722.1493346040688
 30
0.0
 11
701.1223949871758
 21
722.1493346040688
 31
0.0
  0
LINE
  5
11C
330
19
100
AcDbEntity
  8
4
100
AcDbLine
 10
704.3326720742187
 20
695.742901895368
 30
0.0
 11
704.3326720742187
 21
700.745807658217
 31
0.0
  0
LINE
  5
11D
330
19
100
AcDbEntity
  8
4
100
AcDbLine
 10
701.8789334301636
 20
701.6493346040688
 30
0.0
 11
687.1565015658279
 21
701.6493346040688
 31
0.0
  0
ARC
  5
11E
330
19
100
AcDbEntity
  8
4
100
AcDbCircle
 10
694.5177174979952
 20
687.8701693066096
 30
0.0
 40
13.77916529745958
100
AcDbArc
 50
69.13593563608075
 51
110.8640643639193
  0
LINE
  5
11F
330
19
100
AcDbEntity
  8
4
100
AcDbLine
 10
684.7027629217718
 20
692.1493346040688
 30
0.0
 11
697.6550393793395
 21
692.1493346040688
 31
0.0
  0
LINE
  5
120
330
19
100
AcDbEntity
  8
4
100
AcDbLine
 10
684.7027629217718
 20
694.6493346040688
 30
0.0
 11
697.6550393793395
 21
694.6493346040688
 31
0.0
  0
LINE
  5
121
330
19
100
AcDbEntity
  8
4
100
AcDbLine
 10
689.610240209884
 20
700.745807658217
 30
0.0
 11
689.610240209884
 21
694.6493346040688
 31
0.0
  0
LINE
  5
122
330
19
100
AcDbEntity
  8
4
100
AcDbLine
 10
684.7027629217718
 20
700.745807658217
 30
0.0
 11
684.7027629217718
 21
692.1493346040688
 31
0.0
  0
ARC
  5
123
330
19
100
AcDbEntity
  8
4
100
AcDbCircle
 10
687.1565015658279
 20
697.8657206750095
 30
0.0
 40
3.783613929059507
100
AcDbArc
 50
49.57010315516987
 51
130.4298968448301
  0
LINE
  5
124
330
19
100
AcDbEntity
  8
4
100
AcDbLine
 10
699.4251947861075
 20
700.745807658217
 30
0.0
 11
699.4251947861075
 21
695.3066817356025
 31
0.0
  0
ARC
  5
125
330
19
100
AcDbEntity
  8
4
100
AcDbCircle
 10
701.8789334301636
 20
697.8657206750095
 30
0.0
 40
3.783613929059507
100
AcDbArc
 50
49.57010315516987
 51
130.4298968448301
  0
LINE
  5
126
330
19
100
AcDbEntity
  8
4
100
AcDbLine
 10
710.1550393793395
 20
695.1493346040688
 30
0.0
 11
697.6550393793395
 21
695.1493346040688
 31
0.0
  0
LINE
  5
127
330
19
100
AcDbEntity
  8
4
100
AcDbLine
 10
710.1550393793395
 20
696.260445604069
 30
0.0
 11
697.6550393793395
 21
695.1493346040688
 31
0.0
  0
LINE
  5
128
330
19
100
AcDbEntity
  8
4
100
AcDbLine
 10
730.1550393793395
 20
696.260445604069
 30
0.0
 11
742.6550393793395
 21
695.1493346040688
 31
0.0
  0
LINE
  5
129
330
19
100
AcDbEntity
  8
4
100
AcDbLine
 10
742.6550393793395
 20
695.1493346040688
 30
0.0
 11
730.1550393793395
 21
695.1493346040688
 31
0.0
  0
ARC
  5
12A
330
19
100
AcDbEntity
  8
4
100
AcDbCircle
 10
720.1550393793395
 20
757.1493346040688
 30
0.0
 40
10.0
100
AcDbArc
 50
0.0
 51
180.0
  0
LINE
  5
12B
330
19
100
AcDbEntity
  8
4
100
AcDbLine
 10
799.4833887973899
 20
701.6493346040688
 30
0.0
 11
784.7609569330542
 21
701.6493346040688
 31
0.0
  0
LINE
  5
12C
330
19
100
AcDbEntity
  8
4
100
AcDbLine
 10
782.3072182889981
 20
692.1493346040688
 30
0.0
 11
801.9371274414451
 21
692.1493346040688
 31
0.0
  0
LINE
  5
12D
330
19
100
AcDbEntity
  8
4
100
AcDbLine
 10
782.3072182889981
 20
694.6493346040688
 30
0.0
 11
801.9371274414451
 21
694.6493346040688
 31
0.0
  0
ARC
  5
12E
330
19
100
AcDbEntity
  8
4
100
AcDbCircle
 10
799.4833887973899
 20
697.8657206750095
 30
0.0
 40
3.783613929059507
100
AcDbArc
 50
49.57010315516987
 51
130.4298968448301
  0
ARC
  5
12F
330
19
100
AcDbEntity
  8
4
100
AcDbCircle
 10
792.1221728652216
 20
687.8701693066096
 30
0.0
 40
13.77916529745958
100
AcDbArc
 50
69.13593563608075
 51
110.8640643639193
  0
LINE
  5
130
330
19
100
AcDbEntity
  8
4
100
AcDbLine
 10
787.2146955771103
 20
700.745807658217
 30
0.0
 11
787.2146955771103
 21
694.6493346040688
 31
0.0
  0
LINE
  5
131
330
19
100
AcDbEntity
  8
4
100
AcDbLine
 10
782.3072182889981
 20
700.745807658217
 30
0.0
 11
782.3072182889981
 21
692.1493346040688
 31
0.0
  0
ARC
  5
132
330
19
100
AcDbEntity
  8
4
100
AcDbCircle
 10
784.7609569330542
 20
697.8657206750095
 30
0.0
 40
3.783613929059507
100
AcDbArc
 50
49.57010315516987
 51
130.4298968448301
  0
LINE
  5
133
330
19
100
AcDbEntity
  8
4
100
AcDbLine
 10
797.0296501533338
 20
700.745807658217
 30
0.0
 11
797.0296501533338
 21
694.6493346040688
 31
0.0
  0
LINE
  5
134
330
19
100
AcDbEntity
  8
4
100
AcDbLine
 10
801.9371274414451
 20
692.1493346040688
 30
0.0
 11
801.9371274414451
 21
700.745807658217
 31
0.0
  0
LINE
  5
13D
330
19
100
AcDbEntity
  8
4
100
AcDbLine
 10
1736.352296449963
 20
664.1493346040688
 30
0.0
 11
1758.291606679169
 21
664.1493346040688
 31
0.0
  0
LINE
  5
13E
330
19
100
AcDbEntity
  8
4
100
AcDbLine
 10
1736.352296449963
 20
661.1493346040688
 30
0.0
 11
1758.291606679169
 21
661.1493346040688
 31
0.0
  0
LINE
  5
13F
330
19
100
AcDbEntity
  8
4
100
AcDbLine
 10
1755.549192900518
 20
672.1493346040688
 30
0.0
 11
1739.094710228614
 21
672.1493346040688
 31
0.0
  0
ARC
  5
140
330
19
100
AcDbEntity
  8
4
100
AcDbCircle
 10
1747.321951564565
 20
658.3535904688915
 30
0.0
 40
13.7957441351769
100
AcDbArc
 50
66.57340249137164
 51
113.4265975086284
  0
LINE
  5
141
330
19
100
AcDbEntity
  8
4
100
AcDbLine
 10
2147.126981274092
 20
677.1493346040688
 30
0.0
 11
1577.126981274092
 21
677.1493346040688
 31
0.0
  0
LINE
  5
142
330
19
100
AcDbEntity
  8
L-CENTER
100
AcDbLine
 10
2138.967070571451
 20
488.1493346040697
 30
0.0
 11
1971.286891976731
 21
488.1493346040697
 31
0.0
  0
LINE
  5
143
330
19
100
AcDbEntity
  8
4
100
AcDbLine
 10
2177.126981274092
 20
643.1493346040688
 30
0.0
 11
1547.126981274092
 21
643.1493346040706
 31
0.0
  0
LINE
  5
144
330
19
100
AcDbEntity
  8
4
100
AcDbLine
 10
2186.126981274092
 20
633.1493346040688
 30
0.0
 11
1538.126981274092
 21
633.1493346040688
 31
0.0
  0
LINE
  5
145
330
19
100
AcDbEntity
  8
4
100
AcDbLine
 10
2217.126981274092
 20
388.1493346040688
 30
0.0
 11
1537.126981274092
 21
388.1493346040688
 31
0.0
  0
LINE
  5
146
330
19
100
AcDbEntity
  8
4
100
AcDbLine
 10
2172.71921210025
 20
397.1493346040688
 30
0.0
 11
1581.534750447933
 21
397.1493346040688
 31
0.0
  0
LINE
  5
147
330
19
100
AcDbEntity
  8
4
100
AcDbLine
 10
2177.126981274092
 20
661.1493346040688
 30
0.0
 11
1547.126981274092
 21
661.1493346040688
 31
0.0
  0
LINE
  5
148
330
19
100
AcDbEntity
  8
4
100
AcDbLine
 10
1538.126981274092
 20
633.1493346040688
 30
0.0
 11
1538.126981274092
 21
389.1493346040688
 31
0.0
  0
LINE
  5
149
330
19
100
AcDbEntity
  8
4
100
AcDbLine
 10
1044.155181454217
 20
633.1493346040688
 30
0.0
 11
1044.155181454216
 21
388.1493346040688
 31
0.0
  0
LINE
  5
14A
330
19
100
AcDbEntity
  8
4
100
AcDbLine
 10
1056.155181454217
 20
563.1493346040697
 30
0.0
 11
1056.155181454217
 21
413.1493346040697
 31
0.0
  0
LINE
  5
14B
330
19
100
AcDbEntity
  8
4
100
AcDbLine
 10
1068.155181454217
 20
560.1493346040697
 30
0.0
 11
1068.155181454217
 21
416.1493346040706
 31
0.0
  0
LINE
  5
14C
330
19
100
AcDbEntity
  8
L-CENTER
100
AcDbLine
 10
845.1551814542171
 20
697.1493346040688
 30
0.0
 11
845.1551814542172
 21
364.5052785344888
 31
0.0
  0
LINE
  5
14D
330
19
100
AcDbEntity
  8
4
100
AcDbLine
 10
1091.405181454216
 20
514.6493346040697
 30
0.0
 11
1181.405181454217
 21
514.6493346040697
 31
0.0
  0
LINE
  5
14E
330
19
100
AcDbEntity
  8
4
100
AcDbLine
 10
1083.405181454216
 20
511.1493346040697
 30
0.0
 11
1180.405181454217
 21
511.1493346040697
 31
0.0
  0
LINE
  5
14F
330
19
100
AcDbEntity
  8
4
100
AcDbLine
 10
1083.405181454216
 20
465.1493346040697
 30
0.0
 11
1180.405181454217
 21
465.1493346040697
 31
0.0
  0
LINE
  5
150
330
19
100
AcDbEntity
  8
4
100
AcDbLine
 10
1030.155181454217
 20
348.1493346040697
 30
0.0
 11
870.1551814542172
 21
348.1493346040697
 31
0.0
  0
LINE
  5
151
330
19
100
AcDbEntity
  8
4
100
AcDbLine
 10
1035.15503937934
 20
643.1493346040697
 30
0.0
 11
405.1551814542171
 21
643.1493346040697
 31
0.0
  0
LINE
  5
152
330
19
100
AcDbEntity
  8
4
100
AcDbLine
 10
1044.155181454216
 20
397.1493346040688
 30
0.0
 11
882.1551814542163
 21
397.1493346040688
 31
0.0
  0
LINE
  5
153
330
19
100
AcDbEntity
  8
4
100
AcDbLine
 10
870.1551814542172
 20
432.55710377791
 30
0.0
 11
870.1551814542172
 21
348.1493346040697
 31
0.0
  0
LINE
  5
154
330
19
100
AcDbEntity
  8
4
100
AcDbLine
 10
882.1551814542163
 20
432.55710377791
 30
0.0
 11
870.1551814542172
 21
432.55710377791
 31
0.0
  0
LINE
  5
155
330
19
100
AcDbEntity
  8
4
100
AcDbLine
 10
882.1551814542163
 20
432.55710377791
 30
0.0
 11
882.1551814542163
 21
388.1493346040688
 31
0.0
  0
LINE
  5
156
330
19
100
AcDbEntity
  8
L-CENTER
100
AcDbLine
 10
970.1551814542172
 20
408.1493346040688
 30
0.0
 11
970.1551814542172
 21
328.1493346040697
 31
0.0
  0
LINE
  5
157
330
19
100
AcDbEntity
  8
4
100
AcDbLine
 10
1068.155181454217
 20
427.0693800278459
 30
0.0
 11
1068.155181454217
 21
446.6992891802938
 31
0.0
  0
LINE
  5
158
330
19
100
AcDbEntity
  8
4
100
AcDbLine
 10
1070.655181454217
 20
427.0693800278459
 30
0.0
 11
1070.655181454217
 21
446.6992891802938
 31
0.0
  0
LINE
  5
159
330
19
100
AcDbEntity
  8
4
100
AcDbLine
 10
1077.655181454217
 20
444.2455505362368
 30
0.0
 11
1077.655181454217
 21
429.523118671902
 31
0.0
  0
ARC
  5
15A
330
19
100
AcDbEntity
  8
4
100
AcDbCircle
 10
1063.876016156758
 20
436.8843346040694
 30
0.0
 40
13.77916529745958
100
AcDbArc
 50
339.1359356360808
 51
20.86406436391924
  0
LINE
  5
15B
330
19
100
AcDbEntity
  8
4
100
AcDbLine
 10
1030.155181454217
 20
388.1493346040688
 30
0.0
 11
1030.155181454217
 21
348.1493346040697
 31
0.0
  0
LINE
  5
15C
330
19
100
AcDbEntity
  8
L-CENTER
100
AcDbLine
 10
1040.06410475644
 20
436.8843346040694
 30
0.0
 11
1080.523159708798
 21
436.8843346040694
 31
0.0
  0
LINE
  5
15D
330
19
100
AcDbEntity
  8
4
 48
0.8
100
AcDbLine
 10
1056.155181454217
 20
413.1493346040697
 30
0.0
 11
1044.155181454217
 21
413.1493346040697
 31
0.0
  0
LINE
  5
15E
330
19
100
AcDbEntity
  8
4
100
AcDbLine
 10
1056.155181454217
 20
413.1493346040706
 30
0.0
 11
1044.155181454217
 21
413.1493346040697
 31
0.0
  0
LINE
  5
15F
330
19
100
AcDbEntity
  8
4
 48
0.8
100
AcDbLine
 10
1068.155181454217
 20
416.1493346040697
 30
0.0
 11
1056.155181454217
 21
416.1493346040697
 31
0.0
  0
ARC
  5
160
330
19
100
AcDbEntity
  8
4
100
AcDbCircle
 10
1073.871567525158
 20
429.523118671902
 30
0.0
 40
3.783613929059507
100
AcDbArc
 50
319.5701031551782
 51
40.42989684482174
  0
LINE
  5
161
330
19
100
AcDbEntity
  8
4
100
AcDbLine
 10
1076.751654508364
 20
427.0693800278459
 30
0.0
 11
1068.155181454217
 21
427.0693800278459
 31
0.0
  0
LINE
  5
162
330
19
100
AcDbEntity
  8
4
100
AcDbLine
 10
1076.751654508364
 20
431.9768573159572
 30
0.0
 11
1070.655181454217
 21
431.9768573159572
 31
0.0
  0
LINE
  5
163
330
19
100
AcDbEntity
  8
4
100
AcDbLine
 10
1081.405181454216
 20
513.1493346040697
 30
0.0
 11
1081.405181454216
 21
463.1493346040697
 31
0.0
  0
LINE
  5
164
330
19
100
AcDbEntity
  8
4
100
AcDbLine
 10
1069.155181454217
 20
524.1493346040706
 30
0.0
 11
1069.155181454217
 21
452.1493346040697
 31
0.0
  0
ARC
  5
165
330
19
100
AcDbEntity
  8
4
100
AcDbCircle
 10
1083.405181454216
 20
463.1493346040697
 30
0.0
 40
2.0
100
AcDbArc
 50
90.0
 51
180.0
  0
LINE
  5
166
330
19
100
AcDbEntity
  8
4
100
AcDbLine
 10
1081.405181454216
 20
463.1493346040697
 30
0.0
 11
1069.155181454217
 21
463.1493346040697
 31
0.0
  0
LINE
  5
167
330
19
100
AcDbEntity
  8
4
 48
0.8
100
AcDbLine
 10
1069.155181454217
 20
452.1493346040697
 30
0.0
 11
1068.155181454217
 21
452.1493346040706
 31
0.0
  0
LINE
  5
168
330
19
100
AcDbEntity
  8
4
100
AcDbLine
 10
1068.155181454217
 20
446.6992891802938
 30
0.0
 11
1076.751654508364
 21
446.6992891802938
 31
0.0
  0
ARC
  5
169
330
19
100
AcDbEntity
  8
4
100
AcDbCircle
 10
1073.871567525158
 20
444.2455505362368
 30
0.0
 40
3.783613929059507
100
AcDbArc
 50
319.5701031551782
 51
40.42989684482174
  0
LINE
  5
16A
330
19
100
AcDbEntity
  8
4
100
AcDbLine
 10
1076.751654508364
 20
441.7918118921816
 30
0.0
 11
1070.655181454217
 21
441.7918118921816
 31
0.0
  0
LINE
  5
16B
330
19
100
AcDbEntity
  8
L-CENTER
100
AcDbLine
 10
1040.06410475644
 20
539.4143346040701
 30
0.0
 11
1080.523159708798
 21
539.4143346040701
 31
0.0
  0
ARC
  5
16C
330
19
100
AcDbEntity
  8
4
100
AcDbCircle
 10
1083.405181454216
 20
513.1493346040697
 30
0.0
 40
2.0
100
AcDbArc
 50
180.0
 51
270.0
  0
LINE
  5
16D
330
19
100
AcDbEntity
  8
4
100
AcDbLine
 10
1081.405181454216
 20
513.1493346040697
 30
0.0
 11
1069.155181454217
 21
513.1493346040697
 31
0.0
  0
LINE
  5
16E
330
19
100
AcDbEntity
  8
4
 48
0.8
100
AcDbLine
 10
1069.155181454217
 20
524.1493346040697
 30
0.0
 11
1068.155181454217
 21
524.1493346040697
 31
0.0
  0
LINE
  5
16F
330
19
100
AcDbEntity
  8
4
100
AcDbLine
 10
1068.155181454217
 20
529.5993800278457
 30
0.0
 11
1068.155181454217
 21
549.2292891802927
 31
0.0
  0
LINE
  5
170
330
19
100
AcDbEntity
  8
4
100
AcDbLine
 10
1070.655181454217
 20
529.5993800278457
 30
0.0
 11
1070.655181454217
 21
549.2292891802927
 31
0.0
  0
ARC
  5
171
330
19
100
AcDbEntity
  8
4
100
AcDbCircle
 10
1073.871567525158
 20
532.0531186719018
 30
0.0
 40
3.783613929059507
100
AcDbArc
 50
319.5701031551782
 51
40.42989684482174
  0
LINE
  5
172
330
19
100
AcDbEntity
  8
4
100
AcDbLine
 10
1076.751654508364
 20
529.5993800278457
 30
0.0
 11
1068.155181454217
 21
529.5993800278457
 31
0.0
  0
LINE
  5
173
330
19
100
AcDbEntity
  8
4
100
AcDbLine
 10
1077.655181454217
 20
546.7755505362375
 30
0.0
 11
1077.655181454217
 21
532.0531186719018
 31
0.0
  0
ARC
  5
174
330
19
100
AcDbEntity
  8
4
100
AcDbCircle
 10
1063.876016156758
 20
539.4143346040701
 30
0.0
 40
13.77916529745958
100
AcDbArc
 50
339.1359356360808
 51
20.86406436391924
  0
LINE
  5
175
330
19
100
AcDbEntity
  8
4
100
AcDbLine
 10
1076.751654508364
 20
534.5068573159579
 30
0.0
 11
1070.655181454217
 21
534.5068573159579
 31
0.0
  0
LINE
  5
176
330
19
100
AcDbEntity
  8
4
100
AcDbLine
 10
1068.155181454217
 20
549.2292891802927
 30
0.0
 11
1076.751654508364
 21
549.2292891802927
 31
0.0
  0
ARC
  5
177
330
19
100
AcDbEntity
  8
4
100
AcDbCircle
 10
1073.871567525158
 20
546.7755505362375
 30
0.0
 40
3.783613929059507
100
AcDbArc
 50
319.5701031551782
 51
40.42989684482174
  0
LINE
  5
178
330
19
100
AcDbEntity
  8
4
100
AcDbLine
 10
1076.751654508364
 20
544.3218118921814
 30
0.0
 11
1070.655181454217
 21
544.3218118921814
 31
0.0
  0
LINE
  5
179
330
19
100
AcDbEntity
  8
4
100
AcDbLine
 10
1091.405181454216
 20
511.1493346040706
 30
0.0
 11
1091.405181454216
 21
514.6493346040697
 31
0.0
  0
LINE
  5
17A
330
19
100
AcDbEntity
  8
4
100
AcDbLine
 10
1581.534750447929
 20
432.5571037779073
 30
0.0
 11
1537.126981274088
 21
388.1493346040652
 31
0.0
  0
LINE
  5
17B
330
19
100
AcDbEntity
  8
4
100
AcDbLine
 10
1717.126981274092
 20
348.1493346040688
 30
0.0
 11
1537.126981274092
 21
348.1493346040688
 31
0.0
  0
LINE
  5
17C
330
19
100
AcDbEntity
  8
L-CENTER
100
AcDbLine
 10
1577.126981274092
 20
408.1493346040688
 30
0.0
 11
1577.126981274092
 21
328.1493346040693
 31
0.0
  0
LINE
  5
17D
330
19
100
AcDbEntity
  8
4
100
AcDbLine
 10
1537.126981274092
 20
348.1493346040688
 30
0.0
 11
1537.126981274092
 21
388.1493346040688
 31
0.0
  0
LINE
  5
17F
330
19
100
AcDbEntity
  8
4
100
AcDbLine
 10
1181.405181454217
 20
510.1493346040697
 30
0.0
 11
1181.405181454217
 21
466.1493346040697
 31
0.0
  0
LINE
  5
180
330
19
100
AcDbEntity
  8
4
100
AcDbLine
 10
1180.405181454217
 20
465.1493346040697
 30
0.0
 11
1180.405181454217
 21
511.1493346040697
 31
0.0
  0
LINE
  5
181
330
19
100
AcDbEntity
  8
4
100
AcDbLine
 10
1180.405181454217
 20
465.1493346040697
 30
0.0
 11
1181.405181454217
 21
466.1493346040697
 31
0.0
  0
LINE
  5
183
330
19
100
AcDbEntity
  8
4
100
AcDbLine
 10
1181.405181454217
 20
510.1493346040697
 30
0.0
 11
1180.405181454217
 21
511.1493346040697
 31
0.0
  0
LINE
  5
184
330
19
100
AcDbEntity
  8
4
100
AcDbLine
 10
1181.405181454217
 20
510.1493346040697
 30
0.0
 11
1181.405181454217
 21
514.6493346040697
 31
0.0
  0
LINE
  5
186
330
19
100
AcDbEntity
  8
4
100
AcDbLine
 10
1581.534750447933
 20
432.5571037779036
 30
0.0
 11
1581.534750447933
 21
388.1493346040688
 31
0.0
  0
LINE
  5
187
330
19
100
AcDbEntity
  8
4
100
AcDbLine
 10
1717.126981274092
 20
348.1493346040688
 30
0.0
 11
1717.126981274092
 21
388.1493346040688
 31
0.0
  0
ARC
  5
188
330
19
100
AcDbEntity
  8
4
100
AcDbCircle
 10
1005.546282543555
 20
668.2739557287896
 30
0.0
 40
3.875378875279244
100
AcDbArc
 50
44.955926762744
 51
135.044073237256
  0
LINE
  5
189
330
19
100
AcDbEntity
  8
4
100
AcDbLine
 10
1008.288696322206
 20
664.1493346040688
 30
0.0
 11
986.3493860929996
 21
664.1493346040688
 31
0.0
  0
LINE
  5
18A
330
19
100
AcDbEntity
  8
4
100
AcDbLine
 10
1008.288696322206
 20
661.1493346040688
 30
0.0
 11
986.3493860929996
 21
661.1493346040688
 31
0.0
  0
LINE
  5
18B
330
19
100
AcDbEntity
  8
4
100
AcDbLine
 10
989.0917998716507
 20
672.1493346040688
 30
0.0
 11
1005.546282543555
 21
672.1493346040688
 31
0.0
  0
LINE
  5
18C
330
19
100
AcDbEntity
  8
L-CENTER
100
AcDbLine
 10
898.1881900432126
 20
663.7133791864567
 30
0.0
 11
898.1881900432126
 21
704.5173128586484
 31
0.0
  0
LINE
  5
18D
330
19
100
AcDbEntity
  8
4
100
AcDbLine
 10
935.1550393793395
 20
692.1493346040688
 30
0.0
 11
935.1550393793395
 21
677.1493346040688
 31
0.0
  0
ARC
  5
18E
330
19
100
AcDbEntity
  8
4
100
AcDbCircle
 10
843.1874524996952
 20
668.2739557287896
 30
0.0
 40
3.875378875279244
100
AcDbArc
 50
44.955926762744
 51
135.044073237256
  0
LINE
  5
18F
330
19
100
AcDbEntity
  8
4
100
AcDbLine
 10
845.9298662783463
 20
671.0121536934421
 30
0.0
 11
845.9298662783463
 21
661.1493346040688
 31
0.0
  0
LINE
  5
190
330
19
100
AcDbEntity
  8
4
100
AcDbLine
 10
840.445038721045
 20
671.0121536934421
 30
0.0
 11
840.445038721045
 21
664.1493346040688
 31
0.0
  0
LINE
  5
191
330
19
100
AcDbEntity
  8
L-CENTER
100
AcDbLine
 10
997.319041207603
 20
675.7501744841729
 30
0.0
 11
997.319041207603
 21
628.6966230741823
 31
0.0
  0
LINE
  5
192
330
19
100
AcDbEntity
  8
4
100
AcDbLine
 10
986.3493860929996
 20
661.1493346040688
 30
0.0
 11
986.3493860929996
 21
671.0121536934421
 31
0.0
  0
LINE
  5
193
330
19
100
AcDbEntity
  8
4
100
AcDbLine
 10
991.8342136503018
 20
671.0121536934421
 30
0.0
 11
991.8342136503018
 21
664.1493346040688
 31
0.0
  0
ARC
  5
194
330
19
100
AcDbEntity
  8
4
100
AcDbCircle
 10
989.0917998716507
 20
668.2739557287896
 30
0.0
 40
3.875378875279264
100
AcDbArc
 50
44.955926762744
 51
135.044073237256
  0
LINE
  5
195
330
19
100
AcDbEntity
  8
4
100
AcDbLine
 10
1002.803868764904
 20
671.0121536934421
 30
0.0
 11
1002.803868764904
 21
664.1493346040688
 31
0.0
  0
ARC
  5
196
330
19
100
AcDbEntity
  8
4
100
AcDbCircle
 10
997.319041207603
 20
658.3535904688915
 30
0.0
 40
13.7957441351769
100
AcDbArc
 50
66.57340249137164
 51
113.4265975086284
  0
ARC
  5
197
330
19
100
AcDbEntity
  8
4
100
AcDbCircle
 10
890.8269741110443
 20
697.8657206750095
 30
0.0
 40
3.783613929059507
100
AcDbArc
 50
49.57010315516987
 51
130.4298968448301
  0
LINE
  5
198
330
19
100
AcDbEntity
  8
4
100
AcDbLine
 10
893.2807127551004
 20
700.745807658217
 30
0.0
 11
893.2807127551004
 21
694.6493346040688
 31
0.0
  0
LINE
  5
199
330
19
100
AcDbEntity
  8
4
100
AcDbLine
 10
888.3732354669891
 20
692.1493346040688
 30
0.0
 11
888.3732354669891
 21
700.745807658217
 31
0.0
  0
ARC
  5
19A
330
19
100
AcDbEntity
  8
4
100
AcDbCircle
 10
905.54940597538
 20
697.8657206750095
 30
0.0
 40
3.783613929059507
100
AcDbArc
 50
49.57010315516987
 51
130.4298968448301
  0
LINE
  5
19B
330
19
100
AcDbEntity
  8
4
100
AcDbLine
 10
908.0031446194361
 20
700.745807658217
 30
0.0
 11
908.0031446194361
 21
692.1493346040688
 31
0.0
  0
LINE
  5
19C
330
19
100
AcDbEntity
  8
4
100
AcDbLine
 10
903.0956673313239
 20
700.745807658217
 30
0.0
 11
903.0956673313239
 21
694.6493346040688
 31
0.0
  0
LINE
  5
19D
330
19
100
AcDbEntity
  8
4
100
AcDbLine
 10
908.0031446194361
 20
694.6493346040688
 30
0.0
 11
888.3732354669891
 21
694.6493346040688
 31
0.0
  0
LINE
  5
19E
330
19
100
AcDbEntity
  8
4
100
AcDbLine
 10
908.0031446194361
 20
692.1493346040688
 30
0.0
 11
888.3732354669891
 21
692.1493346040688
 31
0.0
  0
ARC
  5
19F
330
19
100
AcDbEntity
  8
4
100
AcDbCircle
 10
898.1881900432126
 20
687.8701693066096
 30
0.0
 40
13.77916529745958
100
AcDbArc
 50
69.13593563608075
 51
110.8640643639193
  0
LINE
  5
1A0
330
19
100
AcDbEntity
  8
4
100
AcDbLine
 10
890.8269741110443
 20
701.6493346040688
 30
0.0
 11
905.54940597538
 21
701.6493346040688
 31
0.0
  0
LINE
  5
1A1
330
19
100
AcDbEntity
  8
4
 48
0.8
100
AcDbLine
 10
1056.155181454217
 20
563.1493346040697
 30
0.0
 11
1044.155181454217
 21
563.1493346040697
 31
0.0
  0
LINE
  5
1A2
330
19
100
AcDbEntity
  8
4
100
AcDbLine
 10
1056.155181454217
 20
563.1493346040706
 30
0.0
 11
1044.155181454217
 21
563.1493346040697
 31
0.0
  0
LINE
  5
1A3
330
19
100
AcDbEntity
  8
4
 48
0.8
100
AcDbLine
 10
1068.155181454217
 20
560.1493346040688
 30
0.0
 11
1056.155181454217
 21
560.1493346040697
 31
0.0
  0
LINE
  5
1A4
330
19
100
AcDbEntity
  8
4
100
AcDbLine
 10
1008.288696322206
 20
671.0121536934421
 30
0.0
 11
1008.288696322206
 21
661.1493346040688
 31
0.0
  0
LINE
  5
1A5
330
19
100
AcDbEntity
  8
4
100
AcDbLine
 10
1005.155181454217
 20
677.1493346040688
 30
0.0
 11
1005.155181454217
 21
672.1493346040688
 31
0.0
  0
LINE
  5
1A6
330
19
100
AcDbEntity
  8
4
100
AcDbLine
 10
1005.15503937934
 20
672.1493346040688
 30
0.0
 11
1005.15503937934
 21
677.1493346040688
 31
0.0
  0
LINE
  5
1A7
330
19
100
AcDbEntity
  8
4
100
AcDbLine
 10
1035.155181454217
 20
643.1493346040688
 30
0.0
 11
1035.155181454217
 21
633.1493346040688
 31
0.0
  0
LINE
  5
1A8
330
19
100
AcDbEntity
  8
4
100
AcDbLine
 10
1035.155181454217
 20
661.1493346040688
 30
0.0
 11
1035.155181454217
 21
643.1493346040688
 31
0.0
  0
LINE
  5
1A9
330
19
100
AcDbEntity
  8
4
100
AcDbLine
 10
1035.15503937934
 20
633.1493346040688
 30
0.0
 11
1035.15503937934
 21
661.1493346040688
 31
0.0
  0
LINE
  5
1AA
330
19
100
AcDbEntity
  8
4
100
AcDbLine
 10
1005.155181454217
 20
661.1493346040688
 30
0.0
 11
1035.155181454217
 21
661.1493346040688
 31
0.0
  0
ARC
  5
1AB
330
19
100
AcDbEntity
  8
4
100
AcDbCircle
 10
1576.735880184754
 20
668.2739557287896
 30
0.0
 40
3.875378875279244
100
AcDbArc
 50
44.95592676274519
 51
135.0440732372548
  0
LINE
  5
1AC
330
19
100
AcDbEntity
  8
4
100
AcDbLine
 10
1573.993466406103
 20
664.1493346040688
 30
0.0
 11
1595.932776635309
 21
664.1493346040688
 31
0.0
  0
LINE
  5
1AD
330
19
100
AcDbEntity
  8
4
100
AcDbLine
 10
1573.993466406103
 20
661.1493346040688
 30
0.0
 11
1595.932776635309
 21
661.1493346040688
 31
0.0
  0
LINE
  5
1AE
330
19
100
AcDbEntity
  8
4
100
AcDbLine
 10
1593.190362856658
 20
672.1493346040688
 30
0.0
 11
1576.735880184754
 21
672.1493346040688
 31
0.0
  0
LINE
  5
1AF
330
19
100
AcDbEntity
  8
4
100
AcDbLine
 10
1573.993466406103
 20
671.0121536934421
 30
0.0
 11
1573.993466406103
 21
661.1493346040688
 31
0.0
  0
LINE
  5
1B0
330
19
100
AcDbEntity
  8
4
100
AcDbLine
 10
1577.126981274092
 20
671.6493346040688
 30
0.0
 11
1577.126981274092
 21
677.1493346040688
 31
0.0
  0
LINE
  5
1B1
330
19
100
AcDbEntity
  8
4
100
AcDbLine
 10
1547.126981274092
 20
643.1493346040706
 30
0.0
 11
1547.126981274092
 21
633.1493346040706
 31
0.0
  0
LINE
  5
1B2
330
19
100
AcDbEntity
  8
4
100
AcDbLine
 10
1547.126981274092
 20
643.1493346040706
 30
0.0
 11
1547.126981274092
 21
661.1493346040688
 31
0.0
  0
LINE
  5
1B3
330
19
100
AcDbEntity
  8
4
100
AcDbLine
 10
1674.626981274092
 20
677.1493346040688
 30
0.0
 11
1674.626981274092
 21
695.1493346040688
 31
0.0
  0
LINE
  5
1B4
330
19
100
AcDbEntity
  8
4
100
AcDbLine
 10
1629.626981274092
 20
677.1493346040688
 30
0.0
 11
1629.626981274092
 21
695.1493346040688
 31
0.0
  0
ARC
  5
1B5
330
19
100
AcDbEntity
  8
4
100
AcDbCircle
 10
1652.126981274092
 20
722.1493346040688
 30
0.0
 40
45.0
100
AcDbArc
 50
300.0
 51
239.9999999999999
  0
LINE
  5
1B6
330
19
100
AcDbEntity
  8
L-CENTER
100
AcDbLine
 10
1652.126981274092
 20
661.1493346040688
 30
0.0
 11
1652.126981274092
 21
780.8756526040697
 31
0.0
  0
LINE
  5
1B7
330
19
100
AcDbEntity
  8
L-CENTER
100
AcDbLine
 10
1584.963121520706
 20
675.7501744841729
 30
0.0
 11
1584.963121520706
 21
628.6966230741823
 31
0.0
  0
LINE
  5
1B8
330
19
100
AcDbEntity
  8
4
100
AcDbLine
 10
1595.932776635309
 20
661.1493346040688
 30
0.0
 11
1595.932776635309
 21
671.0121536934421
 31
0.0
  0
LINE
  5
1B9
330
19
100
AcDbEntity
  8
4
100
AcDbLine
 10
1590.447949078007
 20
671.0121536934421
 30
0.0
 11
1590.447949078007
 21
664.1493346040688
 31
0.0
  0
ARC
  5
1BA
330
19
100
AcDbEntity
  8
4
100
AcDbCircle
 10
1593.190362856658
 20
668.2739557287896
 30
0.0
 40
3.875378875279264
100
AcDbArc
 50
44.95592676274519
 51
135.0440732372548
  0
LINE
  5
1BB
330
19
100
AcDbEntity
  8
4
100
AcDbLine
 10
1579.478293963405
 20
671.0121536934421
 30
0.0
 11
1579.478293963405
 21
664.1493346040688
 31
0.0
  0
ARC
  5
1BC
330
19
100
AcDbEntity
  8
4
100
AcDbCircle
 10
1584.963121520706
 20
658.3535904688915
 30
0.0
 40
13.7957441351769
100
AcDbArc
 50
66.57340249137164
 51
113.4265975086284
  0
ARC
  5
1BD
330
19
100
AcDbEntity
  8
4
100
AcDbCircle
 10
1739.094710228614
 20
668.2739557287896
 30
0.0
 40
3.875378875279244
100
AcDbArc
 50
44.95592676274519
 51
135.0440732372548
  0
LINE
  5
1BE
330
19
100
AcDbEntity
  8
4
100
AcDbLine
 10
1736.352296449963
 20
671.0121536934421
 30
0.0
 11
1736.352296449963
 21
661.1493346040688
 31
0.0
  0
LINE
  5
1BF
330
19
100
AcDbEntity
  8
4
100
AcDbLine
 10
1741.837124007264
 20
671.0121536934421
 30
0.0
 11
1741.837124007264
 21
664.1493346040688
 31
0.0
  0
LINE
  5
1C0
330
19
100
AcDbEntity
  8
4
100
AcDbLine
 10
1674.626981274092
 20
695.1493346040688
 30
0.0
 11
1629.626981274092
 21
695.1493346040688
 31
0.0
  0
CIRCLE
  5
1C1
330
19
100
AcDbEntity
  8
4
100
AcDbCircle
 10
1652.126981274092
 20
722.1493346040688
 30
0.0
 40
25.0
  0
LINE
  5
1C2
330
19
100
AcDbEntity
  8
4
100
AcDbLine
 10
1652.126981274092
 20
697.1493346040688
 30
0.0
 11
1674.626981274092
 21
695.1493346040688
 31
0.0
  0
LINE
  5
1C3
330
19
100
AcDbEntity
  8
L-CENTER
100
AcDbLine
 10
1710.853299274093
 20
722.1493346040688
 30
0.0
 11
1593.400663274091
 21
722.1493346040688
 31
0.0
  0
LINE
  5
1C4
330
19
100
AcDbEntity
  8
4
100
AcDbLine
 10
1652.126981274092
 20
697.1493346040688
 30
0.0
 11
1629.626981274092
 21
695.1493346040688
 31
0.0
  0
LINE
  5
1C5
330
19
100
AcDbEntity
  8
L-CENTER
 48
0.8
100
AcDbLine
 10
1855.126981274092
 20
697.1493346040688
 30
0.0
 11
1855.126981274092
 21
364.5052785344888
 31
0.0
  0
LINE
  5
1C6
330
19
100
AcDbEntity
  8
4
100
AcDbLine
 10
2186.126981274092
 20
633.1493346040688
 30
0.0
 11
2186.126981274092
 21
419.1493346040706
 31
0.0
  0
ARC
  5
1C7
330
19
100
AcDbEntity
  8
4
100
AcDbCircle
 10
2055.126981274091
 20
160.1493346040697
 30
0.0
 40
400.0
100
AcDbArc
 50
80.95623721670229
 51
99.04376278329775
  0
LINE
  5
1C8
330
19
100
AcDbEntity
  8
4
 48
0.8
100
AcDbLine
 10
2130.126981274091
 20
563.1493346040697
 30
0.0
 11
2130.126981274092
 21
413.1493346040697
 31
0.0
  0
LINE
  5
1C9
330
19
100
AcDbEntity
  8
4
 48
0.8
100
AcDbLine
 10
1980.126981274091
 20
563.1493346040697
 30
0.0
 11
1980.126981274092
 21
413.1493346040697
 31
0.0
  0
LINE
  5
1CA
330
19
100
AcDbEntity
  8
L-CENTER
100
AcDbLine
 10
2055.126981274091
 20
571.9894239014297
 30
0.0
 11
2055.126981274091
 21
404.3092453067097
 31
0.0
  0
CIRCLE
  5
1CB
330
19
100
AcDbEntity
  8
L-CENTER
100
AcDbCircle
 10
2055.126981274091
 20
488.1493346040697
 30
0.0
 40
72.5
  0
LINE
  5
1CC
330
19
100
AcDbEntity
  8
L-CENTER
100
AcDbLine
 10
1862.126981274092
 20
364.5052785344888
 30
0.0
 11
1862.126981274092
 21
718.925920557529
 31
0.0
  0
LINE
  5
1CD
330
19
100
AcDbEntity
  8
L-CENTER
100
AcDbLine
 10
1742.126981274092
 20
635.4601600810454
 30
0.0
 11
1742.126981274092
 21
691.7665021881362
 31
0.0
  0
LINE
  5
1CE
330
19
100
AcDbEntity
  8
L-CENTER
100
AcDbLine
 10
1872.126981274092
 20
192.9649391772809
 30
0.0
 11
1872.126981274092
 21
697.1493346040688
 31
0.0
  0
LINE
  5
1CF
330
19
100
AcDbEntity
  8
4
 48
0.8
100
AcDbLine
 10
2130.126981274092
 20
413.1493346040697
 30
0.0
 11
1980.126981274092
 21
413.1493346040697
 31
0.0
  0
ARC
  5
1D0
330
19
100
AcDbEntity
  8
4
100
AcDbCircle
 10
2055.126981274091
 20
816.1493346040688
 30
0.0
 40
400.0
100
AcDbArc
 50
260.9562372167022
 51
279.0437627832976
  0
ARC
  5
1D1
330
19
100
AcDbEntity
  8
4
100
AcDbCircle
 10
2055.126981274091
 20
488.1493346040697
 30
0.0
 40
23.0
100
AcDbArc
 50
105.1216653149091
 51
74.87833468509095
  0
CIRCLE
  5
1D2
330
19
100
AcDbEntity
  8
4
100
AcDbCircle
 10
2055.126981274091
 20
488.1493346040697
 30
0.0
 40
36.0
  0
LINE
  5
1D3
330
19
100
AcDbEntity
  8
4
100
AcDbLine
 10
2217.126981274092
 20
348.1493346040697
 30
0.0
 11
2037.126981274092
 21
348.1493346040697
 31
0.0
  0
LINE
  5
1D4
330
19
100
AcDbEntity
  8
4
100
AcDbLine
 10
1987.126981274092
 20
373.1493346040688
 30
0.0
 11
1757.126981274092
 21
373.1493346040688
 31
0.0
  0
LINE
  5
1D5
330
19
100
AcDbEntity
  8
4
100
AcDbLine
 10
1757.126981274092
 20
373.1493346040688
 30
0.0
 11
1757.126981274092
 21
388.1493346040688
 31
0.0
  0
LINE
  5
1D6
330
19
100
AcDbEntity
  8
L-CENTER
100
AcDbLine
 10
2016.537928188822
 20
449.5602815188008
 30
0.0
 11
1991.185551087311
 21
424.2079044172892
 31
0.0
  0
ARC
  5
1D7
330
19
100
AcDbEntity
  8
4
100
AcDbCircle
 10
2383.126981274091
 20
488.1493346040697
 30
0.0
 40
400.0
100
AcDbArc
 50
170.9562372167024
 51
189.0437627832975
  0
ARC
  5
1D8
330
19
100
AcDbEntity
  8
4
100
AcDbCircle
 10
1993.037397259259
 20
426.0597505892374
 30
0.0
 40
5.0
100
AcDbArc
 50
189.0437627833011
 51
260.956237216704
  0
LINE
  5
1D9
330
19
100
AcDbEntity
  8
4
100
AcDbLine
 10
1987.126981274092
 20
373.1493346040688
 30
0.0
 11
1987.126981274092
 21
388.1493346040688
 31
0.0
  0
LINE
  5
1DA
330
19
100
AcDbEntity
  8
4
100
AcDbLine
 10
2037.126981274092
 20
348.1493346040697
 30
0.0
 11
2037.126981274092
 21
388.1493346040697
 31
0.0
  0
ARC
  5
1DB
330
19
100
AcDbEntity
  8
4
100
AcDbCircle
 10
1993.037397259259
 20
550.2389186189021
 30
0.0
 40
5.0
100
AcDbArc
 50
99.043762783296
 51
170.956237216704
  0
LINE
  5
1DC
330
19
100
AcDbEntity
  8
L-CENTER
100
AcDbLine
 10
2016.537928188822
 20
526.7383876893387
 30
0.0
 11
1991.18555108731
 21
552.0907647908502
 31
0.0
  0
LINE
  5
1DD
330
19
100
AcDbEntity
  8
4
100
AcDbLine
 10
2012.361739638067
 20
534.5070989519827
 30
0.0
 11
2012.361739638067
 21
544.3220535282062
 31
0.0
  0
LINE
  5
1DE
330
19
100
AcDbEntity
  8
4
100
AcDbLine
 10
2003.861739638067
 20
549.2295308163184
 30
0.0
 11
1995.361739638067
 21
544.3220535282062
 31
0.0
  0
LINE
  5
1DF
330
19
100
AcDbEntity
  8
4
100
AcDbLine
 10
1995.361739638067
 20
544.3220535282062
 30
0.0
 11
1995.361739638067
 21
534.5070989519827
 31
0.0
  0
LINE
  5
1E0
330
19
100
AcDbEntity
  8
4
100
AcDbLine
 10
1995.361739638067
 20
534.5070989519827
 30
0.0
 11
2003.861739638067
 21
529.5996216638714
 31
0.0
  0
LINE
  5
1E1
330
19
100
AcDbEntity
  8
4
100
AcDbLine
 10
2012.361739638067
 20
544.3220535282062
 30
0.0
 11
2003.861739638067
 21
549.2295308163184
 31
0.0
  0
LINE
  5
1E2
330
19
100
AcDbEntity
  8
4
100
AcDbLine
 10
2003.861739638067
 20
529.5996216638714
 30
0.0
 11
2012.361739638067
 21
534.5070989519827
 31
0.0
  0
LINE
  5
1E3
330
19
100
AcDbEntity
  8
4
 48
0.8
100
AcDbLine
 10
2061.12698127409
 20
514.6493346040697
 30
0.0
 11
2061.12698127409
 21
506.6493346040697
 31
0.0
  0
LINE
  5
1E4
330
19
100
AcDbEntity
  8
4
 48
0.8
100
AcDbLine
 10
2049.126981274091
 20
514.6493346040697
 30
0.0
 11
2049.12698127409
 21
506.6493346040697
 31
0.0
  0
LINE
  5
1E5
330
19
100
AcDbEntity
  8
4
100
AcDbLine
 10
2049.126981274091
 20
506.6493346040697
 30
0.0
 11
2061.12698127409
 21
506.6493346040697
 31
0.0
  0
LINE
  5
1E6
330
19
100
AcDbEntity
  8
4
100
AcDbLine
 10
2049.126981274091
 20
514.6493346040697
 30
0.0
 11
2061.12698127409
 21
514.6493346040697
 31
0.0
  0
LINE
  5
1E7
330
19
100
AcDbEntity
  8
4
100
AcDbLine
 10
2196.519387642513
 20
439.67814460407
 30
0.0
 11
2196.519387642513
 21
422.6205246040695
 31
0.0
  0
LINE
  5
1E8
330
19
100
AcDbEntity
  8
4
100
AcDbLine
 10
2191.126981274092
 20
443.6493346040697
 30
0.0
 11
2191.126981274092
 21
418.6493346040697
 31
0.0
  0
LINE
  5
1E9
330
19
100
AcDbEntity
  8
L-CENTER
100
AcDbLine
 10
2093.716034359359
 20
449.5602815188008
 30
0.0
 11
2119.068411460871
 21
424.2079044172897
 31
0.0
  0
ARC
  5
1EA
330
19
100
AcDbEntity
  8
4
100
AcDbCircle
 10
1727.126981274091
 20
488.1493346040697
 30
0.0
 40
400.0
100
AcDbArc
 50
350.9562372167024
 51
9.043762783297629
  0
ARC
  5
1EB
330
19
100
AcDbEntity
  8
4
100
AcDbCircle
 10
2117.216565288923
 20
426.0597505892374
 30
0.0
 40
5.0
100
AcDbArc
 50
279.043762783296
 51
350.956237216704
  0
LINE
  5
1EC
330
19
100
AcDbEntity
  8
4
100
AcDbLine
 10
2217.126981274092
 20
348.1493346040697
 30
0.0
 11
2217.126981274092
 21
388.1493346040697
 31
0.0
  0
LINE
  5
1ED
330
19
100
AcDbEntity
  8
L-CENTER
100
AcDbLine
 10
2177.126981274092
 20
408.1493346040688
 30
0.0
 11
2177.126981274092
 21
328.1493346040697
 31
0.0
  0
LINE
  5
1EE
330
19
100
AcDbEntity
  8
4
100
AcDbLine
 10
2196.519387642513
 20
422.6205246040695
 30
0.0
 11
2191.126981274092
 21
422.8087991046618
 31
0.0
  0
LINE
  5
1EF
330
19
100
AcDbEntity
  8
L-CENTER
100
AcDbLine
 10
2206.126981274092
 20
431.1493346040697
 30
0.0
 11
2156.126981274092
 21
431.1493346040697
 31
0.0
  0
LINE
  5
1F0
330
19
100
AcDbEntity
  8
4
100
AcDbLine
 10
2172.719212100254
 20
432.5571037779073
 30
0.0
 11
2217.126981274096
 21
388.1493346040661
 31
0.0
  0
LINE
  5
1F1
330
19
100
AcDbEntity
  8
4
100
AcDbLine
 10
2191.126981274092
 20
418.6493346040697
 30
0.0
 11
2186.626981274092
 21
418.6493346040697
 31
0.0
  0
LINE
  5
1F2
330
19
100
AcDbEntity
  8
4
100
AcDbLine
 10
2172.71921210025
 20
432.5571037779046
 30
0.0
 11
2172.71921210025
 21
388.1493346040697
 31
0.0
  0
LINE
  5
1F3
330
19
100
AcDbEntity
  8
L-CENTER
100
AcDbLine
 10
2093.71603435936
 20
526.7383876893382
 30
0.0
 11
2119.068411460871
 21
552.0907647908498
 31
0.0
  0
ARC
  5
1F4
330
19
100
AcDbEntity
  8
4
100
AcDbCircle
 10
2117.216565288923
 20
550.2389186189021
 30
0.0
 40
5.0
100
AcDbArc
 50
9.04376278330115
 51
80.956237216704
  0
LINE
  5
1F5
330
19
100
AcDbEntity
  8
4
100
AcDbLine
 10
2196.519387642513
 20
439.67814460407
 30
0.0
 11
2191.126981274092
 21
439.4898701034776
 31
0.0
  0
LINE
  5
1F6
330
19
100
AcDbEntity
  8
4
100
AcDbLine
 10
2191.126981274092
 20
443.6493346040697
 30
0.0
 11
2186.126981274092
 21
443.6493346040697
 31
0.0
  0
LINE
  5
1F7
330
19
100
AcDbEntity
  8
4
100
AcDbLine
 10
2072.126981274092
 20
697.1493346040688
 30
0.0
 11
2049.626981274092
 21
695.1493346040688
 31
0.0
  0
LINE
  5
1F8
330
19
100
AcDbEntity
  8
4
100
AcDbLine
 10
2094.626981274092
 20
695.1493346040688
 30
0.0
 11
2049.626981274092
 21
695.1493346040688
 31
0.0
  0
CIRCLE
  5
1F9
330
19
100
AcDbEntity
  8
4
100
AcDbCircle
 10
2072.126981274092
 20
722.1493346040688
 30
0.0
 40
25.0
  0
LINE
  5
1FA
330
19
100
AcDbEntity
  8
L-CENTER
100
AcDbLine
 10
2130.853299274093
 20
722.1493346040688
 30
0.0
 11
2013.400663274091
 21
722.1493346040688
 31
0.0
  0
ARC
  5
1FB
330
19
100
AcDbEntity
  8
4
100
AcDbCircle
 10
2072.126981274092
 20
722.1493346040688
 30
0.0
 40
45.0
100
AcDbArc
 50
300.0
 51
239.9999999999999
  0
LINE
  5
1FC
330
19
100
AcDbEntity
  8
4
 48
0.8
100
AcDbLine
 10
2130.126981274091
 20
563.1493346040697
 30
0.0
 11
1980.126981274091
 21
563.1493346040697
 31
0.0
  0
LINE
  5
200
330
19
100
AcDbEntity
  8
4
100
AcDbLine
 10
1898.345035286855
 20
694.6493346040725
 30
0.0
 11
1917.974944439302
 21
694.6493346040734
 31
0.0
  0
LINE
  5
201
330
19
100
AcDbEntity
  8
4
100
AcDbLine
 10
1898.345035286855
 20
692.1493346040725
 30
0.0
 11
1917.974944439302
 21
692.1493346040734
 31
0.0
  0
LINE
  5
202
330
19
100
AcDbEntity
  8
4
100
AcDbLine
 10
1915.521205795246
 20
701.6493346040734
 30
0.0
 11
1900.798773930911
 21
701.6493346040725
 31
0.0
  0
ARC
  5
203
330
19
100
AcDbEntity
  8
4
100
AcDbCircle
 10
1908.159989863079
 20
687.8701693066137
 30
0.0
 40
13.77916529745958
100
AcDbArc
 50
69.13593563608373
 51
110.8640643639235
  0
LINE
  5
205
330
19
100
AcDbEntity
  8
4
100
AcDbLine
 10
1987.126981274092
 20
692.1493346040688
 30
0.0
 11
1757.126981274092
 21
692.1493346040688
 31
0.0
  0
LINE
  5
206
330
19
100
AcDbEntity
  8
L-CENTER
100
AcDbLine
 10
1802.093972685103
 20
663.7133791864608
 30
0.0
 11
1802.093972685106
 21
704.5173128586525
 31
0.0
  0
LINE
  5
207
330
19
100
AcDbEntity
  8
L-CENTER
100
AcDbLine
 10
1801.416303155436
 20
663.7133791864608
 30
0.0
 11
1801.416303155439
 21
704.5173128586525
 31
0.0
  0
LINE
  5
208
330
19
100
AcDbEntity
  8
4
100
AcDbLine
 10
1757.126981274092
 20
692.1493346040688
 30
0.0
 11
1757.126981274092
 21
687.6493346040693
 31
0.0
  0
LINE
  5
209
330
19
100
AcDbEntity
  8
L-CENTER
100
AcDbLine
 10
1747.321951564565
 20
675.7501744841729
 30
0.0
 11
1747.321951564565
 21
628.6966230741823
 31
0.0
  0
LINE
  5
20A
330
19
100
AcDbEntity
  8
4
100
AcDbLine
 10
1758.291606679169
 20
661.1493346040688
 30
0.0
 11
1758.291606679169
 21
671.0121536934421
 31
0.0
  0
LINE
  5
20B
330
19
100
AcDbEntity
  8
4
100
AcDbLine
 10
1752.806779121867
 20
671.0121536934421
 30
0.0
 11
1752.806779121867
 21
664.1493346040688
 31
0.0
  0
ARC
  5
20C
330
19
100
AcDbEntity
  8
4
100
AcDbCircle
 10
1755.549192900518
 20
668.2739557287896
 30
0.0
 40
3.875378875279264
100
AcDbArc
 50
44.95592676274519
 51
135.0440732372548
  0
ARC
  5
20F
330
19
100
AcDbEntity
  8
4
100
AcDbCircle
 10
1802.093972685105
 20
687.8701693066137
 30
0.0
 40
13.77916529745958
100
AcDbArc
 50
69.13593563607654
 51
110.8640643639163
  0
LINE
  5
210
330
19
100
AcDbEntity
  8
4
100
AcDbLine
 10
1794.732756752937
 20
701.6493346040734
 30
0.0
 11
1809.455188617273
 21
701.6493346040725
 31
0.0
  0
LINE
  5
211
330
19
100
AcDbEntity
  8
4
100
AcDbLine
 10
1811.908927261328
 20
692.1493346040725
 30
0.0
 11
1792.279018108881
 21
692.1493346040734
 31
0.0
  0
LINE
  5
212
330
19
100
AcDbEntity
  8
4
100
AcDbLine
 10
1811.908927261328
 20
694.6493346040725
 30
0.0
 11
1791.601348579215
 21
694.6493346040734
 31
0.0
  0
ARC
  5
213
330
19
100
AcDbEntity
  8
4
100
AcDbCircle
 10
1809.455188617273
 20
697.8657206750131
 30
0.0
 40
3.783613929059507
100
AcDbArc
 50
49.57010315516856
 51
130.4298968448217
  0
LINE
  5
214
330
19
100
AcDbEntity
  8
4
100
AcDbLine
 10
1811.908927261329
 20
700.7458076582207
 30
0.0
 11
1811.908927261328
 21
692.1493346040725
 31
0.0
  0
LINE
  5
215
330
19
100
AcDbEntity
  8
4
100
AcDbLine
 10
1807.001449973217
 20
700.7458076582207
 30
0.0
 11
1807.001449973216
 21
694.6493346040725
 31
0.0
  0
LINE
  5
216
330
19
100
AcDbEntity
  8
4
100
AcDbLine
 10
1797.186495396993
 20
700.7458076582216
 30
0.0
 11
1797.186495396993
 21
694.6493346040734
 31
0.0
  0
LINE
  5
217
330
19
100
AcDbEntity
  8
4
100
AcDbLine
 10
1792.279018108881
 20
692.1493346040734
 30
0.0
 11
1792.279018108882
 21
700.7458076582216
 31
0.0
  0
ARC
  5
218
330
19
100
AcDbEntity
  8
4
100
AcDbCircle
 10
1794.732756752937
 20
697.865720675014
 30
0.0
 40
3.783613929059507
100
AcDbArc
 50
49.57010315516856
 51
130.4298968448217
  0
LINE
  5
219
330
19
100
AcDbEntity
  8
4
100
AcDbLine
 10
1791.601348579214
 20
692.1493346040734
 30
0.0
 11
1791.601348579215
 21
700.7458076582216
 31
0.0
  0
LINE
  5
21A
330
19
100
AcDbEntity
  8
4
100
AcDbLine
 10
1811.231257731661
 20
692.1493346040725
 30
0.0
 11
1791.601348579214
 21
692.1493346040734
 31
0.0
  0
LINE
  5
21B
330
19
100
AcDbEntity
  8
4
100
AcDbLine
 10
1794.05508722327
 20
701.6493346040734
 30
0.0
 11
1808.777519087606
 21
701.6493346040725
 31
0.0
  0
ARC
  5
21C
330
19
100
AcDbEntity
  8
4
100
AcDbCircle
 10
1794.05508722327
 20
697.865720675014
 30
0.0
 40
3.783613929059507
100
AcDbArc
 50
84.86209600149718
 51
130.4298968448217
  0
LINE
  5
21F
330
19
100
AcDbEntity
  8
4
100
AcDbLine
 10
1903.252512574967
 20
700.7458076582207
 30
0.0
 11
1903.252512574967
 21
694.6493346040725
 31
0.0
  0
LINE
  5
220
330
19
100
AcDbEntity
  8
4
100
AcDbLine
 10
1898.345035286855
 20
700.7458076582207
 30
0.0
 11
1898.345035286855
 21
692.1493346040725
 31
0.0
  0
ARC
  5
221
330
19
100
AcDbEntity
  8
4
100
AcDbCircle
 10
1900.798773930911
 20
697.8657206750131
 30
0.0
 40
3.783613929059507
100
AcDbArc
 50
49.57010315517826
 51
130.4298968448315
  0
LINE
  5
222
330
19
100
AcDbEntity
  8
L-CENTER
100
AcDbLine
 10
1908.15998986308
 20
663.7133791864608
 30
0.0
 11
1908.159989863078
 21
704.5173128586525
 31
0.0
  0
LINE
  5
223
330
19
100
AcDbEntity
  8
L-CENTER
100
AcDbLine
 10
1942.837659392748
 20
663.7133791864608
 30
0.0
 11
1942.837659392745
 21
704.5173128586525
 31
0.0
  0
LINE
  5
224
330
19
100
AcDbEntity
  8
4
100
AcDbLine
 10
2049.626981274092
 20
677.1493346040688
 30
0.0
 11
2049.626981274092
 21
695.1493346040688
 31
0.0
  0
LINE
  5
225
330
19
100
AcDbEntity
  8
4
100
AcDbLine
 10
1987.126981274092
 20
692.1493346040688
 30
0.0
 11
1987.126981274092
 21
677.1493346040688
 31
0.0
  0
LINE
  5
226
330
19
100
AcDbEntity
  8
L-CENTER
100
AcDbLine
 10
1976.932010983618
 20
675.7501744841729
 30
0.0
 11
1976.932010983618
 21
628.6966230741823
 31
0.0
  0
ARC
  5
227
330
19
100
AcDbEntity
  8
4
100
AcDbCircle
 10
1976.932010983618
 20
658.3535904688915
 30
0.0
 40
13.7957441351769
100
AcDbArc
 50
66.57340249137164
 51
113.4265975086284
  0
LINE
  5
228
330
19
100
AcDbEntity
  8
4
100
AcDbLine
 10
1968.704769647666
 20
672.1493346040688
 30
0.0
 11
1985.15925231957
 21
672.1493346040688
 31
0.0
  0
LINE
  5
229
330
19
100
AcDbEntity
  8
4
100
AcDbLine
 10
1987.901666098221
 20
661.1493346040688
 30
0.0
 11
1965.962355869015
 21
661.1493346040688
 31
0.0
  0
LINE
  5
22A
330
19
100
AcDbEntity
  8
4
100
AcDbLine
 10
1987.901666098221
 20
664.1493346040688
 30
0.0
 11
1965.962355869015
 21
664.1493346040688
 31
0.0
  0
LINE
  5
22B
330
19
100
AcDbEntity
  8
4
100
AcDbLine
 10
1982.41683854092
 20
671.0121536934421
 30
0.0
 11
1982.41683854092
 21
664.1493346040688
 31
0.0
  0
LINE
  5
22C
330
19
100
AcDbEntity
  8
4
100
AcDbLine
 10
1987.901666098221
 20
671.0121536934421
 30
0.0
 11
1987.901666098221
 21
661.1493346040688
 31
0.0
  0
ARC
  5
22D
330
19
100
AcDbEntity
  8
4
100
AcDbCircle
 10
1985.15925231957
 20
668.2739557287896
 30
0.0
 40
3.875378875279244
100
AcDbArc
 50
44.95592676274519
 51
135.0440732372548
  0
ARC
  5
22E
330
19
100
AcDbEntity
  8
4
100
AcDbCircle
 10
1968.704769647666
 20
668.2739557287896
 30
0.0
 40
3.875378875279264
100
AcDbArc
 50
44.95592676274519
 51
135.0440732372548
  0
LINE
  5
22F
330
19
100
AcDbEntity
  8
4
100
AcDbLine
 10
1971.447183426317
 20
671.0121536934421
 30
0.0
 11
1971.447183426317
 21
664.1493346040688
 31
0.0
  0
LINE
  5
230
330
19
100
AcDbEntity
  8
4
100
AcDbLine
 10
1965.962355869015
 20
661.1493346040688
 30
0.0
 11
1965.962355869015
 21
671.0121536934421
 31
0.0
  0
ARC
  5
231
330
19
100
AcDbEntity
  8
4
100
AcDbCircle
 10
1942.837659392746
 20
687.8701693066137
 30
0.0
 40
13.77916529745958
100
AcDbArc
 50
69.13593563608373
 51
110.8640643639235
  0
LINE
  5
232
330
19
100
AcDbEntity
  8
4
100
AcDbLine
 10
1950.198875324914
 20
701.6493346040734
 30
0.0
 11
1935.476443460578
 21
701.6493346040725
 31
0.0
  0
LINE
  5
233
330
19
100
AcDbEntity
  8
4
100
AcDbLine
 10
1933.022704816522
 20
692.1493346040725
 30
0.0
 11
1952.652613968969
 21
692.1493346040734
 31
0.0
  0
LINE
  5
234
330
19
100
AcDbEntity
  8
4
100
AcDbLine
 10
1933.022704816522
 20
694.6493346040725
 30
0.0
 11
1952.652613968969
 21
694.6493346040734
 31
0.0
  0
ARC
  5
236
330
19
100
AcDbEntity
  8
4
100
AcDbCircle
 10
1915.521205795246
 20
697.865720675014
 30
0.0
 40
3.783613929059507
100
AcDbArc
 50
49.57010315517826
 51
130.4298968448315
  0
LINE
  5
237
330
19
100
AcDbEntity
  8
4
100
AcDbLine
 10
1917.974944439302
 20
692.1493346040734
 30
0.0
 11
1917.974944439302
 21
700.7458076582216
 31
0.0
  0
LINE
  5
238
330
19
100
AcDbEntity
  8
4
100
AcDbLine
 10
1913.06746715119
 20
700.7458076582216
 30
0.0
 11
1913.067467151191
 21
694.6493346040734
 31
0.0
  0
ARC
  5
239
330
19
100
AcDbEntity
  8
4
100
AcDbCircle
 10
1935.476443460578
 20
697.8657206750131
 30
0.0
 40
3.783613929059507
100
AcDbArc
 50
49.57010315517826
 51
130.4298968448315
  0
LINE
  5
23A
330
19
100
AcDbEntity
  8
4
100
AcDbLine
 10
1933.022704816522
 20
700.7458076582207
 30
0.0
 11
1933.022704816522
 21
692.1493346040725
 31
0.0
  0
LINE
  5
23B
330
19
100
AcDbEntity
  8
4
100
AcDbLine
 10
1937.930182104634
 20
700.7458076582207
 30
0.0
 11
1937.930182104634
 21
694.6493346040725
 31
0.0
  0
LINE
  5
23E
330
19
100
AcDbEntity
  8
4
100
AcDbLine
 10
1947.745136680858
 20
700.7458076582216
 30
0.0
 11
1947.745136680858
 21
694.6493346040734
 31
0.0
  0
LINE
  5
23F
330
19
100
AcDbEntity
  8
4
100
AcDbLine
 10
1952.652613968969
 20
692.1493346040734
 30
0.0
 11
1952.652613968969
 21
700.7458076582216
 31
0.0
  0
ARC
  5
240
330
19
100
AcDbEntity
  8
4
100
AcDbCircle
 10
1950.198875324914
 20
697.865720675014
 30
0.0
 40
3.783613929059507
100
AcDbArc
 50
49.57010315517826
 51
130.4298968448315
  0
LINE
  5
245
330
19
100
AcDbEntity
  8
4
100
AcDbLine
 10
2094.626981274092
 20
677.1493346040688
 30
0.0
 11
2094.626981274092
 21
695.1493346040688
 31
0.0
  0
LINE
  5
246
330
19
100
AcDbEntity
  8
L-CENTER
100
AcDbLine
 10
2072.126981274092
 20
661.1493346040688
 30
0.0
 11
2072.126981274092
 21
780.8756526040697
 31
0.0
  0
LINE
  5
247
330
19
100
AcDbEntity
  8
L-CENTER
100
AcDbLine
 10
2206.126981274092
 20
588.1493346040697
 30
0.0
 11
2151.126981274092
 21
588.1493346040697
 31
0.0
  0
LINE
  5
248
330
19
100
AcDbEntity
  8
L-CENTER
100
AcDbLine
 10
2139.290841027478
 20
675.7501744841729
 30
0.0
 11
2139.290841027478
 21
628.6966230741823
 31
0.0
  0
LINE
  5
249
330
19
100
AcDbEntity
  8
4
100
AcDbLine
 10
2131.063599691525
 20
672.1493346040688
 30
0.0
 11
2147.518082363429
 21
672.1493346040688
 31
0.0
  0
LINE
  5
24A
330
19
100
AcDbEntity
  8
4
100
AcDbLine
 10
2150.26049614208
 20
661.1493346040688
 30
0.0
 11
2128.321185912874
 21
661.1493346040688
 31
0.0
  0
LINE
  5
24B
330
19
100
AcDbEntity
  8
4
100
AcDbLine
 10
2150.26049614208
 20
664.1493346040688
 30
0.0
 11
2128.321185912874
 21
664.1493346040688
 31
0.0
  0
ARC
  5
24C
330
19
100
AcDbEntity
  8
4
100
AcDbCircle
 10
2147.518082363429
 20
668.2739557287896
 30
0.0
 40
3.875378875279244
100
AcDbArc
 50
44.95592676274519
 51
135.0440732372548
  0
LINE
  5
24D
330
19
100
AcDbEntity
  8
4
100
AcDbLine
 10
2150.26049614208
 20
671.0121536934421
 30
0.0
 11
2150.26049614208
 21
661.1493346040688
 31
0.0
  0
ARC
  5
24E
330
19
100
AcDbEntity
  8
4
100
AcDbCircle
 10
2139.290841027478
 20
658.3535904688915
 30
0.0
 40
13.7957441351769
100
AcDbArc
 50
66.57340249137289
 51
113.4265975086271
  0
LINE
  5
24F
330
19
100
AcDbEntity
  8
4
100
AcDbLine
 10
2144.775668584779
 20
671.0121536934421
 30
0.0
 11
2144.775668584779
 21
664.1493346040688
 31
0.0
  0
ARC
  5
250
330
19
100
AcDbEntity
  8
4
100
AcDbCircle
 10
2131.063599691525
 20
668.2739557287896
 30
0.0
 40
3.875378875279264
100
AcDbArc
 50
44.95592676274519
 51
135.0440732372548
  0
LINE
  5
251
330
19
100
AcDbEntity
  8
4
100
AcDbLine
 10
2133.806013470176
 20
671.0121536934421
 30
0.0
 11
2133.806013470176
 21
664.1493346040688
 31
0.0
  0
LINE
  5
252
330
19
100
AcDbEntity
  8
4
100
AcDbLine
 10
2128.321185912874
 20
661.1493346040688
 30
0.0
 11
2128.321185912874
 21
671.0121536934421
 31
0.0
  0
LINE
  5
253
330
19
100
AcDbEntity
  8
4
100
AcDbLine
 10
2147.126981274092
 20
671.6493346040688
 30
0.0
 11
2147.126981274092
 21
677.1493346040688
 31
0.0
  0
LINE
  5
254
330
19
100
AcDbEntity
  8
4
100
AcDbLine
 10
2193.126981274092
 20
606.1493346040697
 30
0.0
 11
2200.126981274092
 21
606.1493346040697
 31
0.0
  0
LINE
  5
255
330
19
100
AcDbEntity
  8
4
100
AcDbLine
 10
2193.126981274092
 20
570.1493346040693
 30
0.0
 11
2200.126981274092
 21
570.1493346040693
 31
0.0
  0
LINE
  5
256
330
19
100
AcDbEntity
  8
4
100
AcDbLine
 10
2193.126981274092
 20
571.1493346040702
 30
0.0
 11
2191.126981274092
 21
571.1493346040702
 31
0.0
  0
LINE
  5
257
330
19
100
AcDbEntity
  8
4
100
AcDbLine
 10
2193.126981274092
 20
606.1493346040697
 30
0.0
 11
2193.126981274092
 21
570.1493346040693
 31
0.0
  0
LINE
  5
258
330
19
100
AcDbEntity
  8
4
100
AcDbLine
 10
2193.126981274092
 20
605.1493346040693
 30
0.0
 11
2191.126981274092
 21
605.1493346040693
 31
0.0
  0
LINE
  5
259
330
19
100
AcDbEntity
  8
4
100
AcDbLine
 10
2191.126981274092
 20
608.1493346040697
 30
0.0
 11
2186.126981274092
 21
608.1493346040697
 31
0.0
  0
LINE
  5
25A
330
19
100
AcDbEntity
  8
4
100
AcDbLine
 10
2191.126981274092
 20
568.1493346040697
 30
0.0
 11
2186.126981274092
 21
568.1493346040697
 31
0.0
  0
LINE
  5
25B
330
19
100
AcDbEntity
  8
4
100
AcDbLine
 10
2191.126981274092
 20
608.1493346040697
 30
0.0
 11
2191.126981274092
 21
568.1493346040697
 31
0.0
  0
LINE
  5
25C
330
19
100
AcDbEntity
  8
4
100
AcDbLine
 10
2195.126981274092
 20
597.1493346040697
 30
0.0
 11
2200.126981274092
 21
597.1493346040697
 31
0.0
  0
LINE
  5
25D
330
19
100
AcDbEntity
  8
4
100
AcDbLine
 10
2200.126981274092
 20
606.1493346040697
 30
0.0
 11
2200.126981274092
 21
570.1493346040693
 31
0.0
  0
LINE
  5
25E
330
19
100
AcDbEntity
  8
4
100
AcDbLine
 10
2195.126981274092
 20
606.1493346040697
 30
0.0
 11
2195.126981274092
 21
570.1493346040693
 31
0.0
  0
LINE
  5
25F
330
19
100
AcDbEntity
  8
4
100
AcDbLine
 10
2195.126981274092
 20
579.1493346040697
 30
0.0
 11
2200.126981274092
 21
579.1493346040697
 31
0.0
  0
LINE
  5
260
330
19
100
AcDbEntity
  8
4
100
AcDbLine
 10
2177.126981274092
 20
643.1493346040688
 30
0.0
 11
2177.126981274092
 21
633.1493346040688
 31
0.0
  0
LINE
  5
261
330
19
100
AcDbEntity
  8
4
100
AcDbLine
 10
2177.126981274092
 20
643.1493346040688
 30
0.0
 11
2177.126981274092
 21
661.1493346040688
 31
0.0
  0
LINE
  5
262
330
19
100
AcDbEntity
  8
4
100
AcDbLine
 10
2072.126981274092
 20
697.1493346040688
 30
0.0
 11
2094.626981274092
 21
695.1493346040688
 31
0.0
  0
CIRCLE
  5
263
330
19
100
AcDbEntity
  8
4
100
AcDbCircle
 10
845.1551814542174
 20
1466.680130506027
 30
0.0
 40
52.5
  0
LINE
  5
264
330
19
100
AcDbEntity
  8
4
100
AcDbLine
 10
843.6630236907565
 20
1189.838367829343
 30
0.0
 11
833.5283838516673
 21
1185.640462558225
 31
0.0
  0
CIRCLE
  5
265
330
19
100
AcDbEntity
  8
4
100
AcDbCircle
 10
834.9602111637437
 20
1196.516270752642
 30
0.0
 40
9.5
  0
LINE
  5
266
330
19
100
AcDbEntity
  8
4
100
AcDbLine
 10
836.3920384758198
 20
1207.392078947058
 30
0.0
 11
845.0948510028336
 21
1200.714176023759
 31
0.0
  0
CIRCLE
  5
267
330
19
100
AcDbEntity
  8
4
100
AcDbCircle
 10
834.9602111637446
 20
1750.843990259414
 30
0.0
 40
9.5
  0
LINE
  5
268
330
19
100
AcDbEntity
  8
4
100
AcDbLine
 10
836.392038475821
 20
1739.968182064998
 30
0.0
 11
845.0948510028334
 21
1746.646084988296
 31
0.0
  0
LINE
  5
269
330
19
100
AcDbEntity
  8
4
100
AcDbLine
 10
843.6630236907574
 20
1757.521893182713
 30
0.0
 11
833.5283838516684
 21
1761.71979845383
 31
0.0
  0
LINE
  5
26A
330
19
100
AcDbEntity
  8
L-CENTER
100
AcDbLine
 10
824.6277584898869
 20
1725.899242881608
 30
0.0
 11
845.2926638376018
 21
1775.788737637218
 31
0.0
  0
CIRCLE
  5
26B
330
19
100
AcDbEntity
  8
L-CENTER
 48
4.0
100
AcDbCircle
 10
845.1551814542175
 20
1466.680130506028
 30
0.0
 40
75.0
  0
CIRCLE
  5
26C
330
19
100
AcDbEntity
  8
4
100
AcDbCircle
 10
845.1551814542175
 20
1466.680130506028
 30
0.0
 40
90.0
  0
LINE
  5
26D
330
19
100
AcDbEntity
  8
L-CENTER
 48
0.8
100
AcDbLine
 10
725.1551814542172
 20
1466.680130506027
 30
0.0
 11
965.1551814542174
 21
1466.680130506027
 31
0.0
  0
LINE
  5
26E
330
19
100
AcDbEntity
  8
L-CENTER
 48
0.8
100
AcDbLine
 10
376.1551814542172
 20
1473.680130506027
 30
0.0
 11
1064.155181454217
 21
1473.680130506027
 31
0.0
  0
LINE
  5
26F
330
19
100
AcDbEntity
  8
L-CENTER
 48
0.8
100
AcDbLine
 10
1189.430083894877
 20
1666.680130506027
 30
0.0
 11
250.880279013557
 21
1666.680130506027
 31
0.0
  0
LINE
  5
270
330
19
100
AcDbEntity
  8
L-CENTER
100
AcDbLine
 10
824.6277584898867
 20
1221.461018130447
 30
0.0
 11
845.2926638376016
 21
1171.571523374836
 31
0.0
  0
CIRCLE
  5
271
330
19
100
AcDbEntity
  8
4
100
AcDbCircle
 10
720.1551814542173
 20
1473.680130506028
 30
0.0
 40
324.0
  0
CIRCLE
  5
272
330
19
100
AcDbEntity
  8
L-CENTER
 48
4.0
100
AcDbCircle
 10
720.1551814542173
 20
1473.680130506028
 30
0.0
 40
300.0
  0
CIRCLE
  5
273
330
19
100
AcDbEntity
  8
4
100
AcDbCircle
 10
720.1551814542173
 20
1473.680130506028
 30
0.0
 40
314.9999999999999
  0
CIRCLE
  5
274
330
19
100
AcDbEntity
  8
4
100
AcDbCircle
 10
720.1551814542173
 20
1473.680130506028
 30
0.0
 40
285.0
  0
ARC
  5
275
330
19
100
AcDbEntity
  8
4
100
AcDbCircle
 10
720.1551814542173
 20
1473.680130506028
 30
0.0
 40
250.0
100
AcDbArc
 50
272.0050369384209
 51
87.99496306157906
  0
CIRCLE
  5
276
330
19
100
AcDbEntity
  8
4
100
AcDbCircle
 10
470.1551814542174
 20
1788.680130506028
 30
0.0
 40
11.0
  0
LINE
  5
277
330
19
100
AcDbEntity
  8
L-CENTER
 48
0.8
100
AcDbLine
 10
470.1551814542172
 20
1819.680130506027
 30
0.0
 11
470.1551814542172
 21
1757.680130506027
 31
0.0
  0
LINE
  5
278
330
19
100
AcDbEntity
  8
4
100
AcDbLine
 10
410.1551814542172
 20
1828.680130506027
 30
0.0
 11
410.1551814542172
 21
1741.680130506027
 31
0.0
  0
LINE
  5
279
330
19
100
AcDbEntity
  8
4
100
AcDbLine
 10
570.1551814542172
 20
1828.680130506027
 30
0.0
 11
570.1551814542172
 21
1760.86648115661
 31
0.0
  0
LINE
  5
27A
330
19
100
AcDbEntity
  8
4
100
AcDbLine
 10
558.1551814542172
 20
1828.680130506027
 30
0.0
 11
558.1551814542172
 21
1754.272361332185
 31
0.0
  0
LINE
  5
27B
330
19
100
AcDbEntity
  8
L-CENTER
 48
0.8
100
AcDbLine
 10
720.1551814542172
 20
1817.680130506027
 30
0.0
 11
720.1551814542172
 21
1129.680130506028
 31
0.0
  0
ARC
  5
27C
330
19
100
AcDbEntity
  8
4
100
AcDbCircle
 10
720.1551814542173
 20
1473.680130506028
 30
0.0
 40
250.0
100
AcDbArc
 50
92.00503693842093
 51
267.9949630615791
  0
LINE
  5
27D
330
19
100
AcDbEntity
  8
4
100
AcDbLine
 10
410.1551814542172
 20
1328.680130506028
 30
0.0
 11
410.1551814542172
 21
1148.680130506028
 31
0.0
  0
LINE
  5
27E
330
19
100
AcDbEntity
  8
4
100
AcDbLine
 10
410.1551814542172
 20
1148.680130506028
 30
0.0
 11
570.1551814542172
 21
1148.680130506028
 31
0.0
  0
CIRCLE
  5
27F
330
19
100
AcDbEntity
  8
4
100
AcDbCircle
 10
470.1551814542173
 20
1188.680130506028
 30
0.0
 40
11.0
  0
LINE
  5
280
330
19
100
AcDbEntity
  8
L-CENTER
 48
0.8
100
AcDbLine
 10
470.1551814542172
 20
1219.680130506028
 30
0.0
 11
470.1551814542172
 21
1157.680130506028
 31
0.0
  0
LINE
  5
281
330
19
100
AcDbEntity
  8
L-CENTER
 48
0.8
100
AcDbLine
 10
501.1551814542172
 20
1188.680130506028
 30
0.0
 11
439.1551814542172
 21
1188.680130506028
 31
0.0
  0
CIRCLE
  5
282
330
19
100
AcDbEntity
  8
4
100
AcDbCircle
 10
605.3501517446907
 20
1196.516270752642
 30
0.0
 40
9.5
  0
LINE
  5
283
330
19
100
AcDbEntity
  8
4
100
AcDbLine
 10
596.6473392176779
 20
1189.838367829343
 30
0.0
 11
606.7819790567671
 21
1185.640462558225
 31
0.0
  0
LINE
  5
284
330
19
100
AcDbEntity
  8
4
100
AcDbLine
 10
606.7819790567671
 20
1185.640462558225
 30
0.0
 11
615.4847915837795
 21
1192.318365481524
 31
0.0
  0
LINE
  5
285
330
19
100
AcDbEntity
  8
L-CENTER
100
AcDbLine
 10
615.6826044185482
 20
1221.461018130447
 30
0.0
 11
595.0176990708333
 21
1171.571523374836
 31
0.0
  0
LINE
  5
286
330
19
100
AcDbEntity
  8
4
100
AcDbLine
 10
558.1551814542172
 20
1193.087899679869
 30
0.0
 11
558.1551814542172
 21
1148.680130506028
 31
0.0
  0
LINE
  5
287
330
19
100
AcDbEntity
  8
4
100
AcDbLine
 10
570.1551814542172
 20
1186.493779855444
 30
0.0
 11
570.1551814542172
 21
1148.680130506028
 31
0.0
  0
LINE
  5
288
330
19
100
AcDbEntity
  8
4
100
AcDbLine
 10
603.9183244326146
 20
1207.392078947058
 30
0.0
 11
595.2155119056008
 21
1200.714176023759
 31
0.0
  0
LINE
  5
289
330
19
100
AcDbEntity
  8
4
100
AcDbLine
 10
615.4847915837795
 20
1192.318365481524
 30
0.0
 11
614.0529642717036
 21
1203.19417367594
 31
0.0
  0
LINE
  5
28A
330
19
100
AcDbEntity
  8
4
100
AcDbLine
 10
595.2155119056008
 20
1200.714176023759
 30
0.0
 11
596.6473392176779
 21
1189.838367829343
 31
0.0
  0
LINE
  5
28B
330
19
100
AcDbEntity
  8
4
100
AcDbLine
 10
614.0529642717036
 20
1203.19417367594
 30
0.0
 11
603.9183244326146
 21
1207.392078947058
 31
0.0
  0
LINE
  5
28C
330
19
100
AcDbEntity
  8
4
100
AcDbLine
 10
833.5283838516673
 20
1185.640462558225
 30
0.0
 11
824.8255713246549
 21
1192.318365481524
 31
0.0
  0
LINE
  5
28D
330
19
100
AcDbEntity
  8
L-CENTER
 48
4.0
100
AcDbLine
 10
680.1551814542172
 20
1263.680130506028
 30
0.0
 11
760.1551814542174
 21
1263.680130506028
 31
0.0
  0
ARC
  5
28E
330
19
100
AcDbEntity
  8
4
100
AcDbCircle
 10
720.1551814542173
 20
1263.680130506028
 30
0.0
 40
25.0
100
AcDbArc
 50
293.5781784781998
 51
66.42182152179805
  0
ARC
  5
28F
330
19
100
AcDbEntity
  8
4
100
AcDbCircle
 10
720.1551814542174
 20
1263.680130506028
 30
0.0
 40
22.5
100
AcDbArc
 50
296.3877999612436
 51
63.61220003875751
  0
ARC
  5
290
330
19
100
AcDbEntity
  8
4
100
AcDbCircle
 10
720.1551814542174
 20
1263.680130506028
 30
0.0
 40
22.5
100
AcDbArc
 50
116.3877999612425
 51
243.6122000387565
  0
ARC
  5
291
330
19
100
AcDbEntity
  8
4
100
AcDbCircle
 10
720.1551814542174
 20
1263.680130506028
 30
0.0
 40
20.0
100
AcDbArc
 50
119.9999999999999
 51
240.0000000000001
  0
ARC
  5
292
330
19
100
AcDbEntity
  8
4
100
AcDbCircle
 10
720.1551814542174
 20
1263.680130506028
 30
0.0
 40
20.0
100
AcDbArc
 50
299.9999999999998
 51
60.00000000000011
  0
LINE
  5
293
330
19
100
AcDbEntity
  8
4
100
AcDbLine
 10
710.1551814542163
 20
1228.680130506028
 30
0.0
 11
710.1551814542172
 21
1298.680130506028
 31
0.0
  0
LINE
  5
294
330
19
100
AcDbEntity
  8
4
100
AcDbLine
 10
730.1551814542163
 20
1228.680130506028
 30
0.0
 11
730.1551814542172
 21
1298.680130506028
 31
0.0
  0
ARC
  5
295
330
19
100
AcDbEntity
  8
4
100
AcDbCircle
 10
720.1551814542173
 20
1263.680130506028
 30
0.0
 40
25.0
100
AcDbArc
 50
113.5781784782027
 51
246.4218215217964
  0
ARC
  5
296
330
19
100
AcDbEntity
  8
4
100
AcDbCircle
 10
720.1551814542174
 20
1228.680130506028
 30
0.0
 40
10.0
100
AcDbArc
 50
180.0
 51
0.0
  0
ARC
  5
297
330
19
100
AcDbEntity
  8
4
100
AcDbCircle
 10
720.1551814542174
 20
1298.680130506028
 30
0.0
 40
10.0
100
AcDbArc
 50
0.0
 51
180.0
  0
LINE
  5
298
330
19
100
AcDbEntity
  8
4
100
AcDbLine
 10
826.2573986367308
 20
1203.19417367594
 30
0.0
 11
836.3920384758198
 21
1207.392078947058
 31
0.0
  0
LINE
  5
299
330
19
100
AcDbEntity
  8
4
100
AcDbLine
 10
824.8255713246549
 20
1192.318365481524
 30
0.0
 11
826.2573986367308
 21
1203.19417367594
 31
0.0
  0
LINE
  5
29A
330
19
100
AcDbEntity
  8
4
100
AcDbLine
 10
384.1551814542172
 20
1741.680130506027
 30
0.0
 11
538.0782746263603
 21
1741.680130506027
 31
0.0
  0
CIRCLE
  5
29B
330
19
100
AcDbEntity
  8
4
100
AcDbCircle
 10
623.8070393793406
 20
1483.680130506028
 30
0.0
 40
115.0
  0
LINE
  5
29C
330
19
100
AcDbEntity
  8
L-CENTER
 48
0.8
100
AcDbLine
 10
478.8070393793396
 20
1483.680130506027
 30
0.0
 11
768.8070393793398
 21
1483.680130506027
 31
0.0
  0
LINE
  5
29D
330
19
100
AcDbEntity
  8
L-CENTER
100
AcDbLine
 10
467.9360690786361
 20
1369.207553470358
 30
0.0
 11
418.046574323027
 21
1348.542648122644
 31
0.0
  0
LINE
  5
29E
330
19
100
AcDbEntity
  8
4
100
AcDbLine
 10
410.1551814542172
 20
1328.680130506028
 30
0.0
 11
430.4121918927785
 21
1328.680130506028
 31
0.0
  0
LINE
  5
29F
330
19
100
AcDbEntity
  8
4
100
AcDbLine
 10
453.8671298952472
 20
1357.443273484424
 30
0.0
 11
449.66922462413
 21
1367.577913323514
 31
0.0
  0
LINE
  5
2A0
330
19
100
AcDbEntity
  8
4
100
AcDbLine
 10
436.3134187775329
 20
1350.172288269488
 30
0.0
 11
447.1892269719488
 21
1348.740460957412
 31
0.0
  0
LINE
  5
2A1
330
19
100
AcDbEntity
  8
4
100
AcDbLine
 10
438.7934164297135
 20
1369.00974063559
 30
0.0
 11
432.1155135064155
 21
1360.306928108577
 31
0.0
  0
LINE
  5
2A2
330
19
100
AcDbEntity
  8
4
100
AcDbLine
 10
432.1155135064155
 20
1360.306928108577
 30
0.0
 11
436.3134187775329
 21
1350.172288269488
 31
0.0
  0
CIRCLE
  5
2A3
330
19
100
AcDbEntity
  8
4
100
AcDbCircle
 10
442.9913217008311
 20
1358.875100796501
 30
0.0
 40
9.5
  0
LINE
  5
2A4
330
19
100
AcDbEntity
  8
4
100
AcDbLine
 10
447.1892269719488
 20
1348.740460957412
 30
0.0
 11
453.8671298952472
 21
1357.443273484424
 31
0.0
  0
LINE
  5
2A5
330
19
100
AcDbEntity
  8
4
100
AcDbLine
 10
449.66922462413
 20
1367.577913323514
 30
0.0
 11
438.7934164297135
 21
1369.00974063559
 31
0.0
  0
LINE
  5
2A6
330
19
100
AcDbEntity
  8
4
100
AcDbLine
 10
372.1551814542163
 20
1738.680130506027
 30
0.0
 11
372.1551814542163
 21
1594.680130506028
 31
0.0
  0
LINE
  5
2A7
330
19
100
AcDbEntity
  8
4
100
AcDbLine
 10
384.1551814542172
 20
1741.680130506027
 30
0.0
 11
384.1551814542172
 21
1591.680130506027
 31
0.0
  0
LINE
  5
2A8
330
19
100
AcDbEntity
  8
L-CENTER
100
AcDbLine
 10
467.9360690786361
 20
1578.152707541696
 30
0.0
 11
418.046574323027
 21
1598.817612889411
 31
0.0
  0
LINE
  5
2A9
330
19
100
AcDbEntity
  8
4
100
AcDbLine
 10
372.1551814542163
 20
1605.600175929803
 30
0.0
 11
372.1551814542163
 21
1625.230085082251
 31
0.0
  0
LINE
  5
2AA
330
19
100
AcDbEntity
  8
4
100
AcDbLine
 10
369.6551814542163
 20
1605.600175929803
 30
0.0
 11
369.6551814542163
 21
1625.230085082251
 31
0.0
  0
LINE
  5
2AB
330
19
100
AcDbEntity
  8
4
100
AcDbLine
 10
362.6551814542163
 20
1622.776346438194
 30
0.0
 11
362.6551814542163
 21
1608.053914573859
 31
0.0
  0
ARC
  5
2AC
330
19
100
AcDbEntity
  8
4
100
AcDbCircle
 10
376.4343467516755
 20
1615.415130506026
 30
0.0
 40
13.77916529745958
100
AcDbArc
 50
159.1359356360806
 51
200.8640643639194
  0
LINE
  5
2AD
330
19
100
AcDbEntity
  8
4
100
AcDbLine
 10
384.1551814542172
 20
1591.680130506027
 30
0.0
 11
418.4069420227333
 21
1591.680130506027
 31
0.0
  0
ARC
  5
2AE
330
19
100
AcDbEntity
  8
4
100
AcDbCircle
 10
366.4387953832756
 20
1608.053914573859
 30
0.0
 40
3.783613929059507
100
AcDbArc
 50
139.5701031551685
 51
220.4298968448315
  0
LINE
  5
2AF
330
19
100
AcDbEntity
  8
4
100
AcDbLine
 10
363.558708400069
 20
1605.600175929803
 30
0.0
 11
372.1551814542163
 21
1605.600175929803
 31
0.0
  0
LINE
  5
2B0
330
19
100
AcDbEntity
  8
4
100
AcDbLine
 10
363.558708400069
 20
1610.507653217914
 30
0.0
 11
369.6551814542163
 21
1610.507653217914
 31
0.0
  0
LINE
  5
2B1
330
19
100
AcDbEntity
  8
4
 48
0.8
100
AcDbLine
 10
372.1551814542172
 20
1594.680130506027
 30
0.0
 11
384.1551814542163
 21
1594.680130506027
 31
0.0
  0
LINE
  5
2B2
330
19
100
AcDbEntity
  8
L-CENTER
100
AcDbLine
 10
400.2462581519931
 20
1615.415130506026
 30
0.0
 11
359.7872031996358
 21
1615.415130506026
 31
0.0
  0
LINE
  5
2B3
330
19
100
AcDbEntity
  8
4
100
AcDbLine
 10
372.1551814542163
 20
1625.230085082251
 30
0.0
 11
363.558708400069
 21
1625.230085082251
 31
0.0
  0
ARC
  5
2B4
330
19
100
AcDbEntity
  8
4
100
AcDbCircle
 10
366.4387953832756
 20
1622.776346438194
 30
0.0
 40
3.783613929059507
100
AcDbArc
 50
139.5701031551685
 51
220.4298968448315
  0
LINE
  5
2B5
330
19
100
AcDbEntity
  8
4
100
AcDbLine
 10
363.558708400069
 20
1620.322607794139
 30
0.0
 11
369.6551814542163
 21
1620.322607794139
 31
0.0
  0
LINE
  5
2B6
330
19
100
AcDbEntity
  8
4
100
AcDbLine
 10
436.3134187775322
 20
1597.187972742567
 30
0.0
 11
447.1892269719488
 21
1598.619800054644
 31
0.0
  0
LINE
  5
2B7
330
19
100
AcDbEntity
  8
4
100
AcDbLine
 10
438.7934164297135
 20
1578.350520376465
 30
0.0
 11
432.115513506415
 21
1587.053332903478
 31
0.0
  0
CIRCLE
  5
2B8
330
19
100
AcDbEntity
  8
4
100
AcDbCircle
 10
442.9913217008311
 20
1588.485160215554
 30
0.0
 40
9.5
  0
LINE
  5
2B9
330
19
100
AcDbEntity
  8
4
100
AcDbLine
 10
453.8671298952468
 20
1589.91698752763
 30
0.0
 11
449.6692246241294
 21
1579.782347688541
 31
0.0
  0
LINE
  5
2BA
330
19
100
AcDbEntity
  8
4
100
AcDbLine
 10
447.1892269719488
 20
1598.619800054644
 30
0.0
 11
453.8671298952468
 21
1589.91698752763
 31
0.0
  0
LINE
  5
2BB
330
19
100
AcDbEntity
  8
4
100
AcDbLine
 10
449.6692246241294
 20
1579.782347688541
 30
0.0
 11
438.7934164297135
 21
1578.350520376465
 31
0.0
  0
LINE
  5
2BC
330
19
100
AcDbEntity
  8
4
100
AcDbLine
 10
432.115513506415
 20
1587.053332903478
 30
0.0
 11
436.3134187775322
 21
1597.187972742567
 31
0.0
  0
LINE
  5
2BD
330
19
100
AcDbEntity
  8
L-CENTER
100
AcDbLine
 10
400.2462581519931
 20
1717.945130506027
 30
0.0
 11
359.7872031996358
 21
1717.945130506027
 31
0.0
  0
LINE
  5
2BE
330
19
100
AcDbEntity
  8
4
100
AcDbLine
 10
363.558708400069
 20
1722.852607794138
 30
0.0
 11
369.6551814542163
 21
1722.852607794138
 31
0.0
  0
LINE
  5
2BF
330
19
100
AcDbEntity
  8
4
100
AcDbLine
 10
372.1551814542163
 20
1727.76008508225
 30
0.0
 11
363.558708400069
 21
1727.76008508225
 31
0.0
  0
ARC
  5
2C0
330
19
100
AcDbEntity
  8
4
100
AcDbCircle
 10
366.4387953832756
 20
1725.306346438194
 30
0.0
 40
3.783613929059507
100
AcDbArc
 50
139.5701031551685
 51
220.4298968448315
  0
ARC
  5
2C1
330
19
100
AcDbEntity
  8
4
100
AcDbCircle
 10
366.4387953832756
 20
1710.583914573859
 30
0.0
 40
3.783613929059507
100
AcDbArc
 50
139.5701031551685
 51
220.4298968448315
  0
LINE
  5
2C2
330
19
100
AcDbEntity
  8
4
100
AcDbLine
 10
363.558708400069
 20
1708.130175929803
 30
0.0
 11
372.1551814542163
 21
1708.130175929803
 31
0.0
  0
LINE
  5
2C3
330
19
100
AcDbEntity
  8
4
100
AcDbLine
 10
363.558708400069
 20
1713.037653217915
 30
0.0
 11
369.6551814542163
 21
1713.037653217915
 31
0.0
  0
ARC
  5
2C4
330
19
100
AcDbEntity
  8
4
100
AcDbCircle
 10
376.4343467516755
 20
1717.945130506027
 30
0.0
 40
13.77916529745958
100
AcDbArc
 50
159.1359356360806
 51
200.8640643639194
  0
LINE
  5
2C5
330
19
100
AcDbEntity
  8
4
100
AcDbLine
 10
372.1551814542163
 20
1708.130175929803
 30
0.0
 11
372.1551814542163
 21
1727.76008508225
 31
0.0
  0
LINE
  5
2C6
330
19
100
AcDbEntity
  8
4
100
AcDbLine
 10
369.6551814542163
 20
1708.130175929803
 30
0.0
 11
369.6551814542163
 21
1727.76008508225
 31
0.0
  0
LINE
  5
2C7
330
19
100
AcDbEntity
  8
4
100
AcDbLine
 10
362.6551814542163
 20
1725.306346438194
 30
0.0
 11
362.6551814542163
 21
1710.583914573859
 31
0.0
  0
LINE
  5
2C8
330
19
100
AcDbEntity
  8
4
 48
0.8
100
AcDbLine
 10
372.1551814542172
 20
1738.680130506026
 30
0.0
 11
384.1551814542163
 21
1738.680130506027
 31
0.0
  0
LINE
  5
2C9
330
19
100
AcDbEntity
  8
L-CENTER
 48
0.8
100
AcDbLine
 10
501.1551814542172
 20
1788.680130506027
 30
0.0
 11
439.1551814542172
 21
1788.680130506027
 31
0.0
  0
LINE
  5
2CA
330
19
100
AcDbEntity
  8
L-CENTER
100
AcDbLine
 10
567.2384968844162
 20
1540.24867300095
 30
0.0
 11
538.954225636955
 21
1568.532944248413
 31
0.0
  0
CIRCLE
  5
2CB
330
19
100
AcDbEntity
  8
4
100
AcDbCircle
 10
553.0963612606857
 20
1554.390808624682
 30
0.0
 40
8.5
  0
LINE
  5
2CC
330
19
100
AcDbEntity
  8
4
100
AcDbLine
 10
543.6158431516569
 20
1556.931105795825
 30
0.0
 11
546.1561403227997
 21
1547.450587686796
 31
0.0
  0
LINE
  5
2CD
330
19
100
AcDbEntity
  8
4
100
AcDbLine
 10
562.5768793697134
 20
1551.850511453539
 30
0.0
 11
560.0365821985706
 21
1561.331029562567
 31
0.0
  0
CIRCLE
  5
2CE
330
19
100
AcDbEntity
  8
4
100
AcDbCircle
 10
694.5177174979946
 20
1554.390808624682
 30
0.0
 40
8.5
  0
LINE
  5
2CF
330
19
100
AcDbEntity
  8
L-CENTER
100
AcDbLine
 10
680.3755818742638
 20
1540.24867300095
 30
0.0
 11
708.659853121726
 21
1568.532944248413
 31
0.0
  0
LINE
  5
2D0
330
19
100
AcDbEntity
  8
4
100
AcDbLine
 10
685.0371993889667
 20
1551.850511453539
 30
0.0
 11
687.5774965601095
 21
1561.331029562567
 31
0.0
  0
LINE
  5
2D1
330
19
100
AcDbEntity
  8
4
100
AcDbLine
 10
703.9982356070241
 20
1556.931105795825
 30
0.0
 11
701.4579384358813
 21
1547.450587686796
 31
0.0
  0
LINE
  5
2D2
330
19
100
AcDbEntity
  8
L-CENTER
 48
4.0
100
AcDbLine
 10
623.8070393793405
 20
1348.680130506028
 30
0.0
 11
623.8070393793405
 21
1618.680130506027
 31
0.0
  0
CIRCLE
  5
2D3
330
19
100
AcDbEntity
  8
L-CENTER
 48
4.0
100
AcDbCircle
 10
623.8070393793406
 20
1483.680130506028
 30
0.0
 40
100.0
  0
LINE
  5
2D7
330
19
100
AcDbEntity
  8
4
100
AcDbLine
 10
546.1561403227997
 20
1419.909673325259
 30
0.0
 11
555.6366584318284
 21
1422.449970496402
 31
0.0
  0
LINE
  5
2D8
330
19
100
AcDbEntity
  8
4
100
AcDbLine
 10
560.0365821985706
 20
1406.029231449487
 30
0.0
 11
550.5560640895428
 21
1403.488934278345
 31
0.0
  0
CIRCLE
  5
2D9
330
19
100
AcDbEntity
  8
4
100
AcDbCircle
 10
553.0963612606857
 20
1412.969452387374
 30
0.0
 40
8.5
  0
LINE
  5
2DA
330
19
100
AcDbEntity
  8
L-CENTER
100
AcDbLine
 10
567.2384968844162
 20
1427.111588011104
 30
0.0
 11
538.954225636955
 21
1398.827316763642
 31
0.0
  0
LINE
  5
2DB
330
19
100
AcDbEntity
  8
4
100
AcDbLine
 10
543.6158431516569
 20
1410.42915521623
 30
0.0
 11
546.1561403227997
 21
1419.909673325259
 31
0.0
  0
LINE
  5
2DC
330
19
100
AcDbEntity
  8
4
100
AcDbLine
 10
550.5560640895428
 20
1403.488934278345
 30
0.0
 11
543.6158431516569
 21
1410.42915521623
 31
0.0
  0
LINE
  5
2DD
330
19
100
AcDbEntity
  8
4
100
AcDbLine
 10
555.6366584318284
 20
1422.449970496402
 30
0.0
 11
562.5768793697134
 21
1415.509749558516
 31
0.0
  0
LINE
  5
2DE
330
19
100
AcDbEntity
  8
4
100
AcDbLine
 10
562.5768793697134
 20
1415.509749558516
 30
0.0
 11
560.0365821985706
 21
1406.029231449487
 31
0.0
  0
LINE
  5
2E1
330
19
100
AcDbEntity
  8
4
100
AcDbLine
 10
546.1561403227997
 20
1547.450587686796
 30
0.0
 11
555.6366584318284
 21
1544.910290515653
 31
0.0
  0
LINE
  5
2E2
330
19
100
AcDbEntity
  8
4
100
AcDbLine
 10
555.6366584318284
 20
1544.910290515653
 30
0.0
 11
562.5768793697134
 21
1551.850511453539
 31
0.0
  0
LINE
  5
2E4
330
19
100
AcDbEntity
  8
4
100
AcDbLine
 10
701.4579384358813
 20
1419.909673325259
 30
0.0
 11
691.9774203268526
 21
1422.449970496402
 31
0.0
  0
LINE
  5
2E5
330
19
100
AcDbEntity
  8
4
100
AcDbLine
 10
691.9774203268526
 20
1422.449970496402
 30
0.0
 11
685.0371993889667
 21
1415.509749558516
 31
0.0
  0
LINE
  5
2E6
330
19
100
AcDbEntity
  8
4
100
AcDbLine
 10
703.9982356070241
 20
1410.42915521623
 30
0.0
 11
701.4579384358813
 21
1419.909673325259
 31
0.0
  0
LINE
  5
2E7
330
19
100
AcDbEntity
  8
4
100
AcDbLine
 10
687.5774965601095
 20
1406.029231449487
 30
0.0
 11
697.0580146691382
 21
1403.488934278345
 31
0.0
  0
LINE
  5
2E8
330
19
100
AcDbEntity
  8
L-CENTER
100
AcDbLine
 10
680.3755818742638
 20
1427.111588011104
 30
0.0
 11
708.659853121726
 21
1398.827316763642
 31
0.0
  0
CIRCLE
  5
2E9
330
19
100
AcDbEntity
  8
4
100
AcDbCircle
 10
694.5177174979946
 20
1412.969452387374
 30
0.0
 40
8.5
  0
LINE
  5
2EA
330
19
100
AcDbEntity
  8
4
100
AcDbLine
 10
685.0371993889667
 20
1415.509749558516
 30
0.0
 11
687.5774965601095
 21
1406.029231449487
 31
0.0
  0
LINE
  5
2EB
330
19
100
AcDbEntity
  8
4
100
AcDbLine
 10
697.0580146691382
 20
1403.488934278345
 30
0.0
 11
703.9982356070241
 21
1410.42915521623
 31
0.0
  0
LINE
  5
2EC
330
19
100
AcDbEntity
  8
4
100
AcDbLine
 10
794.6624700363648
 20
1423.12764002607
 30
0.0
 11
801.6026909742502
 21
1416.187419088184
 31
0.0
  0
LINE
  5
2ED
330
19
100
AcDbEntity
  8
4
100
AcDbLine
 10
799.0623938031074
 20
1406.706900979155
 30
0.0
 11
789.5818756940791
 21
1404.166603808013
 31
0.0
  0
CIRCLE
  5
2EE
330
19
100
AcDbEntity
  8
4
100
AcDbCircle
 10
792.1221728652218
 20
1413.647121917042
 30
0.0
 40
8.5
  0
LINE
  5
2EF
330
19
100
AcDbEntity
  8
L-CENTER
100
AcDbLine
 10
806.264308488953
 20
1427.789257540772
 30
0.0
 11
777.9800372414909
 21
1399.504986293311
 31
0.0
  0
LINE
  5
2F0
330
19
100
AcDbEntity
  8
4
100
AcDbLine
 10
785.1819519273361
 20
1420.587342854927
 30
0.0
 11
794.6624700363648
 21
1423.12764002607
 31
0.0
  0
LINE
  5
2F1
330
19
100
AcDbEntity
  8
4
100
AcDbLine
 10
782.6416547561932
 20
1411.106824745898
 30
0.0
 11
785.1819519273361
 21
1420.587342854927
 31
0.0
  0
LINE
  5
2F2
330
19
100
AcDbEntity
  8
4
100
AcDbLine
 10
789.5818756940791
 20
1404.166603808013
 30
0.0
 11
782.6416547561932
 21
1411.106824745898
 31
0.0
  0
LINE
  5
2F3
330
19
100
AcDbEntity
  8
4
100
AcDbLine
 10
801.6026909742502
 20
1416.187419088184
 30
0.0
 11
799.0623938031074
 21
1406.706900979155
 31
0.0
  0
LINE
  5
2F4
330
19
100
AcDbEntity
  8
4
100
AcDbLine
 10
701.4579384358813
 20
1547.450587686796
 30
0.0
 11
691.9774203268526
 21
1544.910290515653
 31
0.0
  0
LINE
  5
2F5
330
19
100
AcDbEntity
  8
4
100
AcDbLine
 10
691.9774203268526
 20
1544.910290515653
 30
0.0
 11
685.0371993889667
 21
1551.850511453539
 31
0.0
  0
LINE
  5
2F6
330
19
100
AcDbEntity
  8
L-CENTER
100
AcDbLine
 10
806.264308488953
 20
1505.571003471283
 30
0.0
 11
777.9800372414909
 21
1533.855274718744
 31
0.0
  0
LINE
  5
2F7
330
19
100
AcDbEntity
  8
4
100
AcDbLine
 10
794.6624700363648
 20
1510.232620985985
 30
0.0
 11
801.6026909742502
 21
1517.172841923871
 31
0.0
  0
CIRCLE
  5
2F8
330
19
100
AcDbEntity
  8
4
100
AcDbCircle
 10
792.1221728652218
 20
1519.713139095014
 30
0.0
 40
8.5
  0
LINE
  5
2F9
330
19
100
AcDbEntity
  8
4
100
AcDbLine
 10
799.0623938031074
 20
1526.653360032899
 30
0.0
 11
789.5818756940791
 21
1529.193657204042
 31
0.0
  0
LINE
  5
2FA
330
19
100
AcDbEntity
  8
4
100
AcDbLine
 10
782.6416547561932
 20
1522.253436266157
 30
0.0
 11
785.1819519273361
 21
1512.772918157128
 31
0.0
  0
LINE
  5
2FB
330
19
100
AcDbEntity
  8
4
100
AcDbLine
 10
785.1819519273361
 20
1512.772918157128
 30
0.0
 11
794.6624700363648
 21
1510.232620985985
 31
0.0
  0
LINE
  5
2FC
330
19
100
AcDbEntity
  8
4
100
AcDbLine
 10
789.5818756940791
 20
1529.193657204042
 30
0.0
 11
782.6416547561932
 21
1522.253436266157
 31
0.0
  0
LINE
  5
2FD
330
19
100
AcDbEntity
  8
4
100
AcDbLine
 10
801.6026909742502
 20
1517.172841923871
 30
0.0
 11
799.0623938031074
 21
1526.653360032899
 31
0.0
  0
LINE
  5
2FE
330
19
100
AcDbEntity
  8
4
100
AcDbLine
 10
560.0365821985706
 20
1561.331029562567
 30
0.0
 11
550.5560640895428
 21
1563.87132673371
 31
0.0
  0
LINE
  5
2FF
330
19
100
AcDbEntity
  8
4
100
AcDbLine
 10
550.5560640895428
 20
1563.87132673371
 30
0.0
 11
543.6158431516569
 21
1556.931105795825
 31
0.0
  0
LINE
  5
300
330
19
100
AcDbEntity
  8
L-CENTER
100
AcDbLine
 10
615.6826044185482
 20
1725.899242881608
 30
0.0
 11
595.0176990708333
 21
1775.788737637218
 31
0.0
  0
LINE
  5
301
330
19
100
AcDbEntity
  8
4
100
AcDbLine
 10
596.647339217677
 20
1757.521893182713
 30
0.0
 11
606.781979056766
 21
1761.71979845383
 31
0.0
  0
LINE
  5
302
330
19
100
AcDbEntity
  8
4
100
AcDbLine
 10
603.9183244326134
 20
1739.968182064998
 30
0.0
 11
595.215511905601
 21
1746.646084988296
 31
0.0
  0
LINE
  5
303
330
19
100
AcDbEntity
  8
4
100
AcDbLine
 10
615.4847915837797
 20
1755.041895530532
 30
0.0
 11
614.0529642717026
 21
1744.166087336116
 31
0.0
  0
LINE
  5
304
330
19
100
AcDbEntity
  8
4
100
AcDbLine
 10
614.0529642717026
 20
1744.166087336116
 30
0.0
 11
603.9183244326134
 21
1739.968182064998
 31
0.0
  0
CIRCLE
  5
305
330
19
100
AcDbEntity
  8
4
100
AcDbCircle
 10
605.3501517446898
 20
1750.843990259414
 30
0.0
 40
9.5
  0
LINE
  5
306
330
19
100
AcDbEntity
  8
4
100
AcDbLine
 10
595.215511905601
 20
1746.646084988296
 30
0.0
 11
596.647339217677
 21
1757.521893182713
 31
0.0
  0
LINE
  5
307
330
19
100
AcDbEntity
  8
4
100
AcDbLine
 10
606.781979056766
 20
1761.71979845383
 30
0.0
 11
615.4847915837797
 21
1755.041895530532
 31
0.0
  0
ARC
  5
308
330
19
100
AcDbEntity
  8
4
100
AcDbCircle
 10
720.1551814542173
 20
1683.680130506028
 30
0.0
 40
25.0
100
AcDbArc
 50
293.5781784781997
 51
66.42182152179943
  0
ARC
  5
309
330
19
100
AcDbEntity
  8
4
100
AcDbCircle
 10
720.1551814542174
 20
1683.680130506027
 30
0.0
 40
22.5
100
AcDbArc
 50
296.387799961243
 51
63.61220003875699
  0
ARC
  5
30A
330
19
100
AcDbEntity
  8
4
100
AcDbCircle
 10
720.1551814542174
 20
1683.680130506027
 30
0.0
 40
22.5
100
AcDbArc
 50
116.387799961243
 51
243.612200038757
  0
ARC
  5
30B
330
19
100
AcDbEntity
  8
4
100
AcDbCircle
 10
720.1551814542174
 20
1683.680130506027
 30
0.0
 40
20.0
100
AcDbArc
 50
119.9999999999999
 51
240.0000000000001
  0
ARC
  5
30C
330
19
100
AcDbEntity
  8
4
100
AcDbCircle
 10
720.1551814542174
 20
1683.680130506027
 30
0.0
 40
20.0
100
AcDbArc
 50
299.9999999999998
 51
60.00000000000011
  0
LINE
  5
30D
330
19
100
AcDbEntity
  8
4
100
AcDbLine
 10
710.1551814542163
 20
1648.680130506027
 30
0.0
 11
710.1551814542172
 21
1718.680130506027
 31
0.0
  0
LINE
  5
30E
330
19
100
AcDbEntity
  8
4
100
AcDbLine
 10
730.1551814542163
 20
1648.680130506027
 30
0.0
 11
730.1551814542172
 21
1718.680130506027
 31
0.0
  0
ARC
  5
30F
330
19
100
AcDbEntity
  8
4
100
AcDbCircle
 10
720.1551814542173
 20
1683.680130506028
 30
0.0
 40
25.0
100
AcDbArc
 50
113.5781784782027
 51
246.4218215217955
  0
LINE
  5
310
330
19
100
AcDbEntity
  8
L-CENTER
 48
4.0
100
AcDbLine
 10
680.1551814542172
 20
1353.680130506027
 30
0.0
 11
760.1551814542174
 21
1353.680130506027
 31
0.0
  0
LWPOLYLINE
  5
311
330
19
100
AcDbEntity
  8
4
100
AcDbPolyline
 90
        6
 70
     1
 43
0.0
 10
720.1551814542172
 20
1376.680130506027
 10
700.2365971671751
 20
1365.180130506027
 10
700.2365971671751
 20
1342.180130506027
 10
720.1551814542172
 20
1330.680130506027
 10
740.0737657412593
 20
1342.180130506027
 10
740.0737657412593
 20
1365.180130506027
  0
CIRCLE
  5
312
330
19
100
AcDbEntity
  8
4
100
AcDbCircle
 10
720.1551814542172
 20
1353.680130506027
 30
0.0
 40
23.0
  0
CIRCLE
  5
313
330
19
100
AcDbEntity
  8
4
100
AcDbCircle
 10
720.1551814542173
 20
1353.680130506028
 30
0.0
 40
25.0
  0
LINE
  5
314
330
19
100
AcDbEntity
  8
4
100
AcDbLine
 10
687.5774965601095
 20
1561.331029562567
 30
0.0
 11
697.0580146691382
 21
1563.87132673371
 31
0.0
  0
LINE
  5
315
330
19
100
AcDbEntity
  8
4
100
AcDbLine
 10
697.0580146691382
 20
1563.87132673371
 30
0.0
 11
703.9982356070241
 21
1556.931105795825
 31
0.0
  0
ARC
  5
316
330
19
100
AcDbEntity
  8
4
100
AcDbCircle
 10
720.1551814542174
 20
1648.680130506027
 30
0.0
 40
10.0
100
AcDbArc
 50
180.0
 51
0.0
  0
LINE
  5
317
330
19
100
AcDbEntity
  8
L-CENTER
 48
4.0
100
AcDbLine
 10
680.1551814542172
 20
1683.680130506027
 30
0.0
 11
760.1551814542174
 21
1683.680130506027
 31
0.0
  0
ARC
  5
318
330
19
100
AcDbEntity
  8
4
100
AcDbCircle
 10
720.1551814542174
 20
1718.680130506027
 30
0.0
 40
10.0
100
AcDbArc
 50
0.0
 51
180.0
  0
LINE
  5
319
330
19
100
AcDbEntity
  8
4
100
AcDbLine
 10
833.5283838516684
 20
1761.71979845383
 30
0.0
 11
824.8255713246547
 21
1755.041895530532
 31
0.0
  0
LINE
  5
31A
330
19
100
AcDbEntity
  8
4
100
AcDbLine
 10
826.2573986367318
 20
1744.166087336116
 30
0.0
 11
836.392038475821
 21
1739.968182064998
 31
0.0
  0
LINE
  5
31B
330
19
100
AcDbEntity
  8
4
100
AcDbLine
 10
824.8255713246547
 20
1755.041895530532
 30
0.0
 11
826.2573986367318
 21
1744.166087336116
 31
0.0
  0
LINE
  5
31C
330
19
100
AcDbEntity
  8
4
100
AcDbLine
 10
410.1551814542172
 20
1828.680130506027
 30
0.0
 11
570.1551814542172
 21
1828.680130506027
 31
0.0
  0
LINE
  5
31D
330
19
100
AcDbEntity
  8
4
100
AcDbLine
 10
704.5671814542147
 20
1811.680130506027
 30
0.0
 11
735.743181454216
 21
1811.680130506027
 31
0.0
  0
LINE
  5
31E
330
19
100
AcDbEntity
  8
4
100
AcDbLine
 10
702.1551814542163
 20
1806.680130506027
 30
0.0
 11
738.1551814542163
 21
1806.680130506027
 31
0.0
  0
LINE
  5
31F
330
19
100
AcDbEntity
  8
4
100
AcDbLine
 10
702.1551814542163
 20
1804.680130506027
 30
0.0
 11
738.1551814542163
 21
1804.680130506027
 31
0.0
  0
LINE
  5
320
330
19
100
AcDbEntity
  8
4
100
AcDbLine
 10
700.1551814542172
 20
1802.680130506027
 30
0.0
 11
740.1551814542174
 21
1802.680130506027
 31
0.0
  0
LINE
  5
321
330
19
100
AcDbEntity
  8
4
100
AcDbLine
 10
704.5671814542166
 20
1806.680130506027
 30
0.0
 11
704.5671814542147
 21
1811.680130506027
 31
0.0
  0
LINE
  5
322
330
19
100
AcDbEntity
  8
4
100
AcDbLine
 10
702.1551814542163
 20
1804.680130506027
 30
0.0
 11
702.1551814542163
 21
1806.680130506027
 31
0.0
  0
LINE
  5
323
330
19
100
AcDbEntity
  8
4
100
AcDbLine
 10
703.1551814542163
 20
1804.680130506027
 30
0.0
 11
703.1551814542163
 21
1802.680130506027
 31
0.0
  0
LINE
  5
324
330
19
100
AcDbEntity
  8
4
 48
0.8
100
AcDbLine
 10
700.1551814542172
 20
1802.680130506027
 30
0.0
 11
700.1551814542163
 21
1797.062257408551
 31
0.0
  0
LINE
  5
325
330
19
100
AcDbEntity
  8
4
100
AcDbLine
 10
735.743181454216
 20
1806.680130506027
 30
0.0
 11
735.743181454216
 21
1811.680130506027
 31
0.0
  0
LINE
  5
326
330
19
100
AcDbEntity
  8
4
100
AcDbLine
 10
737.1551814542145
 20
1804.680130506027
 30
0.0
 11
737.1551814542145
 21
1802.680130506027
 31
0.0
  0
LINE
  5
327
330
19
100
AcDbEntity
  8
4
100
AcDbLine
 10
738.1551814542163
 20
1804.680130506027
 30
0.0
 11
738.1551814542163
 21
1806.680130506027
 31
0.0
  0
LINE
  5
328
330
19
100
AcDbEntity
  8
4
 48
0.8
100
AcDbLine
 10
740.1551814542174
 20
1802.680130506027
 30
0.0
 11
740.1551814542174
 21
1797.062257408551
 31
0.0
  0
LINE
  5
329
330
19
100
AcDbEntity
  8
4
100
AcDbLine
 10
882.1551814542174
 20
1828.680130506027
 30
0.0
 11
882.1551814542174
 21
1754.272361332185
 31
0.0
  0
LINE
  5
32A
330
19
100
AcDbEntity
  8
4
100
AcDbLine
 10
870.1551814542174
 20
1828.680130506027
 30
0.0
 11
870.1551814542174
 21
1760.866481156611
 31
0.0
  0
CIRCLE
  5
32B
330
19
100
AcDbEntity
  8
4
100
AcDbCircle
 10
970.1551814542175
 20
1788.680130506027
 30
0.0
 40
11.0
  0
LINE
  5
32C
330
19
100
AcDbEntity
  8
4
100
AcDbLine
 10
1030.155181454218
 20
1828.680130506027
 30
0.0
 11
1030.155181454217
 21
1741.680130506027
 31
0.0
  0
LINE
  5
32D
330
19
100
AcDbEntity
  8
L-CENTER
 48
0.8
100
AcDbLine
 10
970.1551814542183
 20
1819.680130506027
 30
0.0
 11
970.1551814542183
 21
1757.680130506027
 31
0.0
  0
LINE
  5
32E
330
19
100
AcDbEntity
  8
4
100
AcDbLine
 10
1030.155181454217
 20
1328.680130506027
 30
0.0
 11
1030.155181454217
 21
1148.680130506027
 31
0.0
  0
LINE
  5
32F
330
19
100
AcDbEntity
  8
4
100
AcDbLine
 10
870.1551814542172
 20
1148.680130506028
 30
0.0
 11
1030.155181454217
 21
1148.680130506027
 31
0.0
  0
LINE
  5
330
330
19
100
AcDbEntity
  8
4
100
AcDbLine
 10
882.1551814542172
 20
1193.087899679869
 30
0.0
 11
882.1551814542172
 21
1148.680130506028
 31
0.0
  0
CIRCLE
  5
331
330
19
100
AcDbEntity
  8
4
100
AcDbCircle
 10
970.1551814542173
 20
1188.680130506028
 30
0.0
 40
11.0
  0
LINE
  5
332
330
19
100
AcDbEntity
  8
L-CENTER
 48
0.8
100
AcDbLine
 10
970.1551814542172
 20
1219.680130506027
 30
0.0
 11
970.1551814542172
 21
1157.680130506027
 31
0.0
  0
LINE
  5
333
330
19
100
AcDbEntity
  8
4
100
AcDbLine
 10
870.1551814542172
 20
1186.493779855444
 30
0.0
 11
870.1551814542172
 21
1148.680130506028
 31
0.0
  0
LINE
  5
334
330
19
100
AcDbEntity
  8
4
100
AcDbLine
 10
845.0948510028336
 20
1200.714176023759
 30
0.0
 11
843.6630236907565
 21
1189.838367829343
 31
0.0
  0
LINE
  5
335
330
19
100
AcDbEntity
  8
L-CENTER
 48
0.8
100
AcDbLine
 10
939.1551814542172
 20
1188.680130506027
 30
0.0
 11
1001.155181454217
 21
1188.680130506027
 31
0.0
  0
LINE
  5
336
330
19
100
AcDbEntity
  8
4
100
AcDbLine
 10
1083.155181454217
 20
1689.680130506027
 30
0.0
 11
1180.155181454217
 21
1689.680130506027
 31
0.0
  0
LINE
  5
337
330
19
100
AcDbEntity
  8
4
100
AcDbLine
 10
1083.155181454217
 20
1643.680130506027
 30
0.0
 11
1180.155181454217
 21
1643.680130506027
 31
0.0
  0
LINE
  5
338
330
19
100
AcDbEntity
  8
4
100
AcDbLine
 10
1181.155181454217
 20
1672.680130506027
 30
0.0
 11
1097.155181454217
 21
1672.680130506027
 31
0.0
  0
LINE
  5
339
330
19
100
AcDbEntity
  8
4
100
AcDbLine
 10
1181.155181454217
 20
1660.680130506027
 30
0.0
 11
1097.155181454217
 21
1660.680130506027
 31
0.0
  0
LINE
  5
33A
330
19
100
AcDbEntity
  8
L-CENTER
 48
0.8
100
AcDbLine
 10
845.1551814542174
 20
1586.680130506027
 30
0.0
 11
845.1551814542174
 21
1346.680130506028
 31
0.0
  0
CIRCLE
  5
33B
330
19
100
AcDbEntity
  8
4
100
AcDbCircle
 10
997.3190412076033
 20
1358.875100796501
 30
0.0
 40
9.5
  0
LINE
  5
33C
330
19
100
AcDbEntity
  8
4
100
AcDbLine
 10
1001.516946478721
 20
1369.00974063559
 30
0.0
 11
1008.194849402019
 21
1360.306928108577
 31
0.0
  0
LINE
  5
33D
330
19
100
AcDbEntity
  8
4
100
AcDbLine
 10
1003.996944130902
 20
1350.172288269488
 30
0.0
 11
993.1211359364856
 21
1348.740460957412
 31
0.0
  0
LINE
  5
33E
330
19
100
AcDbEntity
  8
L-CENTER
100
AcDbLine
 10
972.3742938297985
 20
1369.207553470357
 30
0.0
 11
1022.263788585408
 21
1348.542648122643
 31
0.0
  0
LINE
  5
33F
330
19
100
AcDbEntity
  8
4
100
AcDbLine
 10
895.6478928720701
 20
1423.12764002607
 30
0.0
 11
888.7076719341846
 21
1416.187419088184
 31
0.0
  0
LINE
  5
340
330
19
100
AcDbEntity
  8
4
100
AcDbLine
 10
907.6687081522416
 20
1411.106824745897
 30
0.0
 11
905.1284109810988
 21
1420.587342854927
 31
0.0
  0
LINE
  5
341
330
19
100
AcDbEntity
  8
4
100
AcDbLine
 10
905.1284109810988
 20
1420.587342854927
 30
0.0
 11
895.6478928720701
 21
1423.12764002607
 31
0.0
  0
LINE
  5
342
330
19
100
AcDbEntity
  8
4
100
AcDbLine
 10
891.2479691053275
 20
1406.706900979155
 30
0.0
 11
900.7284872143557
 21
1404.166603808013
 31
0.0
  0
CIRCLE
  5
343
330
19
100
AcDbEntity
  8
4
100
AcDbCircle
 10
898.1881900432128
 20
1413.647121917041
 30
0.0
 40
8.5
  0
LINE
  5
344
330
19
100
AcDbEntity
  8
4
100
AcDbLine
 10
900.7284872143557
 20
1404.166603808013
 30
0.0
 11
907.6687081522416
 21
1411.106824745897
 31
0.0
  0
LINE
  5
345
330
19
100
AcDbEntity
  8
4
100
AcDbLine
 10
888.7076719341846
 20
1416.187419088184
 30
0.0
 11
891.2479691053275
 21
1406.706900979155
 31
0.0
  0
LINE
  5
346
330
19
100
AcDbEntity
  8
L-CENTER
100
AcDbLine
 10
884.0460544194818
 20
1427.789257540772
 30
0.0
 11
912.330325666944
 21
1399.50498629331
 31
0.0
  0
LINE
  5
347
330
19
100
AcDbEntity
  8
4
100
AcDbLine
 10
990.6411382843044
 20
1367.577913323514
 30
0.0
 11
1001.516946478721
 21
1369.00974063559
 31
0.0
  0
LINE
  5
348
330
19
100
AcDbEntity
  8
4
100
AcDbLine
 10
993.1211359364856
 20
1348.740460957412
 30
0.0
 11
986.4432330131872
 21
1357.443273484424
 31
0.0
  0
LINE
  5
349
330
19
100
AcDbEntity
  8
4
100
AcDbLine
 10
986.4432330131872
 20
1357.443273484424
 30
0.0
 11
990.6411382843044
 21
1367.577913323514
 31
0.0
  0
LINE
  5
34A
330
19
100
AcDbEntity
  8
4
100
AcDbLine
 10
888.7076719341846
 20
1517.172841923871
 30
0.0
 11
891.2479691053275
 21
1526.653360032899
 31
0.0
  0
LINE
  5
34B
330
19
100
AcDbEntity
  8
4
100
AcDbLine
 10
891.2479691053275
 20
1526.653360032899
 30
0.0
 11
900.7284872143557
 21
1529.193657204042
 31
0.0
  0
LINE
  5
34C
330
19
100
AcDbEntity
  8
4
100
AcDbLine
 10
900.7284872143557
 20
1529.193657204042
 30
0.0
 11
907.6687081522416
 21
1522.253436266157
 31
0.0
  0
LINE
  5
34D
330
19
100
AcDbEntity
  8
4
100
AcDbLine
 10
905.1284109810988
 20
1512.772918157128
 30
0.0
 11
895.6478928720701
 21
1510.232620985985
 31
0.0
  0
LINE
  5
34E
330
19
100
AcDbEntity
  8
4
100
AcDbLine
 10
907.6687081522416
 20
1522.253436266157
 30
0.0
 11
905.1284109810988
 21
1512.772918157128
 31
0.0
  0
CIRCLE
  5
34F
330
19
100
AcDbEntity
  8
4
100
AcDbCircle
 10
898.1881900432128
 20
1519.713139095014
 30
0.0
 40
8.5
  0
LINE
  5
350
330
19
100
AcDbEntity
  8
4
100
AcDbLine
 10
895.6478928720701
 20
1510.232620985985
 30
0.0
 11
888.7076719341846
 21
1517.172841923871
 31
0.0
  0
LINE
  5
351
330
19
100
AcDbEntity
  8
L-CENTER
100
AcDbLine
 10
884.0460544194818
 20
1505.571003471283
 30
0.0
 11
912.330325666944
 21
1533.855274718744
 31
0.0
  0
LINE
  5
352
330
19
100
AcDbEntity
  8
4
100
AcDbLine
 10
1008.194849402019
 20
1360.306928108577
 30
0.0
 11
1003.996944130902
 21
1350.172288269488
 31
0.0
  0
LINE
  5
353
330
19
100
AcDbEntity
  8
4
100
AcDbLine
 10
1009.898171015656
 20
1328.680130506027
 30
0.0
 11
1030.155181454217
 21
1328.680130506028
 31
0.0
  0
CIRCLE
  5
354
330
19
100
AcDbEntity
  8
4
100
AcDbCircle
 10
997.3190412076033
 20
1588.485160215554
 30
0.0
 40
9.5
  0
LINE
  5
355
330
19
100
AcDbEntity
  8
4
100
AcDbLine
 10
1001.516946478721
 20
1578.350520376465
 30
0.0
 11
1008.194849402019
 21
1587.053332903478
 31
0.0
  0
LINE
  5
356
330
19
100
AcDbEntity
  8
4
100
AcDbLine
 10
1003.996944130902
 20
1597.187972742567
 30
0.0
 11
993.1211359364856
 21
1598.619800054644
 31
0.0
  0
LINE
  5
357
330
19
100
AcDbEntity
  8
4
100
AcDbLine
 10
1056.155181454217
 20
1741.680130506027
 30
0.0
 11
902.2320882820743
 21
1741.680130506027
 31
0.0
  0
LINE
  5
358
330
19
100
AcDbEntity
  8
L-CENTER
100
AcDbLine
 10
972.3742938297985
 20
1578.152707541696
 30
0.0
 11
1022.263788585408
 21
1598.817612889411
 31
0.0
  0
LINE
  5
359
330
19
100
AcDbEntity
  8
4
100
AcDbLine
 10
990.641138284305
 20
1579.782347688541
 30
0.0
 11
1001.516946478721
 21
1578.350520376465
 31
0.0
  0
LINE
  5
35A
330
19
100
AcDbEntity
  8
4
100
AcDbLine
 10
993.1211359364856
 20
1598.619800054644
 30
0.0
 11
986.4432330131876
 21
1589.91698752763
 31
0.0
  0
LINE
  5
35B
330
19
100
AcDbEntity
  8
4
100
AcDbLine
 10
986.4432330131876
 20
1589.91698752763
 30
0.0
 11
990.641138284305
 21
1579.782347688541
 31
0.0
  0
LINE
  5
35C
330
19
100
AcDbEntity
  8
4
100
AcDbLine
 10
845.0948510028334
 20
1746.646084988296
 30
0.0
 11
843.6630236907574
 21
1757.521893182713
 31
0.0
  0
LINE
  5
35D
330
19
100
AcDbEntity
  8
L-CENTER
 48
0.8
100
AcDbLine
 10
939.1551814542174
 20
1788.680130506027
 30
0.0
 11
1001.155181454217
 21
1788.680130506027
 31
0.0
  0
LINE
  5
35E
330
19
100
AcDbEntity
  8
4
100
AcDbLine
 10
1081.155181454217
 20
1641.680130506027
 30
0.0
 11
1081.155181454217
 21
1691.680130506027
 31
0.0
  0
LINE
  5
35F
330
19
100
AcDbEntity
  8
4
100
AcDbLine
 10
1069.155181454217
 20
1702.680130506028
 30
0.0
 11
1069.155181454217
 21
1630.680130506027
 31
0.0
  0
LINE
  5
360
330
19
100
AcDbEntity
  8
4
100
AcDbLine
 10
1068.155181454217
 20
1738.680130506027
 30
0.0
 11
1068.155181454217
 21
1594.680130506028
 31
0.0
  0
LINE
  5
361
330
19
100
AcDbEntity
  8
4
100
AcDbLine
 10
1056.155181454217
 20
1741.680130506027
 30
0.0
 11
1056.155181454217
 21
1591.680130506027
 31
0.0
  0
ARC
  5
362
330
19
100
AcDbEntity
  8
4
100
AcDbCircle
 10
1063.876016156758
 20
1615.415130506026
 30
0.0
 40
13.77916529745958
100
AcDbArc
 50
339.1359356360808
 51
20.86406436391924
  0
LINE
  5
363
330
19
100
AcDbEntity
  8
4
100
AcDbLine
 10
1077.655181454217
 20
1622.776346438194
 30
0.0
 11
1077.655181454217
 21
1608.053914573859
 31
0.0
  0
LINE
  5
364
330
19
100
AcDbEntity
  8
4
100
AcDbLine
 10
1070.655181454217
 20
1605.600175929803
 30
0.0
 11
1070.655181454217
 21
1625.230085082251
 31
0.0
  0
LINE
  5
365
330
19
100
AcDbEntity
  8
4
100
AcDbLine
 10
1068.155181454217
 20
1605.600175929803
 30
0.0
 11
1068.155181454217
 21
1625.230085082251
 31
0.0
  0
LINE
  5
366
330
19
100
AcDbEntity
  8
4
100
AcDbLine
 10
1056.155181454217
 20
1591.680130506027
 30
0.0
 11
1021.903420885701
 21
1591.680130506027
 31
0.0
  0
LINE
  5
367
330
19
100
AcDbEntity
  8
4
100
AcDbLine
 10
1008.194849402019
 20
1587.053332903478
 30
0.0
 11
1003.996944130902
 21
1597.187972742567
 31
0.0
  0
LINE
  5
368
330
19
100
AcDbEntity
  8
4
100
AcDbLine
 10
1076.751654508364
 20
1610.507653217914
 30
0.0
 11
1070.655181454217
 21
1610.507653217914
 31
0.0
  0
LINE
  5
369
330
19
100
AcDbEntity
  8
4
100
AcDbLine
 10
1076.751654508364
 20
1605.600175929803
 30
0.0
 11
1068.155181454217
 21
1605.600175929803
 31
0.0
  0
ARC
  5
36A
330
19
100
AcDbEntity
  8
4
100
AcDbCircle
 10
1073.871567525158
 20
1608.053914573859
 30
0.0
 40
3.783613929059507
100
AcDbArc
 50
319.5701031551686
 51
40.42989684483145
  0
LINE
  5
36B
330
19
100
AcDbEntity
  8
4
 48
0.8
100
AcDbLine
 10
1068.155181454217
 20
1594.680130506027
 30
0.0
 11
1056.155181454217
 21
1594.680130506027
 31
0.0
  0
LINE
  5
36C
330
19
100
AcDbEntity
  8
L-CENTER
100
AcDbLine
 10
1040.06410475644
 20
1615.415130506026
 30
0.0
 11
1080.523159708798
 21
1615.415130506026
 31
0.0
  0
LINE
  5
36D
330
19
100
AcDbEntity
  8
4
100
AcDbLine
 10
1081.155181454217
 20
1641.680130506027
 30
0.0
 11
1069.155181454217
 21
1641.680130506027
 31
0.0
  0
ARC
  5
36E
330
19
100
AcDbEntity
  8
4
100
AcDbCircle
 10
1083.155181454217
 20
1641.680130506027
 30
0.0
 40
2.0
100
AcDbArc
 50
90.0
 51
180.0
  0
LINE
  5
36F
330
19
100
AcDbEntity
  8
4
100
AcDbLine
 10
1076.751654508364
 20
1620.322607794139
 30
0.0
 11
1070.655181454217
 21
1620.322607794139
 31
0.0
  0
ARC
  5
370
330
19
100
AcDbEntity
  8
4
100
AcDbCircle
 10
1073.871567525158
 20
1622.776346438194
 30
0.0
 40
3.783613929059507
100
AcDbArc
 50
319.5701031551686
 51
40.42989684483145
  0
LINE
  5
371
330
19
100
AcDbEntity
  8
4
100
AcDbLine
 10
1068.155181454217
 20
1625.230085082251
 30
0.0
 11
1076.751654508364
 21
1625.230085082251
 31
0.0
  0
LINE
  5
372
330
19
100
AcDbEntity
  8
4
 48
0.8
100
AcDbLine
 10
1069.155181454217
 20
1630.680130506027
 30
0.0
 11
1068.155181454217
 21
1630.680130506028
 31
0.0
  0
ARC
  5
373
330
19
100
AcDbEntity
  8
4
100
AcDbCircle
 10
1097.155181454217
 20
1666.680130506027
 30
0.0
 40
6.0
100
AcDbArc
 50
90.0
 51
270.0
  0
LINE
  5
374
330
19
100
AcDbEntity
  8
L-CENTER
100
AcDbLine
 10
1040.06410475644
 20
1717.945130506027
 30
0.0
 11
1080.523159708798
 21
1717.945130506027
 31
0.0
  0
LINE
  5
375
330
19
100
AcDbEntity
  8
4
100
AcDbLine
 10
1081.155181454217
 20
1691.680130506027
 30
0.0
 11
1069.155181454217
 21
1691.680130506027
 31
0.0
  0
ARC
  5
376
330
19
100
AcDbEntity
  8
4
100
AcDbCircle
 10
1083.155181454217
 20
1691.680130506027
 30
0.0
 40
2.0
100
AcDbArc
 50
180.0
 51
270.0
  0
LINE
  5
377
330
19
100
AcDbEntity
  8
4
100
AcDbLine
 10
1076.751654508364
 20
1722.852607794138
 30
0.0
 11
1070.655181454217
 21
1722.852607794138
 31
0.0
  0
ARC
  5
378
330
19
100
AcDbEntity
  8
4
100
AcDbCircle
 10
1073.871567525158
 20
1725.306346438194
 30
0.0
 40
3.783613929059507
100
AcDbArc
 50
319.5701031551686
 51
40.42989684483145
  0
LINE
  5
379
330
19
100
AcDbEntity
  8
4
100
AcDbLine
 10
1068.155181454217
 20
1727.76008508225
 30
0.0
 11
1076.751654508364
 21
1727.76008508225
 31
0.0
  0
LINE
  5
37A
330
19
100
AcDbEntity
  8
4
100
AcDbLine
 10
1076.751654508364
 20
1713.037653217915
 30
0.0
 11
1070.655181454217
 21
1713.037653217915
 31
0.0
  0
LINE
  5
37B
330
19
100
AcDbEntity
  8
4
100
AcDbLine
 10
1076.751654508364
 20
1708.130175929803
 30
0.0
 11
1068.155181454217
 21
1708.130175929803
 31
0.0
  0
ARC
  5
37C
330
19
100
AcDbEntity
  8
4
100
AcDbCircle
 10
1073.871567525158
 20
1710.583914573859
 30
0.0
 40
3.783613929059507
100
AcDbArc
 50
319.5701031551686
 51
40.42989684483145
  0
LINE
  5
37D
330
19
100
AcDbEntity
  8
4
 48
0.8
100
AcDbLine
 10
1069.155181454217
 20
1702.680130506027
 30
0.0
 11
1068.155181454217
 21
1702.680130506027
 31
0.0
  0
ARC
  5
37E
330
19
100
AcDbEntity
  8
4
100
AcDbCircle
 10
1063.876016156758
 20
1717.945130506027
 30
0.0
 40
13.77916529745958
100
AcDbArc
 50
339.1359356360808
 51
20.86406436391924
  0
LINE
  5
37F
330
19
100
AcDbEntity
  8
4
100
AcDbLine
 10
1077.655181454217
 20
1725.306346438194
 30
0.0
 11
1077.655181454217
 21
1710.583914573859
 31
0.0
  0
LINE
  5
380
330
19
100
AcDbEntity
  8
4
100
AcDbLine
 10
1070.655181454217
 20
1708.130175929803
 30
0.0
 11
1070.655181454217
 21
1727.76008508225
 31
0.0
  0
LINE
  5
381
330
19
100
AcDbEntity
  8
4
100
AcDbLine
 10
1068.155181454217
 20
1708.130175929803
 30
0.0
 11
1068.155181454217
 21
1727.76008508225
 31
0.0
  0
LINE
  5
382
330
19
100
AcDbEntity
  8
4
 48
0.8
100
AcDbLine
 10
1068.155181454217
 20
1738.680130506026
 30
0.0
 11
1056.155181454217
 21
1738.680130506027
 31
0.0
  0
LINE
  5
383
330
19
100
AcDbEntity
  8
4
100
AcDbLine
 10
1181.155181454217
 20
1688.680130506027
 30
0.0
 11
1181.155181454217
 21
1644.680130506027
 31
0.0
  0
LINE
  5
384
330
19
100
AcDbEntity
  8
4
100
AcDbLine
 10
1180.155181454217
 20
1689.680130506027
 30
0.0
 11
1180.155181454217
 21
1672.680130506027
 31
0.0
  0
LINE
  5
385
330
19
100
AcDbEntity
  8
4
100
AcDbLine
 10
1180.155181454217
 20
1660.680130506027
 30
0.0
 11
1180.155181454217
 21
1643.680130506027
 31
0.0
  0
LINE
  5
386
330
19
100
AcDbEntity
  8
4
100
AcDbLine
 10
1181.155181454217
 20
1644.680130506027
 30
0.0
 11
1180.155181454217
 21
1643.680130506027
 31
0.0
  0
LINE
  5
387
330
19
100
AcDbEntity
  8
4
100
AcDbLine
 10
1180.155181454217
 20
1689.680130506027
 30
0.0
 11
1181.155181454217
 21
1688.680130506027
 31
0.0
  0
LINE
  5
388
330
19
100
AcDbEntity
  8
4
100
AcDbLine
 10
870.1551814542174
 20
1828.680130506027
 30
0.0
 11
1030.155181454218
 21
1828.680130506027
 31
0.0
  0
ARC
  5
389
330
19
100
AcDbEntity
  8
4
100
AcDbCircle
 10
1794.05508722327
 20
367.4329485331236
 30
0.0
 40
3.783613929059507
100
AcDbArc
 50
229.5701031551782
 51
275.1379039985028
  0
LINE
  5
38A
330
19
100
AcDbEntity
  8
4
100
AcDbLine
 10
1794.05508722327
 20
363.6493346040643
 30
0.0
 11
1808.777519087606
 21
363.6493346040652
 31
0.0
  0
LINE
  5
38B
330
19
100
AcDbEntity
  8
4
100
AcDbLine
 10
1811.231257731661
 20
373.1493346040652
 30
0.0
 11
1791.601348579214
 21
373.1493346040643
 31
0.0
  0
LINE
  5
38C
330
19
100
AcDbEntity
  8
4
100
AcDbLine
 10
1791.601348579214
 20
373.1493346040643
 30
0.0
 11
1791.601348579215
 21
364.5528615499161
 31
0.0
  0
ARC
  5
38D
330
19
100
AcDbEntity
  8
4
100
AcDbCircle
 10
1794.732756752937
 20
367.4329485331236
 30
0.0
 40
3.783613929059507
100
AcDbArc
 50
229.5701031551782
 51
310.4298968448314
  0
LINE
  5
38E
330
19
100
AcDbEntity
  8
4
100
AcDbLine
 10
1792.279018108881
 20
373.1493346040643
 30
0.0
 11
1792.279018108882
 21
364.5528615499161
 31
0.0
  0
LINE
  5
38F
330
19
100
AcDbEntity
  8
4
100
AcDbLine
 10
1797.186495396993
 20
364.5528615499161
 30
0.0
 11
1797.186495396993
 21
370.6493346040643
 31
0.0
  0
LINE
  5
390
330
19
100
AcDbEntity
  8
4
100
AcDbLine
 10
1807.001449973217
 20
364.552861549917
 30
0.0
 11
1807.001449973216
 21
370.6493346040652
 31
0.0
  0
LINE
  5
391
330
19
100
AcDbEntity
  8
4
100
AcDbLine
 10
1811.908927261329
 20
364.552861549917
 30
0.0
 11
1811.908927261328
 21
373.1493346040652
 31
0.0
  0
ARC
  5
392
330
19
100
AcDbEntity
  8
4
100
AcDbCircle
 10
1809.455188617273
 20
367.4329485331245
 30
0.0
 40
3.783613929059507
100
AcDbArc
 50
229.5701031551782
 51
310.4298968448314
  0
LINE
  5
393
330
19
100
AcDbEntity
  8
4
100
AcDbLine
 10
1811.908927261328
 20
370.6493346040652
 30
0.0
 11
1791.601348579215
 21
370.6493346040643
 31
0.0
  0
LINE
  5
394
330
19
100
AcDbEntity
  8
4
100
AcDbLine
 10
1811.908927261328
 20
373.1493346040652
 30
0.0
 11
1792.279018108881
 21
373.1493346040643
 31
0.0
  0
LINE
  5
395
330
19
100
AcDbEntity
  8
4
100
AcDbLine
 10
1794.732756752937
 20
363.6493346040643
 30
0.0
 11
1809.455188617273
 21
363.6493346040652
 31
0.0
  0
ARC
  5
396
330
19
100
AcDbEntity
  8
4
100
AcDbCircle
 10
1802.093972685105
 20
377.428499901524
 30
0.0
 40
13.77916529745958
100
AcDbArc
 50
249.1359356360836
 51
290.8640643639235
  0
LINE
  5
397
330
19
100
AcDbEntity
  8
L-CENTER
100
AcDbLine
 10
1801.416303155436
 20
401.5852900216769
 30
0.0
 11
1801.416303155439
 21
360.7813563494851
 31
0.0
  0
LINE
  5
398
330
19
100
AcDbEntity
  8
L-CENTER
100
AcDbLine
 10
1802.093972685103
 20
401.5852900216769
 30
0.0
 11
1802.093972685106
 21
360.7813563494851
 31
0.0
  0
ARC
  5
399
330
19
100
AcDbEntity
  8
4
100
AcDbCircle
 10
1908.159989863079
 20
377.428499901524
 30
0.0
 40
13.77916529745958
100
AcDbArc
 50
249.1359356360765
 51
290.8640643639164
  0
LINE
  5
39A
330
19
100
AcDbEntity
  8
4
100
AcDbLine
 10
1915.521205795246
 20
363.6493346040643
 30
0.0
 11
1900.798773930911
 21
363.6493346040652
 31
0.0
  0
LINE
  5
39B
330
19
100
AcDbEntity
  8
4
100
AcDbLine
 10
1898.345035286855
 20
373.1493346040652
 30
0.0
 11
1917.974944439302
 21
373.1493346040643
 31
0.0
  0
LINE
  5
39C
330
19
100
AcDbEntity
  8
4
100
AcDbLine
 10
1898.345035286855
 20
370.6493346040652
 30
0.0
 11
1917.974944439302
 21
370.6493346040643
 31
0.0
  0
ARC
  5
39D
330
19
100
AcDbEntity
  8
4
100
AcDbCircle
 10
1900.798773930911
 20
367.4329485331245
 30
0.0
 40
3.783613929059507
100
AcDbArc
 50
229.5701031551686
 51
310.4298968448218
  0
LINE
  5
39E
330
19
100
AcDbEntity
  8
4
100
AcDbLine
 10
1898.345035286855
 20
364.552861549917
 30
0.0
 11
1898.345035286855
 21
373.1493346040652
 31
0.0
  0
LINE
  5
39F
330
19
100
AcDbEntity
  8
4
100
AcDbLine
 10
1903.252512574967
 20
364.552861549917
 30
0.0
 11
1903.252512574967
 21
370.6493346040652
 31
0.0
  0
LINE
  5
3A0
330
19
100
AcDbEntity
  8
4
100
AcDbLine
 10
1913.06746715119
 20
364.5528615499161
 30
0.0
 11
1913.067467151191
 21
370.6493346040643
 31
0.0
  0
LINE
  5
3A1
330
19
100
AcDbEntity
  8
4
100
AcDbLine
 10
1917.974944439302
 20
373.1493346040643
 30
0.0
 11
1917.974944439302
 21
364.5528615499161
 31
0.0
  0
ARC
  5
3A2
330
19
100
AcDbEntity
  8
4
100
AcDbCircle
 10
1915.521205795246
 20
367.4329485331236
 30
0.0
 40
3.783613929059507
100
AcDbArc
 50
229.5701031551686
 51
310.4298968448218
  0
LINE
  5
3A3
330
19
100
AcDbEntity
  8
L-CENTER
100
AcDbLine
 10
1908.15998986308
 20
401.5852900216769
 30
0.0
 11
1908.159989863078
 21
360.7813563494851
 31
0.0
  0
LINE
  5
3A4
330
19
100
AcDbEntity
  8
4
100
AcDbLine
 10
1933.022704816522
 20
370.6493346040652
 30
0.0
 11
1952.652613968969
 21
370.6493346040643
 31
0.0
  0
LINE
  5
3A5
330
19
100
AcDbEntity
  8
4
100
AcDbLine
 10
1933.022704816522
 20
373.1493346040652
 30
0.0
 11
1952.652613968969
 21
373.1493346040643
 31
0.0
  0
LINE
  5
3A6
330
19
100
AcDbEntity
  8
4
100
AcDbLine
 10
1950.198875324914
 20
363.6493346040643
 30
0.0
 11
1935.476443460578
 21
363.6493346040652
 31
0.0
  0
ARC
  5
3A7
330
19
100
AcDbEntity
  8
4
100
AcDbCircle
 10
1942.837659392746
 20
377.428499901524
 30
0.0
 40
13.77916529745958
100
AcDbArc
 50
249.1359356360765
 51
290.8640643639164
  0
LINE
  5
3A8
330
19
100
AcDbEntity
  8
4
100
AcDbLine
 10
1937.930182104634
 20
364.552861549917
 30
0.0
 11
1937.930182104634
 21
370.6493346040652
 31
0.0
  0
LINE
  5
3A9
330
19
100
AcDbEntity
  8
4
100
AcDbLine
 10
1933.022704816522
 20
364.552861549917
 30
0.0
 11
1933.022704816522
 21
373.1493346040652
 31
0.0
  0
ARC
  5
3AA
330
19
100
AcDbEntity
  8
4
100
AcDbCircle
 10
1935.476443460578
 20
367.4329485331245
 30
0.0
 40
3.783613929059507
100
AcDbArc
 50
229.5701031551686
 51
310.4298968448218
  0
ARC
  5
3AB
330
19
100
AcDbEntity
  8
4
100
AcDbCircle
 10
1950.198875324914
 20
367.4329485331236
 30
0.0
 40
3.783613929059507
100
AcDbArc
 50
229.5701031551686
 51
310.4298968448218
  0
LINE
  5
3AC
330
19
100
AcDbEntity
  8
4
100
AcDbLine
 10
1952.652613968969
 20
373.1493346040643
 30
0.0
 11
1952.652613968969
 21
364.5528615499161
 31
0.0
  0
LINE
  5
3AD
330
19
100
AcDbEntity
  8
4
100
AcDbLine
 10
1947.745136680858
 20
364.5528615499161
 30
0.0
 11
1947.745136680858
 21
370.6493346040643
 31
0.0
  0
LINE
  5
3AE
330
19
100
AcDbEntity
  8
L-CENTER
100
AcDbLine
 10
1942.837659392748
 20
401.5852900216769
 30
0.0
 11
1942.837659392745
 21
360.7813563494851
 31
0.0
  0
LINE
  5
3AF
330
19
100
AcDbEntity
  8
4
 48
0.8
100
AcDbLine
 10
1765.126981274092
 20
388.1493346040688
 30
0.0
 11
1765.126981274092
 21
373.1493346040688
 31
0.0
  0
LINE
  5
3B0
330
19
100
AcDbEntity
  8
4
 48
0.8
100
AcDbLine
 10
1945.126981274092
 20
388.1493346040688
 30
0.0
 11
1945.126981274092
 21
373.1493346040688
 31
0.0
  0
LINE
  5
3B1
330
19
100
AcDbEntity
  8
4
 48
0.8
100
AcDbLine
 10
1765.126981274092
 20
692.1493346040688
 30
0.0
 11
1765.126981274092
 21
677.1493346040688
 31
0.0
  0
LINE
  5
3B2
330
19
100
AcDbEntity
  8
4
 48
0.8
100
AcDbLine
 10
1945.126981274092
 20
692.1493346040688
 30
0.0
 11
1945.126981274092
 21
677.1493346040688
 31
0.0
  0
TEXT
  5
3BE
330
19
100
AcDbEntity
  8
3
100
AcDbText
 10
1261.785648625759
 20
306.1670299096859
 30
0.0
 40
18.0
  1
LDC8-08
  7
KANJI
 72
     1
 11
1320.285648625759
 21
306.1670299096859
 31
0.0
100
AcDbText
  0
LINE
  5
504
330
19
100
AcDbEntity
  8
4
100
AcDbLine
 10
1764.626981274092
 20
687.6493346040693
 30
0.0
 11
1719.626981274092
 21
687.6493346040693
 31
0.0
  0
LINE
  5
505
330
19
100
AcDbEntity
  8
4
100
AcDbLine
 10
1765.126981274092
 20
687.1493346040693
 30
0.0
 11
1765.126981274092
 21
678.6493346040693
 31
0.0
  0
LINE
  5
506
330
19
100
AcDbEntity
  8
4
100
AcDbLine
 10
1719.126981274092
 20
687.1493346040693
 30
0.0
 11
1719.126981274092
 21
678.6493346040693
 31
0.0
  0
ARC
  5
507
330
19
100
AcDbEntity
  8
4
100
AcDbCircle
 10
1764.626981274092
 20
687.1493346040693
 30
0.0
 40
0.5
100
AcDbArc
 50
0.0
 51
90.0
  0
ARC
  5
508
330
19
100
AcDbEntity
  8
4
100
AcDbCircle
 10
1719.626981274092
 20
687.1493346040693
 30
0.0
 40
0.5
100
AcDbArc
 50
90.0
 51
180.0
  0
LINE
  5
509
330
19
100
AcDbEntity
  8
4
100
AcDbLine
 10
1765.126981274092
 20
682.6493346040693
 30
0.0
 11
1719.126981274092
 21
682.6493346040693
 31
0.0
  0
LINE
  5
50A
330
19
100
AcDbEntity
  8
4
100
AcDbLine
 10
1765.126981274092
 20
678.6493346040693
 30
0.0
 11
1719.126981274092
 21
678.6493346040693
 31
0.0
  0
LINE
  5
50B
330
19
100
AcDbEntity
  8
4
100
AcDbLine
 10
1753.818324225182
 20
687.6493346040693
 30
0.0
 11
1753.818324225182
 21
682.6493346040693
 31
0.0
  0
LINE
  5
50C
330
19
100
AcDbEntity
  8
4
100
AcDbLine
 10
1764.626981274092
 20
677.1493346040693
 30
0.0
 11
1719.626981274092
 21
677.1493346040688
 31
0.0
  0
LINE
  5
50D
330
19
100
AcDbEntity
  8
4
100
AcDbLine
 10
1764.626981274092
 20
678.6493346040693
 30
0.0
 11
1764.626981274092
 21
677.1493346040693
 31
0.0
  0
LINE
  5
50E
330
19
100
AcDbEntity
  8
4
100
AcDbLine
 10
1719.626981274092
 20
678.6493346040693
 30
0.0
 11
1719.626981274092
 21
677.1493346040693
 31
0.0
  0
LINE
  5
50F
330
19
100
AcDbEntity
  8
4
100
AcDbLine
 10
1730.435638323002
 20
687.6493346040693
 30
0.0
 11
1730.435638323002
 21
682.6493346040693
 31
0.0
  0
LINE
  5
510
330
19
100
AcDbEntity
  8
4
100
AcDbLine
 10
743.1551814542172
 20
682.6493346040688
 30
0.0
 11
743.1551814542172
 21
678.6493346040688
 31
0.0
  0
LINE
  5
511
330
19
100
AcDbEntity
  8
4
100
AcDbLine
 10
697.1551814542172
 20
682.6493346040688
 30
0.0
 11
697.1551814542172
 21
678.6493346040688
 31
0.0
  0
LINE
  5
512
330
19
100
AcDbEntity
  8
4
100
AcDbLine
 10
743.1551814542172
 20
682.6493346040688
 30
0.0
 11
742.6550393793395
 21
682.6493346040688
 31
0.0
  0
LINE
  5
513
330
19
100
AcDbEntity
  8
4
100
AcDbLine
 10
697.6550393793395
 20
682.6493346040688
 30
0.0
 11
697.1551814542172
 21
682.6493346040688
 31
0.0
  0
LINE
  5
514
330
19
100
AcDbEntity
  8
4
100
AcDbLine
 10
743.1551814542172
 20
678.6493346040688
 30
0.0
 11
742.6550393793395
 21
678.6493346040688
 31
0.0
  0
LINE
  5
515
330
19
100
AcDbEntity
  8
4
100
AcDbLine
 10
697.6550393793395
 20
678.6493346040688
 30
0.0
 11
697.1551814542172
 21
678.6493346040688
 31
0.0
  0
LINE
  5
516
330
19
100
AcDbEntity
  8
4
100
AcDbLine
 10
742.6551814542172
 20
677.149334604069
 30
0.0
 11
697.6551814542172
 21
677.1493346040686
 31
0.0
  0
LINE
  5
517
330
19
100
AcDbEntity
  8
4
100
AcDbLine
 10
742.6551814542172
 20
678.6493346040688
 30
0.0
 11
742.6551814542172
 21
677.1493346040688
 31
0.0
  0
LINE
  5
518
330
19
100
AcDbEntity
  8
4
100
AcDbLine
 10
697.6551814542172
 20
678.6493346040688
 30
0.0
 11
697.6551814542172
 21
677.1493346040688
 31
0.0
  0
ARC
  5
531
330
19
100
AcDbEntity
  8
4
100
AcDbCircle
 10
720.1553235290945
 20
693.1781914327598
 30
0.0
 40
10.0
100
AcDbArc
 50
180.0
 51
0.0
  0
ARC
  5
532
330
19
100
AcDbEntity
  8
4
100
AcDbCircle
 10
2003.861739638066
 20
539.4145762400944
 30
0.0
 40
9.2
100
AcDbArc
 50
217.5050178288687
 51
262.4949821711367
  0
ARC
  5
533
330
19
100
AcDbEntity
  8
4
100
AcDbCircle
 10
2003.861739638066
 20
539.4145762400944
 30
0.0
 40
9.2
100
AcDbArc
 50
277.5050178288705
 51
322.4949821711234
  0
ARC
  5
534
330
19
100
AcDbEntity
  8
4
100
AcDbCircle
 10
2003.861739638066
 20
539.4145762400944
 30
0.0
 40
9.2
100
AcDbArc
 50
337.505017828882
 51
22.49498217111796
  0
ARC
  5
535
330
19
100
AcDbEntity
  8
4
100
AcDbCircle
 10
2003.861739638066
 20
539.4145762400944
 30
0.0
 40
9.2
100
AcDbArc
 50
37.50501782887776
 51
82.4949821711181
  0
ARC
  5
536
330
19
100
AcDbEntity
  8
4
100
AcDbCircle
 10
2003.861739638066
 20
539.4145762400944
 30
0.0
 40
9.2
100
AcDbArc
 50
97.5050178288747
 51
142.4949821711294
  0
ARC
  5
537
330
19
100
AcDbEntity
  8
4
100
AcDbCircle
 10
2003.861739638066
 20
539.4145762400944
 30
0.0
 40
9.2
100
AcDbArc
 50
157.5050178288668
 51
202.4949821711332
  0
LINE
  5
538
330
19
100
AcDbEntity
  8
4
100
AcDbLine
 10
2114.892222910116
 20
534.5070989519827
 30
0.0
 11
2114.892222910116
 21
544.3220535282062
 31
0.0
  0
LINE
  5
539
330
19
100
AcDbEntity
  8
4
100
AcDbLine
 10
2106.392222910116
 20
549.2295308163184
 30
0.0
 11
2097.892222910116
 21
544.3220535282062
 31
0.0
  0
LINE
  5
53A
330
19
100
AcDbEntity
  8
4
100
AcDbLine
 10
2097.892222910116
 20
544.3220535282062
 30
0.0
 11
2097.892222910116
 21
534.5070989519827
 31
0.0
  0
LINE
  5
53B
330
19
100
AcDbEntity
  8
4
100
AcDbLine
 10
2097.892222910116
 20
534.5070989519827
 30
0.0
 11
2106.392222910116
 21
529.5996216638714
 31
0.0
  0
LINE
  5
53C
330
19
100
AcDbEntity
  8
4
100
AcDbLine
 10
2114.892222910116
 20
544.3220535282062
 30
0.0
 11
2106.392222910116
 21
549.2295308163184
 31
0.0
  0
LINE
  5
53D
330
19
100
AcDbEntity
  8
4
100
AcDbLine
 10
2106.392222910116
 20
529.5996216638714
 30
0.0
 11
2114.892222910116
 21
534.5070989519827
 31
0.0
  0
ARC
  5
53E
330
19
100
AcDbEntity
  8
4
100
AcDbCircle
 10
2106.392222910115
 20
539.4145762400944
 30
0.0
 40
9.2
100
AcDbArc
 50
217.5050178288696
 51
262.4949821711367
  0
ARC
  5
53F
330
19
100
AcDbEntity
  8
4
100
AcDbCircle
 10
2106.392222910115
 20
539.4145762400944
 30
0.0
 40
9.2
100
AcDbArc
 50
277.5050178288719
 51
322.4949821711242
  0
ARC
  5
540
330
19
100
AcDbEntity
  8
4
100
AcDbCircle
 10
2106.392222910115
 20
539.4145762400944
 30
0.0
 40
9.2
100
AcDbArc
 50
337.5050178288834
 51
22.49498217111664
  0
ARC
  5
541
330
19
100
AcDbEntity
  8
4
100
AcDbCircle
 10
2106.392222910115
 20
539.4145762400944
 30
0.0
 40
9.2
100
AcDbArc
 50
37.50501782887576
 51
82.49498217111669
  0
ARC
  5
542
330
19
100
AcDbEntity
  8
4
100
AcDbCircle
 10
2106.392222910115
 20
539.4145762400944
 30
0.0
 40
9.2
100
AcDbArc
 50
97.5050178288747
 51
142.4949821711282
  0
ARC
  5
543
330
19
100
AcDbEntity
  8
4
100
AcDbCircle
 10
2106.392222910115
 20
539.4145762400944
 30
0.0
 40
9.2
100
AcDbArc
 50
157.5050178288654
 51
202.4949821711346
  0
LINE
  5
544
330
19
100
AcDbEntity
  8
4
100
AcDbLine
 10
2114.892222910116
 20
431.9766156799333
 30
0.0
 11
2114.892222910116
 21
441.7915702561568
 31
0.0
  0
LINE
  5
545
330
19
100
AcDbEntity
  8
4
100
AcDbLine
 10
2106.392222910116
 20
446.699047544269
 30
0.0
 11
2097.892222910116
 21
441.7915702561568
 31
0.0
  0
LINE
  5
546
330
19
100
AcDbEntity
  8
4
100
AcDbLine
 10
2097.892222910116
 20
441.7915702561568
 30
0.0
 11
2097.892222910116
 21
431.9766156799333
 31
0.0
  0
LINE
  5
547
330
19
100
AcDbEntity
  8
4
100
AcDbLine
 10
2097.892222910116
 20
431.9766156799333
 30
0.0
 11
2106.392222910116
 21
427.069138391822
 31
0.0
  0
LINE
  5
548
330
19
100
AcDbEntity
  8
4
100
AcDbLine
 10
2114.892222910116
 20
441.7915702561568
 30
0.0
 11
2106.392222910116
 21
446.699047544269
 31
0.0
  0
LINE
  5
549
330
19
100
AcDbEntity
  8
4
100
AcDbLine
 10
2106.392222910116
 20
427.069138391822
 30
0.0
 11
2114.892222910116
 21
431.9766156799333
 31
0.0
  0
ARC
  5
54A
330
19
100
AcDbEntity
  8
4
100
AcDbCircle
 10
2106.392222910115
 20
436.884092968045
 30
0.0
 40
9.2
100
AcDbArc
 50
217.5050178288667
 51
262.4949821711367
  0
ARC
  5
54B
330
19
100
AcDbEntity
  8
4
100
AcDbCircle
 10
2106.392222910115
 20
436.884092968045
 30
0.0
 40
9.2
100
AcDbArc
 50
277.5050178288691
 51
322.4949821711242
  0
ARC
  5
54C
330
19
100
AcDbEntity
  8
4
100
AcDbCircle
 10
2106.392222910115
 20
436.884092968045
 30
0.0
 40
9.2
100
AcDbArc
 50
337.505017828882
 51
22.49498217111796
  0
ARC
  5
54D
330
19
100
AcDbEntity
  8
4
100
AcDbCircle
 10
2106.392222910115
 20
436.884092968045
 30
0.0
 40
9.2
100
AcDbArc
 50
37.50501782887576
 51
82.4949821711195
  0
ARC
  5
54E
330
19
100
AcDbEntity
  8
4
100
AcDbCircle
 10
2106.392222910115
 20
436.884092968045
 30
0.0
 40
9.2
100
AcDbArc
 50
97.5050178288747
 51
142.4949821711294
  0
ARC
  5
54F
330
19
100
AcDbEntity
  8
4
100
AcDbCircle
 10
2106.392222910115
 20
436.884092968045
 30
0.0
 40
9.2
100
AcDbArc
 50
157.5050178288668
 51
202.4949821711332
  0
LINE
  5
550
330
19
100
AcDbEntity
  8
4
100
AcDbLine
 10
2012.361739638067
 20
431.9766156799333
 30
0.0
 11
2012.361739638067
 21
441.7915702561568
 31
0.0
  0
LINE
  5
551
330
19
100
AcDbEntity
  8
4
100
AcDbLine
 10
2003.861739638067
 20
446.699047544269
 30
0.0
 11
1995.361739638067
 21
441.7915702561568
 31
0.0
  0
LINE
  5
552
330
19
100
AcDbEntity
  8
4
100
AcDbLine
 10
1995.361739638067
 20
441.7915702561568
 30
0.0
 11
1995.361739638067
 21
431.9766156799333
 31
0.0
  0
LINE
  5
553
330
19
100
AcDbEntity
  8
4
100
AcDbLine
 10
1995.361739638067
 20
431.9766156799333
 30
0.0
 11
2003.861739638067
 21
427.069138391822
 31
0.0
  0
LINE
  5
554
330
19
100
AcDbEntity
  8
4
100
AcDbLine
 10
2012.361739638067
 20
441.7915702561568
 30
0.0
 11
2003.861739638067
 21
446.699047544269
 31
0.0
  0
LINE
  5
555
330
19
100
AcDbEntity
  8
4
100
AcDbLine
 10
2003.861739638067
 20
427.069138391822
 30
0.0
 11
2012.361739638067
 21
431.9766156799333
 31
0.0
  0
ARC
  5
556
330
19
100
AcDbEntity
  8
4
100
AcDbCircle
 10
2003.861739638066
 20
436.884092968045
 30
0.0
 40
9.2
100
AcDbArc
 50
217.5050178288675
 51
262.4949821711367
  0
ARC
  5
557
330
19
100
AcDbEntity
  8
4
100
AcDbCircle
 10
2003.861739638066
 20
436.884092968045
 30
0.0
 40
9.2
100
AcDbArc
 50
277.5050178288705
 51
322.4949821711234
  0
ARC
  5
558
330
19
100
AcDbEntity
  8
4
100
AcDbCircle
 10
2003.861739638066
 20
436.884092968045
 30
0.0
 40
9.2
100
AcDbArc
 50
337.505017828882
 51
22.49498217111796
  0
ARC
  5
559
330
19
100
AcDbEntity
  8
4
100
AcDbCircle
 10
2003.861739638066
 20
436.884092968045
 30
0.0
 40
9.2
100
AcDbArc
 50
37.50501782887776
 51
82.4949821711181
  0
ARC
  5
55A
330
19
100
AcDbEntity
  8
4
100
AcDbCircle
 10
2003.861739638066
 20
436.884092968045
 30
0.0
 40
9.2
100
AcDbArc
 50
97.5050178288747
 51
142.4949821711294
  0
ARC
  5
55B
330
19
100
AcDbEntity
  8
4
100
AcDbCircle
 10
2003.861739638066
 20
436.884092968045
 30
0.0
 40
9.2
100
AcDbArc
 50
157.5050178288668
 51
202.4949821711332
  0
LINE
  5
642
330
19
100
AcDbEntity
  8
4
100
AcDbLine
 10
348.9051814542183
 20
514.6493346040693
 30
0.0
 11
258.9051814542174
 21
514.649334604069
 31
0.0
  0
LINE
  5
643
330
19
100
AcDbEntity
  8
4
100
AcDbLine
 10
356.9051814542183
 20
511.1493346040693
 30
0.0
 11
259.9051814542174
 21
511.1493346040691
 31
0.0
  0
LINE
  5
644
330
19
100
AcDbEntity
  8
4
100
AcDbLine
 10
356.9051814542183
 20
465.1493346040693
 30
0.0
 11
259.9051814542174
 21
465.1493346040691
 31
0.0
  0
LINE
  5
645
330
19
100
AcDbEntity
  8
4
100
AcDbLine
 10
358.9051814542183
 20
513.1493346040693
 30
0.0
 11
358.9051814542183
 21
463.1493346040693
 31
0.0
  0
LINE
  5
646
330
19
100
AcDbEntity
  8
4
100
AcDbLine
 10
371.1551814542174
 20
524.1493346040702
 30
0.0
 11
371.1551814542174
 21
452.1493346040693
 31
0.0
  0
ARC
  5
647
330
19
100
AcDbEntity
  8
4
100
AcDbCircle
 10
356.9051814542183
 20
463.1493346040693
 30
0.0
 40
2.0
100
AcDbArc
 50
0.0
 51
90.0
  0
LINE
  5
648
330
19
100
AcDbEntity
  8
4
100
AcDbLine
 10
358.9051814542183
 20
463.1493346040693
 30
0.0
 11
371.1551814542174
 21
463.1493346040693
 31
0.0
  0
LINE
  5
649
330
19
100
AcDbEntity
  8
4
 48
0.8
100
AcDbLine
 10
371.1551814542174
 20
452.1493346040693
 30
0.0
 11
372.1551814542174
 21
452.1493346040702
 31
0.0
  0
ARC
  5
64A
330
19
100
AcDbEntity
  8
4
100
AcDbCircle
 10
356.9051814542183
 20
513.1493346040693
 30
0.0
 40
2.0
100
AcDbArc
 50
270.0
 51
0.0
  0
LINE
  5
64B
330
19
100
AcDbEntity
  8
4
100
AcDbLine
 10
358.9051814542183
 20
513.1493346040693
 30
0.0
 11
371.1551814542174
 21
513.1493346040693
 31
0.0
  0
LINE
  5
64C
330
19
100
AcDbEntity
  8
4
 48
0.8
100
AcDbLine
 10
371.1551814542174
 20
524.1493346040693
 30
0.0
 11
372.1551814542174
 21
524.1493346040693
 31
0.0
  0
LINE
  5
64D
330
19
100
AcDbEntity
  8
4
100
AcDbLine
 10
348.9051814542183
 20
511.1493346040702
 30
0.0
 11
348.9051814542183
 21
514.6493346040693
 31
0.0
  0
LINE
  5
64E
330
19
100
AcDbEntity
  8
4
100
AcDbLine
 10
258.9051814542174
 20
510.1493346040691
 30
0.0
 11
258.9051814542174
 21
466.1493346040691
 31
0.0
  0
LINE
  5
64F
330
19
100
AcDbEntity
  8
4
100
AcDbLine
 10
259.9051814542174
 20
465.1493346040691
 30
0.0
 11
259.9051814542174
 21
511.1493346040691
 31
0.0
  0
LINE
  5
650
330
19
100
AcDbEntity
  8
4
100
AcDbLine
 10
259.9051814542174
 20
465.1493346040691
 30
0.0
 11
258.9051814542174
 21
466.1493346040691
 31
0.0
  0
LINE
  5
651
330
19
100
AcDbEntity
  8
4
100
AcDbLine
 10
258.9051814542174
 20
510.1493346040691
 30
0.0
 11
259.9051814542174
 21
511.1493346040691
 31
0.0
  0
LINE
  5
652
330
19
100
AcDbEntity
  8
4
100
AcDbLine
 10
258.9051814542174
 20
510.1493346040691
 30
0.0
 11
258.9051814542174
 21
514.649334604069
 31
0.0
  0
LINE
  5
654
330
19
100
AcDbEntity
  8
4
100
AcDbLine
 10
357.1551814542172
 20
1689.680130506027
 30
0.0
 11
260.1551814542172
 21
1689.680130506027
 31
0.0
  0
LINE
  5
655
330
19
100
AcDbEntity
  8
4
100
AcDbLine
 10
357.1551814542172
 20
1643.680130506027
 30
0.0
 11
260.1551814542172
 21
1643.680130506027
 31
0.0
  0
LINE
  5
656
330
19
100
AcDbEntity
  8
4
100
AcDbLine
 10
259.1551814542172
 20
1672.680130506027
 30
0.0
 11
343.1551814542172
 21
1672.680130506027
 31
0.0
  0
LINE
  5
657
330
19
100
AcDbEntity
  8
4
100
AcDbLine
 10
259.1551814542172
 20
1660.680130506027
 30
0.0
 11
343.1551814542172
 21
1660.680130506027
 31
0.0
  0
LINE
  5
658
330
19
100
AcDbEntity
  8
4
100
AcDbLine
 10
359.1551814542172
 20
1641.680130506027
 30
0.0
 11
359.1551814542172
 21
1691.680130506027
 31
0.0
  0
LINE
  5
659
330
19
100
AcDbEntity
  8
4
100
AcDbLine
 10
371.1551814542172
 20
1702.680130506028
 30
0.0
 11
371.1551814542172
 21
1630.680130506027
 31
0.0
  0
LINE
  5
65A
330
19
100
AcDbEntity
  8
4
100
AcDbLine
 10
359.1551814542172
 20
1641.680130506027
 30
0.0
 11
371.1551814542172
 21
1641.680130506027
 31
0.0
  0
ARC
  5
65B
330
19
100
AcDbEntity
  8
4
100
AcDbCircle
 10
357.1551814542172
 20
1641.680130506027
 30
0.0
 40
2.0
100
AcDbArc
 50
0.0
 51
90.0
  0
LINE
  5
65C
330
19
100
AcDbEntity
  8
4
 48
0.8
100
AcDbLine
 10
371.1551814542172
 20
1630.680130506027
 30
0.0
 11
372.1551814542172
 21
1630.680130506028
 31
0.0
  0
ARC
  5
65D
330
19
100
AcDbEntity
  8
4
100
AcDbCircle
 10
343.1551814542172
 20
1666.680130506027
 30
0.0
 40
6.0
100
AcDbArc
 50
270.0
 51
90.0
  0
LINE
  5
65E
330
19
100
AcDbEntity
  8
4
100
AcDbLine
 10
359.1551814542172
 20
1691.680130506027
 30
0.0
 11
371.1551814542172
 21
1691.680130506027
 31
0.0
  0
ARC
  5
65F
330
19
100
AcDbEntity
  8
4
100
AcDbCircle
 10
357.1551814542172
 20
1691.680130506027
 30
0.0
 40
2.0
100
AcDbArc
 50
270.0
 51
0.0
  0
LINE
  5
660
330
19
100
AcDbEntity
  8
4
 48
0.8
100
AcDbLine
 10
371.1551814542172
 20
1702.680130506027
 30
0.0
 11
372.1551814542172
 21
1702.680130506027
 31
0.0
  0
LINE
  5
661
330
19
100
AcDbEntity
  8
4
100
AcDbLine
 10
259.1551814542172
 20
1688.680130506027
 30
0.0
 11
259.1551814542172
 21
1644.680130506027
 31
0.0
  0
LINE
  5
662
330
19
100
AcDbEntity
  8
4
100
AcDbLine
 10
260.1551814542172
 20
1689.680130506027
 30
0.0
 11
260.1551814542172
 21
1672.680130506027
 31
0.0
  0
LINE
  5
663
330
19
100
AcDbEntity
  8
4
100
AcDbLine
 10
260.1551814542172
 20
1660.680130506027
 30
0.0
 11
260.1551814542172
 21
1643.680130506027
 31
0.0
  0
LINE
  5
664
330
19
100
AcDbEntity
  8
4
100
AcDbLine
 10
259.1551814542172
 20
1644.680130506027
 30
0.0
 11
260.1551814542172
 21
1643.680130506027
 31
0.0
  0
LINE
  5
665
330
19
100
AcDbEntity
  8
4
100
AcDbLine
 10
260.1551814542172
 20
1689.680130506027
 30
0.0
 11
259.1551814542172
 21
1688.680130506027
 31
0.0
  0
LINE
  5
680
330
19
100
AcDbEntity
  8
4
100
AcDbLine
 10
578.8070393793396
 20
203.1493346040697
 30
0.0
 11
578.8070393793396
 21
360.1493346040697
 31
0.0
  0
LINE
  5
681
330
19
100
AcDbEntity
  8
4
100
AcDbLine
 10
635.8070393793396
 20
202.1493346040697
 30
0.0
 11
635.8070393793396
 21
340.1493346040697
 31
0.0
  0
LINE
  5
682
330
19
100
AcDbEntity
  8
4
100
AcDbLine
 10
611.8070393793396
 20
202.1493346040697
 30
0.0
 11
611.8070393793396
 21
340.1493346040697
 31
0.0
  0
LINE
  5
683
330
19
100
AcDbEntity
  8
4
100
AcDbLine
 10
668.8070393793396
 20
203.1493346040716
 30
0.0
 11
668.8070393793396
 21
360.1493346040716
 31
0.0
  0
LINE
  5
685
330
19
100
AcDbEntity
  8
4
100
AcDbLine
 10
671.3070393793396
 20
362.1493346040716
 30
0.0
 11
576.3070393793396
 21
362.1493346040697
 31
0.0
  0
LINE
  5
686
330
19
100
AcDbEntity
  8
4
100
AcDbLine
 10
576.3070393793396
 20
362.1493346040697
 30
0.0
 11
576.3070393793396
 21
372.1493346040688
 31
0.0
  0
ARC
  5
687
330
19
100
AcDbEntity
  8
4
100
AcDbCircle
 10
576.8070393793396
 20
360.1493346040697
 30
0.0
 40
2.0
100
AcDbArc
 50
0.0
 51
90.0
  0
LINE
  5
688
330
19
100
AcDbEntity
  8
4
100
AcDbLine
 10
576.3070393793396
 20
362.1493346040716
 30
0.0
 11
576.3070393793396
 21
372.1493346040688
 31
0.0
  0
ARC
  5
689
330
19
100
AcDbEntity
  8
4
100
AcDbCircle
 10
623.8070393793396
 20
340.1493346040697
 30
0.0
 40
12.0
100
AcDbArc
 50
0.0
 51
90.0
  0
ARC
  5
68A
330
19
100
AcDbEntity
  8
4
100
AcDbCircle
 10
623.8070393793396
 20
340.1493346040697
 30
0.0
 40
12.0
100
AcDbArc
 50
90.0
 51
180.0
  0
LINE
  5
68B
330
19
100
AcDbEntity
  8
4
100
AcDbLine
 10
671.3070393793396
 20
362.1493346040716
 30
0.0
 11
671.3070393793396
 21
372.1493346040688
 31
0.0
  0
ARC
  5
68C
330
19
100
AcDbEntity
  8
4
100
AcDbCircle
 10
670.8070393793396
 20
360.1493346040697
 30
0.0
 40
2.0
100
AcDbArc
 50
90.0
 51
180.0
  0
LINE
  5
68D
330
19
100
AcDbEntity
  8
4
100
AcDbLine
 10
671.3070393793396
 20
362.1493346040716
 30
0.0
 11
671.3070393793396
 21
372.1493346040688
 31
0.0
  0
LINE
  5
68E
330
19
100
AcDbEntity
  8
4
100
AcDbLine
 10
611.8070393793396
 20
203.1493346040697
 30
0.0
 11
578.8070393793396
 21
203.1493346040697
 31
0.0
  0
LINE
  5
68F
330
19
100
AcDbEntity
  8
4
100
AcDbLine
 10
667.8070393793396
 20
202.1493346040716
 30
0.0
 11
579.8070393793396
 21
202.1493346040697
 31
0.0
  0
LINE
  5
690
330
19
100
AcDbEntity
  8
4
100
AcDbLine
 10
579.8070393793396
 20
202.1493346040697
 30
0.0
 11
578.8070393793396
 21
203.1493346040697
 31
0.0
  0
LINE
  5
691
330
19
100
AcDbEntity
  8
4
100
AcDbLine
 10
668.8070393793396
 20
203.1493346040716
 30
0.0
 11
667.8070393793396
 21
202.1493346040716
 31
0.0
  0
LINE
  5
692
330
19
100
AcDbEntity
  8
4
100
AcDbLine
 10
668.8070393793396
 20
203.1493346040716
 30
0.0
 11
635.8070393793396
 21
203.1493346040697
 31
0.0
  0
LINE
  5
693
330
19
100
AcDbEntity
  8
4
100
AcDbLine
 10
1917.126981274092
 20
203.1493346040716
 30
0.0
 11
1917.126981274092
 21
360.1493346040716
 31
0.0
  0
LINE
  5
694
330
19
100
AcDbEntity
  8
4
100
AcDbLine
 10
1827.126981274092
 20
203.1493346040697
 30
0.0
 11
1827.126981274092
 21
360.1493346040697
 31
0.0
  0
LINE
  5
695
330
19
100
AcDbEntity
  8
4
100
AcDbLine
 10
1819.126981274092
 20
202.1493346040697
 30
0.0
 11
1819.126981274092
 21
352.1493346040697
 31
0.0
  0
LINE
  5
696
330
19
100
AcDbEntity
  8
4
100
AcDbLine
 10
1919.626981274092
 20
362.1493346040716
 30
0.0
 11
1824.626981274092
 21
362.1493346040697
 31
0.0
  0
LINE
  5
698
330
19
100
AcDbEntity
  8
4
100
AcDbLine
 10
1827.126981274091
 20
352.1493346040697
 30
0.0
 11
1819.126981274092
 21
352.1493346040697
 31
0.0
  0
LINE
  5
699
330
19
100
AcDbEntity
  8
4
100
AcDbLine
 10
1824.626981274092
 20
362.1493346040697
 30
0.0
 11
1824.626981274092
 21
372.1493346040688
 31
0.0
  0
ARC
  5
69A
330
19
100
AcDbEntity
  8
4
100
AcDbCircle
 10
1825.126981274091
 20
360.1493346040697
 30
0.0
 40
2.0
100
AcDbArc
 50
0.0
 51
90.0
  0
LINE
  5
69C
330
19
100
AcDbEntity
  8
4
100
AcDbLine
 10
1919.626981274092
 20
362.1493346040716
 30
0.0
 11
1919.626981274092
 21
372.1493346040688
 31
0.0
  0
ARC
  5
69D
330
19
100
AcDbEntity
  8
4
100
AcDbCircle
 10
1919.126981274091
 20
360.1493346040697
 30
0.0
 40
2.0
100
AcDbArc
 50
90.0
 51
180.0
  0
LINE
  5
69E
330
19
100
AcDbEntity
  8
4
100
AcDbLine
 10
1916.126981274092
 20
202.1493346040716
 30
0.0
 11
1819.126981274092
 21
202.1493346040697
 31
0.0
  0
LINE
  5
69F
330
19
100
AcDbEntity
  8
4
100
AcDbLine
 10
1827.126981274092
 20
203.1493346040697
 30
0.0
 11
1917.126981274092
 21
203.1493346040716
 31
0.0
  0
LINE
  5
6A0
330
19
100
AcDbEntity
  8
4
100
AcDbLine
 10
1828.126981274092
 20
202.1493346040697
 30
0.0
 11
1827.126981274092
 21
203.1493346040697
 31
0.0
  0
LINE
  5
6A1
330
19
100
AcDbEntity
  8
4
100
AcDbLine
 10
1917.126981274092
 20
203.1493346040716
 30
0.0
 11
1916.126981274092
 21
202.1493346040716
 31
0.0
  0
LINE
  5
6A4
330
19
100
AcDbEntity
  8
4
100
AcDbLine
 10
684.7027629217718
 20
372.1493346040688
 30
0.0
 11
570.1550393793395
 21
372.1493346040688
 31
0.0
  0
LINE
  5
6A5
330
19
100
AcDbEntity
  8
4
100
AcDbLine
 10
1933.022704816522
 20
372.1493346040688
 30
0.0
 11
1917.974944439302
 21
372.1493346040688
 31
0.0
  0
LINE
  5
6A6
330
19
100
AcDbEntity
  8
4
100
AcDbLine
 10
1898.345035286855
 20
372.1493346040688
 30
0.0
 11
1811.908927261328
 21
372.1493346040688
 31
0.0
  0
CIRCLE
  5
6BF
330
19
100
AcDbEntity
  8
4
100
AcDbCircle
 10
623.8070393793405
 20
1483.680130506027
 30
0.0
 40
75.0
  0
ARC
  5
6D4
330
19
100
AcDbEntity
  8
4
100
AcDbCircle
 10
623.80703937934
 20
87.60890191505257
 30
0.0
 40
45.0
100
AcDbArc
 50
105.4660099534206
 51
74.53399004657945
  0
LINE
  5
6D5
330
19
100
AcDbEntity
  8
L-CENTER
100
AcDbLine
 10
560.0092651156426
 20
87.60890191505257
 30
0.0
 11
687.6048136430375
 21
87.60890191505257
 31
0.0
  0
LINE
  5
6D6
330
19
100
AcDbEntity
  8
L-CENTER
100
AcDbLine
 10
623.8070393793396
 20
151.4066761787498
 30
0.0
 11
623.80703937934
 21
23.81112765135515
 31
0.0
  0
LINE
  5
6D7
330
19
100
AcDbEntity
  8
4
100
AcDbLine
 10
611.80703937934
 20
124.6089019150526
 30
0.0
 11
635.80703937934
 21
124.6089019150526
 31
0.0
  0
LINE
  5
6D8
330
19
100
AcDbEntity
  8
4
100
AcDbLine
 10
611.80703937934
 20
140.6089019150526
 30
0.0
 11
611.80703937934
 21
124.6089019150526
 31
0.0
  0
LINE
  5
6D9
330
19
100
AcDbEntity
  8
4
100
AcDbLine
 10
635.80703937934
 20
140.6089019150526
 30
0.0
 11
635.80703937934
 21
124.6089019150526
 31
0.0
  0
LINE
  5
6DA
330
19
100
AcDbEntity
  8
4
100
AcDbLine
 10
611.80703937934
 20
140.6089019150526
 30
0.0
 11
635.80703937934
 21
140.6089019150526
 31
0.0
  0
ENDSEC
  0
SECTION
  2
OBJECTS
  0
DICTIONARY
  5
9
330
0
100
AcDbDictionary
281
     1
  3
ACAD_COLOR
350
2F
  3
ACAD_GROUP
350
2D
  3
ACAD_LAYOUT
350
22
  3
ACAD_MATERIAL
350
B
  3
ACAD_MLEADERSTYLE
350
61D
  3
ACAD_MLINESTYLE
350
17
  3
ACAD_PLOTSETTINGS
350
2E
  3
ACAD_PLOTSTYLENAME
350
8
  3
ACAD_SCALELIST
350
38
  3
ACAD_TABLESTYLE
350
61C
  3
ACAD_VISUALSTYLE
350
30
  3
ACDBHEADERROUNDTRIPXREC
350
6E1
  3
AcDbVariableDictionary
350
61A
  3
DWGPROPS
350
6E4
  0
DICTIONARY
  5
6E5
330
2C
100
AcDbDictionary
280
     1
281
     1
  3
ACAD_XREC_ROUNDTRIP
360
6E6
  0
DICTIONARY
  5
3
330
2
100
AcDbDictionary
280
     1
281
     1
  3
ACAD_LAYERSTATES
360
4
  0
DICTIONARY
  5
1E
330
1D
100
AcDbDictionary
280
     1
281
     1
  3
ADSK_XREC_LAYER_RECONCILED
360
1F
  0
DICTIONARY
  5
6E
330
6D
100
AcDbDictionary
280
     1
281
     1
  3
ADSK_XREC_LAYER_RECONCILED
360
6F
  0
DICTIONARY
  5
77
330
76
100
AcDbDictionary
280
     1
281
     1
  3
ADSK_XREC_LAYER_RECONCILED
360
78
  0
DICTIONARY
  5
3D0
330
3CF
100
AcDbDictionary
280
     1
281
     1
  3
ADSK_XREC_LAYER_RECONCILED
360
3D1
  0
DICTIONARY
  5
5
330
1
100
AcDbDictionary
280
     1
281
     1
  3
ADSK_XREC_LAYER_RECONCILED
360
6
  0
DICTIONARY
  5
1A
330
19
100
AcDbDictionary
280
     1
281
     1
  3
ACAD_SORTENTS
360
1B
  0
DICTIONARY
  5
2F
102
{ACAD_REACTORS
330
9
102
}
330
9
100
AcDbDictionary
281
     1
  0
DICTIONARY
  5
2D
102
{ACAD_REACTORS
330
9
102
}
330
9
100
AcDbDictionary
281
     1
  0
DICTIONARY
  5
22
102
{ACAD_REACTORS
330
9
102
}
330
9
100
AcDbDictionary
281
     1
  3
Model
350
21
  3
ﾚｲｱｳﾄ1
350
29
  0
DICTIONARY
  5
B
102
{ACAD_REACTORS
330
9
102
}
330
9
100
AcDbDictionary
281
     1
  3
ByBlock
350
6B
  3
ByLayer
350
12
  3
Global
350
A
  0
DICTIONARY
  5
61D
102
{ACAD_REACTORS
330
9
102
}
330
9
100
AcDbDictionary
281
     1
  3
Standard
350
635
  0
DICTIONARY
  5
17
102
{ACAD_REACTORS
330
9
102
}
330
9
100
AcDbDictionary
281
     1
  3
STANDARD
350
16
  0
DICTIONARY
  5
2E
102
{ACAD_REACTORS
330
9
102
}
330
9
100
AcDbDictionary
281
     1
  0
ACDBDICTIONARYWDFLT
  5
8
102
{ACAD_REACTORS
330
9
102
}
330
9
100
AcDbDictionary
281
     1
  3
Normal
350
7
100
AcDbDictionaryWithDefault
340
7
  0
DICTIONARY
  5
38
102
{ACAD_REACTORS
330
9
102
}
330
9
100
AcDbDictionary
281
     1
  3
*A1
350
5A
  3
*A10
350
63
  3
*A11
350
64
  3
*A12
350
65
  3
*A13
350
66
  3
*A14
350
67
  3
*A15
350
68
  3
*A16
350
69
  3
*A17
350
6A
  3
*A2
350
5B
  3
*A3
350
5C
  3
*A4
350
5D
  3
*A5
350
5E
  3
*A6
350
5F
  3
*A7
350
60
  3
*A8
350
61
  3
*A9
350
62
  0
DICTIONARY
  5
61C
102
{ACAD_REACTORS
330
9
102
}
330
9
100
AcDbDictionary
281
     1
  3
Standard
350
63D
  0
DICTIONARY
  5
30
102
{ACAD_REACTORS
330
9
102
}
330
9
100
AcDbDictionary
281
     1
  3
2dWireframe
350
35
  3
Basic
350
625
  3
Brighten
350
628
  3
ColorChange
350
62C
  3
Conceptual
350
626
  3
Dim
350
627
  3
EdgeColorOff
350
62F
  3
Facepattern
350
62B
  3
Flat
350
620
  3
FlatWithEdges
350
621
  3
Gouraud
350
622
  3
GouraudWithEdges
350
623
  3
Hidden
350
624
  3
JitterOff
350
62D
  3
Linepattern
350
62A
  3
OverhangOff
350
62E
  3
Realistic
350
31
  3
Shaded
350
634
  3
Shaded with edges
350
633
  3
Shades of Gray
350
630
  3
Sketchy
350
631
  3
Thicken
350
629
  3
Wireframe
350
32
  3
X-Ray
350
632
  0
DICTIONARY
  5
6E1
102
{ACAD_REACTORS
330
9
102
}
330
9
100
AcDbDictionary
281
     1
  3
COLORDICT
350
6E2
  3
MATERIALDICT
350
6E3
  0
DICTIONARY
  5
61A
102
{ACAD_REACTORS
330
9
102
}
330
9
100
AcDbDictionary
281
     1
  3
CANNOSCALE
350
61B
  3
CMLEADERSTYLE
350
63B
  3
CTABLESTYLE
350
63E
  3
DIMASSOC
350
6DF
  3
HIDETEXT
350
6E0
  3
MSLTSCALE
350
6E7
  0
XRECORD
  5
6E4
102
{ACAD_REACTORS
330
9
102
}
330
9
100
AcDbXrecord
280
     1
  1
DWGPROPS COOKIE
  2

  3

  4

  6

  7

  8
sg-d03
  9

300
=
301
=
302
=
303
=
304
=
305
=
306
=
307
=
308
=
309
=
 40
0.0
 41
2450157.20912037
 42
2458115.302501991
  1

 90
        0
  0
XRECORD
  5
6E6
102
{ACAD_REACTORS
330
6E5
102
}
330
6E5
100
AcDbXrecord
280
     1
102
VTR_0.000_0.000_1.000_1.000_GRIDDISPLAY
 70
     3
102
VTR_0.000_0.000_1.000_1.000_GRIDMAJOR
 70
     5
102
VTR_0.000_0.000_1.000_1.000_DEFAULTLIGHTING
280
     1
102
VTR_0.000_0.000_1.000_1.000_DEFAULTLIGHTINGTYPE
 70
     1
102
VTR_0.000_0.000_1.000_1.000_BRIGHTNESS
141
0.0
102
VTR_0.000_0.000_1.000_1.000_CONTRAST
142
0.0
  0
DICTIONARY
  5
4
102
{ACAD_REACTORS
330
3
102
}
330
3
100
AcDbDictionary
281
     1
  0
XRECORD
  5
1F
102
{ACAD_REACTORS
330
1E
102
}
330
1E
100
AcDbXrecord
280
     1
290
     1
  0
XRECORD
  5
6F
102
{ACAD_REACTORS
330
6E
102
}
330
6E
100
AcDbXrecord
280
     1
290
     1
  0
XRECORD
  5
78
102
{ACAD_REACTORS
330
77
102
}
330
77
100
AcDbXrecord
280
     1
290
     1
  0
XRECORD
  5
3D1
102
{ACAD_REACTORS
330
3D0
102
}
330
3D0
100
AcDbXrecord
280
     1
290
     1
  0
XRECORD
  5
6
102
{ACAD_REACTORS
330
5
102
}
330
5
100
AcDbXrecord
280
     1
290
     1
  0
SORTENTSTABLE
  5
1B
102
{ACAD_REACTORS
330
1A
102
}
330
1A
100
AcDbSortentsTable
330
19
331
0
  5
13A
331
BA
  5
BB
331
BB
  5
BC
331
BC
  5
BD
331
BD
  5
BE
331
BE
  5
BF
331
BF
  5
C0
331
C0
  5
C1
331
C1
  5
C2
331
C2
  5
C3
331
C3
  5
C4
331
C4
  5
C5
331
C5
  5
C6
331
C6
  5
C7
331
C7
  5
C8
331
C8
  5
C9
331
C9
  5
CA
331
CA
  5
CB
331
CB
  5
CC
331
CC
  5
CD
331
CD
  5
CE
331
CE
  5
CF
331
CF
  5
D0
331
D0
  5
D1
331
D1
  5
D2
331
D2
  5
D3
331
D3
  5
D4
331
D4
  5
D5
331
D5
  5
D6
331
D6
  5
D7
331
D7
  5
D8
331
D8
  5
D9
331
D9
  5
DA
331
DA
  5
DB
331
DB
  5
DC
331
DC
  5
DD
331
DD
  5
DE
331
DE
  5
DF
331
DF
  5
E0
331
E0
  5
E1
331
E1
  5
E2
331
E2
  5
E3
331
E3
  5
E4
331
E4
  5
E5
331
E5
  5
E6
331
E6
  5
E7
331
E7
  5
E8
331
E8
  5
E9
331
E9
  5
EA
331
EA
  5
EB
331
EB
  5
EC
331
F1
  5
F2
331
F2
  5
F3
331
F3
  5
F4
331
F4
  5
F5
331
F5
  5
F6
331
F6
  5
F7
331
F7
  5
F8
331
F8
  5
F9
331
F9
  5
FA
331
FA
  5
FB
331
FB
  5
FC
331
FC
  5
FD
331
FE
  5
FF
331
FF
  5
100
331
100
  5
101
331
101
  5
102
331
102
  5
103
331
103
  5
104
331
104
  5
105
331
105
  5
106
331
106
  5
107
331
107
  5
108
331
110
  5
111
331
111
  5
112
331
112
  5
113
331
113
  5
114
331
114
  5
115
331
115
  5
116
331
116
  5
117
331
117
  5
118
331
118
  5
119
331
119
  5
11A
331
11A
  5
11B
331
11B
  5
11C
331
11C
  5
11D
331
11D
  5
11E
331
11E
  5
11F
331
11F
  5
120
331
120
  5
121
331
121
  5
122
331
122
  5
123
331
123
  5
124
331
124
  5
125
331
125
  5
126
331
126
  5
127
331
127
  5
128
331
128
  5
129
331
129
  5
12A
331
12A
  5
12B
331
12B
  5
12C
331
12C
  5
12D
331
12D
  5
12E
331
12E
  5
12F
331
12F
  5
130
331
130
  5
131
331
131
  5
132
331
132
  5
133
331
133
  5
134
331
134
  5
135
331
13D
  5
13F
331
13E
  5
140
331
13F
  5
141
331
140
  5
142
331
141
  5
143
331
142
  5
144
331
143
  5
145
331
144
  5
146
331
145
  5
147
331
146
  5
148
331
147
  5
149
331
148
  5
14A
331
149
  5
14B
331
14A
  5
14C
331
14B
  5
14D
331
14C
  5
14E
331
14D
  5
14F
331
14E
  5
150
331
14F
  5
151
331
150
  5
152
331
151
  5
153
331
152
  5
154
331
153
  5
155
331
154
  5
156
331
155
  5
157
331
156
  5
158
331
157
  5
159
331
158
  5
15A
331
159
  5
15B
331
15A
  5
15C
331
15B
  5
15D
331
15C
  5
15E
331
15D
  5
15F
331
15E
  5
160
331
15F
  5
161
331
160
  5
162
331
161
  5
163
331
162
  5
164
331
163
  5
165
331
164
  5
166
331
165
  5
167
331
166
  5
168
331
167
  5
169
331
168
  5
16A
331
169
  5
16B
331
16A
  5
16C
331
16B
  5
16D
331
16C
  5
16E
331
16D
  5
16F
331
16E
  5
170
331
16F
  5
171
331
170
  5
172
331
171
  5
173
331
172
  5
174
331
173
  5
175
331
174
  5
176
331
175
  5
177
331
176
  5
178
331
177
  5
179
331
178
  5
17A
331
179
  5
17B
331
17A
  5
17C
331
17B
  5
17D
331
17C
  5
17E
331
17D
  5
17F
331
0
  5
180
331
17F
  5
181
331
180
  5
182
331
181
  5
183
331
0
  5
184
331
183
  5
185
331
184
  5
186
331
0
  5
187
331
186
  5
188
331
187
  5
189
331
188
  5
18A
331
189
  5
18B
331
18A
  5
18C
331
18B
  5
18D
331
18C
  5
18E
331
18D
  5
18F
331
18E
  5
190
331
18F
  5
191
331
190
  5
192
331
191
  5
193
331
192
  5
194
331
193
  5
195
331
194
  5
196
331
195
  5
197
331
196
  5
198
331
197
  5
199
331
198
  5
19A
331
199
  5
19B
331
19A
  5
19C
331
19B
  5
19D
331
19C
  5
19E
331
19D
  5
19F
331
19E
  5
1A0
331
19F
  5
1A1
331
1A0
  5
1A2
331
1A1
  5
1A3
331
1A2
  5
1A4
331
1A3
  5
1A5
331
1A4
  5
1A6
331
1A5
  5
1A7
331
1A6
  5
1A8
331
1A7
  5
1A9
331
1A8
  5
1AA
331
1A9
  5
1AB
331
1AA
  5
1AC
331
1AB
  5
1AD
331
1AC
  5
1AE
331
1AD
  5
1AF
331
1AE
  5
1B0
331
1AF
  5
1B1
331
1B0
  5
1B2
331
1B1
  5
1B3
331
1B2
  5
1B4
331
1B3
  5
1B5
331
1B4
  5
1B6
331
1B5
  5
1B7
331
1B6
  5
1B8
331
1B7
  5
1B9
331
1B8
  5
1BA
331
1B9
  5
1BB
331
1BA
  5
1BC
331
1BB
  5
1BD
331
1BC
  5
1BE
331
1BD
  5
1BF
331
1BE
  5
1C0
331
1BF
  5
1C1
331
1C0
  5
1C2
331
1C1
  5
1C3
331
1C2
  5
1C4
331
1C3
  5
1C5
331
1C4
  5
1C6
331
1C5
  5
1C7
331
1C6
  5
1C8
331
1C7
  5
1C9
331
1C8
  5
1CA
331
1C9
  5
1CB
331
1CA
  5
1CC
331
1CB
  5
1CD
331
1CC
  5
1CE
331
1CD
  5
1CF
331
1CE
  5
1D0
331
1CF
  5
1D1
331
1D0
  5
1D2
331
1D1
  5
1D3
331
1D2
  5
1D4
331
1D3
  5
1D5
331
1D4
  5
1D6
331
1D5
  5
1D9
331
1D6
  5
1DA
331
1D7
  5
1DB
331
1D8
  5
1DC
331
1D9
  5
1DD
331
1DA
  5
1DE
331
1DB
  5
1DF
331
1DC
  5
1E0
331
1DD
  5
1E1
331
1DE
  5
1E2
331
1DF
  5
1E3
331
1E0
  5
1E4
331
1E1
  5
1E5
331
1E2
  5
1E6
331
1E3
  5
1E7
331
1E4
  5
1E8
331
1E5
  5
1E9
331
1E6
  5
1EA
331
1E7
  5
1EB
331
1E8
  5
1EC
331
1E9
  5
1ED
331
1EA
  5
1EE
331
1EB
  5
1EF
331
1EC
  5
1F0
331
1ED
  5
1F1
331
1EE
  5
1F2
331
1EF
  5
1F3
331
1F0
  5
1F4
331
1F1
  5
1F5
331
1F2
  5
1F6
331
1F3
  5
1F7
331
1F4
  5
1F8
331
1F5
  5
1F9
331
1F6
  5
1FA
331
1F7
  5
1FB
331
1F8
  5
1FC
331
1F9
  5
1FD
331
1FA
  5
1FE
331
1FB
  5
1FF
331
1FC
  5
200
331
200
  5
204
331
201
  5
205
331
202
  5
206
331
203
  5
207
331
205
  5
209
331
206
  5
20A
331
207
  5
20B
331
208
  5
20C
331
209
  5
20D
331
20A
  5
20E
331
20B
  5
20F
331
20C
  5
210
331
20F
  5
213
331
210
  5
214
331
211
  5
215
331
212
  5
216
331
213
  5
217
331
214
  5
218
331
215
  5
219
331
216
  5
21A
331
217
  5
21B
331
218
  5
21C
331
219
  5
21D
331
21A
  5
21E
331
21B
  5
21F
331
21C
  5
220
331
21F
  5
223
331
220
  5
224
331
221
  5
225
331
222
  5
226
331
223
  5
227
331
224
  5
228
331
225
  5
229
331
226
  5
22A
331
227
  5
22B
331
228
  5
22C
331
229
  5
22D
331
22A
  5
22E
331
22B
  5
22F
331
22C
  5
230
331
22D
  5
231
331
22E
  5
232
331
22F
  5
233
331
230
  5
234
331
231
  5
235
331
232
  5
236
331
233
  5
237
331
234
  5
238
331
236
  5
23A
331
237
  5
23B
331
238
  5
23C
331
239
  5
23D
331
23A
  5
23E
331
23B
  5
23F
331
23E
  5
242
331
23F
  5
243
331
240
  5
244
331
245
  5
249
331
246
  5
24A
331
247
  5
24B
331
248
  5
24C
331
249
  5
24D
331
24A
  5
24E
331
24B
  5
24F
331
24C
  5
250
331
24D
  5
251
331
24E
  5
252
331
24F
  5
253
331
250
  5
254
331
251
  5
255
331
252
  5
256
331
253
  5
257
331
254
  5
258
331
255
  5
259
331
256
  5
25A
331
257
  5
25B
331
258
  5
25C
331
259
  5
25D
331
25A
  5
25E
331
25B
  5
25F
331
25C
  5
260
331
25D
  5
261
331
25E
  5
262
331
25F
  5
263
331
260
  5
264
331
261
  5
265
331
262
  5
266
331
263
  5
267
331
264
  5
268
331
265
  5
269
331
266
  5
26A
331
267
  5
26B
331
268
  5
26C
331
269
  5
26D
331
26A
  5
26E
331
26B
  5
26F
331
26C
  5
270
331
26D
  5
271
331
26E
  5
272
331
26F
  5
273
331
270
  5
274
331
271
  5
275
331
272
  5
276
331
273
  5
277
331
274
  5
278
331
275
  5
279
331
276
  5
27A
331
277
  5
27B
331
278
  5
27C
331
279
  5
27D
331
27A
  5
27E
331
27B
  5
27F
331
27C
  5
280
331
27D
  5
281
331
27E
  5
282
331
27F
  5
283
331
280
  5
284
331
281
  5
285
331
282
  5
286
331
283
  5
287
331
284
  5
288
331
285
  5
289
331
286
  5
28A
331
287
  5
28B
331
288
  5
28C
331
289
  5
28D
331
28A
  5
28E
331
28B
  5
28F
331
28C
  5
290
331
28D
  5
291
331
28E
  5
292
331
28F
  5
293
331
290
  5
294
331
291
  5
295
331
292
  5
296
331
293
  5
297
331
294
  5
298
331
295
  5
299
331
296
  5
29A
331
297
  5
29B
331
298
  5
29C
331
299
  5
29D
331
29A
  5
29E
331
29B
  5
29F
331
29C
  5
2A0
331
29D
  5
2A1
331
29E
  5
2A2
331
29F
  5
2A3
331
2A0
  5
2A4
331
2A1
  5
2A5
331
2A2
  5
2A6
331
2A3
  5
2A7
331
2A4
  5
2A8
331
2A5
  5
2A9
331
2A6
  5
2AA
331
2A7
  5
2AB
331
2A8
  5
2AC
331
2A9
  5
2AD
331
2AA
  5
2AE
331
2AB
  5
2AF
331
2AC
  5
2B0
331
2AD
  5
2B1
331
2AE
  5
2B2
331
2AF
  5
2B3
331
2B0
  5
2B4
331
2B1
  5
2B5
331
2B2
  5
2B6
331
2B3
  5
2B7
331
2B4
  5
2B8
331
2B5
  5
2B9
331
2B6
  5
2BA
331
2B7
  5
2BB
331
2B8
  5
2BC
331
2B9
  5
2BD
331
2BA
  5
2BE
331
2BB
  5
2BF
331
2BC
  5
2C0
331
2BD
  5
2C1
331
2BE
  5
2C2
331
2BF
  5
2C3
331
2C0
  5
2C4
331
2C1
  5
2C5
331
2C2
  5
2C6
331
2C3
  5
2C7
331
2C4
  5
2C8
331
2C5
  5
2C9
331
2C6
  5
2CA
331
2C7
  5
2CB
331
2C8
  5
2CC
331
2C9
  5
2CD
331
2CA
  5
2CE
331
2CB
  5
2CF
331
2CC
  5
2D0
331
2CD
  5
2D1
331
2CE
  5
2D2
331
2CF
  5
2D3
331
2D0
  5
2D4
331
2D1
  5
2D5
331
2D2
  5
2D6
331
2D3
  5
2D7
331
2D7
  5
2DB
331
2D8
  5
2DC
331
2D9
  5
2DD
331
2DA
  5
2DE
331
2DB
  5
2DF
331
2DC
  5
2E0
331
2DD
  5
2E1
331
2DE
  5
2E2
331
2E1
  5
2E5
331
2E2
  5
2E6
331
2E4
  5
2E8
331
2E5
  5
2E9
331
2E6
  5
2EA
331
2E7
  5
2EB
331
2E8
  5
2EC
331
2E9
  5
2ED
331
2EA
  5
2EE
331
2EB
  5
2EF
331
2EC
  5
2F0
331
2ED
  5
2F1
331
2EE
  5
2F2
331
2EF
  5
2F3
331
2F0
  5
2F4
331
2F1
  5
2F5
331
2F2
  5
2F6
331
2F3
  5
2F7
331
2F4
  5
2F8
331
2F5
  5
2F9
331
2F6
  5
2FA
331
2F7
  5
2FB
331
2F8
  5
2FC
331
2F9
  5
2FD
331
2FA
  5
2FE
331
2FB
  5
2FF
331
2FC
  5
300
331
2FD
  5
301
331
2FE
  5
302
331
2FF
  5
303
331
300
  5
304
331
301
  5
305
331
302
  5
306
331
303
  5
307
331
304
  5
308
331
305
  5
309
331
306
  5
30A
331
307
  5
30B
331
308
  5
30C
331
309
  5
30D
331
30A
  5
30E
331
30B
  5
30F
331
30C
  5
310
331
30D
  5
311
331
30E
  5
312
331
30F
  5
313
331
310
  5
314
331
311
  5
315
331
312
  5
316
331
313
  5
317
331
314
  5
318
331
315
  5
319
331
316
  5
31A
331
317
  5
31B
331
318
  5
31C
331
319
  5
31D
331
31A
  5
31E
331
31B
  5
31F
331
31C
  5
320
331
31D
  5
321
331
31E
  5
322
331
31F
  5
323
331
320
  5
324
331
321
  5
325
331
322
  5
326
331
323
  5
327
331
324
  5
328
331
325
  5
329
331
326
  5
32A
331
327
  5
32B
331
328
  5
32C
331
329
  5
32D
331
32A
  5
32E
331
32B
  5
32F
331
32C
  5
330
331
32D
  5
331
331
32E
  5
332
331
32F
  5
333
331
330
  5
334
331
331
  5
335
331
332
  5
336
331
333
  5
337
331
334
  5
338
331
335
  5
339
331
336
  5
33A
331
337
  5
33B
331
338
  5
33C
331
339
  5
33D
331
33A
  5
33E
331
33B
  5
33F
331
33C
  5
340
331
33D
  5
341
331
33E
  5
342
331
33F
  5
343
331
340
  5
344
331
341
  5
345
331
342
  5
346
331
343
  5
347
331
344
  5
348
331
345
  5
349
331
346
  5
34A
331
347
  5
34B
331
348
  5
34C
331
349
  5
34D
331
34A
  5
34E
331
34B
  5
34F
331
34C
  5
350
331
34D
  5
351
331
34E
  5
352
331
34F
  5
353
331
350
  5
354
331
351
  5
355
331
352
  5
356
331
353
  5
357
331
354
  5
358
331
355
  5
359
331
356
  5
35A
331
357
  5
35B
331
358
  5
35C
331
359
  5
35D
331
35A
  5
35E
331
35B
  5
35F
331
35C
  5
360
331
35D
  5
361
331
35E
  5
362
331
35F
  5
363
331
360
  5
364
331
361
  5
365
331
362
  5
366
331
363
  5
367
331
364
  5
368
331
365
  5
369
331
366
  5
36A
331
367
  5
36B
331
368
  5
36C
331
369
  5
36D
331
36A
  5
36E
331
36B
  5
36F
331
36C
  5
370
331
36D
  5
371
331
36E
  5
372
331
36F
  5
373
331
370
  5
374
331
371
  5
375
331
372
  5
376
331
373
  5
377
331
374
  5
378
331
375
  5
379
331
376
  5
37A
331
377
  5
37B
331
378
  5
37C
331
379
  5
37D
331
37A
  5
37E
331
37B
  5
37F
331
37C
  5
380
331
37D
  5
381
331
37E
  5
382
331
37F
  5
383
331
380
  5
384
331
381
  5
385
331
382
  5
386
331
383
  5
387
331
384
  5
388
331
385
  5
389
331
386
  5
38A
331
387
  5
38B
331
388
  5
38C
331
389
  5
38D
331
38A
  5
38E
331
38B
  5
38F
331
38C
  5
390
331
38D
  5
391
331
38E
  5
392
331
38F
  5
393
331
390
  5
394
331
391
  5
395
331
392
  5
396
331
393
  5
397
331
394
  5
398
331
395
  5
399
331
396
  5
39A
331
397
  5
39B
331
398
  5
39C
331
399
  5
39D
331
39A
  5
39E
331
39B
  5
39F
331
39C
  5
3A0
331
39D
  5
3A1
331
39E
  5
3A2
331
39F
  5
3A3
331
3A0
  5
3A4
331
3A1
  5
3A5
331
3A2
  5
3A6
331
3A3
  5
3A7
331
3A4
  5
3A8
331
3A5
  5
3A9
331
3A6
  5
3AA
331
3A7
  5
3AB
331
3A8
  5
3AC
331
3A9
  5
3AD
331
3AA
  5
3AE
331
3AB
  5
3AF
331
3AC
  5
3B0
331
3AD
  5
3B1
331
3AE
  5
3B2
331
3AF
  5
3B3
331
3B0
  5
3B4
331
3B1
  5
3B5
331
3B2
  5
3B6
331
0
  5
3B7
331
0
  5
3B8
331
0
  5
3BA
331
0
  5
3BB
331
0
  5
3BC
331
0
  5
3BD
331
0
  5
3BE
331
0
  5
3BF
331
0
  5
3C0
331
0
  5
3C1
331
3BE
  5
3C2
331
0
  5
3C3
331
0
  5
3C4
331
0
  5
3C5
331
0
  5
3C6
331
0
  5
3C7
331
0
  5
3C8
331
0
  5
3CA
331
0
  5
3CB
331
0
  5
3CC
331
0
  5
3CD
331
0
  5
3CE
331
0
  5
3D2
331
0
  5
3D3
331
0
  5
3D4
331
0
  5
3D5
331
0
  5
3D6
331
0
  5
3D7
331
0
  5
3D8
331
0
  5
3D9
331
0
  5
3DA
331
0
  5
3DB
331
0
  5
3DC
331
0
  5
3DD
331
0
  5
3DE
331
0
  5
3DF
331
0
  5
3E0
331
0
  5
3E1
331
0
  5
3E2
331
0
  5
3E3
331
0
  5
3E4
331
0
  5
3E5
331
0
  5
3E6
331
0
  5
3E7
331
0
  5
3E8
331
0
  5
3E9
331
0
  5
3EA
331
0
  5
3EB
331
0
  5
3EC
331
0
  5
3ED
331
0
  5
3EE
331
0
  5
3EF
331
0
  5
3F0
331
0
  5
3F1
331
0
  5
3F2
331
0
  5
3F3
331
0
  5
3F4
331
0
  5
3F5
331
0
  5
3F6
331
0
  5
3F7
331
0
  5
3F8
331
0
  5
3F9
331
0
  5
3FA
331
0
  5
3FB
331
0
  5
3FC
331
0
  5
3FD
331
0
  5
3FE
331
0
  5
3FF
331
0
  5
400
331
0
  5
401
331
0
  5
402
331
0
  5
403
331
0
  5
404
331
0
  5
405
331
0
  5
406
331
0
  5
407
331
0
  5
408
331
0
  5
409
331
0
  5
40A
331
0
  5
40B
331
0
  5
40C
331
0
  5
40D
331
0
  5
40E
331
0
  5
40F
331
0
  5
410
331
0
  5
411
331
0
  5
412
331
0
  5
413
331
0
  5
414
331
0
  5
415
331
0
  5
416
331
0
  5
417
331
0
  5
418
331
0
  5
419
331
0
  5
41A
331
0
  5
41B
331
0
  5
41C
331
0
  5
41D
331
0
  5
41E
331
0
  5
41F
331
0
  5
420
331
0
  5
421
331
0
  5
422
331
0
  5
423
331
0
  5
424
331
0
  5
425
331
0
  5
426
331
0
  5
427
331
0
  5
428
331
0
  5
429
331
0
  5
42A
331
0
  5
42B
331
0
  5
42C
331
0
  5
42D
331
0
  5
42E
331
0
  5
42F
331
0
  5
430
331
0
  5
431
331
0
  5
432
331
0
  5
433
331
0
  5
434
331
0
  5
435
331
0
  5
436
331
0
  5
437
331
0
  5
438
331
0
  5
439
331
0
  5
43A
331
0
  5
43B
331
0
  5
43C
331
0
  5
43D
331
0
  5
43E
331
0
  5
43F
331
0
  5
440
331
0
  5
441
331
0
  5
442
331
0
  5
443
331
0
  5
444
331
0
  5
445
331
0
  5
446
331
0
  5
447
331
0
  5
448
331
0
  5
449
331
0
  5
44A
331
0
  5
44B
331
0
  5
44C
331
0
  5
44D
331
0
  5
44E
331
0
  5
44F
331
0
  5
450
331
0
  5
451
331
0
  5
452
331
0
  5
453
331
0
  5
454
331
0
  5
455
331
0
  5
456
331
0
  5
457
331
0
  5
458
331
0
  5
459
331
0
  5
45A
331
0
  5
45B
331
0
  5
45C
331
0
  5
45D
331
0
  5
45E
331
0
  5
45F
331
0
  5
460
331
0
  5
461
331
0
  5
462
331
0
  5
463
331
0
  5
464
331
0
  5
465
331
0
  5
466
331
0
  5
467
331
0
  5
468
331
0
  5
469
331
0
  5
46A
331
0
  5
46B
331
0
  5
46C
331
0
  5
46D
331
0
  5
46E
331
0
  5
46F
331
0
  5
470
331
0
  5
471
331
0
  5
472
331
0
  5
473
331
0
  5
474
331
0
  5
475
331
0
  5
476
331
0
  5
477
331
0
  5
478
331
0
  5
479
331
0
  5
47A
331
0
  5
47B
331
0
  5
47C
331
0
  5
47D
331
0
  5
47E
331
0
  5
47F
331
0
  5
480
331
0
  5
481
331
0
  5
482
331
0
  5
483
331
0
  5
484
331
0
  5
485
331
0
  5
486
331
0
  5
487
331
0
  5
488
331
0
  5
489
331
0
  5
48A
331
0
  5
48B
331
0
  5
48C
331
0
  5
48D
331
0
  5
48E
331
0
  5
48F
331
0
  5
490
331
0
  5
491
331
0
  5
492
331
0
  5
493
331
0
  5
494
331
0
  5
495
331
0
  5
496
331
0
  5
497
331
0
  5
498
331
0
  5
499
331
0
  5
49A
331
0
  5
49B
331
0
  5
49C
331
0
  5
49D
331
0
  5
49E
331
0
  5
49F
331
0
  5
4A0
331
0
  5
4A1
331
0
  5
4A2
331
0
  5
4A3
331
0
  5
4A4
331
0
  5
4A5
331
0
  5
4A6
331
0
  5
4A7
331
0
  5
4A8
331
0
  5
4A9
331
0
  5
4AA
331
0
  5
4AB
331
0
  5
4AC
331
0
  5
4AD
331
0
  5
4AE
331
0
  5
4AF
331
0
  5
4B0
331
0
  5
4B1
331
0
  5
4B2
331
0
  5
4B3
331
0
  5
4B4
331
0
  5
4B5
331
0
  5
4B6
331
0
  5
4B7
331
0
  5
4B8
331
0
  5
4B9
331
0
  5
4BA
331
0
  5
4BB
331
0
  5
4BC
331
0
  5
4BD
331
0
  5
4BE
331
0
  5
4BF
331
0
  5
4C0
331
0
  5
4C1
331
0
  5
4C2
331
0
  5
4C3
331
0
  5
4C4
331
0
  5
4C5
331
0
  5
4C6
331
0
  5
4C7
331
0
  5
4C8
331
0
  5
4C9
331
0
  5
4CA
331
0
  5
4CB
331
0
  5
4CC
331
0
  5
4CD
331
0
  5
4CE
331
0
  5
4CF
331
0
  5
4D0
331
0
  5
4D1
331
0
  5
4D2
331
0
  5
4D3
331
0
  5
4DF
331
0
  5
4E0
331
0
  5
4E1
331
0
  5
4E2
331
0
  5
4E9
331
0
  5
4EA
331
0
  5
4EB
331
0
  5
4EC
331
0
  5
4ED
331
0
  5
4EE
331
0
  5
4EF
331
0
  5
4F0
331
0
  5
4F1
331
0
  5
4F2
331
0
  5
4F3
331
0
  5
4F4
331
0
  5
4F5
331
0
  5
4FB
331
0
  5
501
331
0
  5
502
331
0
  5
503
331
0
  5
504
331
0
  5
505
331
0
  5
506
331
504
  5
508
331
505
  5
509
331
506
  5
50A
331
507
  5
50B
331
508
  5
50C
331
509
  5
50D
331
50A
  5
50E
331
50B
  5
50F
331
50C
  5
510
331
50D
  5
511
331
50E
  5
512
331
50F
  5
513
331
510
  5
514
331
511
  5
515
331
512
  5
516
331
513
  5
517
331
514
  5
518
331
515
  5
531
331
516
  5
532
331
517
  5
533
331
518
  5
534
331
531
  5
535
331
532
  5
536
331
533
  5
537
331
534
  5
538
331
535
  5
539
331
536
  5
53A
331
537
  5
53B
331
538
  5
53C
331
539
  5
53D
331
53A
  5
53E
331
53B
  5
53F
331
53C
  5
540
331
53D
  5
541
331
53E
  5
542
331
53F
  5
543
331
540
  5
544
331
541
  5
545
331
542
  5
546
331
543
  5
547
331
544
  5
548
331
545
  5
549
331
546
  5
54A
331
547
  5
54B
331
548
  5
54C
331
549
  5
54D
331
54A
  5
54E
331
54B
  5
54F
331
54C
  5
550
331
54D
  5
551
331
54E
  5
552
331
54F
  5
553
331
550
  5
554
331
551
  5
555
331
552
  5
556
331
553
  5
557
331
554
  5
558
331
555
  5
559
331
556
  5
55A
331
557
  5
55B
331
558
  5
55C
331
559
  5
55D
331
55A
  5
55E
331
55B
  5
55F
331
0
  5
560
331
0
  5
561
331
0
  5
562
331
0
  5
563
331
0
  5
564
331
0
  5
565
331
0
  5
566
331
0
  5
567
331
0
  5
568
331
0
  5
569
331
0
  5
56A
331
0
  5
56B
331
0
  5
56C
331
0
  5
56D
331
0
  5
56E
331
0
  5
56F
331
0
  5
570
331
0
  5
571
331
0
  5
572
331
0
  5
573
331
0
  5
574
331
0
  5
575
331
0
  5
576
331
0
  5
577
331
0
  5
578
331
0
  5
579
331
0
  5
57A
331
0
  5
57B
331
0
  5
57C
331
0
  5
57D
331
0
  5
57E
331
0
  5
57F
331
0
  5
580
331
0
  5
581
331
0
  5
582
331
0
  5
583
331
0
  5
584
331
0
  5
585
331
0
  5
586
331
0
  5
587
331
0
  5
588
331
0
  5
589
331
0
  5
58A
331
0
  5
58B
331
0
  5
58C
331
0
  5
58D
331
0
  5
58E
331
0
  5
58F
331
0
  5
590
331
0
  5
591
331
0
  5
592
331
0
  5
593
331
0
  5
594
331
0
  5
595
331
0
  5
596
331
0
  5
597
331
0
  5
598
331
0
  5
599
331
0
  5
59A
331
0
  5
59B
331
0
  5
59C
331
0
  5
59D
331
0
  5
59E
331
0
  5
59F
331
0
  5
5A0
331
0
  5
5A1
331
0
  5
5A2
331
0
  5
5A3
331
0
  5
5A4
331
0
  5
5A5
331
0
  5
5A6
331
0
  5
5A7
331
0
  5
5A8
331
0
  5
5A9
331
0
  5
5AA
331
0
  5
5AB
331
0
  5
5AC
331
0
  5
5AD
331
0
  5
5AE
331
0
  5
5AF
331
0
  5
5B0
331
0
  5
5B1
331
0
  5
5B2
331
0
  5
5B3
331
0
  5
5B4
331
0
  5
5B5
331
0
  5
5B6
331
0
  5
5B7
331
0
  5
5B8
331
0
  5
5B9
331
0
  5
5BA
331
0
  5
5BB
331
0
  5
5BC
331
0
  5
5BD
331
0
  5
5BE
331
0
  5
5BF
331
0
  5
5C0
331
0
  5
5C1
331
0
  5
5C2
331
0
  5
5C3
331
0
  5
5C4
331
0
  5
5C5
331
0
  5
5C6
331
0
  5
5C7
331
0
  5
5C8
331
0
  5
5C9
331
0
  5
5CA
331
0
  5
5CB
331
0
  5
5CC
331
0
  5
5CD
331
0
  5
5CE
331
0
  5
5CF
331
0
  5
5D0
331
0
  5
5D1
331
0
  5
5D2
331
0
  5
5D3
331
0
  5
5D4
331
0
  5
5D5
331
0
  5
5D6
331
0
  5
5D7
331
0
  5
5D8
331
0
  5
5D9
331
0
  5
5DA
331
0
  5
5DB
331
0
  5
5DC
331
0
  5
5DD
331
0
  5
5DE
331
0
  5
5DF
331
0
  5
5E0
331
0
  5
5E1
331
0
  5
5E2
331
0
  5
5E3
331
0
  5
5E4
331
0
  5
5E5
331
0
  5
5E6
331
0
  5
5E7
331
0
  5
5E8
331
0
  5
5E9
331
0
  5
5EA
331
0
  5
5EB
331
0
  5
5EC
331
0
  5
5ED
331
0
  5
5EE
331
0
  5
5EF
331
0
  5
5F0
331
0
  5
5F1
331
0
  5
5F2
331
0
  5
5F3
331
0
  5
5F4
331
0
  5
5F5
331
0
  5
5F6
331
0
  5
5F7
331
0
  5
5F8
331
0
  5
5F9
331
0
  5
5FA
331
0
  5
5FB
331
0
  5
5FC
331
0
  5
5FD
331
0
  5
5FE
331
0
  5
5FF
331
0
  5
600
331
0
  5
601
331
0
  5
602
331
0
  5
603
331
0
  5
604
331
0
  5
605
331
0
  5
606
331
0
  5
607
331
0
  5
608
331
0
  5
609
331
0
  5
60A
331
0
  5
60B
331
0
  5
60C
331
0
  5
60D
331
0
  5
60E
331
0
  5
60F
331
0
  5
610
331
0
  5
611
331
0
  5
612
331
0
  5
613
331
0
  5
614
331
0
  5
615
331
0
  5
616
331
0
  5
617
331
0
  5
618
331
0
  5
619
331
0
  5
637
331
0
  5
638
331
0
  5
639
331
0
  5
63A
331
0
  5
63F
331
0
  5
640
331
0
  5
642
331
0
  5
643
331
0
  5
644
331
0
  5
645
331
642
  5
646
331
643
  5
647
331
644
  5
648
331
645
  5
649
331
646
  5
64A
331
647
  5
64B
331
648
  5
64C
331
649
  5
64D
331
64A
  5
64E
331
64B
  5
64F
331
64C
  5
650
331
64D
  5
651
331
64E
  5
652
331
64F
  5
654
331
650
  5
655
331
651
  5
656
331
652
  5
657
331
654
  5
658
331
655
  5
659
331
656
  5
65A
331
657
  5
65B
331
658
  5
65C
331
659
  5
65D
331
65A
  5
65E
331
65B
  5
65F
331
65C
  5
660
331
65D
  5
661
331
65E
  5
662
331
65F
  5
663
331
660
  5
664
331
661
  5
665
331
662
  5
667
331
663
  5
668
331
664
  5
669
331
665
  5
66B
331
0
  5
66C
331
0
  5
66D
331
0
  5
66E
331
0
  5
66F
331
0
  5
670
331
0
  5
671
331
0
  5
672
331
0
  5
673
331
0
  5
674
331
0
  5
675
331
0
  5
676
331
0
  5
677
331
0
  5
678
331
0
  5
679
331
0
  5
67A
331
0
  5
67B
331
0
  5
67C
331
0
  5
67D
331
0
  5
67E
331
0
  5
67F
331
0
  5
680
331
680
  5
683
331
681
  5
684
331
682
  5
685
331
683
  5
686
331
685
  5
688
331
686
  5
689
331
687
  5
68A
331
688
  5
68B
331
689
  5
68C
331
68A
  5
68D
331
68B
  5
68E
331
68C
  5
68F
331
68D
  5
690
331
68E
  5
691
331
68F
  5
692
331
690
  5
693
331
691
  5
694
331
692
  5
695
331
693
  5
696
331
694
  5
697
331
695
  5
698
331
696
  5
699
331
698
  5
69B
331
699
  5
69C
331
69A
  5
69D
331
69C
  5
69F
331
69D
  5
6A0
331
69E
  5
6A1
331
69F
  5
6A2
331
6A0
  5
6A3
331
6A1
  5
6A4
331
6A4
  5
BA
331
6A5
  5
1D7
331
6A6
  5
1D8
  0
LAYOUT
  5
21
102
{ACAD_REACTORS
330
22
102
}
102
{ACAD_XDICTIONARY
360
23
102
}
330
22
100
AcDbPlotSettings
  1

  2
Bullzip PDF Printer.pc3
  4
A3
  6

 40
0.2
 41
0.0
 42
0.0
 43
0.0
 44
420.2
 45
297.1
 46
25.0
 47
12.0
 48
-1386.696920095688
 49
-159.1917999344669
140
905.3030746543118
141
1475.808196250533
142
1.0
143
6.0
 70
 11936
 72
     1
 73
     0
 74
     4
  7
monochrome.ctb
 75
     0
147
0.1666666666666667
148
1386.696920095688
149
159.1917999344669
100
AcDbLayout
  1
Model
 70
     0
 71
     0
 10
0.0
 20
0.0
 11
12.0
 21
9.0
 12
0.0
 22
0.0
 32
0.0
 14
250.8802790135574
 24
23.81112765135515
 34
0.0
 15
2217.126981274096
 25
1828.680130506027
 35
0.0
146
0.0
 13
0.0
 23
0.0
 33
0.0
 16
1.0
 26
0.0
 36
0.0
 17
0.0
 27
1.0
 37
0.0
 76
     0
330
19
331
34
1001
ACAD_PSEXT
1000
Bullzip PDF Printer.pc3
1000
Bullzip PDF Printer
1000
BULLZIP
1000
Bullzip PDF Printer 10.1.0.1871
1070
     0
  0
LAYOUT
  5
29
102
{ACAD_REACTORS
330
22
102
}
330
22
100
AcDbPlotSettings
  1

  2
SR-LP8300F
  4

  6

 40
0.0
 41
0.0
 42
0.0
 43
0.0
 44
0.0
 45
0.0
 46
0.0
 47
0.0
 48
0.0
 49
0.0
140
0.0
141
0.0
142
1.0
143
1.0
 70
   688
 72
     0
 73
     0
 74
     5
  7
monochrome.ctb
 75
    16
147
1.0
148
0.0
149
0.0
100
AcDbLayout
  1
ﾚｲｱｳﾄ1
 70
     0
 71
     1
 10
0.0
 20
0.0
 11
12.0
 21
9.0
 12
0.0
 22
0.0
 32
0.0
 14
1000000000000000E+20
 24
1000000000000000E+20
 34
1000000000000000E+20
 15
-1000000000000000E+20
 25
-1000000000000000E+20
 35
-1000000000000000E+20
146
0.0
 13
0.0
 23
0.0
 33
0.0
 16
1.0
 26
0.0
 36
0.0
 17
0.0
 27
1.0
 37
0.0
 76
     0
330
26
  0
MATERIAL
  5
6B
102
{ACAD_REACTORS
330
B
102
}
102
{ACAD_XDICTIONARY
360
6EC
102
}
330
B
100
AcDbMaterial
  1
ByBlock
 72
     0
 73
     2
 43
0.0208333333333333
 43
0.0
 43
0.0
 43
0.0
 43
0.0
 43
0.0208333333333333
 43
0.0
 43
0.0
 43
0.0
 43
0.0
 43
1.0
 43
0.0
 43
0.0
 43
0.0
 43
0.0
 43
1.0
 77
     0
 78
     2
 47
0.0208333333333333
 47
0.0
 47
0.0
 47
0.0
 47
0.0
 47
0.0208333333333333
 47
0.0
 47
0.0
 47
0.0
 47
0.0
 47
1.0
 47
0.0
 47
0.0
 47
0.0
 47
0.0
 47
1.0
171
     0
172
     2
 49
0.0208333333333333
 49
0.0
 49
0.0
 49
0.0
 49
0.0
 49
0.0208333333333333
 49
0.0
 49
0.0
 49
0.0
 49
0.0
 49
1.0
 49
0.0
 49
0.0
 49
0.0
 49
0.0
 49
1.0
175
     0
176
     2
142
0.0208333333333333
142
0.0
142
0.0
142
0.0
142
0.0
142
0.0208333333333333
142
0.0
142
0.0
142
0.0
142
0.0
142
1.0
142
0.0
142
0.0
142
0.0
142
0.0
142
1.0
179
     0
270
     2
144
0.0208333333333333
144
0.0
144
0.0
144
0.0
144
0.0
144
0.0208333333333333
144
0.0
144
0.0
144
0.0
144
0.0
144
1.0
144
0.0
144
0.0
144
0.0
144
0.0
144
1.0
274
     2
147
0.0208333333333333
147
0.0
147
0.0
147
0.0
147
0.0
147
0.0208333333333333
147
0.0
147
0.0
147
0.0
147
0.0
147
1.0
147
0.0
147
0.0
147
0.0
147
0.0
147
1.0
  0
MATERIAL
  5
12
102
{ACAD_REACTORS
330
B
102
}
102
{ACAD_XDICTIONARY
360
6E8
102
}
330
B
100
AcDbMaterial
  1
ByLayer
 72
     0
 73
     2
 43
0.0208333333333333
 43
0.0
 43
0.0
 43
0.0
 43
0.0
 43
0.0208333333333333
 43
0.0
 43
0.0
 43
0.0
 43
0.0
 43
1.0
 43
0.0
 43
0.0
 43
0.0
 43
0.0
 43
1.0
 77
     0
 78
     2
 47
0.0208333333333333
 47
0.0
 47
0.0
 47
0.0
 47
0.0
 47
0.0208333333333333
 47
0.0
 47
0.0
 47
0.0
 47
0.0
 47
1.0
 47
0.0
 47
0.0
 47
0.0
 47
0.0
 47
1.0
171
     0
172
     2
 49
0.0208333333333333
 49
0.0
 49
0.0
 49
0.0
 49
0.0
 49
0.0208333333333333
 49
0.0
 49
0.0
 49
0.0
 49
0.0
 49
1.0
 49
0.0
 49
0.0
 49
0.0
 49
0.0
 49
1.0
175
     0
176
     2
142
0.0208333333333333
142
0.0
142
0.0
142
0.0
142
0.0
142
0.0208333333333333
142
0.0
142
0.0
142
0.0
142
0.0
142
1.0
142
0.0
142
0.0
142
0.0
142
0.0
142
1.0
179
     0
270
     2
144
0.0208333333333333
144
0.0
144
0.0
144
0.0
144
0.0
144
0.0208333333333333
144
0.0
144
0.0
144
0.0
144
0.0
144
1.0
144
0.0
144
0.0
144
0.0
144
0.0
144
1.0
274
     2
147
0.0208333333333333
147
0.0
147
0.0
147
0.0
147
0.0
147
0.0208333333333333
147
0.0
147
0.0
147
0.0
147
0.0
147
1.0
147
0.0
147
0.0
147
0.0
147
0.0
147
1.0
  0
MATERIAL
  5
A
102
{ACAD_REACTORS
330
B
102
}
102
{ACAD_XDICTIONARY
360
6EA
102
}
330
B
100
AcDbMaterial
  1
Global
 72
     0
 73
     2
 43
0.0208333333333333
 43
0.0
 43
0.0
 43
0.0
 43
0.0
 43
0.0208333333333333
 43
0.0
 43
0.0
 43
0.0
 43
0.0
 43
1.0
 43
0.0
 43
0.0
 43
0.0
 43
0.0
 43
1.0
 77
     0
 78
     2
 47
0.0208333333333333
 47
0.0
 47
0.0
 47
0.0
 47
0.0
 47
0.0208333333333333
 47
0.0
 47
0.0
 47
0.0
 47
0.0
 47
1.0
 47
0.0
 47
0.0
 47
0.0
 47
0.0
 47
1.0
171
     0
172
     2
 49
0.0208333333333333
 49
0.0
 49
0.0
 49
0.0
 49
0.0
 49
0.0208333333333333
 49
0.0
 49
0.0
 49
0.0
 49
0.0
 49
1.0
 49
0.0
 49
0.0
 49
0.0
 49
0.0
 49
1.0
175
     0
176
     2
142
0.0208333333333333
142
0.0
142
0.0
142
0.0
142
0.0
142
0.0208333333333333
142
0.0
142
0.0
142
0.0
142
0.0
142
1.0
142
0.0
142
0.0
142
0.0
142
0.0
142
1.0
179
     0
270
     2
144
0.0208333333333333
144
0.0
144
0.0
144
0.0
144
0.0
144
0.0208333333333333
144
0.0
144
0.0
144
0.0
144
0.0
144
1.0
144
0.0
144
0.0
144
0.0
144
0.0
144
1.0
274
     2
147
0.0208333333333333
147
0.0
147
0.0
147
0.0
147
0.0
147
0.0208333333333333
147
0.0
147
0.0
147
0.0
147
0.0
147
1.0
147
0.0
147
0.0
147
0.0
147
0.0
147
1.0
  0
MLEADERSTYLE
  5
635
102
{ACAD_REACTORS
330
61D
102
}
102
{ACAD_XDICTIONARY
360
71E
102
}
330
61D
100
AcDbMLeaderStyle
170
     2
171
     1
172
     0
 90
        2
 40
0.0
 41
0.0
173
     1
 91
-1056964608
340
F
 92
       -2
290
     1
 42
0.09
291
     1
 43
0.36
  3
Standard
341
0
 44
0.18
300

342
10
174
     1
178
     6
175
     1
176
     0
 93
-1056964608
 45
0.18
292
     0
297
     0
 46
0.18
343
0
 94
-1056964608
 47
1.0
 49
1.0
140
1.0
293
     1
141
0.0
294
     1
177
     0
142
1.0
295
     0
296
     0
143
0.125
1001
ACAD_MLEADERVER
1070
     2
  0
MLINESTYLE
  5
16
102
{ACAD_REACTORS
330
17
102
}
330
17
100
AcDbMlineStyle
  2
STANDARD
 70
     0
  3

 62
     0
 51
90.0
 52
90.0
 71
     2
 49
0.5
 62
   256
  6
BYLAYER
 49
-0.5
 62
   256
  6
BYLAYER
  0
ACDBPLACEHOLDER
  5
7
102
{ACAD_REACTORS
330
8
102
}
330
8
  0
SCALE
  5
5A
102
{ACAD_REACTORS
330
38
102
}
330
38
100
AcDbScale
 70
     0
300
1:1
140
1.0
141
1.0
290
     1
  0
SCALE
  5
63
102
{ACAD_REACTORS
330
38
102
}
330
38
100
AcDbScale
 70
     0
300
3/8" = 1'-0"
140
0.375
141
12.0
290
     0
  0
SCALE
  5
64
102
{ACAD_REACTORS
330
38
102
}
330
38
100
AcDbScale
 70
     0
300
1/2" = 1'-0"
140
0.5
141
12.0
290
     0
  0
SCALE
  5
65
102
{ACAD_REACTORS
330
38
102
}
330
38
100
AcDbScale
 70
     0
300
3/4" = 1'-0"
140
0.75
141
12.0
290
     0
  0
SCALE
  5
66
102
{ACAD_REACTORS
330
38
102
}
330
38
100
AcDbScale
 70
     0
300
1" = 1'-0"
140
1.0
141
12.0
290
     0
  0
SCALE
  5
67
102
{ACAD_REACTORS
330
38
102
}
330
38
100
AcDbScale
 70
     0
300
1-1/2" = 1'-0"
140
1.5
141
12.0
290
     0
  0
SCALE
  5
68
102
{ACAD_REACTORS
330
38
102
}
330
38
100
AcDbScale
 70
     0
300
3" = 1'-0"
140
3.0
141
12.0
290
     0
  0
SCALE
  5
69
102
{ACAD_REACTORS
330
38
102
}
330
38
100
AcDbScale
 70
     0
300
6" = 1'-0"
140
6.0
141
12.0
290
     0
  0
SCALE
  5
6A
102
{ACAD_REACTORS
330
38
102
}
330
38
100
AcDbScale
 70
     0
300
1'-0" = 1'-0"
140
12.0
141
12.0
290
     0
  0
SCALE
  5
5B
102
{ACAD_REACTORS
330
38
102
}
330
38
100
AcDbScale
 70
     0
300
1/128" = 1'-0"
140
0.0078125
141
12.0
290
     0
  0
SCALE
  5
5C
102
{ACAD_REACTORS
330
38
102
}
330
38
100
AcDbScale
 70
     0
300
1/64" = 1'-0"
140
0.015625
141
12.0
290
     0
  0
SCALE
  5
5D
102
{ACAD_REACTORS
330
38
102
}
330
38
100
AcDbScale
 70
     0
300
1/32" = 1'-0"
140
0.03125
141
12.0
290
     0
  0
SCALE
  5
5E
102
{ACAD_REACTORS
330
38
102
}
330
38
100
AcDbScale
 70
     0
300
1/16" = 1'-0"
140
0.0625
141
12.0
290
     0
  0
SCALE
  5
5F
102
{ACAD_REACTORS
330
38
102
}
330
38
100
AcDbScale
 70
     0
300
3/32" = 1'-0"
140
0.09375
141
12.0
290
     0
  0
SCALE
  5
60
102
{ACAD_REACTORS
330
38
102
}
330
38
100
AcDbScale
 70
     0
300
1/8" = 1'-0"
140
0.125
141
12.0
290
     0
  0
SCALE
  5
61
102
{ACAD_REACTORS
330
38
102
}
330
38
100
AcDbScale
 70
     0
300
3/16" = 1'-0"
140
0.1875
141
12.0
290
     0
  0
SCALE
  5
62
102
{ACAD_REACTORS
330
38
102
}
330
38
100
AcDbScale
 70
     0
300
1/4" = 1'-0"
140
0.25
141
12.0
290
     0
  0
TABLESTYLE
  5
63D
102
{ACAD_REACTORS
330
61C
102
}
330
61C
100
AcDbTableStyle
  3
Standard
 70
     0
 71
     0
 40
0.06
 41
0.06
280
     0
281
     0
  7
STANDARD
140
0.18
170
     2
 62
     0
 63
   257
283
     0
274
    -2
284
     1
 64
     0
275
    -2
285
     1
 65
     0
276
    -2
286
     1
 66
     0
277
    -2
287
     1
 67
     0
278
    -2
288
     1
 68
     0
279
    -2
289
     1
 69
     0
  7
STANDARD
140
0.25
170
     5
 62
     0
 63
   257
283
     0
274
    -2
284
     1
 64
     0
275
    -2
285
     1
 65
     0
276
    -2
286
     1
 66
     0
277
    -2
287
     1
 67
     0
278
    -2
288
     1
 68
     0
279
    -2
289
     1
 69
     0
  7
STANDARD
140
0.18
170
     5
 62
     0
 63
   257
283
     0
274
    -2
284
     1
 64
     0
275
    -2
285
     1
 65
     0
276
    -2
286
     1
 66
     0
277
    -2
287
     1
 67
     0
278
    -2
288
     1
 68
     0
279
    -2
289
     1
 69
     0
  0
VISUALSTYLE
  5
35
102
{ACAD_REACTORS
330
30
102
}
102
{ACAD_XDICTIONARY
360
6F2
102
}
330
30
100
AcDbVisualStyle
  2
2dWireframe
 70
     4
 71
     0
 72
     2
 73
     0
 90
        0
 40
0.6
 41
30.0
 62
     5
 63
     7
 74
     1
 91
        4
 64
     7
 65
   257
 75
     1
175
     1
 42
1.0
 92
        0
 66
   257
 43
1.0
 76
     1
 77
     6
 78
     2
 67
     7
 79
     5
170
     0
171
     0
290
     0
174
     0
 93
        1
 44
0.0
173
     0
291
     0
 45
0.0
1001
ACAD
1000
AcDbSavedByObjectVersion
1070
     0
  0
VISUALSTYLE
  5
625
102
{ACAD_REACTORS
330
30
102
}
102
{ACAD_XDICTIONARY
360
6FE
102
}
330
30
100
AcDbVisualStyle
  2
Basic
 70
     7
 71
     1
 72
     0
 73
     1
 90
        0
 40
0.6
 41
30.0
 62
     5
 63
     7
 74
     0
 91
        4
 64
     7
 65
   257
 75
     1
175
     1
 42
1.0
 92
        8
 66
     7
 43
1.0
 76
     1
 77
     6
 78
     2
 67
     7
 79
     5
170
     0
171
     0
290
     0
174
     0
 93
        1
 44
0.0
173
     0
291
     1
 45
0.0
1001
ACAD
1000
AcDbSavedByObjectVersion
1070
     0
  0
VISUALSTYLE
  5
628
102
{ACAD_REACTORS
330
30
102
}
102
{ACAD_XDICTIONARY
360
704
102
}
330
30
100
AcDbVisualStyle
  2
Brighten
 70
    12
 71
     2
 72
     2
 73
     0
 90
        0
 40
0.6
 41
30.0
 62
     5
 63
     7
 74
     1
 91
        4
 64
     7
 65
   257
 75
     1
175
     1
 42
1.0
 92
        8
 66
     7
 43
1.0
 76
     1
 77
     6
 78
     2
 67
     7
 79
     5
170
     0
171
     0
290
     0
174
     0
 93
        1
 44
50.0
173
     0
291
     1
 45
0.0
1001
ACAD
1000
AcDbSavedByObjectVersion
1070
     0
  0
VISUALSTYLE
  5
62C
102
{ACAD_REACTORS
330
30
102
}
102
{ACAD_XDICTIONARY
360
70C
102
}
330
30
100
AcDbVisualStyle
  2
ColorChange
 70
    16
 71
     2
 72
     2
 73
     3
 90
        0
 40
0.6
 41
30.0
 62
     5
 63
     8
 74
     1
 91
        4
 64
     7
 65
   257
 75
     1
175
     1
 42
1.0
 92
        8
 66
     8
 43
1.0
 76
     1
 77
     6
 78
     2
 67
     7
 79
     5
170
     0
171
     0
290
     0
174
     0
 93
        1
 44
0.0
173
     0
291
     1
 45
0.0
1001
ACAD
1000
AcDbSavedByObjectVersion
1070
     0
  0
VISUALSTYLE
  5
626
102
{ACAD_REACTORS
330
30
102
}
102
{ACAD_XDICTIONARY
360
700
102
}
330
30
100
AcDbVisualStyle
  2
Conceptual
 70
     9
 71
     3
 72
     2
 73
     0
 90
        0
 40
0.6
 41
30.0
 62
     5
 63
     7
 74
     2
 91
        2
 64
     7
 65
   257
 75
     1
175
     1
 42
40.0
 92
        8
 66
     7
 43
1.0
 76
     1
 77
     6
 78
     2
 67
     7
 79
     3
170
     0
171
     0
290
     0
174
     0
 93
        1
 44
0.0
173
     0
291
     0
 45
0.0
1001
ACAD
1000
AcDbSavedByObjectVersion
1070
     0
  0
VISUALSTYLE
  5
627
102
{ACAD_REACTORS
330
30
102
}
102
{ACAD_XDICTIONARY
360
702
102
}
330
30
100
AcDbVisualStyle
  2
Dim
 70
    11
 71
     2
 72
     2
 73
     0
 90
        0
 40
0.6
 41
30.0
 62
     5
 63
     7
 74
     1
 91
        4
 64
     7
 65
   257
 75
     1
175
     1
 42
1.0
 92
        8
 66
     7
 43
1.0
 76
     1
 77
     6
 78
     2
 67
     7
 79
     5
170
     0
171
     0
290
     0
174
     0
 93
        1
 44
-50.0
173
     0
291
     1
 45
0.0
1001
ACAD
1000
AcDbSavedByObjectVersion
1070
     0
  0
VISUALSTYLE
  5
62F
102
{ACAD_REACTORS
330
30
102
}
102
{ACAD_XDICTIONARY
360
712
102
}
330
30
100
AcDbVisualStyle
  2
EdgeColorOff
 70
    22
 71
     2
 72
     2
 73
     0
 90
        0
 40
0.6
 41
30.0
 62
     5
 63
     7
 74
     1
 91
        4
 64
     7
 65
   257
 75
     1
175
     1
 42
1.0
 92
        8
 66
     7
 43
1.0
 76
     1
 77
     6
 78
     2
 67
     7
 79
     5
170
     0
171
     0
290
     0
174
     0
 93
        1
 44
0.0
173
     0
291
     1
 45
0.0
1001
ACAD
1000
AcDbSavedByObjectVersion
1070
     0
  0
VISUALSTYLE
  5
62B
102
{ACAD_REACTORS
330
30
102
}
102
{ACAD_XDICTIONARY
360
70A
102
}
330
30
100
AcDbVisualStyle
  2
Facepattern
 70
    15
 71
     2
 72
     2
 73
     0
 90
        0
 40
0.6
 41
30.0
 62
     5
 63
     7
 74
     1
 91
        4
 64
     7
 65
   257
 75
     1
175
     1
 42
1.0
 92
        8
 66
     7
 43
1.0
 76
     1
 77
     6
 78
     2
 67
     7
 79
     5
170
     0
171
     0
290
     0
174
     0
 93
        1
 44
0.0
173
     0
291
     1
 45
0.0
1001
ACAD
1000
AcDbSavedByObjectVersion
1070
     0
  0
VISUALSTYLE
  5
620
102
{ACAD_REACTORS
330
30
102
}
102
{ACAD_XDICTIONARY
360
6F4
102
}
330
30
100
AcDbVisualStyle
  2
Flat
 70
     0
 71
     2
 72
     1
 73
     1
 90
        2
 40
0.6
 41
30.0
 62
     5
 63
     7
 74
     0
 91
        4
 64
     7
 65
   257
 75
     1
175
     1
 42
1.0
 92
        8
 66
     7
 43
1.0
 76
     1
 77
     6
 78
     2
 67
     7
 79
     5
170
     0
171
     0
290
     0
174
     0
 93
       13
 44
0.0
173
     0
291
     1
 45
0.0
1001
ACAD
1000
AcDbSavedByObjectVersion
1070
     0
  0
VISUALSTYLE
  5
621
102
{ACAD_REACTORS
330
30
102
}
102
{ACAD_XDICTIONARY
360
6F6
102
}
330
30
100
AcDbVisualStyle
  2
FlatWithEdges
 70
     1
 71
     2
 72
     1
 73
     1
 90
        2
 40
0.6
 41
30.0
 62
     5
 63
     7
 74
     1
 91
        4
 64
     7
 65
   257
 75
     1
175
     1
 42
1.0
 92
        0
 66
   257
 43
1.0
 76
     1
 77
     6
 78
     2
 67
     7
 79
     5
170
     0
171
     0
290
     0
174
     0
 93
       13
 44
0.0
173
     0
291
     1
 45
0.0
1001
ACAD
1000
AcDbSavedByObjectVersion
1070
     0
  0
VISUALSTYLE
  5
622
102
{ACAD_REACTORS
330
30
102
}
102
{ACAD_XDICTIONARY
360
6F8
102
}
330
30
100
AcDbVisualStyle
  2
Gouraud
 70
     2
 71
     2
 72
     2
 73
     1
 90
        2
 40
0.6
 41
30.0
 62
     5
 63
     7
 74
     0
 91
        4
 64
     7
 65
   257
 75
     1
175
     1
 42
1.0
 92
        0
 66
     7
 43
1.0
 76
     1
 77
     6
 78
     2
 67
     7
 79
     5
170
     0
171
     0
290
     0
174
     0
 93
       13
 44
0.0
173
     0
291
     1
 45
0.0
1001
ACAD
1000
AcDbSavedByObjectVersion
1070
     0
  0
VISUALSTYLE
  5
623
102
{ACAD_REACTORS
330
30
102
}
102
{ACAD_XDICTIONARY
360
6FA
102
}
330
30
100
AcDbVisualStyle
  2
GouraudWithEdges
 70
     3
 71
     2
 72
     2
 73
     1
 90
        2
 40
0.6
 41
30.0
 62
     5
 63
     7
 74
     1
 91
        4
 64
     7
 65
   257
 75
     1
175
     1
 42
1.0
 92
        0
 66
   257
 43
1.0
 76
     1
 77
     6
 78
     2
 67
     7
 79
     5
170
     0
171
     0
290
     0
174
     0
 93
       13
 44
0.0
173
     0
291
     1
 45
0.0
1001
ACAD
1000
AcDbSavedByObjectVersion
1070
     0
  0
VISUALSTYLE
  5
624
102
{ACAD_REACTORS
330
30
102
}
102
{ACAD_XDICTIONARY
360
6FC
102
}
330
30
100
AcDbVisualStyle
  2
Hidden
 70
     6
 71
     1
 72
     2
 73
     2
 90
        0
 40
0.6
 41
30.0
 62
     5
 63
     7
 74
     2
 91
        2
 64
     7
 65
   257
 75
     2
175
     1
 42
40.0
 92
        0
 66
   257
 43
1.0
 76
     1
 77
     6
 78
     2
 67
     7
 79
     3
170
     0
171
     0
290
     0
174
     0
 93
        1
 44
0.0
173
     0
291
     0
 45
0.0
1001
ACAD
1000
AcDbSavedByObjectVersion
1070
     0
  0
VISUALSTYLE
  5
62D
102
{ACAD_REACTORS
330
30
102
}
102
{ACAD_XDICTIONARY
360
70E
102
}
330
30
100
AcDbVisualStyle
  2
JitterOff
 70
    20
 71
     2
 72
     2
 73
     0
 90
        0
 40
0.6
 41
30.0
 62
     5
 63
     7
 74
     1
 91
        4
 64
     7
 65
   257
 75
     1
175
     1
 42
1.0
 92
       10
 66
     7
 43
1.0
 76
     1
 77
     6
 78
     2
 67
     7
 79
     5
170
     0
171
     0
290
     0
174
     0
 93
        1
 44
0.0
173
     0
291
     1
 45
0.0
1001
ACAD
1000
AcDbSavedByObjectVersion
1070
     0
  0
VISUALSTYLE
  5
62A
102
{ACAD_REACTORS
330
30
102
}
102
{ACAD_XDICTIONARY
360
708
102
}
330
30
100
AcDbVisualStyle
  2
Linepattern
 70
    14
 71
     2
 72
     2
 73
     0
 90
        0
 40
0.6
 41
30.0
 62
     5
 63
     7
 74
     1
 91
        4
 64
     7
 65
   257
 75
     7
175
     7
 42
1.0
 92
        8
 66
     7
 43
1.0
 76
     1
 77
     6
 78
     2
 67
     7
 79
     5
170
     0
171
     0
290
     0
174
     0
 93
        1
 44
0.0
173
     0
291
     1
 45
0.0
1001
ACAD
1000
AcDbSavedByObjectVersion
1070
     0
  0
VISUALSTYLE
  5
62E
102
{ACAD_REACTORS
330
30
102
}
102
{ACAD_XDICTIONARY
360
710
102
}
330
30
100
AcDbVisualStyle
  2
OverhangOff
 70
    21
 71
     2
 72
     2
 73
     0
 90
        0
 40
0.6
 41
30.0
 62
     5
 63
     7
 74
     1
 91
        4
 64
     7
 65
   257
 75
     1
175
     1
 42
1.0
 92
        9
 66
     7
 43
1.0
 76
     1
 77
     6
 78
     2
 67
     7
 79
     5
170
     0
171
     0
290
     0
174
     0
 93
        1
 44
0.0
173
     0
291
     1
 45
0.0
1001
ACAD
1000
AcDbSavedByObjectVersion
1070
     0
  0
VISUALSTYLE
  5
31
102
{ACAD_REACTORS
330
30
102
}
102
{ACAD_XDICTIONARY
360
6EE
102
}
330
30
100
AcDbVisualStyle
  2
Realistic
 70
     8
 71
     2
 72
     3
 73
     0
 90
        2
 40
0.6
 41
30.0
 62
     5
 63
     7
 74
     0
 91
        0
 64
     7
 65
   257
 75
     1
175
     1
 42
1.0
 92
        8
 66
   257
 43
1.0
 76
     1
 77
     6
 78
     2
 67
     7
 79
     3
170
     0
171
     0
290
     0
174
     0
 93
       13
 44
0.0
173
     0
291
     0
 45
0.0
1001
ACAD
1000
AcDbSavedByObjectVersion
1070
     0
  0
VISUALSTYLE
  5
634
102
{ACAD_REACTORS
330
30
102
}
102
{ACAD_XDICTIONARY
360
71C
102
}
330
30
100
AcDbVisualStyle
  2
Shaded
 70
    27
 71
     2
 72
     2
 73
     1
 90
        2
 40
0.6
 41
30.0
 62
     5
 63
     7
 74
     0
 91
        4
 64
     7
 65
   257
 75
     1
175
     1
 42
1.0
 92
        8
 66
   257
 43
1.0
 76
     1
 77
     6
 78
     2
 67
   251
 79
     3
170
     0
171
     0
290
     0
174
     0
 93
        5
 44
0.0
173
     0
291
     0
 45
0.0
1001
ACAD
1000
AcDbSavedByObjectVersion
1070
     0
  0
VISUALSTYLE
  5
633
102
{ACAD_REACTORS
330
30
102
}
102
{ACAD_XDICTIONARY
360
71A
102
}
330
30
100
AcDbVisualStyle
  2
Shaded with edges
 70
    26
 71
     2
 72
     2
 73
     1
 90
        2
 40
0.6
 41
30.0
 62
     5
 63
     7
 74
     1
 91
       10
 64
     7
 65
   257
 75
     2
175
     1
 42
1.0
 92
        8
 66
   257
 43
1.0
 76
     1
 77
     6
 78
     2
 67
     7
 79
     3
170
     0
171
     0
290
     0
174
     0
 93
        5
 44
0.0
173
     0
291
     0
 45
0.0
1001
ACAD
1000
AcDbSavedByObjectVersion
1070
     0
  0
VISUALSTYLE
  5
630
102
{ACAD_REACTORS
330
30
102
}
102
{ACAD_XDICTIONARY
360
714
102
}
330
30
100
AcDbVisualStyle
  2
Shades of Gray
 70
    23
 71
     2
 72
     2
 73
     3
 90
        0
 40
0.6
 41
30.0
 62
     5
 63
     7
 74
     2
 91
        2
 64
     7
 65
     7
 75
     1
175
     1
 42
40.0
 92
        8
 66
     7
 43
1.0
 76
     1
 77
     6
 78
     2
 67
     7
 79
     3
170
     0
171
     0
290
     0
174
     0
 93
        1
 44
0.0
173
     0
291
     0
 45
0.0
1001
ACAD
1000
AcDbSavedByObjectVersion
1070
     0
  0
VISUALSTYLE
  5
631
102
{ACAD_REACTORS
330
30
102
}
102
{ACAD_XDICTIONARY
360
716
102
}
330
30
100
AcDbVisualStyle
  2
Sketchy
 70
    24
 71
     1
 72
     2
 73
     2
 90
        0
 40
0.6
 41
30.0
 62
     5
 63
     7
 74
     2
 91
        2
 64
     7
 65
     7
 75
     1
175
     1
 42
40.0
 92
       11
 66
     7
 43
1.0
 76
     1
 77
     6
 78
     2
 67
     7
 79
     6
170
     0
171
     0
290
     0
174
     0
 93
        1
 44
0.0
173
     0
291
     0
 45
0.0
1001
ACAD
1000
AcDbSavedByObjectVersion
1070
     0
  0
VISUALSTYLE
  5
629
102
{ACAD_REACTORS
330
30
102
}
102
{ACAD_XDICTIONARY
360
706
102
}
330
30
100
AcDbVisualStyle
  2
Thicken
 70
    13
 71
     2
 72
     2
 73
     0
 90
        0
 40
0.6
 41
30.0
 62
     5
 63
     7
 74
     1
 91
        4
 64
     7
 65
   257
 75
     1
175
     1
 42
1.0
 92
       12
 66
     7
 43
1.0
 76
     1
 77
     6
 78
     2
 67
     7
 79
     5
170
     0
171
     0
290
     0
174
     0
 93
        1
 44
0.0
173
     0
291
     1
 45
0.0
1001
ACAD
1000
AcDbSavedByObjectVersion
1070
     0
  0
VISUALSTYLE
  5
32
102
{ACAD_REACTORS
330
30
102
}
102
{ACAD_XDICTIONARY
360
6F0
102
}
330
30
100
AcDbVisualStyle
  2
Wireframe
 70
     5
 71
     0
 72
     2
 73
     0
 90
        0
 40
0.6
 41
30.0
 62
     5
 63
     7
 74
     1
 91
        4
 64
     7
 65
   257
 75
     1
175
     1
 42
1.0
 92
        0
 66
   257
 43
1.0
 76
     1
 77
     6
 78
     2
 67
     7
 79
     3
170
     0
171
     0
290
     0
174
     0
 93
        1
 44
0.0
173
     0
291
     0
 45
0.0
1001
ACAD
1000
AcDbSavedByObjectVersion
1070
     0
  0
VISUALSTYLE
  5
632
102
{ACAD_REACTORS
330
30
102
}
102
{ACAD_XDICTIONARY
360
718
102
}
330
30
100
AcDbVisualStyle
  2
X-Ray
 70
    25
 71
     2
 72
     2
 73
     1
 90
        1
 40
0.5
 41
30.0
 62
     5
 63
     7
 74
     1
 91
        0
 64
     7
 65
   257
 75
     1
175
     1
 42
1.0
 92
        8
 66
     7
 43
1.0
 76
     1
 77
     6
 78
     2
 67
     7
 79
     3
170
     0
171
     0
290
     0
174
     0
 93
       13
 44
0.0
173
     0
291
     0
 45
0.0
1001
ACAD
1000
AcDbSavedByObjectVersion
1070
     0
  0
XRECORD
  5
6E2
102
{ACAD_REACTORS
330
6E1
102
}
330
6E1
100
AcDbXrecord
280
     1
340
2F
  0
XRECORD
  5
6E3
102
{ACAD_REACTORS
330
6E1
102
}
330
6E1
100
AcDbXrecord
280
     1
340
B
  0
DICTIONARYVAR
  5
61B
102
{ACAD_REACTORS
330
61A
102
}
330
61A
100
DictionaryVariables
280
     0
  1
1:1
  0
DICTIONARYVAR
  5
63B
102
{ACAD_REACTORS
330
61A
102
}
330
61A
100
DictionaryVariables
280
     0
  1
Standard
  0
DICTIONARYVAR
  5
63E
102
{ACAD_REACTORS
330
61A
102
}
330
61A
100
DictionaryVariables
280
     0
  1
Standard
  0
DICTIONARYVAR
  5
6DF
102
{ACAD_REACTORS
330
61A
102
}
330
61A
100
DictionaryVariables
280
     0
  1
0
  0
DICTIONARYVAR
  5
6E0
102
{ACAD_REACTORS
330
61A
102
}
330
61A
100
DictionaryVariables
280
     0
  1
1
  0
DICTIONARYVAR
  5
6E7
102
{ACAD_REACTORS
330
61A
102
}
330
61A
100
DictionaryVariables
280
     0
  1
1
  0
DICTIONARY
  5
23
330
21
100
AcDbDictionary
280
     1
281
     1
  0
DICTIONARY
  5
6EC
330
6B
100
AcDbDictionary
280
     1
281
     1
  3
ACAD_XREC_ROUNDTRIP
360
6ED
  0
DICTIONARY
  5
6E8
330
12
100
AcDbDictionary
280
     1
281
     1
  3
ACAD_XREC_ROUNDTRIP
360
6E9
  0
DICTIONARY
  5
6EA
330
A
100
AcDbDictionary
280
     1
281
     1
  3
ACAD_XREC_ROUNDTRIP
360
6EB
  0
DICTIONARY
  5
71E
330
635
100
AcDbDictionary
280
     1
281
     1
  3
ACAD_XREC_ROUNDTRIP
360
71F
  0
DICTIONARY
  5
6F2
330
35
100
AcDbDictionary
280
     1
281
     1
  3
ACAD_XREC_ROUNDTRIP
360
6F3
  0
DICTIONARY
  5
6FE
330
625
100
AcDbDictionary
280
     1
281
     1
  3
ACAD_XREC_ROUNDTRIP
360
6FF
  0
DICTIONARY
  5
704
330
628
100
AcDbDictionary
280
     1
281
     1
  3
ACAD_XREC_ROUNDTRIP
360
705
  0
DICTIONARY
  5
70C
330
62C
100
AcDbDictionary
280
     1
281
     1
  3
ACAD_XREC_ROUNDTRIP
360
70D
  0
DICTIONARY
  5
700
330
626
100
AcDbDictionary
280
     1
281
     1
  3
ACAD_XREC_ROUNDTRIP
360
701
  0
DICTIONARY
  5
702
330
627
100
AcDbDictionary
280
     1
281
     1
  3
ACAD_XREC_ROUNDTRIP
360
703
  0
DICTIONARY
  5
712
330
62F
100
AcDbDictionary
280
     1
281
     1
  3
ACAD_XREC_ROUNDTRIP
360
713
  0
DICTIONARY
  5
70A
330
62B
100
AcDbDictionary
280
     1
281
     1
  3
ACAD_XREC_ROUNDTRIP
360
70B
  0
DICTIONARY
  5
6F4
330
620
100
AcDbDictionary
280
     1
281
     1
  3
ACAD_XREC_ROUNDTRIP
360
6F5
  0
DICTIONARY
  5
6F6
330
621
100
AcDbDictionary
280
     1
281
     1
  3
ACAD_XREC_ROUNDTRIP
360
6F7
  0
DICTIONARY
  5
6F8
330
622
100
AcDbDictionary
280
     1
281
     1
  3
ACAD_XREC_ROUNDTRIP
360
6F9
  0
DICTIONARY
  5
6FA
330
623
100
AcDbDictionary
280
     1
281
     1
  3
ACAD_XREC_ROUNDTRIP
360
6FB
  0
DICTIONARY
  5
6FC
330
624
100
AcDbDictionary
280
     1
281
     1
  3
ACAD_XREC_ROUNDTRIP
360
6FD
  0
DICTIONARY
  5
70E
330
62D
100
AcDbDictionary
280
     1
281
     1
  3
ACAD_XREC_ROUNDTRIP
360
70F
  0
DICTIONARY
  5
708
330
62A
100
AcDbDictionary
280
     1
281
     1
  3
ACAD_XREC_ROUNDTRIP
360
709
  0
DICTIONARY
  5
710
330
62E
100
AcDbDictionary
280
     1
281
     1
  3
ACAD_XREC_ROUNDTRIP
360
711
  0
DICTIONARY
  5
6EE
330
31
100
AcDbDictionary
280
     1
281
     1
  3
ACAD_XREC_ROUNDTRIP
360
6EF
  0
DICTIONARY
  5
71C
330
634
100
AcDbDictionary
280
     1
281
     1
  3
ACAD_XREC_ROUNDTRIP
360
71D
  0
DICTIONARY
  5
71A
330
633
100
AcDbDictionary
280
     1
281
     1
  3
ACAD_XREC_ROUNDTRIP
360
71B
  0
DICTIONARY
  5
714
330
630
100
AcDbDictionary
280
     1
281
     1
  3
ACAD_XREC_ROUNDTRIP
360
715
  0
DICTIONARY
  5
716
330
631
100
AcDbDictionary
280
     1
281
     1
  3
ACAD_XREC_ROUNDTRIP
360
717
  0
DICTIONARY
  5
706
330
629
100
AcDbDictionary
280
     1
281
     1
  3
ACAD_XREC_ROUNDTRIP
360
707
  0
DICTIONARY
  5
6F0
330
32
100
AcDbDictionary
280
     1
281
     1
  3
ACAD_XREC_ROUNDTRIP
360
6F1
  0
DICTIONARY
  5
718
330
632
100
AcDbDictionary
280
     1
281
     1
  3
ACAD_XREC_ROUNDTRIP
360
719
  0
XRECORD
  5
6ED
102
{ACAD_REACTORS
330
6EC
102
}
330
6EC
100
AcDbXrecord
280
     1
102
MATERIAL
148
0.0
149
0.0
149
0.0
 93
        0
 94
      127
282
     0
 72
     0
 77
     0
171
     0
175
     0
179
     0
273
     0
  0
XRECORD
  5
6E9
102
{ACAD_REACTORS
330
6E8
102
}
330
6E8
100
AcDbXrecord
280
     1
102
MATERIAL
148
0.0
149
0.0
149
0.0
 93
        0
 94
      127
282
     0
 72
     0
 77
     0
171
     0
175
     0
179
     0
273
     0
  0
XRECORD
  5
6EB
102
{ACAD_REACTORS
330
6EA
102
}
330
6EA
100
AcDbXrecord
280
     1
102
MATERIAL
148
0.0
149
0.0
149
0.0
 93
        0
 94
      127
282
     0
 72
     0
 77
     0
171
     0
175
     0
179
     0
273
     0
  0
XRECORD
  5
71F
102
{ACAD_REACTORS
330
71E
102
}
330
71E
100
AcDbXrecord
280
     1
102
ACAD_ROUNDTRIP_2010_MLEADER_STYLE
  0
XRECORD
  5
6F3
102
{ACAD_REACTORS
330
6F2
102
}
330
6F2
100
AcDbXrecord
280
     1
102
RTVSPropertyOp0
 70
     1
102
RTVSPropertyOp1
 70
     1
102
RTVSPropertyOp2
 70
     1
102
RTVSPropertyOp3
 70
     1
102
RTVSPropertyOp4
 70
     1
102
RTVSPropertyOp5
 70
     1
102
RTVSPropertyOp6
 70
     1
102
RTVSPropertyOp7
 70
     1
102
RTVSPropertyOp8
 70
     1
102
RTVSPropertyOp9
 70
     1
102
RTVSPropertyOp10
 70
     1
102
RTVSPropertyOp11
 70
     1
102
RTVSPropertyOp12
 70
     1
102
RTVSPropertyOp13
 70
     1
102
RTVSPropertyOp14
 70
     1
102
RTVSPropertyOp15
 70
     1
102
RTVSPropertyOp16
 70
     1
102
RTVSPropertyOp17
 70
     1
102
RTVSPropertyOp18
 70
     1
102
RTVSPropertyOp19
 70
     1
102
RTVSPropertyOp20
 70
     1
102
RTVSPropertyOp21
 70
     1
102
RTVSPropertyOp22
 70
     1
102
RTVSPropertyOp23
 70
     1
102
RTVSPropertyOp24
 70
     1
102
RTVSPropertyOp25
 70
     1
102
RTVSPropertyOp26
 70
     1
102
RTVSPropertyOp27
 70
     1
102
RTVSPropertyOp28
 70
     1
102
RTVSPropertyOp29
 70
     1
102
RTVSPropertyOp30
 70
     1
102
RTVSPropertyOp31
 70
     1
102
RTVSPropertyOp32
 70
     1
102
RTVSPropertyOp33
 70
     1
102
RTVSPropertyOp34
 70
     1
102
RTVSPropertyOp35
 70
     1
102
RTVSPropertyOp36
 70
     1
102
RTVSPropertyOp37
 70
     1
102
RTVSPropertyOp38
 70
     1
102
RTVSPropertyOp39
 70
     1
102
RTVSPropertyOp40
 70
     1
102
RTVSPropertyOp41
 70
     1
102
RTVSPropertyOp42
 70
     1
102
RTVSPropertyOp43
 70
     1
102
RTVSPropertyOp44
 70
     1
102
RTVSPropertyOp45
 70
     1
102
RTVSPropertyOp46
 70
     1
102
RTVSPropertyOp47
 70
     1
102
RTVSPropertyOp48
 70
     1
102
RTVSPropertyOp49
 70
     1
102
RTVSPropertyOp50
 70
     1
102
RTVSPropertyOp51
 70
     0
102
RTVSPropertyOp52
 70
     0
102
RTVSPropertyOp53
 70
     1
102
RTVSPropertyOp54
 70
     1
102
RTVSPropertyOp55
 70
     1
102
RTVSPropertyOp56
 70
     1
102
RTVSPropertyOp57
 70
     1
102
RTVSPost2010Prop28
280
     1
102
RTVSPost2010PropOp28
 70
     1
102
RTVSPost2010Prop29
280
     1
102
RTVSPost2010PropOp29
 70
     1
102
RTVSPost2010Prop30
280
     0
102
RTVSPost2010PropOp30
 70
     1
102
RTVSPost2010Prop31
280
     0
102
RTVSPost2010PropOp31
 70
     1
102
RTVSPost2010Prop32
280
     0
102
RTVSPost2010PropOp32
 70
     1
102
RTVSPost2010Prop33
280
     0
102
RTVSPost2010PropOp33
 70
     1
102
RTVSPost2010Prop34
280
     0
102
RTVSPost2010PropOp34
 70
     1
102
RTVSPost2010Prop35
280
     0
102
RTVSPost2010PropOp35
 70
     1
102
RTVSPost2010Prop36
280
     0
102
RTVSPost2010PropOp36
 70
     1
102
RTVSPost2010Prop37
 90
       50
102
RTVSPost2010PropOp37
 70
     1
102
RTVSPost2010Prop38
140
0.0
102
RTVSPost2010PropOp38
 70
     1
102
RTVSPost2010Prop39
140
1.0
102
RTVSPost2010PropOp39
 70
     1
102
RTVSPost2010Prop40
 90
        0
102
RTVSPost2010PropOp40
 70
     1
102
RTVSPost2010Prop41ColorIndex
 90
       18
102
RTVSPost2010Prop41ColorRGB
 90
        0
102
RTVSPost2010PropOp41
 70
     1
102
RTVSPost2010Prop42
 90
       50
102
RTVSPost2010PropOp42
 70
     1
102
RTVSPost2010Prop43
 90
        3
102
RTVSPost2010PropOp43
 70
     1
102
RTVSPost2010Prop44ColorIndex
 90
        5
102
RTVSPost2010Prop44ColorRGB
 90
      255
102
RTVSPost2010PropOp44
 70
     1
102
RTVSPost2010Prop45
280
     0
102
RTVSPost2010PropOp45
 70
     1
102
RTVSPost2010Prop46
 90
       50
102
RTVSPost2010PropOp46
 70
     1
102
RTVSPost2010Prop47
 90
       50
102
RTVSPost2010PropOp47
 70
     1
102
RTVSPost2010Prop48
 90
       50
102
RTVSPost2010PropOp48
 70
     1
102
RTVSPost2010Prop49
280
     0
102
RTVSPost2010PropOp49
 70
     1
102
RTVSPost2010Prop50
 90
       50
102
RTVSPost2010PropOp50
 70
     1
102
RTVSPost2010Prop51ColorIndex
 90
      256
102
RTVSPost2010Prop51ColorRGB
 90
-16777216
102
RTVSPost2010PropOp51
 70
     0
102
RTVSPost2010Prop52
140
1.0
102
RTVSPost2010PropOp52
 70
     0
102
RTVSPost2010Prop53
 90
        2
102
RTVSPost2010PropOp53
 70
     1
102
RTVSPost2010Prop54
  1
strokes_ogs.tif
102
RTVSPost2010PropOp54
 70
     1
102
RTVSPost2010Prop55
280
     0
102
RTVSPost2010PropOp55
 70
     1
102
RTVSPost2010Prop56
140
1.0
102
RTVSPost2010PropOp56
 70
     1
102
RTVSPost2010Prop57
140
1.0
102
RTVSPost2010PropOp57
 70
     1
  0
XRECORD
  5
6FF
102
{ACAD_REACTORS
330
6FE
102
}
330
6FE
100
AcDbXrecord
280
     1
102
RTVSPropertyOp0
 70
     1
102
RTVSPropertyOp1
 70
     1
102
RTVSPropertyOp2
 70
     1
102
RTVSPropertyOp3
 70
     1
102
RTVSPropertyOp4
 70
     1
102
RTVSPropertyOp5
 70
     1
102
RTVSPropertyOp6
 70
     1
102
RTVSPropertyOp7
 70
     1
102
RTVSPropertyOp8
 70
     1
102
RTVSPropertyOp9
 70
     1
102
RTVSPropertyOp10
 70
     1
102
RTVSPropertyOp11
 70
     1
102
RTVSPropertyOp12
 70
     1
102
RTVSPropertyOp13
 70
     1
102
RTVSPropertyOp14
 70
     1
102
RTVSPropertyOp15
 70
     1
102
RTVSPropertyOp16
 70
     1
102
RTVSPropertyOp17
 70
     1
102
RTVSPropertyOp18
 70
     1
102
RTVSPropertyOp19
 70
     1
102
RTVSPropertyOp20
 70
     1
102
RTVSPropertyOp21
 70
     1
102
RTVSPropertyOp22
 70
     1
102
RTVSPropertyOp23
 70
     1
102
RTVSPropertyOp24
 70
     1
102
RTVSPropertyOp25
 70
     1
102
RTVSPropertyOp26
 70
     1
102
RTVSPropertyOp27
 70
     1
102
RTVSPropertyOp28
 70
     1
102
RTVSPropertyOp29
 70
     1
102
RTVSPropertyOp30
 70
     1
102
RTVSPropertyOp31
 70
     1
102
RTVSPropertyOp32
 70
     1
102
RTVSPropertyOp33
 70
     1
102
RTVSPropertyOp34
 70
     1
102
RTVSPropertyOp35
 70
     1
102
RTVSPropertyOp36
 70
     1
102
RTVSPropertyOp37
 70
     1
102
RTVSPropertyOp38
 70
     1
102
RTVSPropertyOp39
 70
     1
102
RTVSPropertyOp40
 70
     1
102
RTVSPropertyOp41
 70
     1
102
RTVSPropertyOp42
 70
     1
102
RTVSPropertyOp43
 70
     1
102
RTVSPropertyOp44
 70
     1
102
RTVSPropertyOp45
 70
     1
102
RTVSPropertyOp46
 70
     1
102
RTVSPropertyOp47
 70
     1
102
RTVSPropertyOp48
 70
     1
102
RTVSPropertyOp49
 70
     1
102
RTVSPropertyOp50
 70
     1
102
RTVSPropertyOp51
 70
     0
102
RTVSPropertyOp52
 70
     0
102
RTVSPropertyOp53
 70
     1
102
RTVSPropertyOp54
 70
     1
102
RTVSPropertyOp55
 70
     1
102
RTVSPropertyOp56
 70
     1
102
RTVSPropertyOp57
 70
     1
102
RTVSPost2010Prop28
280
     0
102
RTVSPost2010PropOp28
 70
     1
102
RTVSPost2010Prop29
280
     1
102
RTVSPost2010PropOp29
 70
     1
102
RTVSPost2010Prop30
280
     1
102
RTVSPost2010PropOp30
 70
     1
102
RTVSPost2010Prop31
280
     0
102
RTVSPost2010PropOp31
 70
     1
102
RTVSPost2010Prop32
280
     0
102
RTVSPost2010PropOp32
 70
     1
102
RTVSPost2010Prop33
280
     0
102
RTVSPost2010PropOp33
 70
     1
102
RTVSPost2010Prop34
280
     0
102
RTVSPost2010PropOp34
 70
     1
102
RTVSPost2010Prop35
280
     0
102
RTVSPost2010PropOp35
 70
     1
102
RTVSPost2010Prop36
280
     0
102
RTVSPost2010PropOp36
 70
     1
102
RTVSPost2010Prop37
 90
       50
102
RTVSPost2010PropOp37
 70
     1
102
RTVSPost2010Prop38
140
0.0
102
RTVSPost2010PropOp38
 70
     1
102
RTVSPost2010Prop39
140
1.0
102
RTVSPost2010PropOp39
 70
     1
102
RTVSPost2010Prop40
 90
        0
102
RTVSPost2010PropOp40
 70
     1
102
RTVSPost2010Prop41ColorIndex
 90
       18
102
RTVSPost2010Prop41ColorRGB
 90
        0
102
RTVSPost2010PropOp41
 70
     1
102
RTVSPost2010Prop42
 90
       50
102
RTVSPost2010PropOp42
 70
     1
102
RTVSPost2010Prop43
 90
        3
102
RTVSPost2010PropOp43
 70
     1
102
RTVSPost2010Prop44ColorIndex
 90
        5
102
RTVSPost2010Prop44ColorRGB
 90
      255
102
RTVSPost2010PropOp44
 70
     1
102
RTVSPost2010Prop45
280
     0
102
RTVSPost2010PropOp45
 70
     1
102
RTVSPost2010Prop46
 90
       50
102
RTVSPost2010PropOp46
 70
     1
102
RTVSPost2010Prop47
 90
       50
102
RTVSPost2010PropOp47
 70
     1
102
RTVSPost2010Prop48
 90
       50
102
RTVSPost2010PropOp48
 70
     1
102
RTVSPost2010Prop49
280
     0
102
RTVSPost2010PropOp49
 70
     1
102
RTVSPost2010Prop50
 90
       50
102
RTVSPost2010PropOp50
 70
     1
102
RTVSPost2010Prop51ColorIndex
 90
      256
102
RTVSPost2010Prop51ColorRGB
 90
-16777216
102
RTVSPost2010PropOp51
 70
     0
102
RTVSPost2010Prop52
140
1.0
102
RTVSPost2010PropOp52
 70
     0
102
RTVSPost2010Prop53
 90
        2
102
RTVSPost2010PropOp53
 70
     1
102
RTVSPost2010Prop54
  1
strokes_ogs.tif
102
RTVSPost2010PropOp54
 70
     1
102
RTVSPost2010Prop55
280
     0
102
RTVSPost2010PropOp55
 70
     1
102
RTVSPost2010Prop56
140
1.0
102
RTVSPost2010PropOp56
 70
     1
102
RTVSPost2010Prop57
140
1.0
102
RTVSPost2010PropOp57
 70
     1
  0
XRECORD
  5
705
102
{ACAD_REACTORS
330
704
102
}
330
704
100
AcDbXrecord
280
     1
102
RTVSPropertyOp0
 70
     1
102
RTVSPropertyOp1
 70
     1
102
RTVSPropertyOp2
 70
     1
102
RTVSPropertyOp3
 70
     1
102
RTVSPropertyOp4
 70
     1
102
RTVSPropertyOp5
 70
     1
102
RTVSPropertyOp6
 70
     1
102
RTVSPropertyOp7
 70
     1
102
RTVSPropertyOp8
 70
     1
102
RTVSPropertyOp9
 70
     1
102
RTVSPropertyOp10
 70
     1
102
RTVSPropertyOp11
 70
     1
102
RTVSPropertyOp12
 70
     1
102
RTVSPropertyOp13
 70
     1
102
RTVSPropertyOp14
 70
     1
102
RTVSPropertyOp15
 70
     1
102
RTVSPropertyOp16
 70
     1
102
RTVSPropertyOp17
 70
     1
102
RTVSPropertyOp18
 70
     1
102
RTVSPropertyOp19
 70
     1
102
RTVSPropertyOp20
 70
     1
102
RTVSPropertyOp21
 70
     1
102
RTVSPropertyOp22
 70
     1
102
RTVSPropertyOp23
 70
     1
102
RTVSPropertyOp24
 70
     1
102
RTVSPropertyOp25
 70
     1
102
RTVSPropertyOp26
 70
     1
102
RTVSPropertyOp27
 70
     1
102
RTVSPropertyOp28
 70
     1
102
RTVSPropertyOp29
 70
     1
102
RTVSPropertyOp30
 70
     1
102
RTVSPropertyOp31
 70
     1
102
RTVSPropertyOp32
 70
     1
102
RTVSPropertyOp33
 70
     1
102
RTVSPropertyOp34
 70
     1
102
RTVSPropertyOp35
 70
     1
102
RTVSPropertyOp36
 70
     1
102
RTVSPropertyOp37
 70
     1
102
RTVSPropertyOp38
 70
     1
102
RTVSPropertyOp39
 70
     1
102
RTVSPropertyOp40
 70
     1
102
RTVSPropertyOp41
 70
     1
102
RTVSPropertyOp42
 70
     1
102
RTVSPropertyOp43
 70
     1
102
RTVSPropertyOp44
 70
     1
102
RTVSPropertyOp45
 70
     1
102
RTVSPropertyOp46
 70
     1
102
RTVSPropertyOp47
 70
     1
102
RTVSPropertyOp48
 70
     1
102
RTVSPropertyOp49
 70
     1
102
RTVSPropertyOp50
 70
     1
102
RTVSPropertyOp51
 70
     0
102
RTVSPropertyOp52
 70
     0
102
RTVSPropertyOp53
 70
     1
102
RTVSPropertyOp54
 70
     1
102
RTVSPropertyOp55
 70
     1
102
RTVSPropertyOp56
 70
     1
102
RTVSPropertyOp57
 70
     1
102
RTVSPost2010Prop28
280
     0
102
RTVSPost2010PropOp28
 70
     1
102
RTVSPost2010Prop29
280
     1
102
RTVSPost2010PropOp29
 70
     1
102
RTVSPost2010Prop30
280
     1
102
RTVSPost2010PropOp30
 70
     1
102
RTVSPost2010Prop31
280
     0
102
RTVSPost2010PropOp31
 70
     1
102
RTVSPost2010Prop32
280
     0
102
RTVSPost2010PropOp32
 70
     1
102
RTVSPost2010Prop33
280
     0
102
RTVSPost2010PropOp33
 70
     1
102
RTVSPost2010Prop34
280
     0
102
RTVSPost2010PropOp34
 70
     1
102
RTVSPost2010Prop35
280
     0
102
RTVSPost2010PropOp35
 70
     1
102
RTVSPost2010Prop36
280
     0
102
RTVSPost2010PropOp36
 70
     1
102
RTVSPost2010Prop37
 90
       50
102
RTVSPost2010PropOp37
 70
     1
102
RTVSPost2010Prop38
140
0.0
102
RTVSPost2010PropOp38
 70
     1
102
RTVSPost2010Prop39
140
1.0
102
RTVSPost2010PropOp39
 70
     1
102
RTVSPost2010Prop40
 90
        0
102
RTVSPost2010PropOp40
 70
     1
102
RTVSPost2010Prop41ColorIndex
 90
       18
102
RTVSPost2010Prop41ColorRGB
 90
        0
102
RTVSPost2010PropOp41
 70
     1
102
RTVSPost2010Prop42
 90
       50
102
RTVSPost2010PropOp42
 70
     1
102
RTVSPost2010Prop43
 90
        3
102
RTVSPost2010PropOp43
 70
     1
102
RTVSPost2010Prop44ColorIndex
 90
        5
102
RTVSPost2010Prop44ColorRGB
 90
      255
102
RTVSPost2010PropOp44
 70
     1
102
RTVSPost2010Prop45
280
     0
102
RTVSPost2010PropOp45
 70
     1
102
RTVSPost2010Prop46
 90
       50
102
RTVSPost2010PropOp46
 70
     1
102
RTVSPost2010Prop47
 90
       50
102
RTVSPost2010PropOp47
 70
     1
102
RTVSPost2010Prop48
 90
       50
102
RTVSPost2010PropOp48
 70
     1
102
RTVSPost2010Prop49
280
     0
102
RTVSPost2010PropOp49
 70
     1
102
RTVSPost2010Prop50
 90
       50
102
RTVSPost2010PropOp50
 70
     1
102
RTVSPost2010Prop51ColorIndex
 90
      256
102
RTVSPost2010Prop51ColorRGB
 90
-16777216
102
RTVSPost2010PropOp51
 70
     0
102
RTVSPost2010Prop52
140
1.0
102
RTVSPost2010PropOp52
 70
     0
102
RTVSPost2010Prop53
 90
        2
102
RTVSPost2010PropOp53
 70
     1
102
RTVSPost2010Prop54
  1
strokes_ogs.tif
102
RTVSPost2010PropOp54
 70
     1
102
RTVSPost2010Prop55
280
     0
102
RTVSPost2010PropOp55
 70
     1
102
RTVSPost2010Prop56
140
1.0
102
RTVSPost2010PropOp56
 70
     1
102
RTVSPost2010Prop57
140
1.0
102
RTVSPost2010PropOp57
 70
     1
  0
XRECORD
  5
70D
102
{ACAD_REACTORS
330
70C
102
}
330
70C
100
AcDbXrecord
280
     1
102
RTVSPropertyOp0
 70
     1
102
RTVSPropertyOp1
 70
     1
102
RTVSPropertyOp2
 70
     1
102
RTVSPropertyOp3
 70
     1
102
RTVSPropertyOp4
 70
     1
102
RTVSPropertyOp5
 70
     1
102
RTVSPropertyOp6
 70
     1
102
RTVSPropertyOp7
 70
     1
102
RTVSPropertyOp8
 70
     1
102
RTVSPropertyOp9
 70
     1
102
RTVSPropertyOp10
 70
     1
102
RTVSPropertyOp11
 70
     1
102
RTVSPropertyOp12
 70
     1
102
RTVSPropertyOp13
 70
     1
102
RTVSPropertyOp14
 70
     1
102
RTVSPropertyOp15
 70
     1
102
RTVSPropertyOp16
 70
     1
102
RTVSPropertyOp17
 70
     1
102
RTVSPropertyOp18
 70
     1
102
RTVSPropertyOp19
 70
     1
102
RTVSPropertyOp20
 70
     1
102
RTVSPropertyOp21
 70
     1
102
RTVSPropertyOp22
 70
     1
102
RTVSPropertyOp23
 70
     1
102
RTVSPropertyOp24
 70
     1
102
RTVSPropertyOp25
 70
     1
102
RTVSPropertyOp26
 70
     1
102
RTVSPropertyOp27
 70
     1
102
RTVSPropertyOp28
 70
     1
102
RTVSPropertyOp29
 70
     1
102
RTVSPropertyOp30
 70
     1
102
RTVSPropertyOp31
 70
     1
102
RTVSPropertyOp32
 70
     1
102
RTVSPropertyOp33
 70
     1
102
RTVSPropertyOp34
 70
     1
102
RTVSPropertyOp35
 70
     1
102
RTVSPropertyOp36
 70
     1
102
RTVSPropertyOp37
 70
     1
102
RTVSPropertyOp38
 70
     1
102
RTVSPropertyOp39
 70
     1
102
RTVSPropertyOp40
 70
     1
102
RTVSPropertyOp41
 70
     1
102
RTVSPropertyOp42
 70
     1
102
RTVSPropertyOp43
 70
     1
102
RTVSPropertyOp44
 70
     1
102
RTVSPropertyOp45
 70
     1
102
RTVSPropertyOp46
 70
     1
102
RTVSPropertyOp47
 70
     1
102
RTVSPropertyOp48
 70
     1
102
RTVSPropertyOp49
 70
     1
102
RTVSPropertyOp50
 70
     1
102
RTVSPropertyOp51
 70
     0
102
RTVSPropertyOp52
 70
     0
102
RTVSPropertyOp53
 70
     1
102
RTVSPropertyOp54
 70
     1
102
RTVSPropertyOp55
 70
     1
102
RTVSPropertyOp56
 70
     1
102
RTVSPropertyOp57
 70
     1
102
RTVSPost2010Prop28
280
     0
102
RTVSPost2010PropOp28
 70
     1
102
RTVSPost2010Prop29
280
     1
102
RTVSPost2010PropOp29
 70
     1
102
RTVSPost2010Prop30
280
     1
102
RTVSPost2010PropOp30
 70
     1
102
RTVSPost2010Prop31
280
     0
102
RTVSPost2010PropOp31
 70
     1
102
RTVSPost2010Prop32
280
     0
102
RTVSPost2010PropOp32
 70
     1
102
RTVSPost2010Prop33
280
     0
102
RTVSPost2010PropOp33
 70
     1
102
RTVSPost2010Prop34
280
     0
102
RTVSPost2010PropOp34
 70
     1
102
RTVSPost2010Prop35
280
     0
102
RTVSPost2010PropOp35
 70
     1
102
RTVSPost2010Prop36
280
     0
102
RTVSPost2010PropOp36
 70
     1
102
RTVSPost2010Prop37
 90
       50
102
RTVSPost2010PropOp37
 70
     1
102
RTVSPost2010Prop38
140
0.0
102
RTVSPost2010PropOp38
 70
     1
102
RTVSPost2010Prop39
140
1.0
102
RTVSPost2010PropOp39
 70
     1
102
RTVSPost2010Prop40
 90
        0
102
RTVSPost2010PropOp40
 70
     1
102
RTVSPost2010Prop41ColorIndex
 90
       18
102
RTVSPost2010Prop41ColorRGB
 90
        0
102
RTVSPost2010PropOp41
 70
     1
102
RTVSPost2010Prop42
 90
       50
102
RTVSPost2010PropOp42
 70
     1
102
RTVSPost2010Prop43
 90
        3
102
RTVSPost2010PropOp43
 70
     1
102
RTVSPost2010Prop44ColorIndex
 90
        5
102
RTVSPost2010Prop44ColorRGB
 90
      255
102
RTVSPost2010PropOp44
 70
     1
102
RTVSPost2010Prop45
280
     0
102
RTVSPost2010PropOp45
 70
     1
102
RTVSPost2010Prop46
 90
       50
102
RTVSPost2010PropOp46
 70
     1
102
RTVSPost2010Prop47
 90
       50
102
RTVSPost2010PropOp47
 70
     1
102
RTVSPost2010Prop48
 90
       50
102
RTVSPost2010PropOp48
 70
     1
102
RTVSPost2010Prop49
280
     0
102
RTVSPost2010PropOp49
 70
     1
102
RTVSPost2010Prop50
 90
       50
102
RTVSPost2010PropOp50
 70
     1
102
RTVSPost2010Prop51ColorIndex
 90
      256
102
RTVSPost2010Prop51ColorRGB
 90
-16777216
102
RTVSPost2010PropOp51
 70
     0
102
RTVSPost2010Prop52
140
1.0
102
RTVSPost2010PropOp52
 70
     0
102
RTVSPost2010Prop53
 90
        2
102
RTVSPost2010PropOp53
 70
     1
102
RTVSPost2010Prop54
  1
strokes_ogs.tif
102
RTVSPost2010PropOp54
 70
     1
102
RTVSPost2010Prop55
280
     0
102
RTVSPost2010PropOp55
 70
     1
102
RTVSPost2010Prop56
140
1.0
102
RTVSPost2010PropOp56
 70
     1
102
RTVSPost2010Prop57
140
1.0
102
RTVSPost2010PropOp57
 70
     1
  0
XRECORD
  5
701
102
{ACAD_REACTORS
330
700
102
}
330
700
100
AcDbXrecord
280
     1
102
RTVSPropertyOp0
 70
     1
102
RTVSPropertyOp1
 70
     1
102
RTVSPropertyOp2
 70
     1
102
RTVSPropertyOp3
 70
     1
102
RTVSPropertyOp4
 70
     1
102
RTVSPropertyOp5
 70
     1
102
RTVSPropertyOp6
 70
     1
102
RTVSPropertyOp7
 70
     1
102
RTVSPropertyOp8
 70
     1
102
RTVSPropertyOp9
 70
     1
102
RTVSPropertyOp10
 70
     1
102
RTVSPropertyOp11
 70
     1
102
RTVSPropertyOp12
 70
     1
102
RTVSPropertyOp13
 70
     1
102
RTVSPropertyOp14
 70
     1
102
RTVSPropertyOp15
 70
     1
102
RTVSPropertyOp16
 70
     1
102
RTVSPropertyOp17
 70
     1
102
RTVSPropertyOp18
 70
     1
102
RTVSPropertyOp19
 70
     1
102
RTVSPropertyOp20
 70
     1
102
RTVSPropertyOp21
 70
     1
102
RTVSPropertyOp22
 70
     1
102
RTVSPropertyOp23
 70
     1
102
RTVSPropertyOp24
 70
     1
102
RTVSPropertyOp25
 70
     1
102
RTVSPropertyOp26
 70
     1
102
RTVSPropertyOp27
 70
     1
102
RTVSPropertyOp28
 70
     1
102
RTVSPropertyOp29
 70
     1
102
RTVSPropertyOp30
 70
     1
102
RTVSPropertyOp31
 70
     1
102
RTVSPropertyOp32
 70
     1
102
RTVSPropertyOp33
 70
     1
102
RTVSPropertyOp34
 70
     1
102
RTVSPropertyOp35
 70
     1
102
RTVSPropertyOp36
 70
     1
102
RTVSPropertyOp37
 70
     1
102
RTVSPropertyOp38
 70
     1
102
RTVSPropertyOp39
 70
     1
102
RTVSPropertyOp40
 70
     1
102
RTVSPropertyOp41
 70
     1
102
RTVSPropertyOp42
 70
     1
102
RTVSPropertyOp43
 70
     1
102
RTVSPropertyOp44
 70
     1
102
RTVSPropertyOp45
 70
     1
102
RTVSPropertyOp46
 70
     1
102
RTVSPropertyOp47
 70
     1
102
RTVSPropertyOp48
 70
     1
102
RTVSPropertyOp49
 70
     1
102
RTVSPropertyOp50
 70
     1
102
RTVSPropertyOp51
 70
     0
102
RTVSPropertyOp52
 70
     0
102
RTVSPropertyOp53
 70
     1
102
RTVSPropertyOp54
 70
     1
102
RTVSPropertyOp55
 70
     1
102
RTVSPropertyOp56
 70
     1
102
RTVSPropertyOp57
 70
     1
102
RTVSPost2010Prop28
280
     0
102
RTVSPost2010PropOp28
 70
     1
102
RTVSPost2010Prop29
280
     1
102
RTVSPost2010PropOp29
 70
     1
102
RTVSPost2010Prop30
280
     1
102
RTVSPost2010PropOp30
 70
     1
102
RTVSPost2010Prop31
280
     0
102
RTVSPost2010PropOp31
 70
     1
102
RTVSPost2010Prop32
280
     0
102
RTVSPost2010PropOp32
 70
     1
102
RTVSPost2010Prop33
280
     0
102
RTVSPost2010PropOp33
 70
     1
102
RTVSPost2010Prop34
280
     0
102
RTVSPost2010PropOp34
 70
     1
102
RTVSPost2010Prop35
280
     0
102
RTVSPost2010PropOp35
 70
     1
102
RTVSPost2010Prop36
280
     0
102
RTVSPost2010PropOp36
 70
     1
102
RTVSPost2010Prop37
 90
       50
102
RTVSPost2010PropOp37
 70
     1
102
RTVSPost2010Prop38
140
0.0
102
RTVSPost2010PropOp38
 70
     1
102
RTVSPost2010Prop39
140
1.0
102
RTVSPost2010PropOp39
 70
     1
102
RTVSPost2010Prop40
 90
        0
102
RTVSPost2010PropOp40
 70
     1
102
RTVSPost2010Prop41ColorIndex
 90
       18
102
RTVSPost2010Prop41ColorRGB
 90
        0
102
RTVSPost2010PropOp41
 70
     1
102
RTVSPost2010Prop42
 90
       50
102
RTVSPost2010PropOp42
 70
     1
102
RTVSPost2010Prop43
 90
        3
102
RTVSPost2010PropOp43
 70
     1
102
RTVSPost2010Prop44ColorIndex
 90
        5
102
RTVSPost2010Prop44ColorRGB
 90
      255
102
RTVSPost2010PropOp44
 70
     1
102
RTVSPost2010Prop45
280
     0
102
RTVSPost2010PropOp45
 70
     1
102
RTVSPost2010Prop46
 90
       50
102
RTVSPost2010PropOp46
 70
     1
102
RTVSPost2010Prop47
 90
       50
102
RTVSPost2010PropOp47
 70
     1
102
RTVSPost2010Prop48
 90
       50
102
RTVSPost2010PropOp48
 70
     1
102
RTVSPost2010Prop49
280
     0
102
RTVSPost2010PropOp49
 70
     1
102
RTVSPost2010Prop50
 90
       50
102
RTVSPost2010PropOp50
 70
     1
102
RTVSPost2010Prop51ColorIndex
 90
      256
102
RTVSPost2010Prop51ColorRGB
 90
-16777216
102
RTVSPost2010PropOp51
 70
     0
102
RTVSPost2010Prop52
140
1.0
102
RTVSPost2010PropOp52
 70
     0
102
RTVSPost2010Prop53
 90
        2
102
RTVSPost2010PropOp53
 70
     1
102
RTVSPost2010Prop54
  1
strokes_ogs.tif
102
RTVSPost2010PropOp54
 70
     1
102
RTVSPost2010Prop55
280
     0
102
RTVSPost2010PropOp55
 70
     1
102
RTVSPost2010Prop56
140
1.0
102
RTVSPost2010PropOp56
 70
     1
102
RTVSPost2010Prop57
140
1.0
102
RTVSPost2010PropOp57
 70
     1
  0
XRECORD
  5
703
102
{ACAD_REACTORS
330
702
102
}
330
702
100
AcDbXrecord
280
     1
102
RTVSPropertyOp0
 70
     1
102
RTVSPropertyOp1
 70
     1
102
RTVSPropertyOp2
 70
     1
102
RTVSPropertyOp3
 70
     1
102
RTVSPropertyOp4
 70
     1
102
RTVSPropertyOp5
 70
     1
102
RTVSPropertyOp6
 70
     1
102
RTVSPropertyOp7
 70
     1
102
RTVSPropertyOp8
 70
     1
102
RTVSPropertyOp9
 70
     1
102
RTVSPropertyOp10
 70
     1
102
RTVSPropertyOp11
 70
     1
102
RTVSPropertyOp12
 70
     1
102
RTVSPropertyOp13
 70
     1
102
RTVSPropertyOp14
 70
     1
102
RTVSPropertyOp15
 70
     1
102
RTVSPropertyOp16
 70
     1
102
RTVSPropertyOp17
 70
     1
102
RTVSPropertyOp18
 70
     1
102
RTVSPropertyOp19
 70
     1
102
RTVSPropertyOp20
 70
     1
102
RTVSPropertyOp21
 70
     1
102
RTVSPropertyOp22
 70
     1
102
RTVSPropertyOp23
 70
     1
102
RTVSPropertyOp24
 70
     1
102
RTVSPropertyOp25
 70
     1
102
RTVSPropertyOp26
 70
     1
102
RTVSPropertyOp27
 70
     1
102
RTVSPropertyOp28
 70
     1
102
RTVSPropertyOp29
 70
     1
102
RTVSPropertyOp30
 70
     1
102
RTVSPropertyOp31
 70
     1
102
RTVSPropertyOp32
 70
     1
102
RTVSPropertyOp33
 70
     1
102
RTVSPropertyOp34
 70
     1
102
RTVSPropertyOp35
 70
     1
102
RTVSPropertyOp36
 70
     1
102
RTVSPropertyOp37
 70
     1
102
RTVSPropertyOp38
 70
     1
102
RTVSPropertyOp39
 70
     1
102
RTVSPropertyOp40
 70
     1
102
RTVSPropertyOp41
 70
     1
102
RTVSPropertyOp42
 70
     1
102
RTVSPropertyOp43
 70
     1
102
RTVSPropertyOp44
 70
     1
102
RTVSPropertyOp45
 70
     1
102
RTVSPropertyOp46
 70
     1
102
RTVSPropertyOp47
 70
     1
102
RTVSPropertyOp48
 70
     1
102
RTVSPropertyOp49
 70
     1
102
RTVSPropertyOp50
 70
     1
102
RTVSPropertyOp51
 70
     0
102
RTVSPropertyOp52
 70
     0
102
RTVSPropertyOp53
 70
     1
102
RTVSPropertyOp54
 70
     1
102
RTVSPropertyOp55
 70
     1
102
RTVSPropertyOp56
 70
     1
102
RTVSPropertyOp57
 70
     1
102
RTVSPost2010Prop28
280
     0
102
RTVSPost2010PropOp28
 70
     1
102
RTVSPost2010Prop29
280
     1
102
RTVSPost2010PropOp29
 70
     1
102
RTVSPost2010Prop30
280
     1
102
RTVSPost2010PropOp30
 70
     1
102
RTVSPost2010Prop31
280
     0
102
RTVSPost2010PropOp31
 70
     1
102
RTVSPost2010Prop32
280
     0
102
RTVSPost2010PropOp32
 70
     1
102
RTVSPost2010Prop33
280
     0
102
RTVSPost2010PropOp33
 70
     1
102
RTVSPost2010Prop34
280
     0
102
RTVSPost2010PropOp34
 70
     1
102
RTVSPost2010Prop35
280
     0
102
RTVSPost2010PropOp35
 70
     1
102
RTVSPost2010Prop36
280
     0
102
RTVSPost2010PropOp36
 70
     1
102
RTVSPost2010Prop37
 90
       50
102
RTVSPost2010PropOp37
 70
     1
102
RTVSPost2010Prop38
140
0.0
102
RTVSPost2010PropOp38
 70
     1
102
RTVSPost2010Prop39
140
1.0
102
RTVSPost2010PropOp39
 70
     1
102
RTVSPost2010Prop40
 90
        0
102
RTVSPost2010PropOp40
 70
     1
102
RTVSPost2010Prop41ColorIndex
 90
       18
102
RTVSPost2010Prop41ColorRGB
 90
        0
102
RTVSPost2010PropOp41
 70
     1
102
RTVSPost2010Prop42
 90
       50
102
RTVSPost2010PropOp42
 70
     1
102
RTVSPost2010Prop43
 90
        3
102
RTVSPost2010PropOp43
 70
     1
102
RTVSPost2010Prop44ColorIndex
 90
        5
102
RTVSPost2010Prop44ColorRGB
 90
      255
102
RTVSPost2010PropOp44
 70
     1
102
RTVSPost2010Prop45
280
     0
102
RTVSPost2010PropOp45
 70
     1
102
RTVSPost2010Prop46
 90
       50
102
RTVSPost2010PropOp46
 70
     1
102
RTVSPost2010Prop47
 90
       50
102
RTVSPost2010PropOp47
 70
     1
102
RTVSPost2010Prop48
 90
       50
102
RTVSPost2010PropOp48
 70
     1
102
RTVSPost2010Prop49
280
     0
102
RTVSPost2010PropOp49
 70
     1
102
RTVSPost2010Prop50
 90
       50
102
RTVSPost2010PropOp50
 70
     1
102
RTVSPost2010Prop51ColorIndex
 90
      256
102
RTVSPost2010Prop51ColorRGB
 90
-16777216
102
RTVSPost2010PropOp51
 70
     0
102
RTVSPost2010Prop52
140
1.0
102
RTVSPost2010PropOp52
 70
     0
102
RTVSPost2010Prop53
 90
        2
102
RTVSPost2010PropOp53
 70
     1
102
RTVSPost2010Prop54
  1
strokes_ogs.tif
102
RTVSPost2010PropOp54
 70
     1
102
RTVSPost2010Prop55
280
     0
102
RTVSPost2010PropOp55
 70
     1
102
RTVSPost2010Prop56
140
1.0
102
RTVSPost2010PropOp56
 70
     1
102
RTVSPost2010Prop57
140
1.0
102
RTVSPost2010PropOp57
 70
     1
  0
XRECORD
  5
713
102
{ACAD_REACTORS
330
712
102
}
330
712
100
AcDbXrecord
280
     1
102
RTVSPropertyOp0
 70
     0
102
RTVSPropertyOp1
 70
     0
102
RTVSPropertyOp2
 70
     0
102
RTVSPropertyOp3
 70
     0
102
RTVSPropertyOp4
 70
     0
102
RTVSPropertyOp5
 70
     0
102
RTVSPropertyOp6
 70
     0
102
RTVSPropertyOp7
 70
     0
102
RTVSPropertyOp8
 70
     0
102
RTVSPropertyOp9
 70
     0
102
RTVSPropertyOp10
 70
     0
102
RTVSPropertyOp11
 70
     0
102
RTVSPropertyOp12
 70
     0
102
RTVSPropertyOp13
 70
     0
102
RTVSPropertyOp14
 70
     0
102
RTVSPropertyOp15
 70
     0
102
RTVSPropertyOp16
 70
     0
102
RTVSPropertyOp17
 70
     0
102
RTVSPropertyOp18
 70
     0
102
RTVSPropertyOp19
 70
     0
102
RTVSPropertyOp20
 70
     0
102
RTVSPropertyOp21
 70
     0
102
RTVSPropertyOp22
 70
     0
102
RTVSPropertyOp23
 70
     0
102
RTVSPropertyOp24
 70
     0
102
RTVSPropertyOp25
 70
     0
102
RTVSPropertyOp26
 70
     0
102
RTVSPropertyOp27
 70
     0
102
RTVSPropertyOp28
 70
     1
102
RTVSPropertyOp29
 70
     1
102
RTVSPropertyOp30
 70
     1
102
RTVSPropertyOp31
 70
     1
102
RTVSPropertyOp32
 70
     1
102
RTVSPropertyOp33
 70
     1
102
RTVSPropertyOp34
 70
     1
102
RTVSPropertyOp35
 70
     1
102
RTVSPropertyOp36
 70
     1
102
RTVSPropertyOp37
 70
     1
102
RTVSPropertyOp38
 70
     1
102
RTVSPropertyOp39
 70
     1
102
RTVSPropertyOp40
 70
     1
102
RTVSPropertyOp41
 70
     1
102
RTVSPropertyOp42
 70
     1
102
RTVSPropertyOp43
 70
     1
102
RTVSPropertyOp44
 70
     1
102
RTVSPropertyOp45
 70
     1
102
RTVSPropertyOp46
 70
     1
102
RTVSPropertyOp47
 70
     1
102
RTVSPropertyOp48
 70
     1
102
RTVSPropertyOp49
 70
     1
102
RTVSPropertyOp50
 70
     1
102
RTVSPropertyOp51
 70
     0
102
RTVSPropertyOp52
 70
     0
102
RTVSPropertyOp53
 70
     1
102
RTVSPropertyOp54
 70
     1
102
RTVSPropertyOp55
 70
     1
102
RTVSPropertyOp56
 70
     1
102
RTVSPropertyOp57
 70
     1
102
RTVSPost2010Prop28
280
     0
102
RTVSPost2010PropOp28
 70
     1
102
RTVSPost2010Prop29
280
     1
102
RTVSPost2010PropOp29
 70
     1
102
RTVSPost2010Prop30
280
     1
102
RTVSPost2010PropOp30
 70
     1
102
RTVSPost2010Prop31
280
     0
102
RTVSPost2010PropOp31
 70
     1
102
RTVSPost2010Prop32
280
     0
102
RTVSPost2010PropOp32
 70
     1
102
RTVSPost2010Prop33
280
     0
102
RTVSPost2010PropOp33
 70
     1
102
RTVSPost2010Prop34
280
     0
102
RTVSPost2010PropOp34
 70
     1
102
RTVSPost2010Prop35
280
     0
102
RTVSPost2010PropOp35
 70
     1
102
RTVSPost2010Prop36
280
     0
102
RTVSPost2010PropOp36
 70
     1
102
RTVSPost2010Prop37
 90
       50
102
RTVSPost2010PropOp37
 70
     1
102
RTVSPost2010Prop38
140
0.0
102
RTVSPost2010PropOp38
 70
     1
102
RTVSPost2010Prop39
140
1.0
102
RTVSPost2010PropOp39
 70
     1
102
RTVSPost2010Prop40
 90
        0
102
RTVSPost2010PropOp40
 70
     1
102
RTVSPost2010Prop41ColorIndex
 90
       18
102
RTVSPost2010Prop41ColorRGB
 90
        0
102
RTVSPost2010PropOp41
 70
     1
102
RTVSPost2010Prop42
 90
       50
102
RTVSPost2010PropOp42
 70
     1
102
RTVSPost2010Prop43
 90
        3
102
RTVSPost2010PropOp43
 70
     1
102
RTVSPost2010Prop44ColorIndex
 90
        5
102
RTVSPost2010Prop44ColorRGB
 90
      255
102
RTVSPost2010PropOp44
 70
     1
102
RTVSPost2010Prop45
280
     0
102
RTVSPost2010PropOp45
 70
     1
102
RTVSPost2010Prop46
 90
       50
102
RTVSPost2010PropOp46
 70
     1
102
RTVSPost2010Prop47
 90
       50
102
RTVSPost2010PropOp47
 70
     1
102
RTVSPost2010Prop48
 90
       50
102
RTVSPost2010PropOp48
 70
     1
102
RTVSPost2010Prop49
280
     0
102
RTVSPost2010PropOp49
 70
     1
102
RTVSPost2010Prop50
 90
       50
102
RTVSPost2010PropOp50
 70
     1
102
RTVSPost2010Prop51ColorIndex
 90
      256
102
RTVSPost2010Prop51ColorRGB
 90
-16777216
102
RTVSPost2010PropOp51
 70
     0
102
RTVSPost2010Prop52
140
1.0
102
RTVSPost2010PropOp52
 70
     0
102
RTVSPost2010Prop53
 90
        2
102
RTVSPost2010PropOp53
 70
     1
102
RTVSPost2010Prop54
  1
strokes_ogs.tif
102
RTVSPost2010PropOp54
 70
     1
102
RTVSPost2010Prop55
280
     0
102
RTVSPost2010PropOp55
 70
     1
102
RTVSPost2010Prop56
140
1.0
102
RTVSPost2010PropOp56
 70
     1
102
RTVSPost2010Prop57
140
1.0
102
RTVSPost2010PropOp57
 70
     1
  0
XRECORD
  5
70B
102
{ACAD_REACTORS
330
70A
102
}
330
70A
100
AcDbXrecord
280
     1
102
RTVSPropertyOp0
 70
     1
102
RTVSPropertyOp1
 70
     1
102
RTVSPropertyOp2
 70
     1
102
RTVSPropertyOp3
 70
     1
102
RTVSPropertyOp4
 70
     1
102
RTVSPropertyOp5
 70
     1
102
RTVSPropertyOp6
 70
     1
102
RTVSPropertyOp7
 70
     1
102
RTVSPropertyOp8
 70
     1
102
RTVSPropertyOp9
 70
     1
102
RTVSPropertyOp10
 70
     1
102
RTVSPropertyOp11
 70
     1
102
RTVSPropertyOp12
 70
     1
102
RTVSPropertyOp13
 70
     1
102
RTVSPropertyOp14
 70
     1
102
RTVSPropertyOp15
 70
     1
102
RTVSPropertyOp16
 70
     1
102
RTVSPropertyOp17
 70
     1
102
RTVSPropertyOp18
 70
     1
102
RTVSPropertyOp19
 70
     1
102
RTVSPropertyOp20
 70
     1
102
RTVSPropertyOp21
 70
     1
102
RTVSPropertyOp22
 70
     1
102
RTVSPropertyOp23
 70
     1
102
RTVSPropertyOp24
 70
     1
102
RTVSPropertyOp25
 70
     1
102
RTVSPropertyOp26
 70
     1
102
RTVSPropertyOp27
 70
     1
102
RTVSPropertyOp28
 70
     1
102
RTVSPropertyOp29
 70
     1
102
RTVSPropertyOp30
 70
     1
102
RTVSPropertyOp31
 70
     1
102
RTVSPropertyOp32
 70
     1
102
RTVSPropertyOp33
 70
     1
102
RTVSPropertyOp34
 70
     1
102
RTVSPropertyOp35
 70
     1
102
RTVSPropertyOp36
 70
     1
102
RTVSPropertyOp37
 70
     1
102
RTVSPropertyOp38
 70
     1
102
RTVSPropertyOp39
 70
     1
102
RTVSPropertyOp40
 70
     1
102
RTVSPropertyOp41
 70
     1
102
RTVSPropertyOp42
 70
     1
102
RTVSPropertyOp43
 70
     1
102
RTVSPropertyOp44
 70
     1
102
RTVSPropertyOp45
 70
     1
102
RTVSPropertyOp46
 70
     1
102
RTVSPropertyOp47
 70
     1
102
RTVSPropertyOp48
 70
     1
102
RTVSPropertyOp49
 70
     1
102
RTVSPropertyOp50
 70
     1
102
RTVSPropertyOp51
 70
     0
102
RTVSPropertyOp52
 70
     0
102
RTVSPropertyOp53
 70
     1
102
RTVSPropertyOp54
 70
     1
102
RTVSPropertyOp55
 70
     1
102
RTVSPropertyOp56
 70
     1
102
RTVSPropertyOp57
 70
     1
102
RTVSPost2010Prop28
280
     0
102
RTVSPost2010PropOp28
 70
     1
102
RTVSPost2010Prop29
280
     1
102
RTVSPost2010PropOp29
 70
     1
102
RTVSPost2010Prop30
280
     1
102
RTVSPost2010PropOp30
 70
     1
102
RTVSPost2010Prop31
280
     0
102
RTVSPost2010PropOp31
 70
     1
102
RTVSPost2010Prop32
280
     0
102
RTVSPost2010PropOp32
 70
     1
102
RTVSPost2010Prop33
280
     0
102
RTVSPost2010PropOp33
 70
     1
102
RTVSPost2010Prop34
280
     0
102
RTVSPost2010PropOp34
 70
     1
102
RTVSPost2010Prop35
280
     0
102
RTVSPost2010PropOp35
 70
     1
102
RTVSPost2010Prop36
280
     0
102
RTVSPost2010PropOp36
 70
     1
102
RTVSPost2010Prop37
 90
       50
102
RTVSPost2010PropOp37
 70
     1
102
RTVSPost2010Prop38
140
0.0
102
RTVSPost2010PropOp38
 70
     1
102
RTVSPost2010Prop39
140
1.0
102
RTVSPost2010PropOp39
 70
     1
102
RTVSPost2010Prop40
 90
        0
102
RTVSPost2010PropOp40
 70
     1
102
RTVSPost2010Prop41ColorIndex
 90
       18
102
RTVSPost2010Prop41ColorRGB
 90
        0
102
RTVSPost2010PropOp41
 70
     1
102
RTVSPost2010Prop42
 90
       50
102
RTVSPost2010PropOp42
 70
     1
102
RTVSPost2010Prop43
 90
        3
102
RTVSPost2010PropOp43
 70
     1
102
RTVSPost2010Prop44ColorIndex
 90
        5
102
RTVSPost2010Prop44ColorRGB
 90
      255
102
RTVSPost2010PropOp44
 70
     1
102
RTVSPost2010Prop45
280
     0
102
RTVSPost2010PropOp45
 70
     1
102
RTVSPost2010Prop46
 90
       50
102
RTVSPost2010PropOp46
 70
     1
102
RTVSPost2010Prop47
 90
       50
102
RTVSPost2010PropOp47
 70
     1
102
RTVSPost2010Prop48
 90
       50
102
RTVSPost2010PropOp48
 70
     1
102
RTVSPost2010Prop49
280
     0
102
RTVSPost2010PropOp49
 70
     1
102
RTVSPost2010Prop50
 90
       50
102
RTVSPost2010PropOp50
 70
     1
102
RTVSPost2010Prop51ColorIndex
 90
      256
102
RTVSPost2010Prop51ColorRGB
 90
-16777216
102
RTVSPost2010PropOp51
 70
     0
102
RTVSPost2010Prop52
140
1.0
102
RTVSPost2010PropOp52
 70
     0
102
RTVSPost2010Prop53
 90
        2
102
RTVSPost2010PropOp53
 70
     1
102
RTVSPost2010Prop54
  1
strokes_ogs.tif
102
RTVSPost2010PropOp54
 70
     1
102
RTVSPost2010Prop55
280
     0
102
RTVSPost2010PropOp55
 70
     1
102
RTVSPost2010Prop56
140
1.0
102
RTVSPost2010PropOp56
 70
     1
102
RTVSPost2010Prop57
140
1.0
102
RTVSPost2010PropOp57
 70
     1
  0
XRECORD
  5
6F5
102
{ACAD_REACTORS
330
6F4
102
}
330
6F4
100
AcDbXrecord
280
     1
102
RTVSPropertyOp0
 70
     1
102
RTVSPropertyOp1
 70
     1
102
RTVSPropertyOp2
 70
     1
102
RTVSPropertyOp3
 70
     1
102
RTVSPropertyOp4
 70
     1
102
RTVSPropertyOp5
 70
     1
102
RTVSPropertyOp6
 70
     1
102
RTVSPropertyOp7
 70
     1
102
RTVSPropertyOp8
 70
     1
102
RTVSPropertyOp9
 70
     1
102
RTVSPropertyOp10
 70
     1
102
RTVSPropertyOp11
 70
     1
102
RTVSPropertyOp12
 70
     1
102
RTVSPropertyOp13
 70
     1
102
RTVSPropertyOp14
 70
     1
102
RTVSPropertyOp15
 70
     1
102
RTVSPropertyOp16
 70
     1
102
RTVSPropertyOp17
 70
     1
102
RTVSPropertyOp18
 70
     1
102
RTVSPropertyOp19
 70
     1
102
RTVSPropertyOp20
 70
     1
102
RTVSPropertyOp21
 70
     1
102
RTVSPropertyOp22
 70
     1
102
RTVSPropertyOp23
 70
     1
102
RTVSPropertyOp24
 70
     1
102
RTVSPropertyOp25
 70
     1
102
RTVSPropertyOp26
 70
     1
102
RTVSPropertyOp27
 70
     1
102
RTVSPropertyOp28
 70
     1
102
RTVSPropertyOp29
 70
     1
102
RTVSPropertyOp30
 70
     1
102
RTVSPropertyOp31
 70
     1
102
RTVSPropertyOp32
 70
     1
102
RTVSPropertyOp33
 70
     1
102
RTVSPropertyOp34
 70
     1
102
RTVSPropertyOp35
 70
     1
102
RTVSPropertyOp36
 70
     1
102
RTVSPropertyOp37
 70
     1
102
RTVSPropertyOp38
 70
     1
102
RTVSPropertyOp39
 70
     1
102
RTVSPropertyOp40
 70
     1
102
RTVSPropertyOp41
 70
     1
102
RTVSPropertyOp42
 70
     1
102
RTVSPropertyOp43
 70
     1
102
RTVSPropertyOp44
 70
     1
102
RTVSPropertyOp45
 70
     1
102
RTVSPropertyOp46
 70
     1
102
RTVSPropertyOp47
 70
     1
102
RTVSPropertyOp48
 70
     1
102
RTVSPropertyOp49
 70
     1
102
RTVSPropertyOp50
 70
     1
102
RTVSPropertyOp51
 70
     0
102
RTVSPropertyOp52
 70
     0
102
RTVSPropertyOp53
 70
     1
102
RTVSPropertyOp54
 70
     1
102
RTVSPropertyOp55
 70
     1
102
RTVSPropertyOp56
 70
     1
102
RTVSPropertyOp57
 70
     1
102
RTVSPost2010Prop28
280
     0
102
RTVSPost2010PropOp28
 70
     1
102
RTVSPost2010Prop29
280
     1
102
RTVSPost2010PropOp29
 70
     1
102
RTVSPost2010Prop30
280
     1
102
RTVSPost2010PropOp30
 70
     1
102
RTVSPost2010Prop31
280
     0
102
RTVSPost2010PropOp31
 70
     1
102
RTVSPost2010Prop32
280
     0
102
RTVSPost2010PropOp32
 70
     1
102
RTVSPost2010Prop33
280
     0
102
RTVSPost2010PropOp33
 70
     1
102
RTVSPost2010Prop34
280
     0
102
RTVSPost2010PropOp34
 70
     1
102
RTVSPost2010Prop35
280
     0
102
RTVSPost2010PropOp35
 70
     1
102
RTVSPost2010Prop36
280
     0
102
RTVSPost2010PropOp36
 70
     1
102
RTVSPost2010Prop37
 90
       50
102
RTVSPost2010PropOp37
 70
     1
102
RTVSPost2010Prop38
140
0.0
102
RTVSPost2010PropOp38
 70
     1
102
RTVSPost2010Prop39
140
1.0
102
RTVSPost2010PropOp39
 70
     1
102
RTVSPost2010Prop40
 90
        0
102
RTVSPost2010PropOp40
 70
     1
102
RTVSPost2010Prop41ColorIndex
 90
       18
102
RTVSPost2010Prop41ColorRGB
 90
        0
102
RTVSPost2010PropOp41
 70
     1
102
RTVSPost2010Prop42
 90
       50
102
RTVSPost2010PropOp42
 70
     1
102
RTVSPost2010Prop43
 90
        3
102
RTVSPost2010PropOp43
 70
     1
102
RTVSPost2010Prop44ColorIndex
 90
        5
102
RTVSPost2010Prop44ColorRGB
 90
      255
102
RTVSPost2010PropOp44
 70
     1
102
RTVSPost2010Prop45
280
     0
102
RTVSPost2010PropOp45
 70
     1
102
RTVSPost2010Prop46
 90
       50
102
RTVSPost2010PropOp46
 70
     1
102
RTVSPost2010Prop47
 90
       50
102
RTVSPost2010PropOp47
 70
     1
102
RTVSPost2010Prop48
 90
       50
102
RTVSPost2010PropOp48
 70
     1
102
RTVSPost2010Prop49
280
     0
102
RTVSPost2010PropOp49
 70
     1
102
RTVSPost2010Prop50
 90
       50
102
RTVSPost2010PropOp50
 70
     1
102
RTVSPost2010Prop51ColorIndex
 90
      256
102
RTVSPost2010Prop51ColorRGB
 90
-16777216
102
RTVSPost2010PropOp51
 70
     0
102
RTVSPost2010Prop52
140
1.0
102
RTVSPost2010PropOp52
 70
     0
102
RTVSPost2010Prop53
 90
        2
102
RTVSPost2010PropOp53
 70
     1
102
RTVSPost2010Prop54
  1
strokes_ogs.tif
102
RTVSPost2010PropOp54
 70
     1
102
RTVSPost2010Prop55
280
     0
102
RTVSPost2010PropOp55
 70
     1
102
RTVSPost2010Prop56
140
1.0
102
RTVSPost2010PropOp56
 70
     1
102
RTVSPost2010Prop57
140
1.0
102
RTVSPost2010PropOp57
 70
     1
  0
XRECORD
  5
6F7
102
{ACAD_REACTORS
330
6F6
102
}
330
6F6
100
AcDbXrecord
280
     1
102
RTVSPropertyOp0
 70
     1
102
RTVSPropertyOp1
 70
     1
102
RTVSPropertyOp2
 70
     1
102
RTVSPropertyOp3
 70
     1
102
RTVSPropertyOp4
 70
     1
102
RTVSPropertyOp5
 70
     1
102
RTVSPropertyOp6
 70
     1
102
RTVSPropertyOp7
 70
     1
102
RTVSPropertyOp8
 70
     1
102
RTVSPropertyOp9
 70
     1
102
RTVSPropertyOp10
 70
     1
102
RTVSPropertyOp11
 70
     1
102
RTVSPropertyOp12
 70
     1
102
RTVSPropertyOp13
 70
     1
102
RTVSPropertyOp14
 70
     1
102
RTVSPropertyOp15
 70
     1
102
RTVSPropertyOp16
 70
     1
102
RTVSPropertyOp17
 70
     1
102
RTVSPropertyOp18
 70
     1
102
RTVSPropertyOp19
 70
     1
102
RTVSPropertyOp20
 70
     1
102
RTVSPropertyOp21
 70
     1
102
RTVSPropertyOp22
 70
     1
102
RTVSPropertyOp23
 70
     1
102
RTVSPropertyOp24
 70
     1
102
RTVSPropertyOp25
 70
     1
102
RTVSPropertyOp26
 70
     1
102
RTVSPropertyOp27
 70
     1
102
RTVSPropertyOp28
 70
     1
102
RTVSPropertyOp29
 70
     1
102
RTVSPropertyOp30
 70
     1
102
RTVSPropertyOp31
 70
     1
102
RTVSPropertyOp32
 70
     1
102
RTVSPropertyOp33
 70
     1
102
RTVSPropertyOp34
 70
     1
102
RTVSPropertyOp35
 70
     1
102
RTVSPropertyOp36
 70
     1
102
RTVSPropertyOp37
 70
     1
102
RTVSPropertyOp38
 70
     1
102
RTVSPropertyOp39
 70
     1
102
RTVSPropertyOp40
 70
     1
102
RTVSPropertyOp41
 70
     1
102
RTVSPropertyOp42
 70
     1
102
RTVSPropertyOp43
 70
     1
102
RTVSPropertyOp44
 70
     1
102
RTVSPropertyOp45
 70
     1
102
RTVSPropertyOp46
 70
     1
102
RTVSPropertyOp47
 70
     1
102
RTVSPropertyOp48
 70
     1
102
RTVSPropertyOp49
 70
     1
102
RTVSPropertyOp50
 70
     1
102
RTVSPropertyOp51
 70
     0
102
RTVSPropertyOp52
 70
     0
102
RTVSPropertyOp53
 70
     1
102
RTVSPropertyOp54
 70
     1
102
RTVSPropertyOp55
 70
     1
102
RTVSPropertyOp56
 70
     1
102
RTVSPropertyOp57
 70
     1
102
RTVSPost2010Prop28
280
     0
102
RTVSPost2010PropOp28
 70
     1
102
RTVSPost2010Prop29
280
     1
102
RTVSPost2010PropOp29
 70
     1
102
RTVSPost2010Prop30
280
     1
102
RTVSPost2010PropOp30
 70
     1
102
RTVSPost2010Prop31
280
     0
102
RTVSPost2010PropOp31
 70
     1
102
RTVSPost2010Prop32
280
     0
102
RTVSPost2010PropOp32
 70
     1
102
RTVSPost2010Prop33
280
     0
102
RTVSPost2010PropOp33
 70
     1
102
RTVSPost2010Prop34
280
     0
102
RTVSPost2010PropOp34
 70
     1
102
RTVSPost2010Prop35
280
     0
102
RTVSPost2010PropOp35
 70
     1
102
RTVSPost2010Prop36
280
     0
102
RTVSPost2010PropOp36
 70
     1
102
RTVSPost2010Prop37
 90
       50
102
RTVSPost2010PropOp37
 70
     1
102
RTVSPost2010Prop38
140
0.0
102
RTVSPost2010PropOp38
 70
     1
102
RTVSPost2010Prop39
140
1.0
102
RTVSPost2010PropOp39
 70
     1
102
RTVSPost2010Prop40
 90
        0
102
RTVSPost2010PropOp40
 70
     1
102
RTVSPost2010Prop41ColorIndex
 90
       18
102
RTVSPost2010Prop41ColorRGB
 90
        0
102
RTVSPost2010PropOp41
 70
     1
102
RTVSPost2010Prop42
 90
       50
102
RTVSPost2010PropOp42
 70
     1
102
RTVSPost2010Prop43
 90
        3
102
RTVSPost2010PropOp43
 70
     1
102
RTVSPost2010Prop44ColorIndex
 90
        5
102
RTVSPost2010Prop44ColorRGB
 90
      255
102
RTVSPost2010PropOp44
 70
     1
102
RTVSPost2010Prop45
280
     0
102
RTVSPost2010PropOp45
 70
     1
102
RTVSPost2010Prop46
 90
       50
102
RTVSPost2010PropOp46
 70
     1
102
RTVSPost2010Prop47
 90
       50
102
RTVSPost2010PropOp47
 70
     1
102
RTVSPost2010Prop48
 90
       50
102
RTVSPost2010PropOp48
 70
     1
102
RTVSPost2010Prop49
280
     0
102
RTVSPost2010PropOp49
 70
     1
102
RTVSPost2010Prop50
 90
       50
102
RTVSPost2010PropOp50
 70
     1
102
RTVSPost2010Prop51ColorIndex
 90
      256
102
RTVSPost2010Prop51ColorRGB
 90
-16777216
102
RTVSPost2010PropOp51
 70
     0
102
RTVSPost2010Prop52
140
1.0
102
RTVSPost2010PropOp52
 70
     0
102
RTVSPost2010Prop53
 90
        2
102
RTVSPost2010PropOp53
 70
     1
102
RTVSPost2010Prop54
  1
strokes_ogs.tif
102
RTVSPost2010PropOp54
 70
     1
102
RTVSPost2010Prop55
280
     0
102
RTVSPost2010PropOp55
 70
     1
102
RTVSPost2010Prop56
140
1.0
102
RTVSPost2010PropOp56
 70
     1
102
RTVSPost2010Prop57
140
1.0
102
RTVSPost2010PropOp57
 70
     1
  0
XRECORD
  5
6F9
102
{ACAD_REACTORS
330
6F8
102
}
330
6F8
100
AcDbXrecord
280
     1
102
RTVSPropertyOp0
 70
     1
102
RTVSPropertyOp1
 70
     1
102
RTVSPropertyOp2
 70
     1
102
RTVSPropertyOp3
 70
     1
102
RTVSPropertyOp4
 70
     1
102
RTVSPropertyOp5
 70
     1
102
RTVSPropertyOp6
 70
     1
102
RTVSPropertyOp7
 70
     1
102
RTVSPropertyOp8
 70
     1
102
RTVSPropertyOp9
 70
     1
102
RTVSPropertyOp10
 70
     1
102
RTVSPropertyOp11
 70
     1
102
RTVSPropertyOp12
 70
     1
102
RTVSPropertyOp13
 70
     1
102
RTVSPropertyOp14
 70
     1
102
RTVSPropertyOp15
 70
     1
102
RTVSPropertyOp16
 70
     1
102
RTVSPropertyOp17
 70
     1
102
RTVSPropertyOp18
 70
     1
102
RTVSPropertyOp19
 70
     1
102
RTVSPropertyOp20
 70
     1
102
RTVSPropertyOp21
 70
     1
102
RTVSPropertyOp22
 70
     1
102
RTVSPropertyOp23
 70
     1
102
RTVSPropertyOp24
 70
     1
102
RTVSPropertyOp25
 70
     1
102
RTVSPropertyOp26
 70
     1
102
RTVSPropertyOp27
 70
     1
102
RTVSPropertyOp28
 70
     1
102
RTVSPropertyOp29
 70
     1
102
RTVSPropertyOp30
 70
     1
102
RTVSPropertyOp31
 70
     1
102
RTVSPropertyOp32
 70
     1
102
RTVSPropertyOp33
 70
     1
102
RTVSPropertyOp34
 70
     1
102
RTVSPropertyOp35
 70
     1
102
RTVSPropertyOp36
 70
     1
102
RTVSPropertyOp37
 70
     1
102
RTVSPropertyOp38
 70
     1
102
RTVSPropertyOp39
 70
     1
102
RTVSPropertyOp40
 70
     1
102
RTVSPropertyOp41
 70
     1
102
RTVSPropertyOp42
 70
     1
102
RTVSPropertyOp43
 70
     1
102
RTVSPropertyOp44
 70
     1
102
RTVSPropertyOp45
 70
     1
102
RTVSPropertyOp46
 70
     1
102
RTVSPropertyOp47
 70
     1
102
RTVSPropertyOp48
 70
     1
102
RTVSPropertyOp49
 70
     1
102
RTVSPropertyOp50
 70
     1
102
RTVSPropertyOp51
 70
     0
102
RTVSPropertyOp52
 70
     0
102
RTVSPropertyOp53
 70
     1
102
RTVSPropertyOp54
 70
     1
102
RTVSPropertyOp55
 70
     1
102
RTVSPropertyOp56
 70
     1
102
RTVSPropertyOp57
 70
     1
102
RTVSPost2010Prop28
280
     0
102
RTVSPost2010PropOp28
 70
     1
102
RTVSPost2010Prop29
280
     1
102
RTVSPost2010PropOp29
 70
     1
102
RTVSPost2010Prop30
280
     1
102
RTVSPost2010PropOp30
 70
     1
102
RTVSPost2010Prop31
280
     0
102
RTVSPost2010PropOp31
 70
     1
102
RTVSPost2010Prop32
280
     0
102
RTVSPost2010PropOp32
 70
     1
102
RTVSPost2010Prop33
280
     0
102
RTVSPost2010PropOp33
 70
     1
102
RTVSPost2010Prop34
280
     0
102
RTVSPost2010PropOp34
 70
     1
102
RTVSPost2010Prop35
280
     0
102
RTVSPost2010PropOp35
 70
     1
102
RTVSPost2010Prop36
280
     0
102
RTVSPost2010PropOp36
 70
     1
102
RTVSPost2010Prop37
 90
       50
102
RTVSPost2010PropOp37
 70
     1
102
RTVSPost2010Prop38
140
0.0
102
RTVSPost2010PropOp38
 70
     1
102
RTVSPost2010Prop39
140
1.0
102
RTVSPost2010PropOp39
 70
     1
102
RTVSPost2010Prop40
 90
        0
102
RTVSPost2010PropOp40
 70
     1
102
RTVSPost2010Prop41ColorIndex
 90
       18
102
RTVSPost2010Prop41ColorRGB
 90
        0
102
RTVSPost2010PropOp41
 70
     1
102
RTVSPost2010Prop42
 90
       50
102
RTVSPost2010PropOp42
 70
     1
102
RTVSPost2010Prop43
 90
        3
102
RTVSPost2010PropOp43
 70
     1
102
RTVSPost2010Prop44ColorIndex
 90
        5
102
RTVSPost2010Prop44ColorRGB
 90
      255
102
RTVSPost2010PropOp44
 70
     1
102
RTVSPost2010Prop45
280
     0
102
RTVSPost2010PropOp45
 70
     1
102
RTVSPost2010Prop46
 90
       50
102
RTVSPost2010PropOp46
 70
     1
102
RTVSPost2010Prop47
 90
       50
102
RTVSPost2010PropOp47
 70
     1
102
RTVSPost2010Prop48
 90
       50
102
RTVSPost2010PropOp48
 70
     1
102
RTVSPost2010Prop49
280
     0
102
RTVSPost2010PropOp49
 70
     1
102
RTVSPost2010Prop50
 90
       50
102
RTVSPost2010PropOp50
 70
     1
102
RTVSPost2010Prop51ColorIndex
 90
      256
102
RTVSPost2010Prop51ColorRGB
 90
-16777216
102
RTVSPost2010PropOp51
 70
     0
102
RTVSPost2010Prop52
140
1.0
102
RTVSPost2010PropOp52
 70
     0
102
RTVSPost2010Prop53
 90
        2
102
RTVSPost2010PropOp53
 70
     1
102
RTVSPost2010Prop54
  1
strokes_ogs.tif
102
RTVSPost2010PropOp54
 70
     1
102
RTVSPost2010Prop55
280
     0
102
RTVSPost2010PropOp55
 70
     1
102
RTVSPost2010Prop56
140
1.0
102
RTVSPost2010PropOp56
 70
     1
102
RTVSPost2010Prop57
140
1.0
102
RTVSPost2010PropOp57
 70
     1
  0
XRECORD
  5
6FB
102
{ACAD_REACTORS
330
6FA
102
}
330
6FA
100
AcDbXrecord
280
     1
102
RTVSPropertyOp0
 70
     1
102
RTVSPropertyOp1
 70
     1
102
RTVSPropertyOp2
 70
     1
102
RTVSPropertyOp3
 70
     1
102
RTVSPropertyOp4
 70
     1
102
RTVSPropertyOp5
 70
     1
102
RTVSPropertyOp6
 70
     1
102
RTVSPropertyOp7
 70
     1
102
RTVSPropertyOp8
 70
     1
102
RTVSPropertyOp9
 70
     1
102
RTVSPropertyOp10
 70
     1
102
RTVSPropertyOp11
 70
     1
102
RTVSPropertyOp12
 70
     1
102
RTVSPropertyOp13
 70
     1
102
RTVSPropertyOp14
 70
     1
102
RTVSPropertyOp15
 70
     1
102
RTVSPropertyOp16
 70
     1
102
RTVSPropertyOp17
 70
     1
102
RTVSPropertyOp18
 70
     1
102
RTVSPropertyOp19
 70
     1
102
RTVSPropertyOp20
 70
     1
102
RTVSPropertyOp21
 70
     1
102
RTVSPropertyOp22
 70
     1
102
RTVSPropertyOp23
 70
     1
102
RTVSPropertyOp24
 70
     1
102
RTVSPropertyOp25
 70
     1
102
RTVSPropertyOp26
 70
     1
102
RTVSPropertyOp27
 70
     1
102
RTVSPropertyOp28
 70
     1
102
RTVSPropertyOp29
 70
     1
102
RTVSPropertyOp30
 70
     1
102
RTVSPropertyOp31
 70
     1
102
RTVSPropertyOp32
 70
     1
102
RTVSPropertyOp33
 70
     1
102
RTVSPropertyOp34
 70
     1
102
RTVSPropertyOp35
 70
     1
102
RTVSPropertyOp36
 70
     1
102
RTVSPropertyOp37
 70
     1
102
RTVSPropertyOp38
 70
     1
102
RTVSPropertyOp39
 70
     1
102
RTVSPropertyOp40
 70
     1
102
RTVSPropertyOp41
 70
     1
102
RTVSPropertyOp42
 70
     1
102
RTVSPropertyOp43
 70
     1
102
RTVSPropertyOp44
 70
     1
102
RTVSPropertyOp45
 70
     1
102
RTVSPropertyOp46
 70
     1
102
RTVSPropertyOp47
 70
     1
102
RTVSPropertyOp48
 70
     1
102
RTVSPropertyOp49
 70
     1
102
RTVSPropertyOp50
 70
     1
102
RTVSPropertyOp51
 70
     0
102
RTVSPropertyOp52
 70
     0
102
RTVSPropertyOp53
 70
     1
102
RTVSPropertyOp54
 70
     1
102
RTVSPropertyOp55
 70
     1
102
RTVSPropertyOp56
 70
     1
102
RTVSPropertyOp57
 70
     1
102
RTVSPost2010Prop28
280
     0
102
RTVSPost2010PropOp28
 70
     1
102
RTVSPost2010Prop29
280
     1
102
RTVSPost2010PropOp29
 70
     1
102
RTVSPost2010Prop30
280
     1
102
RTVSPost2010PropOp30
 70
     1
102
RTVSPost2010Prop31
280
     0
102
RTVSPost2010PropOp31
 70
     1
102
RTVSPost2010Prop32
280
     0
102
RTVSPost2010PropOp32
 70
     1
102
RTVSPost2010Prop33
280
     0
102
RTVSPost2010PropOp33
 70
     1
102
RTVSPost2010Prop34
280
     0
102
RTVSPost2010PropOp34
 70
     1
102
RTVSPost2010Prop35
280
     0
102
RTVSPost2010PropOp35
 70
     1
102
RTVSPost2010Prop36
280
     0
102
RTVSPost2010PropOp36
 70
     1
102
RTVSPost2010Prop37
 90
       50
102
RTVSPost2010PropOp37
 70
     1
102
RTVSPost2010Prop38
140
0.0
102
RTVSPost2010PropOp38
 70
     1
102
RTVSPost2010Prop39
140
1.0
102
RTVSPost2010PropOp39
 70
     1
102
RTVSPost2010Prop40
 90
        0
102
RTVSPost2010PropOp40
 70
     1
102
RTVSPost2010Prop41ColorIndex
 90
       18
102
RTVSPost2010Prop41ColorRGB
 90
        0
102
RTVSPost2010PropOp41
 70
     1
102
RTVSPost2010Prop42
 90
       50
102
RTVSPost2010PropOp42
 70
     1
102
RTVSPost2010Prop43
 90
        3
102
RTVSPost2010PropOp43
 70
     1
102
RTVSPost2010Prop44ColorIndex
 90
        5
102
RTVSPost2010Prop44ColorRGB
 90
      255
102
RTVSPost2010PropOp44
 70
     1
102
RTVSPost2010Prop45
280
     0
102
RTVSPost2010PropOp45
 70
     1
102
RTVSPost2010Prop46
 90
       50
102
RTVSPost2010PropOp46
 70
     1
102
RTVSPost2010Prop47
 90
       50
102
RTVSPost2010PropOp47
 70
     1
102
RTVSPost2010Prop48
 90
       50
102
RTVSPost2010PropOp48
 70
     1
102
RTVSPost2010Prop49
280
     0
102
RTVSPost2010PropOp49
 70
     1
102
RTVSPost2010Prop50
 90
       50
102
RTVSPost2010PropOp50
 70
     1
102
RTVSPost2010Prop51ColorIndex
 90
      256
102
RTVSPost2010Prop51ColorRGB
 90
-16777216
102
RTVSPost2010PropOp51
 70
     0
102
RTVSPost2010Prop52
140
1.0
102
RTVSPost2010PropOp52
 70
     0
102
RTVSPost2010Prop53
 90
        2
102
RTVSPost2010PropOp53
 70
     1
102
RTVSPost2010Prop54
  1
strokes_ogs.tif
102
RTVSPost2010PropOp54
 70
     1
102
RTVSPost2010Prop55
280
     0
102
RTVSPost2010PropOp55
 70
     1
102
RTVSPost2010Prop56
140
1.0
102
RTVSPost2010PropOp56
 70
     1
102
RTVSPost2010Prop57
140
1.0
102
RTVSPost2010PropOp57
 70
     1
  0
XRECORD
  5
6FD
102
{ACAD_REACTORS
330
6FC
102
}
330
6FC
100
AcDbXrecord
280
     1
102
RTVSPropertyOp0
 70
     1
102
RTVSPropertyOp1
 70
     1
102
RTVSPropertyOp2
 70
     1
102
RTVSPropertyOp3
 70
     1
102
RTVSPropertyOp4
 70
     1
102
RTVSPropertyOp5
 70
     1
102
RTVSPropertyOp6
 70
     1
102
RTVSPropertyOp7
 70
     1
102
RTVSPropertyOp8
 70
     1
102
RTVSPropertyOp9
 70
     1
102
RTVSPropertyOp10
 70
     1
102
RTVSPropertyOp11
 70
     1
102
RTVSPropertyOp12
 70
     1
102
RTVSPropertyOp13
 70
     1
102
RTVSPropertyOp14
 70
     1
102
RTVSPropertyOp15
 70
     1
102
RTVSPropertyOp16
 70
     1
102
RTVSPropertyOp17
 70
     1
102
RTVSPropertyOp18
 70
     1
102
RTVSPropertyOp19
 70
     1
102
RTVSPropertyOp20
 70
     1
102
RTVSPropertyOp21
 70
     1
102
RTVSPropertyOp22
 70
     1
102
RTVSPropertyOp23
 70
     1
102
RTVSPropertyOp24
 70
     1
102
RTVSPropertyOp25
 70
     1
102
RTVSPropertyOp26
 70
     1
102
RTVSPropertyOp27
 70
     1
102
RTVSPropertyOp28
 70
     1
102
RTVSPropertyOp29
 70
     1
102
RTVSPropertyOp30
 70
     1
102
RTVSPropertyOp31
 70
     1
102
RTVSPropertyOp32
 70
     1
102
RTVSPropertyOp33
 70
     1
102
RTVSPropertyOp34
 70
     1
102
RTVSPropertyOp35
 70
     1
102
RTVSPropertyOp36
 70
     1
102
RTVSPropertyOp37
 70
     1
102
RTVSPropertyOp38
 70
     1
102
RTVSPropertyOp39
 70
     1
102
RTVSPropertyOp40
 70
     1
102
RTVSPropertyOp41
 70
     1
102
RTVSPropertyOp42
 70
     1
102
RTVSPropertyOp43
 70
     1
102
RTVSPropertyOp44
 70
     1
102
RTVSPropertyOp45
 70
     1
102
RTVSPropertyOp46
 70
     1
102
RTVSPropertyOp47
 70
     1
102
RTVSPropertyOp48
 70
     1
102
RTVSPropertyOp49
 70
     1
102
RTVSPropertyOp50
 70
     1
102
RTVSPropertyOp51
 70
     0
102
RTVSPropertyOp52
 70
     0
102
RTVSPropertyOp53
 70
     1
102
RTVSPropertyOp54
 70
     1
102
RTVSPropertyOp55
 70
     1
102
RTVSPropertyOp56
 70
     1
102
RTVSPropertyOp57
 70
     1
102
RTVSPost2010Prop28
280
     0
102
RTVSPost2010PropOp28
 70
     1
102
RTVSPost2010Prop29
280
     1
102
RTVSPost2010PropOp29
 70
     1
102
RTVSPost2010Prop30
280
     1
102
RTVSPost2010PropOp30
 70
     1
102
RTVSPost2010Prop31
280
     0
102
RTVSPost2010PropOp31
 70
     1
102
RTVSPost2010Prop32
280
     0
102
RTVSPost2010PropOp32
 70
     1
102
RTVSPost2010Prop33
280
     0
102
RTVSPost2010PropOp33
 70
     1
102
RTVSPost2010Prop34
280
     0
102
RTVSPost2010PropOp34
 70
     1
102
RTVSPost2010Prop35
280
     0
102
RTVSPost2010PropOp35
 70
     1
102
RTVSPost2010Prop36
280
     0
102
RTVSPost2010PropOp36
 70
     1
102
RTVSPost2010Prop37
 90
       50
102
RTVSPost2010PropOp37
 70
     1
102
RTVSPost2010Prop38
140
0.0
102
RTVSPost2010PropOp38
 70
     1
102
RTVSPost2010Prop39
140
1.0
102
RTVSPost2010PropOp39
 70
     1
102
RTVSPost2010Prop40
 90
        0
102
RTVSPost2010PropOp40
 70
     1
102
RTVSPost2010Prop41ColorIndex
 90
       18
102
RTVSPost2010Prop41ColorRGB
 90
        0
102
RTVSPost2010PropOp41
 70
     1
102
RTVSPost2010Prop42
 90
       50
102
RTVSPost2010PropOp42
 70
     1
102
RTVSPost2010Prop43
 90
        3
102
RTVSPost2010PropOp43
 70
     1
102
RTVSPost2010Prop44ColorIndex
 90
        5
102
RTVSPost2010Prop44ColorRGB
 90
      255
102
RTVSPost2010PropOp44
 70
     1
102
RTVSPost2010Prop45
280
     0
102
RTVSPost2010PropOp45
 70
     1
102
RTVSPost2010Prop46
 90
       50
102
RTVSPost2010PropOp46
 70
     1
102
RTVSPost2010Prop47
 90
       50
102
RTVSPost2010PropOp47
 70
     1
102
RTVSPost2010Prop48
 90
       50
102
RTVSPost2010PropOp48
 70
     1
102
RTVSPost2010Prop49
280
     0
102
RTVSPost2010PropOp49
 70
     1
102
RTVSPost2010Prop50
 90
       50
102
RTVSPost2010PropOp50
 70
     1
102
RTVSPost2010Prop51ColorIndex
 90
      256
102
RTVSPost2010Prop51ColorRGB
 90
-16777216
102
RTVSPost2010PropOp51
 70
     0
102
RTVSPost2010Prop52
140
1.0
102
RTVSPost2010PropOp52
 70
     0
102
RTVSPost2010Prop53
 90
        2
102
RTVSPost2010PropOp53
 70
     1
102
RTVSPost2010Prop54
  1
strokes_ogs.tif
102
RTVSPost2010PropOp54
 70
     1
102
RTVSPost2010Prop55
280
     0
102
RTVSPost2010PropOp55
 70
     1
102
RTVSPost2010Prop56
140
1.0
102
RTVSPost2010PropOp56
 70
     1
102
RTVSPost2010Prop57
140
1.0
102
RTVSPost2010PropOp57
 70
     1
  0
XRECORD
  5
70F
102
{ACAD_REACTORS
330
70E
102
}
330
70E
100
AcDbXrecord
280
     1
102
RTVSPropertyOp0
 70
     0
102
RTVSPropertyOp1
 70
     0
102
RTVSPropertyOp2
 70
     0
102
RTVSPropertyOp3
 70
     0
102
RTVSPropertyOp4
 70
     0
102
RTVSPropertyOp5
 70
     0
102
RTVSPropertyOp6
 70
     0
102
RTVSPropertyOp7
 70
     0
102
RTVSPropertyOp8
 70
     0
102
RTVSPropertyOp9
 70
     0
102
RTVSPropertyOp10
 70
     0
102
RTVSPropertyOp11
 70
     0
102
RTVSPropertyOp12
 70
     0
102
RTVSPropertyOp13
 70
     0
102
RTVSPropertyOp14
 70
     0
102
RTVSPropertyOp15
 70
     0
102
RTVSPropertyOp16
 70
     0
102
RTVSPropertyOp17
 70
     0
102
RTVSPropertyOp18
 70
     0
102
RTVSPropertyOp19
 70
     0
102
RTVSPropertyOp20
 70
     0
102
RTVSPropertyOp21
 70
     0
102
RTVSPropertyOp22
 70
     0
102
RTVSPropertyOp23
 70
     0
102
RTVSPropertyOp24
 70
     0
102
RTVSPropertyOp25
 70
     0
102
RTVSPropertyOp26
 70
     0
102
RTVSPropertyOp27
 70
     0
102
RTVSPropertyOp28
 70
     1
102
RTVSPropertyOp29
 70
     1
102
RTVSPropertyOp30
 70
     1
102
RTVSPropertyOp31
 70
     1
102
RTVSPropertyOp32
 70
     1
102
RTVSPropertyOp33
 70
     1
102
RTVSPropertyOp34
 70
     1
102
RTVSPropertyOp35
 70
     1
102
RTVSPropertyOp36
 70
     1
102
RTVSPropertyOp37
 70
     1
102
RTVSPropertyOp38
 70
     1
102
RTVSPropertyOp39
 70
     1
102
RTVSPropertyOp40
 70
     1
102
RTVSPropertyOp41
 70
     1
102
RTVSPropertyOp42
 70
     1
102
RTVSPropertyOp43
 70
     1
102
RTVSPropertyOp44
 70
     1
102
RTVSPropertyOp45
 70
     1
102
RTVSPropertyOp46
 70
     1
102
RTVSPropertyOp47
 70
     1
102
RTVSPropertyOp48
 70
     1
102
RTVSPropertyOp49
 70
     1
102
RTVSPropertyOp50
 70
     1
102
RTVSPropertyOp51
 70
     0
102
RTVSPropertyOp52
 70
     0
102
RTVSPropertyOp53
 70
     1
102
RTVSPropertyOp54
 70
     1
102
RTVSPropertyOp55
 70
     1
102
RTVSPropertyOp56
 70
     1
102
RTVSPropertyOp57
 70
     1
102
RTVSPost2010Prop28
280
     0
102
RTVSPost2010PropOp28
 70
     1
102
RTVSPost2010Prop29
280
     1
102
RTVSPost2010PropOp29
 70
     1
102
RTVSPost2010Prop30
280
     1
102
RTVSPost2010PropOp30
 70
     1
102
RTVSPost2010Prop31
280
     0
102
RTVSPost2010PropOp31
 70
     1
102
RTVSPost2010Prop32
280
     0
102
RTVSPost2010PropOp32
 70
     1
102
RTVSPost2010Prop33
280
     0
102
RTVSPost2010PropOp33
 70
     1
102
RTVSPost2010Prop34
280
     0
102
RTVSPost2010PropOp34
 70
     1
102
RTVSPost2010Prop35
280
     0
102
RTVSPost2010PropOp35
 70
     1
102
RTVSPost2010Prop36
280
     0
102
RTVSPost2010PropOp36
 70
     1
102
RTVSPost2010Prop37
 90
       50
102
RTVSPost2010PropOp37
 70
     1
102
RTVSPost2010Prop38
140
0.0
102
RTVSPost2010PropOp38
 70
     1
102
RTVSPost2010Prop39
140
1.0
102
RTVSPost2010PropOp39
 70
     1
102
RTVSPost2010Prop40
 90
        0
102
RTVSPost2010PropOp40
 70
     1
102
RTVSPost2010Prop41ColorIndex
 90
       18
102
RTVSPost2010Prop41ColorRGB
 90
        0
102
RTVSPost2010PropOp41
 70
     1
102
RTVSPost2010Prop42
 90
       50
102
RTVSPost2010PropOp42
 70
     1
102
RTVSPost2010Prop43
 90
        3
102
RTVSPost2010PropOp43
 70
     1
102
RTVSPost2010Prop44ColorIndex
 90
        5
102
RTVSPost2010Prop44ColorRGB
 90
      255
102
RTVSPost2010PropOp44
 70
     1
102
RTVSPost2010Prop45
280
     0
102
RTVSPost2010PropOp45
 70
     1
102
RTVSPost2010Prop46
 90
       50
102
RTVSPost2010PropOp46
 70
     1
102
RTVSPost2010Prop47
 90
       50
102
RTVSPost2010PropOp47
 70
     1
102
RTVSPost2010Prop48
 90
       50
102
RTVSPost2010PropOp48
 70
     1
102
RTVSPost2010Prop49
280
     0
102
RTVSPost2010PropOp49
 70
     1
102
RTVSPost2010Prop50
 90
       50
102
RTVSPost2010PropOp50
 70
     1
102
RTVSPost2010Prop51ColorIndex
 90
      256
102
RTVSPost2010Prop51ColorRGB
 90
-16777216
102
RTVSPost2010PropOp51
 70
     0
102
RTVSPost2010Prop52
140
1.0
102
RTVSPost2010PropOp52
 70
     0
102
RTVSPost2010Prop53
 90
        2
102
RTVSPost2010PropOp53
 70
     1
102
RTVSPost2010Prop54
  1
strokes_ogs.tif
102
RTVSPost2010PropOp54
 70
     1
102
RTVSPost2010Prop55
280
     0
102
RTVSPost2010PropOp55
 70
     1
102
RTVSPost2010Prop56
140
1.0
102
RTVSPost2010PropOp56
 70
     1
102
RTVSPost2010Prop57
140
1.0
102
RTVSPost2010PropOp57
 70
     1
  0
XRECORD
  5
709
102
{ACAD_REACTORS
330
708
102
}
330
708
100
AcDbXrecord
280
     1
102
RTVSPropertyOp0
 70
     1
102
RTVSPropertyOp1
 70
     1
102
RTVSPropertyOp2
 70
     1
102
RTVSPropertyOp3
 70
     1
102
RTVSPropertyOp4
 70
     1
102
RTVSPropertyOp5
 70
     1
102
RTVSPropertyOp6
 70
     1
102
RTVSPropertyOp7
 70
     1
102
RTVSPropertyOp8
 70
     1
102
RTVSPropertyOp9
 70
     1
102
RTVSPropertyOp10
 70
     1
102
RTVSPropertyOp11
 70
     1
102
RTVSPropertyOp12
 70
     1
102
RTVSPropertyOp13
 70
     1
102
RTVSPropertyOp14
 70
     1
102
RTVSPropertyOp15
 70
     1
102
RTVSPropertyOp16
 70
     1
102
RTVSPropertyOp17
 70
     1
102
RTVSPropertyOp18
 70
     1
102
RTVSPropertyOp19
 70
     1
102
RTVSPropertyOp20
 70
     1
102
RTVSPropertyOp21
 70
     1
102
RTVSPropertyOp22
 70
     1
102
RTVSPropertyOp23
 70
     1
102
RTVSPropertyOp24
 70
     1
102
RTVSPropertyOp25
 70
     1
102
RTVSPropertyOp26
 70
     1
102
RTVSPropertyOp27
 70
     1
102
RTVSPropertyOp28
 70
     1
102
RTVSPropertyOp29
 70
     1
102
RTVSPropertyOp30
 70
     1
102
RTVSPropertyOp31
 70
     1
102
RTVSPropertyOp32
 70
     1
102
RTVSPropertyOp33
 70
     1
102
RTVSPropertyOp34
 70
     1
102
RTVSPropertyOp35
 70
     1
102
RTVSPropertyOp36
 70
     1
102
RTVSPropertyOp37
 70
     1
102
RTVSPropertyOp38
 70
     1
102
RTVSPropertyOp39
 70
     1
102
RTVSPropertyOp40
 70
     1
102
RTVSPropertyOp41
 70
     1
102
RTVSPropertyOp42
 70
     1
102
RTVSPropertyOp43
 70
     1
102
RTVSPropertyOp44
 70
     1
102
RTVSPropertyOp45
 70
     1
102
RTVSPropertyOp46
 70
     1
102
RTVSPropertyOp47
 70
     1
102
RTVSPropertyOp48
 70
     1
102
RTVSPropertyOp49
 70
     1
102
RTVSPropertyOp50
 70
     1
102
RTVSPropertyOp51
 70
     0
102
RTVSPropertyOp52
 70
     0
102
RTVSPropertyOp53
 70
     1
102
RTVSPropertyOp54
 70
     1
102
RTVSPropertyOp55
 70
     1
102
RTVSPropertyOp56
 70
     1
102
RTVSPropertyOp57
 70
     1
102
RTVSPost2010Prop28
280
     0
102
RTVSPost2010PropOp28
 70
     1
102
RTVSPost2010Prop29
280
     1
102
RTVSPost2010PropOp29
 70
     1
102
RTVSPost2010Prop30
280
     1
102
RTVSPost2010PropOp30
 70
     1
102
RTVSPost2010Prop31
280
     0
102
RTVSPost2010PropOp31
 70
     1
102
RTVSPost2010Prop32
280
     0
102
RTVSPost2010PropOp32
 70
     1
102
RTVSPost2010Prop33
280
     0
102
RTVSPost2010PropOp33
 70
     1
102
RTVSPost2010Prop34
280
     0
102
RTVSPost2010PropOp34
 70
     1
102
RTVSPost2010Prop35
280
     0
102
RTVSPost2010PropOp35
 70
     1
102
RTVSPost2010Prop36
280
     0
102
RTVSPost2010PropOp36
 70
     1
102
RTVSPost2010Prop37
 90
       50
102
RTVSPost2010PropOp37
 70
     1
102
RTVSPost2010Prop38
140
0.0
102
RTVSPost2010PropOp38
 70
     1
102
RTVSPost2010Prop39
140
1.0
102
RTVSPost2010PropOp39
 70
     1
102
RTVSPost2010Prop40
 90
        0
102
RTVSPost2010PropOp40
 70
     1
102
RTVSPost2010Prop41ColorIndex
 90
       18
102
RTVSPost2010Prop41ColorRGB
 90
        0
102
RTVSPost2010PropOp41
 70
     1
102
RTVSPost2010Prop42
 90
       50
102
RTVSPost2010PropOp42
 70
     1
102
RTVSPost2010Prop43
 90
        3
102
RTVSPost2010PropOp43
 70
     1
102
RTVSPost2010Prop44ColorIndex
 90
        5
102
RTVSPost2010Prop44ColorRGB
 90
      255
102
RTVSPost2010PropOp44
 70
     1
102
RTVSPost2010Prop45
280
     0
102
RTVSPost2010PropOp45
 70
     1
102
RTVSPost2010Prop46
 90
       50
102
RTVSPost2010PropOp46
 70
     1
102
RTVSPost2010Prop47
 90
       50
102
RTVSPost2010PropOp47
 70
     1
102
RTVSPost2010Prop48
 90
       50
102
RTVSPost2010PropOp48
 70
     1
102
RTVSPost2010Prop49
280
     0
102
RTVSPost2010PropOp49
 70
     1
102
RTVSPost2010Prop50
 90
       50
102
RTVSPost2010PropOp50
 70
     1
102
RTVSPost2010Prop51ColorIndex
 90
      256
102
RTVSPost2010Prop51ColorRGB
 90
-16777216
102
RTVSPost2010PropOp51
 70
     0
102
RTVSPost2010Prop52
140
1.0
102
RTVSPost2010PropOp52
 70
     0
102
RTVSPost2010Prop53
 90
        2
102
RTVSPost2010PropOp53
 70
     1
102
RTVSPost2010Prop54
  1
strokes_ogs.tif
102
RTVSPost2010PropOp54
 70
     1
102
RTVSPost2010Prop55
280
     0
102
RTVSPost2010PropOp55
 70
     1
102
RTVSPost2010Prop56
140
1.0
102
RTVSPost2010PropOp56
 70
     1
102
RTVSPost2010Prop57
140
1.0
102
RTVSPost2010PropOp57
 70
     1
  0
XRECORD
  5
711
102
{ACAD_REACTORS
330
710
102
}
330
710
100
AcDbXrecord
280
     1
102
RTVSPropertyOp0
 70
     0
102
RTVSPropertyOp1
 70
     0
102
RTVSPropertyOp2
 70
     0
102
RTVSPropertyOp3
 70
     0
102
RTVSPropertyOp4
 70
     0
102
RTVSPropertyOp5
 70
     0
102
RTVSPropertyOp6
 70
     0
102
RTVSPropertyOp7
 70
     0
102
RTVSPropertyOp8
 70
     0
102
RTVSPropertyOp9
 70
     0
102
RTVSPropertyOp10
 70
     0
102
RTVSPropertyOp11
 70
     0
102
RTVSPropertyOp12
 70
     0
102
RTVSPropertyOp13
 70
     0
102
RTVSPropertyOp14
 70
     0
102
RTVSPropertyOp15
 70
     0
102
RTVSPropertyOp16
 70
     0
102
RTVSPropertyOp17
 70
     0
102
RTVSPropertyOp18
 70
     0
102
RTVSPropertyOp19
 70
     0
102
RTVSPropertyOp20
 70
     0
102
RTVSPropertyOp21
 70
     0
102
RTVSPropertyOp22
 70
     0
102
RTVSPropertyOp23
 70
     0
102
RTVSPropertyOp24
 70
     0
102
RTVSPropertyOp25
 70
     0
102
RTVSPropertyOp26
 70
     0
102
RTVSPropertyOp27
 70
     0
102
RTVSPropertyOp28
 70
     1
102
RTVSPropertyOp29
 70
     1
102
RTVSPropertyOp30
 70
     1
102
RTVSPropertyOp31
 70
     1
102
RTVSPropertyOp32
 70
     1
102
RTVSPropertyOp33
 70
     1
102
RTVSPropertyOp34
 70
     1
102
RTVSPropertyOp35
 70
     1
102
RTVSPropertyOp36
 70
     1
102
RTVSPropertyOp37
 70
     1
102
RTVSPropertyOp38
 70
     1
102
RTVSPropertyOp39
 70
     1
102
RTVSPropertyOp40
 70
     1
102
RTVSPropertyOp41
 70
     1
102
RTVSPropertyOp42
 70
     1
102
RTVSPropertyOp43
 70
     1
102
RTVSPropertyOp44
 70
     1
102
RTVSPropertyOp45
 70
     1
102
RTVSPropertyOp46
 70
     1
102
RTVSPropertyOp47
 70
     1
102
RTVSPropertyOp48
 70
     1
102
RTVSPropertyOp49
 70
     1
102
RTVSPropertyOp50
 70
     1
102
RTVSPropertyOp51
 70
     0
102
RTVSPropertyOp52
 70
     0
102
RTVSPropertyOp53
 70
     1
102
RTVSPropertyOp54
 70
     1
102
RTVSPropertyOp55
 70
     1
102
RTVSPropertyOp56
 70
     1
102
RTVSPropertyOp57
 70
     1
102
RTVSPost2010Prop28
280
     0
102
RTVSPost2010PropOp28
 70
     1
102
RTVSPost2010Prop29
280
     1
102
RTVSPost2010PropOp29
 70
     1
102
RTVSPost2010Prop30
280
     1
102
RTVSPost2010PropOp30
 70
     1
102
RTVSPost2010Prop31
280
     0
102
RTVSPost2010PropOp31
 70
     1
102
RTVSPost2010Prop32
280
     0
102
RTVSPost2010PropOp32
 70
     1
102
RTVSPost2010Prop33
280
     0
102
RTVSPost2010PropOp33
 70
     1
102
RTVSPost2010Prop34
280
     0
102
RTVSPost2010PropOp34
 70
     1
102
RTVSPost2010Prop35
280
     0
102
RTVSPost2010PropOp35
 70
     1
102
RTVSPost2010Prop36
280
     0
102
RTVSPost2010PropOp36
 70
     1
102
RTVSPost2010Prop37
 90
       50
102
RTVSPost2010PropOp37
 70
     1
102
RTVSPost2010Prop38
140
0.0
102
RTVSPost2010PropOp38
 70
     1
102
RTVSPost2010Prop39
140
1.0
102
RTVSPost2010PropOp39
 70
     1
102
RTVSPost2010Prop40
 90
        0
102
RTVSPost2010PropOp40
 70
     1
102
RTVSPost2010Prop41ColorIndex
 90
       18
102
RTVSPost2010Prop41ColorRGB
 90
        0
102
RTVSPost2010PropOp41
 70
     1
102
RTVSPost2010Prop42
 90
       50
102
RTVSPost2010PropOp42
 70
     1
102
RTVSPost2010Prop43
 90
        3
102
RTVSPost2010PropOp43
 70
     1
102
RTVSPost2010Prop44ColorIndex
 90
        5
102
RTVSPost2010Prop44ColorRGB
 90
      255
102
RTVSPost2010PropOp44
 70
     1
102
RTVSPost2010Prop45
280
     0
102
RTVSPost2010PropOp45
 70
     1
102
RTVSPost2010Prop46
 90
       50
102
RTVSPost2010PropOp46
 70
     1
102
RTVSPost2010Prop47
 90
       50
102
RTVSPost2010PropOp47
 70
     1
102
RTVSPost2010Prop48
 90
       50
102
RTVSPost2010PropOp48
 70
     1
102
RTVSPost2010Prop49
280
     0
102
RTVSPost2010PropOp49
 70
     1
102
RTVSPost2010Prop50
 90
       50
102
RTVSPost2010PropOp50
 70
     1
102
RTVSPost2010Prop51ColorIndex
 90
      256
102
RTVSPost2010Prop51ColorRGB
 90
-16777216
102
RTVSPost2010PropOp51
 70
     0
102
RTVSPost2010Prop52
140
1.0
102
RTVSPost2010PropOp52
 70
     0
102
RTVSPost2010Prop53
 90
        2
102
RTVSPost2010PropOp53
 70
     1
102
RTVSPost2010Prop54
  1
strokes_ogs.tif
102
RTVSPost2010PropOp54
 70
     1
102
RTVSPost2010Prop55
280
     0
102
RTVSPost2010PropOp55
 70
     1
102
RTVSPost2010Prop56
140
1.0
102
RTVSPost2010PropOp56
 70
     1
102
RTVSPost2010Prop57
140
1.0
102
RTVSPost2010PropOp57
 70
     1
  0
XRECORD
  5
6EF
102
{ACAD_REACTORS
330
6EE
102
}
330
6EE
100
AcDbXrecord
280
     1
102
RTVSPropertyOp0
 70
     1
102
RTVSPropertyOp1
 70
     1
102
RTVSPropertyOp2
 70
     1
102
RTVSPropertyOp3
 70
     1
102
RTVSPropertyOp4
 70
     1
102
RTVSPropertyOp5
 70
     1
102
RTVSPropertyOp6
 70
     1
102
RTVSPropertyOp7
 70
     1
102
RTVSPropertyOp8
 70
     1
102
RTVSPropertyOp9
 70
     1
102
RTVSPropertyOp10
 70
     1
102
RTVSPropertyOp11
 70
     1
102
RTVSPropertyOp12
 70
     1
102
RTVSPropertyOp13
 70
     1
102
RTVSPropertyOp14
 70
     1
102
RTVSPropertyOp15
 70
     1
102
RTVSPropertyOp16
 70
     1
102
RTVSPropertyOp17
 70
     1
102
RTVSPropertyOp18
 70
     1
102
RTVSPropertyOp19
 70
     1
102
RTVSPropertyOp20
 70
     1
102
RTVSPropertyOp21
 70
     1
102
RTVSPropertyOp22
 70
     1
102
RTVSPropertyOp23
 70
     1
102
RTVSPropertyOp24
 70
     1
102
RTVSPropertyOp25
 70
     1
102
RTVSPropertyOp26
 70
     1
102
RTVSPropertyOp27
 70
     1
102
RTVSPropertyOp28
 70
     1
102
RTVSPropertyOp29
 70
     1
102
RTVSPropertyOp30
 70
     1
102
RTVSPropertyOp31
 70
     1
102
RTVSPropertyOp32
 70
     1
102
RTVSPropertyOp33
 70
     1
102
RTVSPropertyOp34
 70
     1
102
RTVSPropertyOp35
 70
     1
102
RTVSPropertyOp36
 70
     1
102
RTVSPropertyOp37
 70
     1
102
RTVSPropertyOp38
 70
     1
102
RTVSPropertyOp39
 70
     1
102
RTVSPropertyOp40
 70
     1
102
RTVSPropertyOp41
 70
     1
102
RTVSPropertyOp42
 70
     1
102
RTVSPropertyOp43
 70
     1
102
RTVSPropertyOp44
 70
     1
102
RTVSPropertyOp45
 70
     1
102
RTVSPropertyOp46
 70
     1
102
RTVSPropertyOp47
 70
     1
102
RTVSPropertyOp48
 70
     1
102
RTVSPropertyOp49
 70
     1
102
RTVSPropertyOp50
 70
     1
102
RTVSPropertyOp51
 70
     0
102
RTVSPropertyOp52
 70
     0
102
RTVSPropertyOp53
 70
     1
102
RTVSPropertyOp54
 70
     1
102
RTVSPropertyOp55
 70
     1
102
RTVSPropertyOp56
 70
     1
102
RTVSPropertyOp57
 70
     1
102
RTVSPost2010Prop28
280
     0
102
RTVSPost2010PropOp28
 70
     1
102
RTVSPost2010Prop29
280
     1
102
RTVSPost2010PropOp29
 70
     1
102
RTVSPost2010Prop30
280
     1
102
RTVSPost2010PropOp30
 70
     1
102
RTVSPost2010Prop31
280
     0
102
RTVSPost2010PropOp31
 70
     1
102
RTVSPost2010Prop32
280
     0
102
RTVSPost2010PropOp32
 70
     1
102
RTVSPost2010Prop33
280
     0
102
RTVSPost2010PropOp33
 70
     1
102
RTVSPost2010Prop34
280
     0
102
RTVSPost2010PropOp34
 70
     1
102
RTVSPost2010Prop35
280
     0
102
RTVSPost2010PropOp35
 70
     1
102
RTVSPost2010Prop36
280
     0
102
RTVSPost2010PropOp36
 70
     1
102
RTVSPost2010Prop37
 90
       50
102
RTVSPost2010PropOp37
 70
     1
102
RTVSPost2010Prop38
140
0.0
102
RTVSPost2010PropOp38
 70
     1
102
RTVSPost2010Prop39
140
1.0
102
RTVSPost2010PropOp39
 70
     1
102
RTVSPost2010Prop40
 90
        0
102
RTVSPost2010PropOp40
 70
     1
102
RTVSPost2010Prop41ColorIndex
 90
       18
102
RTVSPost2010Prop41ColorRGB
 90
        0
102
RTVSPost2010PropOp41
 70
     1
102
RTVSPost2010Prop42
 90
       50
102
RTVSPost2010PropOp42
 70
     1
102
RTVSPost2010Prop43
 90
        3
102
RTVSPost2010PropOp43
 70
     1
102
RTVSPost2010Prop44ColorIndex
 90
        5
102
RTVSPost2010Prop44ColorRGB
 90
      255
102
RTVSPost2010PropOp44
 70
     1
102
RTVSPost2010Prop45
280
     0
102
RTVSPost2010PropOp45
 70
     1
102
RTVSPost2010Prop46
 90
       50
102
RTVSPost2010PropOp46
 70
     1
102
RTVSPost2010Prop47
 90
       50
102
RTVSPost2010PropOp47
 70
     1
102
RTVSPost2010Prop48
 90
       50
102
RTVSPost2010PropOp48
 70
     1
102
RTVSPost2010Prop49
280
     0
102
RTVSPost2010PropOp49
 70
     1
102
RTVSPost2010Prop50
 90
       50
102
RTVSPost2010PropOp50
 70
     1
102
RTVSPost2010Prop51ColorIndex
 90
      256
102
RTVSPost2010Prop51ColorRGB
 90
-16777216
102
RTVSPost2010PropOp51
 70
     0
102
RTVSPost2010Prop52
140
1.0
102
RTVSPost2010PropOp52
 70
     0
102
RTVSPost2010Prop53
 90
        2
102
RTVSPost2010PropOp53
 70
     1
102
RTVSPost2010Prop54
  1
strokes_ogs.tif
102
RTVSPost2010PropOp54
 70
     1
102
RTVSPost2010Prop55
280
     0
102
RTVSPost2010PropOp55
 70
     1
102
RTVSPost2010Prop56
140
1.0
102
RTVSPost2010PropOp56
 70
     1
102
RTVSPost2010Prop57
140
1.0
102
RTVSPost2010PropOp57
 70
     1
  0
XRECORD
  5
71D
102
{ACAD_REACTORS
330
71C
102
}
330
71C
100
AcDbXrecord
280
     1
102
RTVSPropertyOp0
 70
     1
102
RTVSPropertyOp1
 70
     1
102
RTVSPropertyOp2
 70
     1
102
RTVSPropertyOp3
 70
     1
102
RTVSPropertyOp4
 70
     1
102
RTVSPropertyOp5
 70
     1
102
RTVSPropertyOp6
 70
     1
102
RTVSPropertyOp7
 70
     1
102
RTVSPropertyOp8
 70
     1
102
RTVSPropertyOp9
 70
     1
102
RTVSPropertyOp10
 70
     1
102
RTVSPropertyOp11
 70
     1
102
RTVSPropertyOp12
 70
     1
102
RTVSPropertyOp13
 70
     1
102
RTVSPropertyOp14
 70
     1
102
RTVSPropertyOp15
 70
     1
102
RTVSPropertyOp16
 70
     1
102
RTVSPropertyOp17
 70
     1
102
RTVSPropertyOp18
 70
     1
102
RTVSPropertyOp19
 70
     1
102
RTVSPropertyOp20
 70
     1
102
RTVSPropertyOp21
 70
     1
102
RTVSPropertyOp22
 70
     1
102
RTVSPropertyOp23
 70
     1
102
RTVSPropertyOp24
 70
     1
102
RTVSPropertyOp25
 70
     1
102
RTVSPropertyOp26
 70
     1
102
RTVSPropertyOp27
 70
     1
102
RTVSPropertyOp28
 70
     1
102
RTVSPropertyOp29
 70
     1
102
RTVSPropertyOp30
 70
     1
102
RTVSPropertyOp31
 70
     1
102
RTVSPropertyOp32
 70
     1
102
RTVSPropertyOp33
 70
     1
102
RTVSPropertyOp34
 70
     1
102
RTVSPropertyOp35
 70
     1
102
RTVSPropertyOp36
 70
     1
102
RTVSPropertyOp37
 70
     1
102
RTVSPropertyOp38
 70
     1
102
RTVSPropertyOp39
 70
     1
102
RTVSPropertyOp40
 70
     1
102
RTVSPropertyOp41
 70
     1
102
RTVSPropertyOp42
 70
     1
102
RTVSPropertyOp43
 70
     1
102
RTVSPropertyOp44
 70
     1
102
RTVSPropertyOp45
 70
     1
102
RTVSPropertyOp46
 70
     1
102
RTVSPropertyOp47
 70
     1
102
RTVSPropertyOp48
 70
     1
102
RTVSPropertyOp49
 70
     1
102
RTVSPropertyOp50
 70
     1
102
RTVSPropertyOp51
 70
     0
102
RTVSPropertyOp52
 70
     0
102
RTVSPropertyOp53
 70
     1
102
RTVSPropertyOp54
 70
     1
102
RTVSPropertyOp55
 70
     1
102
RTVSPropertyOp56
 70
     1
102
RTVSPropertyOp57
 70
     1
102
RTVSPost2010Prop28
280
     0
102
RTVSPost2010PropOp28
 70
     1
102
RTVSPost2010Prop29
280
     1
102
RTVSPost2010PropOp29
 70
     1
102
RTVSPost2010Prop30
280
     1
102
RTVSPost2010PropOp30
 70
     1
102
RTVSPost2010Prop31
280
     0
102
RTVSPost2010PropOp31
 70
     1
102
RTVSPost2010Prop32
280
     0
102
RTVSPost2010PropOp32
 70
     1
102
RTVSPost2010Prop33
280
     0
102
RTVSPost2010PropOp33
 70
     1
102
RTVSPost2010Prop34
280
     0
102
RTVSPost2010PropOp34
 70
     1
102
RTVSPost2010Prop35
280
     0
102
RTVSPost2010PropOp35
 70
     1
102
RTVSPost2010Prop36
280
     0
102
RTVSPost2010PropOp36
 70
     1
102
RTVSPost2010Prop37
 90
       50
102
RTVSPost2010PropOp37
 70
     1
102
RTVSPost2010Prop38
140
0.0
102
RTVSPost2010PropOp38
 70
     1
102
RTVSPost2010Prop39
140
1.0
102
RTVSPost2010PropOp39
 70
     1
102
RTVSPost2010Prop40
 90
        0
102
RTVSPost2010PropOp40
 70
     1
102
RTVSPost2010Prop41ColorIndex
 90
       18
102
RTVSPost2010Prop41ColorRGB
 90
        0
102
RTVSPost2010PropOp41
 70
     1
102
RTVSPost2010Prop42
 90
       50
102
RTVSPost2010PropOp42
 70
     1
102
RTVSPost2010Prop43
 90
        3
102
RTVSPost2010PropOp43
 70
     1
102
RTVSPost2010Prop44ColorIndex
 90
        5
102
RTVSPost2010Prop44ColorRGB
 90
      255
102
RTVSPost2010PropOp44
 70
     1
102
RTVSPost2010Prop45
280
     0
102
RTVSPost2010PropOp45
 70
     1
102
RTVSPost2010Prop46
 90
       50
102
RTVSPost2010PropOp46
 70
     1
102
RTVSPost2010Prop47
 90
       50
102
RTVSPost2010PropOp47
 70
     1
102
RTVSPost2010Prop48
 90
       50
102
RTVSPost2010PropOp48
 70
     1
102
RTVSPost2010Prop49
280
     0
102
RTVSPost2010PropOp49
 70
     1
102
RTVSPost2010Prop50
 90
       50
102
RTVSPost2010PropOp50
 70
     1
102
RTVSPost2010Prop51ColorIndex
 90
      256
102
RTVSPost2010Prop51ColorRGB
 90
-16777216
102
RTVSPost2010PropOp51
 70
     0
102
RTVSPost2010Prop52
140
1.0
102
RTVSPost2010PropOp52
 70
     0
102
RTVSPost2010Prop53
 90
        2
102
RTVSPost2010PropOp53
 70
     1
102
RTVSPost2010Prop54
  1
strokes_ogs.tif
102
RTVSPost2010PropOp54
 70
     1
102
RTVSPost2010Prop55
280
     0
102
RTVSPost2010PropOp55
 70
     1
102
RTVSPost2010Prop56
140
1.0
102
RTVSPost2010PropOp56
 70
     1
102
RTVSPost2010Prop57
140
1.0
102
RTVSPost2010PropOp57
 70
     1
  0
XRECORD
  5
71B
102
{ACAD_REACTORS
330
71A
102
}
330
71A
100
AcDbXrecord
280
     1
102
RTVSPropertyOp0
 70
     1
102
RTVSPropertyOp1
 70
     1
102
RTVSPropertyOp2
 70
     1
102
RTVSPropertyOp3
 70
     1
102
RTVSPropertyOp4
 70
     1
102
RTVSPropertyOp5
 70
     1
102
RTVSPropertyOp6
 70
     1
102
RTVSPropertyOp7
 70
     1
102
RTVSPropertyOp8
 70
     1
102
RTVSPropertyOp9
 70
     1
102
RTVSPropertyOp10
 70
     1
102
RTVSPropertyOp11
 70
     1
102
RTVSPropertyOp12
 70
     1
102
RTVSPropertyOp13
 70
     1
102
RTVSPropertyOp14
 70
     1
102
RTVSPropertyOp15
 70
     1
102
RTVSPropertyOp16
 70
     1
102
RTVSPropertyOp17
 70
     1
102
RTVSPropertyOp18
 70
     1
102
RTVSPropertyOp19
 70
     1
102
RTVSPropertyOp20
 70
     1
102
RTVSPropertyOp21
 70
     1
102
RTVSPropertyOp22
 70
     1
102
RTVSPropertyOp23
 70
     1
102
RTVSPropertyOp24
 70
     1
102
RTVSPropertyOp25
 70
     1
102
RTVSPropertyOp26
 70
     1
102
RTVSPropertyOp27
 70
     1
102
RTVSPropertyOp28
 70
     1
102
RTVSPropertyOp29
 70
     1
102
RTVSPropertyOp30
 70
     1
102
RTVSPropertyOp31
 70
     1
102
RTVSPropertyOp32
 70
     1
102
RTVSPropertyOp33
 70
     1
102
RTVSPropertyOp34
 70
     1
102
RTVSPropertyOp35
 70
     1
102
RTVSPropertyOp36
 70
     1
102
RTVSPropertyOp37
 70
     1
102
RTVSPropertyOp38
 70
     1
102
RTVSPropertyOp39
 70
     1
102
RTVSPropertyOp40
 70
     1
102
RTVSPropertyOp41
 70
     1
102
RTVSPropertyOp42
 70
     1
102
RTVSPropertyOp43
 70
     1
102
RTVSPropertyOp44
 70
     1
102
RTVSPropertyOp45
 70
     1
102
RTVSPropertyOp46
 70
     1
102
RTVSPropertyOp47
 70
     1
102
RTVSPropertyOp48
 70
     1
102
RTVSPropertyOp49
 70
     1
102
RTVSPropertyOp50
 70
     1
102
RTVSPropertyOp51
 70
     0
102
RTVSPropertyOp52
 70
     0
102
RTVSPropertyOp53
 70
     1
102
RTVSPropertyOp54
 70
     1
102
RTVSPropertyOp55
 70
     1
102
RTVSPropertyOp56
 70
     1
102
RTVSPropertyOp57
 70
     1
102
RTVSPost2010Prop28
280
     0
102
RTVSPost2010PropOp28
 70
     1
102
RTVSPost2010Prop29
280
     1
102
RTVSPost2010PropOp29
 70
     1
102
RTVSPost2010Prop30
280
     1
102
RTVSPost2010PropOp30
 70
     1
102
RTVSPost2010Prop31
280
     0
102
RTVSPost2010PropOp31
 70
     1
102
RTVSPost2010Prop32
280
     0
102
RTVSPost2010PropOp32
 70
     1
102
RTVSPost2010Prop33
280
     0
102
RTVSPost2010PropOp33
 70
     1
102
RTVSPost2010Prop34
280
     0
102
RTVSPost2010PropOp34
 70
     1
102
RTVSPost2010Prop35
280
     0
102
RTVSPost2010PropOp35
 70
     1
102
RTVSPost2010Prop36
280
     0
102
RTVSPost2010PropOp36
 70
     1
102
RTVSPost2010Prop37
 90
       50
102
RTVSPost2010PropOp37
 70
     1
102
RTVSPost2010Prop38
140
0.0
102
RTVSPost2010PropOp38
 70
     1
102
RTVSPost2010Prop39
140
1.0
102
RTVSPost2010PropOp39
 70
     1
102
RTVSPost2010Prop40
 90
        0
102
RTVSPost2010PropOp40
 70
     1
102
RTVSPost2010Prop41ColorIndex
 90
       18
102
RTVSPost2010Prop41ColorRGB
 90
        0
102
RTVSPost2010PropOp41
 70
     1
102
RTVSPost2010Prop42
 90
       50
102
RTVSPost2010PropOp42
 70
     1
102
RTVSPost2010Prop43
 90
        3
102
RTVSPost2010PropOp43
 70
     1
102
RTVSPost2010Prop44ColorIndex
 90
        5
102
RTVSPost2010Prop44ColorRGB
 90
      255
102
RTVSPost2010PropOp44
 70
     1
102
RTVSPost2010Prop45
280
     0
102
RTVSPost2010PropOp45
 70
     1
102
RTVSPost2010Prop46
 90
       50
102
RTVSPost2010PropOp46
 70
     1
102
RTVSPost2010Prop47
 90
       50
102
RTVSPost2010PropOp47
 70
     1
102
RTVSPost2010Prop48
 90
       50
102
RTVSPost2010PropOp48
 70
     1
102
RTVSPost2010Prop49
280
     0
102
RTVSPost2010PropOp49
 70
     1
102
RTVSPost2010Prop50
 90
       50
102
RTVSPost2010PropOp50
 70
     1
102
RTVSPost2010Prop51ColorIndex
 90
      256
102
RTVSPost2010Prop51ColorRGB
 90
-16777216
102
RTVSPost2010PropOp51
 70
     0
102
RTVSPost2010Prop52
140
1.0
102
RTVSPost2010PropOp52
 70
     0
102
RTVSPost2010Prop53
 90
        2
102
RTVSPost2010PropOp53
 70
     1
102
RTVSPost2010Prop54
  1
strokes_ogs.tif
102
RTVSPost2010PropOp54
 70
     1
102
RTVSPost2010Prop55
280
     0
102
RTVSPost2010PropOp55
 70
     1
102
RTVSPost2010Prop56
140
1.0
102
RTVSPost2010PropOp56
 70
     1
102
RTVSPost2010Prop57
140
1.0
102
RTVSPost2010PropOp57
 70
     1
  0
XRECORD
  5
715
102
{ACAD_REACTORS
330
714
102
}
330
714
100
AcDbXrecord
280
     1
102
RTVSPropertyOp0
 70
     1
102
RTVSPropertyOp1
 70
     1
102
RTVSPropertyOp2
 70
     1
102
RTVSPropertyOp3
 70
     1
102
RTVSPropertyOp4
 70
     1
102
RTVSPropertyOp5
 70
     1
102
RTVSPropertyOp6
 70
     1
102
RTVSPropertyOp7
 70
     1
102
RTVSPropertyOp8
 70
     1
102
RTVSPropertyOp9
 70
     1
102
RTVSPropertyOp10
 70
     1
102
RTVSPropertyOp11
 70
     1
102
RTVSPropertyOp12
 70
     1
102
RTVSPropertyOp13
 70
     1
102
RTVSPropertyOp14
 70
     1
102
RTVSPropertyOp15
 70
     1
102
RTVSPropertyOp16
 70
     1
102
RTVSPropertyOp17
 70
     1
102
RTVSPropertyOp18
 70
     1
102
RTVSPropertyOp19
 70
     1
102
RTVSPropertyOp20
 70
     1
102
RTVSPropertyOp21
 70
     1
102
RTVSPropertyOp22
 70
     1
102
RTVSPropertyOp23
 70
     1
102
RTVSPropertyOp24
 70
     1
102
RTVSPropertyOp25
 70
     1
102
RTVSPropertyOp26
 70
     1
102
RTVSPropertyOp27
 70
     1
102
RTVSPropertyOp28
 70
     1
102
RTVSPropertyOp29
 70
     1
102
RTVSPropertyOp30
 70
     1
102
RTVSPropertyOp31
 70
     1
102
RTVSPropertyOp32
 70
     1
102
RTVSPropertyOp33
 70
     1
102
RTVSPropertyOp34
 70
     1
102
RTVSPropertyOp35
 70
     1
102
RTVSPropertyOp36
 70
     1
102
RTVSPropertyOp37
 70
     1
102
RTVSPropertyOp38
 70
     1
102
RTVSPropertyOp39
 70
     1
102
RTVSPropertyOp40
 70
     1
102
RTVSPropertyOp41
 70
     1
102
RTVSPropertyOp42
 70
     1
102
RTVSPropertyOp43
 70
     1
102
RTVSPropertyOp44
 70
     1
102
RTVSPropertyOp45
 70
     1
102
RTVSPropertyOp46
 70
     1
102
RTVSPropertyOp47
 70
     1
102
RTVSPropertyOp48
 70
     1
102
RTVSPropertyOp49
 70
     1
102
RTVSPropertyOp50
 70
     1
102
RTVSPropertyOp51
 70
     0
102
RTVSPropertyOp52
 70
     0
102
RTVSPropertyOp53
 70
     1
102
RTVSPropertyOp54
 70
     1
102
RTVSPropertyOp55
 70
     1
102
RTVSPropertyOp56
 70
     1
102
RTVSPropertyOp57
 70
     1
102
RTVSPost2010Prop28
280
     0
102
RTVSPost2010PropOp28
 70
     1
102
RTVSPost2010Prop29
280
     1
102
RTVSPost2010PropOp29
 70
     1
102
RTVSPost2010Prop30
280
     1
102
RTVSPost2010PropOp30
 70
     1
102
RTVSPost2010Prop31
280
     0
102
RTVSPost2010PropOp31
 70
     1
102
RTVSPost2010Prop32
280
     0
102
RTVSPost2010PropOp32
 70
     1
102
RTVSPost2010Prop33
280
     0
102
RTVSPost2010PropOp33
 70
     1
102
RTVSPost2010Prop34
280
     0
102
RTVSPost2010PropOp34
 70
     1
102
RTVSPost2010Prop35
280
     0
102
RTVSPost2010PropOp35
 70
     1
102
RTVSPost2010Prop36
280
     0
102
RTVSPost2010PropOp36
 70
     1
102
RTVSPost2010Prop37
 90
       50
102
RTVSPost2010PropOp37
 70
     1
102
RTVSPost2010Prop38
140
0.0
102
RTVSPost2010PropOp38
 70
     1
102
RTVSPost2010Prop39
140
1.0
102
RTVSPost2010PropOp39
 70
     1
102
RTVSPost2010Prop40
 90
        0
102
RTVSPost2010PropOp40
 70
     1
102
RTVSPost2010Prop41ColorIndex
 90
       18
102
RTVSPost2010Prop41ColorRGB
 90
        0
102
RTVSPost2010PropOp41
 70
     1
102
RTVSPost2010Prop42
 90
       50
102
RTVSPost2010PropOp42
 70
     1
102
RTVSPost2010Prop43
 90
        3
102
RTVSPost2010PropOp43
 70
     1
102
RTVSPost2010Prop44ColorIndex
 90
        5
102
RTVSPost2010Prop44ColorRGB
 90
      255
102
RTVSPost2010PropOp44
 70
     1
102
RTVSPost2010Prop45
280
     0
102
RTVSPost2010PropOp45
 70
     1
102
RTVSPost2010Prop46
 90
       50
102
RTVSPost2010PropOp46
 70
     1
102
RTVSPost2010Prop47
 90
       50
102
RTVSPost2010PropOp47
 70
     1
102
RTVSPost2010Prop48
 90
       50
102
RTVSPost2010PropOp48
 70
     1
102
RTVSPost2010Prop49
280
     0
102
RTVSPost2010PropOp49
 70
     1
102
RTVSPost2010Prop50
 90
       50
102
RTVSPost2010PropOp50
 70
     1
102
RTVSPost2010Prop51ColorIndex
 90
      256
102
RTVSPost2010Prop51ColorRGB
 90
-16777216
102
RTVSPost2010PropOp51
 70
     0
102
RTVSPost2010Prop52
140
1.0
102
RTVSPost2010PropOp52
 70
     0
102
RTVSPost2010Prop53
 90
        2
102
RTVSPost2010PropOp53
 70
     1
102
RTVSPost2010Prop54
  1
strokes_ogs.tif
102
RTVSPost2010PropOp54
 70
     1
102
RTVSPost2010Prop55
280
     0
102
RTVSPost2010PropOp55
 70
     1
102
RTVSPost2010Prop56
140
1.0
102
RTVSPost2010PropOp56
 70
     1
102
RTVSPost2010Prop57
140
1.0
102
RTVSPost2010PropOp57
 70
     1
  0
XRECORD
  5
717
102
{ACAD_REACTORS
330
716
102
}
330
716
100
AcDbXrecord
280
     1
102
RTVSPropertyOp0
 70
     1
102
RTVSPropertyOp1
 70
     1
102
RTVSPropertyOp2
 70
     1
102
RTVSPropertyOp3
 70
     1
102
RTVSPropertyOp4
 70
     1
102
RTVSPropertyOp5
 70
     1
102
RTVSPropertyOp6
 70
     1
102
RTVSPropertyOp7
 70
     1
102
RTVSPropertyOp8
 70
     1
102
RTVSPropertyOp9
 70
     1
102
RTVSPropertyOp10
 70
     1
102
RTVSPropertyOp11
 70
     1
102
RTVSPropertyOp12
 70
     1
102
RTVSPropertyOp13
 70
     1
102
RTVSPropertyOp14
 70
     1
102
RTVSPropertyOp15
 70
     1
102
RTVSPropertyOp16
 70
     1
102
RTVSPropertyOp17
 70
     1
102
RTVSPropertyOp18
 70
     1
102
RTVSPropertyOp19
 70
     1
102
RTVSPropertyOp20
 70
     1
102
RTVSPropertyOp21
 70
     1
102
RTVSPropertyOp22
 70
     1
102
RTVSPropertyOp23
 70
     1
102
RTVSPropertyOp24
 70
     1
102
RTVSPropertyOp25
 70
     1
102
RTVSPropertyOp26
 70
     1
102
RTVSPropertyOp27
 70
     1
102
RTVSPropertyOp28
 70
     1
102
RTVSPropertyOp29
 70
     1
102
RTVSPropertyOp30
 70
     1
102
RTVSPropertyOp31
 70
     1
102
RTVSPropertyOp32
 70
     1
102
RTVSPropertyOp33
 70
     1
102
RTVSPropertyOp34
 70
     1
102
RTVSPropertyOp35
 70
     1
102
RTVSPropertyOp36
 70
     1
102
RTVSPropertyOp37
 70
     1
102
RTVSPropertyOp38
 70
     1
102
RTVSPropertyOp39
 70
     1
102
RTVSPropertyOp40
 70
     1
102
RTVSPropertyOp41
 70
     1
102
RTVSPropertyOp42
 70
     1
102
RTVSPropertyOp43
 70
     1
102
RTVSPropertyOp44
 70
     1
102
RTVSPropertyOp45
 70
     1
102
RTVSPropertyOp46
 70
     1
102
RTVSPropertyOp47
 70
     1
102
RTVSPropertyOp48
 70
     1
102
RTVSPropertyOp49
 70
     1
102
RTVSPropertyOp50
 70
     1
102
RTVSPropertyOp51
 70
     0
102
RTVSPropertyOp52
 70
     0
102
RTVSPropertyOp53
 70
     1
102
RTVSPropertyOp54
 70
     1
102
RTVSPropertyOp55
 70
     1
102
RTVSPropertyOp56
 70
     1
102
RTVSPropertyOp57
 70
     1
102
RTVSPost2010Prop28
280
     0
102
RTVSPost2010PropOp28
 70
     1
102
RTVSPost2010Prop29
280
     1
102
RTVSPost2010PropOp29
 70
     1
102
RTVSPost2010Prop30
280
     1
102
RTVSPost2010PropOp30
 70
     1
102
RTVSPost2010Prop31
280
     0
102
RTVSPost2010PropOp31
 70
     1
102
RTVSPost2010Prop32
280
     0
102
RTVSPost2010PropOp32
 70
     1
102
RTVSPost2010Prop33
280
     0
102
RTVSPost2010PropOp33
 70
     1
102
RTVSPost2010Prop34
280
     0
102
RTVSPost2010PropOp34
 70
     1
102
RTVSPost2010Prop35
280
     0
102
RTVSPost2010PropOp35
 70
     1
102
RTVSPost2010Prop36
280
     0
102
RTVSPost2010PropOp36
 70
     1
102
RTVSPost2010Prop37
 90
       50
102
RTVSPost2010PropOp37
 70
     1
102
RTVSPost2010Prop38
140
0.0
102
RTVSPost2010PropOp38
 70
     1
102
RTVSPost2010Prop39
140
1.0
102
RTVSPost2010PropOp39
 70
     1
102
RTVSPost2010Prop40
 90
        0
102
RTVSPost2010PropOp40
 70
     1
102
RTVSPost2010Prop41ColorIndex
 90
       18
102
RTVSPost2010Prop41ColorRGB
 90
        0
102
RTVSPost2010PropOp41
 70
     1
102
RTVSPost2010Prop42
 90
       50
102
RTVSPost2010PropOp42
 70
     1
102
RTVSPost2010Prop43
 90
        3
102
RTVSPost2010PropOp43
 70
     1
102
RTVSPost2010Prop44ColorIndex
 90
        5
102
RTVSPost2010Prop44ColorRGB
 90
      255
102
RTVSPost2010PropOp44
 70
     1
102
RTVSPost2010Prop45
280
     0
102
RTVSPost2010PropOp45
 70
     1
102
RTVSPost2010Prop46
 90
       50
102
RTVSPost2010PropOp46
 70
     1
102
RTVSPost2010Prop47
 90
       50
102
RTVSPost2010PropOp47
 70
     1
102
RTVSPost2010Prop48
 90
       50
102
RTVSPost2010PropOp48
 70
     1
102
RTVSPost2010Prop49
280
     0
102
RTVSPost2010PropOp49
 70
     1
102
RTVSPost2010Prop50
 90
       50
102
RTVSPost2010PropOp50
 70
     1
102
RTVSPost2010Prop51ColorIndex
 90
      256
102
RTVSPost2010Prop51ColorRGB
 90
-16777216
102
RTVSPost2010PropOp51
 70
     0
102
RTVSPost2010Prop52
140
1.0
102
RTVSPost2010PropOp52
 70
     0
102
RTVSPost2010Prop53
 90
        2
102
RTVSPost2010PropOp53
 70
     1
102
RTVSPost2010Prop54
  1
strokes_ogs.tif
102
RTVSPost2010PropOp54
 70
     1
102
RTVSPost2010Prop55
280
     0
102
RTVSPost2010PropOp55
 70
     1
102
RTVSPost2010Prop56
140
1.0
102
RTVSPost2010PropOp56
 70
     1
102
RTVSPost2010Prop57
140
1.0
102
RTVSPost2010PropOp57
 70
     1
  0
XRECORD
  5
707
102
{ACAD_REACTORS
330
706
102
}
330
706
100
AcDbXrecord
280
     1
102
RTVSPropertyOp0
 70
     1
102
RTVSPropertyOp1
 70
     1
102
RTVSPropertyOp2
 70
     1
102
RTVSPropertyOp3
 70
     1
102
RTVSPropertyOp4
 70
     1
102
RTVSPropertyOp5
 70
     1
102
RTVSPropertyOp6
 70
     1
102
RTVSPropertyOp7
 70
     1
102
RTVSPropertyOp8
 70
     1
102
RTVSPropertyOp9
 70
     1
102
RTVSPropertyOp10
 70
     1
102
RTVSPropertyOp11
 70
     1
102
RTVSPropertyOp12
 70
     1
102
RTVSPropertyOp13
 70
     1
102
RTVSPropertyOp14
 70
     1
102
RTVSPropertyOp15
 70
     1
102
RTVSPropertyOp16
 70
     1
102
RTVSPropertyOp17
 70
     1
102
RTVSPropertyOp18
 70
     1
102
RTVSPropertyOp19
 70
     1
102
RTVSPropertyOp20
 70
     1
102
RTVSPropertyOp21
 70
     1
102
RTVSPropertyOp22
 70
     1
102
RTVSPropertyOp23
 70
     1
102
RTVSPropertyOp24
 70
     1
102
RTVSPropertyOp25
 70
     1
102
RTVSPropertyOp26
 70
     1
102
RTVSPropertyOp27
 70
     1
102
RTVSPropertyOp28
 70
     1
102
RTVSPropertyOp29
 70
     1
102
RTVSPropertyOp30
 70
     1
102
RTVSPropertyOp31
 70
     1
102
RTVSPropertyOp32
 70
     1
102
RTVSPropertyOp33
 70
     1
102
RTVSPropertyOp34
 70
     1
102
RTVSPropertyOp35
 70
     1
102
RTVSPropertyOp36
 70
     1
102
RTVSPropertyOp37
 70
     1
102
RTVSPropertyOp38
 70
     1
102
RTVSPropertyOp39
 70
     1
102
RTVSPropertyOp40
 70
     1
102
RTVSPropertyOp41
 70
     1
102
RTVSPropertyOp42
 70
     1
102
RTVSPropertyOp43
 70
     1
102
RTVSPropertyOp44
 70
     1
102
RTVSPropertyOp45
 70
     1
102
RTVSPropertyOp46
 70
     1
102
RTVSPropertyOp47
 70
     1
102
RTVSPropertyOp48
 70
     1
102
RTVSPropertyOp49
 70
     1
102
RTVSPropertyOp50
 70
     1
102
RTVSPropertyOp51
 70
     0
102
RTVSPropertyOp52
 70
     0
102
RTVSPropertyOp53
 70
     1
102
RTVSPropertyOp54
 70
     1
102
RTVSPropertyOp55
 70
     1
102
RTVSPropertyOp56
 70
     1
102
RTVSPropertyOp57
 70
     1
102
RTVSPost2010Prop28
280
     0
102
RTVSPost2010PropOp28
 70
     1
102
RTVSPost2010Prop29
280
     1
102
RTVSPost2010PropOp29
 70
     1
102
RTVSPost2010Prop30
280
     1
102
RTVSPost2010PropOp30
 70
     1
102
RTVSPost2010Prop31
280
     0
102
RTVSPost2010PropOp31
 70
     1
102
RTVSPost2010Prop32
280
     0
102
RTVSPost2010PropOp32
 70
     1
102
RTVSPost2010Prop33
280
     0
102
RTVSPost2010PropOp33
 70
     1
102
RTVSPost2010Prop34
280
     0
102
RTVSPost2010PropOp34
 70
     1
102
RTVSPost2010Prop35
280
     0
102
RTVSPost2010PropOp35
 70
     1
102
RTVSPost2010Prop36
280
     0
102
RTVSPost2010PropOp36
 70
     1
102
RTVSPost2010Prop37
 90
       50
102
RTVSPost2010PropOp37
 70
     1
102
RTVSPost2010Prop38
140
0.0
102
RTVSPost2010PropOp38
 70
     1
102
RTVSPost2010Prop39
140
1.0
102
RTVSPost2010PropOp39
 70
     1
102
RTVSPost2010Prop40
 90
        0
102
RTVSPost2010PropOp40
 70
     1
102
RTVSPost2010Prop41ColorIndex
 90
       18
102
RTVSPost2010Prop41ColorRGB
 90
        0
102
RTVSPost2010PropOp41
 70
     1
102
RTVSPost2010Prop42
 90
       50
102
RTVSPost2010PropOp42
 70
     1
102
RTVSPost2010Prop43
 90
        3
102
RTVSPost2010PropOp43
 70
     1
102
RTVSPost2010Prop44ColorIndex
 90
        5
102
RTVSPost2010Prop44ColorRGB
 90
      255
102
RTVSPost2010PropOp44
 70
     1
102
RTVSPost2010Prop45
280
     0
102
RTVSPost2010PropOp45
 70
     1
102
RTVSPost2010Prop46
 90
       50
102
RTVSPost2010PropOp46
 70
     1
102
RTVSPost2010Prop47
 90
       50
102
RTVSPost2010PropOp47
 70
     1
102
RTVSPost2010Prop48
 90
       50
102
RTVSPost2010PropOp48
 70
     1
102
RTVSPost2010Prop49
280
     0
102
RTVSPost2010PropOp49
 70
     1
102
RTVSPost2010Prop50
 90
       50
102
RTVSPost2010PropOp50
 70
     1
102
RTVSPost2010Prop51ColorIndex
 90
      256
102
RTVSPost2010Prop51ColorRGB
 90
-16777216
102
RTVSPost2010PropOp51
 70
     0
102
RTVSPost2010Prop52
140
1.0
102
RTVSPost2010PropOp52
 70
     0
102
RTVSPost2010Prop53
 90
        2
102
RTVSPost2010PropOp53
 70
     1
102
RTVSPost2010Prop54
  1
strokes_ogs.tif
102
RTVSPost2010PropOp54
 70
     1
102
RTVSPost2010Prop55
280
     0
102
RTVSPost2010PropOp55
 70
     1
102
RTVSPost2010Prop56
140
1.0
102
RTVSPost2010PropOp56
 70
     1
102
RTVSPost2010Prop57
140
1.0
102
RTVSPost2010PropOp57
 70
     1
  0
XRECORD
  5
6F1
102
{ACAD_REACTORS
330
6F0
102
}
330
6F0
100
AcDbXrecord
280
     1
102
RTVSPropertyOp0
 70
     1
102
RTVSPropertyOp1
 70
     1
102
RTVSPropertyOp2
 70
     1
102
RTVSPropertyOp3
 70
     1
102
RTVSPropertyOp4
 70
     1
102
RTVSPropertyOp5
 70
     1
102
RTVSPropertyOp6
 70
     1
102
RTVSPropertyOp7
 70
     1
102
RTVSPropertyOp8
 70
     1
102
RTVSPropertyOp9
 70
     1
102
RTVSPropertyOp10
 70
     1
102
RTVSPropertyOp11
 70
     1
102
RTVSPropertyOp12
 70
     1
102
RTVSPropertyOp13
 70
     1
102
RTVSPropertyOp14
 70
     1
102
RTVSPropertyOp15
 70
     1
102
RTVSPropertyOp16
 70
     1
102
RTVSPropertyOp17
 70
     1
102
RTVSPropertyOp18
 70
     1
102
RTVSPropertyOp19
 70
     1
102
RTVSPropertyOp20
 70
     1
102
RTVSPropertyOp21
 70
     1
102
RTVSPropertyOp22
 70
     1
102
RTVSPropertyOp23
 70
     1
102
RTVSPropertyOp24
 70
     1
102
RTVSPropertyOp25
 70
     1
102
RTVSPropertyOp26
 70
     1
102
RTVSPropertyOp27
 70
     1
102
RTVSPropertyOp28
 70
     1
102
RTVSPropertyOp29
 70
     1
102
RTVSPropertyOp30
 70
     1
102
RTVSPropertyOp31
 70
     1
102
RTVSPropertyOp32
 70
     1
102
RTVSPropertyOp33
 70
     1
102
RTVSPropertyOp34
 70
     1
102
RTVSPropertyOp35
 70
     1
102
RTVSPropertyOp36
 70
     1
102
RTVSPropertyOp37
 70
     1
102
RTVSPropertyOp38
 70
     1
102
RTVSPropertyOp39
 70
     1
102
RTVSPropertyOp40
 70
     1
102
RTVSPropertyOp41
 70
     1
102
RTVSPropertyOp42
 70
     1
102
RTVSPropertyOp43
 70
     1
102
RTVSPropertyOp44
 70
     1
102
RTVSPropertyOp45
 70
     1
102
RTVSPropertyOp46
 70
     1
102
RTVSPropertyOp47
 70
     1
102
RTVSPropertyOp48
 70
     1
102
RTVSPropertyOp49
 70
     1
102
RTVSPropertyOp50
 70
     1
102
RTVSPropertyOp51
 70
     0
102
RTVSPropertyOp52
 70
     0
102
RTVSPropertyOp53
 70
     1
102
RTVSPropertyOp54
 70
     1
102
RTVSPropertyOp55
 70
     1
102
RTVSPropertyOp56
 70
     1
102
RTVSPropertyOp57
 70
     1
102
RTVSPost2010Prop28
280
     0
102
RTVSPost2010PropOp28
 70
     1
102
RTVSPost2010Prop29
280
     1
102
RTVSPost2010PropOp29
 70
     1
102
RTVSPost2010Prop30
280
     1
102
RTVSPost2010PropOp30
 70
     1
102
RTVSPost2010Prop31
280
     0
102
RTVSPost2010PropOp31
 70
     1
102
RTVSPost2010Prop32
280
     0
102
RTVSPost2010PropOp32
 70
     1
102
RTVSPost2010Prop33
280
     0
102
RTVSPost2010PropOp33
 70
     1
102
RTVSPost2010Prop34
280
     0
102
RTVSPost2010PropOp34
 70
     1
102
RTVSPost2010Prop35
280
     0
102
RTVSPost2010PropOp35
 70
     1
102
RTVSPost2010Prop36
280
     0
102
RTVSPost2010PropOp36
 70
     1
102
RTVSPost2010Prop37
 90
       50
102
RTVSPost2010PropOp37
 70
     1
102
RTVSPost2010Prop38
140
0.0
102
RTVSPost2010PropOp38
 70
     1
102
RTVSPost2010Prop39
140
1.0
102
RTVSPost2010PropOp39
 70
     1
102
RTVSPost2010Prop40
 90
        0
102
RTVSPost2010PropOp40
 70
     1
102
RTVSPost2010Prop41ColorIndex
 90
       18
102
RTVSPost2010Prop41ColorRGB
 90
        0
102
RTVSPost2010PropOp41
 70
     1
102
RTVSPost2010Prop42
 90
       50
102
RTVSPost2010PropOp42
 70
     1
102
RTVSPost2010Prop43
 90
        3
102
RTVSPost2010PropOp43
 70
     1
102
RTVSPost2010Prop44ColorIndex
 90
        5
102
RTVSPost2010Prop44ColorRGB
 90
      255
102
RTVSPost2010PropOp44
 70
     1
102
RTVSPost2010Prop45
280
     0
102
RTVSPost2010PropOp45
 70
     1
102
RTVSPost2010Prop46
 90
       50
102
RTVSPost2010PropOp46
 70
     1
102
RTVSPost2010Prop47
 90
       50
102
RTVSPost2010PropOp47
 70
     1
102
RTVSPost2010Prop48
 90
       50
102
RTVSPost2010PropOp48
 70
     1
102
RTVSPost2010Prop49
280
     0
102
RTVSPost2010PropOp49
 70
     1
102
RTVSPost2010Prop50
 90
       50
102
RTVSPost2010PropOp50
 70
     1
102
RTVSPost2010Prop51ColorIndex
 90
      256
102
RTVSPost2010Prop51ColorRGB
 90
-16777216
102
RTVSPost2010PropOp51
 70
     0
102
RTVSPost2010Prop52
140
1.0
102
RTVSPost2010PropOp52
 70
     0
102
RTVSPost2010Prop53
 90
        2
102
RTVSPost2010PropOp53
 70
     1
102
RTVSPost2010Prop54
  1
strokes_ogs.tif
102
RTVSPost2010PropOp54
 70
     1
102
RTVSPost2010Prop55
280
     0
102
RTVSPost2010PropOp55
 70
     1
102
RTVSPost2010Prop56
140
1.0
102
RTVSPost2010PropOp56
 70
     1
102
RTVSPost2010Prop57
140
1.0
102
RTVSPost2010PropOp57
 70
     1
  0
XRECORD
  5
719
102
{ACAD_REACTORS
330
718
102
}
330
718
100
AcDbXrecord
280
     1
102
RTVSPropertyOp0
 70
     1
102
RTVSPropertyOp1
 70
     1
102
RTVSPropertyOp2
 70
     1
102
RTVSPropertyOp3
 70
     1
102
RTVSPropertyOp4
 70
     1
102
RTVSPropertyOp5
 70
     1
102
RTVSPropertyOp6
 70
     1
102
RTVSPropertyOp7
 70
     1
102
RTVSPropertyOp8
 70
     1
102
RTVSPropertyOp9
 70
     1
102
RTVSPropertyOp10
 70
     1
102
RTVSPropertyOp11
 70
     1
102
RTVSPropertyOp12
 70
     1
102
RTVSPropertyOp13
 70
     1
102
RTVSPropertyOp14
 70
     1
102
RTVSPropertyOp15
 70
     1
102
RTVSPropertyOp16
 70
     1
102
RTVSPropertyOp17
 70
     1
102
RTVSPropertyOp18
 70
     1
102
RTVSPropertyOp19
 70
     1
102
RTVSPropertyOp20
 70
     1
102
RTVSPropertyOp21
 70
     1
102
RTVSPropertyOp22
 70
     1
102
RTVSPropertyOp23
 70
     1
102
RTVSPropertyOp24
 70
     1
102
RTVSPropertyOp25
 70
     1
102
RTVSPropertyOp26
 70
     1
102
RTVSPropertyOp27
 70
     1
102
RTVSPropertyOp28
 70
     1
102
RTVSPropertyOp29
 70
     1
102
RTVSPropertyOp30
 70
     1
102
RTVSPropertyOp31
 70
     1
102
RTVSPropertyOp32
 70
     1
102
RTVSPropertyOp33
 70
     1
102
RTVSPropertyOp34
 70
     1
102
RTVSPropertyOp35
 70
     1
102
RTVSPropertyOp36
 70
     1
102
RTVSPropertyOp37
 70
     1
102
RTVSPropertyOp38
 70
     1
102
RTVSPropertyOp39
 70
     1
102
RTVSPropertyOp40
 70
     1
102
RTVSPropertyOp41
 70
     1
102
RTVSPropertyOp42
 70
     1
102
RTVSPropertyOp43
 70
     1
102
RTVSPropertyOp44
 70
     1
102
RTVSPropertyOp45
 70
     1
102
RTVSPropertyOp46
 70
     1
102
RTVSPropertyOp47
 70
     1
102
RTVSPropertyOp48
 70
     1
102
RTVSPropertyOp49
 70
     1
102
RTVSPropertyOp50
 70
     1
102
RTVSPropertyOp51
 70
     0
102
RTVSPropertyOp52
 70
     0
102
RTVSPropertyOp53
 70
     1
102
RTVSPropertyOp54
 70
     1
102
RTVSPropertyOp55
 70
     1
102
RTVSPropertyOp56
 70
     1
102
RTVSPropertyOp57
 70
     1
102
RTVSPost2010Prop28
280
     0
102
RTVSPost2010PropOp28
 70
     1
102
RTVSPost2010Prop29
280
     1
102
RTVSPost2010PropOp29
 70
     1
102
RTVSPost2010Prop30
280
     1
102
RTVSPost2010PropOp30
 70
     1
102
RTVSPost2010Prop31
280
     0
102
RTVSPost2010PropOp31
 70
     1
102
RTVSPost2010Prop32
280
     0
102
RTVSPost2010PropOp32
 70
     1
102
RTVSPost2010Prop33
280
     0
102
RTVSPost2010PropOp33
 70
     1
102
RTVSPost2010Prop34
280
     0
102
RTVSPost2010PropOp34
 70
     1
102
RTVSPost2010Prop35
280
     0
102
RTVSPost2010PropOp35
 70
     1
102
RTVSPost2010Prop36
280
     0
102
RTVSPost2010PropOp36
 70
     1
102
RTVSPost2010Prop37
 90
       50
102
RTVSPost2010PropOp37
 70
     1
102
RTVSPost2010Prop38
140
0.0
102
RTVSPost2010PropOp38
 70
     1
102
RTVSPost2010Prop39
140
1.0
102
RTVSPost2010PropOp39
 70
     1
102
RTVSPost2010Prop40
 90
        0
102
RTVSPost2010PropOp40
 70
     1
102
RTVSPost2010Prop41ColorIndex
 90
       18
102
RTVSPost2010Prop41ColorRGB
 90
        0
102
RTVSPost2010PropOp41
 70
     1
102
RTVSPost2010Prop42
 90
       50
102
RTVSPost2010PropOp42
 70
     1
102
RTVSPost2010Prop43
 90
        3
102
RTVSPost2010PropOp43
 70
     1
102
RTVSPost2010Prop44ColorIndex
 90
        5
102
RTVSPost2010Prop44ColorRGB
 90
      255
102
RTVSPost2010PropOp44
 70
     1
102
RTVSPost2010Prop45
280
     0
102
RTVSPost2010PropOp45
 70
     1
102
RTVSPost2010Prop46
 90
       50
102
RTVSPost2010PropOp46
 70
     1
102
RTVSPost2010Prop47
 90
       50
102
RTVSPost2010PropOp47
 70
     1
102
RTVSPost2010Prop48
 90
       50
102
RTVSPost2010PropOp48
 70
     1
102
RTVSPost2010Prop49
280
     0
102
RTVSPost2010PropOp49
 70
     1
102
RTVSPost2010Prop50
 90
       50
102
RTVSPost2010PropOp50
 70
     1
102
RTVSPost2010Prop51ColorIndex
 90
      256
102
RTVSPost2010Prop51ColorRGB
 90
-16777216
102
RTVSPost2010PropOp51
 70
     0
102
RTVSPost2010Prop52
140
1.0
102
RTVSPost2010PropOp52
 70
     0
102
RTVSPost2010Prop53
 90
        2
102
RTVSPost2010PropOp53
 70
     1
102
RTVSPost2010Prop54
  1
strokes_ogs.tif
102
RTVSPost2010PropOp54
 70
     1
102
RTVSPost2010Prop55
280
     0
102
RTVSPost2010PropOp55
 70
     1
102
RTVSPost2010Prop56
140
1.0
102
RTVSPost2010PropOp56
 70
     1
102
RTVSPost2010Prop57
140
1.0
102
RTVSPost2010PropOp57
 70
     1
  0
ENDSEC
  0
SECTION
  2
THUMBNAILIMAGE
 90
    16364
310
28000000B4000000550000000100080000000000C43B000000000000000000000001000000010000FFFFFF000000FF0000FFFF0000FF0000FFFF0000FF000000FF00FF000000000080808000C0C0C0000000FF007F7FFF000000A5005252A50000007F003F3F7F0000004C0026264C000000260013132600003FFF007F9FFF
310
000029A5005267A500001F7F003F4F7F0000134C00262F4C000009260013172600007FFF007FBFFF000052A500527CA500003F7F003F5F7F0000264C0026394C0000132600131C260000BFFF007FDFFF00007CA5005291A500005F7F003F6F7F0000394C0026424C00001C26001321260000FFFF007FFFFF0000A5A50052A5
310
A500007F7F003F7F7F00004C4C00264C4C00002626001326260000FFBF007FFFDF0000A57C0052A59100007F5F003F7F6F00004C3900264C420000261C001326210000FF7F007FFFBF0000A5520052A57C00007F3F003F7F5F00004C2600264C39000026130013261C0000FF3F007FFF9F0000A5290052A56700007F1F003F
310
7F4F00004C1300264C2F00002609001326170000FF00007FFF7F0000A5000052A55200007F00003F7F3F00004C0000264C260000260000132613003FFF00009FFF7F0029A5000067A552001F7F00004F7F3F00134C00002F4C260009260000172613007FFF0000BFFF7F0052A500007CA552003F7F00005F7F3F00264C0000
310
394C2600132600001C261300BFFF0000DFFF7F007CA5000091A552005F7F00006F7F3F00394C0000424C26001C26000021261300FFFF0000FFFF7F00A5A50000A5A552007F7F00007F7F3F004C4C00004C4C26002626000026261300FFBF0000FFDF7F00A57C0000A59152007F5F00007F6F3F004C3900004C422600261C00
310
0026211300FF7F0000FFBF7F00A5520000A57C52007F3F00007F5F3F004C2600004C39260026130000261C1300FF3F0000FF9F7F00A5290000A56752007F1F00007F4F3F004C1300004C2F26002609000026171300FF000000FF7F7F00A5000000A55252007F0000007F3F3F004C0000004C2626002600000026131300FF00
310
3F00FF7F9F00A5002900A55267007F001F007F3F4F004C0013004C262F002600090026131700FF007F00FF7FBF00A5005200A5527C007F003F007F3F5F004C0026004C2639002600130026131C00FF00BF00FF7FDF00A5007C00A55291007F005F007F3F6F004C0039004C26420026001C0026132100FF00FF00FF7FFF00A5
310
00A500A552A5007F007F007F3F7F004C004C004C264C002600260026132600BF00FF00DF7FFF007C00A5009152A5005F007F006F3F7F0039004C0042264C001C002600211326007F00FF00BF7FFF005200A5007C52A5003F007F005F3F7F0026004C0039264C00130026001C1326003F00FF009F7FFF002900A5006752A500
310
1F007F004F3F7F0013004C002F264C000900260017132600000000002D2D2D005B5B5B0089898900B7B7B700B3B3B30000000000000000000000000000000000000000000000000000000000000000000000000000000000000000000000000000000000000000000000000000000000000000000000000000000000000000
310
00000000000000000000000000000000000000000000000000000000000000000000000000000000000000000000000000000000000000000000000000000000000000000000000000000000000000000000000000000000000000000000000000000000000000000000000000000000000000000000000000000000000000
310
00000000000000000000000000000000000000000000000000000000000000000000000000000000000000000000000000000000000000000000000000000000000000000000000000000000000000000000000000000000000000000000000000000000000000000000000000000000000000000000000000000000000000
310
00000000000000000000000000000000000000000000000000000000000000000000000000000000000000000000000000000000000000000000000000000000000000000000000000030100000000000000000000000000000000000000000000000000000000000000000000000000000000000000000000000000000000
310
00000000000000000000000000000000000000000000000000000000000000000000000000000000000000000000000000000000000000000000000000000000000000000000000000000000000000000000000000000000000000000000000000000000000000000000000000000000000000000000000000000000000303
310
01030000000000000000000000000000000000000000000000000000000000000000000000000000000000000000000000000000000000000000000000000000000000000000000000000000000000000000000000000000000000000000000000000000000000000000000000000000000000000000000000000000000000
310
00000000000000000000000000000000000000000000000000000000000000000000000000000000000000000000000000000101010101010000000000000000000000000000000000000000000000000000000000000000000000000000000000000000000000000000000000000000000000000000000000000000000000
310
00000000000000000000000000000000000000000000000000000000000000000000000000000000000000000000000000000000000000000000000000000000000000000000000000000000000000000000000000000000000000000000000000000000000000000300010300000000000000000000000000000000000000
310
00000000000000000000000000000000000000000000000000000000000000000000000000000000000000000000000000000000000000000000000000000000000000000000000000000000000000000000000000000000000000000000000000000000000000000000000000000000000000000000000000000000000000
310
00000000000000000000000000000000000000000000000000000000000000030303000000000000000000000000000000000000000000000000000000000000000000000000000000000000000000000000000000000000000000000000000000000000000000000000000000000000000000000000000000000000000000
310
00000000000000000000000000000000000000000000000000000000000000000000000000000000000000000000000000000000000000000000000000000000000000000000000000000000000000000000000000010000000000000000000000000000000000000000000000000000000000000000000000000000000000
310
00000000000000000000000000000000000000000000000000000000000000000000000000000000000000000000000000000000000000000000000000000000000000000000000000000000000000000000000000000000000000000000000000000000000000000000000000000000000000000000000000000000000000
310
00000000000000000000000000000000000000000000000000000000000000000000000000000000000000000000000000000000000000000000000000000000000000000000000000000000000000000000000000000000000000000000000000000000000000000000000000000000000000000000000000000000000000
310
00000000000000000000000000000000000000000000000000000000000000000000000000000000000000000000000000000000000000000000000000000303030303000000000000000000000000000000000000000000000000000000000000000000000000000000000000000000000303030303030000000000000000
310
00000000000000000000000000000000000000000000000000000000000000000000000000000000000000000000000000000000000000000000000000000000000000000000000000000000000000000000000000000000000000000000000000000000000000000000000000000000000000030303000300000000000000
310
00000000000000000000000000000000000000000000000000000000000000000000000000000003030001000300000000000000000000000000000000000000000000000000000000000000000000000000000000000000000000000000000000000000000000000000000000000000000000000000000000000000000000
310
00000000000000000000000000000000000000000000000000000000000000000000000000000000000303030003000000000000000000000000000000000000000000000000000000000000000000000000000000000000000000000303000100030000000000000000000000000000000000000000000000000000000000
310
00000000000000000000000000000000000000000000000000000000000000000000000000000000000000000000000000000000000000000000000000000000000000000000000000000000000000000000000000000000000000000000030303000300000000000000000000000000000000000000000000000000000000
310
00000000000000000000000000000000000003030001000300000000000000000000000000000000000000000000000000000000000000000000000000000000000000000000000000000000000000000000000000000000000000000000000000000000000000000000000000000000000000000000000000000000000000
310
00000000000000000000000000000000000000000303030003000000000000000000000000000000000000000000000002020202020200000000000000000000000000000000000303000100030000000000000000000000000000000000000000000000000000000000000000000000000000000000000000000000000000
310
00000000000000000000000000000000000000000000000000000000000000000000000000000000000000000000000000000000000000000000000000000000000000000100000000030303000300000000000000000000000100000000000000000000000202020202020000000000000001000000000000000000030300
310
01000300000000000000000001000000000000000000000000000000000000000000000000000000000000000000000000000000000000000000000000000000000000000000000000000000000000000000000000000000000000000000000000000000000000000000000000000000000000000000000303010303030303
310
03030003000000000000000303030301030303000000000000000000000000000000000000000003010303030303030000000303000100030000000003030303030103030000000000000000000000000000000000000000000000000000000000000000000000000000000000000000000000000000000000000000000000
310
00000000000000000000000000000000000000000000000000000000000000000000000000000000000000000003000100000003030303030303030303030301030000000100000300000000000000000000000000000000000000000301000000000003000303010303030303030300000300000000010003000000000000
310
00000000000000000000000000000000000000000000000000000000000000000000000000000000000000000000000000000000000000000000000000000000000000000000000000000000000000000000000000000000000000000000000000030303010303030303030103030103030301030103030303010303030000
310
00000000000000000000000000000000000003010303030303030303030103010101030303030303030303030303030000000000000000000000000000000000000000000000000000000000000000000000000000000000000000000000000000000000000000000000000000000000000000000000000000000000000000
310
00000000000000000000000000000000000000000000030300000100000003000001000000010000000001030000000100000303030000000000000000000000000000000000000301030000000000000000000001010000000303030303030301030301000000000000000000000000000000000000000000000000000000
310
00000000000000000000000000000000000000000000000000000000000000000000000000000000000000000000000000000000000000000000000000000000000000000000000000000003010000000000000300000100000001000000000103000000000000010303000000000000000000000000000000000000030003
310
00000000000000000000010100000003030303030303000303000000000000000000000000000000000000000000000000000000000000000000000000000000000000000000000000000000000000000000000000000000000000000000000000000000000000000000000000000000000000000000000000000000030303
310
03030300000000000000000001000000010000000001000000000000000303030303030300000000000000000000000000000300000000000000000000000001010000000301030303030300000300000000000000000000000000000000000000000000000000000000000000000000000000000000000000000000000000
310
00000000000000000000000000000000000000000000000000000000000000000000000000000000000000000000000000010301010103030101010101010101010101010101010101010101010101010101030303010101030000000000000000000000000000030000000000000000000000000101000000030103010303
310
03010003000000000000000000000000000000000000000000000000000000000000000000000000000000000000000000000000000000000000000000000000000000000000000000000000000000000000000000000000000000000000000000000000000000030303030303000000000000000000010000000100000000
310
01000000000000000303030303030300000000000000000000000000000300000000000000000000000001010000000301010303010300000300000000000000000000000000000000000000000000000000000000000000000000000000000000000000000000000000000000000000000000000000000000000000000000
310
00000000000000000000000000000000000000000000000000000000000000000003010000000000000000000100000001000000000100000000000000010303000000000000000000000000000000000000030000000000000000000000000101000000030303010003030000030000000000000000000000000000000000
310
00000000000000000000000000000000000000000000000000000000000000000000000000000000000000000000000000000000000000000000000000000000000000000000000000000000000000000000000000000303000000000000000000010000000100000000010000000000000003030000000000000000000000
310
00000000000000000300000000000000000000000001010000000303030303030300000300000000000000000000000000000000000000000000000000000000000000000000000000000000000000000000000000000000000000000000000000000000000000000000000000000000000000000000000000000000000000
310
00000000000000000000000000030000000000000000000100000001000000000100000000000000030000000000000000000000000000000000000000030000000000000000000000000101000000000000000000000101030100000000000000000000000000000000000000000000000000000000000000000000000000
310
00000000000000000000000000000000000000000000000000000000000000000000000000000000000000000000000000000000000000000000000000000000000003000000000000000000010000000100000000010000000000000003000000000000000000000000000000000000000003000000000000000000000000
310
01010000000000000000000000000300000000000000000000000000000000000000000000000000000000000000000000000000000000000000000000000000000000000000000000000000000000000000000000000000000000000000000000000000000000000000000000000000000000000000000303030303030303
310
03030303030303030303030303030303030103030000000000000000000000000000000000000000030301030303030301030303030101030303010303030303030103030000000000000000000000000000000000000000000000000000000000000000000000000000000000000000000000000000000000000000000000
310
00000000000000000000000000000000000000000000000000000000000000000000000000000000000000000000030103030303010301010303010103030101030301030303030303000000000000000000000000000000000000000003030303010303030103030103010101030103030303010303030300000000000000
310
00000000000000000000000000000000000000000000000000000000000000000000000000000000000000000000000000000000000000000000000000000000000000000000000000000000000000000000000000000000000000000000000000000000030303030303030103030303030303030103030303030303030000
310
00000000000000000000000000000000000000000303030303030303030303030303030303030303030103030300000000000000000000000000000000000000000000000000000000000000000000000000000000000000000000000000000000000000000000000000000000000000000000000000000000000000000000
310
00000000000000000000000000000000000000000000000000000000000003030000010003030300030300010003030000000000000000000000000000000000000000000000000000000003030303000000030300010103030300000303030303000000000000000000000000000000000000000000000000000000000000
310
00000000000000000000000000000000000000000000000000000000000000000000000000000000000000000000000000000000000000000000000000000000000000000000000000000000000000000000000000000000000001010100000000000000000000000000000000000000000000000000000000000000000000
310
01010101010100000000000000000000000003010101030000000000000000000000000000000000000000000000000000000000000000000000000000000000000000000000000000000000000000000000000000000000000000000000000000000000000000000000000000000000000000000000000000000000000000
310
00000000000000000000000000000000030300000000000000000000000000000000000000000000000000000000000000000000000003030303000000000000000000000000000303010303000000000000000000000000000000000000000000000000000000000000000000000000000000000000000000000000000000
310
00000000000000000000000000000000000000000000000000000000000000000000000000000000000000000000000000000000000000000000000000000000000000000000010000000000000000000000000000000000000000000000000000000000000000000000000001000000000000000000000000000000000001
310
00000000000000000000000000000000000000000000000000000000000000000000000000000000000000000000000000000000000000000000000000000000000000000000000000000000000000000000000000000000000000000000000000000000000000000000000000000000000000000000000000000000000000
310
00000000000000000000000000000000000000000000000000000000000000000000000000000000000000000000000000000000000000000000000000000000000000000000000000000000000000000000000000000000000000000000000000000000000000000000000000000000000000000000000000000000000000
310
00000000000000000000000000000000000000000000000000000000000000000000000000000000000000000000000000000000000000000000000000000000000000000000000000000000000000000000000000000000000000000000000000000000000000000000000000000000000000000000000000000000000000
310
00000000000000000000000000000000000000000000000000000000000000000000000000000000000000000000000000000000000000000000000000000000000000000000000000000000000000000000000000000000000000000000000000000000000000000000000000000000000000000000000000000000000000
310
00000000000000000000000000000000000000000000000000000000000000000000000000000000000000000000000000000000000000000000000000000000000000000000000000000000000000000000000000000000000000000000000000000000000000000000000000000000000000000000000000000000000000
310
00000000000000000000000000000000000000000000000000000000000000000000000000000000000000000000000000000000000000000000000000000000000000000000000000000000000000000000000000000000000000000000000000000000000000000000000000000000000000000000000000000000000000
310
00000000000000000000000000000000000000000000000000000000000000000000000000000000000000000000000000000000000000000000000000000000000000000000000000000000000000000000000000000000000000000000000000000000000000000000000000000000000000000000000000000000000000
310
00000000000000000000000000000000000000000000000000000000000000000000000000000000000000000000000000000000000000000000000000000000000000000000000000000000000000000000000000000000000000000000000000000000000000000000000000000000000000000000000000000000000000
310
00000000000000000000000000000000000000000000000000000000000000000000000000000000000000000000000000000000000000000000000000000000000000000000000000000000000000000000000000000000000000000000000000000000000000000000000000000000000000000000000000000000000000
310
00000000000000000000000000000000000000000000000000000000000000000000000000000000000000000000000000000000000000000000000000000000000000000000000000000000000000000000000000000000000000000000000000000000000000000000000000000000000000000000000000000000000000
310
00000000000000000000000000000000000000000000000000000000000000000000000000000000000000000000000000000000000000000000000000000000000000000000000000000000000000000000000000000000000000000000000000000000000000000000000000000000000000000000000000000000000000
310
00000000000000000000000000000000000000000000000000000000000000000000000000000000000000000000000000000000000000000000000000000000000000000000000000000000000000000000000000000000000000000000000000000000000000000000000000000000000000000000000000000000000000
310
00000000000000000000000000000000000000000000000000000000000000000000000000000000000000000000000000000000000000000000000000000000000000000000000000000000000000000000000000000000000000000000000000000000000000000000000000000000000000000000000000000000000000
310
00000000000000000000000000000000000000000000000000000000000000000000000000000000000000000000000000000000000000000000000000000000000000000000000000000000000000000000000000000000000000000000000000000000000000000000000000000000000000000000000000000000000000
310
00000000000000000000000000000000000000000000000000000000000000000000000000000000000000000000000000000000000000000000000000000000000000000000000000000000000000000000000000000000000000000000000000000000000000000000000000000000000000000000000000000000000000
310
00000000000000000000000000000000000000000000000000000000000000000000000000000000000000000000000000000000000000000000000000000000000000000000000000000000000000000000000000000000000000000000000000000000000000000000000000000000000000000000000000000000000000
310
00000000000000000000000000000000000000000000000000000000000000000000000000000000000000000000000000000000000000000000000000000000000000000000000000000000000000000000000000000000000000000000000000000000000000000000000000000000000000000000000000000000000000
310
00000000000000000000000000000000000000000000000000000000000000000000000000000000000000000000000000000000000000000000000000000000000000000000000000000000000000000000000000000000000000000000000000000000000000000000000000000000000000000000000000000000000000
310
00000000000000000000000000000000000000000000000000000000000000000000000000000000000000000000000000000000000000000000000000000000000000000000000000000000000000000000000000000000000000000000000000000000000000000000000000000000000000000000000000000000000000
310
00000000000000000000000000000000000000000000000000000000000000000000000000000000000000000000000000000000000000000000000000000000000000000000000000000000000000000000000000000000000000000000000000000000000000000000000000000000000000000000000000000000000000
310
00000000000000000000000000000000000000000000000000000000000000000000000000000000000000000000000000000000000000000000000000000000000000000000000000000000000000000000000000000000000003030303030303000000000303010303000000030303030303030300000000000000000000
310
00000000000000000000000000000000000000000000000000000000000000000000000000000000000000000000000000000000000000000000000000000000000000000000000000000000000000000000000000000000000000000000000000000000000000000000000000000000000000000000000000000000000000
310
00000000000000000000000000000000030001000000030001030303030103030303010300000001000003000000000000000000000000000000000000000000000000000000000000000000000000000000000000000000000000000000000000000000000000000000000000000000000000000000000000000000000000
310
00000000000000000000000000000000000000000000000000000000000000000000000000000000000000000000000000000000000000000000000000000000000000000003010101010003030301030303010303030303030300010101000300000000000000000000000000000000000000000000000000000000000000
310
00000000000000000000000000000000000000000000000000000000000000000000000000000000000000000000000000000000000000000000000000000000000000000000000000000000000000000000000000000000000000000000000000000000000000000000000000000000000000000000000000000300010000
310
03030303030000030300000003030303030001000003000000000000000000000000000000000000000000000000000000000000000000000000000000000000000000000000000000000000000000000000000000000000000000000000000000000000000000000000000000000000000000000000000000000000000000
310
00000000000000000000000000000000000000000000000000000000000000000000000000000000000000000000000003000000030103000003030303030303030000030103030000000300000000000000000000000000000000000000000000000000000000000000000000000000000000000000000000000000000000
310
00000000000000000000000000000000000000000000000000000000000000000000000000000000000000000000000000000000000000000000000000000000000000000000000000000000000000000000000000000000000000000000000000000000000300000303030003030000010303030000030300030303030000
310
03000000000000000000000000000000000000000000000000000000000000000000000000000000000000000000000000000000000000000000000000000000000000000000000000000000000000000000000000000000000000000000000000000000000000000000000000000000000000000000000000000000000000
310
00000000000000000000000000000000000000000000000000000003000303000003000000000003030300000000030000030303000300000000000000000000000000000000000000000000000000000000000000000000000000000000000000000000000000000000000000000000000000000000000000000000000000
310
00000000000000000000000000000000000000000000000000000000000000000000000000000000000000000000000000000000000000000000000000000000000000000000000000000000000000000303010300030000000000000303000000000000030003010300030000000000000000000000000000000000000000
310
00000000000000000000000000000000000000000000000000000000000000000000000000000000000000000000000000000000000000000000000000000000000000000000000000000000000000000000000000000000000000000000000000000000000000000000000000000000000000000000000000000000000000
310
00000000000003030103030000000000000003030300000000000003030303030300000000000000000000000000000000000000000000000000000000000000000000000000000000000000000000000000000000000000000000000000000000000000000000000000000000000000000000000000000000000000000000
310
00000000000000000000000000000000000000000000000000000000000000000000000000000000000000000000000000000000000000000000000103030300000000000100010301030000000100000003030303000000000000000000000000000000000000000000000000000000000000000000000000000000000000
310
00000000000000000000000000000000000000000000000000000000000000000000000000000000000000000000000000000000000000000000000000000000000000000000000000000000000000000000000000000000000000000000000000000000000000000000000000000000030301030000030101010103030300
310
00030301030300030103030300000000000000000000000000000000000000000000000000000000000000000000000000000000000000000000000000000000000000000000000000000000000000000000000000000000000000000000000000000000000000000000000000000000000000000000000000000000000000
310
00000000000000000000000000000000000000000000000000000000000000000000000000000303000300030303030303030301000303010101030100030301030000000000000000000000000000000000000000000000000000000000000000000000000000000000000000000000000000000000000000000000000000
310
00000000000000000000000000000000000000000000000000000000000000000000000000000000000000000000000000000000000000000000000000000000000000000000000000000000000000000000000000000000000003030300030003030300010003030303030303010301030003030103000000000000000000
310
00000000000000000000000000000000000000000000000000000000000000000000000000000000000000000000000000000000000000000000000000000000000000000000000000000000000000000000000000000000000000000000000000000000000000000000000000000000000000000000000000000000000000
310
00000000000000000000000000000000030303030003010300000000000301030103000100030003030301030000000000000000000000000000000000000000000000000000000000000000000000000000000000000000000000000000000000000000000000000000000000000000000000000000000000000000000000
310
00000000000000000000000000000000000000000000000000000000000000000000000000000000000000000000000000000000000000000000000000000000000000000103030303010101030101010101030101010101010101010103010303010000000000000000000000000000000000000000000000000000000000
310
00000000000000000000000000000000000000000000000000000000000000000000000000000000000000000000000000000000000000000000000000000000000000000000000000000000000000000000000000000000000000000000000000000000000000000000000000000000000000000000000000000303030300
310
03010300000100000301030303030103010300030301030000000000000000000000000000000000000000000000000000000000000000000000000000000000000000000000000000000000000000000000000000000000000000000000000000000000000000000000000000000000000000000000000000000000000000
310
00000000000000000000000000000000000000000000000000000000000000000000000000000000000000000000000003030300030301030000010003030100030301010103010003030103000000000000000000000000000000000000000000000000000000000000000000000000000000000000000000000000000000
310
00000000000000000000000000000000000000000000000000000000000000000000000000000000000000000000000000000000000000000000000000000000000000000000000000000000000000000000000000000000000000000000000000000000000003030003000303030303030303030000030301030300000303
310
01030000000000000000000000000000000000000000000000000000000000000000000000000000000000000000000000000000000000000000000000000000000000000000000000000000000000000000000000000000000000000000000000000000000000000000000000000000000000000000000000000000000000
310
00000000000000000000000000000000000000000000000000000000030301030001030101010103030100000000010000000301030303000000000000000000000000000000000000000000000000000000000000000000000000000000000000000000000000000000000000000000000000000000000000000000000000
310
00000000000000000000000000000000000000000000000000000000000000000000000000000000000000000000000000000000000000000000000000000000000000000000000000000000000000030303030300030000030301030000010000000001000000030303030303030000000000000000000000000000000000
310
00000000000000000000000000000000000000000000000000000000000000000000000000000000000000000000000000000000000000000000000000000000000000000000000000000000000000000000000000000000000000000000000000000000000000000000000000000000000000000000000000000000000000
310
00000000000301030301030300000000010000000100000000000000030003030301030300000000000000000000000000000000000000000000000000000000000000000000000000000000000000000000000000000000000000000000000000000000000000000000000000000000000000000000000000000000000000
310
00000000000000000000000000000000000000000000000000000000000000000000000000000000000000000000000000000000000003030303030300030103000300000000000003030000000000000300030103000003030303030300000000000000000000000000000000000000000000000000000000000000000000
310
00000000000000000000000000000000000000000000000000000000000000000000000000000000000000000000000000000000000000000000000000000000000000000000000000000000000000000000000000000000000000000000000000000000000000000000010303030303030101030103010301010101010303
310
03010101010301030103030101030303030303000000000000000000000000000000000000000000000000000000000000000000000000000000000000000000000000000000000000000000000000000000000000000000000000000000000000000000000000000000000000000000000000000000000000000000000000
310
00000000000000000000000000000000000000000000000000000000000000000003030303030300000003010300030300000101010100000303000301030300000003030303030300000000000000000000000000000000000000000000000000000000000000000000000000000000000000000000000000000000000000
310
00000000000000000000000000000000000000000000000000000000000000000000000000000000000000000000000000000000000000000000000000000000000000000000000000000000000000000000000000000000000003010000000003030303010303030303030303010003030303000000010303000000000000
310
00000000000000000000000000000000000000000000000000000000000000000000000000000000000000000000000000000000000000000000000000000000000000000000000000000000000000000000000000000000000000000000000000000000000000000000000000000000000000000000000000000000000000
310
00000000000000000000000000000000030303030303030303010303030000010003030303030303030303030303000000000000000000000000000000000000000000000000000000000000000000000000000000000000000000000000000000000000000000000000000000000000000000000000000000000000000000
310
00000000000000000000000000000000000000000000000000000000000000000000000000000000000000000000000000000000000000000000000000000000000000000000000300010000000303030301030301030103030303000000010000030000000000000000000000000000000000000000000000000000000000
310
00000000000000000000000000000000000000000000000000000000000000000000000000000000000000000000000000000000000000000000000000000000000000000000000000000000000000000000000000000000000000000000000000000000000000000000000000000000000000000000000000000000030101
310
01010003000003030303010303030300030000010101000300000000000000000000000000000000000000000000000000000000000000000000000000000000000000000000000000000000000000000000000000000000000000000000000000000000000000000000000000000000000000000000000000000000000000
310
00000000000000000000000000000000000000000000000000000000000000000000000000000000000000000000000000000300010000000300000000000303030000000003000000010000030000000000000000000000000000000000000000000000000000000000000000000000000000000000000000000000000000
310
00000000000000000000000000000000000000000000000000000000000000000000000000000000000000000000000000000000000000000000000000000000000000000000000000000000000000000000000000000000000000000000000000000000000000030303030303030000000000000000000000000303030303
310
03030300000000000000000000000000000000000000000000000000000000000000000000000000000000000000000000000000000000000000000000000000000000000000000000000000000000000000000000000000000000000000000000000000000000000000000000000000000000000000000000000000000000
310
00000000000000000000000000000000000000000000000000000000000000000000000000000000000000000000000000000000000000000000000000000000000000000000000000000000000000000000000000000000000000000000000000000000000000000000000000000000000000000000000000000000000000
310
00000000000000000000000000000000000000000000000000000000000000000000000000000000000000000000000000000000000000000000000000000000000000000000000000000000000000000000000000000000000000000000000000000000000000000000000000000000000000000000000000000000000000
310
00000000000000000000000000000000000000000000000000000000000000000000000000000000000000000000000000000000000000000000000000000000000000000000000000000000000000000000000000000000000000000000000000000000000000000000000000000000000000000000000000000000000000
310
00000000000000000000000000000000000000000000000000000000000000000000000000000000000000000000000000000000000000000000000000000000000000000000000000000000000000000000000000000000000000000000000000000000000000000000000000000000000000000000000000000000000000
310
00000000000000000000000000000000000000000000000000000000000000000000000000000000000000000000000000000000000000000000000000000000000000000000000000000000000000000000000000000000000000000000000000000000000000000000000000000000000000000000000000000000000000
310
00000000000000000000000000000000000000000000000000000000000000000000000000000000000000000000000000000000000000000000000000000000000000000000000000000000000000000000000000000000000000000000000000000000000000000000000000000000000000000000000000000000000000
310
00000000000000000000000000000000000000000000000000000000000000000000000000000000000000000000000000000000000000000000000000000000000000000000000000000000000000000000000000000000000000000000000000000000000000000000000000000000000000000000000000000000000000
310
00000000000000000000000000000000000000000000000000000000000000000000000000000000000000000000000000000000000000000000000000000000000000000000000000000000000000000000000000000000000000000000000000000000000000000000000000000000000000000000000000000000000000
310
00000000000000000000000000000000000000000000000000000000000000000000000000000000000000000000000000000000000000000000000000000000000000000000000000000000000000000000000000000000000000000000000000000000000000000000000000000000000000000000000000000000000000
310
000000000000000000000000000000000000000000000000000000000000000000000000000000000000000000000000000000000000000000000000000000000000000000000000000000000000000000000000000000000000000000000000000000000000000000000000
  0
ENDSEC
  0
EOF
