  0
SECTION
  2
HEADER
  9
$ACADVER
  1
AC1015
  9
$ACADMAINTVER
 70
     6
  9
$DWGCODEPAGE
  3
ANSI_932
  9
$INSBASE
 10
2338.924747886368
 20
1439.730190057071
 30
0.0
  9
$EXTMIN
 10
287.7872031996358
 20
38.68835933030846
 30
0.0
  9
$EXTMAX
 10
2152.820648627123
 20
1747.981987576494
 30
0.0
  9
$LIMMIN
 10
0.0
 20
0.0
  9
$LIMMAX
 10
4200.0
 20
2970.0
  9
$ORTHOMODE
 70
     1
  9
$REGENMODE
 70
     1
  9
$FILLMODE
 70
     1
  9
$QTEXTMODE
 70
     0
  9
$MIRRTEXT
 70
     1
  9
$LTSCALE
 40
30.0
  9
$ATTMODE
 70
     1
  9
$TEXTSIZE
 40
12.0
  9
$TRACEWID
 40
0.05
  9
$TEXTSTYLE
  7
STANDARD
  9
$CLAYER
  8
2
  9
$CELTYPE
  6
BYLAYER
  9
$CECOLOR
 62
   256
  9
$CELTSCALE
 40
1.0
  9
$DISPSILH
 70
     0
  9
$DIMSCALE
 40
6.0
  9
$DIMASZ
 40
2.0
  9
$DIMEXO
 40
0.5
  9
$DIMDLI
 40
0.0
  9
$DIMRND
 40
0.0
  9
$DIMDLE
 40
0.0
  9
$DIMEXE
 40
1.0
  9
$DIMTP
 40
0.0
  9
$DIMTM
 40
0.0
  9
$DIMTXT
 40
3.0
  9
$DIMCEN
 40
0.09
  9
$DIMTSZ
 40
0.0
  9
$DIMTOL
 70
     0
  9
$DIMLIM
 70
     0
  9
$DIMTIH
 70
     0
  9
$DIMTOH
 70
     0
  9
$DIMSE1
 70
     0
  9
$DIMSE2
 70
     0
  9
$DIMTAD
 70
     0
  9
$DIMZIN
 70
     8
  9
$DIMBLK
  1

  9
$DIMASO
 70
     0
  9
$DIMSHO
 70
     0
  9
$DIMPOST
  1

  9
$DIMAPOST
  1

  9
$DIMALT
 70
     0
  9
$DIMALTD
 70
     2
  9
$DIMALTF
 40
25.4
  9
$DIMLFAC
 40
1.0
  9
$DIMTOFL
 70
     1
  9
$DIMTVP
 40
1.0
  9
$DIMTIX
 70
     1
  9
$DIMSOXD
 70
     1
  9
$DIMSAH
 70
     0
  9
$DIMBLK1
  1

  9
$DIMBLK2
  1

  9
$DIMSTYLE
  2
STANDARD
  9
$DIMCLRD
 70
   256
  9
$DIMCLRE
 70
   256
  9
$DIMCLRT
 70
     2
  9
$DIMTFAC
 40
1.0
  9
$DIMGAP
 40
0.09
  9
$DIMJUST
 70
     0
  9
$DIMSD1
 70
     0
  9
$DIMSD2
 70
     0
  9
$DIMTOLJ
 70
     1
  9
$DIMTZIN
 70
     0
  9
$DIMALTZ
 70
     0
  9
$DIMALTTZ
 70
     0
  9
$DIMUPT
 70
     0
  9
$DIMDEC
 70
     3
  9
$DIMTDEC
 70
     3
  9
$DIMALTU
 70
     2
  9
$DIMALTTD
 70
     2
  9
$DIMTXSTY
  7
STANDARD
  9
$DIMAUNIT
 70
     0
  9
$DIMADEC
 70
     0
  9
$DIMALTRND
 40
0.0
  9
$DIMAZIN
 70
     0
  9
$DIMDSEP
 70
    46
  9
$DIMATFIT
 70
     3
  9
$DIMFRAC
 70
     0
  9
$DIMLDRBLK
  1

  9
$DIMLUNIT
 70
     2
  9
$DIMLWD
 70
    -2
  9
$DIMLWE
 70
    -2
  9
$DIMTMOVE
 70
     0
  9
$LUNITS
 70
     2
  9
$LUPREC
 70
     3
  9
$SKETCHINC
 40
0.1
  9
$FILLETRAD
 40
15.0
  9
$AUNITS
 70
     0
  9
$AUPREC
 70
     3
  9
$MENU
  1
C:\R13\WIN\SUPPORT\ACADFULL
  9
$ELEVATION
 40
0.0
  9
$PELEVATION
 40
0.0
  9
$THICKNESS
 40
0.0
  9
$LIMCHECK
 70
     0
  9
$CHAMFERA
 40
0.0
  9
$CHAMFERB
 40
0.0
  9
$CHAMFERC
 40
0.0
  9
$CHAMFERD
 40
0.0
  9
$SKPOLY
 70
     0
  9
$TDCREATE
 40
2450157.58412037
  9
$TDUCREATE
 40
2450157.20912037
  9
$TDUPDATE
 40
2458115.672064549
  9
$TDUUPDATE
 40
2458115.297064549
  9
$TDINDWG
 40
0.6429588657
  9
$TDUSRTIMER
 40
0.6429563657
  9
$USRTIMER
 70
     1
  9
$ANGBASE
 50
0.0
  9
$ANGDIR
 70
     0
  9
$PDMODE
 70
     0
  9
$PDSIZE
 40
0.0
  9
$PLINEWID
 40
0.0
  9
$SPLFRAME
 70
     0
  9
$SPLINETYPE
 70
     6
  9
$SPLINESEGS
 70
     8
  9
$HANDSEED
  5
70D
  9
$SURFTAB1
 70
     6
  9
$SURFTAB2
 70
     6
  9
$SURFTYPE
 70
     6
  9
$SURFU
 70
     6
  9
$SURFV
 70
     6
  9
$UCSBASE
  2

  9
$UCSNAME
  2

  9
$UCSORG
 10
0.0
 20
0.0
 30
0.0
  9
$UCSXDIR
 10
1.0
 20
0.0
 30
0.0
  9
$UCSYDIR
 10
0.0
 20
1.0
 30
0.0
  9
$UCSORTHOREF
  2

  9
$UCSORTHOVIEW
 70
     0
  9
$UCSORGTOP
 10
0.0
 20
0.0
 30
0.0
  9
$UCSORGBOTTOM
 10
0.0
 20
0.0
 30
0.0
  9
$UCSORGLEFT
 10
0.0
 20
0.0
 30
0.0
  9
$UCSORGRIGHT
 10
0.0
 20
0.0
 30
0.0
  9
$UCSORGFRONT
 10
0.0
 20
0.0
 30
0.0
  9
$UCSORGBACK
 10
0.0
 20
0.0
 30
0.0
  9
$PUCSBASE
  2

  9
$PUCSNAME
  2

  9
$PUCSORG
 10
0.0
 20
0.0
 30
0.0
  9
$PUCSXDIR
 10
1.0
 20
0.0
 30
0.0
  9
$PUCSYDIR
 10
0.0
 20
1.0
 30
0.0
  9
$PUCSORTHOREF
  2

  9
$PUCSORTHOVIEW
 70
     0
  9
$PUCSORGTOP
 10
0.0
 20
0.0
 30
0.0
  9
$PUCSORGBOTTOM
 10
0.0
 20
0.0
 30
0.0
  9
$PUCSORGLEFT
 10
0.0
 20
0.0
 30
0.0
  9
$PUCSORGRIGHT
 10
0.0
 20
0.0
 30
0.0
  9
$PUCSORGFRONT
 10
0.0
 20
0.0
 30
0.0
  9
$PUCSORGBACK
 10
0.0
 20
0.0
 30
0.0
  9
$USERI1
 70
     0
  9
$USERI2
 70
     0
  9
$USERI3
 70
     0
  9
$USERI4
 70
     0
  9
$USERI5
 70
     0
  9
$USERR1
 40
0.0
  9
$USERR2
 40
0.0
  9
$USERR3
 40
0.0
  9
$USERR4
 40
2448925.372986111
  9
$USERR5
 40
0.04166667
  9
$WORLDVIEW
 70
     1
  9
$SHADEDGE
 70
     3
  9
$SHADEDIF
 70
    70
  9
$TILEMODE
 70
     1
  9
$MAXACTVP
 70
    16
  9
$PINSBASE
 10
0.0
 20
0.0
 30
0.0
  9
$PLIMCHECK
 70
     0
  9
$PEXTMIN
 10
1000000000000000E+20
 20
1000000000000000E+20
 30
1000000000000000E+20
  9
$PEXTMAX
 10
-1000000000000000E+20
 20
-1000000000000000E+20
 30
-1000000000000000E+20
  9
$PLIMMIN
 10
0.0
 20
0.0
  9
$PLIMMAX
 10
12.0
 20
9.0
  9
$UNITMODE
 70
     0
  9
$VISRETAIN
 70
     0
  9
$PLINEGEN
 70
     0
  9
$PSLTSCALE
 70
     0
  9
$TREEDEPTH
 70
  3020
  9
$CMLSTYLE
  2
STANDARD
  9
$CMLJUST
 70
     0
  9
$CMLSCALE
 40
1.0
  9
$PROXYGRAPHICS
 70
     1
  9
$MEASUREMENT
 70
     0
  9
$CELWEIGHT
370
    -1
  9
$ENDCAPS
280
     0
  9
$JOINSTYLE
280
     0
  9
$LWDISPLAY
290
     0
  9
$INSUNITS
 70
     0
  9
$HYPERLINKBASE
  1

  9
$STYLESHEET
  1
monochrome.ctb
  9
$XEDIT
290
     1
  9
$CEPSNTYPE
380
     0
  9
$PSTYLEMODE
290
     1
  9
$FINGERPRINTGUID
  2
{87F7F482-FC05-461E-99B3-FD1EC1C4D1BB}
  9
$VERSIONGUID
  2
{2C917999-45BD-40D5-9508-2847F087CD07}
  9
$EXTNAMES
290
     1
  9
$PSVPSCALE
 40
0.0
  9
$OLESTARTUP
290
     0
  0
ENDSEC
  0
SECTION
  2
CLASSES
  0
CLASS
  1
ACDBDICTIONARYWDFLT
  2
AcDbDictionaryWithDefault
  3
ObjectDBX Classes
 90
        0
280
     0
281
     0
  0
CLASS
  1
MATERIAL
  2
AcDbMaterial
  3
ObjectDBX Classes
 90
     1153
280
     0
281
     0
  0
CLASS
  1
SORTENTSTABLE
  2
AcDbSortentsTable
  3
ObjectDBX Classes
 90
        0
280
     0
281
     0
  0
CLASS
  1
VISUALSTYLE
  2
AcDbVisualStyle
  3
ObjectDBX Classes
 90
     4095
280
     0
281
     0
  0
CLASS
  1
SCALE
  2
AcDbScale
  3
ObjectDBX Classes
 90
     1153
280
     0
281
     0
  0
CLASS
  1
DICTIONARYVAR
  2
AcDbDictionaryVar
  3
ObjectDBX Classes
 90
        0
280
     0
281
     0
  0
CLASS
  1
MLEADERSTYLE
  2
AcDbMLeaderStyle
  3
ACDB_MLEADERSTYLE_CLASS
 90
     4095
280
     0
281
     0
  0
CLASS
  1
TABLESTYLE
  2
AcDbTableStyle
  3
ObjectDBX Classes
 90
     4095
280
     0
281
     0
  0
CLASS
  1
ACDBPLACEHOLDER
  2
AcDbPlaceHolder
  3
ObjectDBX Classes
 90
        0
280
     0
281
     0
  0
CLASS
  1
LAYOUT
  2
AcDbLayout
  3
ObjectDBX Classes
 90
        0
280
     0
281
     0
  0
ENDSEC
  0
SECTION
  2
TABLES
  0
TABLE
  2
VPORT
  5
2C
102
{ACAD_XDICTIONARY
360
6D2
102
}
330
0
100
AcDbSymbolTable
 70
     1
  0
VPORT
  5
34
330
2C
100
AcDbSymbolTableRecord
100
AcDbViewportTableRecord
  2
*ACTIVE
 70
     0
 10
0.0
 20
0.0
 11
1.0
 21
1.0
 12
235.3161792907322
 22
672.999183609917
 13
0.0
 23
0.0
 14
1.0
 24
1.0
 15
40.0
 25
40.0
 16
0.0
 26
0.0
 36
1138.438156774555
 17
1497.696919839021
 27
159.1917999344669
 37
0.0
 40
2042.671742903822
 41
1.82716049382716
 42
50.0
 43
0.0
 44
0.0
 50
0.0
 51
0.0
 71
     0
 72
  5000
 73
     1
 74
     0
 75
     0
 76
     0
 77
     0
 78
     0
281
     0
 65
     1
110
0.0
120
0.0
130
0.0
111
1.0
121
0.0
131
0.0
112
0.0
122
1.0
132
0.0
 79
     0
146
0.0
1001
ACAD_NAV_VCDISPLAY
1070
     3
  0
ENDTAB
  0
TABLE
  2
LTYPE
  5
D
330
0
100
AcDbSymbolTable
 70
     2
  0
LTYPE
  5
E
330
D
100
AcDbSymbolTableRecord
100
AcDbLinetypeTableRecord
  2
BYBLOCK
 70
     0
  3

 72
    65
 73
     0
 40
0.0
  0
LTYPE
  5
F
330
D
100
AcDbSymbolTableRecord
100
AcDbLinetypeTableRecord
  2
BYLAYER
 70
     0
  3

 72
    65
 73
     0
 40
0.0
  0
LTYPE
  5
C
330
D
100
AcDbSymbolTableRecord
100
AcDbLinetypeTableRecord
  2
CONTINUOUS
 70
     0
  3
Solid line
 72
    65
 73
     0
 40
0.0
  0
LTYPE
  5
79
330
D
100
AcDbSymbolTableRecord
100
AcDbLinetypeTableRecord
  2
CENTER
 70
     0
  3
____ _ ____ _ ____ _ ____ _ ____ _ ____ _ ____
 72
    65
 73
     4
 40
2.0
 49
1.25
 74
     0
 49
-0.25
 74
     0
 49
0.25
 74
     0
 49
-0.25
 74
     0
  0
ENDTAB
  0
TABLE
  2
LAYER
  5
2
102
{ACAD_XDICTIONARY
360
3
102
}
330
0
100
AcDbSymbolTable
 70
     8
  0
LAYER
  5
1D
102
{ACAD_XDICTIONARY
360
1E
102
}
330
2
100
AcDbSymbolTableRecord
100
AcDbLayerTableRecord
  2
0
 70
     0
 62
     7
  6
CONTINUOUS
370
    -3
390
7
  0
LAYER
  5
6D
102
{ACAD_XDICTIONARY
360
6E
102
}
330
2
100
AcDbSymbolTableRecord
100
AcDbLayerTableRecord
  2
4
 70
     0
 62
     3
  6
CONTINUOUS
370
    -3
390
7
  0
LAYER
  5
76
102
{ACAD_XDICTIONARY
360
77
102
}
330
2
100
AcDbSymbolTableRecord
100
AcDbLayerTableRecord
  2
L-CENTER
 70
     0
 62
     1
  6
CENTER
370
    -3
390
7
  0
LAYER
  5
3CF
102
{ACAD_XDICTIONARY
360
3D0
102
}
330
2
100
AcDbSymbolTableRecord
100
AcDbLayerTableRecord
  2
1
 70
     0
 62
     9
  6
CONTINUOUS
370
    -3
390
7
  0
LAYER
  5
1
102
{ACAD_XDICTIONARY
360
5
102
}
330
2
100
AcDbSymbolTableRecord
100
AcDbLayerTableRecord
  2
2
 70
     0
 62
     4
  6
CONTINUOUS
370
    -3
390
7
  0
LAYER
  5
7B
330
2
100
AcDbSymbolTableRecord
100
AcDbLayerTableRecord
  2
3
 70
     0
 62
     2
  6
CONTINUOUS
370
    -3
390
7
1001
AcAecLayerStandard
1000

1000

1001
AcCmTransparency
1071
        0
  0
LAYER
  5
3C9
330
2
100
AcDbSymbolTableRecord
100
AcDbLayerTableRecord
  2
5
 70
     0
 62
     6
  6
CONTINUOUS
370
    -3
390
7
  0
LAYER
  5
66A
330
2
100
AcDbSymbolTableRecord
100
AcDbLayerTableRecord
  2
Defpoints
 70
     0
 62
     7
  6
CONTINUOUS
290
     0
370
    -3
390
7
  0
ENDTAB
  0
TABLE
  2
STYLE
  5
11
330
0
100
AcDbSymbolTable
 70
     2
  0
STYLE
  5
10
330
11
100
AcDbSymbolTableRecord
100
AcDbTextStyleTableRecord
  2
STANDARD
 70
     0
 40
0.0
 41
1.0
 50
0.0
 71
     0
 42
12.0
  3
TXT
  4

  0
STYLE
  5
15
330
11
100
AcDbSymbolTableRecord
100
AcDbTextStyleTableRecord
  2
KANJI
 70
     0
 40
0.0
 41
1.0
 50
0.0
 71
     0
 42
12.0
  3
TXT
  4
BIGFONT
  0
ENDTAB
  0
TABLE
  2
VIEW
  5
2A
330
0
100
AcDbSymbolTable
 70
     0
  0
ENDTAB
  0
TABLE
  2
UCS
  5
2B
330
0
100
AcDbSymbolTable
 70
     0
  0
ENDTAB
  0
TABLE
  2
APPID
  5
25
330
0
100
AcDbSymbolTable
 70
     6
  0
APPID
  5
33
330
25
100
AcDbSymbolTableRecord
100
AcDbRegAppTableRecord
  2
ACAD
 70
     0
  0
APPID
  5
36
330
25
100
AcDbSymbolTableRecord
100
AcDbRegAppTableRecord
  2
ACAD_NAV_VCDISPLAY
 70
     0
  0
APPID
  5
7C
330
25
100
AcDbSymbolTableRecord
100
AcDbRegAppTableRecord
  2
AcAecLayerStandard
 70
     0
  0
APPID
  5
7D
330
25
100
AcDbSymbolTableRecord
100
AcDbRegAppTableRecord
  2
AcCmTransparency
 70
     0
  0
APPID
  5
24
330
25
100
AcDbSymbolTableRecord
100
AcDbRegAppTableRecord
  2
ACAD_PSEXT
 70
     0
  0
APPID
  5
636
330
25
100
AcDbSymbolTableRecord
100
AcDbRegAppTableRecord
  2
ACAD_MLEADERVER
 70
     0
  0
ENDTAB
  0
TABLE
  2
DIMSTYLE
  5
14
330
0
100
AcDbSymbolTable
 70
     1
100
AcDbDimStyleTable
  0
DIMSTYLE
105
13
330
14
100
AcDbSymbolTableRecord
100
AcDbDimStyleTableRecord
  2
STANDARD
 70
     0
178
     0
271
     3
272
     3
279
     2
340
15
  0
ENDTAB
  0
TABLE
  2
BLOCK_RECORD
  5
18
330
0
100
AcDbSymbolTable
 70
     0
  0
BLOCK_RECORD
  5
19
102
{ACAD_XDICTIONARY
360
1A
102
}
330
18
100
AcDbSymbolTableRecord
100
AcDbBlockTableRecord
  2
*MODEL_SPACE
340
21
  0
BLOCK_RECORD
  5
26
330
18
100
AcDbSymbolTableRecord
100
AcDbBlockTableRecord
  2
*PAPER_SPACE
340
29
  0
ENDTAB
  0
ENDSEC
  0
SECTION
  2
BLOCKS
  0
BLOCK
  5
1C
330
19
100
AcDbEntity
  8
0
100
AcDbBlockBegin
  2
*MODEL_SPACE
 70
     0
 10
0.0
 20
0.0
 30
0.0
  3
*MODEL_SPACE
  1

  0
ENDBLK
  5
20
330
19
100
AcDbEntity
  8
0
100
AcDbBlockEnd
  0
BLOCK
  5
27
330
26
100
AcDbEntity
 67
     1
  8
0
100
AcDbBlockBegin
  2
*PAPER_SPACE
 70
     0
 10
0.0
 20
0.0
 30
0.0
  3
*PAPER_SPACE
  1

  0
ENDBLK
  5
28
330
26
100
AcDbEntity
 67
     1
  8
0
100
AcDbBlockEnd
  0
ENDSEC
  0
SECTION
  2
ENTITIES
  0
LINE
  5
6C
330
19
100
AcDbEntity
  8
4
100
AcDbLine
 10
773.9298662783461
 20
509.8727547570963
 30
0.0
 11
751.9905560491401
 21
509.8727547570963
 31
0.0
  0
LINE
  5
70
330
19
100
AcDbEntity
  8
4
100
AcDbLine
 10
773.9298662783461
 20
506.8727547570963
 30
0.0
 11
751.9905560491401
 21
506.8727547570963
 31
0.0
  0
LINE
  5
71
330
19
100
AcDbEntity
  8
4
100
AcDbLine
 10
754.7329698277912
 20
517.8727547570963
 30
0.0
 11
771.187452499695
 21
517.8727547570963
 31
0.0
  0
ARC
  5
72
330
19
100
AcDbEntity
  8
4
100
AcDbCircle
 10
762.9602111637436
 20
504.077010621919
 30
0.0
 40
13.7957441351769
100
AcDbArc
 50
66.57340249137164
 51
113.4265975086284
  0
LINE
  5
7F
330
19
100
AcDbEntity
  8
4
100
AcDbLine
 10
972.1551814542162
 20
233.8727547570963
 30
0.0
 11
324.1551814542162
 21
233.8727547570963
 31
0.0
  0
LINE
  5
80
330
19
100
AcDbEntity
  8
L-CENTER
100
AcDbLine
 10
1117.430083894877
 20
333.8727547570973
 30
0.0
 11
293.9450227871308
 21
333.8727547570973
 31
0.0
  0
LINE
  5
81
330
19
100
AcDbEntity
  8
4
100
AcDbLine
 10
798.1551814542171
 20
242.8727547570963
 30
0.0
 11
498.1551814542171
 21
242.8727547570963
 31
0.0
  0
LINE
  5
82
330
19
100
AcDbEntity
  8
4
100
AcDbLine
 10
972.1551814542171
 20
478.8727547570963
 30
0.0
 11
324.1551814542171
 21
478.8727547570963
 31
0.0
  0
LINE
  5
83
330
19
100
AcDbEntity
  8
4
100
AcDbLine
 10
363.1551814542171
 20
522.8727547570963
 30
0.0
 11
933.1551814542171
 21
522.8727547570963
 31
0.0
  0
LINE
  5
84
330
19
100
AcDbEntity
  8
4
100
AcDbLine
 10
963.1550393793394
 20
506.8727547570963
 30
0.0
 11
333.1550393793394
 21
506.8727547570963
 31
0.0
  0
LINE
  5
85
330
19
100
AcDbEntity
  8
4
100
AcDbLine
 10
933.1550393793394
 20
522.8727547570963
 30
0.0
 11
363.1550393793394
 21
522.8727547570963
 31
0.0
  0
LINE
  5
86
330
19
100
AcDbEntity
  8
4
100
AcDbLine
 10
863.1550393793394
 20
537.8727547570963
 30
0.0
 11
683.1550393793394
 21
537.8727547570963
 31
0.0
  0
LINE
  5
87
330
19
100
AcDbEntity
  8
4
100
AcDbLine
 10
798.1550393793394
 20
218.8727547570963
 30
0.0
 11
683.1550393793394
 21
218.8727547570963
 31
0.0
  0
LINE
  5
97
330
19
100
AcDbEntity
  8
L-CENTER
100
AcDbLine
 10
648.1551814542171
 20
210.2286986875163
 30
0.0
 11
648.1551814542171
 21
621.6592186431669
 31
0.0
  0
LINE
  5
98
330
19
100
AcDbEntity
  8
4
100
AcDbLine
 10
324.1551814542171
 20
478.8727547570963
 30
0.0
 11
324.1551814542162
 21
233.8727547570963
 31
0.0
  0
LINE
  5
99
330
19
100
AcDbEntity
  8
4
100
AcDbLine
 10
312.1551814542171
 20
408.8727547570973
 30
0.0
 11
312.1551814542171
 21
258.8727547570982
 31
0.0
  0
LINE
  5
9A
330
19
100
AcDbEntity
  8
4
100
AcDbLine
 10
300.1551814542162
 20
405.8727547570973
 30
0.0
 11
300.1551814542162
 21
261.8727547570982
 31
0.0
  0
LINE
  5
9B
330
19
100
AcDbEntity
  8
L-CENTER
100
AcDbLine
 10
551.8070393793386
 20
723.0571501838874
 30
0.0
 11
551.8070393793395
 21
38.68835933030891
 31
0.0
  0
LINE
  5
9C
330
19
100
AcDbEntity
  8
4
100
AcDbLine
 10
486.1551814542171
 20
242.8727547570963
 30
0.0
 11
324.1551814542162
 21
242.8727547570963
 31
0.0
  0
LINE
  5
9D
330
19
100
AcDbEntity
  8
4
100
AcDbLine
 10
498.1551814542162
 20
193.8727547570963
 30
0.0
 11
338.1551814542162
 21
193.8727547570963
 31
0.0
  0
ARC
  5
9E
330
19
100
AcDbEntity
  8
4
100
AcDbCircle
 10
304.4343467516754
 20
282.6077547570969
 30
0.0
 40
13.77916529745958
100
AcDbArc
 50
159.1359356360806
 51
200.8640643639194
  0
LINE
  5
9F
330
19
100
AcDbEntity
  8
4
100
AcDbLine
 10
290.6551814542162
 20
289.9689706892643
 30
0.0
 11
290.6551814542162
 21
275.2465388249295
 31
0.0
  0
LINE
  5
A0
330
19
100
AcDbEntity
  8
4
100
AcDbLine
 10
297.6551814542162
 20
272.7928001808734
 30
0.0
 11
297.6551814542162
 21
292.4227093333213
 31
0.0
  0
LINE
  5
A1
330
19
100
AcDbEntity
  8
4
100
AcDbLine
 10
300.1551814542162
 20
272.7928001808734
 30
0.0
 11
300.1551814542162
 21
292.4227093333213
 31
0.0
  0
LINE
  5
A2
330
19
100
AcDbEntity
  8
4
100
AcDbLine
 10
338.1551814542162
 20
233.8727547570963
 30
0.0
 11
338.1551814542162
 21
193.8727547570963
 31
0.0
  0
LINE
  5
A3
330
19
100
AcDbEntity
  8
4
 48
0.8
100
AcDbLine
 10
324.1551814542171
 20
258.8727547570982
 30
0.0
 11
312.1551814542171
 21
258.8727547570982
 31
0.0
  0
LINE
  5
A4
330
19
100
AcDbEntity
  8
4
100
AcDbLine
 10
324.1551814542171
 20
258.8727547570973
 30
0.0
 11
312.1551814542171
 21
258.8727547570982
 31
0.0
  0
LINE
  5
A5
330
19
100
AcDbEntity
  8
L-CENTER
100
AcDbLine
 10
328.2462581519929
 20
282.6077547570969
 30
0.0
 11
287.7872031996357
 21
282.6077547570969
 31
0.0
  0
LINE
  5
A6
330
19
100
AcDbEntity
  8
4
 48
0.8
100
AcDbLine
 10
300.1551814542171
 20
261.8727547570973
 30
0.0
 11
312.1551814542162
 21
261.8727547570973
 31
0.0
  0
LINE
  5
A7
330
19
100
AcDbEntity
  8
4
100
AcDbLine
 10
291.5587084000689
 20
277.7002774689847
 30
0.0
 11
297.6551814542162
 21
277.7002774689847
 31
0.0
  0
LINE
  5
A8
330
19
100
AcDbEntity
  8
4
100
AcDbLine
 10
291.5587084000689
 20
272.7928001808734
 30
0.0
 11
300.1551814542162
 21
272.7928001808734
 31
0.0
  0
ARC
  5
A9
330
19
100
AcDbEntity
  8
4
100
AcDbCircle
 10
294.4387953832755
 20
275.2465388249295
 30
0.0
 40
3.783613929059507
100
AcDbArc
 50
139.5701031551772
 51
220.4298968448228
  0
LINE
  5
AA
330
19
100
AcDbEntity
  8
L-CENTER
100
AcDbLine
 10
398.1551814542162
 20
253.8727547570963
 30
0.0
 11
398.1551814542171
 21
173.8727547570973
 31
0.0
  0
LINE
  5
AB
330
19
100
AcDbEntity
  8
4
100
AcDbLine
 10
291.5587084000689
 20
287.5152320452091
 30
0.0
 11
297.6551814542162
 21
287.5152320452091
 31
0.0
  0
ARC
  5
AC
330
19
100
AcDbEntity
  8
4
100
AcDbCircle
 10
294.4387953832755
 20
289.9689706892643
 30
0.0
 40
3.783613929059507
100
AcDbArc
 50
139.5701031551772
 51
220.4298968448228
  0
LINE
  5
AD
330
19
100
AcDbEntity
  8
4
100
AcDbLine
 10
300.1551814542162
 20
292.4227093333213
 30
0.0
 11
291.5587084000689
 21
292.4227093333213
 31
0.0
  0
LINE
  5
AE
330
19
100
AcDbEntity
  8
L-CENTER
100
AcDbLine
 10
328.2462581519929
 20
385.1377547570976
 30
0.0
 11
287.7872031996357
 21
385.1377547570976
 31
0.0
  0
ARC
  5
AF
330
19
100
AcDbEntity
  8
4
100
AcDbCircle
 10
294.4387953832755
 20
392.498970689265
 30
0.0
 40
3.783613929059507
100
AcDbArc
 50
139.5701031551772
 51
220.4298968448228
  0
LINE
  5
B0
330
19
100
AcDbEntity
  8
4
100
AcDbLine
 10
300.1551814542162
 20
394.9527093333202
 30
0.0
 11
291.5587084000689
 21
394.9527093333202
 31
0.0
  0
LINE
  5
B1
330
19
100
AcDbEntity
  8
4
100
AcDbLine
 10
290.6551814542162
 20
392.498970689265
 30
0.0
 11
290.6551814542162
 21
377.7765388249293
 31
0.0
  0
LINE
  5
B2
330
19
100
AcDbEntity
  8
4
100
AcDbLine
 10
297.6551814542162
 20
375.3228001808732
 30
0.0
 11
297.6551814542162
 21
394.9527093333202
 31
0.0
  0
LINE
  5
B3
330
19
100
AcDbEntity
  8
4
100
AcDbLine
 10
300.1551814542162
 20
375.3228001808732
 30
0.0
 11
300.1551814542162
 21
394.9527093333202
 31
0.0
  0
LINE
  5
B4
330
19
100
AcDbEntity
  8
4
100
AcDbLine
 10
291.5587084000689
 20
390.0452320452089
 30
0.0
 11
297.6551814542162
 21
390.0452320452089
 31
0.0
  0
LINE
  5
B5
330
19
100
AcDbEntity
  8
4
100
AcDbLine
 10
291.5587084000689
 20
380.2302774689854
 30
0.0
 11
297.6551814542162
 21
380.2302774689854
 31
0.0
  0
ARC
  5
B6
330
19
100
AcDbEntity
  8
4
100
AcDbCircle
 10
304.4343467516754
 20
385.1377547570976
 30
0.0
 40
13.77916529745958
100
AcDbArc
 50
159.1359356360806
 51
200.8640643639194
  0
LINE
  5
B7
330
19
100
AcDbEntity
  8
4
100
AcDbLine
 10
291.5587084000689
 20
375.3228001808732
 30
0.0
 11
300.1551814542162
 21
375.3228001808732
 31
0.0
  0
ARC
  5
B8
330
19
100
AcDbEntity
  8
4
100
AcDbCircle
 10
294.4387953832755
 20
377.7765388249293
 30
0.0
 40
3.783613929059507
100
AcDbArc
 50
139.5701031551772
 51
220.4298968448228
  0
LINE
  5
B9
330
19
100
AcDbEntity
  8
4
100
AcDbLine
 10
666.8070393793395
 20
218.8727547570963
 30
0.0
 11
498.1550393793394
 21
218.8727547570963
 31
0.0
  0
LINE
  5
BA
330
19
100
AcDbEntity
  8
4
100
AcDbLine
 10
498.1551814542171
 20
278.2805239309375
 30
0.0
 11
498.1551814542162
 21
193.8727547570963
 31
0.0
  0
LINE
  5
BB
330
19
100
AcDbEntity
  8
4
100
AcDbLine
 10
486.1551814542171
 20
278.2805239309375
 30
0.0
 11
486.1551814542171
 21
233.8727547570963
 31
0.0
  0
LINE
  5
BC
330
19
100
AcDbEntity
  8
4
100
AcDbLine
 10
498.1551814542171
 20
278.2805239309375
 30
0.0
 11
486.1551814542162
 21
278.2805239309375
 31
0.0
  0
LINE
  5
BD
330
19
100
AcDbEntity
  8
L-CENTER
100
AcDbLine
 10
551.8070393793395
 20
402.8727547570982
 30
0.0
 11
551.8070393793395
 21
402.8727547570982
 31
0.0
  0
LINE
  5
BE
330
19
100
AcDbEntity
  8
L-CENTER
100
AcDbLine
 10
622.5177174979951
 20
247.3087101747085
 30
0.0
 11
622.5177174979951
 21
206.5047765025167
 31
0.0
  0
LINE
  5
BF
330
19
100
AcDbEntity
  8
4
100
AcDbLine
 10
683.1550393793394
 20
218.8727547570963
 30
0.0
 11
683.1550393793394
 21
233.8727547570963
 31
0.0
  0
LINE
  5
C0
330
19
100
AcDbEntity
  8
4
100
AcDbLine
 10
666.8070393793395
 20
218.8727547570963
 30
0.0
 11
666.8070393793395
 21
233.8727547570963
 31
0.0
  0
ARC
  5
C1
330
19
100
AcDbEntity
  8
4
100
AcDbCircle
 10
615.1565015658268
 20
213.1563686861557
 30
0.0
 40
3.783613929059507
100
AcDbArc
 50
229.5701031551699
 51
310.4298968448301
  0
LINE
  5
C2
330
19
100
AcDbEntity
  8
4
100
AcDbLine
 10
617.6102402098829
 20
210.2762817029482
 30
0.0
 11
617.6102402098829
 21
216.3727547570963
 31
0.0
  0
LINE
  5
C3
330
19
100
AcDbEntity
  8
4
100
AcDbLine
 10
612.7027629217716
 20
218.8727547570963
 30
0.0
 11
612.7027629217716
 21
210.2762817029482
 31
0.0
  0
ARC
  5
C4
330
19
100
AcDbEntity
  8
4
100
AcDbCircle
 10
629.8789334301625
 20
213.1563686861557
 30
0.0
 40
3.783613929059507
100
AcDbArc
 50
229.5701031551699
 51
310.4298968448301
  0
LINE
  5
C5
330
19
100
AcDbEntity
  8
4
100
AcDbLine
 10
632.3326720742186
 20
210.2762817029482
 30
0.0
 11
632.3326720742186
 21
218.8727547570963
 31
0.0
  0
LINE
  5
C6
330
19
100
AcDbEntity
  8
4
100
AcDbLine
 10
627.4251947861064
 20
210.2762817029482
 30
0.0
 11
627.4251947861064
 21
216.3727547570963
 31
0.0
  0
LINE
  5
C7
330
19
100
AcDbEntity
  8
4
100
AcDbLine
 10
632.3326720742186
 20
216.3727547570963
 30
0.0
 11
612.7027629217716
 21
216.3727547570963
 31
0.0
  0
LINE
  5
C8
330
19
100
AcDbEntity
  8
4
100
AcDbLine
 10
632.3326720742186
 20
218.8727547570963
 30
0.0
 11
612.7027629217716
 21
218.8727547570963
 31
0.0
  0
ARC
  5
C9
330
19
100
AcDbEntity
  8
4
100
AcDbCircle
 10
622.5177174979951
 20
223.1519200545556
 30
0.0
 40
13.77916529745958
100
AcDbArc
 50
249.1359356360801
 51
290.8640643639195
  0
LINE
  5
CA
330
19
100
AcDbEntity
  8
4
100
AcDbLine
 10
615.1565015658268
 20
209.3727547570963
 30
0.0
 11
629.8789334301625
 21
209.3727547570963
 31
0.0
  0
LINE
  5
CB
330
19
100
AcDbEntity
  8
L-CENTER
100
AcDbLine
 10
720.1221728652215
 20
247.3087101747085
 30
0.0
 11
720.1221728652215
 21
206.5047765025167
 31
0.0
  0
ARC
  5
CC
330
19
100
AcDbEntity
  8
4
100
AcDbCircle
 10
727.4833887973889
 20
213.1563686861557
 30
0.0
 40
3.783613929059507
100
AcDbArc
 50
229.5701031551699
 51
310.4298968448301
  0
LINE
  5
CD
330
19
100
AcDbEntity
  8
4
100
AcDbLine
 10
729.937127441445
 20
216.3727547570963
 30
0.0
 11
710.307218288998
 21
216.3727547570963
 31
0.0
  0
LINE
  5
CE
330
19
100
AcDbEntity
  8
4
100
AcDbLine
 10
729.937127441445
 20
218.8727547570963
 30
0.0
 11
710.307218288998
 21
218.8727547570963
 31
0.0
  0
LINE
  5
CF
330
19
100
AcDbEntity
  8
4
100
AcDbLine
 10
712.7609569330532
 20
209.3727547570963
 30
0.0
 11
727.4833887973889
 21
209.3727547570963
 31
0.0
  0
ARC
  5
D0
330
19
100
AcDbEntity
  8
4
100
AcDbCircle
 10
712.7609569330532
 20
213.1563686861557
 30
0.0
 40
3.783613929059507
100
AcDbArc
 50
229.5701031551699
 51
310.4298968448301
  0
LINE
  5
D1
330
19
100
AcDbEntity
  8
4
100
AcDbLine
 10
715.2146955771093
 20
210.2762817029482
 30
0.0
 11
715.2146955771093
 21
216.3727547570963
 31
0.0
  0
LINE
  5
D2
330
19
100
AcDbEntity
  8
4
100
AcDbLine
 10
710.307218288998
 20
218.8727547570963
 30
0.0
 11
710.307218288998
 21
210.2762817029482
 31
0.0
  0
LINE
  5
D3
330
19
100
AcDbEntity
  8
4
100
AcDbLine
 10
725.0296501533328
 20
210.2762817029482
 30
0.0
 11
725.0296501533328
 21
216.3727547570963
 31
0.0
  0
ARC
  5
D4
330
19
100
AcDbEntity
  8
4
100
AcDbCircle
 10
720.1221728652215
 20
223.1519200545556
 30
0.0
 40
13.77916529745958
100
AcDbArc
 50
249.1359356360801
 51
290.8640643639195
  0
LINE
  5
D5
330
19
100
AcDbEntity
  8
4
100
AcDbLine
 10
729.937127441445
 20
210.2762817029482
 30
0.0
 11
729.937127441445
 21
218.8727547570963
 31
0.0
  0
LINE
  5
D6
330
19
100
AcDbEntity
  8
4
100
AcDbLine
 10
625.6550393793394
 20
537.8727547570963
 30
0.0
 11
436.8070393793395
 21
537.8727547570963
 31
0.0
  0
LINE
  5
D7
330
19
100
AcDbEntity
  8
4
100
AcDbLine
 10
436.8070393793395
 20
537.8727547570963
 30
0.0
 11
436.8070393793395
 21
522.8727547570963
 31
0.0
  0
LINE
  5
D8
330
19
100
AcDbEntity
  8
4
100
AcDbLine
 10
333.1551814542171
 20
506.8727547570963
 30
0.0
 11
363.1551814542171
 21
506.8727547570963
 31
0.0
  0
LINE
  5
D9
330
19
100
AcDbEntity
  8
4
 48
0.8
100
AcDbLine
 10
324.1551814542171
 20
408.8727547570973
 30
0.0
 11
312.1551814542171
 21
408.8727547570973
 31
0.0
  0
LINE
  5
DA
330
19
100
AcDbEntity
  8
4
100
AcDbLine
 10
324.1551814542171
 20
408.8727547570973
 30
0.0
 11
312.1551814542171
 21
408.8727547570982
 31
0.0
  0
LINE
  5
DB
330
19
100
AcDbEntity
  8
4
 48
0.8
100
AcDbLine
 10
300.1551814542171
 20
405.8727547570963
 30
0.0
 11
312.1551814542162
 21
405.8727547570973
 31
0.0
  0
LINE
  5
DC
330
19
100
AcDbEntity
  8
4
100
AcDbLine
 10
333.1551814542171
 20
488.8727547570963
 30
0.0
 11
333.1551814542171
 21
478.8727547570963
 31
0.0
  0
LINE
  5
DD
330
19
100
AcDbEntity
  8
4
100
AcDbLine
 10
333.1551814542171
 20
506.8727547570963
 30
0.0
 11
333.1551814542171
 21
488.8727547570963
 31
0.0
  0
LINE
  5
DE
330
19
100
AcDbEntity
  8
4
100
AcDbLine
 10
333.1550393793394
 20
478.8727547570963
 30
0.0
 11
333.1550393793394
 21
506.8727547570963
 31
0.0
  0
ARC
  5
DF
330
19
100
AcDbEntity
  8
4
100
AcDbCircle
 10
370.9913217008312
 20
504.077010621919
 30
0.0
 40
13.7957441351769
100
AcDbArc
 50
66.57340249137185
 51
113.4265975086282
  0
LINE
  5
E0
330
19
100
AcDbEntity
  8
4
100
AcDbLine
 10
379.2185630367836
 20
517.8727547570963
 30
0.0
 11
362.7640803648798
 21
517.8727547570963
 31
0.0
  0
LINE
  5
E1
330
19
100
AcDbEntity
  8
4
100
AcDbLine
 10
360.0216665862287
 20
506.8727547570963
 30
0.0
 11
381.9609768154347
 21
506.8727547570963
 31
0.0
  0
LINE
  5
E2
330
19
100
AcDbEntity
  8
4
100
AcDbLine
 10
360.0216665862287
 20
509.8727547570963
 30
0.0
 11
381.9609768154347
 21
509.8727547570963
 31
0.0
  0
LINE
  5
E3
330
19
100
AcDbEntity
  8
4
100
AcDbLine
 10
365.5064941435299
 20
516.7355738464696
 30
0.0
 11
365.5064941435299
 21
509.8727547570963
 31
0.0
  0
LINE
  5
E4
330
19
100
AcDbEntity
  8
4
100
AcDbLine
 10
360.0216665862287
 20
516.7355738464696
 30
0.0
 11
360.0216665862287
 21
506.8727547570963
 31
0.0
  0
ARC
  5
E5
330
19
100
AcDbEntity
  8
4
100
AcDbCircle
 10
362.7640803648798
 20
513.9973758818171
 30
0.0
 40
3.875378875279244
100
AcDbArc
 50
44.955926762744
 51
135.044073237256
  0
ARC
  5
E6
330
19
100
AcDbEntity
  8
4
100
AcDbCircle
 10
379.2185630367836
 20
513.9973758818171
 30
0.0
 40
3.875378875279264
100
AcDbArc
 50
44.955926762744
 51
135.044073237256
  0
LINE
  5
E7
330
19
100
AcDbEntity
  8
4
100
AcDbLine
 10
376.4761492581325
 20
516.7355738464696
 30
0.0
 11
376.4761492581325
 21
509.8727547570963
 31
0.0
  0
LINE
  5
E8
330
19
100
AcDbEntity
  8
4
100
AcDbLine
 10
381.9609768154347
 20
506.8727547570963
 30
0.0
 11
381.9609768154347
 21
516.7355738464696
 31
0.0
  0
LINE
  5
E9
330
19
100
AcDbEntity
  8
L-CENTER
100
AcDbLine
 10
370.9913217008312
 20
521.4735946372004
 30
0.0
 11
370.9913217008312
 21
474.4200432272098
 31
0.0
  0
LINE
  5
EA
330
19
100
AcDbEntity
  8
4
100
AcDbLine
 10
363.1551814542171
 20
522.8727547570963
 30
0.0
 11
363.1551814542171
 21
517.8727547570963
 31
0.0
  0
LINE
  5
EB
330
19
100
AcDbEntity
  8
4
100
AcDbLine
 10
363.1550393793394
 20
517.8727547570963
 30
0.0
 11
363.1550393793394
 21
522.8727547570963
 31
0.0
  0
LINE
  5
EC
330
19
100
AcDbEntity
  8
4
100
AcDbLine
 10
506.8070393793395
 20
712.8727547570982
 30
0.0
 11
506.8070393793395
 21
555.8727547570982
 31
0.0
  0
LINE
  5
ED
330
19
100
AcDbEntity
  8
4
100
AcDbLine
 10
563.8070393793395
 20
713.8727547570982
 30
0.0
 11
563.8070393793395
 21
575.8727547570982
 31
0.0
  0
LINE
  5
EE
330
19
100
AcDbEntity
  8
4
100
AcDbLine
 10
539.8070393793395
 20
713.8727547570982
 30
0.0
 11
539.8070393793395
 21
575.8727547570982
 31
0.0
  0
LINE
  5
EF
330
19
100
AcDbEntity
  8
4
100
AcDbLine
 10
596.8070393793395
 20
712.8727547570963
 30
0.0
 11
596.8070393793395
 21
555.8727547570963
 31
0.0
  0
LINE
  5
F0
330
19
100
AcDbEntity
  8
4
100
AcDbLine
 10
612.7027629217716
 20
538.8727547570963
 30
0.0
 11
490.9113158369083
 21
538.8727547570963
 31
0.0
  0
LINE
  5
F1
330
19
100
AcDbEntity
  8
L-CENTER
100
AcDbLine
 10
481.0963612606831
 20
509.4367993394883
 30
0.0
 11
481.0963612606855
 21
550.24073301168
 31
0.0
  0
ARC
  5
F2
330
19
100
AcDbEntity
  8
4
100
AcDbCircle
 10
533.3501517446906
 20
504.077010621919
 30
0.0
 40
13.7957441351769
100
AcDbArc
 50
66.57340249137164
 51
113.4265975086284
  0
LINE
  5
F3
330
19
100
AcDbEntity
  8
4
100
AcDbLine
 10
541.577393080643
 20
517.8727547570963
 30
0.0
 11
525.1229104087391
 21
517.8727547570963
 31
0.0
  0
LINE
  5
F4
330
19
100
AcDbEntity
  8
4
100
AcDbLine
 10
522.380496630088
 20
506.8727547570963
 30
0.0
 11
544.3198068592941
 21
506.8727547570963
 31
0.0
  0
LINE
  5
F5
330
19
100
AcDbEntity
  8
4
100
AcDbLine
 10
522.380496630088
 20
509.8727547570963
 30
0.0
 11
544.3198068592941
 21
509.8727547570963
 31
0.0
  0
LINE
  5
F6
330
19
100
AcDbEntity
  8
4
100
AcDbLine
 10
527.8653241873893
 20
516.7355738464696
 30
0.0
 11
527.8653241873893
 21
509.8727547570963
 31
0.0
  0
LINE
  5
F7
330
19
100
AcDbEntity
  8
4
100
AcDbLine
 10
522.380496630088
 20
516.7355738464696
 30
0.0
 11
522.380496630088
 21
506.8727547570963
 31
0.0
  0
ARC
  5
F8
330
19
100
AcDbEntity
  8
4
100
AcDbCircle
 10
525.1229104087391
 20
513.9973758818171
 30
0.0
 40
3.875378875279244
100
AcDbArc
 50
44.955926762744
 51
135.044073237256
  0
ARC
  5
F9
330
19
100
AcDbEntity
  8
4
100
AcDbCircle
 10
541.577393080643
 20
513.9973758818171
 30
0.0
 40
3.875378875279264
100
AcDbArc
 50
44.955926762744
 51
135.044073237256
  0
LINE
  5
FA
330
19
100
AcDbEntity
  8
4
100
AcDbLine
 10
538.8349793019919
 20
516.7355738464696
 30
0.0
 11
538.8349793019919
 21
509.8727547570963
 31
0.0
  0
LINE
  5
FB
330
19
100
AcDbEntity
  8
4
100
AcDbLine
 10
544.3198068592941
 20
506.8727547570963
 30
0.0
 11
544.3198068592941
 21
516.7355738464696
 31
0.0
  0
LINE
  5
FC
330
19
100
AcDbEntity
  8
L-CENTER
100
AcDbLine
 10
533.3501517446906
 20
521.4735946372004
 30
0.0
 11
533.3501517446906
 21
474.4200432272098
 31
0.0
  0
LINE
  5
FD
330
19
100
AcDbEntity
  8
4
100
AcDbLine
 10
599.3070393793395
 20
553.8727547570963
 30
0.0
 11
504.3070393793395
 21
553.8727547570982
 31
0.0
  0
ARC
  5
FE
330
19
100
AcDbEntity
  8
4
100
AcDbCircle
 10
481.0963612606846
 20
533.5935894596412
 30
0.0
 40
13.77916529745958
100
AcDbArc
 50
69.13593563607698
 51
110.8640643639175
  0
LINE
  5
FF
330
19
100
AcDbEntity
  8
4
100
AcDbLine
 10
473.7351453285171
 20
547.3727547571009
 30
0.0
 11
488.4575771928528
 21
547.3727547571
 31
0.0
  0
LINE
  5
100
330
19
100
AcDbEntity
  8
4
100
AcDbLine
 10
490.9113158369083
 20
537.8727547571
 30
0.0
 11
471.2814066844613
 21
537.8727547571009
 31
0.0
  0
LINE
  5
101
330
19
100
AcDbEntity
  8
4
100
AcDbLine
 10
490.9113158369084
 20
540.3727547571
 30
0.0
 11
471.2814066844614
 21
540.3727547571009
 31
0.0
  0
ARC
  5
102
330
19
100
AcDbEntity
  8
4
100
AcDbCircle
 10
473.7351453285169
 20
543.5891408280415
 30
0.0
 40
3.783613929059507
100
AcDbArc
 50
49.57010315516856
 51
130.4298968448308
  0
LINE
  5
103
330
19
100
AcDbEntity
  8
4
100
AcDbLine
 10
476.1888839725731
 20
546.4692278112491
 30
0.0
 11
476.1888839725727
 21
540.3727547571009
 31
0.0
  0
LINE
  5
104
330
19
100
AcDbEntity
  8
4
100
AcDbLine
 10
471.2814066844613
 20
537.8727547571009
 30
0.0
 11
471.2814066844618
 21
546.4692278112491
 31
0.0
  0
ARC
  5
105
330
19
100
AcDbEntity
  8
4
100
AcDbCircle
 10
488.4575771928526
 20
543.5891408280406
 30
0.0
 40
3.783613929059507
100
AcDbArc
 50
49.57010315516856
 51
130.4298968448308
  0
LINE
  5
106
330
19
100
AcDbEntity
  8
4
100
AcDbLine
 10
490.9113158369088
 20
546.4692278112482
 30
0.0
 11
490.9113158369083
 21
537.8727547571
 31
0.0
  0
LINE
  5
107
330
19
100
AcDbEntity
  8
4
100
AcDbLine
 10
486.0038385487966
 20
546.4692278112482
 30
0.0
 11
486.0038385487962
 21
540.3727547571
 31
0.0
  0
LINE
  5
108
330
19
100
AcDbEntity
  8
4
100
AcDbLine
 10
504.3070393793395
 20
553.8727547570982
 30
0.0
 11
504.3070393793395
 21
538.8727547570968
 31
0.0
  0
ARC
  5
109
330
19
100
AcDbEntity
  8
4
100
AcDbCircle
 10
504.8070393793395
 20
555.8727547570982
 30
0.0
 40
2.0
100
AcDbArc
 50
270.0
 51
0.0
  0
LINE
  5
10A
330
19
100
AcDbEntity
  8
4
100
AcDbLine
 10
504.3070393793395
 20
553.8727547570963
 30
0.0
 11
504.3070393793395
 21
538.8727547570963
 31
0.0
  0
ARC
  5
10B
330
19
100
AcDbEntity
  8
4
100
AcDbCircle
 10
551.8070393793395
 20
575.8727547570982
 30
0.0
 40
12.0
100
AcDbArc
 50
270.0
 51
0.0
  0
ARC
  5
10C
330
19
100
AcDbEntity
  8
4
100
AcDbCircle
 10
551.8070393793395
 20
575.8727547570982
 30
0.0
 40
12.0
100
AcDbArc
 50
180.0
 51
270.0
  0
LINE
  5
10D
330
19
100
AcDbEntity
  8
4
100
AcDbLine
 10
599.3070393793395
 20
553.8727547570963
 30
0.0
 11
599.3070393793395
 21
538.8727547570963
 31
0.0
  0
ARC
  5
10E
330
19
100
AcDbEntity
  8
4
100
AcDbCircle
 10
598.8070393793395
 20
555.8727547570982
 30
0.0
 40
2.0
100
AcDbArc
 50
180.0
 51
270.0
  0
LINE
  5
10F
330
19
100
AcDbEntity
  8
4
100
AcDbLine
 10
599.3070393793395
 20
553.8727547570963
 30
0.0
 11
599.3070393793395
 21
538.8727547570963
 31
0.0
  0
LINE
  5
110
330
19
100
AcDbEntity
  8
L-CENTER
100
AcDbLine
 10
622.5177174979951
 20
509.4367993394842
 30
0.0
 11
622.5177174979951
 21
550.240733011676
 31
0.0
  0
LINE
  5
111
330
19
100
AcDbEntity
  8
L-CENTER
100
AcDbLine
 10
720.1221728652215
 20
509.4367993394842
 30
0.0
 11
720.1221728652215
 21
550.240733011676
 31
0.0
  0
LINE
  5
112
330
19
100
AcDbEntity
  8
4
100
AcDbLine
 10
670.6550393793394
 20
522.8727547570963
 30
0.0
 11
670.6550393793394
 21
540.8727547570963
 31
0.0
  0
LINE
  5
113
330
19
100
AcDbEntity
  8
4
100
AcDbLine
 10
683.1550393793394
 20
537.8727547570963
 30
0.0
 11
683.1550393793394
 21
522.8727547570963
 31
0.0
  0
LINE
  5
114
330
19
100
AcDbEntity
  8
4
100
AcDbLine
 10
625.6550393793394
 20
522.8727547570963
 30
0.0
 11
625.6550393793394
 21
540.8727547570963
 31
0.0
  0
LINE
  5
115
330
19
100
AcDbEntity
  8
4
100
AcDbLine
 10
751.9905560491401
 20
506.8727547570963
 30
0.0
 11
751.9905560491401
 21
516.7355738464696
 31
0.0
  0
LINE
  5
116
330
19
100
AcDbEntity
  8
4
100
AcDbLine
 10
757.4753836064423
 20
516.7355738464696
 30
0.0
 11
757.4753836064423
 21
509.8727547570963
 31
0.0
  0
ARC
  5
117
330
19
100
AcDbEntity
  8
4
100
AcDbCircle
 10
754.7329698277912
 20
513.9973758818171
 30
0.0
 40
3.875378875279264
100
AcDbArc
 50
44.955926762744
 51
135.044073237256
  0
LINE
  5
118
330
19
100
AcDbEntity
  8
L-CENTER
100
AcDbLine
 10
762.9602111637436
 20
521.4735946372004
 30
0.0
 11
762.9602111637436
 21
474.4200432272098
 31
0.0
  0
LINE
  5
119
330
19
100
AcDbEntity
  8
4
100
AcDbLine
 10
638.1550393793394
 20
602.8727547570963
 30
0.0
 11
638.1553235290944
 21
538.9016115857874
 31
0.0
  0
LINE
  5
11A
330
19
100
AcDbEntity
  8
4
100
AcDbLine
 10
658.1550393793394
 20
602.8727547570963
 30
0.0
 11
658.1550393793394
 21
538.8262264787807
 31
0.0
  0
LINE
  5
11B
330
19
100
AcDbEntity
  8
L-CENTER
100
AcDbLine
 10
667.1879679212585
 20
567.8727547570963
 30
0.0
 11
629.1223949871757
 21
567.8727547570963
 31
0.0
  0
LINE
  5
11C
330
19
100
AcDbEntity
  8
4
100
AcDbLine
 10
632.3326720742186
 20
541.4663220483956
 30
0.0
 11
632.3326720742186
 21
546.4692278112445
 31
0.0
  0
LINE
  5
11D
330
19
100
AcDbEntity
  8
4
100
AcDbLine
 10
629.8789334301634
 20
547.3727547570963
 30
0.0
 11
615.1565015658277
 21
547.3727547570963
 31
0.0
  0
ARC
  5
11E
330
19
100
AcDbEntity
  8
4
100
AcDbCircle
 10
622.5177174979951
 20
533.5935894596371
 30
0.0
 40
13.77916529745958
100
AcDbArc
 50
69.13593563608075
 51
110.8640643639193
  0
LINE
  5
11F
330
19
100
AcDbEntity
  8
4
100
AcDbLine
 10
612.7027629217716
 20
537.8727547570963
 30
0.0
 11
625.6550393793394
 21
537.8727547570963
 31
0.0
  0
LINE
  5
120
330
19
100
AcDbEntity
  8
4
100
AcDbLine
 10
612.7027629217716
 20
540.3727547570963
 30
0.0
 11
625.6550393793394
 21
540.3727547570963
 31
0.0
  0
LINE
  5
121
330
19
100
AcDbEntity
  8
4
100
AcDbLine
 10
617.6102402098838
 20
546.4692278112445
 30
0.0
 11
617.6102402098838
 21
540.3727547570963
 31
0.0
  0
LINE
  5
122
330
19
100
AcDbEntity
  8
4
100
AcDbLine
 10
612.7027629217716
 20
546.4692278112445
 30
0.0
 11
612.7027629217716
 21
537.8727547570963
 31
0.0
  0
ARC
  5
123
330
19
100
AcDbEntity
  8
4
100
AcDbCircle
 10
615.1565015658277
 20
543.589140828037
 30
0.0
 40
3.783613929059507
100
AcDbArc
 50
49.57010315516987
 51
130.4298968448301
  0
LINE
  5
124
330
19
100
AcDbEntity
  8
4
100
AcDbLine
 10
627.4251947861073
 20
546.4692278112445
 30
0.0
 11
627.4251947861073
 21
541.03010188863
 31
0.0
  0
ARC
  5
125
330
19
100
AcDbEntity
  8
4
100
AcDbCircle
 10
629.8789334301634
 20
543.589140828037
 30
0.0
 40
3.783613929059507
100
AcDbArc
 50
49.57010315516987
 51
130.4298968448301
  0
LINE
  5
126
330
19
100
AcDbEntity
  8
4
100
AcDbLine
 10
638.1550393793394
 20
540.8727547570963
 30
0.0
 11
625.6550393793394
 21
540.8727547570963
 31
0.0
  0
LINE
  5
127
330
19
100
AcDbEntity
  8
4
100
AcDbLine
 10
638.1550393793394
 20
541.9838657570965
 30
0.0
 11
625.6550393793394
 21
540.8727547570963
 31
0.0
  0
LINE
  5
128
330
19
100
AcDbEntity
  8
4
100
AcDbLine
 10
658.1550393793394
 20
541.9838657570965
 30
0.0
 11
670.6550393793394
 21
540.8727547570963
 31
0.0
  0
LINE
  5
129
330
19
100
AcDbEntity
  8
4
100
AcDbLine
 10
670.6550393793394
 20
540.8727547570963
 30
0.0
 11
658.1550393793394
 21
540.8727547570963
 31
0.0
  0
ARC
  5
12A
330
19
100
AcDbEntity
  8
4
100
AcDbCircle
 10
648.1550393793394
 20
602.8727547570963
 30
0.0
 40
10.0
100
AcDbArc
 50
0.0
 51
180.0
  0
LINE
  5
12B
330
19
100
AcDbEntity
  8
4
100
AcDbLine
 10
727.4833887973898
 20
547.3727547570963
 30
0.0
 11
712.7609569330541
 21
547.3727547570963
 31
0.0
  0
LINE
  5
12C
330
19
100
AcDbEntity
  8
4
100
AcDbLine
 10
710.307218288998
 20
537.8727547570963
 30
0.0
 11
729.937127441445
 21
537.8727547570963
 31
0.0
  0
LINE
  5
12D
330
19
100
AcDbEntity
  8
4
100
AcDbLine
 10
710.307218288998
 20
540.3727547570963
 30
0.0
 11
729.937127441445
 21
540.3727547570963
 31
0.0
  0
ARC
  5
12E
330
19
100
AcDbEntity
  8
4
100
AcDbCircle
 10
727.4833887973898
 20
543.589140828037
 30
0.0
 40
3.783613929059507
100
AcDbArc
 50
49.57010315516987
 51
130.4298968448301
  0
ARC
  5
12F
330
19
100
AcDbEntity
  8
4
100
AcDbCircle
 10
720.1221728652215
 20
533.5935894596371
 30
0.0
 40
13.77916529745958
100
AcDbArc
 50
69.13593563608075
 51
110.8640643639193
  0
LINE
  5
130
330
19
100
AcDbEntity
  8
4
100
AcDbLine
 10
715.2146955771102
 20
546.4692278112445
 30
0.0
 11
715.2146955771102
 21
540.3727547570963
 31
0.0
  0
LINE
  5
131
330
19
100
AcDbEntity
  8
4
100
AcDbLine
 10
710.307218288998
 20
546.4692278112445
 30
0.0
 11
710.307218288998
 21
537.8727547570963
 31
0.0
  0
ARC
  5
132
330
19
100
AcDbEntity
  8
4
100
AcDbCircle
 10
712.7609569330541
 20
543.589140828037
 30
0.0
 40
3.783613929059507
100
AcDbArc
 50
49.57010315516987
 51
130.4298968448301
  0
LINE
  5
133
330
19
100
AcDbEntity
  8
4
100
AcDbLine
 10
725.0296501533337
 20
546.4692278112445
 30
0.0
 11
725.0296501533337
 21
540.3727547570963
 31
0.0
  0
LINE
  5
134
330
19
100
AcDbEntity
  8
4
100
AcDbLine
 10
729.937127441445
 20
537.8727547570963
 30
0.0
 11
729.937127441445
 21
546.4692278112445
 31
0.0
  0
LINE
  5
137
330
19
100
AcDbEntity
  8
4
100
AcDbLine
 10
539.8070393793395
 20
712.8727547570982
 30
0.0
 11
506.8070393793395
 21
712.8727547570982
 31
0.0
  0
LINE
  5
138
330
19
100
AcDbEntity
  8
4
100
AcDbLine
 10
595.8070393793395
 20
713.8727547570963
 30
0.0
 11
507.8070393793395
 21
713.8727547570982
 31
0.0
  0
LINE
  5
139
330
19
100
AcDbEntity
  8
4
100
AcDbLine
 10
507.8070393793395
 20
713.8727547570982
 30
0.0
 11
506.8070393793395
 21
712.8727547570982
 31
0.0
  0
LINE
  5
13B
330
19
100
AcDbEntity
  8
4
100
AcDbLine
 10
596.8070393793395
 20
712.8727547570963
 30
0.0
 11
595.8070393793395
 21
713.8727547570963
 31
0.0
  0
LINE
  5
13C
330
19
100
AcDbEntity
  8
4
100
AcDbLine
 10
596.8070393793395
 20
712.8727547570963
 30
0.0
 11
563.8070393793395
 21
712.8727547570982
 31
0.0
  0
LINE
  5
13D
330
19
100
AcDbEntity
  8
4
100
AcDbLine
 10
1672.045963802991
 20
509.8727547570963
 30
0.0
 11
1693.985274032197
 21
509.8727547570963
 31
0.0
  0
LINE
  5
13E
330
19
100
AcDbEntity
  8
4
100
AcDbLine
 10
1672.045963802991
 20
506.8727547570963
 30
0.0
 11
1693.985274032197
 21
506.8727547570963
 31
0.0
  0
LINE
  5
13F
330
19
100
AcDbEntity
  8
4
100
AcDbLine
 10
1691.242860253546
 20
517.8727547570963
 30
0.0
 11
1674.788377581642
 21
517.8727547570963
 31
0.0
  0
ARC
  5
140
330
19
100
AcDbEntity
  8
4
100
AcDbCircle
 10
1683.015618917593
 20
504.077010621919
 30
0.0
 40
13.7957441351769
100
AcDbArc
 50
66.57340249137164
 51
113.4265975086284
  0
LINE
  5
141
330
19
100
AcDbEntity
  8
4
100
AcDbLine
 10
2082.82064862712
 20
522.8727547570963
 30
0.0
 11
1512.82064862712
 21
522.8727547570963
 31
0.0
  0
LINE
  5
142
330
19
100
AcDbEntity
  8
L-CENTER
100
AcDbLine
 10
2074.660737924479
 20
333.8727547570973
 30
0.0
 11
1906.980559329759
 21
333.8727547570973
 31
0.0
  0
LINE
  5
143
330
19
100
AcDbEntity
  8
4
100
AcDbLine
 10
2112.82064862712
 20
488.8727547570963
 30
0.0
 11
1482.82064862712
 21
488.8727547570982
 31
0.0
  0
LINE
  5
144
330
19
100
AcDbEntity
  8
4
100
AcDbLine
 10
2121.82064862712
 20
478.8727547570963
 30
0.0
 11
1473.82064862712
 21
478.8727547570963
 31
0.0
  0
LINE
  5
145
330
19
100
AcDbEntity
  8
4
100
AcDbLine
 10
2152.82064862712
 20
233.8727547570963
 30
0.0
 11
1472.82064862712
 21
233.8727547570963
 31
0.0
  0
LINE
  5
146
330
19
100
AcDbEntity
  8
4
100
AcDbLine
 10
2108.412879453278
 20
242.8727547570963
 30
0.0
 11
1517.228417800961
 21
242.8727547570963
 31
0.0
  0
LINE
  5
147
330
19
100
AcDbEntity
  8
4
100
AcDbLine
 10
2112.82064862712
 20
506.8727547570963
 30
0.0
 11
1482.82064862712
 21
506.8727547570963
 31
0.0
  0
LINE
  5
148
330
19
100
AcDbEntity
  8
4
100
AcDbLine
 10
1473.82064862712
 20
478.8727547570963
 30
0.0
 11
1473.82064862712
 21
234.8727547570963
 31
0.0
  0
LINE
  5
149
330
19
100
AcDbEntity
  8
4
100
AcDbLine
 10
972.1551814542171
 20
478.8727547570963
 30
0.0
 11
972.1551814542162
 21
233.8727547570963
 31
0.0
  0
LINE
  5
14A
330
19
100
AcDbEntity
  8
4
100
AcDbLine
 10
984.1551814542171
 20
408.8727547570973
 30
0.0
 11
984.1551814542171
 21
258.8727547570973
 31
0.0
  0
LINE
  5
14B
330
19
100
AcDbEntity
  8
4
100
AcDbLine
 10
996.1551814542171
 20
405.8727547570973
 30
0.0
 11
996.1551814542171
 21
261.8727547570982
 31
0.0
  0
LINE
  5
14C
330
19
100
AcDbEntity
  8
L-CENTER
100
AcDbLine
 10
773.155181454217
 20
542.8727547570963
 30
0.0
 11
773.1551814542171
 21
210.2286986875163
 31
0.0
  0
LINE
  5
14D
330
19
100
AcDbEntity
  8
4
100
AcDbLine
 10
1019.405181454216
 20
360.3727547570973
 30
0.0
 11
1109.405181454217
 21
360.3727547570973
 31
0.0
  0
LINE
  5
14E
330
19
100
AcDbEntity
  8
4
100
AcDbLine
 10
1011.405181454216
 20
356.8727547570973
 30
0.0
 11
1108.405181454217
 21
356.8727547570973
 31
0.0
  0
LINE
  5
14F
330
19
100
AcDbEntity
  8
4
100
AcDbLine
 10
1011.405181454216
 20
310.8727547570973
 30
0.0
 11
1108.405181454217
 21
310.8727547570973
 31
0.0
  0
LINE
  5
150
330
19
100
AcDbEntity
  8
4
100
AcDbLine
 10
958.1551814542171
 20
193.8727547570973
 30
0.0
 11
798.1551814542171
 21
193.8727547570973
 31
0.0
  0
LINE
  5
151
330
19
100
AcDbEntity
  8
4
100
AcDbLine
 10
963.1550393793394
 20
488.8727547570973
 30
0.0
 11
333.155181454217
 21
488.8727547570973
 31
0.0
  0
LINE
  5
152
330
19
100
AcDbEntity
  8
4
100
AcDbLine
 10
972.1551814542162
 20
242.8727547570963
 30
0.0
 11
810.1551814542162
 21
242.8727547570963
 31
0.0
  0
LINE
  5
153
330
19
100
AcDbEntity
  8
4
100
AcDbLine
 10
798.1551814542171
 20
278.2805239309375
 30
0.0
 11
798.1551814542171
 21
193.8727547570973
 31
0.0
  0
LINE
  5
154
330
19
100
AcDbEntity
  8
4
100
AcDbLine
 10
810.1551814542162
 20
278.2805239309375
 30
0.0
 11
798.1551814542171
 21
278.2805239309375
 31
0.0
  0
LINE
  5
155
330
19
100
AcDbEntity
  8
4
100
AcDbLine
 10
810.1551814542162
 20
278.2805239309375
 30
0.0
 11
810.1551814542162
 21
233.8727547570963
 31
0.0
  0
LINE
  5
156
330
19
100
AcDbEntity
  8
L-CENTER
100
AcDbLine
 10
898.1551814542171
 20
253.8727547570963
 30
0.0
 11
898.1551814542171
 21
173.8727547570973
 31
0.0
  0
LINE
  5
157
330
19
100
AcDbEntity
  8
4
100
AcDbLine
 10
996.1551814542171
 20
272.7928001808734
 30
0.0
 11
996.1551814542171
 21
292.4227093333213
 31
0.0
  0
LINE
  5
158
330
19
100
AcDbEntity
  8
4
100
AcDbLine
 10
998.6551814542171
 20
272.7928001808734
 30
0.0
 11
998.6551814542171
 21
292.4227093333213
 31
0.0
  0
LINE
  5
159
330
19
100
AcDbEntity
  8
4
100
AcDbLine
 10
1005.655181454217
 20
289.9689706892643
 30
0.0
 11
1005.655181454217
 21
275.2465388249295
 31
0.0
  0
ARC
  5
15A
330
19
100
AcDbEntity
  8
4
100
AcDbCircle
 10
991.8760161567578
 20
282.6077547570969
 30
0.0
 40
13.77916529745958
100
AcDbArc
 50
339.1359356360805
 51
20.86406436391942
  0
LINE
  5
15B
330
19
100
AcDbEntity
  8
4
100
AcDbLine
 10
958.1551814542171
 20
233.8727547570963
 30
0.0
 11
958.1551814542171
 21
193.8727547570973
 31
0.0
  0
LINE
  5
15C
330
19
100
AcDbEntity
  8
L-CENTER
100
AcDbLine
 10
968.0641047564403
 20
282.6077547570969
 30
0.0
 11
1008.523159708798
 21
282.6077547570969
 31
0.0
  0
LINE
  5
15D
330
19
100
AcDbEntity
  8
4
 48
0.8
100
AcDbLine
 10
984.1551814542171
 20
258.8727547570973
 30
0.0
 11
972.1551814542171
 21
258.8727547570973
 31
0.0
  0
LINE
  5
15E
330
19
100
AcDbEntity
  8
4
100
AcDbLine
 10
984.1551814542171
 20
258.8727547570982
 30
0.0
 11
972.1551814542171
 21
258.8727547570973
 31
0.0
  0
LINE
  5
15F
330
19
100
AcDbEntity
  8
4
 48
0.8
100
AcDbLine
 10
996.1551814542171
 20
261.8727547570973
 30
0.0
 11
984.1551814542171
 21
261.8727547570973
 31
0.0
  0
ARC
  5
160
330
19
100
AcDbEntity
  8
4
100
AcDbCircle
 10
1001.871567525158
 20
275.2465388249295
 30
0.0
 40
3.783613929059507
100
AcDbArc
 50
319.5701031551782
 51
40.42989684482174
  0
LINE
  5
161
330
19
100
AcDbEntity
  8
4
100
AcDbLine
 10
1004.751654508364
 20
272.7928001808734
 30
0.0
 11
996.1551814542171
 21
272.7928001808734
 31
0.0
  0
LINE
  5
162
330
19
100
AcDbEntity
  8
4
100
AcDbLine
 10
1004.751654508364
 20
277.7002774689847
 30
0.0
 11
998.6551814542171
 21
277.7002774689847
 31
0.0
  0
LINE
  5
163
330
19
100
AcDbEntity
  8
4
100
AcDbLine
 10
1009.405181454216
 20
358.8727547570973
 30
0.0
 11
1009.405181454216
 21
308.8727547570973
 31
0.0
  0
LINE
  5
164
330
19
100
AcDbEntity
  8
4
100
AcDbLine
 10
997.1551814542171
 20
369.8727547570982
 30
0.0
 11
997.1551814542171
 21
297.8727547570973
 31
0.0
  0
ARC
  5
165
330
19
100
AcDbEntity
  8
4
100
AcDbCircle
 10
1011.405181454216
 20
308.8727547570973
 30
0.0
 40
2.0
100
AcDbArc
 50
90.0
 51
180.0
  0
LINE
  5
166
330
19
100
AcDbEntity
  8
4
100
AcDbLine
 10
1009.405181454216
 20
308.8727547570973
 30
0.0
 11
997.1551814542171
 21
308.8727547570973
 31
0.0
  0
LINE
  5
167
330
19
100
AcDbEntity
  8
4
 48
0.8
100
AcDbLine
 10
997.1551814542171
 20
297.8727547570973
 30
0.0
 11
996.1551814542171
 21
297.8727547570982
 31
0.0
  0
LINE
  5
168
330
19
100
AcDbEntity
  8
4
100
AcDbLine
 10
996.1551814542171
 20
292.4227093333213
 30
0.0
 11
1004.751654508364
 21
292.4227093333213
 31
0.0
  0
ARC
  5
169
330
19
100
AcDbEntity
  8
4
100
AcDbCircle
 10
1001.871567525158
 20
289.9689706892643
 30
0.0
 40
3.783613929059507
100
AcDbArc
 50
319.5701031551782
 51
40.42989684482174
  0
LINE
  5
16A
330
19
100
AcDbEntity
  8
4
100
AcDbLine
 10
1004.751654508364
 20
287.5152320452091
 30
0.0
 11
998.6551814542171
 21
287.5152320452091
 31
0.0
  0
LINE
  5
16B
330
19
100
AcDbEntity
  8
L-CENTER
100
AcDbLine
 10
968.0641047564403
 20
385.1377547570976
 30
0.0
 11
1008.523159708798
 21
385.1377547570976
 31
0.0
  0
ARC
  5
16C
330
19
100
AcDbEntity
  8
4
100
AcDbCircle
 10
1011.405181454216
 20
358.8727547570973
 30
0.0
 40
2.0
100
AcDbArc
 50
180.0
 51
270.0
  0
LINE
  5
16D
330
19
100
AcDbEntity
  8
4
100
AcDbLine
 10
1009.405181454216
 20
358.8727547570973
 30
0.0
 11
997.1551814542171
 21
358.8727547570973
 31
0.0
  0
LINE
  5
16E
330
19
100
AcDbEntity
  8
4
 48
0.8
100
AcDbLine
 10
997.1551814542171
 20
369.8727547570973
 30
0.0
 11
996.1551814542171
 21
369.8727547570973
 31
0.0
  0
LINE
  5
16F
330
19
100
AcDbEntity
  8
4
100
AcDbLine
 10
996.1551814542171
 20
375.3228001808732
 30
0.0
 11
996.1551814542171
 21
394.9527093333202
 31
0.0
  0
LINE
  5
170
330
19
100
AcDbEntity
  8
4
100
AcDbLine
 10
998.6551814542171
 20
375.3228001808732
 30
0.0
 11
998.6551814542171
 21
394.9527093333202
 31
0.0
  0
ARC
  5
171
330
19
100
AcDbEntity
  8
4
100
AcDbCircle
 10
1001.871567525158
 20
377.7765388249293
 30
0.0
 40
3.783613929059507
100
AcDbArc
 50
319.5701031551782
 51
40.42989684482174
  0
LINE
  5
172
330
19
100
AcDbEntity
  8
4
100
AcDbLine
 10
1004.751654508364
 20
375.3228001808732
 30
0.0
 11
996.1551814542171
 21
375.3228001808732
 31
0.0
  0
LINE
  5
173
330
19
100
AcDbEntity
  8
4
100
AcDbLine
 10
1005.655181454217
 20
392.498970689265
 30
0.0
 11
1005.655181454217
 21
377.7765388249293
 31
0.0
  0
ARC
  5
174
330
19
100
AcDbEntity
  8
4
100
AcDbCircle
 10
991.8760161567578
 20
385.1377547570976
 30
0.0
 40
13.77916529745958
100
AcDbArc
 50
339.1359356360805
 51
20.86406436391942
  0
LINE
  5
175
330
19
100
AcDbEntity
  8
4
100
AcDbLine
 10
1004.751654508364
 20
380.2302774689854
 30
0.0
 11
998.6551814542171
 21
380.2302774689854
 31
0.0
  0
LINE
  5
176
330
19
100
AcDbEntity
  8
4
100
AcDbLine
 10
996.1551814542171
 20
394.9527093333202
 30
0.0
 11
1004.751654508364
 21
394.9527093333202
 31
0.0
  0
ARC
  5
177
330
19
100
AcDbEntity
  8
4
100
AcDbCircle
 10
1001.871567525158
 20
392.498970689265
 30
0.0
 40
3.783613929059507
100
AcDbArc
 50
319.5701031551782
 51
40.42989684482174
  0
LINE
  5
178
330
19
100
AcDbEntity
  8
4
100
AcDbLine
 10
1004.751654508364
 20
390.0452320452089
 30
0.0
 11
998.6551814542171
 21
390.0452320452089
 31
0.0
  0
LINE
  5
179
330
19
100
AcDbEntity
  8
4
100
AcDbLine
 10
1019.405181454216
 20
356.8727547570982
 30
0.0
 11
1019.405181454216
 21
360.3727547570973
 31
0.0
  0
LINE
  5
17A
330
19
100
AcDbEntity
  8
4
100
AcDbLine
 10
1517.228417800957
 20
278.2805239309348
 30
0.0
 11
1472.820648627116
 21
233.8727547570927
 31
0.0
  0
LINE
  5
17B
330
19
100
AcDbEntity
  8
4
100
AcDbLine
 10
1652.82064862712
 20
193.8727547570963
 30
0.0
 11
1472.82064862712
 21
193.8727547570963
 31
0.0
  0
LINE
  5
17C
330
19
100
AcDbEntity
  8
L-CENTER
100
AcDbLine
 10
1512.82064862712
 20
253.8727547570963
 30
0.0
 11
1512.82064862712
 21
173.8727547570968
 31
0.0
  0
LINE
  5
17D
330
19
100
AcDbEntity
  8
4
100
AcDbLine
 10
1472.82064862712
 20
193.8727547570963
 30
0.0
 11
1472.82064862712
 21
233.8727547570963
 31
0.0
  0
LINE
  5
17F
330
19
100
AcDbEntity
  8
4
100
AcDbLine
 10
1109.405181454217
 20
355.8727547570973
 30
0.0
 11
1109.405181454217
 21
311.8727547570973
 31
0.0
  0
LINE
  5
180
330
19
100
AcDbEntity
  8
4
100
AcDbLine
 10
1108.405181454217
 20
310.8727547570973
 30
0.0
 11
1108.405181454217
 21
356.8727547570973
 31
0.0
  0
LINE
  5
181
330
19
100
AcDbEntity
  8
4
100
AcDbLine
 10
1108.405181454217
 20
310.8727547570973
 30
0.0
 11
1109.405181454217
 21
311.8727547570973
 31
0.0
  0
LINE
  5
183
330
19
100
AcDbEntity
  8
4
100
AcDbLine
 10
1109.405181454217
 20
355.8727547570973
 30
0.0
 11
1108.405181454217
 21
356.8727547570973
 31
0.0
  0
LINE
  5
184
330
19
100
AcDbEntity
  8
4
100
AcDbLine
 10
1109.405181454217
 20
355.8727547570973
 30
0.0
 11
1109.405181454217
 21
360.3727547570973
 31
0.0
  0
LINE
  5
186
330
19
100
AcDbEntity
  8
4
100
AcDbLine
 10
1517.228417800961
 20
278.2805239309312
 30
0.0
 11
1517.228417800961
 21
233.8727547570963
 31
0.0
  0
LINE
  5
187
330
19
100
AcDbEntity
  8
4
100
AcDbLine
 10
1652.82064862712
 20
193.8727547570963
 30
0.0
 11
1652.82064862712
 21
233.8727547570963
 31
0.0
  0
ARC
  5
188
330
19
100
AcDbEntity
  8
4
100
AcDbCircle
 10
933.5462825435544
 20
513.9973758818171
 30
0.0
 40
3.875378875279244
100
AcDbArc
 50
44.955926762744
 51
135.044073237256
  0
LINE
  5
189
330
19
100
AcDbEntity
  8
4
100
AcDbLine
 10
936.2886963222055
 20
509.8727547570963
 30
0.0
 11
914.3493860929995
 21
509.8727547570963
 31
0.0
  0
LINE
  5
18A
330
19
100
AcDbEntity
  8
4
100
AcDbLine
 10
936.2886963222055
 20
506.8727547570963
 30
0.0
 11
914.3493860929995
 21
506.8727547570963
 31
0.0
  0
LINE
  5
18B
330
19
100
AcDbEntity
  8
4
100
AcDbLine
 10
917.0917998716506
 20
517.8727547570963
 30
0.0
 11
933.5462825435544
 21
517.8727547570963
 31
0.0
  0
LINE
  5
18C
330
19
100
AcDbEntity
  8
L-CENTER
100
AcDbLine
 10
826.1881900432124
 20
509.4367993394842
 30
0.0
 11
826.1881900432124
 21
550.240733011676
 31
0.0
  0
LINE
  5
18D
330
19
100
AcDbEntity
  8
4
100
AcDbLine
 10
863.1550393793394
 20
537.8727547570963
 30
0.0
 11
863.1550393793394
 21
522.8727547570963
 31
0.0
  0
ARC
  5
18E
330
19
100
AcDbEntity
  8
4
100
AcDbCircle
 10
771.187452499695
 20
513.9973758818171
 30
0.0
 40
3.875378875279244
100
AcDbArc
 50
44.955926762744
 51
135.044073237256
  0
LINE
  5
18F
330
19
100
AcDbEntity
  8
4
100
AcDbLine
 10
773.9298662783461
 20
516.7355738464696
 30
0.0
 11
773.9298662783461
 21
506.8727547570963
 31
0.0
  0
LINE
  5
190
330
19
100
AcDbEntity
  8
4
100
AcDbLine
 10
768.4450387210449
 20
516.7355738464696
 30
0.0
 11
768.4450387210449
 21
509.8727547570963
 31
0.0
  0
LINE
  5
191
330
19
100
AcDbEntity
  8
L-CENTER
100
AcDbLine
 10
925.3190412076029
 20
521.4735946372004
 30
0.0
 11
925.3190412076029
 21
474.4200432272098
 31
0.0
  0
LINE
  5
192
330
19
100
AcDbEntity
  8
4
100
AcDbLine
 10
914.3493860929995
 20
506.8727547570963
 30
0.0
 11
914.3493860929995
 21
516.7355738464696
 31
0.0
  0
LINE
  5
193
330
19
100
AcDbEntity
  8
4
100
AcDbLine
 10
919.8342136503016
 20
516.7355738464696
 30
0.0
 11
919.8342136503016
 21
509.8727547570963
 31
0.0
  0
ARC
  5
194
330
19
100
AcDbEntity
  8
4
100
AcDbCircle
 10
917.0917998716506
 20
513.9973758818171
 30
0.0
 40
3.875378875279264
100
AcDbArc
 50
44.955926762744
 51
135.044073237256
  0
LINE
  5
195
330
19
100
AcDbEntity
  8
4
100
AcDbLine
 10
930.8038687649042
 20
516.7355738464696
 30
0.0
 11
930.8038687649042
 21
509.8727547570963
 31
0.0
  0
ARC
  5
196
330
19
100
AcDbEntity
  8
4
100
AcDbCircle
 10
925.3190412076029
 20
504.077010621919
 30
0.0
 40
13.7957441351769
100
AcDbArc
 50
66.57340249137164
 51
113.4265975086284
  0
ARC
  5
197
330
19
100
AcDbEntity
  8
4
100
AcDbCircle
 10
818.8269741110441
 20
543.589140828037
 30
0.0
 40
3.783613929059507
100
AcDbArc
 50
49.57010315516987
 51
130.4298968448301
  0
LINE
  5
198
330
19
100
AcDbEntity
  8
4
100
AcDbLine
 10
821.2807127551002
 20
546.4692278112445
 30
0.0
 11
821.2807127551002
 21
540.3727547570963
 31
0.0
  0
LINE
  5
199
330
19
100
AcDbEntity
  8
4
100
AcDbLine
 10
816.373235466989
 20
537.8727547570963
 30
0.0
 11
816.373235466989
 21
546.4692278112445
 31
0.0
  0
ARC
  5
19A
330
19
100
AcDbEntity
  8
4
100
AcDbCircle
 10
833.5494059753798
 20
543.589140828037
 30
0.0
 40
3.783613929059507
100
AcDbArc
 50
49.57010315516987
 51
130.4298968448301
  0
LINE
  5
19B
330
19
100
AcDbEntity
  8
4
100
AcDbLine
 10
836.003144619436
 20
546.4692278112445
 30
0.0
 11
836.003144619436
 21
537.8727547570963
 31
0.0
  0
LINE
  5
19C
330
19
100
AcDbEntity
  8
4
100
AcDbLine
 10
831.0956673313237
 20
546.4692278112445
 30
0.0
 11
831.0956673313237
 21
540.3727547570963
 31
0.0
  0
LINE
  5
19D
330
19
100
AcDbEntity
  8
4
100
AcDbLine
 10
836.003144619436
 20
540.3727547570963
 30
0.0
 11
816.373235466989
 21
540.3727547570963
 31
0.0
  0
LINE
  5
19E
330
19
100
AcDbEntity
  8
4
100
AcDbLine
 10
836.003144619436
 20
537.8727547570963
 30
0.0
 11
816.373235466989
 21
537.8727547570963
 31
0.0
  0
ARC
  5
19F
330
19
100
AcDbEntity
  8
4
100
AcDbCircle
 10
826.1881900432124
 20
533.5935894596371
 30
0.0
 40
13.77916529745958
100
AcDbArc
 50
69.13593563608075
 51
110.8640643639193
  0
LINE
  5
1A0
330
19
100
AcDbEntity
  8
4
100
AcDbLine
 10
818.8269741110441
 20
547.3727547570963
 30
0.0
 11
833.5494059753798
 21
547.3727547570963
 31
0.0
  0
LINE
  5
1A1
330
19
100
AcDbEntity
  8
4
 48
0.8
100
AcDbLine
 10
984.1551814542171
 20
408.8727547570973
 30
0.0
 11
972.1551814542171
 21
408.8727547570973
 31
0.0
  0
LINE
  5
1A2
330
19
100
AcDbEntity
  8
4
100
AcDbLine
 10
984.1551814542171
 20
408.8727547570982
 30
0.0
 11
972.1551814542171
 21
408.8727547570973
 31
0.0
  0
LINE
  5
1A3
330
19
100
AcDbEntity
  8
4
 48
0.8
100
AcDbLine
 10
996.1551814542171
 20
405.8727547570963
 30
0.0
 11
984.1551814542171
 21
405.8727547570973
 31
0.0
  0
LINE
  5
1A4
330
19
100
AcDbEntity
  8
4
100
AcDbLine
 10
936.2886963222055
 20
516.7355738464696
 30
0.0
 11
936.2886963222055
 21
506.8727547570963
 31
0.0
  0
LINE
  5
1A5
330
19
100
AcDbEntity
  8
4
100
AcDbLine
 10
933.1551814542171
 20
522.8727547570963
 30
0.0
 11
933.1551814542171
 21
517.8727547570963
 31
0.0
  0
LINE
  5
1A6
330
19
100
AcDbEntity
  8
4
100
AcDbLine
 10
933.1550393793395
 20
517.8727547570963
 30
0.0
 11
933.1550393793394
 21
522.8727547570963
 31
0.0
  0
LINE
  5
1A7
330
19
100
AcDbEntity
  8
4
100
AcDbLine
 10
963.1551814542171
 20
488.8727547570963
 30
0.0
 11
963.1551814542171
 21
478.8727547570963
 31
0.0
  0
LINE
  5
1A8
330
19
100
AcDbEntity
  8
4
100
AcDbLine
 10
963.1551814542171
 20
506.8727547570963
 30
0.0
 11
963.1551814542171
 21
488.8727547570963
 31
0.0
  0
LINE
  5
1A9
330
19
100
AcDbEntity
  8
4
100
AcDbLine
 10
963.1550393793394
 20
478.8727547570963
 30
0.0
 11
963.1550393793394
 21
506.8727547570963
 31
0.0
  0
LINE
  5
1AA
330
19
100
AcDbEntity
  8
4
100
AcDbLine
 10
933.1551814542171
 20
506.8727547570963
 30
0.0
 11
963.1551814542171
 21
506.8727547570963
 31
0.0
  0
ARC
  5
1AB
330
19
100
AcDbEntity
  8
4
100
AcDbCircle
 10
1512.429547537782
 20
513.9973758818171
 30
0.0
 40
3.875378875279244
100
AcDbArc
 50
44.95592676274519
 51
135.0440732372548
  0
LINE
  5
1AC
330
19
100
AcDbEntity
  8
4
100
AcDbLine
 10
1509.687133759131
 20
509.8727547570963
 30
0.0
 11
1531.626443988337
 21
509.8727547570963
 31
0.0
  0
LINE
  5
1AD
330
19
100
AcDbEntity
  8
4
100
AcDbLine
 10
1509.687133759131
 20
506.8727547570963
 30
0.0
 11
1531.626443988337
 21
506.8727547570963
 31
0.0
  0
LINE
  5
1AE
330
19
100
AcDbEntity
  8
4
100
AcDbLine
 10
1528.884030209686
 20
517.8727547570963
 30
0.0
 11
1512.429547537782
 21
517.8727547570963
 31
0.0
  0
LINE
  5
1AF
330
19
100
AcDbEntity
  8
4
100
AcDbLine
 10
1509.687133759131
 20
516.7355738464696
 30
0.0
 11
1509.687133759131
 21
506.8727547570963
 31
0.0
  0
LINE
  5
1B0
330
19
100
AcDbEntity
  8
4
100
AcDbLine
 10
1512.82064862712
 20
517.3727547570963
 30
0.0
 11
1512.82064862712
 21
522.8727547570963
 31
0.0
  0
LINE
  5
1B1
330
19
100
AcDbEntity
  8
4
100
AcDbLine
 10
1482.82064862712
 20
488.8727547570982
 30
0.0
 11
1482.82064862712
 21
478.8727547570982
 31
0.0
  0
LINE
  5
1B2
330
19
100
AcDbEntity
  8
4
100
AcDbLine
 10
1482.82064862712
 20
488.8727547570982
 30
0.0
 11
1482.82064862712
 21
506.8727547570963
 31
0.0
  0
LINE
  5
1B3
330
19
100
AcDbEntity
  8
4
100
AcDbLine
 10
1610.32064862712
 20
522.8727547570963
 30
0.0
 11
1610.32064862712
 21
540.8727547570963
 31
0.0
  0
LINE
  5
1B4
330
19
100
AcDbEntity
  8
4
100
AcDbLine
 10
1565.32064862712
 20
522.8727547570963
 30
0.0
 11
1565.32064862712
 21
540.8727547570963
 31
0.0
  0
ARC
  5
1B5
330
19
100
AcDbEntity
  8
4
100
AcDbCircle
 10
1587.82064862712
 20
567.8727547570963
 30
0.0
 40
45.0
100
AcDbArc
 50
300.0
 51
239.9999999999999
  0
LINE
  5
1B6
330
19
100
AcDbEntity
  8
L-CENTER
100
AcDbLine
 10
1587.82064862712
 20
506.8727547570963
 30
0.0
 11
1587.82064862712
 21
626.5990727570972
 31
0.0
  0
LINE
  5
1B7
330
19
100
AcDbEntity
  8
L-CENTER
100
AcDbLine
 10
1520.656788873734
 20
521.4735946372004
 30
0.0
 11
1520.656788873734
 21
474.4200432272098
 31
0.0
  0
LINE
  5
1B8
330
19
100
AcDbEntity
  8
4
100
AcDbLine
 10
1531.626443988337
 20
506.8727547570963
 30
0.0
 11
1531.626443988337
 21
516.7355738464696
 31
0.0
  0
LINE
  5
1B9
330
19
100
AcDbEntity
  8
4
100
AcDbLine
 10
1526.141616431035
 20
516.7355738464696
 30
0.0
 11
1526.141616431035
 21
509.8727547570963
 31
0.0
  0
ARC
  5
1BA
330
19
100
AcDbEntity
  8
4
100
AcDbCircle
 10
1528.884030209686
 20
513.9973758818171
 30
0.0
 40
3.875378875279264
100
AcDbArc
 50
44.95592676274519
 51
135.0440732372548
  0
LINE
  5
1BB
330
19
100
AcDbEntity
  8
4
100
AcDbLine
 10
1515.171961316433
 20
516.7355738464696
 30
0.0
 11
1515.171961316433
 21
509.8727547570963
 31
0.0
  0
ARC
  5
1BC
330
19
100
AcDbEntity
  8
4
100
AcDbCircle
 10
1520.656788873734
 20
504.077010621919
 30
0.0
 40
13.7957441351769
100
AcDbArc
 50
66.57340249137164
 51
113.4265975086284
  0
ARC
  5
1BD
330
19
100
AcDbEntity
  8
4
100
AcDbCircle
 10
1674.788377581642
 20
513.9973758818171
 30
0.0
 40
3.875378875279244
100
AcDbArc
 50
44.95592676274519
 51
135.0440732372548
  0
LINE
  5
1BE
330
19
100
AcDbEntity
  8
4
100
AcDbLine
 10
1672.045963802991
 20
516.7355738464696
 30
0.0
 11
1672.045963802991
 21
506.8727547570963
 31
0.0
  0
LINE
  5
1BF
330
19
100
AcDbEntity
  8
4
100
AcDbLine
 10
1677.530791360292
 20
516.7355738464696
 30
0.0
 11
1677.530791360292
 21
509.8727547570963
 31
0.0
  0
LINE
  5
1C0
330
19
100
AcDbEntity
  8
4
100
AcDbLine
 10
1610.32064862712
 20
540.8727547570963
 30
0.0
 11
1565.32064862712
 21
540.8727547570963
 31
0.0
  0
CIRCLE
  5
1C1
330
19
100
AcDbEntity
  8
4
100
AcDbCircle
 10
1587.82064862712
 20
567.8727547570963
 30
0.0
 40
25.0
  0
LINE
  5
1C2
330
19
100
AcDbEntity
  8
4
100
AcDbLine
 10
1587.82064862712
 20
542.8727547570963
 30
0.0
 11
1610.32064862712
 21
540.8727547570963
 31
0.0
  0
LINE
  5
1C3
330
19
100
AcDbEntity
  8
L-CENTER
100
AcDbLine
 10
1646.546966627121
 20
567.8727547570963
 30
0.0
 11
1529.094330627119
 21
567.8727547570963
 31
0.0
  0
LINE
  5
1C4
330
19
100
AcDbEntity
  8
4
100
AcDbLine
 10
1587.82064862712
 20
542.8727547570963
 30
0.0
 11
1565.32064862712
 21
540.8727547570963
 31
0.0
  0
LINE
  5
1C5
330
19
100
AcDbEntity
  8
L-CENTER
 48
0.8
100
AcDbLine
 10
1790.82064862712
 20
529.4850705033525
 30
0.0
 11
1790.82064862712
 21
210.2286986875163
 31
0.0
  0
LINE
  5
1C6
330
19
100
AcDbEntity
  8
4
100
AcDbLine
 10
2121.82064862712
 20
478.8727547570963
 30
0.0
 11
2121.82064862712
 21
264.8727547570982
 31
0.0
  0
ARC
  5
1C7
330
19
100
AcDbEntity
  8
4
100
AcDbCircle
 10
1990.820648627119
 20
5.872754757097255
 30
0.0
 40
400.0
100
AcDbArc
 50
80.95623721670229
 51
99.04376278329771
  0
LINE
  5
1C8
330
19
100
AcDbEntity
  8
4
 48
0.8
100
AcDbLine
 10
2065.820648627119
 20
408.8727547570973
 30
0.0
 11
2065.82064862712
 21
258.8727547570973
 31
0.0
  0
LINE
  5
1C9
330
19
100
AcDbEntity
  8
4
 48
0.8
100
AcDbLine
 10
1915.820648627119
 20
408.8727547570973
 30
0.0
 11
1915.82064862712
 21
258.8727547570973
 31
0.0
  0
LINE
  5
1CA
330
19
100
AcDbEntity
  8
L-CENTER
100
AcDbLine
 10
1990.820648627119
 20
417.7128440544573
 30
0.0
 11
1990.820648627119
 21
250.0326654597372
 31
0.0
  0
CIRCLE
  5
1CB
330
19
100
AcDbEntity
  8
L-CENTER
100
AcDbCircle
 10
1990.820648627119
 20
333.8727547570973
 30
0.0
 40
72.5
  0
LINE
  5
1CC
330
19
100
AcDbEntity
  8
L-CENTER
100
AcDbLine
 10
1797.82064862712
 20
210.2286986875163
 30
0.0
 11
1797.82064862712
 21
564.6493407105565
 31
0.0
  0
LINE
  5
1CD
330
19
100
AcDbEntity
  8
L-CENTER
100
AcDbLine
 10
1677.82064862712
 20
481.1835802340729
 30
0.0
 11
1677.82064862712
 21
537.4899223411637
 31
0.0
  0
LINE
  5
1CE
330
19
100
AcDbEntity
  8
L-CENTER
100
AcDbLine
 10
1807.82064862712
 20
38.68835933030846
 30
0.0
 11
1807.82064862712
 21
723.0571501838874
 31
0.0
  0
LINE
  5
1CF
330
19
100
AcDbEntity
  8
4
 48
0.8
100
AcDbLine
 10
2065.82064862712
 20
258.8727547570973
 30
0.0
 11
1915.82064862712
 21
258.8727547570973
 31
0.0
  0
ARC
  5
1D0
330
19
100
AcDbEntity
  8
4
100
AcDbCircle
 10
1990.820648627119
 20
661.8727547570963
 30
0.0
 40
400.0
100
AcDbArc
 50
260.9562372167022
 51
279.0437627832977
  0
ARC
  5
1D1
330
19
100
AcDbEntity
  8
4
100
AcDbCircle
 10
1990.820648627119
 20
333.8727547570973
 30
0.0
 40
23.0
100
AcDbArc
 50
105.1216653149091
 51
74.87833468509095
  0
CIRCLE
  5
1D2
330
19
100
AcDbEntity
  8
4
100
AcDbCircle
 10
1990.820648627119
 20
333.8727547570973
 30
0.0
 40
36.0
  0
LINE
  5
1D3
330
19
100
AcDbEntity
  8
4
100
AcDbLine
 10
2152.82064862712
 20
193.8727547570973
 30
0.0
 11
1972.82064862712
 21
193.8727547570973
 31
0.0
  0
LINE
  5
1D4
330
19
100
AcDbEntity
  8
4
100
AcDbLine
 10
1922.82064862712
 20
218.8727547570963
 30
0.0
 11
1692.82064862712
 21
218.8727547570963
 31
0.0
  0
LINE
  5
1D5
330
19
100
AcDbEntity
  8
4
100
AcDbLine
 10
1692.82064862712
 20
218.8727547570963
 30
0.0
 11
1692.82064862712
 21
233.8727547570963
 31
0.0
  0
LINE
  5
1D6
330
19
100
AcDbEntity
  8
L-CENTER
100
AcDbLine
 10
1952.23159554185
 20
295.2837016718283
 30
0.0
 11
1926.879218440338
 21
269.9313245703167
 31
0.0
  0
ARC
  5
1D7
330
19
100
AcDbEntity
  8
4
100
AcDbCircle
 10
2318.820648627119
 20
333.8727547570973
 30
0.0
 40
400.0
100
AcDbArc
 50
170.9562372167024
 51
189.0437627832976
  0
ARC
  5
1D8
330
19
100
AcDbEntity
  8
4
100
AcDbCircle
 10
1928.731064612286
 20
271.7831707422649
 30
0.0
 40
5.0
100
AcDbArc
 50
189.0437627833011
 51
260.956237216704
  0
LINE
  5
1D9
330
19
100
AcDbEntity
  8
4
100
AcDbLine
 10
1922.82064862712
 20
218.8727547570963
 30
0.0
 11
1922.82064862712
 21
233.8727547570963
 31
0.0
  0
LINE
  5
1DA
330
19
100
AcDbEntity
  8
4
100
AcDbLine
 10
1972.82064862712
 20
193.8727547570973
 30
0.0
 11
1972.82064862712
 21
233.8727547570973
 31
0.0
  0
ARC
  5
1DB
330
19
100
AcDbEntity
  8
4
100
AcDbCircle
 10
1928.731064612286
 20
395.9623387719296
 30
0.0
 40
5.0
100
AcDbArc
 50
99.043762783296
 51
170.956237216704
  0
LINE
  5
1DC
330
19
100
AcDbEntity
  8
L-CENTER
100
AcDbLine
 10
1952.23159554185
 20
372.4618078423662
 30
0.0
 11
1926.879218440338
 21
397.8141849438778
 31
0.0
  0
LINE
  5
1DD
330
19
100
AcDbEntity
  8
4
100
AcDbLine
 10
1948.055406991095
 20
380.2305191050102
 30
0.0
 11
1948.055406991095
 21
390.0454736812337
 31
0.0
  0
LINE
  5
1DE
330
19
100
AcDbEntity
  8
4
100
AcDbLine
 10
1939.555406991095
 20
394.9529509693459
 30
0.0
 11
1931.055406991095
 21
390.0454736812337
 31
0.0
  0
LINE
  5
1DF
330
19
100
AcDbEntity
  8
4
100
AcDbLine
 10
1931.055406991095
 20
390.0454736812337
 30
0.0
 11
1931.055406991095
 21
380.2305191050102
 31
0.0
  0
LINE
  5
1E0
330
19
100
AcDbEntity
  8
4
100
AcDbLine
 10
1931.055406991095
 20
380.2305191050102
 30
0.0
 11
1939.555406991095
 21
375.3230418168989
 31
0.0
  0
LINE
  5
1E1
330
19
100
AcDbEntity
  8
4
100
AcDbLine
 10
1948.055406991095
 20
390.0454736812337
 30
0.0
 11
1939.555406991095
 21
394.9529509693459
 31
0.0
  0
LINE
  5
1E2
330
19
100
AcDbEntity
  8
4
100
AcDbLine
 10
1939.555406991095
 20
375.3230418168989
 30
0.0
 11
1948.055406991095
 21
380.2305191050102
 31
0.0
  0
LINE
  5
1E3
330
19
100
AcDbEntity
  8
4
 48
0.8
100
AcDbLine
 10
1996.820648627118
 20
360.3727547570973
 30
0.0
 11
1996.820648627118
 21
352.3727547570973
 31
0.0
  0
LINE
  5
1E4
330
19
100
AcDbEntity
  8
4
 48
0.8
100
AcDbLine
 10
1984.820648627119
 20
360.3727547570973
 30
0.0
 11
1984.820648627118
 21
352.3727547570973
 31
0.0
  0
LINE
  5
1E5
330
19
100
AcDbEntity
  8
4
100
AcDbLine
 10
1984.820648627119
 20
352.3727547570973
 30
0.0
 11
1996.820648627118
 21
352.3727547570973
 31
0.0
  0
LINE
  5
1E6
330
19
100
AcDbEntity
  8
4
100
AcDbLine
 10
1984.820648627119
 20
360.3727547570973
 30
0.0
 11
1996.820648627118
 21
360.3727547570973
 31
0.0
  0
LINE
  5
1E7
330
19
100
AcDbEntity
  8
4
100
AcDbLine
 10
2132.21305499554
 20
285.4015647570975
 30
0.0
 11
2132.21305499554
 21
268.343944757097
 31
0.0
  0
LINE
  5
1E8
330
19
100
AcDbEntity
  8
4
100
AcDbLine
 10
2126.82064862712
 20
289.3727547570973
 30
0.0
 11
2126.82064862712
 21
264.3727547570973
 31
0.0
  0
LINE
  5
1E9
330
19
100
AcDbEntity
  8
L-CENTER
100
AcDbLine
 10
2029.409701712387
 20
295.2837016718283
 30
0.0
 11
2054.762078813899
 21
269.9313245703172
 31
0.0
  0
ARC
  5
1EA
330
19
100
AcDbEntity
  8
4
100
AcDbCircle
 10
1662.820648627119
 20
333.8727547570973
 30
0.0
 40
400.0
100
AcDbArc
 50
350.9562372167024
 51
9.043762783297629
  0
ARC
  5
1EB
330
19
100
AcDbEntity
  8
4
100
AcDbCircle
 10
2052.910232641951
 20
271.7831707422649
 30
0.0
 40
5.0
100
AcDbArc
 50
279.043762783296
 51
350.956237216704
  0
LINE
  5
1EC
330
19
100
AcDbEntity
  8
4
100
AcDbLine
 10
2152.82064862712
 20
193.8727547570973
 30
0.0
 11
2152.82064862712
 21
233.8727547570973
 31
0.0
  0
LINE
  5
1ED
330
19
100
AcDbEntity
  8
L-CENTER
100
AcDbLine
 10
2112.82064862712
 20
253.8727547570963
 30
0.0
 11
2112.82064862712
 21
173.8727547570973
 31
0.0
  0
LINE
  5
1EE
330
19
100
AcDbEntity
  8
4
100
AcDbLine
 10
2132.21305499554
 20
268.343944757097
 30
0.0
 11
2126.82064862712
 21
268.5322192576893
 31
0.0
  0
LINE
  5
1EF
330
19
100
AcDbEntity
  8
L-CENTER
100
AcDbLine
 10
2141.82064862712
 20
276.8727547570973
 30
0.0
 11
2091.82064862712
 21
276.8727547570973
 31
0.0
  0
LINE
  5
1F0
330
19
100
AcDbEntity
  8
4
100
AcDbLine
 10
2108.412879453281
 20
278.2805239309348
 30
0.0
 11
2152.820648627123
 21
233.8727547570936
 31
0.0
  0
LINE
  5
1F1
330
19
100
AcDbEntity
  8
4
100
AcDbLine
 10
2126.82064862712
 20
264.3727547570973
 30
0.0
 11
2122.32064862712
 21
264.3727547570973
 31
0.0
  0
LINE
  5
1F2
330
19
100
AcDbEntity
  8
4
100
AcDbLine
 10
2108.412879453278
 20
278.2805239309321
 30
0.0
 11
2108.412879453278
 21
233.8727547570973
 31
0.0
  0
LINE
  5
1F3
330
19
100
AcDbEntity
  8
L-CENTER
100
AcDbLine
 10
2029.409701712387
 20
372.4618078423657
 30
0.0
 11
2054.762078813899
 21
397.8141849438773
 31
0.0
  0
ARC
  5
1F4
330
19
100
AcDbEntity
  8
4
100
AcDbCircle
 10
2052.910232641951
 20
395.9623387719296
 30
0.0
 40
5.0
100
AcDbArc
 50
9.04376278330115
 51
80.956237216704
  0
LINE
  5
1F5
330
19
100
AcDbEntity
  8
4
100
AcDbLine
 10
2132.21305499554
 20
285.4015647570975
 30
0.0
 11
2126.82064862712
 21
285.2132902565052
 31
0.0
  0
LINE
  5
1F6
330
19
100
AcDbEntity
  8
4
100
AcDbLine
 10
2126.82064862712
 20
289.3727547570973
 30
0.0
 11
2121.82064862712
 21
289.3727547570973
 31
0.0
  0
LINE
  5
1F7
330
19
100
AcDbEntity
  8
4
100
AcDbLine
 10
2007.82064862712
 20
542.8727547570963
 30
0.0
 11
1985.32064862712
 21
540.8727547570963
 31
0.0
  0
LINE
  5
1F8
330
19
100
AcDbEntity
  8
4
100
AcDbLine
 10
2030.32064862712
 20
540.8727547570963
 30
0.0
 11
1985.32064862712
 21
540.8727547570963
 31
0.0
  0
CIRCLE
  5
1F9
330
19
100
AcDbEntity
  8
4
100
AcDbCircle
 10
2007.82064862712
 20
567.8727547570963
 30
0.0
 40
25.0
  0
LINE
  5
1FA
330
19
100
AcDbEntity
  8
L-CENTER
100
AcDbLine
 10
2066.546966627121
 20
567.8727547570963
 30
0.0
 11
1949.094330627119
 21
567.8727547570963
 31
0.0
  0
ARC
  5
1FB
330
19
100
AcDbEntity
  8
4
100
AcDbCircle
 10
2007.82064862712
 20
567.8727547570963
 30
0.0
 40
45.0
100
AcDbArc
 50
300.0
 51
239.9999999999999
  0
LINE
  5
1FC
330
19
100
AcDbEntity
  8
4
 48
0.8
100
AcDbLine
 10
2065.820648627119
 20
408.8727547570973
 30
0.0
 11
1915.820648627119
 21
408.8727547570973
 31
0.0
  0
LINE
  5
1FD
330
19
100
AcDbEntity
  8
4
100
AcDbLine
 10
1852.82064862712
 20
712.8727547570963
 30
0.0
 11
1852.82064862712
 21
555.8727547570963
 31
0.0
  0
LINE
  5
1FE
330
19
100
AcDbEntity
  8
4
100
AcDbLine
 10
1762.82064862712
 20
712.8727547570982
 30
0.0
 11
1762.82064862712
 21
555.8727547570982
 31
0.0
  0
LINE
  5
1FF
330
19
100
AcDbEntity
  8
4
100
AcDbLine
 10
1754.82064862712
 20
713.8727547570982
 30
0.0
 11
1754.82064862712
 21
563.8727547570982
 31
0.0
  0
LINE
  5
200
330
19
100
AcDbEntity
  8
4
100
AcDbLine
 10
1834.038702639883
 20
540.3727547571
 30
0.0
 11
1853.66861179233
 21
540.3727547571009
 31
0.0
  0
LINE
  5
201
330
19
100
AcDbEntity
  8
4
100
AcDbLine
 10
1834.038702639883
 20
537.8727547571
 30
0.0
 11
1853.66861179233
 21
537.8727547571009
 31
0.0
  0
LINE
  5
202
330
19
100
AcDbEntity
  8
4
100
AcDbLine
 10
1851.214873148274
 20
547.3727547571009
 30
0.0
 11
1836.492441283939
 21
547.3727547571
 31
0.0
  0
ARC
  5
203
330
19
100
AcDbEntity
  8
4
100
AcDbCircle
 10
1843.853657216107
 20
533.5935894596412
 30
0.0
 40
13.77916529745958
100
AcDbArc
 50
69.13593563608373
 51
110.8640643639235
  0
LINE
  5
204
330
19
100
AcDbEntity
  8
4
100
AcDbLine
 10
1855.32064862712
 20
553.8727547570963
 30
0.0
 11
1760.32064862712
 21
553.8727547570982
 31
0.0
  0
LINE
  5
205
330
19
100
AcDbEntity
  8
4
100
AcDbLine
 10
1922.82064862712
 20
537.8727547570963
 30
0.0
 11
1692.82064862712
 21
537.8727547570963
 31
0.0
  0
LINE
  5
206
330
19
100
AcDbEntity
  8
L-CENTER
100
AcDbLine
 10
1737.787640038131
 20
509.4367993394883
 30
0.0
 11
1737.787640038134
 21
550.24073301168
 31
0.0
  0
LINE
  5
207
330
19
100
AcDbEntity
  8
L-CENTER
100
AcDbLine
 10
1737.109970508464
 20
509.4367993394883
 30
0.0
 11
1737.109970508466
 21
550.24073301168
 31
0.0
  0
LINE
  5
208
330
19
100
AcDbEntity
  8
4
100
AcDbLine
 10
1692.82064862712
 20
537.8727547570963
 30
0.0
 11
1692.82064862712
 21
533.3727547570968
 31
0.0
  0
LINE
  5
209
330
19
100
AcDbEntity
  8
L-CENTER
100
AcDbLine
 10
1683.015618917593
 20
521.4735946372004
 30
0.0
 11
1683.015618917593
 21
474.4200432272098
 31
0.0
  0
LINE
  5
20A
330
19
100
AcDbEntity
  8
4
100
AcDbLine
 10
1693.985274032197
 20
506.8727547570963
 30
0.0
 11
1693.985274032197
 21
516.7355738464696
 31
0.0
  0
LINE
  5
20B
330
19
100
AcDbEntity
  8
4
100
AcDbLine
 10
1688.500446474894
 20
516.7355738464696
 30
0.0
 11
1688.500446474894
 21
509.8727547570963
 31
0.0
  0
ARC
  5
20C
330
19
100
AcDbEntity
  8
4
100
AcDbCircle
 10
1691.242860253546
 20
513.9973758818171
 30
0.0
 40
3.875378875279264
100
AcDbArc
 50
44.95592676274519
 51
135.0440732372548
  0
LINE
  5
20D
330
19
100
AcDbEntity
  8
4
100
AcDbLine
 10
1834.038702639883
 20
538.8727547570963
 30
0.0
 11
1747.602594614357
 21
538.8727547570963
 31
0.0
  0
LINE
  5
20E
330
19
100
AcDbEntity
  8
4
100
AcDbLine
 10
1762.820648627119
 20
563.8727547570982
 30
0.0
 11
1754.82064862712
 21
563.8727547570982
 31
0.0
  0
ARC
  5
20F
330
19
100
AcDbEntity
  8
4
100
AcDbCircle
 10
1737.787640038133
 20
533.5935894596412
 30
0.0
 40
13.77916529745958
100
AcDbArc
 50
69.13593563607654
 51
110.8640643639163
  0
LINE
  5
210
330
19
100
AcDbEntity
  8
4
100
AcDbLine
 10
1730.426424105965
 20
547.3727547571009
 30
0.0
 11
1745.148855970301
 21
547.3727547571
 31
0.0
  0
LINE
  5
211
330
19
100
AcDbEntity
  8
4
100
AcDbLine
 10
1747.602594614356
 20
537.8727547571
 30
0.0
 11
1727.972685461909
 21
537.8727547571009
 31
0.0
  0
LINE
  5
212
330
19
100
AcDbEntity
  8
4
100
AcDbLine
 10
1747.602594614356
 20
540.3727547571
 30
0.0
 11
1727.295015932242
 21
540.3727547571009
 31
0.0
  0
ARC
  5
213
330
19
100
AcDbEntity
  8
4
100
AcDbCircle
 10
1745.148855970301
 20
543.5891408280406
 30
0.0
 40
3.783613929059507
100
AcDbArc
 50
49.57010315516856
 51
130.4298968448217
  0
LINE
  5
214
330
19
100
AcDbEntity
  8
4
100
AcDbLine
 10
1747.602594614357
 20
546.4692278112482
 30
0.0
 11
1747.602594614356
 21
537.8727547571
 31
0.0
  0
LINE
  5
215
330
19
100
AcDbEntity
  8
4
100
AcDbLine
 10
1742.695117326245
 20
546.4692278112482
 30
0.0
 11
1742.695117326244
 21
540.3727547571
 31
0.0
  0
LINE
  5
216
330
19
100
AcDbEntity
  8
4
100
AcDbLine
 10
1732.880162750021
 20
546.4692278112491
 30
0.0
 11
1732.880162750021
 21
540.3727547571009
 31
0.0
  0
LINE
  5
217
330
19
100
AcDbEntity
  8
4
100
AcDbLine
 10
1727.972685461909
 20
537.8727547571009
 30
0.0
 11
1727.97268546191
 21
546.4692278112491
 31
0.0
  0
ARC
  5
218
330
19
100
AcDbEntity
  8
4
100
AcDbCircle
 10
1730.426424105965
 20
543.5891408280415
 30
0.0
 40
3.783613929059507
100
AcDbArc
 50
49.57010315516856
 51
130.4298968448217
  0
LINE
  5
219
330
19
100
AcDbEntity
  8
4
100
AcDbLine
 10
1727.295015932242
 20
537.8727547571009
 30
0.0
 11
1727.295015932243
 21
546.4692278112491
 31
0.0
  0
LINE
  5
21A
330
19
100
AcDbEntity
  8
4
100
AcDbLine
 10
1746.924925084689
 20
537.8727547571
 30
0.0
 11
1727.295015932242
 21
537.8727547571009
 31
0.0
  0
LINE
  5
21B
330
19
100
AcDbEntity
  8
4
100
AcDbLine
 10
1729.748754576298
 20
547.3727547571009
 30
0.0
 11
1744.471186440634
 21
547.3727547571
 31
0.0
  0
ARC
  5
21C
330
19
100
AcDbEntity
  8
4
100
AcDbCircle
 10
1729.748754576298
 20
543.5891408280415
 30
0.0
 40
3.783613929059507
100
AcDbArc
 50
84.86209600149718
 51
130.4298968448217
  0
LINE
  5
21D
330
19
100
AcDbEntity
  8
4
100
AcDbLine
 10
1760.32064862712
 20
553.8727547570982
 30
0.0
 11
1760.32064862712
 21
538.8727547570963
 31
0.0
  0
ARC
  5
21E
330
19
100
AcDbEntity
  8
4
100
AcDbCircle
 10
1760.820648627119
 20
555.8727547570982
 30
0.0
 40
2.0
100
AcDbArc
 50
270.0
 51
0.0
  0
LINE
  5
21F
330
19
100
AcDbEntity
  8
4
100
AcDbLine
 10
1838.946179927995
 20
546.4692278112482
 30
0.0
 11
1838.946179927995
 21
540.3727547571
 31
0.0
  0
LINE
  5
220
330
19
100
AcDbEntity
  8
4
100
AcDbLine
 10
1834.038702639883
 20
546.4692278112482
 30
0.0
 11
1834.038702639883
 21
537.8727547571
 31
0.0
  0
ARC
  5
221
330
19
100
AcDbEntity
  8
4
100
AcDbCircle
 10
1836.492441283939
 20
543.5891408280406
 30
0.0
 40
3.783613929059507
100
AcDbArc
 50
49.57010315517826
 51
130.4298968448315
  0
LINE
  5
222
330
19
100
AcDbEntity
  8
L-CENTER
100
AcDbLine
 10
1843.853657216108
 20
509.4367993394883
 30
0.0
 11
1843.853657216106
 21
550.24073301168
 31
0.0
  0
LINE
  5
223
330
19
100
AcDbEntity
  8
L-CENTER
100
AcDbLine
 10
1878.531326745775
 20
509.4367993394883
 30
0.0
 11
1878.531326745773
 21
550.24073301168
 31
0.0
  0
LINE
  5
224
330
19
100
AcDbEntity
  8
4
100
AcDbLine
 10
1985.32064862712
 20
522.8727547570963
 30
0.0
 11
1985.32064862712
 21
540.8727547570963
 31
0.0
  0
LINE
  5
225
330
19
100
AcDbEntity
  8
4
100
AcDbLine
 10
1922.82064862712
 20
537.8727547570963
 30
0.0
 11
1922.82064862712
 21
522.8727547570963
 31
0.0
  0
LINE
  5
226
330
19
100
AcDbEntity
  8
L-CENTER
100
AcDbLine
 10
1912.625678336646
 20
521.4735946372004
 30
0.0
 11
1912.625678336646
 21
474.4200432272098
 31
0.0
  0
ARC
  5
227
330
19
100
AcDbEntity
  8
4
100
AcDbCircle
 10
1912.625678336646
 20
504.077010621919
 30
0.0
 40
13.7957441351769
100
AcDbArc
 50
66.57340249137164
 51
113.4265975086284
  0
LINE
  5
228
330
19
100
AcDbEntity
  8
4
100
AcDbLine
 10
1904.398437000694
 20
517.8727547570963
 30
0.0
 11
1920.852919672598
 21
517.8727547570963
 31
0.0
  0
LINE
  5
229
330
19
100
AcDbEntity
  8
4
100
AcDbLine
 10
1923.595333451249
 20
506.8727547570963
 30
0.0
 11
1901.656023222043
 21
506.8727547570963
 31
0.0
  0
LINE
  5
22A
330
19
100
AcDbEntity
  8
4
100
AcDbLine
 10
1923.595333451249
 20
509.8727547570963
 30
0.0
 11
1901.656023222043
 21
509.8727547570963
 31
0.0
  0
LINE
  5
22B
330
19
100
AcDbEntity
  8
4
100
AcDbLine
 10
1918.110505893947
 20
516.7355738464696
 30
0.0
 11
1918.110505893947
 21
509.8727547570963
 31
0.0
  0
LINE
  5
22C
330
19
100
AcDbEntity
  8
4
100
AcDbLine
 10
1923.595333451249
 20
516.7355738464696
 30
0.0
 11
1923.595333451249
 21
506.8727547570963
 31
0.0
  0
ARC
  5
22D
330
19
100
AcDbEntity
  8
4
100
AcDbCircle
 10
1920.852919672598
 20
513.9973758818171
 30
0.0
 40
3.875378875279244
100
AcDbArc
 50
44.95592676274519
 51
135.0440732372548
  0
ARC
  5
22E
330
19
100
AcDbEntity
  8
4
100
AcDbCircle
 10
1904.398437000694
 20
513.9973758818171
 30
0.0
 40
3.875378875279264
100
AcDbArc
 50
44.95592676274519
 51
135.0440732372548
  0
LINE
  5
22F
330
19
100
AcDbEntity
  8
4
100
AcDbLine
 10
1907.140850779345
 20
516.7355738464696
 30
0.0
 11
1907.140850779345
 21
509.8727547570963
 31
0.0
  0
LINE
  5
230
330
19
100
AcDbEntity
  8
4
100
AcDbLine
 10
1901.656023222043
 20
506.8727547570963
 30
0.0
 11
1901.656023222043
 21
516.7355738464696
 31
0.0
  0
ARC
  5
231
330
19
100
AcDbEntity
  8
4
100
AcDbCircle
 10
1878.531326745774
 20
533.5935894596412
 30
0.0
 40
13.77916529745958
100
AcDbArc
 50
69.13593563608373
 51
110.8640643639235
  0
LINE
  5
232
330
19
100
AcDbEntity
  8
4
100
AcDbLine
 10
1885.892542677941
 20
547.3727547571009
 30
0.0
 11
1871.170110813606
 21
547.3727547571
 31
0.0
  0
LINE
  5
233
330
19
100
AcDbEntity
  8
4
100
AcDbLine
 10
1868.71637216955
 20
537.8727547571
 30
0.0
 11
1888.346281321997
 21
537.8727547571009
 31
0.0
  0
LINE
  5
234
330
19
100
AcDbEntity
  8
4
100
AcDbLine
 10
1868.71637216955
 20
540.3727547571
 30
0.0
 11
1888.346281321997
 21
540.3727547571009
 31
0.0
  0
LINE
  5
235
330
19
100
AcDbEntity
  8
4
100
AcDbLine
 10
1868.716372169552
 20
538.8727547570963
 30
0.0
 11
1853.66861179233
 21
538.8727547570963
 31
0.0
  0
ARC
  5
236
330
19
100
AcDbEntity
  8
4
100
AcDbCircle
 10
1851.214873148274
 20
543.5891408280415
 30
0.0
 40
3.783613929059507
100
AcDbArc
 50
49.57010315517826
 51
130.4298968448315
  0
LINE
  5
237
330
19
100
AcDbEntity
  8
4
100
AcDbLine
 10
1853.66861179233
 20
537.8727547571009
 30
0.0
 11
1853.66861179233
 21
546.4692278112491
 31
0.0
  0
LINE
  5
238
330
19
100
AcDbEntity
  8
4
100
AcDbLine
 10
1848.761134504218
 20
546.4692278112491
 30
0.0
 11
1848.761134504219
 21
540.3727547571009
 31
0.0
  0
ARC
  5
239
330
19
100
AcDbEntity
  8
4
100
AcDbCircle
 10
1871.170110813606
 20
543.5891408280406
 30
0.0
 40
3.783613929059507
100
AcDbArc
 50
49.57010315517826
 51
130.4298968448315
  0
LINE
  5
23A
330
19
100
AcDbEntity
  8
4
100
AcDbLine
 10
1868.71637216955
 20
546.4692278112482
 30
0.0
 11
1868.71637216955
 21
537.8727547571
 31
0.0
  0
LINE
  5
23B
330
19
100
AcDbEntity
  8
4
100
AcDbLine
 10
1873.623849457662
 20
546.4692278112482
 30
0.0
 11
1873.623849457662
 21
540.3727547571
 31
0.0
  0
LINE
  5
23C
330
19
100
AcDbEntity
  8
4
100
AcDbLine
 10
1855.32064862712
 20
553.8727547570963
 30
0.0
 11
1855.320648627119
 21
538.8727547570963
 31
0.0
  0
ARC
  5
23D
330
19
100
AcDbEntity
  8
4
100
AcDbCircle
 10
1854.820648627119
 20
555.8727547570982
 30
0.0
 40
2.0
100
AcDbArc
 50
180.0
 51
270.0
  0
LINE
  5
23E
330
19
100
AcDbEntity
  8
4
100
AcDbLine
 10
1883.438804033885
 20
546.4692278112491
 30
0.0
 11
1883.438804033886
 21
540.3727547571009
 31
0.0
  0
LINE
  5
23F
330
19
100
AcDbEntity
  8
4
100
AcDbLine
 10
1888.346281321997
 20
537.8727547571009
 30
0.0
 11
1888.346281321997
 21
546.4692278112491
 31
0.0
  0
ARC
  5
240
330
19
100
AcDbEntity
  8
4
100
AcDbCircle
 10
1885.892542677941
 20
543.5891408280415
 30
0.0
 40
3.783613929059507
100
AcDbArc
 50
49.57010315517826
 51
130.4298968448315
  0
LINE
  5
241
330
19
100
AcDbEntity
  8
4
100
AcDbLine
 10
1851.82064862712
 20
713.8727547570963
 30
0.0
 11
1754.82064862712
 21
713.8727547570982
 31
0.0
  0
LINE
  5
242
330
19
100
AcDbEntity
  8
4
100
AcDbLine
 10
1762.82064862712
 20
712.8727547570982
 30
0.0
 11
1852.82064862712
 21
712.8727547570963
 31
0.0
  0
LINE
  5
243
330
19
100
AcDbEntity
  8
4
100
AcDbLine
 10
1763.82064862712
 20
713.8727547570982
 30
0.0
 11
1762.82064862712
 21
712.8727547570982
 31
0.0
  0
LINE
  5
244
330
19
100
AcDbEntity
  8
4
100
AcDbLine
 10
1852.82064862712
 20
712.8727547570963
 30
0.0
 11
1851.82064862712
 21
713.8727547570963
 31
0.0
  0
LINE
  5
245
330
19
100
AcDbEntity
  8
4
100
AcDbLine
 10
2030.32064862712
 20
522.8727547570963
 30
0.0
 11
2030.32064862712
 21
540.8727547570963
 31
0.0
  0
LINE
  5
246
330
19
100
AcDbEntity
  8
L-CENTER
100
AcDbLine
 10
2007.82064862712
 20
506.8727547570963
 30
0.0
 11
2007.82064862712
 21
626.5990727570972
 31
0.0
  0
LINE
  5
247
330
19
100
AcDbEntity
  8
L-CENTER
100
AcDbLine
 10
2141.82064862712
 20
433.8727547570973
 30
0.0
 11
2086.82064862712
 21
433.8727547570973
 31
0.0
  0
LINE
  5
248
330
19
100
AcDbEntity
  8
L-CENTER
100
AcDbLine
 10
2074.984508380506
 20
521.4735946372004
 30
0.0
 11
2074.984508380506
 21
474.4200432272098
 31
0.0
  0
LINE
  5
249
330
19
100
AcDbEntity
  8
4
100
AcDbLine
 10
2066.757267044553
 20
517.8727547570963
 30
0.0
 11
2083.211749716457
 21
517.8727547570963
 31
0.0
  0
LINE
  5
24A
330
19
100
AcDbEntity
  8
4
100
AcDbLine
 10
2085.954163495108
 20
506.8727547570963
 30
0.0
 11
2064.014853265902
 21
506.8727547570963
 31
0.0
  0
LINE
  5
24B
330
19
100
AcDbEntity
  8
4
100
AcDbLine
 10
2085.954163495108
 20
509.8727547570963
 30
0.0
 11
2064.014853265902
 21
509.8727547570963
 31
0.0
  0
ARC
  5
24C
330
19
100
AcDbEntity
  8
4
100
AcDbCircle
 10
2083.211749716457
 20
513.9973758818171
 30
0.0
 40
3.875378875279244
100
AcDbArc
 50
44.95592676274758
 51
135.044073237262
  0
LINE
  5
24D
330
19
100
AcDbEntity
  8
4
100
AcDbLine
 10
2085.954163495108
 20
516.7355738464696
 30
0.0
 11
2085.954163495108
 21
506.8727547570963
 31
0.0
  0
ARC
  5
24E
330
19
100
AcDbEntity
  8
4
100
AcDbCircle
 10
2074.984508380506
 20
504.077010621919
 30
0.0
 40
13.7957441351769
100
AcDbArc
 50
66.57340249137289
 51
113.4265975086292
  0
LINE
  5
24F
330
19
100
AcDbEntity
  8
4
100
AcDbLine
 10
2080.469335937807
 20
516.7355738464696
 30
0.0
 11
2080.469335937807
 21
509.8727547570963
 31
0.0
  0
ARC
  5
250
330
19
100
AcDbEntity
  8
4
100
AcDbCircle
 10
2066.757267044553
 20
513.9973758818171
 30
0.0
 40
3.875378875279264
100
AcDbArc
 50
44.95592676274758
 51
135.044073237262
  0
LINE
  5
251
330
19
100
AcDbEntity
  8
4
100
AcDbLine
 10
2069.499680823204
 20
516.7355738464696
 30
0.0
 11
2069.499680823204
 21
509.8727547570963
 31
0.0
  0
LINE
  5
252
330
19
100
AcDbEntity
  8
4
100
AcDbLine
 10
2064.014853265902
 20
506.8727547570963
 30
0.0
 11
2064.014853265902
 21
516.7355738464696
 31
0.0
  0
LINE
  5
253
330
19
100
AcDbEntity
  8
4
100
AcDbLine
 10
2082.82064862712
 20
517.3727547570963
 30
0.0
 11
2082.82064862712
 21
522.8727547570963
 31
0.0
  0
LINE
  5
254
330
19
100
AcDbEntity
  8
4
100
AcDbLine
 10
2128.82064862712
 20
451.8727547570973
 30
0.0
 11
2135.82064862712
 21
451.8727547570973
 31
0.0
  0
LINE
  5
255
330
19
100
AcDbEntity
  8
4
100
AcDbLine
 10
2128.82064862712
 20
415.8727547570968
 30
0.0
 11
2135.82064862712
 21
415.8727547570968
 31
0.0
  0
LINE
  5
256
330
19
100
AcDbEntity
  8
4
100
AcDbLine
 10
2128.82064862712
 20
416.8727547570977
 30
0.0
 11
2126.82064862712
 21
416.8727547570977
 31
0.0
  0
LINE
  5
257
330
19
100
AcDbEntity
  8
4
100
AcDbLine
 10
2128.82064862712
 20
451.8727547570973
 30
0.0
 11
2128.82064862712
 21
415.8727547570968
 31
0.0
  0
LINE
  5
258
330
19
100
AcDbEntity
  8
4
100
AcDbLine
 10
2128.82064862712
 20
450.8727547570968
 30
0.0
 11
2126.82064862712
 21
450.8727547570968
 31
0.0
  0
LINE
  5
259
330
19
100
AcDbEntity
  8
4
100
AcDbLine
 10
2126.82064862712
 20
453.8727547570973
 30
0.0
 11
2121.82064862712
 21
453.8727547570973
 31
0.0
  0
LINE
  5
25A
330
19
100
AcDbEntity
  8
4
100
AcDbLine
 10
2126.82064862712
 20
413.8727547570973
 30
0.0
 11
2121.82064862712
 21
413.8727547570973
 31
0.0
  0
LINE
  5
25B
330
19
100
AcDbEntity
  8
4
100
AcDbLine
 10
2126.82064862712
 20
453.8727547570973
 30
0.0
 11
2126.82064862712
 21
413.8727547570973
 31
0.0
  0
LINE
  5
25C
330
19
100
AcDbEntity
  8
4
100
AcDbLine
 10
2130.82064862712
 20
442.8727547570973
 30
0.0
 11
2135.82064862712
 21
442.8727547570973
 31
0.0
  0
LINE
  5
25D
330
19
100
AcDbEntity
  8
4
100
AcDbLine
 10
2135.82064862712
 20
451.8727547570973
 30
0.0
 11
2135.82064862712
 21
415.8727547570968
 31
0.0
  0
LINE
  5
25E
330
19
100
AcDbEntity
  8
4
100
AcDbLine
 10
2130.82064862712
 20
451.8727547570973
 30
0.0
 11
2130.82064862712
 21
415.8727547570968
 31
0.0
  0
LINE
  5
25F
330
19
100
AcDbEntity
  8
4
100
AcDbLine
 10
2130.82064862712
 20
424.8727547570973
 30
0.0
 11
2135.82064862712
 21
424.8727547570973
 31
0.0
  0
LINE
  5
260
330
19
100
AcDbEntity
  8
4
100
AcDbLine
 10
2112.82064862712
 20
488.8727547570963
 30
0.0
 11
2112.82064862712
 21
478.8727547570963
 31
0.0
  0
LINE
  5
261
330
19
100
AcDbEntity
  8
4
100
AcDbLine
 10
2112.82064862712
 20
488.8727547570963
 30
0.0
 11
2112.82064862712
 21
506.8727547570963
 31
0.0
  0
LINE
  5
262
330
19
100
AcDbEntity
  8
4
100
AcDbLine
 10
2007.82064862712
 20
542.8727547570963
 30
0.0
 11
2030.32064862712
 21
540.8727547570963
 31
0.0
  0
CIRCLE
  5
263
330
19
100
AcDbEntity
  8
4
100
AcDbCircle
 10
773.1551814542173
 20
1385.981987576494
 30
0.0
 40
52.5
  0
LINE
  5
264
330
19
100
AcDbEntity
  8
4
100
AcDbLine
 10
771.6630236907564
 20
1109.14022489981
 30
0.0
 11
761.5283838516672
 21
1104.942319628693
 31
0.0
  0
CIRCLE
  5
265
330
19
100
AcDbEntity
  8
4
100
AcDbCircle
 10
762.9602111637436
 20
1115.818127823109
 30
0.0
 40
9.5
  0
LINE
  5
266
330
19
100
AcDbEntity
  8
4
100
AcDbLine
 10
764.3920384758197
 20
1126.693936017525
 30
0.0
 11
773.0948510028335
 21
1120.016033094226
 31
0.0
  0
CIRCLE
  5
267
330
19
100
AcDbEntity
  8
4
100
AcDbCircle
 10
762.9602111637445
 20
1670.145847329881
 30
0.0
 40
9.5
  0
LINE
  5
268
330
19
100
AcDbEntity
  8
4
100
AcDbLine
 10
764.3920384758209
 20
1659.270039135465
 30
0.0
 11
773.0948510028333
 21
1665.947942058764
 31
0.0
  0
LINE
  5
269
330
19
100
AcDbEntity
  8
4
100
AcDbLine
 10
771.6630236907573
 20
1676.82375025318
 30
0.0
 11
761.5283838516683
 21
1681.021655524297
 31
0.0
  0
LINE
  5
26A
330
19
100
AcDbEntity
  8
L-CENTER
100
AcDbLine
 10
752.6277584898868
 20
1645.201099952075
 30
0.0
 11
773.2926638376017
 21
1695.090594707685
 31
0.0
  0
CIRCLE
  5
26B
330
19
100
AcDbEntity
  8
L-CENTER
 48
4.0
100
AcDbCircle
 10
773.1551814542174
 20
1385.981987576495
 30
0.0
 40
75.0
  0
CIRCLE
  5
26C
330
19
100
AcDbEntity
  8
4
100
AcDbCircle
 10
773.1551814542174
 20
1385.981987576495
 30
0.0
 40
90.0
  0
LINE
  5
26D
330
19
100
AcDbEntity
  8
L-CENTER
 48
0.8
100
AcDbLine
 10
653.1551814542171
 20
1385.981987576494
 30
0.0
 11
893.1551814542173
 21
1385.981987576494
 31
0.0
  0
LINE
  5
26E
330
19
100
AcDbEntity
  8
L-CENTER
 48
0.8
100
AcDbLine
 10
304.1551814542171
 20
1392.981987576494
 30
0.0
 11
992.1551814542173
 21
1392.981987576494
 31
0.0
  0
LINE
  5
26F
330
19
100
AcDbEntity
  8
L-CENTER
 48
0.8
100
AcDbLine
 10
1117.430083894877
 20
1585.981987576494
 30
0.0
 11
293.9450227871307
 21
1585.981987576494
 31
0.0
  0
LINE
  5
270
330
19
100
AcDbEntity
  8
L-CENTER
100
AcDbLine
 10
752.6277584898866
 20
1140.762875200914
 30
0.0
 11
773.2926638376015
 21
1090.873380445304
 31
0.0
  0
CIRCLE
  5
271
330
19
100
AcDbEntity
  8
4
100
AcDbCircle
 10
648.1551814542172
 20
1392.981987576495
 30
0.0
 40
324.0
  0
CIRCLE
  5
272
330
19
100
AcDbEntity
  8
L-CENTER
 48
4.0
100
AcDbCircle
 10
648.1551814542172
 20
1392.981987576495
 30
0.0
 40
300.0
  0
CIRCLE
  5
273
330
19
100
AcDbEntity
  8
4
100
AcDbCircle
 10
648.1551814542172
 20
1392.981987576495
 30
0.0
 40
314.9999999999999
  0
CIRCLE
  5
274
330
19
100
AcDbEntity
  8
4
100
AcDbCircle
 10
648.1551814542172
 20
1392.981987576495
 30
0.0
 40
285.0
  0
ARC
  5
275
330
19
100
AcDbEntity
  8
4
100
AcDbCircle
 10
648.1551814542172
 20
1392.981987576495
 30
0.0
 40
250.0
100
AcDbArc
 50
272.0050369384209
 51
87.99496306157906
  0
CIRCLE
  5
276
330
19
100
AcDbEntity
  8
4
100
AcDbCircle
 10
398.1551814542173
 20
1707.981987576495
 30
0.0
 40
11.0
  0
LINE
  5
277
330
19
100
AcDbEntity
  8
L-CENTER
 48
0.8
100
AcDbLine
 10
398.1551814542171
 20
1738.981987576494
 30
0.0
 11
398.1551814542171
 21
1676.981987576494
 31
0.0
  0
LINE
  5
278
330
19
100
AcDbEntity
  8
4
100
AcDbLine
 10
338.1551814542171
 20
1747.981987576494
 30
0.0
 11
338.1551814542171
 21
1660.981987576494
 31
0.0
  0
LINE
  5
279
330
19
100
AcDbEntity
  8
4
100
AcDbLine
 10
498.1551814542171
 20
1747.981987576494
 30
0.0
 11
498.1551814542171
 21
1680.168338227077
 31
0.0
  0
LINE
  5
27A
330
19
100
AcDbEntity
  8
4
100
AcDbLine
 10
486.1551814542171
 20
1747.981987576494
 30
0.0
 11
486.1551814542171
 21
1673.574218402652
 31
0.0
  0
LINE
  5
27B
330
19
100
AcDbEntity
  8
L-CENTER
 48
0.8
100
AcDbLine
 10
648.1551814542171
 20
1736.981987576494
 30
0.0
 11
648.1551814542171
 21
1048.981987576495
 31
0.0
  0
ARC
  5
27C
330
19
100
AcDbEntity
  8
4
100
AcDbCircle
 10
648.1551814542172
 20
1392.981987576495
 30
0.0
 40
250.0
100
AcDbArc
 50
92.00503693842093
 51
267.9949630615791
  0
LINE
  5
27D
330
19
100
AcDbEntity
  8
4
100
AcDbLine
 10
338.1551814542171
 20
1247.981987576495
 30
0.0
 11
338.1551814542171
 21
1067.981987576495
 31
0.0
  0
LINE
  5
27E
330
19
100
AcDbEntity
  8
4
100
AcDbLine
 10
338.1551814542171
 20
1067.981987576495
 30
0.0
 11
498.1551814542171
 21
1067.981987576495
 31
0.0
  0
CIRCLE
  5
27F
330
19
100
AcDbEntity
  8
4
100
AcDbCircle
 10
398.1551814542172
 20
1107.981987576495
 30
0.0
 40
11.0
  0
LINE
  5
280
330
19
100
AcDbEntity
  8
L-CENTER
 48
0.8
100
AcDbLine
 10
398.1551814542171
 20
1138.981987576495
 30
0.0
 11
398.1551814542171
 21
1076.981987576495
 31
0.0
  0
LINE
  5
281
330
19
100
AcDbEntity
  8
L-CENTER
 48
0.8
100
AcDbLine
 10
429.1551814542171
 20
1107.981987576495
 30
0.0
 11
367.1551814542171
 21
1107.981987576495
 31
0.0
  0
CIRCLE
  5
282
330
19
100
AcDbEntity
  8
4
100
AcDbCircle
 10
533.3501517446906
 20
1115.818127823109
 30
0.0
 40
9.5
  0
LINE
  5
283
330
19
100
AcDbEntity
  8
4
100
AcDbLine
 10
524.6473392176778
 20
1109.14022489981
 30
0.0
 11
534.781979056767
 21
1104.942319628693
 31
0.0
  0
LINE
  5
284
330
19
100
AcDbEntity
  8
4
100
AcDbLine
 10
534.781979056767
 20
1104.942319628693
 30
0.0
 11
543.4847915837794
 21
1111.620222551991
 31
0.0
  0
LINE
  5
285
330
19
100
AcDbEntity
  8
L-CENTER
100
AcDbLine
 10
543.6826044185481
 20
1140.762875200914
 30
0.0
 11
523.0176990708331
 21
1090.873380445304
 31
0.0
  0
LINE
  5
286
330
19
100
AcDbEntity
  8
4
100
AcDbLine
 10
486.1551814542171
 20
1112.389756750336
 30
0.0
 11
486.1551814542171
 21
1067.981987576495
 31
0.0
  0
LINE
  5
287
330
19
100
AcDbEntity
  8
4
100
AcDbLine
 10
498.1551814542171
 20
1105.795636925911
 30
0.0
 11
498.1551814542171
 21
1067.981987576495
 31
0.0
  0
LINE
  5
288
330
19
100
AcDbEntity
  8
4
100
AcDbLine
 10
531.9183244326144
 20
1126.693936017525
 30
0.0
 11
523.2155119056007
 21
1120.016033094226
 31
0.0
  0
LINE
  5
289
330
19
100
AcDbEntity
  8
4
100
AcDbLine
 10
543.4847915837794
 20
1111.620222551991
 30
0.0
 11
542.0529642717034
 21
1122.496030746407
 31
0.0
  0
LINE
  5
28A
330
19
100
AcDbEntity
  8
4
100
AcDbLine
 10
523.2155119056007
 20
1120.016033094226
 30
0.0
 11
524.6473392176778
 21
1109.14022489981
 31
0.0
  0
LINE
  5
28B
330
19
100
AcDbEntity
  8
4
100
AcDbLine
 10
542.0529642717034
 20
1122.496030746407
 30
0.0
 11
531.9183244326144
 21
1126.693936017525
 31
0.0
  0
LINE
  5
28C
330
19
100
AcDbEntity
  8
4
100
AcDbLine
 10
761.5283838516672
 20
1104.942319628693
 30
0.0
 11
752.8255713246548
 21
1111.620222551991
 31
0.0
  0
LINE
  5
28D
330
19
100
AcDbEntity
  8
L-CENTER
 48
4.0
100
AcDbLine
 10
608.1551814542171
 20
1182.981987576495
 30
0.0
 11
688.1551814542173
 21
1182.981987576495
 31
0.0
  0
ARC
  5
28E
330
19
100
AcDbEntity
  8
4
100
AcDbCircle
 10
648.1551814542172
 20
1182.981987576495
 30
0.0
 40
25.0
100
AcDbArc
 50
293.5781784781998
 51
66.42182152179805
  0
ARC
  5
28F
330
19
100
AcDbEntity
  8
4
100
AcDbCircle
 10
648.1551814542173
 20
1182.981987576495
 30
0.0
 40
22.5
100
AcDbArc
 50
296.3877999612436
 51
63.61220003875751
  0
ARC
  5
290
330
19
100
AcDbEntity
  8
4
100
AcDbCircle
 10
648.1551814542173
 20
1182.981987576495
 30
0.0
 40
22.5
100
AcDbArc
 50
116.3877999612425
 51
243.6122000387565
  0
ARC
  5
291
330
19
100
AcDbEntity
  8
4
100
AcDbCircle
 10
648.1551814542173
 20
1182.981987576495
 30
0.0
 40
20.0
100
AcDbArc
 50
119.9999999999999
 51
240.0000000000001
  0
ARC
  5
292
330
19
100
AcDbEntity
  8
4
100
AcDbCircle
 10
648.1551814542173
 20
1182.981987576495
 30
0.0
 40
20.0
100
AcDbArc
 50
299.9999999999998
 51
60.00000000000011
  0
LINE
  5
293
330
19
100
AcDbEntity
  8
4
100
AcDbLine
 10
638.1551814542162
 20
1147.981987576495
 30
0.0
 11
638.1551814542171
 21
1217.981987576495
 31
0.0
  0
LINE
  5
294
330
19
100
AcDbEntity
  8
4
100
AcDbLine
 10
658.1551814542162
 20
1147.981987576495
 30
0.0
 11
658.1551814542171
 21
1217.981987576495
 31
0.0
  0
ARC
  5
295
330
19
100
AcDbEntity
  8
4
100
AcDbCircle
 10
648.1551814542172
 20
1182.981987576495
 30
0.0
 40
25.0
100
AcDbArc
 50
113.5781784782027
 51
246.4218215217964
  0
ARC
  5
296
330
19
100
AcDbEntity
  8
4
100
AcDbCircle
 10
648.1551814542173
 20
1147.981987576495
 30
0.0
 40
10.0
100
AcDbArc
 50
180.0
 51
0.0
  0
ARC
  5
297
330
19
100
AcDbEntity
  8
4
100
AcDbCircle
 10
648.1551814542173
 20
1217.981987576495
 30
0.0
 40
10.0
100
AcDbArc
 50
0.0
 51
180.0
  0
LINE
  5
298
330
19
100
AcDbEntity
  8
4
100
AcDbLine
 10
754.2573986367307
 20
1122.496030746407
 30
0.0
 11
764.3920384758197
 21
1126.693936017525
 31
0.0
  0
LINE
  5
299
330
19
100
AcDbEntity
  8
4
100
AcDbLine
 10
752.8255713246548
 20
1111.620222551991
 30
0.0
 11
754.2573986367307
 21
1122.496030746407
 31
0.0
  0
LINE
  5
29A
330
19
100
AcDbEntity
  8
4
100
AcDbLine
 10
312.1551814542171
 20
1660.981987576494
 30
0.0
 11
466.0782746263602
 21
1660.981987576494
 31
0.0
  0
CIRCLE
  5
29B
330
19
100
AcDbEntity
  8
4
100
AcDbCircle
 10
551.8070393793405
 20
1402.981987576495
 30
0.0
 40
115.0
  0
LINE
  5
29C
330
19
100
AcDbEntity
  8
L-CENTER
 48
0.8
100
AcDbLine
 10
406.8070393793395
 20
1402.981987576494
 30
0.0
 11
696.8070393793397
 21
1402.981987576494
 31
0.0
  0
LINE
  5
29D
330
19
100
AcDbEntity
  8
L-CENTER
100
AcDbLine
 10
395.936069078636
 20
1288.509410540825
 30
0.0
 11
346.0465743230269
 21
1267.844505193111
 31
0.0
  0
LINE
  5
29E
330
19
100
AcDbEntity
  8
4
100
AcDbLine
 10
338.1551814542171
 20
1247.981987576495
 30
0.0
 11
358.4121918927784
 21
1247.981987576495
 31
0.0
  0
LINE
  5
29F
330
19
100
AcDbEntity
  8
4
100
AcDbLine
 10
381.8671298952471
 20
1276.745130554892
 30
0.0
 11
377.6692246241299
 21
1286.879770393981
 31
0.0
  0
LINE
  5
2A0
330
19
100
AcDbEntity
  8
4
100
AcDbLine
 10
364.3134187775328
 20
1269.474145339955
 30
0.0
 11
375.1892269719486
 21
1268.042318027879
 31
0.0
  0
LINE
  5
2A1
330
19
100
AcDbEntity
  8
4
100
AcDbLine
 10
366.7934164297134
 20
1288.311597706057
 30
0.0
 11
360.1155135064154
 21
1279.608785179044
 31
0.0
  0
LINE
  5
2A2
330
19
100
AcDbEntity
  8
4
100
AcDbLine
 10
360.1155135064154
 20
1279.608785179044
 30
0.0
 11
364.3134187775328
 21
1269.474145339955
 31
0.0
  0
CIRCLE
  5
2A3
330
19
100
AcDbEntity
  8
4
100
AcDbCircle
 10
370.991321700831
 20
1278.176957866968
 30
0.0
 40
9.5
  0
LINE
  5
2A4
330
19
100
AcDbEntity
  8
4
100
AcDbLine
 10
375.1892269719486
 20
1268.042318027879
 30
0.0
 11
381.8671298952471
 21
1276.745130554892
 31
0.0
  0
LINE
  5
2A5
330
19
100
AcDbEntity
  8
4
100
AcDbLine
 10
377.6692246241299
 20
1286.879770393981
 30
0.0
 11
366.7934164297134
 21
1288.311597706057
 31
0.0
  0
LINE
  5
2A6
330
19
100
AcDbEntity
  8
4
100
AcDbLine
 10
300.1551814542162
 20
1657.981987576494
 30
0.0
 11
300.1551814542162
 21
1513.981987576495
 31
0.0
  0
LINE
  5
2A7
330
19
100
AcDbEntity
  8
4
100
AcDbLine
 10
312.1551814542171
 20
1660.981987576494
 30
0.0
 11
312.1551814542171
 21
1510.981987576494
 31
0.0
  0
LINE
  5
2A8
330
19
100
AcDbEntity
  8
L-CENTER
100
AcDbLine
 10
395.936069078636
 20
1497.454564612163
 30
0.0
 11
346.0465743230269
 21
1518.119469959878
 31
0.0
  0
LINE
  5
2A9
330
19
100
AcDbEntity
  8
4
100
AcDbLine
 10
300.1551814542162
 20
1524.90203300027
 30
0.0
 11
300.1551814542162
 21
1544.531942152718
 31
0.0
  0
LINE
  5
2AA
330
19
100
AcDbEntity
  8
4
100
AcDbLine
 10
297.6551814542162
 20
1524.90203300027
 30
0.0
 11
297.6551814542162
 21
1544.531942152718
 31
0.0
  0
LINE
  5
2AB
330
19
100
AcDbEntity
  8
4
100
AcDbLine
 10
290.6551814542162
 20
1542.078203508661
 30
0.0
 11
290.6551814542162
 21
1527.355771644326
 31
0.0
  0
ARC
  5
2AC
330
19
100
AcDbEntity
  8
4
100
AcDbCircle
 10
304.4343467516754
 20
1534.716987576493
 30
0.0
 40
13.77916529745958
100
AcDbArc
 50
159.1359356360806
 51
200.8640643639194
  0
LINE
  5
2AD
330
19
100
AcDbEntity
  8
4
100
AcDbLine
 10
312.1551814542171
 20
1510.981987576494
 30
0.0
 11
346.4069420227332
 21
1510.981987576494
 31
0.0
  0
ARC
  5
2AE
330
19
100
AcDbEntity
  8
4
100
AcDbCircle
 10
294.4387953832755
 20
1527.355771644326
 30
0.0
 40
3.783613929059507
100
AcDbArc
 50
139.5701031551685
 51
220.4298968448315
  0
LINE
  5
2AF
330
19
100
AcDbEntity
  8
4
100
AcDbLine
 10
291.5587084000689
 20
1524.90203300027
 30
0.0
 11
300.1551814542162
 21
1524.90203300027
 31
0.0
  0
LINE
  5
2B0
330
19
100
AcDbEntity
  8
4
100
AcDbLine
 10
291.5587084000689
 20
1529.809510288381
 30
0.0
 11
297.6551814542162
 21
1529.809510288381
 31
0.0
  0
LINE
  5
2B1
330
19
100
AcDbEntity
  8
4
 48
0.8
100
AcDbLine
 10
300.1551814542171
 20
1513.981987576494
 30
0.0
 11
312.1551814542162
 21
1513.981987576494
 31
0.0
  0
LINE
  5
2B2
330
19
100
AcDbEntity
  8
L-CENTER
100
AcDbLine
 10
328.2462581519929
 20
1534.716987576493
 30
0.0
 11
287.7872031996357
 21
1534.716987576493
 31
0.0
  0
LINE
  5
2B3
330
19
100
AcDbEntity
  8
4
100
AcDbLine
 10
300.1551814542162
 20
1544.531942152718
 30
0.0
 11
291.5587084000689
 21
1544.531942152718
 31
0.0
  0
ARC
  5
2B4
330
19
100
AcDbEntity
  8
4
100
AcDbCircle
 10
294.4387953832755
 20
1542.078203508661
 30
0.0
 40
3.783613929059507
100
AcDbArc
 50
139.5701031551685
 51
220.4298968448315
  0
LINE
  5
2B5
330
19
100
AcDbEntity
  8
4
100
AcDbLine
 10
291.5587084000689
 20
1539.624464864606
 30
0.0
 11
297.6551814542162
 21
1539.624464864606
 31
0.0
  0
LINE
  5
2B6
330
19
100
AcDbEntity
  8
4
100
AcDbLine
 10
364.3134187775321
 20
1516.489829813034
 30
0.0
 11
375.1892269719486
 21
1517.921657125111
 31
0.0
  0
LINE
  5
2B7
330
19
100
AcDbEntity
  8
4
100
AcDbLine
 10
366.7934164297134
 20
1497.652377446932
 30
0.0
 11
360.1155135064149
 21
1506.355189973945
 31
0.0
  0
CIRCLE
  5
2B8
330
19
100
AcDbEntity
  8
4
100
AcDbCircle
 10
370.991321700831
 20
1507.787017286021
 30
0.0
 40
9.5
  0
LINE
  5
2B9
330
19
100
AcDbEntity
  8
4
100
AcDbLine
 10
381.8671298952466
 20
1509.218844598097
 30
0.0
 11
377.6692246241292
 21
1499.084204759008
 31
0.0
  0
LINE
  5
2BA
330
19
100
AcDbEntity
  8
4
100
AcDbLine
 10
375.1892269719486
 20
1517.921657125111
 30
0.0
 11
381.8671298952466
 21
1509.218844598097
 31
0.0
  0
LINE
  5
2BB
330
19
100
AcDbEntity
  8
4
100
AcDbLine
 10
377.6692246241292
 20
1499.084204759008
 30
0.0
 11
366.7934164297134
 21
1497.652377446932
 31
0.0
  0
LINE
  5
2BC
330
19
100
AcDbEntity
  8
4
100
AcDbLine
 10
360.1155135064149
 20
1506.355189973945
 30
0.0
 11
364.3134187775321
 21
1516.489829813034
 31
0.0
  0
LINE
  5
2BD
330
19
100
AcDbEntity
  8
L-CENTER
100
AcDbLine
 10
328.2462581519929
 20
1637.246987576494
 30
0.0
 11
287.7872031996357
 21
1637.246987576494
 31
0.0
  0
LINE
  5
2BE
330
19
100
AcDbEntity
  8
4
100
AcDbLine
 10
291.5587084000689
 20
1642.154464864605
 30
0.0
 11
297.6551814542162
 21
1642.154464864605
 31
0.0
  0
LINE
  5
2BF
330
19
100
AcDbEntity
  8
4
100
AcDbLine
 10
300.1551814542162
 20
1647.061942152717
 30
0.0
 11
291.5587084000689
 21
1647.061942152717
 31
0.0
  0
ARC
  5
2C0
330
19
100
AcDbEntity
  8
4
100
AcDbCircle
 10
294.4387953832755
 20
1644.608203508662
 30
0.0
 40
3.783613929059507
100
AcDbArc
 50
139.5701031551685
 51
220.4298968448315
  0
ARC
  5
2C1
330
19
100
AcDbEntity
  8
4
100
AcDbCircle
 10
294.4387953832755
 20
1629.885771644326
 30
0.0
 40
3.783613929059507
100
AcDbArc
 50
139.5701031551685
 51
220.4298968448315
  0
LINE
  5
2C2
330
19
100
AcDbEntity
  8
4
100
AcDbLine
 10
291.5587084000689
 20
1627.43203300027
 30
0.0
 11
300.1551814542162
 21
1627.43203300027
 31
0.0
  0
LINE
  5
2C3
330
19
100
AcDbEntity
  8
4
100
AcDbLine
 10
291.5587084000689
 20
1632.339510288382
 30
0.0
 11
297.6551814542162
 21
1632.339510288382
 31
0.0
  0
ARC
  5
2C4
330
19
100
AcDbEntity
  8
4
100
AcDbCircle
 10
304.4343467516754
 20
1637.246987576494
 30
0.0
 40
13.77916529745958
100
AcDbArc
 50
159.1359356360806
 51
200.8640643639194
  0
LINE
  5
2C5
330
19
100
AcDbEntity
  8
4
100
AcDbLine
 10
300.1551814542162
 20
1627.43203300027
 30
0.0
 11
300.1551814542162
 21
1647.061942152717
 31
0.0
  0
LINE
  5
2C6
330
19
100
AcDbEntity
  8
4
100
AcDbLine
 10
297.6551814542162
 20
1627.43203300027
 30
0.0
 11
297.6551814542162
 21
1647.061942152717
 31
0.0
  0
LINE
  5
2C7
330
19
100
AcDbEntity
  8
4
100
AcDbLine
 10
290.6551814542162
 20
1644.608203508662
 30
0.0
 11
290.6551814542162
 21
1629.885771644326
 31
0.0
  0
LINE
  5
2C8
330
19
100
AcDbEntity
  8
4
 48
0.8
100
AcDbLine
 10
300.1551814542171
 20
1657.981987576493
 30
0.0
 11
312.1551814542162
 21
1657.981987576494
 31
0.0
  0
LINE
  5
2C9
330
19
100
AcDbEntity
  8
L-CENTER
 48
0.8
100
AcDbLine
 10
429.1551814542171
 20
1707.981987576494
 30
0.0
 11
367.1551814542171
 21
1707.981987576494
 31
0.0
  0
LINE
  5
2CA
330
19
100
AcDbEntity
  8
L-CENTER
100
AcDbLine
 10
495.2384968844161
 20
1459.550530071418
 30
0.0
 11
466.9542256369549
 21
1487.83480131888
 31
0.0
  0
CIRCLE
  5
2CB
330
19
100
AcDbEntity
  8
4
100
AcDbCircle
 10
481.0963612606856
 20
1473.692665695149
 30
0.0
 40
8.5
  0
LINE
  5
2CC
330
19
100
AcDbEntity
  8
4
100
AcDbLine
 10
471.6158431516568
 20
1476.232962866292
 30
0.0
 11
474.1561403227996
 21
1466.752444757263
 31
0.0
  0
LINE
  5
2CD
330
19
100
AcDbEntity
  8
4
100
AcDbLine
 10
490.5768793697133
 20
1471.152368524006
 30
0.0
 11
488.0365821985705
 21
1480.632886633035
 31
0.0
  0
CIRCLE
  5
2CE
330
19
100
AcDbEntity
  8
4
100
AcDbCircle
 10
622.5177174979945
 20
1473.692665695149
 30
0.0
 40
8.5
  0
LINE
  5
2CF
330
19
100
AcDbEntity
  8
L-CENTER
100
AcDbLine
 10
608.3755818742637
 20
1459.550530071418
 30
0.0
 11
636.6598531217259
 21
1487.83480131888
 31
0.0
  0
LINE
  5
2D0
330
19
100
AcDbEntity
  8
4
100
AcDbLine
 10
613.0371993889665
 20
1471.152368524006
 30
0.0
 11
615.5774965601094
 21
1480.632886633035
 31
0.0
  0
LINE
  5
2D1
330
19
100
AcDbEntity
  8
4
100
AcDbLine
 10
631.998235607024
 20
1476.232962866292
 30
0.0
 11
629.4579384358811
 21
1466.752444757263
 31
0.0
  0
LINE
  5
2D2
330
19
100
AcDbEntity
  8
L-CENTER
 48
4.0
100
AcDbLine
 10
551.8070393793404
 20
1267.981987576495
 30
0.0
 11
551.8070393793404
 21
1537.981987576494
 31
0.0
  0
CIRCLE
  5
2D3
330
19
100
AcDbEntity
  8
L-CENTER
 48
4.0
100
AcDbCircle
 10
551.8070393793405
 20
1402.981987576495
 30
0.0
 40
100.0
  0
CIRCLE
  5
2D4
330
19
100
AcDbEntity
  8
4
100
AcDbCircle
 10
551.8070393793405
 20
1402.981987576495
 30
0.0
 40
65.0
  0
LINE
  5
2D5
330
19
100
AcDbEntity
  8
4
100
AcDbLine
 10
539.8070393793403
 20
1349.981987576494
 30
0.0
 11
539.8070393793403
 21
1365.981987576494
 31
0.0
  0
LINE
  5
2D6
330
19
100
AcDbEntity
  8
4
100
AcDbLine
 10
563.8070393793403
 20
1349.981987576494
 30
0.0
 11
563.8070393793403
 21
1365.981987576494
 31
0.0
  0
LINE
  5
2D7
330
19
100
AcDbEntity
  8
4
100
AcDbLine
 10
474.1561403227996
 20
1339.211530395726
 30
0.0
 11
483.6366584318283
 21
1341.751827566869
 31
0.0
  0
LINE
  5
2D8
330
19
100
AcDbEntity
  8
4
100
AcDbLine
 10
488.0365821985705
 20
1325.331088519954
 30
0.0
 11
478.5560640895427
 21
1322.790791348812
 31
0.0
  0
CIRCLE
  5
2D9
330
19
100
AcDbEntity
  8
4
100
AcDbCircle
 10
481.0963612606856
 20
1332.271309457841
 30
0.0
 40
8.5
  0
LINE
  5
2DA
330
19
100
AcDbEntity
  8
L-CENTER
100
AcDbLine
 10
495.2384968844161
 20
1346.413445081571
 30
0.0
 11
466.9542256369549
 21
1318.129173834109
 31
0.0
  0
LINE
  5
2DB
330
19
100
AcDbEntity
  8
4
100
AcDbLine
 10
471.6158431516568
 20
1329.731012286697
 30
0.0
 11
474.1561403227996
 21
1339.211530395726
 31
0.0
  0
LINE
  5
2DC
330
19
100
AcDbEntity
  8
4
100
AcDbLine
 10
478.5560640895427
 20
1322.790791348812
 30
0.0
 11
471.6158431516568
 21
1329.731012286697
 31
0.0
  0
LINE
  5
2DD
330
19
100
AcDbEntity
  8
4
100
AcDbLine
 10
483.6366584318283
 20
1341.751827566869
 30
0.0
 11
490.5768793697133
 21
1334.811606628983
 31
0.0
  0
LINE
  5
2DE
330
19
100
AcDbEntity
  8
4
100
AcDbLine
 10
490.5768793697133
 20
1334.811606628983
 30
0.0
 11
488.0365821985705
 21
1325.331088519954
 31
0.0
  0
LINE
  5
2DF
330
19
100
AcDbEntity
  8
4
100
AcDbLine
 10
563.8070393793403
 20
1349.981987576494
 30
0.0
 11
539.8070393793403
 21
1349.981987576494
 31
0.0
  0
ARC
  5
2E0
330
19
100
AcDbEntity
  8
4
100
AcDbCircle
 10
551.8070393793403
 20
1402.981987576494
 30
0.0
 40
45.0
100
AcDbArc
 50
285.4660099534208
 51
254.5339900465792
  0
LINE
  5
2E1
330
19
100
AcDbEntity
  8
4
100
AcDbLine
 10
474.1561403227996
 20
1466.752444757263
 30
0.0
 11
483.6366584318283
 21
1464.21214758612
 31
0.0
  0
LINE
  5
2E2
330
19
100
AcDbEntity
  8
4
100
AcDbLine
 10
483.6366584318283
 20
1464.21214758612
 30
0.0
 11
490.5768793697133
 21
1471.152368524006
 31
0.0
  0
LINE
  5
2E3
330
19
100
AcDbEntity
  8
4
100
AcDbLine
 10
563.8070393793403
 20
1365.981987576494
 30
0.0
 11
539.8070393793403
 21
1365.981987576494
 31
0.0
  0
LINE
  5
2E4
330
19
100
AcDbEntity
  8
4
100
AcDbLine
 10
629.4579384358811
 20
1339.211530395726
 30
0.0
 11
619.9774203268524
 21
1341.751827566869
 31
0.0
  0
LINE
  5
2E5
330
19
100
AcDbEntity
  8
4
100
AcDbLine
 10
619.9774203268524
 20
1341.751827566869
 30
0.0
 11
613.0371993889665
 21
1334.811606628983
 31
0.0
  0
LINE
  5
2E6
330
19
100
AcDbEntity
  8
4
100
AcDbLine
 10
631.998235607024
 20
1329.731012286697
 30
0.0
 11
629.4579384358811
 21
1339.211530395726
 31
0.0
  0
LINE
  5
2E7
330
19
100
AcDbEntity
  8
4
100
AcDbLine
 10
615.5774965601094
 20
1325.331088519954
 30
0.0
 11
625.0580146691381
 21
1322.790791348812
 31
0.0
  0
LINE
  5
2E8
330
19
100
AcDbEntity
  8
L-CENTER
100
AcDbLine
 10
608.3755818742637
 20
1346.413445081571
 30
0.0
 11
636.6598531217259
 21
1318.129173834109
 31
0.0
  0
CIRCLE
  5
2E9
330
19
100
AcDbEntity
  8
4
100
AcDbCircle
 10
622.5177174979945
 20
1332.271309457841
 30
0.0
 40
8.5
  0
LINE
  5
2EA
330
19
100
AcDbEntity
  8
4
100
AcDbLine
 10
613.0371993889665
 20
1334.811606628983
 30
0.0
 11
615.5774965601094
 21
1325.331088519954
 31
0.0
  0
LINE
  5
2EB
330
19
100
AcDbEntity
  8
4
100
AcDbLine
 10
625.0580146691381
 20
1322.790791348812
 30
0.0
 11
631.998235607024
 21
1329.731012286697
 31
0.0
  0
LINE
  5
2EC
330
19
100
AcDbEntity
  8
4
100
AcDbLine
 10
722.6624700363647
 20
1342.429497096537
 30
0.0
 11
729.6026909742501
 21
1335.489276158651
 31
0.0
  0
LINE
  5
2ED
330
19
100
AcDbEntity
  8
4
100
AcDbLine
 10
727.0623938031073
 20
1326.008758049622
 30
0.0
 11
717.581875694079
 21
1323.46846087848
 31
0.0
  0
CIRCLE
  5
2EE
330
19
100
AcDbEntity
  8
4
100
AcDbCircle
 10
720.1221728652217
 20
1332.948978987509
 30
0.0
 40
8.5
  0
LINE
  5
2EF
330
19
100
AcDbEntity
  8
L-CENTER
100
AcDbLine
 10
734.2643084889529
 20
1347.091114611239
 30
0.0
 11
705.9800372414908
 21
1318.806843363778
 31
0.0
  0
LINE
  5
2F0
330
19
100
AcDbEntity
  8
4
100
AcDbLine
 10
713.181951927336
 20
1339.889199925394
 30
0.0
 11
722.6624700363647
 21
1342.429497096537
 31
0.0
  0
LINE
  5
2F1
330
19
100
AcDbEntity
  8
4
100
AcDbLine
 10
710.6416547561931
 20
1330.408681816365
 30
0.0
 11
713.181951927336
 21
1339.889199925394
 31
0.0
  0
LINE
  5
2F2
330
19
100
AcDbEntity
  8
4
100
AcDbLine
 10
717.581875694079
 20
1323.46846087848
 30
0.0
 11
710.6416547561931
 21
1330.408681816365
 31
0.0
  0
LINE
  5
2F3
330
19
100
AcDbEntity
  8
4
100
AcDbLine
 10
729.6026909742501
 20
1335.489276158651
 30
0.0
 11
727.0623938031073
 21
1326.008758049622
 31
0.0
  0
LINE
  5
2F4
330
19
100
AcDbEntity
  8
4
100
AcDbLine
 10
629.4579384358811
 20
1466.752444757263
 30
0.0
 11
619.9774203268524
 21
1464.21214758612
 31
0.0
  0
LINE
  5
2F5
330
19
100
AcDbEntity
  8
4
100
AcDbLine
 10
619.9774203268524
 20
1464.21214758612
 30
0.0
 11
613.0371993889665
 21
1471.152368524006
 31
0.0
  0
LINE
  5
2F6
330
19
100
AcDbEntity
  8
L-CENTER
100
AcDbLine
 10
734.2643084889529
 20
1424.87286054175
 30
0.0
 11
705.9800372414908
 21
1453.157131789211
 31
0.0
  0
LINE
  5
2F7
330
19
100
AcDbEntity
  8
4
100
AcDbLine
 10
722.6624700363647
 20
1429.534478056452
 30
0.0
 11
729.6026909742501
 21
1436.474698994338
 31
0.0
  0
CIRCLE
  5
2F8
330
19
100
AcDbEntity
  8
4
100
AcDbCircle
 10
720.1221728652217
 20
1439.014996165481
 30
0.0
 40
8.5
  0
LINE
  5
2F9
330
19
100
AcDbEntity
  8
4
100
AcDbLine
 10
727.0623938031073
 20
1445.955217103367
 30
0.0
 11
717.581875694079
 21
1448.495514274509
 31
0.0
  0
LINE
  5
2FA
330
19
100
AcDbEntity
  8
4
100
AcDbLine
 10
710.6416547561931
 20
1441.555293336624
 30
0.0
 11
713.181951927336
 21
1432.074775227595
 31
0.0
  0
LINE
  5
2FB
330
19
100
AcDbEntity
  8
4
100
AcDbLine
 10
713.181951927336
 20
1432.074775227595
 30
0.0
 11
722.6624700363647
 21
1429.534478056452
 31
0.0
  0
LINE
  5
2FC
330
19
100
AcDbEntity
  8
4
100
AcDbLine
 10
717.581875694079
 20
1448.495514274509
 30
0.0
 11
710.6416547561931
 21
1441.555293336624
 31
0.0
  0
LINE
  5
2FD
330
19
100
AcDbEntity
  8
4
100
AcDbLine
 10
729.6026909742501
 20
1436.474698994338
 30
0.0
 11
727.0623938031073
 21
1445.955217103367
 31
0.0
  0
LINE
  5
2FE
330
19
100
AcDbEntity
  8
4
100
AcDbLine
 10
488.0365821985705
 20
1480.632886633035
 30
0.0
 11
478.5560640895427
 21
1483.173183804177
 31
0.0
  0
LINE
  5
2FF
330
19
100
AcDbEntity
  8
4
100
AcDbLine
 10
478.5560640895427
 20
1483.173183804177
 30
0.0
 11
471.6158431516568
 21
1476.232962866292
 31
0.0
  0
LINE
  5
300
330
19
100
AcDbEntity
  8
L-CENTER
100
AcDbLine
 10
543.6826044185481
 20
1645.201099952075
 30
0.0
 11
523.0176990708331
 21
1695.090594707685
 31
0.0
  0
LINE
  5
301
330
19
100
AcDbEntity
  8
4
100
AcDbLine
 10
524.6473392176769
 20
1676.82375025318
 30
0.0
 11
534.7819790567659
 21
1681.021655524297
 31
0.0
  0
LINE
  5
302
330
19
100
AcDbEntity
  8
4
100
AcDbLine
 10
531.9183244326133
 20
1659.270039135465
 30
0.0
 11
523.2155119056009
 21
1665.947942058764
 31
0.0
  0
LINE
  5
303
330
19
100
AcDbEntity
  8
4
100
AcDbLine
 10
543.4847915837796
 20
1674.343752600999
 30
0.0
 11
542.0529642717025
 21
1663.467944406583
 31
0.0
  0
LINE
  5
304
330
19
100
AcDbEntity
  8
4
100
AcDbLine
 10
542.0529642717025
 20
1663.467944406583
 30
0.0
 11
531.9183244326133
 21
1659.270039135465
 31
0.0
  0
CIRCLE
  5
305
330
19
100
AcDbEntity
  8
4
100
AcDbCircle
 10
533.3501517446897
 20
1670.145847329881
 30
0.0
 40
9.5
  0
LINE
  5
306
330
19
100
AcDbEntity
  8
4
100
AcDbLine
 10
523.2155119056009
 20
1665.947942058764
 30
0.0
 11
524.6473392176769
 21
1676.82375025318
 31
0.0
  0
LINE
  5
307
330
19
100
AcDbEntity
  8
4
100
AcDbLine
 10
534.7819790567659
 20
1681.021655524297
 30
0.0
 11
543.4847915837796
 21
1674.343752600999
 31
0.0
  0
ARC
  5
308
330
19
100
AcDbEntity
  8
4
100
AcDbCircle
 10
648.1551814542172
 20
1602.981987576495
 30
0.0
 40
25.0
100
AcDbArc
 50
293.5781784781997
 51
66.42182152179943
  0
ARC
  5
309
330
19
100
AcDbEntity
  8
4
100
AcDbCircle
 10
648.1551814542173
 20
1602.981987576494
 30
0.0
 40
22.5
100
AcDbArc
 50
296.387799961243
 51
63.61220003875699
  0
ARC
  5
30A
330
19
100
AcDbEntity
  8
4
100
AcDbCircle
 10
648.1551814542173
 20
1602.981987576494
 30
0.0
 40
22.5
100
AcDbArc
 50
116.387799961243
 51
243.612200038757
  0
ARC
  5
30B
330
19
100
AcDbEntity
  8
4
100
AcDbCircle
 10
648.1551814542173
 20
1602.981987576494
 30
0.0
 40
20.0
100
AcDbArc
 50
119.9999999999999
 51
240.0000000000001
  0
ARC
  5
30C
330
19
100
AcDbEntity
  8
4
100
AcDbCircle
 10
648.1551814542173
 20
1602.981987576494
 30
0.0
 40
20.0
100
AcDbArc
 50
299.9999999999998
 51
60.00000000000011
  0
LINE
  5
30D
330
19
100
AcDbEntity
  8
4
100
AcDbLine
 10
638.1551814542162
 20
1567.981987576494
 30
0.0
 11
638.1551814542171
 21
1637.981987576494
 31
0.0
  0
LINE
  5
30E
330
19
100
AcDbEntity
  8
4
100
AcDbLine
 10
658.1551814542162
 20
1567.981987576494
 30
0.0
 11
658.1551814542171
 21
1637.981987576494
 31
0.0
  0
ARC
  5
30F
330
19
100
AcDbEntity
  8
4
100
AcDbCircle
 10
648.1551814542172
 20
1602.981987576495
 30
0.0
 40
25.0
100
AcDbArc
 50
113.5781784782027
 51
246.4218215217955
  0
LINE
  5
310
330
19
100
AcDbEntity
  8
L-CENTER
 48
4.0
100
AcDbLine
 10
608.1551814542171
 20
1272.981987576494
 30
0.0
 11
688.1551814542173
 21
1272.981987576494
 31
0.0
  0
LWPOLYLINE
  5
311
330
19
100
AcDbEntity
  8
4
100
AcDbPolyline
 90
        6
 70
     1
 43
0.0
 10
648.1551814542171
 20
1295.981987576494
 10
628.236597167175
 20
1284.481987576494
 10
628.236597167175
 20
1261.481987576494
 10
648.1551814542171
 20
1249.981987576494
 10
668.0737657412592
 20
1261.481987576494
 10
668.0737657412592
 20
1284.481987576494
  0
CIRCLE
  5
312
330
19
100
AcDbEntity
  8
4
100
AcDbCircle
 10
648.1551814542171
 20
1272.981987576494
 30
0.0
 40
23.0
  0
CIRCLE
  5
313
330
19
100
AcDbEntity
  8
4
100
AcDbCircle
 10
648.1551814542172
 20
1272.981987576495
 30
0.0
 40
25.0
  0
LINE
  5
314
330
19
100
AcDbEntity
  8
4
100
AcDbLine
 10
615.5774965601094
 20
1480.632886633035
 30
0.0
 11
625.0580146691381
 21
1483.173183804177
 31
0.0
  0
LINE
  5
315
330
19
100
AcDbEntity
  8
4
100
AcDbLine
 10
625.0580146691381
 20
1483.173183804177
 30
0.0
 11
631.998235607024
 21
1476.232962866292
 31
0.0
  0
ARC
  5
316
330
19
100
AcDbEntity
  8
4
100
AcDbCircle
 10
648.1551814542173
 20
1567.981987576494
 30
0.0
 40
10.0
100
AcDbArc
 50
180.0
 51
0.0
  0
LINE
  5
317
330
19
100
AcDbEntity
  8
L-CENTER
 48
4.0
100
AcDbLine
 10
608.1551814542171
 20
1602.981987576494
 30
0.0
 11
688.1551814542173
 21
1602.981987576494
 31
0.0
  0
ARC
  5
318
330
19
100
AcDbEntity
  8
4
100
AcDbCircle
 10
648.1551814542173
 20
1637.981987576494
 30
0.0
 40
10.0
100
AcDbArc
 50
0.0
 51
180.0
  0
LINE
  5
319
330
19
100
AcDbEntity
  8
4
100
AcDbLine
 10
761.5283838516683
 20
1681.021655524297
 30
0.0
 11
752.8255713246546
 21
1674.343752600999
 31
0.0
  0
LINE
  5
31A
330
19
100
AcDbEntity
  8
4
100
AcDbLine
 10
754.2573986367316
 20
1663.467944406583
 30
0.0
 11
764.3920384758209
 21
1659.270039135465
 31
0.0
  0
LINE
  5
31B
330
19
100
AcDbEntity
  8
4
100
AcDbLine
 10
752.8255713246546
 20
1674.343752600999
 30
0.0
 11
754.2573986367316
 21
1663.467944406583
 31
0.0
  0
LINE
  5
31C
330
19
100
AcDbEntity
  8
4
100
AcDbLine
 10
338.1551814542171
 20
1747.981987576494
 30
0.0
 11
498.1551814542171
 21
1747.981987576494
 31
0.0
  0
LINE
  5
31D
330
19
100
AcDbEntity
  8
4
100
AcDbLine
 10
632.5671814542146
 20
1730.981987576494
 30
0.0
 11
663.7431814542159
 21
1730.981987576494
 31
0.0
  0
LINE
  5
31E
330
19
100
AcDbEntity
  8
4
100
AcDbLine
 10
630.1551814542162
 20
1725.981987576494
 30
0.0
 11
666.1551814542162
 21
1725.981987576494
 31
0.0
  0
LINE
  5
31F
330
19
100
AcDbEntity
  8
4
100
AcDbLine
 10
630.1551814542162
 20
1723.981987576494
 30
0.0
 11
666.1551814542162
 21
1723.981987576494
 31
0.0
  0
LINE
  5
320
330
19
100
AcDbEntity
  8
4
100
AcDbLine
 10
628.1551814542171
 20
1721.981987576494
 30
0.0
 11
668.1551814542173
 21
1721.981987576494
 31
0.0
  0
LINE
  5
321
330
19
100
AcDbEntity
  8
4
100
AcDbLine
 10
632.5671814542164
 20
1725.981987576494
 30
0.0
 11
632.5671814542146
 21
1730.981987576494
 31
0.0
  0
LINE
  5
322
330
19
100
AcDbEntity
  8
4
100
AcDbLine
 10
630.1551814542162
 20
1723.981987576494
 30
0.0
 11
630.1551814542162
 21
1725.981987576494
 31
0.0
  0
LINE
  5
323
330
19
100
AcDbEntity
  8
4
100
AcDbLine
 10
631.1551814542162
 20
1723.981987576494
 30
0.0
 11
631.1551814542162
 21
1721.981987576494
 31
0.0
  0
LINE
  5
324
330
19
100
AcDbEntity
  8
4
 48
0.8
100
AcDbLine
 10
628.1551814542171
 20
1721.981987576494
 30
0.0
 11
628.1551814542162
 21
1716.364114479018
 31
0.0
  0
LINE
  5
325
330
19
100
AcDbEntity
  8
4
100
AcDbLine
 10
663.7431814542159
 20
1725.981987576494
 30
0.0
 11
663.7431814542159
 21
1730.981987576494
 31
0.0
  0
LINE
  5
326
330
19
100
AcDbEntity
  8
4
100
AcDbLine
 10
665.1551814542144
 20
1723.981987576494
 30
0.0
 11
665.1551814542144
 21
1721.981987576494
 31
0.0
  0
LINE
  5
327
330
19
100
AcDbEntity
  8
4
100
AcDbLine
 10
666.1551814542162
 20
1723.981987576494
 30
0.0
 11
666.1551814542162
 21
1725.981987576494
 31
0.0
  0
LINE
  5
328
330
19
100
AcDbEntity
  8
4
 48
0.8
100
AcDbLine
 10
668.1551814542173
 20
1721.981987576494
 30
0.0
 11
668.1551814542173
 21
1716.364114479018
 31
0.0
  0
LINE
  5
329
330
19
100
AcDbEntity
  8
4
100
AcDbLine
 10
810.1551814542173
 20
1747.981987576494
 30
0.0
 11
810.1551814542173
 21
1673.574218402652
 31
0.0
  0
LINE
  5
32A
330
19
100
AcDbEntity
  8
4
100
AcDbLine
 10
798.1551814542173
 20
1747.981987576494
 30
0.0
 11
798.1551814542173
 21
1680.168338227078
 31
0.0
  0
CIRCLE
  5
32B
330
19
100
AcDbEntity
  8
4
100
AcDbCircle
 10
898.1551814542174
 20
1707.981987576494
 30
0.0
 40
11.0
  0
LINE
  5
32C
330
19
100
AcDbEntity
  8
4
100
AcDbLine
 10
958.1551814542182
 20
1747.981987576494
 30
0.0
 11
958.1551814542173
 21
1660.981987576494
 31
0.0
  0
LINE
  5
32D
330
19
100
AcDbEntity
  8
L-CENTER
 48
0.8
100
AcDbLine
 10
898.1551814542182
 20
1738.981987576494
 30
0.0
 11
898.1551814542182
 21
1676.981987576494
 31
0.0
  0
LINE
  5
32E
330
19
100
AcDbEntity
  8
4
100
AcDbLine
 10
958.1551814542173
 20
1247.981987576494
 30
0.0
 11
958.1551814542171
 21
1067.981987576494
 31
0.0
  0
LINE
  5
32F
330
19
100
AcDbEntity
  8
4
100
AcDbLine
 10
798.1551814542171
 20
1067.981987576495
 30
0.0
 11
958.1551814542171
 21
1067.981987576494
 31
0.0
  0
LINE
  5
330
330
19
100
AcDbEntity
  8
4
100
AcDbLine
 10
810.1551814542171
 20
1112.389756750336
 30
0.0
 11
810.1551814542171
 21
1067.981987576495
 31
0.0
  0
CIRCLE
  5
331
330
19
100
AcDbEntity
  8
4
100
AcDbCircle
 10
898.1551814542172
 20
1107.981987576495
 30
0.0
 40
11.0
  0
LINE
  5
332
330
19
100
AcDbEntity
  8
L-CENTER
 48
0.8
100
AcDbLine
 10
898.1551814542171
 20
1138.981987576494
 30
0.0
 11
898.1551814542171
 21
1076.981987576494
 31
0.0
  0
LINE
  5
333
330
19
100
AcDbEntity
  8
4
100
AcDbLine
 10
798.1551814542171
 20
1105.795636925911
 30
0.0
 11
798.1551814542171
 21
1067.981987576495
 31
0.0
  0
LINE
  5
334
330
19
100
AcDbEntity
  8
4
100
AcDbLine
 10
773.0948510028335
 20
1120.016033094226
 30
0.0
 11
771.6630236907564
 21
1109.14022489981
 31
0.0
  0
LINE
  5
335
330
19
100
AcDbEntity
  8
L-CENTER
 48
0.8
100
AcDbLine
 10
867.1551814542171
 20
1107.981987576494
 30
0.0
 11
929.1551814542171
 21
1107.981987576494
 31
0.0
  0
LINE
  5
336
330
19
100
AcDbEntity
  8
4
100
AcDbLine
 10
1011.155181454217
 20
1608.981987576494
 30
0.0
 11
1108.155181454217
 21
1608.981987576494
 31
0.0
  0
LINE
  5
337
330
19
100
AcDbEntity
  8
4
100
AcDbLine
 10
1011.155181454217
 20
1562.981987576494
 30
0.0
 11
1108.155181454217
 21
1562.981987576494
 31
0.0
  0
LINE
  5
338
330
19
100
AcDbEntity
  8
4
100
AcDbLine
 10
1109.155181454217
 20
1591.981987576494
 30
0.0
 11
1025.155181454217
 21
1591.981987576494
 31
0.0
  0
LINE
  5
339
330
19
100
AcDbEntity
  8
4
100
AcDbLine
 10
1109.155181454217
 20
1579.981987576494
 30
0.0
 11
1025.155181454217
 21
1579.981987576494
 31
0.0
  0
LINE
  5
33A
330
19
100
AcDbEntity
  8
L-CENTER
 48
0.8
100
AcDbLine
 10
773.1551814542173
 20
1505.981987576494
 30
0.0
 11
773.1551814542173
 21
1265.981987576495
 31
0.0
  0
CIRCLE
  5
33B
330
19
100
AcDbEntity
  8
4
100
AcDbCircle
 10
925.3190412076032
 20
1278.176957866968
 30
0.0
 40
9.5
  0
LINE
  5
33C
330
19
100
AcDbEntity
  8
4
100
AcDbLine
 10
929.5169464787208
 20
1288.311597706057
 30
0.0
 11
936.1948494020188
 21
1279.608785179044
 31
0.0
  0
LINE
  5
33D
330
19
100
AcDbEntity
  8
4
100
AcDbLine
 10
931.9969441309014
 20
1269.474145339955
 30
0.0
 11
921.1211359364855
 21
1268.042318027879
 31
0.0
  0
LINE
  5
33E
330
19
100
AcDbEntity
  8
L-CENTER
100
AcDbLine
 10
900.3742938297984
 20
1288.509410540824
 30
0.0
 11
950.263788585408
 21
1267.84450519311
 31
0.0
  0
LINE
  5
33F
330
19
100
AcDbEntity
  8
4
100
AcDbLine
 10
823.64789287207
 20
1342.429497096537
 30
0.0
 11
816.7076719341845
 21
1335.489276158651
 31
0.0
  0
LINE
  5
340
330
19
100
AcDbEntity
  8
4
100
AcDbLine
 10
835.6687081522415
 20
1330.408681816365
 30
0.0
 11
833.1284109810987
 21
1339.889199925394
 31
0.0
  0
LINE
  5
341
330
19
100
AcDbEntity
  8
4
100
AcDbLine
 10
833.1284109810987
 20
1339.889199925394
 30
0.0
 11
823.64789287207
 21
1342.429497096537
 31
0.0
  0
LINE
  5
342
330
19
100
AcDbEntity
  8
4
100
AcDbLine
 10
819.2479691053273
 20
1326.008758049622
 30
0.0
 11
828.7284872143556
 21
1323.46846087848
 31
0.0
  0
CIRCLE
  5
343
330
19
100
AcDbEntity
  8
4
100
AcDbCircle
 10
826.1881900432127
 20
1332.948978987508
 30
0.0
 40
8.5
  0
LINE
  5
344
330
19
100
AcDbEntity
  8
4
100
AcDbLine
 10
828.7284872143556
 20
1323.46846087848
 30
0.0
 11
835.6687081522415
 21
1330.408681816365
 31
0.0
  0
LINE
  5
345
330
19
100
AcDbEntity
  8
4
100
AcDbLine
 10
816.7076719341845
 20
1335.489276158651
 30
0.0
 11
819.2479691053273
 21
1326.008758049622
 31
0.0
  0
LINE
  5
346
330
19
100
AcDbEntity
  8
L-CENTER
100
AcDbLine
 10
812.0460544194817
 20
1347.091114611239
 30
0.0
 11
840.3303256669438
 21
1318.806843363777
 31
0.0
  0
LINE
  5
347
330
19
100
AcDbEntity
  8
4
100
AcDbLine
 10
918.6411382843042
 20
1286.879770393981
 30
0.0
 11
929.5169464787208
 21
1288.311597706057
 31
0.0
  0
LINE
  5
348
330
19
100
AcDbEntity
  8
4
100
AcDbLine
 10
921.1211359364855
 20
1268.042318027879
 30
0.0
 11
914.4432330131871
 21
1276.745130554892
 31
0.0
  0
LINE
  5
349
330
19
100
AcDbEntity
  8
4
100
AcDbLine
 10
914.4432330131871
 20
1276.745130554892
 30
0.0
 11
918.6411382843042
 21
1286.879770393981
 31
0.0
  0
LINE
  5
34A
330
19
100
AcDbEntity
  8
4
100
AcDbLine
 10
816.7076719341845
 20
1436.474698994338
 30
0.0
 11
819.2479691053273
 21
1445.955217103367
 31
0.0
  0
LINE
  5
34B
330
19
100
AcDbEntity
  8
4
100
AcDbLine
 10
819.2479691053273
 20
1445.955217103367
 30
0.0
 11
828.7284872143556
 21
1448.495514274509
 31
0.0
  0
LINE
  5
34C
330
19
100
AcDbEntity
  8
4
100
AcDbLine
 10
828.7284872143556
 20
1448.495514274509
 30
0.0
 11
835.6687081522415
 21
1441.555293336624
 31
0.0
  0
LINE
  5
34D
330
19
100
AcDbEntity
  8
4
100
AcDbLine
 10
833.1284109810987
 20
1432.074775227595
 30
0.0
 11
823.64789287207
 21
1429.534478056452
 31
0.0
  0
LINE
  5
34E
330
19
100
AcDbEntity
  8
4
100
AcDbLine
 10
835.6687081522415
 20
1441.555293336624
 30
0.0
 11
833.1284109810987
 21
1432.074775227595
 31
0.0
  0
CIRCLE
  5
34F
330
19
100
AcDbEntity
  8
4
100
AcDbCircle
 10
826.1881900432127
 20
1439.014996165481
 30
0.0
 40
8.5
  0
LINE
  5
350
330
19
100
AcDbEntity
  8
4
100
AcDbLine
 10
823.64789287207
 20
1429.534478056452
 30
0.0
 11
816.7076719341845
 21
1436.474698994338
 31
0.0
  0
LINE
  5
351
330
19
100
AcDbEntity
  8
L-CENTER
100
AcDbLine
 10
812.0460544194817
 20
1424.87286054175
 30
0.0
 11
840.3303256669438
 21
1453.157131789211
 31
0.0
  0
LINE
  5
352
330
19
100
AcDbEntity
  8
4
100
AcDbLine
 10
936.1948494020188
 20
1279.608785179044
 30
0.0
 11
931.9969441309014
 21
1269.474145339955
 31
0.0
  0
LINE
  5
353
330
19
100
AcDbEntity
  8
4
100
AcDbLine
 10
937.898171015656
 20
1247.981987576494
 30
0.0
 11
958.1551814542173
 21
1247.981987576495
 31
0.0
  0
CIRCLE
  5
354
330
19
100
AcDbEntity
  8
4
100
AcDbCircle
 10
925.3190412076032
 20
1507.787017286021
 30
0.0
 40
9.5
  0
LINE
  5
355
330
19
100
AcDbEntity
  8
4
100
AcDbLine
 10
929.5169464787208
 20
1497.652377446932
 30
0.0
 11
936.1948494020193
 21
1506.355189973945
 31
0.0
  0
LINE
  5
356
330
19
100
AcDbEntity
  8
4
100
AcDbLine
 10
931.9969441309021
 20
1516.489829813034
 30
0.0
 11
921.1211359364855
 21
1517.921657125111
 31
0.0
  0
LINE
  5
357
330
19
100
AcDbEntity
  8
4
100
AcDbLine
 10
984.1551814542173
 20
1660.981987576494
 30
0.0
 11
830.2320882820742
 21
1660.981987576494
 31
0.0
  0
LINE
  5
358
330
19
100
AcDbEntity
  8
L-CENTER
100
AcDbLine
 10
900.3742938297984
 20
1497.454564612163
 30
0.0
 11
950.263788585408
 21
1518.119469959878
 31
0.0
  0
LINE
  5
359
330
19
100
AcDbEntity
  8
4
100
AcDbLine
 10
918.6411382843049
 20
1499.084204759008
 30
0.0
 11
929.5169464787208
 21
1497.652377446932
 31
0.0
  0
LINE
  5
35A
330
19
100
AcDbEntity
  8
4
100
AcDbLine
 10
921.1211359364855
 20
1517.921657125111
 30
0.0
 11
914.4432330131875
 21
1509.218844598097
 31
0.0
  0
LINE
  5
35B
330
19
100
AcDbEntity
  8
4
100
AcDbLine
 10
914.4432330131875
 20
1509.218844598097
 30
0.0
 11
918.6411382843049
 21
1499.084204759008
 31
0.0
  0
LINE
  5
35C
330
19
100
AcDbEntity
  8
4
100
AcDbLine
 10
773.0948510028333
 20
1665.947942058764
 30
0.0
 11
771.6630236907573
 21
1676.82375025318
 31
0.0
  0
LINE
  5
35D
330
19
100
AcDbEntity
  8
L-CENTER
 48
0.8
100
AcDbLine
 10
867.1551814542173
 20
1707.981987576494
 30
0.0
 11
929.1551814542173
 21
1707.981987576494
 31
0.0
  0
LINE
  5
35E
330
19
100
AcDbEntity
  8
4
100
AcDbLine
 10
1009.155181454217
 20
1560.981987576494
 30
0.0
 11
1009.155181454217
 21
1610.981987576494
 31
0.0
  0
LINE
  5
35F
330
19
100
AcDbEntity
  8
4
100
AcDbLine
 10
997.1551814542171
 20
1621.981987576495
 30
0.0
 11
997.1551814542171
 21
1549.981987576494
 31
0.0
  0
LINE
  5
360
330
19
100
AcDbEntity
  8
4
100
AcDbLine
 10
996.1551814542171
 20
1657.981987576494
 30
0.0
 11
996.1551814542171
 21
1513.981987576495
 31
0.0
  0
LINE
  5
361
330
19
100
AcDbEntity
  8
4
100
AcDbLine
 10
984.1551814542173
 20
1660.981987576494
 30
0.0
 11
984.1551814542173
 21
1510.981987576494
 31
0.0
  0
ARC
  5
362
330
19
100
AcDbEntity
  8
4
100
AcDbCircle
 10
991.8760161567578
 20
1534.716987576493
 30
0.0
 40
13.77916529745958
100
AcDbArc
 50
339.1359356360805
 51
20.86406436391942
  0
LINE
  5
363
330
19
100
AcDbEntity
  8
4
100
AcDbLine
 10
1005.655181454217
 20
1542.078203508661
 30
0.0
 11
1005.655181454217
 21
1527.355771644326
 31
0.0
  0
LINE
  5
364
330
19
100
AcDbEntity
  8
4
100
AcDbLine
 10
998.6551814542171
 20
1524.90203300027
 30
0.0
 11
998.6551814542171
 21
1544.531942152718
 31
0.0
  0
LINE
  5
365
330
19
100
AcDbEntity
  8
4
100
AcDbLine
 10
996.1551814542171
 20
1524.90203300027
 30
0.0
 11
996.1551814542171
 21
1544.531942152718
 31
0.0
  0
LINE
  5
366
330
19
100
AcDbEntity
  8
4
100
AcDbLine
 10
984.1551814542173
 20
1510.981987576494
 30
0.0
 11
949.9034208857012
 21
1510.981987576494
 31
0.0
  0
LINE
  5
367
330
19
100
AcDbEntity
  8
4
100
AcDbLine
 10
936.1948494020193
 20
1506.355189973945
 30
0.0
 11
931.9969441309021
 21
1516.489829813034
 31
0.0
  0
LINE
  5
368
330
19
100
AcDbEntity
  8
4
100
AcDbLine
 10
1004.751654508364
 20
1529.809510288381
 30
0.0
 11
998.6551814542171
 21
1529.809510288381
 31
0.0
  0
LINE
  5
369
330
19
100
AcDbEntity
  8
4
100
AcDbLine
 10
1004.751654508364
 20
1524.90203300027
 30
0.0
 11
996.1551814542171
 21
1524.90203300027
 31
0.0
  0
ARC
  5
36A
330
19
100
AcDbEntity
  8
4
100
AcDbCircle
 10
1001.871567525158
 20
1527.355771644326
 30
0.0
 40
3.783613929059507
100
AcDbArc
 50
319.5701031551686
 51
40.42989684483145
  0
LINE
  5
36B
330
19
100
AcDbEntity
  8
4
 48
0.8
100
AcDbLine
 10
996.1551814542171
 20
1513.981987576494
 30
0.0
 11
984.1551814542171
 21
1513.981987576494
 31
0.0
  0
LINE
  5
36C
330
19
100
AcDbEntity
  8
L-CENTER
100
AcDbLine
 10
968.0641047564403
 20
1534.716987576493
 30
0.0
 11
1008.523159708798
 21
1534.716987576493
 31
0.0
  0
LINE
  5
36D
330
19
100
AcDbEntity
  8
4
100
AcDbLine
 10
1009.155181454217
 20
1560.981987576494
 30
0.0
 11
997.1551814542171
 21
1560.981987576494
 31
0.0
  0
ARC
  5
36E
330
19
100
AcDbEntity
  8
4
100
AcDbCircle
 10
1011.155181454217
 20
1560.981987576494
 30
0.0
 40
2.0
100
AcDbArc
 50
90.0
 51
180.0
  0
LINE
  5
36F
330
19
100
AcDbEntity
  8
4
100
AcDbLine
 10
1004.751654508364
 20
1539.624464864606
 30
0.0
 11
998.6551814542171
 21
1539.624464864606
 31
0.0
  0
ARC
  5
370
330
19
100
AcDbEntity
  8
4
100
AcDbCircle
 10
1001.871567525158
 20
1542.078203508661
 30
0.0
 40
3.783613929059507
100
AcDbArc
 50
319.5701031551686
 51
40.42989684483145
  0
LINE
  5
371
330
19
100
AcDbEntity
  8
4
100
AcDbLine
 10
996.1551814542171
 20
1544.531942152718
 30
0.0
 11
1004.751654508364
 21
1544.531942152718
 31
0.0
  0
LINE
  5
372
330
19
100
AcDbEntity
  8
4
 48
0.8
100
AcDbLine
 10
997.1551814542171
 20
1549.981987576494
 30
0.0
 11
996.1551814542171
 21
1549.981987576495
 31
0.0
  0
ARC
  5
373
330
19
100
AcDbEntity
  8
4
100
AcDbCircle
 10
1025.155181454217
 20
1585.981987576494
 30
0.0
 40
6.0
100
AcDbArc
 50
90.0
 51
270.0
  0
LINE
  5
374
330
19
100
AcDbEntity
  8
L-CENTER
100
AcDbLine
 10
968.0641047564403
 20
1637.246987576494
 30
0.0
 11
1008.523159708798
 21
1637.246987576494
 31
0.0
  0
LINE
  5
375
330
19
100
AcDbEntity
  8
4
100
AcDbLine
 10
1009.155181454217
 20
1610.981987576494
 30
0.0
 11
997.1551814542171
 21
1610.981987576494
 31
0.0
  0
ARC
  5
376
330
19
100
AcDbEntity
  8
4
100
AcDbCircle
 10
1011.155181454217
 20
1610.981987576494
 30
0.0
 40
2.0
100
AcDbArc
 50
180.0
 51
270.0
  0
LINE
  5
377
330
19
100
AcDbEntity
  8
4
100
AcDbLine
 10
1004.751654508364
 20
1642.154464864605
 30
0.0
 11
998.6551814542171
 21
1642.154464864605
 31
0.0
  0
ARC
  5
378
330
19
100
AcDbEntity
  8
4
100
AcDbCircle
 10
1001.871567525158
 20
1644.608203508662
 30
0.0
 40
3.783613929059507
100
AcDbArc
 50
319.5701031551686
 51
40.42989684483145
  0
LINE
  5
379
330
19
100
AcDbEntity
  8
4
100
AcDbLine
 10
996.1551814542171
 20
1647.061942152717
 30
0.0
 11
1004.751654508364
 21
1647.061942152717
 31
0.0
  0
LINE
  5
37A
330
19
100
AcDbEntity
  8
4
100
AcDbLine
 10
1004.751654508364
 20
1632.339510288382
 30
0.0
 11
998.6551814542171
 21
1632.339510288382
 31
0.0
  0
LINE
  5
37B
330
19
100
AcDbEntity
  8
4
100
AcDbLine
 10
1004.751654508364
 20
1627.43203300027
 30
0.0
 11
996.1551814542171
 21
1627.43203300027
 31
0.0
  0
ARC
  5
37C
330
19
100
AcDbEntity
  8
4
100
AcDbCircle
 10
1001.871567525158
 20
1629.885771644326
 30
0.0
 40
3.783613929059507
100
AcDbArc
 50
319.5701031551686
 51
40.42989684483145
  0
LINE
  5
37D
330
19
100
AcDbEntity
  8
4
 48
0.8
100
AcDbLine
 10
997.1551814542171
 20
1621.981987576494
 30
0.0
 11
996.1551814542171
 21
1621.981987576494
 31
0.0
  0
ARC
  5
37E
330
19
100
AcDbEntity
  8
4
100
AcDbCircle
 10
991.8760161567578
 20
1637.246987576494
 30
0.0
 40
13.77916529745958
100
AcDbArc
 50
339.1359356360805
 51
20.86406436391942
  0
LINE
  5
37F
330
19
100
AcDbEntity
  8
4
100
AcDbLine
 10
1005.655181454217
 20
1644.608203508662
 30
0.0
 11
1005.655181454217
 21
1629.885771644326
 31
0.0
  0
LINE
  5
380
330
19
100
AcDbEntity
  8
4
100
AcDbLine
 10
998.6551814542171
 20
1627.43203300027
 30
0.0
 11
998.6551814542171
 21
1647.061942152717
 31
0.0
  0
LINE
  5
381
330
19
100
AcDbEntity
  8
4
100
AcDbLine
 10
996.1551814542171
 20
1627.43203300027
 30
0.0
 11
996.1551814542171
 21
1647.061942152717
 31
0.0
  0
LINE
  5
382
330
19
100
AcDbEntity
  8
4
 48
0.8
100
AcDbLine
 10
996.1551814542171
 20
1657.981987576493
 30
0.0
 11
984.1551814542171
 21
1657.981987576494
 31
0.0
  0
LINE
  5
383
330
19
100
AcDbEntity
  8
4
100
AcDbLine
 10
1109.155181454217
 20
1607.981987576494
 30
0.0
 11
1109.155181454217
 21
1563.981987576494
 31
0.0
  0
LINE
  5
384
330
19
100
AcDbEntity
  8
4
100
AcDbLine
 10
1108.155181454217
 20
1608.981987576494
 30
0.0
 11
1108.155181454217
 21
1591.981987576494
 31
0.0
  0
LINE
  5
385
330
19
100
AcDbEntity
  8
4
100
AcDbLine
 10
1108.155181454217
 20
1579.981987576494
 30
0.0
 11
1108.155181454217
 21
1562.981987576494
 31
0.0
  0
LINE
  5
386
330
19
100
AcDbEntity
  8
4
100
AcDbLine
 10
1109.155181454217
 20
1563.981987576494
 30
0.0
 11
1108.155181454217
 21
1562.981987576494
 31
0.0
  0
LINE
  5
387
330
19
100
AcDbEntity
  8
4
100
AcDbLine
 10
1108.155181454217
 20
1608.981987576494
 30
0.0
 11
1109.155181454217
 21
1607.981987576494
 31
0.0
  0
LINE
  5
388
330
19
100
AcDbEntity
  8
4
100
AcDbLine
 10
798.1551814542173
 20
1747.981987576494
 30
0.0
 11
958.1551814542182
 21
1747.981987576494
 31
0.0
  0
ARC
  5
389
330
19
100
AcDbEntity
  8
4
100
AcDbCircle
 10
1729.748754576298
 20
213.1563686861512
 30
0.0
 40
3.783613929059507
100
AcDbArc
 50
229.5701031551782
 51
275.1379039985028
  0
LINE
  5
38A
330
19
100
AcDbEntity
  8
4
100
AcDbLine
 10
1729.748754576298
 20
209.3727547570918
 30
0.0
 11
1744.471186440634
 21
209.3727547570927
 31
0.0
  0
LINE
  5
38B
330
19
100
AcDbEntity
  8
4
100
AcDbLine
 10
1746.924925084689
 20
218.8727547570927
 30
0.0
 11
1727.295015932242
 21
218.8727547570918
 31
0.0
  0
LINE
  5
38C
330
19
100
AcDbEntity
  8
4
100
AcDbLine
 10
1727.295015932242
 20
218.8727547570918
 30
0.0
 11
1727.295015932243
 21
210.2762817029436
 31
0.0
  0
ARC
  5
38D
330
19
100
AcDbEntity
  8
4
100
AcDbCircle
 10
1730.426424105965
 20
213.1563686861512
 30
0.0
 40
3.783613929059507
100
AcDbArc
 50
229.5701031551782
 51
310.4298968448314
  0
LINE
  5
38E
330
19
100
AcDbEntity
  8
4
100
AcDbLine
 10
1727.972685461909
 20
218.8727547570918
 30
0.0
 11
1727.97268546191
 21
210.2762817029436
 31
0.0
  0
LINE
  5
38F
330
19
100
AcDbEntity
  8
4
100
AcDbLine
 10
1732.880162750021
 20
210.2762817029436
 30
0.0
 11
1732.880162750021
 21
216.3727547570918
 31
0.0
  0
LINE
  5
390
330
19
100
AcDbEntity
  8
4
100
AcDbLine
 10
1742.695117326245
 20
210.2762817029445
 30
0.0
 11
1742.695117326244
 21
216.3727547570927
 31
0.0
  0
LINE
  5
391
330
19
100
AcDbEntity
  8
4
100
AcDbLine
 10
1747.602594614357
 20
210.2762817029445
 30
0.0
 11
1747.602594614356
 21
218.8727547570927
 31
0.0
  0
ARC
  5
392
330
19
100
AcDbEntity
  8
4
100
AcDbCircle
 10
1745.148855970301
 20
213.1563686861521
 30
0.0
 40
3.783613929059507
100
AcDbArc
 50
229.5701031551782
 51
310.4298968448314
  0
LINE
  5
393
330
19
100
AcDbEntity
  8
4
100
AcDbLine
 10
1747.602594614356
 20
216.3727547570927
 30
0.0
 11
1727.295015932242
 21
216.3727547570918
 31
0.0
  0
LINE
  5
394
330
19
100
AcDbEntity
  8
4
100
AcDbLine
 10
1747.602594614356
 20
218.8727547570927
 30
0.0
 11
1727.972685461909
 21
218.8727547570918
 31
0.0
  0
LINE
  5
395
330
19
100
AcDbEntity
  8
4
100
AcDbLine
 10
1730.426424105965
 20
209.3727547570918
 30
0.0
 11
1745.148855970301
 21
209.3727547570927
 31
0.0
  0
ARC
  5
396
330
19
100
AcDbEntity
  8
4
100
AcDbCircle
 10
1737.787640038133
 20
223.1519200545515
 30
0.0
 40
13.77916529745958
100
AcDbArc
 50
249.1359356360836
 51
290.8640643639235
  0
LINE
  5
397
330
19
100
AcDbEntity
  8
L-CENTER
100
AcDbLine
 10
1737.109970508464
 20
247.3087101747044
 30
0.0
 11
1737.109970508466
 21
206.5047765025126
 31
0.0
  0
LINE
  5
398
330
19
100
AcDbEntity
  8
L-CENTER
100
AcDbLine
 10
1737.787640038131
 20
247.3087101747044
 30
0.0
 11
1737.787640038134
 21
206.5047765025126
 31
0.0
  0
ARC
  5
399
330
19
100
AcDbEntity
  8
4
100
AcDbCircle
 10
1843.853657216107
 20
223.1519200545515
 30
0.0
 40
13.77916529745958
100
AcDbArc
 50
249.1359356360765
 51
290.8640643639164
  0
LINE
  5
39A
330
19
100
AcDbEntity
  8
4
100
AcDbLine
 10
1851.214873148274
 20
209.3727547570918
 30
0.0
 11
1836.492441283939
 21
209.3727547570927
 31
0.0
  0
LINE
  5
39B
330
19
100
AcDbEntity
  8
4
100
AcDbLine
 10
1834.038702639883
 20
218.8727547570927
 30
0.0
 11
1853.66861179233
 21
218.8727547570918
 31
0.0
  0
LINE
  5
39C
330
19
100
AcDbEntity
  8
4
100
AcDbLine
 10
1834.038702639883
 20
216.3727547570927
 30
0.0
 11
1853.66861179233
 21
216.3727547570918
 31
0.0
  0
ARC
  5
39D
330
19
100
AcDbEntity
  8
4
100
AcDbCircle
 10
1836.492441283939
 20
213.1563686861521
 30
0.0
 40
3.783613929059507
100
AcDbArc
 50
229.5701031551686
 51
310.4298968448218
  0
LINE
  5
39E
330
19
100
AcDbEntity
  8
4
100
AcDbLine
 10
1834.038702639883
 20
210.2762817029445
 30
0.0
 11
1834.038702639883
 21
218.8727547570927
 31
0.0
  0
LINE
  5
39F
330
19
100
AcDbEntity
  8
4
100
AcDbLine
 10
1838.946179927995
 20
210.2762817029445
 30
0.0
 11
1838.946179927995
 21
216.3727547570927
 31
0.0
  0
LINE
  5
3A0
330
19
100
AcDbEntity
  8
4
100
AcDbLine
 10
1848.761134504218
 20
210.2762817029436
 30
0.0
 11
1848.761134504219
 21
216.3727547570918
 31
0.0
  0
LINE
  5
3A1
330
19
100
AcDbEntity
  8
4
100
AcDbLine
 10
1853.66861179233
 20
218.8727547570918
 30
0.0
 11
1853.66861179233
 21
210.2762817029436
 31
0.0
  0
ARC
  5
3A2
330
19
100
AcDbEntity
  8
4
100
AcDbCircle
 10
1851.214873148274
 20
213.1563686861512
 30
0.0
 40
3.783613929059507
100
AcDbArc
 50
229.5701031551686
 51
310.4298968448218
  0
LINE
  5
3A3
330
19
100
AcDbEntity
  8
L-CENTER
100
AcDbLine
 10
1843.853657216108
 20
247.3087101747044
 30
0.0
 11
1843.853657216106
 21
206.5047765025126
 31
0.0
  0
LINE
  5
3A4
330
19
100
AcDbEntity
  8
4
100
AcDbLine
 10
1868.71637216955
 20
216.3727547570927
 30
0.0
 11
1888.346281321997
 21
216.3727547570918
 31
0.0
  0
LINE
  5
3A5
330
19
100
AcDbEntity
  8
4
100
AcDbLine
 10
1868.71637216955
 20
218.8727547570927
 30
0.0
 11
1888.346281321997
 21
218.8727547570918
 31
0.0
  0
LINE
  5
3A6
330
19
100
AcDbEntity
  8
4
100
AcDbLine
 10
1885.892542677941
 20
209.3727547570918
 30
0.0
 11
1871.170110813606
 21
209.3727547570927
 31
0.0
  0
ARC
  5
3A7
330
19
100
AcDbEntity
  8
4
100
AcDbCircle
 10
1878.531326745774
 20
223.1519200545515
 30
0.0
 40
13.77916529745958
100
AcDbArc
 50
249.1359356360765
 51
290.8640643639164
  0
LINE
  5
3A8
330
19
100
AcDbEntity
  8
4
100
AcDbLine
 10
1873.623849457662
 20
210.2762817029445
 30
0.0
 11
1873.623849457662
 21
216.3727547570927
 31
0.0
  0
LINE
  5
3A9
330
19
100
AcDbEntity
  8
4
100
AcDbLine
 10
1868.71637216955
 20
210.2762817029445
 30
0.0
 11
1868.71637216955
 21
218.8727547570927
 31
0.0
  0
ARC
  5
3AA
330
19
100
AcDbEntity
  8
4
100
AcDbCircle
 10
1871.170110813606
 20
213.1563686861521
 30
0.0
 40
3.783613929059507
100
AcDbArc
 50
229.5701031551686
 51
310.4298968448218
  0
ARC
  5
3AB
330
19
100
AcDbEntity
  8
4
100
AcDbCircle
 10
1885.892542677941
 20
213.1563686861512
 30
0.0
 40
3.783613929059507
100
AcDbArc
 50
229.5701031551686
 51
310.4298968448218
  0
LINE
  5
3AC
330
19
100
AcDbEntity
  8
4
100
AcDbLine
 10
1888.346281321997
 20
218.8727547570918
 30
0.0
 11
1888.346281321997
 21
210.2762817029436
 31
0.0
  0
LINE
  5
3AD
330
19
100
AcDbEntity
  8
4
100
AcDbLine
 10
1883.438804033885
 20
210.2762817029436
 30
0.0
 11
1883.438804033886
 21
216.3727547570918
 31
0.0
  0
LINE
  5
3AE
330
19
100
AcDbEntity
  8
L-CENTER
100
AcDbLine
 10
1878.531326745775
 20
247.3087101747044
 30
0.0
 11
1878.531326745773
 21
206.5047765025126
 31
0.0
  0
LINE
  5
3AF
330
19
100
AcDbEntity
  8
4
 48
0.8
100
AcDbLine
 10
1700.82064862712
 20
233.8727547570963
 30
0.0
 11
1700.82064862712
 21
218.8727547570963
 31
0.0
  0
LINE
  5
3B0
330
19
100
AcDbEntity
  8
4
 48
0.8
100
AcDbLine
 10
1880.82064862712
 20
233.8727547570963
 30
0.0
 11
1880.82064862712
 21
218.8727547570963
 31
0.0
  0
LINE
  5
3B1
330
19
100
AcDbEntity
  8
4
 48
0.8
100
AcDbLine
 10
1700.82064862712
 20
537.8727547570963
 30
0.0
 11
1700.82064862712
 21
522.8727547570963
 31
0.0
  0
LINE
  5
3B2
330
19
100
AcDbEntity
  8
4
 48
0.8
100
AcDbLine
 10
1880.82064862712
 20
537.8727547570963
 30
0.0
 11
1880.82064862712
 21
522.8727547570963
 31
0.0
  0
TEXT
  5
3BE
330
19
100
AcDbEntity
  8
3
100
AcDbText
 10
1202.522949911884
 20
151.8904500627134
 30
0.0
 40
18.0
  1
LDC8-05
  7
KANJI
 72
     1
 11
1261.022949911884
 21
151.8904500627134
 31
0.0
100
AcDbText
  0
LINE
  5
504
330
19
100
AcDbEntity
  8
4
100
AcDbLine
 10
1700.32064862712
 20
533.3727547570968
 30
0.0
 11
1655.32064862712
 21
533.3727547570968
 31
0.0
  0
LINE
  5
505
330
19
100
AcDbEntity
  8
4
100
AcDbLine
 10
1700.82064862712
 20
532.8727547570968
 30
0.0
 11
1700.82064862712
 21
524.3727547570968
 31
0.0
  0
LINE
  5
506
330
19
100
AcDbEntity
  8
4
100
AcDbLine
 10
1654.82064862712
 20
532.8727547570968
 30
0.0
 11
1654.82064862712
 21
524.3727547570968
 31
0.0
  0
ARC
  5
507
330
19
100
AcDbEntity
  8
4
100
AcDbCircle
 10
1700.32064862712
 20
532.8727547570968
 30
0.0
 40
0.5
100
AcDbArc
 50
0.0
 51
90.0
  0
ARC
  5
508
330
19
100
AcDbEntity
  8
4
100
AcDbCircle
 10
1655.32064862712
 20
532.8727547570968
 30
0.0
 40
0.5
100
AcDbArc
 50
90.0
 51
180.0
  0
LINE
  5
509
330
19
100
AcDbEntity
  8
4
100
AcDbLine
 10
1700.82064862712
 20
528.3727547570968
 30
0.0
 11
1654.82064862712
 21
528.3727547570968
 31
0.0
  0
LINE
  5
50A
330
19
100
AcDbEntity
  8
4
100
AcDbLine
 10
1700.82064862712
 20
524.3727547570968
 30
0.0
 11
1654.82064862712
 21
524.3727547570968
 31
0.0
  0
LINE
  5
50B
330
19
100
AcDbEntity
  8
4
100
AcDbLine
 10
1689.51199157821
 20
533.3727547570968
 30
0.0
 11
1689.51199157821
 21
528.3727547570968
 31
0.0
  0
LINE
  5
50C
330
19
100
AcDbEntity
  8
4
100
AcDbLine
 10
1700.32064862712
 20
522.8727547570968
 30
0.0
 11
1655.32064862712
 21
522.8727547570963
 31
0.0
  0
LINE
  5
50D
330
19
100
AcDbEntity
  8
4
100
AcDbLine
 10
1700.32064862712
 20
524.3727547570968
 30
0.0
 11
1700.32064862712
 21
522.8727547570968
 31
0.0
  0
LINE
  5
50E
330
19
100
AcDbEntity
  8
4
100
AcDbLine
 10
1655.32064862712
 20
524.3727547570968
 30
0.0
 11
1655.32064862712
 21
522.8727547570968
 31
0.0
  0
LINE
  5
50F
330
19
100
AcDbEntity
  8
4
100
AcDbLine
 10
1666.12930567603
 20
533.3727547570968
 30
0.0
 11
1666.12930567603
 21
528.3727547570968
 31
0.0
  0
LINE
  5
510
330
19
100
AcDbEntity
  8
4
100
AcDbLine
 10
671.1551814542171
 20
528.3727547570963
 30
0.0
 11
671.1551814542171
 21
524.3727547570963
 31
0.0
  0
LINE
  5
511
330
19
100
AcDbEntity
  8
4
100
AcDbLine
 10
625.1551814542171
 20
528.3727547570963
 30
0.0
 11
625.1551814542171
 21
524.3727547570963
 31
0.0
  0
LINE
  5
512
330
19
100
AcDbEntity
  8
4
100
AcDbLine
 10
671.1551814542171
 20
528.3727547570963
 30
0.0
 11
670.6550393793394
 21
528.3727547570963
 31
0.0
  0
LINE
  5
513
330
19
100
AcDbEntity
  8
4
100
AcDbLine
 10
625.6550393793394
 20
528.3727547570963
 30
0.0
 11
625.1551814542171
 21
528.3727547570963
 31
0.0
  0
LINE
  5
514
330
19
100
AcDbEntity
  8
4
100
AcDbLine
 10
671.1551814542171
 20
524.3727547570963
 30
0.0
 11
670.6550393793394
 21
524.3727547570963
 31
0.0
  0
LINE
  5
515
330
19
100
AcDbEntity
  8
4
100
AcDbLine
 10
625.6550393793394
 20
524.3727547570963
 30
0.0
 11
625.1551814542171
 21
524.3727547570963
 31
0.0
  0
LINE
  5
516
330
19
100
AcDbEntity
  8
4
100
AcDbLine
 10
670.6551814542171
 20
522.8727547570966
 30
0.0
 11
625.6551814542171
 21
522.8727547570961
 31
0.0
  0
LINE
  5
517
330
19
100
AcDbEntity
  8
4
100
AcDbLine
 10
670.6551814542171
 20
524.3727547570963
 30
0.0
 11
670.6551814542171
 21
522.8727547570963
 31
0.0
  0
LINE
  5
518
330
19
100
AcDbEntity
  8
4
100
AcDbLine
 10
625.6551814542171
 20
524.3727547570963
 30
0.0
 11
625.6551814542171
 21
522.8727547570963
 31
0.0
  0
ARC
  5
531
330
19
100
AcDbEntity
  8
4
100
AcDbCircle
 10
648.1553235290944
 20
538.9016115857874
 30
0.0
 40
10.0
100
AcDbArc
 50
180.0
 51
0.0
  0
ARC
  5
532
330
19
100
AcDbEntity
  8
4
100
AcDbCircle
 10
1939.555406991094
 20
385.137996393122
 30
0.0
 40
9.2
100
AcDbArc
 50
217.5050178288687
 51
262.4949821711367
  0
ARC
  5
533
330
19
100
AcDbEntity
  8
4
100
AcDbCircle
 10
1939.555406991094
 20
385.137996393122
 30
0.0
 40
9.2
100
AcDbArc
 50
277.5050178288705
 51
322.4949821711234
  0
ARC
  5
534
330
19
100
AcDbEntity
  8
4
100
AcDbCircle
 10
1939.555406991094
 20
385.137996393122
 30
0.0
 40
9.2
100
AcDbArc
 50
337.505017828882
 51
22.49498217111796
  0
ARC
  5
535
330
19
100
AcDbEntity
  8
4
100
AcDbCircle
 10
1939.555406991094
 20
385.137996393122
 30
0.0
 40
9.2
100
AcDbArc
 50
37.50501782887776
 51
82.4949821711181
  0
ARC
  5
536
330
19
100
AcDbEntity
  8
4
100
AcDbCircle
 10
1939.555406991094
 20
385.137996393122
 30
0.0
 40
9.2
100
AcDbArc
 50
97.5050178288747
 51
142.4949821711294
  0
ARC
  5
537
330
19
100
AcDbEntity
  8
4
100
AcDbCircle
 10
1939.555406991094
 20
385.137996393122
 30
0.0
 40
9.2
100
AcDbArc
 50
157.5050178288668
 51
202.4949821711332
  0
LINE
  5
538
330
19
100
AcDbEntity
  8
4
100
AcDbLine
 10
2050.585890263144
 20
380.2305191050102
 30
0.0
 11
2050.585890263144
 21
390.0454736812337
 31
0.0
  0
LINE
  5
539
330
19
100
AcDbEntity
  8
4
100
AcDbLine
 10
2042.085890263144
 20
394.9529509693459
 30
0.0
 11
2033.585890263144
 21
390.0454736812337
 31
0.0
  0
LINE
  5
53A
330
19
100
AcDbEntity
  8
4
100
AcDbLine
 10
2033.585890263144
 20
390.0454736812337
 30
0.0
 11
2033.585890263144
 21
380.2305191050102
 31
0.0
  0
LINE
  5
53B
330
19
100
AcDbEntity
  8
4
100
AcDbLine
 10
2033.585890263144
 20
380.2305191050102
 30
0.0
 11
2042.085890263144
 21
375.3230418168989
 31
0.0
  0
LINE
  5
53C
330
19
100
AcDbEntity
  8
4
100
AcDbLine
 10
2050.585890263144
 20
390.0454736812337
 30
0.0
 11
2042.085890263144
 21
394.9529509693459
 31
0.0
  0
LINE
  5
53D
330
19
100
AcDbEntity
  8
4
100
AcDbLine
 10
2042.085890263144
 20
375.3230418168989
 30
0.0
 11
2050.585890263144
 21
380.2305191050102
 31
0.0
  0
ARC
  5
53E
330
19
100
AcDbEntity
  8
4
100
AcDbCircle
 10
2042.085890263143
 20
385.137996393122
 30
0.0
 40
9.2
100
AcDbArc
 50
217.5050178288687
 51
262.4949821711367
  0
ARC
  5
53F
330
19
100
AcDbEntity
  8
4
100
AcDbCircle
 10
2042.085890263143
 20
385.137996393122
 30
0.0
 40
9.2
100
AcDbArc
 50
277.5050178288705
 51
322.4949821711242
  0
ARC
  5
540
330
19
100
AcDbEntity
  8
4
100
AcDbCircle
 10
2042.085890263143
 20
385.137996393122
 30
0.0
 40
9.2
100
AcDbArc
 50
337.505017828882
 51
22.49498217111796
  0
ARC
  5
541
330
19
100
AcDbEntity
  8
4
100
AcDbCircle
 10
2042.085890263143
 20
385.137996393122
 30
0.0
 40
9.2
100
AcDbArc
 50
37.50501782887576
 51
82.4949821711181
  0
ARC
  5
542
330
19
100
AcDbEntity
  8
4
100
AcDbCircle
 10
2042.085890263143
 20
385.137996393122
 30
0.0
 40
9.2
100
AcDbArc
 50
97.5050178288747
 51
142.4949821711294
  0
ARC
  5
543
330
19
100
AcDbEntity
  8
4
100
AcDbCircle
 10
2042.085890263143
 20
385.137996393122
 30
0.0
 40
9.2
100
AcDbArc
 50
157.5050178288668
 51
202.4949821711332
  0
LINE
  5
544
330
19
100
AcDbEntity
  8
4
100
AcDbLine
 10
2050.585890263143
 20
277.7000358329607
 30
0.0
 11
2050.585890263143
 21
287.5149904091842
 31
0.0
  0
LINE
  5
545
330
19
100
AcDbEntity
  8
4
100
AcDbLine
 10
2042.085890263144
 20
292.4224676972964
 30
0.0
 11
2033.585890263144
 21
287.5149904091842
 31
0.0
  0
LINE
  5
546
330
19
100
AcDbEntity
  8
4
100
AcDbLine
 10
2033.585890263144
 20
287.5149904091842
 30
0.0
 11
2033.585890263144
 21
277.7000358329607
 31
0.0
  0
LINE
  5
547
330
19
100
AcDbEntity
  8
4
100
AcDbLine
 10
2033.585890263144
 20
277.7000358329607
 30
0.0
 11
2042.085890263144
 21
272.7925585448494
 31
0.0
  0
LINE
  5
548
330
19
100
AcDbEntity
  8
4
100
AcDbLine
 10
2050.585890263143
 20
287.5149904091842
 30
0.0
 11
2042.085890263144
 21
292.4224676972964
 31
0.0
  0
LINE
  5
549
330
19
100
AcDbEntity
  8
4
100
AcDbLine
 10
2042.085890263144
 20
272.7925585448494
 30
0.0
 11
2050.585890263143
 21
277.7000358329607
 31
0.0
  0
ARC
  5
54A
330
19
100
AcDbEntity
  8
4
100
AcDbCircle
 10
2042.085890263143
 20
282.6075131210724
 30
0.0
 40
9.2
100
AcDbArc
 50
217.5050178288681
 51
262.4949821711367
  0
ARC
  5
54B
330
19
100
AcDbEntity
  8
4
100
AcDbCircle
 10
2042.085890263143
 20
282.6075131210724
 30
0.0
 40
9.2
100
AcDbArc
 50
277.5050178288704
 51
322.4949821711234
  0
ARC
  5
54C
330
19
100
AcDbEntity
  8
4
100
AcDbCircle
 10
2042.085890263143
 20
282.6075131210724
 30
0.0
 40
9.2
100
AcDbArc
 50
337.5050178288809
 51
22.49498217111915
  0
ARC
  5
54D
330
19
100
AcDbEntity
  8
4
100
AcDbCircle
 10
2042.085890263143
 20
282.6075131210724
 30
0.0
 40
9.2
100
AcDbArc
 50
37.50501782887776
 51
82.4949821711181
  0
ARC
  5
54E
330
19
100
AcDbEntity
  8
4
100
AcDbCircle
 10
2042.085890263143
 20
282.6075131210724
 30
0.0
 40
9.2
100
AcDbArc
 50
97.5050178288747
 51
142.4949821711294
  0
ARC
  5
54F
330
19
100
AcDbEntity
  8
4
100
AcDbCircle
 10
2042.085890263143
 20
282.6075131210724
 30
0.0
 40
9.2
100
AcDbArc
 50
157.5050178288668
 51
202.4949821711332
  0
LINE
  5
550
330
19
100
AcDbEntity
  8
4
100
AcDbLine
 10
1948.055406991095
 20
277.7000358329608
 30
0.0
 11
1948.055406991095
 21
287.5149904091843
 31
0.0
  0
LINE
  5
551
330
19
100
AcDbEntity
  8
4
100
AcDbLine
 10
1939.555406991095
 20
292.4224676972965
 30
0.0
 11
1931.055406991095
 21
287.5149904091843
 31
0.0
  0
LINE
  5
552
330
19
100
AcDbEntity
  8
4
100
AcDbLine
 10
1931.055406991095
 20
287.5149904091843
 30
0.0
 11
1931.055406991095
 21
277.7000358329608
 31
0.0
  0
LINE
  5
553
330
19
100
AcDbEntity
  8
4
100
AcDbLine
 10
1931.055406991095
 20
277.7000358329608
 30
0.0
 11
1939.555406991095
 21
272.7925585448495
 31
0.0
  0
LINE
  5
554
330
19
100
AcDbEntity
  8
4
100
AcDbLine
 10
1948.055406991095
 20
287.5149904091843
 30
0.0
 11
1939.555406991095
 21
292.4224676972965
 31
0.0
  0
LINE
  5
555
330
19
100
AcDbEntity
  8
4
100
AcDbLine
 10
1939.555406991095
 20
272.7925585448495
 30
0.0
 11
1948.055406991095
 21
277.7000358329608
 31
0.0
  0
ARC
  5
556
330
19
100
AcDbEntity
  8
4
100
AcDbCircle
 10
1939.555406991094
 20
282.6075131210725
 30
0.0
 40
9.2
100
AcDbArc
 50
217.5050178288681
 51
262.4949821711367
  0
ARC
  5
557
330
19
100
AcDbEntity
  8
4
100
AcDbCircle
 10
1939.555406991094
 20
282.6075131210725
 30
0.0
 40
9.2
100
AcDbArc
 50
277.5050178288704
 51
322.4949821711234
  0
ARC
  5
558
330
19
100
AcDbEntity
  8
4
100
AcDbCircle
 10
1939.555406991094
 20
282.6075131210725
 30
0.0
 40
9.2
100
AcDbArc
 50
337.505017828882
 51
22.49498217111796
  0
ARC
  5
559
330
19
100
AcDbEntity
  8
4
100
AcDbCircle
 10
1939.555406991094
 20
282.6075131210725
 30
0.0
 40
9.2
100
AcDbArc
 50
37.50501782887776
 51
82.4949821711181
  0
ARC
  5
55A
330
19
100
AcDbEntity
  8
4
100
AcDbCircle
 10
1939.555406991094
 20
282.6075131210725
 30
0.0
 40
9.2
100
AcDbArc
 50
97.5050178288747
 51
142.4949821711294
  0
ARC
  5
55B
330
19
100
AcDbEntity
  8
4
100
AcDbCircle
 10
1939.555406991094
 20
282.6075131210725
 30
0.0
 40
9.2
100
AcDbArc
 50
157.5050178288668
 51
202.4949821711332
  0
LINE
  5
680
330
19
100
AcDbEntity
  8
4
100
AcDbLine
 10
506.8070393793395
 20
48.87275475709725
 30
0.0
 11
506.8070393793395
 21
205.8727547570973
 31
0.0
  0
LINE
  5
681
330
19
100
AcDbEntity
  8
4
100
AcDbLine
 10
563.8070393793395
 20
47.87275475709725
 30
0.0
 11
563.8070393793395
 21
185.8727547570973
 31
0.0
  0
LINE
  5
682
330
19
100
AcDbEntity
  8
4
100
AcDbLine
 10
539.8070393793395
 20
47.87275475709725
 30
0.0
 11
539.8070393793395
 21
185.8727547570973
 31
0.0
  0
LINE
  5
683
330
19
100
AcDbEntity
  8
4
100
AcDbLine
 10
596.8070393793395
 20
48.87275475709907
 30
0.0
 11
596.8070393793395
 21
205.8727547570991
 31
0.0
  0
LINE
  5
685
330
19
100
AcDbEntity
  8
4
100
AcDbLine
 10
599.3070393793395
 20
207.8727547570991
 30
0.0
 11
504.3070393793395
 21
207.8727547570973
 31
0.0
  0
LINE
  5
686
330
19
100
AcDbEntity
  8
4
100
AcDbLine
 10
504.3070393793395
 20
207.8727547570973
 30
0.0
 11
504.3070393793395
 21
217.8727547570963
 31
0.0
  0
ARC
  5
687
330
19
100
AcDbEntity
  8
4
100
AcDbCircle
 10
504.8070393793395
 20
205.8727547570973
 30
0.0
 40
2.0
100
AcDbArc
 50
0.0
 51
90.0
  0
LINE
  5
688
330
19
100
AcDbEntity
  8
4
100
AcDbLine
 10
504.3070393793395
 20
207.8727547570991
 30
0.0
 11
504.3070393793395
 21
217.8727547570963
 31
0.0
  0
ARC
  5
689
330
19
100
AcDbEntity
  8
4
100
AcDbCircle
 10
551.8070393793395
 20
185.8727547570973
 30
0.0
 40
12.0
100
AcDbArc
 50
0.0
 51
90.0
  0
ARC
  5
68A
330
19
100
AcDbEntity
  8
4
100
AcDbCircle
 10
551.8070393793395
 20
185.8727547570973
 30
0.0
 40
12.0
100
AcDbArc
 50
90.0
 51
180.0
  0
LINE
  5
68B
330
19
100
AcDbEntity
  8
4
100
AcDbLine
 10
599.3070393793395
 20
207.8727547570991
 30
0.0
 11
599.3070393793395
 21
217.8727547570963
 31
0.0
  0
ARC
  5
68C
330
19
100
AcDbEntity
  8
4
100
AcDbCircle
 10
598.8070393793395
 20
205.8727547570973
 30
0.0
 40
2.0
100
AcDbArc
 50
90.0
 51
180.0
  0
LINE
  5
68D
330
19
100
AcDbEntity
  8
4
100
AcDbLine
 10
599.3070393793395
 20
207.8727547570991
 30
0.0
 11
599.3070393793395
 21
217.8727547570963
 31
0.0
  0
LINE
  5
68E
330
19
100
AcDbEntity
  8
4
100
AcDbLine
 10
539.8070393793395
 20
48.87275475709725
 30
0.0
 11
506.8070393793395
 21
48.87275475709725
 31
0.0
  0
LINE
  5
68F
330
19
100
AcDbEntity
  8
4
100
AcDbLine
 10
595.8070393793395
 20
47.87275475709907
 30
0.0
 11
507.8070393793395
 21
47.87275475709725
 31
0.0
  0
LINE
  5
690
330
19
100
AcDbEntity
  8
4
100
AcDbLine
 10
507.8070393793395
 20
47.87275475709725
 30
0.0
 11
506.8070393793395
 21
48.87275475709725
 31
0.0
  0
LINE
  5
691
330
19
100
AcDbEntity
  8
4
100
AcDbLine
 10
596.8070393793395
 20
48.87275475709907
 30
0.0
 11
595.8070393793395
 21
47.87275475709907
 31
0.0
  0
LINE
  5
692
330
19
100
AcDbEntity
  8
4
100
AcDbLine
 10
596.8070393793395
 20
48.87275475709907
 30
0.0
 11
563.8070393793395
 21
48.87275475709725
 31
0.0
  0
LINE
  5
693
330
19
100
AcDbEntity
  8
4
100
AcDbLine
 10
1852.82064862712
 20
48.87275475709907
 30
0.0
 11
1852.82064862712
 21
205.8727547570991
 31
0.0
  0
LINE
  5
694
330
19
100
AcDbEntity
  8
4
100
AcDbLine
 10
1762.82064862712
 20
48.87275475709725
 30
0.0
 11
1762.82064862712
 21
205.8727547570973
 31
0.0
  0
LINE
  5
695
330
19
100
AcDbEntity
  8
4
100
AcDbLine
 10
1754.82064862712
 20
47.87275475709725
 30
0.0
 11
1754.82064862712
 21
197.8727547570973
 31
0.0
  0
LINE
  5
696
330
19
100
AcDbEntity
  8
4
100
AcDbLine
 10
1855.32064862712
 20
207.8727547570991
 30
0.0
 11
1760.32064862712
 21
207.8727547570973
 31
0.0
  0
LINE
  5
698
330
19
100
AcDbEntity
  8
4
100
AcDbLine
 10
1762.820648627119
 20
197.8727547570973
 30
0.0
 11
1754.82064862712
 21
197.8727547570973
 31
0.0
  0
LINE
  5
699
330
19
100
AcDbEntity
  8
4
100
AcDbLine
 10
1760.32064862712
 20
207.8727547570973
 30
0.0
 11
1760.32064862712
 21
217.8727547570963
 31
0.0
  0
ARC
  5
69A
330
19
100
AcDbEntity
  8
4
100
AcDbCircle
 10
1760.820648627119
 20
205.8727547570973
 30
0.0
 40
2.0
100
AcDbArc
 50
0.0
 51
90.0
  0
LINE
  5
69C
330
19
100
AcDbEntity
  8
4
100
AcDbLine
 10
1855.32064862712
 20
207.8727547570991
 30
0.0
 11
1855.320648627119
 21
217.8727547570963
 31
0.0
  0
ARC
  5
69D
330
19
100
AcDbEntity
  8
4
100
AcDbCircle
 10
1854.820648627119
 20
205.8727547570973
 30
0.0
 40
2.0
100
AcDbArc
 50
90.0
 51
180.0
  0
LINE
  5
69E
330
19
100
AcDbEntity
  8
4
100
AcDbLine
 10
1851.82064862712
 20
47.87275475709907
 30
0.0
 11
1754.82064862712
 21
47.87275475709725
 31
0.0
  0
LINE
  5
69F
330
19
100
AcDbEntity
  8
4
100
AcDbLine
 10
1762.82064862712
 20
48.87275475709725
 30
0.0
 11
1852.82064862712
 21
48.87275475709907
 31
0.0
  0
LINE
  5
6A0
330
19
100
AcDbEntity
  8
4
100
AcDbLine
 10
1763.82064862712
 20
47.87275475709725
 30
0.0
 11
1762.82064862712
 21
48.87275475709725
 31
0.0
  0
LINE
  5
6A1
330
19
100
AcDbEntity
  8
4
100
AcDbLine
 10
1852.82064862712
 20
48.87275475709907
 30
0.0
 11
1851.82064862712
 21
47.87275475709907
 31
0.0
  0
LINE
  5
6A4
330
19
100
AcDbEntity
  8
4
100
AcDbLine
 10
612.7027629217716
 20
217.8727547570963
 30
0.0
 11
498.1550393793394
 21
217.8727547570963
 31
0.0
  0
LINE
  5
6A5
330
19
100
AcDbEntity
  8
4
100
AcDbLine
 10
1868.71637216955
 20
217.8727547570963
 30
0.0
 11
1853.66861179233
 21
217.8727547570963
 31
0.0
  0
LINE
  5
6A6
330
19
100
AcDbEntity
  8
4
100
AcDbLine
 10
1834.038702639883
 20
217.8727547570963
 30
0.0
 11
1747.602594614356
 21
217.8727547570963
 31
0.0
  0
ENDSEC
  0
SECTION
  2
OBJECTS
  0
DICTIONARY
  5
9
330
0
100
AcDbDictionary
281
     1
  3
ACAD_COLOR
350
2F
  3
ACAD_GROUP
350
2D
  3
ACAD_LAYOUT
350
22
  3
ACAD_MATERIAL
350
B
  3
ACAD_MLEADERSTYLE
350
61D
  3
ACAD_MLINESTYLE
350
17
  3
ACAD_PLOTSETTINGS
350
2E
  3
ACAD_PLOTSTYLENAME
350
8
  3
ACAD_SCALELIST
350
38
  3
ACAD_TABLESTYLE
350
61C
  3
ACAD_VISUALSTYLE
350
30
  3
ACDBHEADERROUNDTRIPXREC
350
6CE
  3
AcDbVariableDictionary
350
61A
  3
DWGPROPS
350
6D1
  0
DICTIONARY
  5
6D2
330
2C
100
AcDbDictionary
280
     1
281
     1
  3
ACAD_XREC_ROUNDTRIP
360
6D3
  0
DICTIONARY
  5
3
330
2
100
AcDbDictionary
280
     1
281
     1
  3
ACAD_LAYERSTATES
360
4
  0
DICTIONARY
  5
1E
330
1D
100
AcDbDictionary
280
     1
281
     1
  3
ADSK_XREC_LAYER_RECONCILED
360
1F
  0
DICTIONARY
  5
6E
330
6D
100
AcDbDictionary
280
     1
281
     1
  3
ADSK_XREC_LAYER_RECONCILED
360
6F
  0
DICTIONARY
  5
77
330
76
100
AcDbDictionary
280
     1
281
     1
  3
ADSK_XREC_LAYER_RECONCILED
360
78
  0
DICTIONARY
  5
3D0
330
3CF
100
AcDbDictionary
280
     1
281
     1
  3
ADSK_XREC_LAYER_RECONCILED
360
3D1
  0
DICTIONARY
  5
5
330
1
100
AcDbDictionary
280
     1
281
     1
  3
ADSK_XREC_LAYER_RECONCILED
360
6
  0
DICTIONARY
  5
1A
330
19
100
AcDbDictionary
280
     1
281
     1
  3
ACAD_SORTENTS
360
1B
  0
DICTIONARY
  5
2F
102
{ACAD_REACTORS
330
9
102
}
330
9
100
AcDbDictionary
281
     1
  0
DICTIONARY
  5
2D
102
{ACAD_REACTORS
330
9
102
}
330
9
100
AcDbDictionary
281
     1
  0
DICTIONARY
  5
22
102
{ACAD_REACTORS
330
9
102
}
330
9
100
AcDbDictionary
281
     1
  3
Model
350
21
  3
ﾚｲｱｳﾄ1
350
29
  0
DICTIONARY
  5
B
102
{ACAD_REACTORS
330
9
102
}
330
9
100
AcDbDictionary
281
     1
  3
ByBlock
350
6B
  3
ByLayer
350
12
  3
Global
350
A
  0
DICTIONARY
  5
61D
102
{ACAD_REACTORS
330
9
102
}
330
9
100
AcDbDictionary
281
     1
  3
Standard
350
635
  0
DICTIONARY
  5
17
102
{ACAD_REACTORS
330
9
102
}
330
9
100
AcDbDictionary
281
     1
  3
STANDARD
350
16
  0
DICTIONARY
  5
2E
102
{ACAD_REACTORS
330
9
102
}
330
9
100
AcDbDictionary
281
     1
  0
ACDBDICTIONARYWDFLT
  5
8
102
{ACAD_REACTORS
330
9
102
}
330
9
100
AcDbDictionary
281
     1
  3
Normal
350
7
100
AcDbDictionaryWithDefault
340
7
  0
DICTIONARY
  5
38
102
{ACAD_REACTORS
330
9
102
}
330
9
100
AcDbDictionary
281
     1
  3
*A1
350
5A
  3
*A10
350
63
  3
*A11
350
64
  3
*A12
350
65
  3
*A13
350
66
  3
*A14
350
67
  3
*A15
350
68
  3
*A16
350
69
  3
*A17
350
6A
  3
*A2
350
5B
  3
*A3
350
5C
  3
*A4
350
5D
  3
*A5
350
5E
  3
*A6
350
5F
  3
*A7
350
60
  3
*A8
350
61
  3
*A9
350
62
  0
DICTIONARY
  5
61C
102
{ACAD_REACTORS
330
9
102
}
330
9
100
AcDbDictionary
281
     1
  3
Standard
350
63D
  0
DICTIONARY
  5
30
102
{ACAD_REACTORS
330
9
102
}
330
9
100
AcDbDictionary
281
     1
  3
2dWireframe
350
35
  3
Basic
350
625
  3
Brighten
350
628
  3
ColorChange
350
62C
  3
Conceptual
350
626
  3
Dim
350
627
  3
EdgeColorOff
350
62F
  3
Facepattern
350
62B
  3
Flat
350
620
  3
FlatWithEdges
350
621
  3
Gouraud
350
622
  3
GouraudWithEdges
350
623
  3
Hidden
350
624
  3
JitterOff
350
62D
  3
Linepattern
350
62A
  3
OverhangOff
350
62E
  3
Realistic
350
31
  3
Shaded
350
634
  3
Shaded with edges
350
633
  3
Shades of Gray
350
630
  3
Sketchy
350
631
  3
Thicken
350
629
  3
Wireframe
350
32
  3
X-Ray
350
632
  0
DICTIONARY
  5
6CE
102
{ACAD_REACTORS
330
9
102
}
330
9
100
AcDbDictionary
281
     1
  3
COLORDICT
350
6CF
  3
MATERIALDICT
350
6D0
  0
DICTIONARY
  5
61A
102
{ACAD_REACTORS
330
9
102
}
330
9
100
AcDbDictionary
281
     1
  3
CANNOSCALE
350
61B
  3
CMLEADERSTYLE
350
63B
  3
CTABLESTYLE
350
63E
  3
DIMASSOC
350
6CC
  3
HIDETEXT
350
6CD
  3
MSLTSCALE
350
6D4
  0
XRECORD
  5
6D1
102
{ACAD_REACTORS
330
9
102
}
330
9
100
AcDbXrecord
280
     1
  1
DWGPROPS COOKIE
  2

  3

  4

  6

  7

  8
sg-d03
  9

300
=
301
=
302
=
303
=
304
=
305
=
306
=
307
=
308
=
309
=
 40
0.0
 41
2450157.20912037
 42
2458115.297064549
  1

 90
        0
  0
XRECORD
  5
6D3
102
{ACAD_REACTORS
330
6D2
102
}
330
6D2
100
AcDbXrecord
280
     1
102
VTR_0.000_0.000_1.000_1.000_GRIDDISPLAY
 70
     3
102
VTR_0.000_0.000_1.000_1.000_GRIDMAJOR
 70
     5
102
VTR_0.000_0.000_1.000_1.000_DEFAULTLIGHTING
280
     1
102
VTR_0.000_0.000_1.000_1.000_DEFAULTLIGHTINGTYPE
 70
     1
102
VTR_0.000_0.000_1.000_1.000_BRIGHTNESS
141
0.0
102
VTR_0.000_0.000_1.000_1.000_CONTRAST
142
0.0
  0
DICTIONARY
  5
4
102
{ACAD_REACTORS
330
3
102
}
330
3
100
AcDbDictionary
281
     1
  0
XRECORD
  5
1F
102
{ACAD_REACTORS
330
1E
102
}
330
1E
100
AcDbXrecord
280
     1
290
     1
  0
XRECORD
  5
6F
102
{ACAD_REACTORS
330
6E
102
}
330
6E
100
AcDbXrecord
280
     1
290
     1
  0
XRECORD
  5
78
102
{ACAD_REACTORS
330
77
102
}
330
77
100
AcDbXrecord
280
     1
290
     1
  0
XRECORD
  5
3D1
102
{ACAD_REACTORS
330
3D0
102
}
330
3D0
100
AcDbXrecord
280
     1
290
     1
  0
XRECORD
  5
6
102
{ACAD_REACTORS
330
5
102
}
330
5
100
AcDbXrecord
280
     1
290
     1
  0
SORTENTSTABLE
  5
1B
102
{ACAD_REACTORS
330
1A
102
}
330
1A
100
AcDbSortentsTable
330
19
331
0
  5
13A
331
BA
  5
BB
331
BB
  5
BC
331
BC
  5
BD
331
BD
  5
BE
331
BE
  5
BF
331
BF
  5
C0
331
C0
  5
C1
331
C1
  5
C2
331
C2
  5
C3
331
C3
  5
C4
331
C4
  5
C5
331
C5
  5
C6
331
C6
  5
C7
331
C7
  5
C8
331
C8
  5
C9
331
C9
  5
CA
331
CA
  5
CB
331
CB
  5
CC
331
CC
  5
CD
331
CD
  5
CE
331
CE
  5
CF
331
CF
  5
D0
331
D0
  5
D1
331
D1
  5
D2
331
D2
  5
D3
331
D3
  5
D4
331
D4
  5
D5
331
D5
  5
D6
331
D6
  5
D7
331
D7
  5
D8
331
D8
  5
D9
331
D9
  5
DA
331
DA
  5
DB
331
DB
  5
DC
331
DC
  5
DD
331
DD
  5
DE
331
DE
  5
DF
331
DF
  5
E0
331
E0
  5
E1
331
E1
  5
E2
331
E2
  5
E3
331
E3
  5
E4
331
E4
  5
E5
331
E5
  5
E6
331
E6
  5
E7
331
E7
  5
E8
331
E8
  5
E9
331
E9
  5
EA
331
EA
  5
EB
331
EB
  5
EC
331
EC
  5
ED
331
ED
  5
EE
331
EE
  5
EF
331
EF
  5
F0
331
F0
  5
F1
331
F1
  5
F2
331
F2
  5
F3
331
F3
  5
F4
331
F4
  5
F5
331
F5
  5
F6
331
F6
  5
F7
331
F7
  5
F8
331
F8
  5
F9
331
F9
  5
FA
331
FA
  5
FB
331
FB
  5
FC
331
FC
  5
FD
331
FD
  5
FE
331
FE
  5
FF
331
FF
  5
100
331
100
  5
101
331
101
  5
102
331
102
  5
103
331
103
  5
104
331
104
  5
105
331
105
  5
106
331
106
  5
107
331
107
  5
108
331
108
  5
109
331
109
  5
10A
331
10A
  5
10B
331
10B
  5
10C
331
10C
  5
10D
331
10D
  5
10E
331
10E
  5
10F
331
10F
  5
110
331
110
  5
111
331
111
  5
112
331
112
  5
113
331
113
  5
114
331
114
  5
115
331
115
  5
116
331
116
  5
117
331
117
  5
118
331
118
  5
119
331
119
  5
11A
331
11A
  5
11B
331
11B
  5
11C
331
11C
  5
11D
331
11D
  5
11E
331
11E
  5
11F
331
11F
  5
120
331
120
  5
121
331
121
  5
122
331
122
  5
123
331
123
  5
124
331
124
  5
125
331
125
  5
126
331
126
  5
127
331
127
  5
128
331
128
  5
129
331
129
  5
12A
331
12A
  5
12B
331
12B
  5
12C
331
12C
  5
12D
331
12D
  5
12E
331
12E
  5
12F
331
12F
  5
130
331
130
  5
131
331
131
  5
132
331
132
  5
133
331
133
  5
134
331
134
  5
135
331
0
  5
136
331
0
  5
137
331
137
  5
138
331
138
  5
139
331
139
  5
13B
331
0
  5
13C
331
13B
  5
13D
331
13C
  5
13E
331
13D
  5
13F
331
13E
  5
140
331
13F
  5
141
331
140
  5
142
331
141
  5
143
331
142
  5
144
331
143
  5
145
331
144
  5
146
331
145
  5
147
331
146
  5
148
331
147
  5
149
331
148
  5
14A
331
149
  5
14B
331
14A
  5
14C
331
14B
  5
14D
331
14C
  5
14E
331
14D
  5
14F
331
14E
  5
150
331
14F
  5
151
331
150
  5
152
331
151
  5
153
331
152
  5
154
331
153
  5
155
331
154
  5
156
331
155
  5
157
331
156
  5
158
331
157
  5
159
331
158
  5
15A
331
159
  5
15B
331
15A
  5
15C
331
15B
  5
15D
331
15C
  5
15E
331
15D
  5
15F
331
15E
  5
160
331
15F
  5
161
331
160
  5
162
331
161
  5
163
331
162
  5
164
331
163
  5
165
331
164
  5
166
331
165
  5
167
331
166
  5
168
331
167
  5
169
331
168
  5
16A
331
169
  5
16B
331
16A
  5
16C
331
16B
  5
16D
331
16C
  5
16E
331
16D
  5
16F
331
16E
  5
170
331
16F
  5
171
331
170
  5
172
331
171
  5
173
331
172
  5
174
331
173
  5
175
331
174
  5
176
331
175
  5
177
331
176
  5
178
331
177
  5
179
331
178
  5
17A
331
179
  5
17B
331
17A
  5
17C
331
17B
  5
17D
331
17C
  5
17E
331
17D
  5
17F
331
0
  5
180
331
17F
  5
181
331
180
  5
182
331
181
  5
183
331
0
  5
184
331
183
  5
185
331
184
  5
186
331
0
  5
187
331
186
  5
188
331
187
  5
189
331
188
  5
18A
331
189
  5
18B
331
18A
  5
18C
331
18B
  5
18D
331
18C
  5
18E
331
18D
  5
18F
331
18E
  5
190
331
18F
  5
191
331
190
  5
192
331
191
  5
193
331
192
  5
194
331
193
  5
195
331
194
  5
196
331
195
  5
197
331
196
  5
198
331
197
  5
199
331
198
  5
19A
331
199
  5
19B
331
19A
  5
19C
331
19B
  5
19D
331
19C
  5
19E
331
19D
  5
19F
331
19E
  5
1A0
331
19F
  5
1A1
331
1A0
  5
1A2
331
1A1
  5
1A3
331
1A2
  5
1A4
331
1A3
  5
1A5
331
1A4
  5
1A6
331
1A5
  5
1A7
331
1A6
  5
1A8
331
1A7
  5
1A9
331
1A8
  5
1AA
331
1A9
  5
1AB
331
1AA
  5
1AC
331
1AB
  5
1AD
331
1AC
  5
1AE
331
1AD
  5
1AF
331
1AE
  5
1B0
331
1AF
  5
1B1
331
1B0
  5
1B2
331
1B1
  5
1B3
331
1B2
  5
1B4
331
1B3
  5
1B5
331
1B4
  5
1B6
331
1B5
  5
1B7
331
1B6
  5
1B8
331
1B7
  5
1B9
331
1B8
  5
1BA
331
1B9
  5
1BB
331
1BA
  5
1BC
331
1BB
  5
1BD
331
1BC
  5
1BE
331
1BD
  5
1BF
331
1BE
  5
1C0
331
1BF
  5
1C1
331
1C0
  5
1C2
331
1C1
  5
1C3
331
1C2
  5
1C4
331
1C3
  5
1C5
331
1C4
  5
1C6
331
1C5
  5
1C7
331
1C6
  5
1C8
331
1C7
  5
1C9
331
1C8
  5
1CA
331
1C9
  5
1CB
331
1CA
  5
1CC
331
1CB
  5
1CD
331
1CC
  5
1CE
331
1CD
  5
1CF
331
1CE
  5
1D0
331
1CF
  5
1D1
331
1D0
  5
1D2
331
1D1
  5
1D3
331
1D2
  5
1D4
331
1D3
  5
1D5
331
1D4
  5
1D6
331
1D5
  5
1D9
331
1D6
  5
1DA
331
1D7
  5
1DB
331
1D8
  5
1DC
331
1D9
  5
1DD
331
1DA
  5
1DE
331
1DB
  5
1DF
331
1DC
  5
1E0
331
1DD
  5
1E1
331
1DE
  5
1E2
331
1DF
  5
1E3
331
1E0
  5
1E4
331
1E1
  5
1E5
331
1E2
  5
1E6
331
1E3
  5
1E7
331
1E4
  5
1E8
331
1E5
  5
1E9
331
1E6
  5
1EA
331
1E7
  5
1EB
331
1E8
  5
1EC
331
1E9
  5
1ED
331
1EA
  5
1EE
331
1EB
  5
1EF
331
1EC
  5
1F0
331
1ED
  5
1F1
331
1EE
  5
1F2
331
1EF
  5
1F3
331
1F0
  5
1F4
331
1F1
  5
1F5
331
1F2
  5
1F6
331
1F3
  5
1F7
331
1F4
  5
1F8
331
1F5
  5
1F9
331
1F6
  5
1FA
331
1F7
  5
1FB
331
1F8
  5
1FC
331
1F9
  5
1FD
331
1FA
  5
1FE
331
1FB
  5
1FF
331
1FC
  5
200
331
1FD
  5
201
331
1FE
  5
202
331
1FF
  5
203
331
200
  5
204
331
201
  5
205
331
202
  5
206
331
203
  5
207
331
204
  5
208
331
205
  5
209
331
206
  5
20A
331
207
  5
20B
331
208
  5
20C
331
209
  5
20D
331
20A
  5
20E
331
20B
  5
20F
331
20C
  5
210
331
20D
  5
211
331
20E
  5
212
331
20F
  5
213
331
210
  5
214
331
211
  5
215
331
212
  5
216
331
213
  5
217
331
214
  5
218
331
215
  5
219
331
216
  5
21A
331
217
  5
21B
331
218
  5
21C
331
219
  5
21D
331
21A
  5
21E
331
21B
  5
21F
331
21C
  5
220
331
21D
  5
221
331
21E
  5
222
331
21F
  5
223
331
220
  5
224
331
221
  5
225
331
222
  5
226
331
223
  5
227
331
224
  5
228
331
225
  5
229
331
226
  5
22A
331
227
  5
22B
331
228
  5
22C
331
229
  5
22D
331
22A
  5
22E
331
22B
  5
22F
331
22C
  5
230
331
22D
  5
231
331
22E
  5
232
331
22F
  5
233
331
230
  5
234
331
231
  5
235
331
232
  5
236
331
233
  5
237
331
234
  5
238
331
235
  5
239
331
236
  5
23A
331
237
  5
23B
331
238
  5
23C
331
239
  5
23D
331
23A
  5
23E
331
23B
  5
23F
331
23C
  5
240
331
23D
  5
241
331
23E
  5
242
331
23F
  5
243
331
240
  5
244
331
241
  5
245
331
242
  5
246
331
243
  5
247
331
244
  5
248
331
245
  5
249
331
246
  5
24A
331
247
  5
24B
331
248
  5
24C
331
249
  5
24D
331
24A
  5
24E
331
24B
  5
24F
331
24C
  5
250
331
24D
  5
251
331
24E
  5
252
331
24F
  5
253
331
250
  5
254
331
251
  5
255
331
252
  5
256
331
253
  5
257
331
254
  5
258
331
255
  5
259
331
256
  5
25A
331
257
  5
25B
331
258
  5
25C
331
259
  5
25D
331
25A
  5
25E
331
25B
  5
25F
331
25C
  5
260
331
25D
  5
261
331
25E
  5
262
331
25F
  5
263
331
260
  5
264
331
261
  5
265
331
262
  5
266
331
263
  5
267
331
264
  5
268
331
265
  5
269
331
266
  5
26A
331
267
  5
26B
331
268
  5
26C
331
269
  5
26D
331
26A
  5
26E
331
26B
  5
26F
331
26C
  5
270
331
26D
  5
271
331
26E
  5
272
331
26F
  5
273
331
270
  5
274
331
271
  5
275
331
272
  5
276
331
273
  5
277
331
274
  5
278
331
275
  5
279
331
276
  5
27A
331
277
  5
27B
331
278
  5
27C
331
279
  5
27D
331
27A
  5
27E
331
27B
  5
27F
331
27C
  5
280
331
27D
  5
281
331
27E
  5
282
331
27F
  5
283
331
280
  5
284
331
281
  5
285
331
282
  5
286
331
283
  5
287
331
284
  5
288
331
285
  5
289
331
286
  5
28A
331
287
  5
28B
331
288
  5
28C
331
289
  5
28D
331
28A
  5
28E
331
28B
  5
28F
331
28C
  5
290
331
28D
  5
291
331
28E
  5
292
331
28F
  5
293
331
290
  5
294
331
291
  5
295
331
292
  5
296
331
293
  5
297
331
294
  5
298
331
295
  5
299
331
296
  5
29A
331
297
  5
29B
331
298
  5
29C
331
299
  5
29D
331
29A
  5
29E
331
29B
  5
29F
331
29C
  5
2A0
331
29D
  5
2A1
331
29E
  5
2A2
331
29F
  5
2A3
331
2A0
  5
2A4
331
2A1
  5
2A5
331
2A2
  5
2A6
331
2A3
  5
2A7
331
2A4
  5
2A8
331
2A5
  5
2A9
331
2A6
  5
2AA
331
2A7
  5
2AB
331
2A8
  5
2AC
331
2A9
  5
2AD
331
2AA
  5
2AE
331
2AB
  5
2AF
331
2AC
  5
2B0
331
2AD
  5
2B1
331
2AE
  5
2B2
331
2AF
  5
2B3
331
2B0
  5
2B4
331
2B1
  5
2B5
331
2B2
  5
2B6
331
2B3
  5
2B7
331
2B4
  5
2B8
331
2B5
  5
2B9
331
2B6
  5
2BA
331
2B7
  5
2BB
331
2B8
  5
2BC
331
2B9
  5
2BD
331
2BA
  5
2BE
331
2BB
  5
2BF
331
2BC
  5
2C0
331
2BD
  5
2C1
331
2BE
  5
2C2
331
2BF
  5
2C3
331
2C0
  5
2C4
331
2C1
  5
2C5
331
2C2
  5
2C6
331
2C3
  5
2C7
331
2C4
  5
2C8
331
2C5
  5
2C9
331
2C6
  5
2CA
331
2C7
  5
2CB
331
2C8
  5
2CC
331
2C9
  5
2CD
331
2CA
  5
2CE
331
2CB
  5
2CF
331
2CC
  5
2D0
331
2CD
  5
2D1
331
2CE
  5
2D2
331
2CF
  5
2D3
331
2D0
  5
2D4
331
2D1
  5
2D5
331
2D2
  5
2D6
331
2D3
  5
2D7
331
2D4
  5
2D8
331
2D5
  5
2D9
331
2D6
  5
2DA
331
2D7
  5
2DB
331
2D8
  5
2DC
331
2D9
  5
2DD
331
2DA
  5
2DE
331
2DB
  5
2DF
331
2DC
  5
2E0
331
2DD
  5
2E1
331
2DE
  5
2E2
331
2DF
  5
2E3
331
2E0
  5
2E4
331
2E1
  5
2E5
331
2E2
  5
2E6
331
2E3
  5
2E7
331
2E4
  5
2E8
331
2E5
  5
2E9
331
2E6
  5
2EA
331
2E7
  5
2EB
331
2E8
  5
2EC
331
2E9
  5
2ED
331
2EA
  5
2EE
331
2EB
  5
2EF
331
2EC
  5
2F0
331
2ED
  5
2F1
331
2EE
  5
2F2
331
2EF
  5
2F3
331
2F0
  5
2F4
331
2F1
  5
2F5
331
2F2
  5
2F6
331
2F3
  5
2F7
331
2F4
  5
2F8
331
2F5
  5
2F9
331
2F6
  5
2FA
331
2F7
  5
2FB
331
2F8
  5
2FC
331
2F9
  5
2FD
331
2FA
  5
2FE
331
2FB
  5
2FF
331
2FC
  5
300
331
2FD
  5
301
331
2FE
  5
302
331
2FF
  5
303
331
300
  5
304
331
301
  5
305
331
302
  5
306
331
303
  5
307
331
304
  5
308
331
305
  5
309
331
306
  5
30A
331
307
  5
30B
331
308
  5
30C
331
309
  5
30D
331
30A
  5
30E
331
30B
  5
30F
331
30C
  5
310
331
30D
  5
311
331
30E
  5
312
331
30F
  5
313
331
310
  5
314
331
311
  5
315
331
312
  5
316
331
313
  5
317
331
314
  5
318
331
315
  5
319
331
316
  5
31A
331
317
  5
31B
331
318
  5
31C
331
319
  5
31D
331
31A
  5
31E
331
31B
  5
31F
331
31C
  5
320
331
31D
  5
321
331
31E
  5
322
331
31F
  5
323
331
320
  5
324
331
321
  5
325
331
322
  5
326
331
323
  5
327
331
324
  5
328
331
325
  5
329
331
326
  5
32A
331
327
  5
32B
331
328
  5
32C
331
329
  5
32D
331
32A
  5
32E
331
32B
  5
32F
331
32C
  5
330
331
32D
  5
331
331
32E
  5
332
331
32F
  5
333
331
330
  5
334
331
331
  5
335
331
332
  5
336
331
333
  5
337
331
334
  5
338
331
335
  5
339
331
336
  5
33A
331
337
  5
33B
331
338
  5
33C
331
339
  5
33D
331
33A
  5
33E
331
33B
  5
33F
331
33C
  5
340
331
33D
  5
341
331
33E
  5
342
331
33F
  5
343
331
340
  5
344
331
341
  5
345
331
342
  5
346
331
343
  5
347
331
344
  5
348
331
345
  5
349
331
346
  5
34A
331
347
  5
34B
331
348
  5
34C
331
349
  5
34D
331
34A
  5
34E
331
34B
  5
34F
331
34C
  5
350
331
34D
  5
351
331
34E
  5
352
331
34F
  5
353
331
350
  5
354
331
351
  5
355
331
352
  5
356
331
353
  5
357
331
354
  5
358
331
355
  5
359
331
356
  5
35A
331
357
  5
35B
331
358
  5
35C
331
359
  5
35D
331
35A
  5
35E
331
35B
  5
35F
331
35C
  5
360
331
35D
  5
361
331
35E
  5
362
331
35F
  5
363
331
360
  5
364
331
361
  5
365
331
362
  5
366
331
363
  5
367
331
364
  5
368
331
365
  5
369
331
366
  5
36A
331
367
  5
36B
331
368
  5
36C
331
369
  5
36D
331
36A
  5
36E
331
36B
  5
36F
331
36C
  5
370
331
36D
  5
371
331
36E
  5
372
331
36F
  5
373
331
370
  5
374
331
371
  5
375
331
372
  5
376
331
373
  5
377
331
374
  5
378
331
375
  5
379
331
376
  5
37A
331
377
  5
37B
331
378
  5
37C
331
379
  5
37D
331
37A
  5
37E
331
37B
  5
37F
331
37C
  5
380
331
37D
  5
381
331
37E
  5
382
331
37F
  5
383
331
380
  5
384
331
381
  5
385
331
382
  5
386
331
383
  5
387
331
384
  5
388
331
385
  5
389
331
386
  5
38A
331
387
  5
38B
331
388
  5
38C
331
389
  5
38D
331
38A
  5
38E
331
38B
  5
38F
331
38C
  5
390
331
38D
  5
391
331
38E
  5
392
331
38F
  5
393
331
390
  5
394
331
391
  5
395
331
392
  5
396
331
393
  5
397
331
394
  5
398
331
395
  5
399
331
396
  5
39A
331
397
  5
39B
331
398
  5
39C
331
399
  5
39D
331
39A
  5
39E
331
39B
  5
39F
331
39C
  5
3A0
331
39D
  5
3A1
331
39E
  5
3A2
331
39F
  5
3A3
331
3A0
  5
3A4
331
3A1
  5
3A5
331
3A2
  5
3A6
331
3A3
  5
3A7
331
3A4
  5
3A8
331
3A5
  5
3A9
331
3A6
  5
3AA
331
3A7
  5
3AB
331
3A8
  5
3AC
331
3A9
  5
3AD
331
3AA
  5
3AE
331
3AB
  5
3AF
331
3AC
  5
3B0
331
3AD
  5
3B1
331
3AE
  5
3B2
331
3AF
  5
3B3
331
3B0
  5
3B4
331
3B1
  5
3B5
331
3B2
  5
3B6
331
0
  5
3B7
331
0
  5
3B8
331
0
  5
3B9
331
0
  5
3BA
331
0
  5
3BB
331
0
  5
3BC
331
0
  5
3BD
331
0
  5
3BE
331
0
  5
3BF
331
0
  5
3C0
331
0
  5
3C1
331
3BE
  5
3C2
331
0
  5
3C3
331
0
  5
3C4
331
0
  5
3C5
331
0
  5
3C6
331
0
  5
3C7
331
0
  5
3C8
331
0
  5
3CA
331
0
  5
3CB
331
0
  5
3CC
331
0
  5
3CD
331
0
  5
3CE
331
0
  5
3D2
331
0
  5
3D3
331
0
  5
3D4
331
0
  5
3D5
331
0
  5
3D6
331
0
  5
3D7
331
0
  5
3D8
331
0
  5
3D9
331
0
  5
3DA
331
0
  5
3DB
331
0
  5
3DC
331
0
  5
3DD
331
0
  5
3DE
331
0
  5
3DF
331
0
  5
3E0
331
0
  5
3E1
331
0
  5
3E2
331
0
  5
3E3
331
0
  5
3E4
331
0
  5
3E5
331
0
  5
3E6
331
0
  5
3E7
331
0
  5
3E8
331
0
  5
3E9
331
0
  5
3EA
331
0
  5
3EB
331
0
  5
3EC
331
0
  5
3ED
331
0
  5
3EE
331
0
  5
3EF
331
0
  5
3F0
331
0
  5
3F1
331
0
  5
3F2
331
0
  5
3F3
331
0
  5
3F4
331
0
  5
3F5
331
0
  5
3F6
331
0
  5
3F7
331
0
  5
3F8
331
0
  5
3F9
331
0
  5
3FA
331
0
  5
3FB
331
0
  5
3FC
331
0
  5
3FD
331
0
  5
3FE
331
0
  5
3FF
331
0
  5
400
331
0
  5
401
331
0
  5
402
331
0
  5
403
331
0
  5
404
331
0
  5
405
331
0
  5
406
331
0
  5
407
331
0
  5
408
331
0
  5
409
331
0
  5
40A
331
0
  5
40B
331
0
  5
40C
331
0
  5
40D
331
0
  5
40E
331
0
  5
40F
331
0
  5
410
331
0
  5
411
331
0
  5
412
331
0
  5
413
331
0
  5
414
331
0
  5
415
331
0
  5
416
331
0
  5
417
331
0
  5
418
331
0
  5
419
331
0
  5
41A
331
0
  5
41B
331
0
  5
41C
331
0
  5
41D
331
0
  5
41E
331
0
  5
41F
331
0
  5
420
331
0
  5
421
331
0
  5
422
331
0
  5
423
331
0
  5
424
331
0
  5
425
331
0
  5
426
331
0
  5
427
331
0
  5
428
331
0
  5
429
331
0
  5
42A
331
0
  5
42B
331
0
  5
42C
331
0
  5
42D
331
0
  5
42E
331
0
  5
42F
331
0
  5
430
331
0
  5
431
331
0
  5
432
331
0
  5
433
331
0
  5
434
331
0
  5
435
331
0
  5
436
331
0
  5
437
331
0
  5
438
331
0
  5
439
331
0
  5
43A
331
0
  5
43B
331
0
  5
43C
331
0
  5
43D
331
0
  5
43E
331
0
  5
43F
331
0
  5
440
331
0
  5
441
331
0
  5
442
331
0
  5
443
331
0
  5
444
331
0
  5
445
331
0
  5
446
331
0
  5
447
331
0
  5
448
331
0
  5
449
331
0
  5
44A
331
0
  5
44B
331
0
  5
44C
331
0
  5
44D
331
0
  5
44E
331
0
  5
44F
331
0
  5
450
331
0
  5
451
331
0
  5
452
331
0
  5
453
331
0
  5
454
331
0
  5
455
331
0
  5
456
331
0
  5
457
331
0
  5
458
331
0
  5
459
331
0
  5
45A
331
0
  5
45B
331
0
  5
45C
331
0
  5
45D
331
0
  5
45E
331
0
  5
45F
331
0
  5
460
331
0
  5
461
331
0
  5
462
331
0
  5
463
331
0
  5
464
331
0
  5
465
331
0
  5
466
331
0
  5
467
331
0
  5
468
331
0
  5
469
331
0
  5
46A
331
0
  5
46B
331
0
  5
46C
331
0
  5
46D
331
0
  5
46E
331
0
  5
46F
331
0
  5
470
331
0
  5
471
331
0
  5
472
331
0
  5
473
331
0
  5
474
331
0
  5
475
331
0
  5
476
331
0
  5
477
331
0
  5
478
331
0
  5
479
331
0
  5
47A
331
0
  5
47B
331
0
  5
47C
331
0
  5
47D
331
0
  5
47E
331
0
  5
47F
331
0
  5
480
331
0
  5
481
331
0
  5
482
331
0
  5
483
331
0
  5
484
331
0
  5
485
331
0
  5
486
331
0
  5
487
331
0
  5
488
331
0
  5
489
331
0
  5
48A
331
0
  5
48B
331
0
  5
48C
331
0
  5
48D
331
0
  5
48E
331
0
  5
48F
331
0
  5
490
331
0
  5
491
331
0
  5
492
331
0
  5
493
331
0
  5
494
331
0
  5
495
331
0
  5
496
331
0
  5
497
331
0
  5
498
331
0
  5
499
331
0
  5
49A
331
0
  5
49B
331
0
  5
49C
331
0
  5
49D
331
0
  5
49E
331
0
  5
49F
331
0
  5
4A0
331
0
  5
4A1
331
0
  5
4A2
331
0
  5
4A3
331
0
  5
4A4
331
0
  5
4A5
331
0
  5
4A6
331
0
  5
4A7
331
0
  5
4A8
331
0
  5
4A9
331
0
  5
4AA
331
0
  5
4AB
331
0
  5
4AC
331
0
  5
4AD
331
0
  5
4AE
331
0
  5
4AF
331
0
  5
4B0
331
0
  5
4B1
331
0
  5
4B2
331
0
  5
4B3
331
0
  5
4B4
331
0
  5
4B5
331
0
  5
4B6
331
0
  5
4B7
331
0
  5
4B8
331
0
  5
4B9
331
0
  5
4BA
331
0
  5
4BB
331
0
  5
4BC
331
0
  5
4BD
331
0
  5
4BE
331
0
  5
4BF
331
0
  5
4C0
331
0
  5
4C1
331
0
  5
4C2
331
0
  5
4C3
331
0
  5
4C4
331
0
  5
4C5
331
0
  5
4C6
331
0
  5
4C7
331
0
  5
4C8
331
0
  5
4C9
331
0
  5
4CA
331
0
  5
4CB
331
0
  5
4CC
331
0
  5
4CD
331
0
  5
4CE
331
0
  5
4CF
331
0
  5
4D0
331
0
  5
4D1
331
0
  5
4D2
331
0
  5
4D3
331
0
  5
4DF
331
0
  5
4E0
331
0
  5
4E1
331
0
  5
4E2
331
0
  5
4E3
331
0
  5
4E4
331
0
  5
4E5
331
0
  5
4E6
331
0
  5
4E7
331
0
  5
4E8
331
0
  5
4E9
331
0
  5
4EA
331
0
  5
4EB
331
0
  5
4EC
331
0
  5
4ED
331
0
  5
4EE
331
0
  5
4EF
331
0
  5
4F0
331
0
  5
4F1
331
0
  5
4F2
331
0
  5
4F3
331
0
  5
4F4
331
0
  5
4F5
331
0
  5
4F6
331
0
  5
4F7
331
0
  5
4F8
331
0
  5
4F9
331
0
  5
4FA
331
0
  5
4FB
331
0
  5
4FC
331
0
  5
4FD
331
0
  5
4FE
331
0
  5
4FF
331
0
  5
500
331
0
  5
501
331
0
  5
502
331
0
  5
503
331
0
  5
504
331
0
  5
505
331
0
  5
506
331
0
  5
507
331
504
  5
508
331
505
  5
509
331
506
  5
50A
331
507
  5
50B
331
508
  5
50C
331
509
  5
50D
331
50A
  5
50E
331
50B
  5
50F
331
50C
  5
510
331
50D
  5
511
331
50E
  5
512
331
50F
  5
513
331
510
  5
514
331
511
  5
515
331
512
  5
516
331
513
  5
517
331
514
  5
518
331
515
  5
531
331
516
  5
532
331
517
  5
533
331
518
  5
534
331
531
  5
535
331
532
  5
536
331
533
  5
537
331
534
  5
538
331
535
  5
539
331
536
  5
53A
331
537
  5
53B
331
538
  5
53C
331
539
  5
53D
331
53A
  5
53E
331
53B
  5
53F
331
53C
  5
540
331
53D
  5
541
331
53E
  5
542
331
53F
  5
543
331
540
  5
544
331
541
  5
545
331
542
  5
546
331
543
  5
547
331
544
  5
548
331
545
  5
549
331
546
  5
54A
331
547
  5
54B
331
548
  5
54C
331
549
  5
54D
331
54A
  5
54E
331
54B
  5
54F
331
54C
  5
550
331
54D
  5
551
331
54E
  5
552
331
54F
  5
553
331
550
  5
554
331
551
  5
555
331
552
  5
556
331
553
  5
557
331
554
  5
558
331
555
  5
559
331
556
  5
55A
331
557
  5
55B
331
558
  5
55C
331
559
  5
55D
331
55A
  5
55E
331
55B
  5
55F
331
0
  5
560
331
0
  5
561
331
0
  5
562
331
0
  5
563
331
0
  5
564
331
0
  5
565
331
0
  5
566
331
0
  5
567
331
0
  5
568
331
0
  5
569
331
0
  5
56A
331
0
  5
56B
331
0
  5
56C
331
0
  5
56D
331
0
  5
56E
331
0
  5
56F
331
0
  5
570
331
0
  5
571
331
0
  5
572
331
0
  5
573
331
0
  5
574
331
0
  5
575
331
0
  5
576
331
0
  5
577
331
0
  5
578
331
0
  5
579
331
0
  5
57A
331
0
  5
57B
331
0
  5
57C
331
0
  5
57D
331
0
  5
57E
331
0
  5
57F
331
0
  5
580
331
0
  5
581
331
0
  5
582
331
0
  5
583
331
0
  5
584
331
0
  5
585
331
0
  5
586
331
0
  5
587
331
0
  5
588
331
0
  5
589
331
0
  5
58A
331
0
  5
58B
331
0
  5
58C
331
0
  5
58D
331
0
  5
58E
331
0
  5
58F
331
0
  5
590
331
0
  5
591
331
0
  5
592
331
0
  5
593
331
0
  5
594
331
0
  5
595
331
0
  5
596
331
0
  5
597
331
0
  5
598
331
0
  5
599
331
0
  5
59A
331
0
  5
59B
331
0
  5
59C
331
0
  5
59D
331
0
  5
59E
331
0
  5
59F
331
0
  5
5A0
331
0
  5
5A1
331
0
  5
5A2
331
0
  5
5A3
331
0
  5
5A4
331
0
  5
5A5
331
0
  5
5A6
331
0
  5
5A7
331
0
  5
5A8
331
0
  5
5A9
331
0
  5
5AA
331
0
  5
5AB
331
0
  5
5AC
331
0
  5
5AD
331
0
  5
5AE
331
0
  5
5AF
331
0
  5
5B0
331
0
  5
5B1
331
0
  5
5B2
331
0
  5
5B3
331
0
  5
5B4
331
0
  5
5B5
331
0
  5
5B6
331
0
  5
5B7
331
0
  5
5B8
331
0
  5
5B9
331
0
  5
5BA
331
0
  5
5BB
331
0
  5
5BC
331
0
  5
5BD
331
0
  5
5BE
331
0
  5
5BF
331
0
  5
5C0
331
0
  5
5C1
331
0
  5
5C2
331
0
  5
5C3
331
0
  5
5C4
331
0
  5
5C5
331
0
  5
5C6
331
0
  5
5C7
331
0
  5
5C8
331
0
  5
5C9
331
0
  5
5CA
331
0
  5
5CB
331
0
  5
5CC
331
0
  5
5CD
331
0
  5
5CE
331
0
  5
5CF
331
0
  5
5D0
331
0
  5
5D1
331
0
  5
5D2
331
0
  5
5D3
331
0
  5
5D4
331
0
  5
5D5
331
0
  5
5D6
331
0
  5
5D7
331
0
  5
5D8
331
0
  5
5D9
331
0
  5
5DA
331
0
  5
5DB
331
0
  5
5DC
331
0
  5
5DD
331
0
  5
5DE
331
0
  5
5DF
331
0
  5
5E0
331
0
  5
5E1
331
0
  5
5E2
331
0
  5
5E3
331
0
  5
5E4
331
0
  5
5E5
331
0
  5
5E6
331
0
  5
5E7
331
0
  5
5E8
331
0
  5
5E9
331
0
  5
5EA
331
0
  5
5EB
331
0
  5
5EC
331
0
  5
5ED
331
0
  5
5EE
331
0
  5
5EF
331
0
  5
5F0
331
0
  5
5F1
331
0
  5
5F2
331
0
  5
5F3
331
0
  5
5F4
331
0
  5
5F5
331
0
  5
5F6
331
0
  5
5F7
331
0
  5
5F8
331
0
  5
5F9
331
0
  5
5FA
331
0
  5
5FB
331
0
  5
5FC
331
0
  5
5FD
331
0
  5
5FE
331
0
  5
5FF
331
0
  5
600
331
0
  5
601
331
0
  5
602
331
0
  5
603
331
0
  5
604
331
0
  5
605
331
0
  5
606
331
0
  5
607
331
0
  5
608
331
0
  5
609
331
0
  5
60A
331
0
  5
60B
331
0
  5
60C
331
0
  5
60D
331
0
  5
60E
331
0
  5
60F
331
0
  5
610
331
0
  5
611
331
0
  5
612
331
0
  5
613
331
0
  5
614
331
0
  5
615
331
0
  5
616
331
0
  5
617
331
0
  5
618
331
0
  5
619
331
0
  5
637
331
0
  5
638
331
0
  5
639
331
0
  5
63A
331
0
  5
63F
331
0
  5
640
331
0
  5
642
331
0
  5
643
331
0
  5
676
331
0
  5
681
331
0
  5
682
331
680
  5
683
331
681
  5
684
331
682
  5
685
331
683
  5
686
331
685
  5
688
331
686
  5
689
331
687
  5
68A
331
688
  5
68B
331
689
  5
68C
331
68A
  5
68D
331
68B
  5
68E
331
68C
  5
68F
331
68D
  5
690
331
68E
  5
691
331
68F
  5
692
331
690
  5
693
331
691
  5
694
331
692
  5
695
331
693
  5
696
331
694
  5
697
331
695
  5
698
331
696
  5
699
331
698
  5
69B
331
699
  5
69C
331
69A
  5
69D
331
69C
  5
69F
331
69D
  5
6A0
331
69E
  5
6A1
331
69F
  5
6A2
331
6A0
  5
6A3
331
6A1
  5
6A4
331
6A4
  5
BA
331
6A5
  5
1D7
331
6A6
  5
1D8
  0
LAYOUT
  5
21
102
{ACAD_REACTORS
330
22
102
}
102
{ACAD_XDICTIONARY
360
23
102
}
330
22
100
AcDbPlotSettings
  1

  2
Bullzip PDF Printer.pc3
  4
A3
  6

 40
0.2
 41
0.0
 42
0.0
 43
0.0
 44
420.2
 45
297.1
 46
25.0
 47
12.0
 48
-1386.696920095688
 49
-159.1917999344669
140
905.3030746543118
141
1475.808196250533
142
1.0
143
6.0
 70
 11936
 72
     1
 73
     0
 74
     4
  7
monochrome.ctb
 75
     0
147
0.1666666666666667
148
1386.696920095688
149
159.1917999344669
100
AcDbLayout
  1
Model
 70
     0
 71
     0
 10
0.0
 20
0.0
 11
12.0
 21
9.0
 12
0.0
 22
0.0
 32
0.0
 14
287.7872031996358
 24
38.68835933030846
 34
0.0
 15
2152.820648627123
 25
1747.981987576494
 35
0.0
146
0.0
 13
0.0
 23
0.0
 33
0.0
 16
1.0
 26
0.0
 36
0.0
 17
0.0
 27
1.0
 37
0.0
 76
     0
330
19
331
34
1001
ACAD_PSEXT
1000
Bullzip PDF Printer.pc3
1000
Bullzip PDF Printer
1000
BULLZIP
1000
Bullzip PDF Printer 10.1.0.1871
1070
     0
  0
LAYOUT
  5
29
102
{ACAD_REACTORS
330
22
102
}
330
22
100
AcDbPlotSettings
  1

  2
SR-LP8300F
  4

  6

 40
0.0
 41
0.0
 42
0.0
 43
0.0
 44
0.0
 45
0.0
 46
0.0
 47
0.0
 48
0.0
 49
0.0
140
0.0
141
0.0
142
1.0
143
1.0
 70
   688
 72
     0
 73
     0
 74
     5
  7
monochrome.ctb
 75
    16
147
1.0
148
0.0
149
0.0
100
AcDbLayout
  1
ﾚｲｱｳﾄ1
 70
     0
 71
     1
 10
0.0
 20
0.0
 11
12.0
 21
9.0
 12
0.0
 22
0.0
 32
0.0
 14
1000000000000000E+20
 24
1000000000000000E+20
 34
1000000000000000E+20
 15
-1000000000000000E+20
 25
-1000000000000000E+20
 35
-1000000000000000E+20
146
0.0
 13
0.0
 23
0.0
 33
0.0
 16
1.0
 26
0.0
 36
0.0
 17
0.0
 27
1.0
 37
0.0
 76
     0
330
26
  0
MATERIAL
  5
6B
102
{ACAD_REACTORS
330
B
102
}
102
{ACAD_XDICTIONARY
360
6D9
102
}
330
B
100
AcDbMaterial
  1
ByBlock
 72
     0
 73
     2
 43
0.0208333333333333
 43
0.0
 43
0.0
 43
0.0
 43
0.0
 43
0.0208333333333333
 43
0.0
 43
0.0
 43
0.0
 43
0.0
 43
1.0
 43
0.0
 43
0.0
 43
0.0
 43
0.0
 43
1.0
 77
     0
 78
     2
 47
0.0208333333333333
 47
0.0
 47
0.0
 47
0.0
 47
0.0
 47
0.0208333333333333
 47
0.0
 47
0.0
 47
0.0
 47
0.0
 47
1.0
 47
0.0
 47
0.0
 47
0.0
 47
0.0
 47
1.0
171
     0
172
     2
 49
0.0208333333333333
 49
0.0
 49
0.0
 49
0.0
 49
0.0
 49
0.0208333333333333
 49
0.0
 49
0.0
 49
0.0
 49
0.0
 49
1.0
 49
0.0
 49
0.0
 49
0.0
 49
0.0
 49
1.0
175
     0
176
     2
142
0.0208333333333333
142
0.0
142
0.0
142
0.0
142
0.0
142
0.0208333333333333
142
0.0
142
0.0
142
0.0
142
0.0
142
1.0
142
0.0
142
0.0
142
0.0
142
0.0
142
1.0
179
     0
270
     2
144
0.0208333333333333
144
0.0
144
0.0
144
0.0
144
0.0
144
0.0208333333333333
144
0.0
144
0.0
144
0.0
144
0.0
144
1.0
144
0.0
144
0.0
144
0.0
144
0.0
144
1.0
274
     2
147
0.0208333333333333
147
0.0
147
0.0
147
0.0
147
0.0
147
0.0208333333333333
147
0.0
147
0.0
147
0.0
147
0.0
147
1.0
147
0.0
147
0.0
147
0.0
147
0.0
147
1.0
  0
MATERIAL
  5
12
102
{ACAD_REACTORS
330
B
102
}
102
{ACAD_XDICTIONARY
360
6D5
102
}
330
B
100
AcDbMaterial
  1
ByLayer
 72
     0
 73
     2
 43
0.0208333333333333
 43
0.0
 43
0.0
 43
0.0
 43
0.0
 43
0.0208333333333333
 43
0.0
 43
0.0
 43
0.0
 43
0.0
 43
1.0
 43
0.0
 43
0.0
 43
0.0
 43
0.0
 43
1.0
 77
     0
 78
     2
 47
0.0208333333333333
 47
0.0
 47
0.0
 47
0.0
 47
0.0
 47
0.0208333333333333
 47
0.0
 47
0.0
 47
0.0
 47
0.0
 47
1.0
 47
0.0
 47
0.0
 47
0.0
 47
0.0
 47
1.0
171
     0
172
     2
 49
0.0208333333333333
 49
0.0
 49
0.0
 49
0.0
 49
0.0
 49
0.0208333333333333
 49
0.0
 49
0.0
 49
0.0
 49
0.0
 49
1.0
 49
0.0
 49
0.0
 49
0.0
 49
0.0
 49
1.0
175
     0
176
     2
142
0.0208333333333333
142
0.0
142
0.0
142
0.0
142
0.0
142
0.0208333333333333
142
0.0
142
0.0
142
0.0
142
0.0
142
1.0
142
0.0
142
0.0
142
0.0
142
0.0
142
1.0
179
     0
270
     2
144
0.0208333333333333
144
0.0
144
0.0
144
0.0
144
0.0
144
0.0208333333333333
144
0.0
144
0.0
144
0.0
144
0.0
144
1.0
144
0.0
144
0.0
144
0.0
144
0.0
144
1.0
274
     2
147
0.0208333333333333
147
0.0
147
0.0
147
0.0
147
0.0
147
0.0208333333333333
147
0.0
147
0.0
147
0.0
147
0.0
147
1.0
147
0.0
147
0.0
147
0.0
147
0.0
147
1.0
  0
MATERIAL
  5
A
102
{ACAD_REACTORS
330
B
102
}
102
{ACAD_XDICTIONARY
360
6D7
102
}
330
B
100
AcDbMaterial
  1
Global
 72
     0
 73
     2
 43
0.0208333333333333
 43
0.0
 43
0.0
 43
0.0
 43
0.0
 43
0.0208333333333333
 43
0.0
 43
0.0
 43
0.0
 43
0.0
 43
1.0
 43
0.0
 43
0.0
 43
0.0
 43
0.0
 43
1.0
 77
     0
 78
     2
 47
0.0208333333333333
 47
0.0
 47
0.0
 47
0.0
 47
0.0
 47
0.0208333333333333
 47
0.0
 47
0.0
 47
0.0
 47
0.0
 47
1.0
 47
0.0
 47
0.0
 47
0.0
 47
0.0
 47
1.0
171
     0
172
     2
 49
0.0208333333333333
 49
0.0
 49
0.0
 49
0.0
 49
0.0
 49
0.0208333333333333
 49
0.0
 49
0.0
 49
0.0
 49
0.0
 49
1.0
 49
0.0
 49
0.0
 49
0.0
 49
0.0
 49
1.0
175
     0
176
     2
142
0.0208333333333333
142
0.0
142
0.0
142
0.0
142
0.0
142
0.0208333333333333
142
0.0
142
0.0
142
0.0
142
0.0
142
1.0
142
0.0
142
0.0
142
0.0
142
0.0
142
1.0
179
     0
270
     2
144
0.0208333333333333
144
0.0
144
0.0
144
0.0
144
0.0
144
0.0208333333333333
144
0.0
144
0.0
144
0.0
144
0.0
144
1.0
144
0.0
144
0.0
144
0.0
144
0.0
144
1.0
274
     2
147
0.0208333333333333
147
0.0
147
0.0
147
0.0
147
0.0
147
0.0208333333333333
147
0.0
147
0.0
147
0.0
147
0.0
147
1.0
147
0.0
147
0.0
147
0.0
147
0.0
147
1.0
  0
MLEADERSTYLE
  5
635
102
{ACAD_REACTORS
330
61D
102
}
102
{ACAD_XDICTIONARY
360
70B
102
}
330
61D
100
AcDbMLeaderStyle
170
     2
171
     1
172
     0
 90
        2
 40
0.0
 41
0.0
173
     1
 91
-1056964608
340
F
 92
       -2
290
     1
 42
0.09
291
     1
 43
0.36
  3
Standard
341
0
 44
0.18
300

342
10
174
     1
178
     6
175
     1
176
     0
 93
-1056964608
 45
0.18
292
     0
297
     0
 46
0.18
343
0
 94
-1056964608
 47
1.0
 49
1.0
140
1.0
293
     1
141
0.0
294
     1
177
     0
142
1.0
295
     0
296
     0
143
0.125
1001
ACAD_MLEADERVER
1070
     2
  0
MLINESTYLE
  5
16
102
{ACAD_REACTORS
330
17
102
}
330
17
100
AcDbMlineStyle
  2
STANDARD
 70
     0
  3

 62
     0
 51
90.0
 52
90.0
 71
     2
 49
0.5
 62
   256
  6
BYLAYER
 49
-0.5
 62
   256
  6
BYLAYER
  0
ACDBPLACEHOLDER
  5
7
102
{ACAD_REACTORS
330
8
102
}
330
8
  0
SCALE
  5
5A
102
{ACAD_REACTORS
330
38
102
}
330
38
100
AcDbScale
 70
     0
300
1:1
140
1.0
141
1.0
290
     1
  0
SCALE
  5
63
102
{ACAD_REACTORS
330
38
102
}
330
38
100
AcDbScale
 70
     0
300
3/8" = 1'-0"
140
0.375
141
12.0
290
     0
  0
SCALE
  5
64
102
{ACAD_REACTORS
330
38
102
}
330
38
100
AcDbScale
 70
     0
300
1/2" = 1'-0"
140
0.5
141
12.0
290
     0
  0
SCALE
  5
65
102
{ACAD_REACTORS
330
38
102
}
330
38
100
AcDbScale
 70
     0
300
3/4" = 1'-0"
140
0.75
141
12.0
290
     0
  0
SCALE
  5
66
102
{ACAD_REACTORS
330
38
102
}
330
38
100
AcDbScale
 70
     0
300
1" = 1'-0"
140
1.0
141
12.0
290
     0
  0
SCALE
  5
67
102
{ACAD_REACTORS
330
38
102
}
330
38
100
AcDbScale
 70
     0
300
1-1/2" = 1'-0"
140
1.5
141
12.0
290
     0
  0
SCALE
  5
68
102
{ACAD_REACTORS
330
38
102
}
330
38
100
AcDbScale
 70
     0
300
3" = 1'-0"
140
3.0
141
12.0
290
     0
  0
SCALE
  5
69
102
{ACAD_REACTORS
330
38
102
}
330
38
100
AcDbScale
 70
     0
300
6" = 1'-0"
140
6.0
141
12.0
290
     0
  0
SCALE
  5
6A
102
{ACAD_REACTORS
330
38
102
}
330
38
100
AcDbScale
 70
     0
300
1'-0" = 1'-0"
140
12.0
141
12.0
290
     0
  0
SCALE
  5
5B
102
{ACAD_REACTORS
330
38
102
}
330
38
100
AcDbScale
 70
     0
300
1/128" = 1'-0"
140
0.0078125
141
12.0
290
     0
  0
SCALE
  5
5C
102
{ACAD_REACTORS
330
38
102
}
330
38
100
AcDbScale
 70
     0
300
1/64" = 1'-0"
140
0.015625
141
12.0
290
     0
  0
SCALE
  5
5D
102
{ACAD_REACTORS
330
38
102
}
330
38
100
AcDbScale
 70
     0
300
1/32" = 1'-0"
140
0.03125
141
12.0
290
     0
  0
SCALE
  5
5E
102
{ACAD_REACTORS
330
38
102
}
330
38
100
AcDbScale
 70
     0
300
1/16" = 1'-0"
140
0.0625
141
12.0
290
     0
  0
SCALE
  5
5F
102
{ACAD_REACTORS
330
38
102
}
330
38
100
AcDbScale
 70
     0
300
3/32" = 1'-0"
140
0.09375
141
12.0
290
     0
  0
SCALE
  5
60
102
{ACAD_REACTORS
330
38
102
}
330
38
100
AcDbScale
 70
     0
300
1/8" = 1'-0"
140
0.125
141
12.0
290
     0
  0
SCALE
  5
61
102
{ACAD_REACTORS
330
38
102
}
330
38
100
AcDbScale
 70
     0
300
3/16" = 1'-0"
140
0.1875
141
12.0
290
     0
  0
SCALE
  5
62
102
{ACAD_REACTORS
330
38
102
}
330
38
100
AcDbScale
 70
     0
300
1/4" = 1'-0"
140
0.25
141
12.0
290
     0
  0
TABLESTYLE
  5
63D
102
{ACAD_REACTORS
330
61C
102
}
330
61C
100
AcDbTableStyle
  3
Standard
 70
     0
 71
     0
 40
0.06
 41
0.06
280
     0
281
     0
  7
STANDARD
140
0.18
170
     2
 62
     0
 63
   257
283
     0
274
    -2
284
     1
 64
     0
275
    -2
285
     1
 65
     0
276
    -2
286
     1
 66
     0
277
    -2
287
     1
 67
     0
278
    -2
288
     1
 68
     0
279
    -2
289
     1
 69
     0
  7
STANDARD
140
0.25
170
     5
 62
     0
 63
   257
283
     0
274
    -2
284
     1
 64
     0
275
    -2
285
     1
 65
     0
276
    -2
286
     1
 66
     0
277
    -2
287
     1
 67
     0
278
    -2
288
     1
 68
     0
279
    -2
289
     1
 69
     0
  7
STANDARD
140
0.18
170
     5
 62
     0
 63
   257
283
     0
274
    -2
284
     1
 64
     0
275
    -2
285
     1
 65
     0
276
    -2
286
     1
 66
     0
277
    -2
287
     1
 67
     0
278
    -2
288
     1
 68
     0
279
    -2
289
     1
 69
     0
  0
VISUALSTYLE
  5
35
102
{ACAD_REACTORS
330
30
102
}
102
{ACAD_XDICTIONARY
360
6DF
102
}
330
30
100
AcDbVisualStyle
  2
2dWireframe
 70
     4
 71
     0
 72
     2
 73
     0
 90
        0
 40
0.6
 41
30.0
 62
     5
 63
     7
 74
     1
 91
        4
 64
     7
 65
   257
 75
     1
175
     1
 42
1.0
 92
        0
 66
   257
 43
1.0
 76
     1
 77
     6
 78
     2
 67
     7
 79
     5
170
     0
171
     0
290
     0
174
     0
 93
        1
 44
0.0
173
     0
291
     0
 45
0.0
1001
ACAD
1000
AcDbSavedByObjectVersion
1070
     0
  0
VISUALSTYLE
  5
625
102
{ACAD_REACTORS
330
30
102
}
102
{ACAD_XDICTIONARY
360
6EB
102
}
330
30
100
AcDbVisualStyle
  2
Basic
 70
     7
 71
     1
 72
     0
 73
     1
 90
        0
 40
0.6
 41
30.0
 62
     5
 63
     7
 74
     0
 91
        4
 64
     7
 65
   257
 75
     1
175
     1
 42
1.0
 92
        8
 66
     7
 43
1.0
 76
     1
 77
     6
 78
     2
 67
     7
 79
     5
170
     0
171
     0
290
     0
174
     0
 93
        1
 44
0.0
173
     0
291
     1
 45
0.0
1001
ACAD
1000
AcDbSavedByObjectVersion
1070
     0
  0
VISUALSTYLE
  5
628
102
{ACAD_REACTORS
330
30
102
}
102
{ACAD_XDICTIONARY
360
6F1
102
}
330
30
100
AcDbVisualStyle
  2
Brighten
 70
    12
 71
     2
 72
     2
 73
     0
 90
        0
 40
0.6
 41
30.0
 62
     5
 63
     7
 74
     1
 91
        4
 64
     7
 65
   257
 75
     1
175
     1
 42
1.0
 92
        8
 66
     7
 43
1.0
 76
     1
 77
     6
 78
     2
 67
     7
 79
     5
170
     0
171
     0
290
     0
174
     0
 93
        1
 44
50.0
173
     0
291
     1
 45
0.0
1001
ACAD
1000
AcDbSavedByObjectVersion
1070
     0
  0
VISUALSTYLE
  5
62C
102
{ACAD_REACTORS
330
30
102
}
102
{ACAD_XDICTIONARY
360
6F9
102
}
330
30
100
AcDbVisualStyle
  2
ColorChange
 70
    16
 71
     2
 72
     2
 73
     3
 90
        0
 40
0.6
 41
30.0
 62
     5
 63
     8
 74
     1
 91
        4
 64
     7
 65
   257
 75
     1
175
     1
 42
1.0
 92
        8
 66
     8
 43
1.0
 76
     1
 77
     6
 78
     2
 67
     7
 79
     5
170
     0
171
     0
290
     0
174
     0
 93
        1
 44
0.0
173
     0
291
     1
 45
0.0
1001
ACAD
1000
AcDbSavedByObjectVersion
1070
     0
  0
VISUALSTYLE
  5
626
102
{ACAD_REACTORS
330
30
102
}
102
{ACAD_XDICTIONARY
360
6ED
102
}
330
30
100
AcDbVisualStyle
  2
Conceptual
 70
     9
 71
     3
 72
     2
 73
     0
 90
        0
 40
0.6
 41
30.0
 62
     5
 63
     7
 74
     2
 91
        2
 64
     7
 65
   257
 75
     1
175
     1
 42
40.0
 92
        8
 66
     7
 43
1.0
 76
     1
 77
     6
 78
     2
 67
     7
 79
     3
170
     0
171
     0
290
     0
174
     0
 93
        1
 44
0.0
173
     0
291
     0
 45
0.0
1001
ACAD
1000
AcDbSavedByObjectVersion
1070
     0
  0
VISUALSTYLE
  5
627
102
{ACAD_REACTORS
330
30
102
}
102
{ACAD_XDICTIONARY
360
6EF
102
}
330
30
100
AcDbVisualStyle
  2
Dim
 70
    11
 71
     2
 72
     2
 73
     0
 90
        0
 40
0.6
 41
30.0
 62
     5
 63
     7
 74
     1
 91
        4
 64
     7
 65
   257
 75
     1
175
     1
 42
1.0
 92
        8
 66
     7
 43
1.0
 76
     1
 77
     6
 78
     2
 67
     7
 79
     5
170
     0
171
     0
290
     0
174
     0
 93
        1
 44
-50.0
173
     0
291
     1
 45
0.0
1001
ACAD
1000
AcDbSavedByObjectVersion
1070
     0
  0
VISUALSTYLE
  5
62F
102
{ACAD_REACTORS
330
30
102
}
102
{ACAD_XDICTIONARY
360
6FF
102
}
330
30
100
AcDbVisualStyle
  2
EdgeColorOff
 70
    22
 71
     2
 72
     2
 73
     0
 90
        0
 40
0.6
 41
30.0
 62
     5
 63
     7
 74
     1
 91
        4
 64
     7
 65
   257
 75
     1
175
     1
 42
1.0
 92
        8
 66
     7
 43
1.0
 76
     1
 77
     6
 78
     2
 67
     7
 79
     5
170
     0
171
     0
290
     0
174
     0
 93
        1
 44
0.0
173
     0
291
     1
 45
0.0
1001
ACAD
1000
AcDbSavedByObjectVersion
1070
     0
  0
VISUALSTYLE
  5
62B
102
{ACAD_REACTORS
330
30
102
}
102
{ACAD_XDICTIONARY
360
6F7
102
}
330
30
100
AcDbVisualStyle
  2
Facepattern
 70
    15
 71
     2
 72
     2
 73
     0
 90
        0
 40
0.6
 41
30.0
 62
     5
 63
     7
 74
     1
 91
        4
 64
     7
 65
   257
 75
     1
175
     1
 42
1.0
 92
        8
 66
     7
 43
1.0
 76
     1
 77
     6
 78
     2
 67
     7
 79
     5
170
     0
171
     0
290
     0
174
     0
 93
        1
 44
0.0
173
     0
291
     1
 45
0.0
1001
ACAD
1000
AcDbSavedByObjectVersion
1070
     0
  0
VISUALSTYLE
  5
620
102
{ACAD_REACTORS
330
30
102
}
102
{ACAD_XDICTIONARY
360
6E1
102
}
330
30
100
AcDbVisualStyle
  2
Flat
 70
     0
 71
     2
 72
     1
 73
     1
 90
        2
 40
0.6
 41
30.0
 62
     5
 63
     7
 74
     0
 91
        4
 64
     7
 65
   257
 75
     1
175
     1
 42
1.0
 92
        8
 66
     7
 43
1.0
 76
     1
 77
     6
 78
     2
 67
     7
 79
     5
170
     0
171
     0
290
     0
174
     0
 93
       13
 44
0.0
173
     0
291
     1
 45
0.0
1001
ACAD
1000
AcDbSavedByObjectVersion
1070
     0
  0
VISUALSTYLE
  5
621
102
{ACAD_REACTORS
330
30
102
}
102
{ACAD_XDICTIONARY
360
6E3
102
}
330
30
100
AcDbVisualStyle
  2
FlatWithEdges
 70
     1
 71
     2
 72
     1
 73
     1
 90
        2
 40
0.6
 41
30.0
 62
     5
 63
     7
 74
     1
 91
        4
 64
     7
 65
   257
 75
     1
175
     1
 42
1.0
 92
        0
 66
   257
 43
1.0
 76
     1
 77
     6
 78
     2
 67
     7
 79
     5
170
     0
171
     0
290
     0
174
     0
 93
       13
 44
0.0
173
     0
291
     1
 45
0.0
1001
ACAD
1000
AcDbSavedByObjectVersion
1070
     0
  0
VISUALSTYLE
  5
622
102
{ACAD_REACTORS
330
30
102
}
102
{ACAD_XDICTIONARY
360
6E5
102
}
330
30
100
AcDbVisualStyle
  2
Gouraud
 70
     2
 71
     2
 72
     2
 73
     1
 90
        2
 40
0.6
 41
30.0
 62
     5
 63
     7
 74
     0
 91
        4
 64
     7
 65
   257
 75
     1
175
     1
 42
1.0
 92
        0
 66
     7
 43
1.0
 76
     1
 77
     6
 78
     2
 67
     7
 79
     5
170
     0
171
     0
290
     0
174
     0
 93
       13
 44
0.0
173
     0
291
     1
 45
0.0
1001
ACAD
1000
AcDbSavedByObjectVersion
1070
     0
  0
VISUALSTYLE
  5
623
102
{ACAD_REACTORS
330
30
102
}
102
{ACAD_XDICTIONARY
360
6E7
102
}
330
30
100
AcDbVisualStyle
  2
GouraudWithEdges
 70
     3
 71
     2
 72
     2
 73
     1
 90
        2
 40
0.6
 41
30.0
 62
     5
 63
     7
 74
     1
 91
        4
 64
     7
 65
   257
 75
     1
175
     1
 42
1.0
 92
        0
 66
   257
 43
1.0
 76
     1
 77
     6
 78
     2
 67
     7
 79
     5
170
     0
171
     0
290
     0
174
     0
 93
       13
 44
0.0
173
     0
291
     1
 45
0.0
1001
ACAD
1000
AcDbSavedByObjectVersion
1070
     0
  0
VISUALSTYLE
  5
624
102
{ACAD_REACTORS
330
30
102
}
102
{ACAD_XDICTIONARY
360
6E9
102
}
330
30
100
AcDbVisualStyle
  2
Hidden
 70
     6
 71
     1
 72
     2
 73
     2
 90
        0
 40
0.6
 41
30.0
 62
     5
 63
     7
 74
     2
 91
        2
 64
     7
 65
   257
 75
     2
175
     1
 42
40.0
 92
        0
 66
   257
 43
1.0
 76
     1
 77
     6
 78
     2
 67
     7
 79
     3
170
     0
171
     0
290
     0
174
     0
 93
        1
 44
0.0
173
     0
291
     0
 45
0.0
1001
ACAD
1000
AcDbSavedByObjectVersion
1070
     0
  0
VISUALSTYLE
  5
62D
102
{ACAD_REACTORS
330
30
102
}
102
{ACAD_XDICTIONARY
360
6FB
102
}
330
30
100
AcDbVisualStyle
  2
JitterOff
 70
    20
 71
     2
 72
     2
 73
     0
 90
        0
 40
0.6
 41
30.0
 62
     5
 63
     7
 74
     1
 91
        4
 64
     7
 65
   257
 75
     1
175
     1
 42
1.0
 92
       10
 66
     7
 43
1.0
 76
     1
 77
     6
 78
     2
 67
     7
 79
     5
170
     0
171
     0
290
     0
174
     0
 93
        1
 44
0.0
173
     0
291
     1
 45
0.0
1001
ACAD
1000
AcDbSavedByObjectVersion
1070
     0
  0
VISUALSTYLE
  5
62A
102
{ACAD_REACTORS
330
30
102
}
102
{ACAD_XDICTIONARY
360
6F5
102
}
330
30
100
AcDbVisualStyle
  2
Linepattern
 70
    14
 71
     2
 72
     2
 73
     0
 90
        0
 40
0.6
 41
30.0
 62
     5
 63
     7
 74
     1
 91
        4
 64
     7
 65
   257
 75
     7
175
     7
 42
1.0
 92
        8
 66
     7
 43
1.0
 76
     1
 77
     6
 78
     2
 67
     7
 79
     5
170
     0
171
     0
290
     0
174
     0
 93
        1
 44
0.0
173
     0
291
     1
 45
0.0
1001
ACAD
1000
AcDbSavedByObjectVersion
1070
     0
  0
VISUALSTYLE
  5
62E
102
{ACAD_REACTORS
330
30
102
}
102
{ACAD_XDICTIONARY
360
6FD
102
}
330
30
100
AcDbVisualStyle
  2
OverhangOff
 70
    21
 71
     2
 72
     2
 73
     0
 90
        0
 40
0.6
 41
30.0
 62
     5
 63
     7
 74
     1
 91
        4
 64
     7
 65
   257
 75
     1
175
     1
 42
1.0
 92
        9
 66
     7
 43
1.0
 76
     1
 77
     6
 78
     2
 67
     7
 79
     5
170
     0
171
     0
290
     0
174
     0
 93
        1
 44
0.0
173
     0
291
     1
 45
0.0
1001
ACAD
1000
AcDbSavedByObjectVersion
1070
     0
  0
VISUALSTYLE
  5
31
102
{ACAD_REACTORS
330
30
102
}
102
{ACAD_XDICTIONARY
360
6DB
102
}
330
30
100
AcDbVisualStyle
  2
Realistic
 70
     8
 71
     2
 72
     3
 73
     0
 90
        2
 40
0.6
 41
30.0
 62
     5
 63
     7
 74
     0
 91
        0
 64
     7
 65
   257
 75
     1
175
     1
 42
1.0
 92
        8
 66
   257
 43
1.0
 76
     1
 77
     6
 78
     2
 67
     7
 79
     3
170
     0
171
     0
290
     0
174
     0
 93
       13
 44
0.0
173
     0
291
     0
 45
0.0
1001
ACAD
1000
AcDbSavedByObjectVersion
1070
     0
  0
VISUALSTYLE
  5
634
102
{ACAD_REACTORS
330
30
102
}
102
{ACAD_XDICTIONARY
360
709
102
}
330
30
100
AcDbVisualStyle
  2
Shaded
 70
    27
 71
     2
 72
     2
 73
     1
 90
        2
 40
0.6
 41
30.0
 62
     5
 63
     7
 74
     0
 91
        4
 64
     7
 65
   257
 75
     1
175
     1
 42
1.0
 92
        8
 66
   257
 43
1.0
 76
     1
 77
     6
 78
     2
 67
   251
 79
     3
170
     0
171
     0
290
     0
174
     0
 93
        5
 44
0.0
173
     0
291
     0
 45
0.0
1001
ACAD
1000
AcDbSavedByObjectVersion
1070
     0
  0
VISUALSTYLE
  5
633
102
{ACAD_REACTORS
330
30
102
}
102
{ACAD_XDICTIONARY
360
707
102
}
330
30
100
AcDbVisualStyle
  2
Shaded with edges
 70
    26
 71
     2
 72
     2
 73
     1
 90
        2
 40
0.6
 41
30.0
 62
     5
 63
     7
 74
     1
 91
       10
 64
     7
 65
   257
 75
     2
175
     1
 42
1.0
 92
        8
 66
   257
 43
1.0
 76
     1
 77
     6
 78
     2
 67
     7
 79
     3
170
     0
171
     0
290
     0
174
     0
 93
        5
 44
0.0
173
     0
291
     0
 45
0.0
1001
ACAD
1000
AcDbSavedByObjectVersion
1070
     0
  0
VISUALSTYLE
  5
630
102
{ACAD_REACTORS
330
30
102
}
102
{ACAD_XDICTIONARY
360
701
102
}
330
30
100
AcDbVisualStyle
  2
Shades of Gray
 70
    23
 71
     2
 72
     2
 73
     3
 90
        0
 40
0.6
 41
30.0
 62
     5
 63
     7
 74
     2
 91
        2
 64
     7
 65
     7
 75
     1
175
     1
 42
40.0
 92
        8
 66
     7
 43
1.0
 76
     1
 77
     6
 78
     2
 67
     7
 79
     3
170
     0
171
     0
290
     0
174
     0
 93
        1
 44
0.0
173
     0
291
     0
 45
0.0
1001
ACAD
1000
AcDbSavedByObjectVersion
1070
     0
  0
VISUALSTYLE
  5
631
102
{ACAD_REACTORS
330
30
102
}
102
{ACAD_XDICTIONARY
360
703
102
}
330
30
100
AcDbVisualStyle
  2
Sketchy
 70
    24
 71
     1
 72
     2
 73
     2
 90
        0
 40
0.6
 41
30.0
 62
     5
 63
     7
 74
     2
 91
        2
 64
     7
 65
     7
 75
     1
175
     1
 42
40.0
 92
       11
 66
     7
 43
1.0
 76
     1
 77
     6
 78
     2
 67
     7
 79
     6
170
     0
171
     0
290
     0
174
     0
 93
        1
 44
0.0
173
     0
291
     0
 45
0.0
1001
ACAD
1000
AcDbSavedByObjectVersion
1070
     0
  0
VISUALSTYLE
  5
629
102
{ACAD_REACTORS
330
30
102
}
102
{ACAD_XDICTIONARY
360
6F3
102
}
330
30
100
AcDbVisualStyle
  2
Thicken
 70
    13
 71
     2
 72
     2
 73
     0
 90
        0
 40
0.6
 41
30.0
 62
     5
 63
     7
 74
     1
 91
        4
 64
     7
 65
   257
 75
     1
175
     1
 42
1.0
 92
       12
 66
     7
 43
1.0
 76
     1
 77
     6
 78
     2
 67
     7
 79
     5
170
     0
171
     0
290
     0
174
     0
 93
        1
 44
0.0
173
     0
291
     1
 45
0.0
1001
ACAD
1000
AcDbSavedByObjectVersion
1070
     0
  0
VISUALSTYLE
  5
32
102
{ACAD_REACTORS
330
30
102
}
102
{ACAD_XDICTIONARY
360
6DD
102
}
330
30
100
AcDbVisualStyle
  2
Wireframe
 70
     5
 71
     0
 72
     2
 73
     0
 90
        0
 40
0.6
 41
30.0
 62
     5
 63
     7
 74
     1
 91
        4
 64
     7
 65
   257
 75
     1
175
     1
 42
1.0
 92
        0
 66
   257
 43
1.0
 76
     1
 77
     6
 78
     2
 67
     7
 79
     3
170
     0
171
     0
290
     0
174
     0
 93
        1
 44
0.0
173
     0
291
     0
 45
0.0
1001
ACAD
1000
AcDbSavedByObjectVersion
1070
     0
  0
VISUALSTYLE
  5
632
102
{ACAD_REACTORS
330
30
102
}
102
{ACAD_XDICTIONARY
360
705
102
}
330
30
100
AcDbVisualStyle
  2
X-Ray
 70
    25
 71
     2
 72
     2
 73
     1
 90
        1
 40
0.5
 41
30.0
 62
     5
 63
     7
 74
     1
 91
        0
 64
     7
 65
   257
 75
     1
175
     1
 42
1.0
 92
        8
 66
     7
 43
1.0
 76
     1
 77
     6
 78
     2
 67
     7
 79
     3
170
     0
171
     0
290
     0
174
     0
 93
       13
 44
0.0
173
     0
291
     0
 45
0.0
1001
ACAD
1000
AcDbSavedByObjectVersion
1070
     0
  0
XRECORD
  5
6CF
102
{ACAD_REACTORS
330
6CE
102
}
330
6CE
100
AcDbXrecord
280
     1
340
2F
  0
XRECORD
  5
6D0
102
{ACAD_REACTORS
330
6CE
102
}
330
6CE
100
AcDbXrecord
280
     1
340
B
  0
DICTIONARYVAR
  5
61B
102
{ACAD_REACTORS
330
61A
102
}
330
61A
100
DictionaryVariables
280
     0
  1
1:1
  0
DICTIONARYVAR
  5
63B
102
{ACAD_REACTORS
330
61A
102
}
330
61A
100
DictionaryVariables
280
     0
  1
Standard
  0
DICTIONARYVAR
  5
63E
102
{ACAD_REACTORS
330
61A
102
}
330
61A
100
DictionaryVariables
280
     0
  1
Standard
  0
DICTIONARYVAR
  5
6CC
102
{ACAD_REACTORS
330
61A
102
}
330
61A
100
DictionaryVariables
280
     0
  1
0
  0
DICTIONARYVAR
  5
6CD
102
{ACAD_REACTORS
330
61A
102
}
330
61A
100
DictionaryVariables
280
     0
  1
1
  0
DICTIONARYVAR
  5
6D4
102
{ACAD_REACTORS
330
61A
102
}
330
61A
100
DictionaryVariables
280
     0
  1
1
  0
DICTIONARY
  5
23
330
21
100
AcDbDictionary
280
     1
281
     1
  0
DICTIONARY
  5
6D9
330
6B
100
AcDbDictionary
280
     1
281
     1
  3
ACAD_XREC_ROUNDTRIP
360
6DA
  0
DICTIONARY
  5
6D5
330
12
100
AcDbDictionary
280
     1
281
     1
  3
ACAD_XREC_ROUNDTRIP
360
6D6
  0
DICTIONARY
  5
6D7
330
A
100
AcDbDictionary
280
     1
281
     1
  3
ACAD_XREC_ROUNDTRIP
360
6D8
  0
DICTIONARY
  5
70B
330
635
100
AcDbDictionary
280
     1
281
     1
  3
ACAD_XREC_ROUNDTRIP
360
70C
  0
DICTIONARY
  5
6DF
330
35
100
AcDbDictionary
280
     1
281
     1
  3
ACAD_XREC_ROUNDTRIP
360
6E0
  0
DICTIONARY
  5
6EB
330
625
100
AcDbDictionary
280
     1
281
     1
  3
ACAD_XREC_ROUNDTRIP
360
6EC
  0
DICTIONARY
  5
6F1
330
628
100
AcDbDictionary
280
     1
281
     1
  3
ACAD_XREC_ROUNDTRIP
360
6F2
  0
DICTIONARY
  5
6F9
330
62C
100
AcDbDictionary
280
     1
281
     1
  3
ACAD_XREC_ROUNDTRIP
360
6FA
  0
DICTIONARY
  5
6ED
330
626
100
AcDbDictionary
280
     1
281
     1
  3
ACAD_XREC_ROUNDTRIP
360
6EE
  0
DICTIONARY
  5
6EF
330
627
100
AcDbDictionary
280
     1
281
     1
  3
ACAD_XREC_ROUNDTRIP
360
6F0
  0
DICTIONARY
  5
6FF
330
62F
100
AcDbDictionary
280
     1
281
     1
  3
ACAD_XREC_ROUNDTRIP
360
700
  0
DICTIONARY
  5
6F7
330
62B
100
AcDbDictionary
280
     1
281
     1
  3
ACAD_XREC_ROUNDTRIP
360
6F8
  0
DICTIONARY
  5
6E1
330
620
100
AcDbDictionary
280
     1
281
     1
  3
ACAD_XREC_ROUNDTRIP
360
6E2
  0
DICTIONARY
  5
6E3
330
621
100
AcDbDictionary
280
     1
281
     1
  3
ACAD_XREC_ROUNDTRIP
360
6E4
  0
DICTIONARY
  5
6E5
330
622
100
AcDbDictionary
280
     1
281
     1
  3
ACAD_XREC_ROUNDTRIP
360
6E6
  0
DICTIONARY
  5
6E7
330
623
100
AcDbDictionary
280
     1
281
     1
  3
ACAD_XREC_ROUNDTRIP
360
6E8
  0
DICTIONARY
  5
6E9
330
624
100
AcDbDictionary
280
     1
281
     1
  3
ACAD_XREC_ROUNDTRIP
360
6EA
  0
DICTIONARY
  5
6FB
330
62D
100
AcDbDictionary
280
     1
281
     1
  3
ACAD_XREC_ROUNDTRIP
360
6FC
  0
DICTIONARY
  5
6F5
330
62A
100
AcDbDictionary
280
     1
281
     1
  3
ACAD_XREC_ROUNDTRIP
360
6F6
  0
DICTIONARY
  5
6FD
330
62E
100
AcDbDictionary
280
     1
281
     1
  3
ACAD_XREC_ROUNDTRIP
360
6FE
  0
DICTIONARY
  5
6DB
330
31
100
AcDbDictionary
280
     1
281
     1
  3
ACAD_XREC_ROUNDTRIP
360
6DC
  0
DICTIONARY
  5
709
330
634
100
AcDbDictionary
280
     1
281
     1
  3
ACAD_XREC_ROUNDTRIP
360
70A
  0
DICTIONARY
  5
707
330
633
100
AcDbDictionary
280
     1
281
     1
  3
ACAD_XREC_ROUNDTRIP
360
708
  0
DICTIONARY
  5
701
330
630
100
AcDbDictionary
280
     1
281
     1
  3
ACAD_XREC_ROUNDTRIP
360
702
  0
DICTIONARY
  5
703
330
631
100
AcDbDictionary
280
     1
281
     1
  3
ACAD_XREC_ROUNDTRIP
360
704
  0
DICTIONARY
  5
6F3
330
629
100
AcDbDictionary
280
     1
281
     1
  3
ACAD_XREC_ROUNDTRIP
360
6F4
  0
DICTIONARY
  5
6DD
330
32
100
AcDbDictionary
280
     1
281
     1
  3
ACAD_XREC_ROUNDTRIP
360
6DE
  0
DICTIONARY
  5
705
330
632
100
AcDbDictionary
280
     1
281
     1
  3
ACAD_XREC_ROUNDTRIP
360
706
  0
XRECORD
  5
6DA
102
{ACAD_REACTORS
330
6D9
102
}
330
6D9
100
AcDbXrecord
280
     1
102
MATERIAL
148
0.0
149
0.0
149
0.0
 93
        0
 94
      127
282
     0
 72
     0
 77
     0
171
     0
175
     0
179
     0
273
     0
  0
XRECORD
  5
6D6
102
{ACAD_REACTORS
330
6D5
102
}
330
6D5
100
AcDbXrecord
280
     1
102
MATERIAL
148
0.0
149
0.0
149
0.0
 93
        0
 94
      127
282
     0
 72
     0
 77
     0
171
     0
175
     0
179
     0
273
     0
  0
XRECORD
  5
6D8
102
{ACAD_REACTORS
330
6D7
102
}
330
6D7
100
AcDbXrecord
280
     1
102
MATERIAL
148
0.0
149
0.0
149
0.0
 93
        0
 94
      127
282
     0
 72
     0
 77
     0
171
     0
175
     0
179
     0
273
     0
  0
XRECORD
  5
70C
102
{ACAD_REACTORS
330
70B
102
}
330
70B
100
AcDbXrecord
280
     1
102
ACAD_ROUNDTRIP_2010_MLEADER_STYLE
  0
XRECORD
  5
6E0
102
{ACAD_REACTORS
330
6DF
102
}
330
6DF
100
AcDbXrecord
280
     1
102
RTVSPropertyOp0
 70
     1
102
RTVSPropertyOp1
 70
     1
102
RTVSPropertyOp2
 70
     1
102
RTVSPropertyOp3
 70
     1
102
RTVSPropertyOp4
 70
     1
102
RTVSPropertyOp5
 70
     1
102
RTVSPropertyOp6
 70
     1
102
RTVSPropertyOp7
 70
     1
102
RTVSPropertyOp8
 70
     1
102
RTVSPropertyOp9
 70
     1
102
RTVSPropertyOp10
 70
     1
102
RTVSPropertyOp11
 70
     1
102
RTVSPropertyOp12
 70
     1
102
RTVSPropertyOp13
 70
     1
102
RTVSPropertyOp14
 70
     1
102
RTVSPropertyOp15
 70
     1
102
RTVSPropertyOp16
 70
     1
102
RTVSPropertyOp17
 70
     1
102
RTVSPropertyOp18
 70
     1
102
RTVSPropertyOp19
 70
     1
102
RTVSPropertyOp20
 70
     1
102
RTVSPropertyOp21
 70
     1
102
RTVSPropertyOp22
 70
     1
102
RTVSPropertyOp23
 70
     1
102
RTVSPropertyOp24
 70
     1
102
RTVSPropertyOp25
 70
     1
102
RTVSPropertyOp26
 70
     1
102
RTVSPropertyOp27
 70
     1
102
RTVSPropertyOp28
 70
     1
102
RTVSPropertyOp29
 70
     1
102
RTVSPropertyOp30
 70
     1
102
RTVSPropertyOp31
 70
     1
102
RTVSPropertyOp32
 70
     1
102
RTVSPropertyOp33
 70
     1
102
RTVSPropertyOp34
 70
     1
102
RTVSPropertyOp35
 70
     1
102
RTVSPropertyOp36
 70
     1
102
RTVSPropertyOp37
 70
     1
102
RTVSPropertyOp38
 70
     1
102
RTVSPropertyOp39
 70
     1
102
RTVSPropertyOp40
 70
     1
102
RTVSPropertyOp41
 70
     1
102
RTVSPropertyOp42
 70
     1
102
RTVSPropertyOp43
 70
     1
102
RTVSPropertyOp44
 70
     1
102
RTVSPropertyOp45
 70
     1
102
RTVSPropertyOp46
 70
     1
102
RTVSPropertyOp47
 70
     1
102
RTVSPropertyOp48
 70
     1
102
RTVSPropertyOp49
 70
     1
102
RTVSPropertyOp50
 70
     1
102
RTVSPropertyOp51
 70
     0
102
RTVSPropertyOp52
 70
     0
102
RTVSPropertyOp53
 70
     1
102
RTVSPropertyOp54
 70
     1
102
RTVSPropertyOp55
 70
     1
102
RTVSPropertyOp56
 70
     1
102
RTVSPropertyOp57
 70
     1
102
RTVSPost2010Prop28
280
     1
102
RTVSPost2010PropOp28
 70
     1
102
RTVSPost2010Prop29
280
     1
102
RTVSPost2010PropOp29
 70
     1
102
RTVSPost2010Prop30
280
     0
102
RTVSPost2010PropOp30
 70
     1
102
RTVSPost2010Prop31
280
     0
102
RTVSPost2010PropOp31
 70
     1
102
RTVSPost2010Prop32
280
     0
102
RTVSPost2010PropOp32
 70
     1
102
RTVSPost2010Prop33
280
     0
102
RTVSPost2010PropOp33
 70
     1
102
RTVSPost2010Prop34
280
     0
102
RTVSPost2010PropOp34
 70
     1
102
RTVSPost2010Prop35
280
     0
102
RTVSPost2010PropOp35
 70
     1
102
RTVSPost2010Prop36
280
     0
102
RTVSPost2010PropOp36
 70
     1
102
RTVSPost2010Prop37
 90
       50
102
RTVSPost2010PropOp37
 70
     1
102
RTVSPost2010Prop38
140
0.0
102
RTVSPost2010PropOp38
 70
     1
102
RTVSPost2010Prop39
140
1.0
102
RTVSPost2010PropOp39
 70
     1
102
RTVSPost2010Prop40
 90
        0
102
RTVSPost2010PropOp40
 70
     1
102
RTVSPost2010Prop41ColorIndex
 90
       18
102
RTVSPost2010Prop41ColorRGB
 90
        0
102
RTVSPost2010PropOp41
 70
     1
102
RTVSPost2010Prop42
 90
       50
102
RTVSPost2010PropOp42
 70
     1
102
RTVSPost2010Prop43
 90
        3
102
RTVSPost2010PropOp43
 70
     1
102
RTVSPost2010Prop44ColorIndex
 90
        5
102
RTVSPost2010Prop44ColorRGB
 90
      255
102
RTVSPost2010PropOp44
 70
     1
102
RTVSPost2010Prop45
280
     0
102
RTVSPost2010PropOp45
 70
     1
102
RTVSPost2010Prop46
 90
       50
102
RTVSPost2010PropOp46
 70
     1
102
RTVSPost2010Prop47
 90
       50
102
RTVSPost2010PropOp47
 70
     1
102
RTVSPost2010Prop48
 90
       50
102
RTVSPost2010PropOp48
 70
     1
102
RTVSPost2010Prop49
280
     0
102
RTVSPost2010PropOp49
 70
     1
102
RTVSPost2010Prop50
 90
       50
102
RTVSPost2010PropOp50
 70
     1
102
RTVSPost2010Prop51ColorIndex
 90
      256
102
RTVSPost2010Prop51ColorRGB
 90
-16777216
102
RTVSPost2010PropOp51
 70
     0
102
RTVSPost2010Prop52
140
1.0
102
RTVSPost2010PropOp52
 70
     0
102
RTVSPost2010Prop53
 90
        2
102
RTVSPost2010PropOp53
 70
     1
102
RTVSPost2010Prop54
  1
strokes_ogs.tif
102
RTVSPost2010PropOp54
 70
     1
102
RTVSPost2010Prop55
280
     0
102
RTVSPost2010PropOp55
 70
     1
102
RTVSPost2010Prop56
140
1.0
102
RTVSPost2010PropOp56
 70
     1
102
RTVSPost2010Prop57
140
1.0
102
RTVSPost2010PropOp57
 70
     1
  0
XRECORD
  5
6EC
102
{ACAD_REACTORS
330
6EB
102
}
330
6EB
100
AcDbXrecord
280
     1
102
RTVSPropertyOp0
 70
     1
102
RTVSPropertyOp1
 70
     1
102
RTVSPropertyOp2
 70
     1
102
RTVSPropertyOp3
 70
     1
102
RTVSPropertyOp4
 70
     1
102
RTVSPropertyOp5
 70
     1
102
RTVSPropertyOp6
 70
     1
102
RTVSPropertyOp7
 70
     1
102
RTVSPropertyOp8
 70
     1
102
RTVSPropertyOp9
 70
     1
102
RTVSPropertyOp10
 70
     1
102
RTVSPropertyOp11
 70
     1
102
RTVSPropertyOp12
 70
     1
102
RTVSPropertyOp13
 70
     1
102
RTVSPropertyOp14
 70
     1
102
RTVSPropertyOp15
 70
     1
102
RTVSPropertyOp16
 70
     1
102
RTVSPropertyOp17
 70
     1
102
RTVSPropertyOp18
 70
     1
102
RTVSPropertyOp19
 70
     1
102
RTVSPropertyOp20
 70
     1
102
RTVSPropertyOp21
 70
     1
102
RTVSPropertyOp22
 70
     1
102
RTVSPropertyOp23
 70
     1
102
RTVSPropertyOp24
 70
     1
102
RTVSPropertyOp25
 70
     1
102
RTVSPropertyOp26
 70
     1
102
RTVSPropertyOp27
 70
     1
102
RTVSPropertyOp28
 70
     1
102
RTVSPropertyOp29
 70
     1
102
RTVSPropertyOp30
 70
     1
102
RTVSPropertyOp31
 70
     1
102
RTVSPropertyOp32
 70
     1
102
RTVSPropertyOp33
 70
     1
102
RTVSPropertyOp34
 70
     1
102
RTVSPropertyOp35
 70
     1
102
RTVSPropertyOp36
 70
     1
102
RTVSPropertyOp37
 70
     1
102
RTVSPropertyOp38
 70
     1
102
RTVSPropertyOp39
 70
     1
102
RTVSPropertyOp40
 70
     1
102
RTVSPropertyOp41
 70
     1
102
RTVSPropertyOp42
 70
     1
102
RTVSPropertyOp43
 70
     1
102
RTVSPropertyOp44
 70
     1
102
RTVSPropertyOp45
 70
     1
102
RTVSPropertyOp46
 70
     1
102
RTVSPropertyOp47
 70
     1
102
RTVSPropertyOp48
 70
     1
102
RTVSPropertyOp49
 70
     1
102
RTVSPropertyOp50
 70
     1
102
RTVSPropertyOp51
 70
     0
102
RTVSPropertyOp52
 70
     0
102
RTVSPropertyOp53
 70
     1
102
RTVSPropertyOp54
 70
     1
102
RTVSPropertyOp55
 70
     1
102
RTVSPropertyOp56
 70
     1
102
RTVSPropertyOp57
 70
     1
102
RTVSPost2010Prop28
280
     0
102
RTVSPost2010PropOp28
 70
     1
102
RTVSPost2010Prop29
280
     1
102
RTVSPost2010PropOp29
 70
     1
102
RTVSPost2010Prop30
280
     1
102
RTVSPost2010PropOp30
 70
     1
102
RTVSPost2010Prop31
280
     0
102
RTVSPost2010PropOp31
 70
     1
102
RTVSPost2010Prop32
280
     0
102
RTVSPost2010PropOp32
 70
     1
102
RTVSPost2010Prop33
280
     0
102
RTVSPost2010PropOp33
 70
     1
102
RTVSPost2010Prop34
280
     0
102
RTVSPost2010PropOp34
 70
     1
102
RTVSPost2010Prop35
280
     0
102
RTVSPost2010PropOp35
 70
     1
102
RTVSPost2010Prop36
280
     0
102
RTVSPost2010PropOp36
 70
     1
102
RTVSPost2010Prop37
 90
       50
102
RTVSPost2010PropOp37
 70
     1
102
RTVSPost2010Prop38
140
0.0
102
RTVSPost2010PropOp38
 70
     1
102
RTVSPost2010Prop39
140
1.0
102
RTVSPost2010PropOp39
 70
     1
102
RTVSPost2010Prop40
 90
        0
102
RTVSPost2010PropOp40
 70
     1
102
RTVSPost2010Prop41ColorIndex
 90
       18
102
RTVSPost2010Prop41ColorRGB
 90
        0
102
RTVSPost2010PropOp41
 70
     1
102
RTVSPost2010Prop42
 90
       50
102
RTVSPost2010PropOp42
 70
     1
102
RTVSPost2010Prop43
 90
        3
102
RTVSPost2010PropOp43
 70
     1
102
RTVSPost2010Prop44ColorIndex
 90
        5
102
RTVSPost2010Prop44ColorRGB
 90
      255
102
RTVSPost2010PropOp44
 70
     1
102
RTVSPost2010Prop45
280
     0
102
RTVSPost2010PropOp45
 70
     1
102
RTVSPost2010Prop46
 90
       50
102
RTVSPost2010PropOp46
 70
     1
102
RTVSPost2010Prop47
 90
       50
102
RTVSPost2010PropOp47
 70
     1
102
RTVSPost2010Prop48
 90
       50
102
RTVSPost2010PropOp48
 70
     1
102
RTVSPost2010Prop49
280
     0
102
RTVSPost2010PropOp49
 70
     1
102
RTVSPost2010Prop50
 90
       50
102
RTVSPost2010PropOp50
 70
     1
102
RTVSPost2010Prop51ColorIndex
 90
      256
102
RTVSPost2010Prop51ColorRGB
 90
-16777216
102
RTVSPost2010PropOp51
 70
     0
102
RTVSPost2010Prop52
140
1.0
102
RTVSPost2010PropOp52
 70
     0
102
RTVSPost2010Prop53
 90
        2
102
RTVSPost2010PropOp53
 70
     1
102
RTVSPost2010Prop54
  1
strokes_ogs.tif
102
RTVSPost2010PropOp54
 70
     1
102
RTVSPost2010Prop55
280
     0
102
RTVSPost2010PropOp55
 70
     1
102
RTVSPost2010Prop56
140
1.0
102
RTVSPost2010PropOp56
 70
     1
102
RTVSPost2010Prop57
140
1.0
102
RTVSPost2010PropOp57
 70
     1
  0
XRECORD
  5
6F2
102
{ACAD_REACTORS
330
6F1
102
}
330
6F1
100
AcDbXrecord
280
     1
102
RTVSPropertyOp0
 70
     1
102
RTVSPropertyOp1
 70
     1
102
RTVSPropertyOp2
 70
     1
102
RTVSPropertyOp3
 70
     1
102
RTVSPropertyOp4
 70
     1
102
RTVSPropertyOp5
 70
     1
102
RTVSPropertyOp6
 70
     1
102
RTVSPropertyOp7
 70
     1
102
RTVSPropertyOp8
 70
     1
102
RTVSPropertyOp9
 70
     1
102
RTVSPropertyOp10
 70
     1
102
RTVSPropertyOp11
 70
     1
102
RTVSPropertyOp12
 70
     1
102
RTVSPropertyOp13
 70
     1
102
RTVSPropertyOp14
 70
     1
102
RTVSPropertyOp15
 70
     1
102
RTVSPropertyOp16
 70
     1
102
RTVSPropertyOp17
 70
     1
102
RTVSPropertyOp18
 70
     1
102
RTVSPropertyOp19
 70
     1
102
RTVSPropertyOp20
 70
     1
102
RTVSPropertyOp21
 70
     1
102
RTVSPropertyOp22
 70
     1
102
RTVSPropertyOp23
 70
     1
102
RTVSPropertyOp24
 70
     1
102
RTVSPropertyOp25
 70
     1
102
RTVSPropertyOp26
 70
     1
102
RTVSPropertyOp27
 70
     1
102
RTVSPropertyOp28
 70
     1
102
RTVSPropertyOp29
 70
     1
102
RTVSPropertyOp30
 70
     1
102
RTVSPropertyOp31
 70
     1
102
RTVSPropertyOp32
 70
     1
102
RTVSPropertyOp33
 70
     1
102
RTVSPropertyOp34
 70
     1
102
RTVSPropertyOp35
 70
     1
102
RTVSPropertyOp36
 70
     1
102
RTVSPropertyOp37
 70
     1
102
RTVSPropertyOp38
 70
     1
102
RTVSPropertyOp39
 70
     1
102
RTVSPropertyOp40
 70
     1
102
RTVSPropertyOp41
 70
     1
102
RTVSPropertyOp42
 70
     1
102
RTVSPropertyOp43
 70
     1
102
RTVSPropertyOp44
 70
     1
102
RTVSPropertyOp45
 70
     1
102
RTVSPropertyOp46
 70
     1
102
RTVSPropertyOp47
 70
     1
102
RTVSPropertyOp48
 70
     1
102
RTVSPropertyOp49
 70
     1
102
RTVSPropertyOp50
 70
     1
102
RTVSPropertyOp51
 70
     0
102
RTVSPropertyOp52
 70
     0
102
RTVSPropertyOp53
 70
     1
102
RTVSPropertyOp54
 70
     1
102
RTVSPropertyOp55
 70
     1
102
RTVSPropertyOp56
 70
     1
102
RTVSPropertyOp57
 70
     1
102
RTVSPost2010Prop28
280
     0
102
RTVSPost2010PropOp28
 70
     1
102
RTVSPost2010Prop29
280
     1
102
RTVSPost2010PropOp29
 70
     1
102
RTVSPost2010Prop30
280
     1
102
RTVSPost2010PropOp30
 70
     1
102
RTVSPost2010Prop31
280
     0
102
RTVSPost2010PropOp31
 70
     1
102
RTVSPost2010Prop32
280
     0
102
RTVSPost2010PropOp32
 70
     1
102
RTVSPost2010Prop33
280
     0
102
RTVSPost2010PropOp33
 70
     1
102
RTVSPost2010Prop34
280
     0
102
RTVSPost2010PropOp34
 70
     1
102
RTVSPost2010Prop35
280
     0
102
RTVSPost2010PropOp35
 70
     1
102
RTVSPost2010Prop36
280
     0
102
RTVSPost2010PropOp36
 70
     1
102
RTVSPost2010Prop37
 90
       50
102
RTVSPost2010PropOp37
 70
     1
102
RTVSPost2010Prop38
140
0.0
102
RTVSPost2010PropOp38
 70
     1
102
RTVSPost2010Prop39
140
1.0
102
RTVSPost2010PropOp39
 70
     1
102
RTVSPost2010Prop40
 90
        0
102
RTVSPost2010PropOp40
 70
     1
102
RTVSPost2010Prop41ColorIndex
 90
       18
102
RTVSPost2010Prop41ColorRGB
 90
        0
102
RTVSPost2010PropOp41
 70
     1
102
RTVSPost2010Prop42
 90
       50
102
RTVSPost2010PropOp42
 70
     1
102
RTVSPost2010Prop43
 90
        3
102
RTVSPost2010PropOp43
 70
     1
102
RTVSPost2010Prop44ColorIndex
 90
        5
102
RTVSPost2010Prop44ColorRGB
 90
      255
102
RTVSPost2010PropOp44
 70
     1
102
RTVSPost2010Prop45
280
     0
102
RTVSPost2010PropOp45
 70
     1
102
RTVSPost2010Prop46
 90
       50
102
RTVSPost2010PropOp46
 70
     1
102
RTVSPost2010Prop47
 90
       50
102
RTVSPost2010PropOp47
 70
     1
102
RTVSPost2010Prop48
 90
       50
102
RTVSPost2010PropOp48
 70
     1
102
RTVSPost2010Prop49
280
     0
102
RTVSPost2010PropOp49
 70
     1
102
RTVSPost2010Prop50
 90
       50
102
RTVSPost2010PropOp50
 70
     1
102
RTVSPost2010Prop51ColorIndex
 90
      256
102
RTVSPost2010Prop51ColorRGB
 90
-16777216
102
RTVSPost2010PropOp51
 70
     0
102
RTVSPost2010Prop52
140
1.0
102
RTVSPost2010PropOp52
 70
     0
102
RTVSPost2010Prop53
 90
        2
102
RTVSPost2010PropOp53
 70
     1
102
RTVSPost2010Prop54
  1
strokes_ogs.tif
102
RTVSPost2010PropOp54
 70
     1
102
RTVSPost2010Prop55
280
     0
102
RTVSPost2010PropOp55
 70
     1
102
RTVSPost2010Prop56
140
1.0
102
RTVSPost2010PropOp56
 70
     1
102
RTVSPost2010Prop57
140
1.0
102
RTVSPost2010PropOp57
 70
     1
  0
XRECORD
  5
6FA
102
{ACAD_REACTORS
330
6F9
102
}
330
6F9
100
AcDbXrecord
280
     1
102
RTVSPropertyOp0
 70
     1
102
RTVSPropertyOp1
 70
     1
102
RTVSPropertyOp2
 70
     1
102
RTVSPropertyOp3
 70
     1
102
RTVSPropertyOp4
 70
     1
102
RTVSPropertyOp5
 70
     1
102
RTVSPropertyOp6
 70
     1
102
RTVSPropertyOp7
 70
     1
102
RTVSPropertyOp8
 70
     1
102
RTVSPropertyOp9
 70
     1
102
RTVSPropertyOp10
 70
     1
102
RTVSPropertyOp11
 70
     1
102
RTVSPropertyOp12
 70
     1
102
RTVSPropertyOp13
 70
     1
102
RTVSPropertyOp14
 70
     1
102
RTVSPropertyOp15
 70
     1
102
RTVSPropertyOp16
 70
     1
102
RTVSPropertyOp17
 70
     1
102
RTVSPropertyOp18
 70
     1
102
RTVSPropertyOp19
 70
     1
102
RTVSPropertyOp20
 70
     1
102
RTVSPropertyOp21
 70
     1
102
RTVSPropertyOp22
 70
     1
102
RTVSPropertyOp23
 70
     1
102
RTVSPropertyOp24
 70
     1
102
RTVSPropertyOp25
 70
     1
102
RTVSPropertyOp26
 70
     1
102
RTVSPropertyOp27
 70
     1
102
RTVSPropertyOp28
 70
     1
102
RTVSPropertyOp29
 70
     1
102
RTVSPropertyOp30
 70
     1
102
RTVSPropertyOp31
 70
     1
102
RTVSPropertyOp32
 70
     1
102
RTVSPropertyOp33
 70
     1
102
RTVSPropertyOp34
 70
     1
102
RTVSPropertyOp35
 70
     1
102
RTVSPropertyOp36
 70
     1
102
RTVSPropertyOp37
 70
     1
102
RTVSPropertyOp38
 70
     1
102
RTVSPropertyOp39
 70
     1
102
RTVSPropertyOp40
 70
     1
102
RTVSPropertyOp41
 70
     1
102
RTVSPropertyOp42
 70
     1
102
RTVSPropertyOp43
 70
     1
102
RTVSPropertyOp44
 70
     1
102
RTVSPropertyOp45
 70
     1
102
RTVSPropertyOp46
 70
     1
102
RTVSPropertyOp47
 70
     1
102
RTVSPropertyOp48
 70
     1
102
RTVSPropertyOp49
 70
     1
102
RTVSPropertyOp50
 70
     1
102
RTVSPropertyOp51
 70
     0
102
RTVSPropertyOp52
 70
     0
102
RTVSPropertyOp53
 70
     1
102
RTVSPropertyOp54
 70
     1
102
RTVSPropertyOp55
 70
     1
102
RTVSPropertyOp56
 70
     1
102
RTVSPropertyOp57
 70
     1
102
RTVSPost2010Prop28
280
     0
102
RTVSPost2010PropOp28
 70
     1
102
RTVSPost2010Prop29
280
     1
102
RTVSPost2010PropOp29
 70
     1
102
RTVSPost2010Prop30
280
     1
102
RTVSPost2010PropOp30
 70
     1
102
RTVSPost2010Prop31
280
     0
102
RTVSPost2010PropOp31
 70
     1
102
RTVSPost2010Prop32
280
     0
102
RTVSPost2010PropOp32
 70
     1
102
RTVSPost2010Prop33
280
     0
102
RTVSPost2010PropOp33
 70
     1
102
RTVSPost2010Prop34
280
     0
102
RTVSPost2010PropOp34
 70
     1
102
RTVSPost2010Prop35
280
     0
102
RTVSPost2010PropOp35
 70
     1
102
RTVSPost2010Prop36
280
     0
102
RTVSPost2010PropOp36
 70
     1
102
RTVSPost2010Prop37
 90
       50
102
RTVSPost2010PropOp37
 70
     1
102
RTVSPost2010Prop38
140
0.0
102
RTVSPost2010PropOp38
 70
     1
102
RTVSPost2010Prop39
140
1.0
102
RTVSPost2010PropOp39
 70
     1
102
RTVSPost2010Prop40
 90
        0
102
RTVSPost2010PropOp40
 70
     1
102
RTVSPost2010Prop41ColorIndex
 90
       18
102
RTVSPost2010Prop41ColorRGB
 90
        0
102
RTVSPost2010PropOp41
 70
     1
102
RTVSPost2010Prop42
 90
       50
102
RTVSPost2010PropOp42
 70
     1
102
RTVSPost2010Prop43
 90
        3
102
RTVSPost2010PropOp43
 70
     1
102
RTVSPost2010Prop44ColorIndex
 90
        5
102
RTVSPost2010Prop44ColorRGB
 90
      255
102
RTVSPost2010PropOp44
 70
     1
102
RTVSPost2010Prop45
280
     0
102
RTVSPost2010PropOp45
 70
     1
102
RTVSPost2010Prop46
 90
       50
102
RTVSPost2010PropOp46
 70
     1
102
RTVSPost2010Prop47
 90
       50
102
RTVSPost2010PropOp47
 70
     1
102
RTVSPost2010Prop48
 90
       50
102
RTVSPost2010PropOp48
 70
     1
102
RTVSPost2010Prop49
280
     0
102
RTVSPost2010PropOp49
 70
     1
102
RTVSPost2010Prop50
 90
       50
102
RTVSPost2010PropOp50
 70
     1
102
RTVSPost2010Prop51ColorIndex
 90
      256
102
RTVSPost2010Prop51ColorRGB
 90
-16777216
102
RTVSPost2010PropOp51
 70
     0
102
RTVSPost2010Prop52
140
1.0
102
RTVSPost2010PropOp52
 70
     0
102
RTVSPost2010Prop53
 90
        2
102
RTVSPost2010PropOp53
 70
     1
102
RTVSPost2010Prop54
  1
strokes_ogs.tif
102
RTVSPost2010PropOp54
 70
     1
102
RTVSPost2010Prop55
280
     0
102
RTVSPost2010PropOp55
 70
     1
102
RTVSPost2010Prop56
140
1.0
102
RTVSPost2010PropOp56
 70
     1
102
RTVSPost2010Prop57
140
1.0
102
RTVSPost2010PropOp57
 70
     1
  0
XRECORD
  5
6EE
102
{ACAD_REACTORS
330
6ED
102
}
330
6ED
100
AcDbXrecord
280
     1
102
RTVSPropertyOp0
 70
     1
102
RTVSPropertyOp1
 70
     1
102
RTVSPropertyOp2
 70
     1
102
RTVSPropertyOp3
 70
     1
102
RTVSPropertyOp4
 70
     1
102
RTVSPropertyOp5
 70
     1
102
RTVSPropertyOp6
 70
     1
102
RTVSPropertyOp7
 70
     1
102
RTVSPropertyOp8
 70
     1
102
RTVSPropertyOp9
 70
     1
102
RTVSPropertyOp10
 70
     1
102
RTVSPropertyOp11
 70
     1
102
RTVSPropertyOp12
 70
     1
102
RTVSPropertyOp13
 70
     1
102
RTVSPropertyOp14
 70
     1
102
RTVSPropertyOp15
 70
     1
102
RTVSPropertyOp16
 70
     1
102
RTVSPropertyOp17
 70
     1
102
RTVSPropertyOp18
 70
     1
102
RTVSPropertyOp19
 70
     1
102
RTVSPropertyOp20
 70
     1
102
RTVSPropertyOp21
 70
     1
102
RTVSPropertyOp22
 70
     1
102
RTVSPropertyOp23
 70
     1
102
RTVSPropertyOp24
 70
     1
102
RTVSPropertyOp25
 70
     1
102
RTVSPropertyOp26
 70
     1
102
RTVSPropertyOp27
 70
     1
102
RTVSPropertyOp28
 70
     1
102
RTVSPropertyOp29
 70
     1
102
RTVSPropertyOp30
 70
     1
102
RTVSPropertyOp31
 70
     1
102
RTVSPropertyOp32
 70
     1
102
RTVSPropertyOp33
 70
     1
102
RTVSPropertyOp34
 70
     1
102
RTVSPropertyOp35
 70
     1
102
RTVSPropertyOp36
 70
     1
102
RTVSPropertyOp37
 70
     1
102
RTVSPropertyOp38
 70
     1
102
RTVSPropertyOp39
 70
     1
102
RTVSPropertyOp40
 70
     1
102
RTVSPropertyOp41
 70
     1
102
RTVSPropertyOp42
 70
     1
102
RTVSPropertyOp43
 70
     1
102
RTVSPropertyOp44
 70
     1
102
RTVSPropertyOp45
 70
     1
102
RTVSPropertyOp46
 70
     1
102
RTVSPropertyOp47
 70
     1
102
RTVSPropertyOp48
 70
     1
102
RTVSPropertyOp49
 70
     1
102
RTVSPropertyOp50
 70
     1
102
RTVSPropertyOp51
 70
     0
102
RTVSPropertyOp52
 70
     0
102
RTVSPropertyOp53
 70
     1
102
RTVSPropertyOp54
 70
     1
102
RTVSPropertyOp55
 70
     1
102
RTVSPropertyOp56
 70
     1
102
RTVSPropertyOp57
 70
     1
102
RTVSPost2010Prop28
280
     0
102
RTVSPost2010PropOp28
 70
     1
102
RTVSPost2010Prop29
280
     1
102
RTVSPost2010PropOp29
 70
     1
102
RTVSPost2010Prop30
280
     1
102
RTVSPost2010PropOp30
 70
     1
102
RTVSPost2010Prop31
280
     0
102
RTVSPost2010PropOp31
 70
     1
102
RTVSPost2010Prop32
280
     0
102
RTVSPost2010PropOp32
 70
     1
102
RTVSPost2010Prop33
280
     0
102
RTVSPost2010PropOp33
 70
     1
102
RTVSPost2010Prop34
280
     0
102
RTVSPost2010PropOp34
 70
     1
102
RTVSPost2010Prop35
280
     0
102
RTVSPost2010PropOp35
 70
     1
102
RTVSPost2010Prop36
280
     0
102
RTVSPost2010PropOp36
 70
     1
102
RTVSPost2010Prop37
 90
       50
102
RTVSPost2010PropOp37
 70
     1
102
RTVSPost2010Prop38
140
0.0
102
RTVSPost2010PropOp38
 70
     1
102
RTVSPost2010Prop39
140
1.0
102
RTVSPost2010PropOp39
 70
     1
102
RTVSPost2010Prop40
 90
        0
102
RTVSPost2010PropOp40
 70
     1
102
RTVSPost2010Prop41ColorIndex
 90
       18
102
RTVSPost2010Prop41ColorRGB
 90
        0
102
RTVSPost2010PropOp41
 70
     1
102
RTVSPost2010Prop42
 90
       50
102
RTVSPost2010PropOp42
 70
     1
102
RTVSPost2010Prop43
 90
        3
102
RTVSPost2010PropOp43
 70
     1
102
RTVSPost2010Prop44ColorIndex
 90
        5
102
RTVSPost2010Prop44ColorRGB
 90
      255
102
RTVSPost2010PropOp44
 70
     1
102
RTVSPost2010Prop45
280
     0
102
RTVSPost2010PropOp45
 70
     1
102
RTVSPost2010Prop46
 90
       50
102
RTVSPost2010PropOp46
 70
     1
102
RTVSPost2010Prop47
 90
       50
102
RTVSPost2010PropOp47
 70
     1
102
RTVSPost2010Prop48
 90
       50
102
RTVSPost2010PropOp48
 70
     1
102
RTVSPost2010Prop49
280
     0
102
RTVSPost2010PropOp49
 70
     1
102
RTVSPost2010Prop50
 90
       50
102
RTVSPost2010PropOp50
 70
     1
102
RTVSPost2010Prop51ColorIndex
 90
      256
102
RTVSPost2010Prop51ColorRGB
 90
-16777216
102
RTVSPost2010PropOp51
 70
     0
102
RTVSPost2010Prop52
140
1.0
102
RTVSPost2010PropOp52
 70
     0
102
RTVSPost2010Prop53
 90
        2
102
RTVSPost2010PropOp53
 70
     1
102
RTVSPost2010Prop54
  1
strokes_ogs.tif
102
RTVSPost2010PropOp54
 70
     1
102
RTVSPost2010Prop55
280
     0
102
RTVSPost2010PropOp55
 70
     1
102
RTVSPost2010Prop56
140
1.0
102
RTVSPost2010PropOp56
 70
     1
102
RTVSPost2010Prop57
140
1.0
102
RTVSPost2010PropOp57
 70
     1
  0
XRECORD
  5
6F0
102
{ACAD_REACTORS
330
6EF
102
}
330
6EF
100
AcDbXrecord
280
     1
102
RTVSPropertyOp0
 70
     1
102
RTVSPropertyOp1
 70
     1
102
RTVSPropertyOp2
 70
     1
102
RTVSPropertyOp3
 70
     1
102
RTVSPropertyOp4
 70
     1
102
RTVSPropertyOp5
 70
     1
102
RTVSPropertyOp6
 70
     1
102
RTVSPropertyOp7
 70
     1
102
RTVSPropertyOp8
 70
     1
102
RTVSPropertyOp9
 70
     1
102
RTVSPropertyOp10
 70
     1
102
RTVSPropertyOp11
 70
     1
102
RTVSPropertyOp12
 70
     1
102
RTVSPropertyOp13
 70
     1
102
RTVSPropertyOp14
 70
     1
102
RTVSPropertyOp15
 70
     1
102
RTVSPropertyOp16
 70
     1
102
RTVSPropertyOp17
 70
     1
102
RTVSPropertyOp18
 70
     1
102
RTVSPropertyOp19
 70
     1
102
RTVSPropertyOp20
 70
     1
102
RTVSPropertyOp21
 70
     1
102
RTVSPropertyOp22
 70
     1
102
RTVSPropertyOp23
 70
     1
102
RTVSPropertyOp24
 70
     1
102
RTVSPropertyOp25
 70
     1
102
RTVSPropertyOp26
 70
     1
102
RTVSPropertyOp27
 70
     1
102
RTVSPropertyOp28
 70
     1
102
RTVSPropertyOp29
 70
     1
102
RTVSPropertyOp30
 70
     1
102
RTVSPropertyOp31
 70
     1
102
RTVSPropertyOp32
 70
     1
102
RTVSPropertyOp33
 70
     1
102
RTVSPropertyOp34
 70
     1
102
RTVSPropertyOp35
 70
     1
102
RTVSPropertyOp36
 70
     1
102
RTVSPropertyOp37
 70
     1
102
RTVSPropertyOp38
 70
     1
102
RTVSPropertyOp39
 70
     1
102
RTVSPropertyOp40
 70
     1
102
RTVSPropertyOp41
 70
     1
102
RTVSPropertyOp42
 70
     1
102
RTVSPropertyOp43
 70
     1
102
RTVSPropertyOp44
 70
     1
102
RTVSPropertyOp45
 70
     1
102
RTVSPropertyOp46
 70
     1
102
RTVSPropertyOp47
 70
     1
102
RTVSPropertyOp48
 70
     1
102
RTVSPropertyOp49
 70
     1
102
RTVSPropertyOp50
 70
     1
102
RTVSPropertyOp51
 70
     0
102
RTVSPropertyOp52
 70
     0
102
RTVSPropertyOp53
 70
     1
102
RTVSPropertyOp54
 70
     1
102
RTVSPropertyOp55
 70
     1
102
RTVSPropertyOp56
 70
     1
102
RTVSPropertyOp57
 70
     1
102
RTVSPost2010Prop28
280
     0
102
RTVSPost2010PropOp28
 70
     1
102
RTVSPost2010Prop29
280
     1
102
RTVSPost2010PropOp29
 70
     1
102
RTVSPost2010Prop30
280
     1
102
RTVSPost2010PropOp30
 70
     1
102
RTVSPost2010Prop31
280
     0
102
RTVSPost2010PropOp31
 70
     1
102
RTVSPost2010Prop32
280
     0
102
RTVSPost2010PropOp32
 70
     1
102
RTVSPost2010Prop33
280
     0
102
RTVSPost2010PropOp33
 70
     1
102
RTVSPost2010Prop34
280
     0
102
RTVSPost2010PropOp34
 70
     1
102
RTVSPost2010Prop35
280
     0
102
RTVSPost2010PropOp35
 70
     1
102
RTVSPost2010Prop36
280
     0
102
RTVSPost2010PropOp36
 70
     1
102
RTVSPost2010Prop37
 90
       50
102
RTVSPost2010PropOp37
 70
     1
102
RTVSPost2010Prop38
140
0.0
102
RTVSPost2010PropOp38
 70
     1
102
RTVSPost2010Prop39
140
1.0
102
RTVSPost2010PropOp39
 70
     1
102
RTVSPost2010Prop40
 90
        0
102
RTVSPost2010PropOp40
 70
     1
102
RTVSPost2010Prop41ColorIndex
 90
       18
102
RTVSPost2010Prop41ColorRGB
 90
        0
102
RTVSPost2010PropOp41
 70
     1
102
RTVSPost2010Prop42
 90
       50
102
RTVSPost2010PropOp42
 70
     1
102
RTVSPost2010Prop43
 90
        3
102
RTVSPost2010PropOp43
 70
     1
102
RTVSPost2010Prop44ColorIndex
 90
        5
102
RTVSPost2010Prop44ColorRGB
 90
      255
102
RTVSPost2010PropOp44
 70
     1
102
RTVSPost2010Prop45
280
     0
102
RTVSPost2010PropOp45
 70
     1
102
RTVSPost2010Prop46
 90
       50
102
RTVSPost2010PropOp46
 70
     1
102
RTVSPost2010Prop47
 90
       50
102
RTVSPost2010PropOp47
 70
     1
102
RTVSPost2010Prop48
 90
       50
102
RTVSPost2010PropOp48
 70
     1
102
RTVSPost2010Prop49
280
     0
102
RTVSPost2010PropOp49
 70
     1
102
RTVSPost2010Prop50
 90
       50
102
RTVSPost2010PropOp50
 70
     1
102
RTVSPost2010Prop51ColorIndex
 90
      256
102
RTVSPost2010Prop51ColorRGB
 90
-16777216
102
RTVSPost2010PropOp51
 70
     0
102
RTVSPost2010Prop52
140
1.0
102
RTVSPost2010PropOp52
 70
     0
102
RTVSPost2010Prop53
 90
        2
102
RTVSPost2010PropOp53
 70
     1
102
RTVSPost2010Prop54
  1
strokes_ogs.tif
102
RTVSPost2010PropOp54
 70
     1
102
RTVSPost2010Prop55
280
     0
102
RTVSPost2010PropOp55
 70
     1
102
RTVSPost2010Prop56
140
1.0
102
RTVSPost2010PropOp56
 70
     1
102
RTVSPost2010Prop57
140
1.0
102
RTVSPost2010PropOp57
 70
     1
  0
XRECORD
  5
700
102
{ACAD_REACTORS
330
6FF
102
}
330
6FF
100
AcDbXrecord
280
     1
102
RTVSPropertyOp0
 70
     0
102
RTVSPropertyOp1
 70
     0
102
RTVSPropertyOp2
 70
     0
102
RTVSPropertyOp3
 70
     0
102
RTVSPropertyOp4
 70
     0
102
RTVSPropertyOp5
 70
     0
102
RTVSPropertyOp6
 70
     0
102
RTVSPropertyOp7
 70
     0
102
RTVSPropertyOp8
 70
     0
102
RTVSPropertyOp9
 70
     0
102
RTVSPropertyOp10
 70
     0
102
RTVSPropertyOp11
 70
     0
102
RTVSPropertyOp12
 70
     0
102
RTVSPropertyOp13
 70
     0
102
RTVSPropertyOp14
 70
     0
102
RTVSPropertyOp15
 70
     0
102
RTVSPropertyOp16
 70
     0
102
RTVSPropertyOp17
 70
     0
102
RTVSPropertyOp18
 70
     0
102
RTVSPropertyOp19
 70
     0
102
RTVSPropertyOp20
 70
     0
102
RTVSPropertyOp21
 70
     0
102
RTVSPropertyOp22
 70
     0
102
RTVSPropertyOp23
 70
     0
102
RTVSPropertyOp24
 70
     0
102
RTVSPropertyOp25
 70
     0
102
RTVSPropertyOp26
 70
     0
102
RTVSPropertyOp27
 70
     0
102
RTVSPropertyOp28
 70
     1
102
RTVSPropertyOp29
 70
     1
102
RTVSPropertyOp30
 70
     1
102
RTVSPropertyOp31
 70
     1
102
RTVSPropertyOp32
 70
     1
102
RTVSPropertyOp33
 70
     1
102
RTVSPropertyOp34
 70
     1
102
RTVSPropertyOp35
 70
     1
102
RTVSPropertyOp36
 70
     1
102
RTVSPropertyOp37
 70
     1
102
RTVSPropertyOp38
 70
     1
102
RTVSPropertyOp39
 70
     1
102
RTVSPropertyOp40
 70
     1
102
RTVSPropertyOp41
 70
     1
102
RTVSPropertyOp42
 70
     1
102
RTVSPropertyOp43
 70
     1
102
RTVSPropertyOp44
 70
     1
102
RTVSPropertyOp45
 70
     1
102
RTVSPropertyOp46
 70
     1
102
RTVSPropertyOp47
 70
     1
102
RTVSPropertyOp48
 70
     1
102
RTVSPropertyOp49
 70
     1
102
RTVSPropertyOp50
 70
     1
102
RTVSPropertyOp51
 70
     0
102
RTVSPropertyOp52
 70
     0
102
RTVSPropertyOp53
 70
     1
102
RTVSPropertyOp54
 70
     1
102
RTVSPropertyOp55
 70
     1
102
RTVSPropertyOp56
 70
     1
102
RTVSPropertyOp57
 70
     1
102
RTVSPost2010Prop28
280
     0
102
RTVSPost2010PropOp28
 70
     1
102
RTVSPost2010Prop29
280
     1
102
RTVSPost2010PropOp29
 70
     1
102
RTVSPost2010Prop30
280
     1
102
RTVSPost2010PropOp30
 70
     1
102
RTVSPost2010Prop31
280
     0
102
RTVSPost2010PropOp31
 70
     1
102
RTVSPost2010Prop32
280
     0
102
RTVSPost2010PropOp32
 70
     1
102
RTVSPost2010Prop33
280
     0
102
RTVSPost2010PropOp33
 70
     1
102
RTVSPost2010Prop34
280
     0
102
RTVSPost2010PropOp34
 70
     1
102
RTVSPost2010Prop35
280
     0
102
RTVSPost2010PropOp35
 70
     1
102
RTVSPost2010Prop36
280
     0
102
RTVSPost2010PropOp36
 70
     1
102
RTVSPost2010Prop37
 90
       50
102
RTVSPost2010PropOp37
 70
     1
102
RTVSPost2010Prop38
140
0.0
102
RTVSPost2010PropOp38
 70
     1
102
RTVSPost2010Prop39
140
1.0
102
RTVSPost2010PropOp39
 70
     1
102
RTVSPost2010Prop40
 90
        0
102
RTVSPost2010PropOp40
 70
     1
102
RTVSPost2010Prop41ColorIndex
 90
       18
102
RTVSPost2010Prop41ColorRGB
 90
        0
102
RTVSPost2010PropOp41
 70
     1
102
RTVSPost2010Prop42
 90
       50
102
RTVSPost2010PropOp42
 70
     1
102
RTVSPost2010Prop43
 90
        3
102
RTVSPost2010PropOp43
 70
     1
102
RTVSPost2010Prop44ColorIndex
 90
        5
102
RTVSPost2010Prop44ColorRGB
 90
      255
102
RTVSPost2010PropOp44
 70
     1
102
RTVSPost2010Prop45
280
     0
102
RTVSPost2010PropOp45
 70
     1
102
RTVSPost2010Prop46
 90
       50
102
RTVSPost2010PropOp46
 70
     1
102
RTVSPost2010Prop47
 90
       50
102
RTVSPost2010PropOp47
 70
     1
102
RTVSPost2010Prop48
 90
       50
102
RTVSPost2010PropOp48
 70
     1
102
RTVSPost2010Prop49
280
     0
102
RTVSPost2010PropOp49
 70
     1
102
RTVSPost2010Prop50
 90
       50
102
RTVSPost2010PropOp50
 70
     1
102
RTVSPost2010Prop51ColorIndex
 90
      256
102
RTVSPost2010Prop51ColorRGB
 90
-16777216
102
RTVSPost2010PropOp51
 70
     0
102
RTVSPost2010Prop52
140
1.0
102
RTVSPost2010PropOp52
 70
     0
102
RTVSPost2010Prop53
 90
        2
102
RTVSPost2010PropOp53
 70
     1
102
RTVSPost2010Prop54
  1
strokes_ogs.tif
102
RTVSPost2010PropOp54
 70
     1
102
RTVSPost2010Prop55
280
     0
102
RTVSPost2010PropOp55
 70
     1
102
RTVSPost2010Prop56
140
1.0
102
RTVSPost2010PropOp56
 70
     1
102
RTVSPost2010Prop57
140
1.0
102
RTVSPost2010PropOp57
 70
     1
  0
XRECORD
  5
6F8
102
{ACAD_REACTORS
330
6F7
102
}
330
6F7
100
AcDbXrecord
280
     1
102
RTVSPropertyOp0
 70
     1
102
RTVSPropertyOp1
 70
     1
102
RTVSPropertyOp2
 70
     1
102
RTVSPropertyOp3
 70
     1
102
RTVSPropertyOp4
 70
     1
102
RTVSPropertyOp5
 70
     1
102
RTVSPropertyOp6
 70
     1
102
RTVSPropertyOp7
 70
     1
102
RTVSPropertyOp8
 70
     1
102
RTVSPropertyOp9
 70
     1
102
RTVSPropertyOp10
 70
     1
102
RTVSPropertyOp11
 70
     1
102
RTVSPropertyOp12
 70
     1
102
RTVSPropertyOp13
 70
     1
102
RTVSPropertyOp14
 70
     1
102
RTVSPropertyOp15
 70
     1
102
RTVSPropertyOp16
 70
     1
102
RTVSPropertyOp17
 70
     1
102
RTVSPropertyOp18
 70
     1
102
RTVSPropertyOp19
 70
     1
102
RTVSPropertyOp20
 70
     1
102
RTVSPropertyOp21
 70
     1
102
RTVSPropertyOp22
 70
     1
102
RTVSPropertyOp23
 70
     1
102
RTVSPropertyOp24
 70
     1
102
RTVSPropertyOp25
 70
     1
102
RTVSPropertyOp26
 70
     1
102
RTVSPropertyOp27
 70
     1
102
RTVSPropertyOp28
 70
     1
102
RTVSPropertyOp29
 70
     1
102
RTVSPropertyOp30
 70
     1
102
RTVSPropertyOp31
 70
     1
102
RTVSPropertyOp32
 70
     1
102
RTVSPropertyOp33
 70
     1
102
RTVSPropertyOp34
 70
     1
102
RTVSPropertyOp35
 70
     1
102
RTVSPropertyOp36
 70
     1
102
RTVSPropertyOp37
 70
     1
102
RTVSPropertyOp38
 70
     1
102
RTVSPropertyOp39
 70
     1
102
RTVSPropertyOp40
 70
     1
102
RTVSPropertyOp41
 70
     1
102
RTVSPropertyOp42
 70
     1
102
RTVSPropertyOp43
 70
     1
102
RTVSPropertyOp44
 70
     1
102
RTVSPropertyOp45
 70
     1
102
RTVSPropertyOp46
 70
     1
102
RTVSPropertyOp47
 70
     1
102
RTVSPropertyOp48
 70
     1
102
RTVSPropertyOp49
 70
     1
102
RTVSPropertyOp50
 70
     1
102
RTVSPropertyOp51
 70
     0
102
RTVSPropertyOp52
 70
     0
102
RTVSPropertyOp53
 70
     1
102
RTVSPropertyOp54
 70
     1
102
RTVSPropertyOp55
 70
     1
102
RTVSPropertyOp56
 70
     1
102
RTVSPropertyOp57
 70
     1
102
RTVSPost2010Prop28
280
     0
102
RTVSPost2010PropOp28
 70
     1
102
RTVSPost2010Prop29
280
     1
102
RTVSPost2010PropOp29
 70
     1
102
RTVSPost2010Prop30
280
     1
102
RTVSPost2010PropOp30
 70
     1
102
RTVSPost2010Prop31
280
     0
102
RTVSPost2010PropOp31
 70
     1
102
RTVSPost2010Prop32
280
     0
102
RTVSPost2010PropOp32
 70
     1
102
RTVSPost2010Prop33
280
     0
102
RTVSPost2010PropOp33
 70
     1
102
RTVSPost2010Prop34
280
     0
102
RTVSPost2010PropOp34
 70
     1
102
RTVSPost2010Prop35
280
     0
102
RTVSPost2010PropOp35
 70
     1
102
RTVSPost2010Prop36
280
     0
102
RTVSPost2010PropOp36
 70
     1
102
RTVSPost2010Prop37
 90
       50
102
RTVSPost2010PropOp37
 70
     1
102
RTVSPost2010Prop38
140
0.0
102
RTVSPost2010PropOp38
 70
     1
102
RTVSPost2010Prop39
140
1.0
102
RTVSPost2010PropOp39
 70
     1
102
RTVSPost2010Prop40
 90
        0
102
RTVSPost2010PropOp40
 70
     1
102
RTVSPost2010Prop41ColorIndex
 90
       18
102
RTVSPost2010Prop41ColorRGB
 90
        0
102
RTVSPost2010PropOp41
 70
     1
102
RTVSPost2010Prop42
 90
       50
102
RTVSPost2010PropOp42
 70
     1
102
RTVSPost2010Prop43
 90
        3
102
RTVSPost2010PropOp43
 70
     1
102
RTVSPost2010Prop44ColorIndex
 90
        5
102
RTVSPost2010Prop44ColorRGB
 90
      255
102
RTVSPost2010PropOp44
 70
     1
102
RTVSPost2010Prop45
280
     0
102
RTVSPost2010PropOp45
 70
     1
102
RTVSPost2010Prop46
 90
       50
102
RTVSPost2010PropOp46
 70
     1
102
RTVSPost2010Prop47
 90
       50
102
RTVSPost2010PropOp47
 70
     1
102
RTVSPost2010Prop48
 90
       50
102
RTVSPost2010PropOp48
 70
     1
102
RTVSPost2010Prop49
280
     0
102
RTVSPost2010PropOp49
 70
     1
102
RTVSPost2010Prop50
 90
       50
102
RTVSPost2010PropOp50
 70
     1
102
RTVSPost2010Prop51ColorIndex
 90
      256
102
RTVSPost2010Prop51ColorRGB
 90
-16777216
102
RTVSPost2010PropOp51
 70
     0
102
RTVSPost2010Prop52
140
1.0
102
RTVSPost2010PropOp52
 70
     0
102
RTVSPost2010Prop53
 90
        2
102
RTVSPost2010PropOp53
 70
     1
102
RTVSPost2010Prop54
  1
strokes_ogs.tif
102
RTVSPost2010PropOp54
 70
     1
102
RTVSPost2010Prop55
280
     0
102
RTVSPost2010PropOp55
 70
     1
102
RTVSPost2010Prop56
140
1.0
102
RTVSPost2010PropOp56
 70
     1
102
RTVSPost2010Prop57
140
1.0
102
RTVSPost2010PropOp57
 70
     1
  0
XRECORD
  5
6E2
102
{ACAD_REACTORS
330
6E1
102
}
330
6E1
100
AcDbXrecord
280
     1
102
RTVSPropertyOp0
 70
     1
102
RTVSPropertyOp1
 70
     1
102
RTVSPropertyOp2
 70
     1
102
RTVSPropertyOp3
 70
     1
102
RTVSPropertyOp4
 70
     1
102
RTVSPropertyOp5
 70
     1
102
RTVSPropertyOp6
 70
     1
102
RTVSPropertyOp7
 70
     1
102
RTVSPropertyOp8
 70
     1
102
RTVSPropertyOp9
 70
     1
102
RTVSPropertyOp10
 70
     1
102
RTVSPropertyOp11
 70
     1
102
RTVSPropertyOp12
 70
     1
102
RTVSPropertyOp13
 70
     1
102
RTVSPropertyOp14
 70
     1
102
RTVSPropertyOp15
 70
     1
102
RTVSPropertyOp16
 70
     1
102
RTVSPropertyOp17
 70
     1
102
RTVSPropertyOp18
 70
     1
102
RTVSPropertyOp19
 70
     1
102
RTVSPropertyOp20
 70
     1
102
RTVSPropertyOp21
 70
     1
102
RTVSPropertyOp22
 70
     1
102
RTVSPropertyOp23
 70
     1
102
RTVSPropertyOp24
 70
     1
102
RTVSPropertyOp25
 70
     1
102
RTVSPropertyOp26
 70
     1
102
RTVSPropertyOp27
 70
     1
102
RTVSPropertyOp28
 70
     1
102
RTVSPropertyOp29
 70
     1
102
RTVSPropertyOp30
 70
     1
102
RTVSPropertyOp31
 70
     1
102
RTVSPropertyOp32
 70
     1
102
RTVSPropertyOp33
 70
     1
102
RTVSPropertyOp34
 70
     1
102
RTVSPropertyOp35
 70
     1
102
RTVSPropertyOp36
 70
     1
102
RTVSPropertyOp37
 70
     1
102
RTVSPropertyOp38
 70
     1
102
RTVSPropertyOp39
 70
     1
102
RTVSPropertyOp40
 70
     1
102
RTVSPropertyOp41
 70
     1
102
RTVSPropertyOp42
 70
     1
102
RTVSPropertyOp43
 70
     1
102
RTVSPropertyOp44
 70
     1
102
RTVSPropertyOp45
 70
     1
102
RTVSPropertyOp46
 70
     1
102
RTVSPropertyOp47
 70
     1
102
RTVSPropertyOp48
 70
     1
102
RTVSPropertyOp49
 70
     1
102
RTVSPropertyOp50
 70
     1
102
RTVSPropertyOp51
 70
     0
102
RTVSPropertyOp52
 70
     0
102
RTVSPropertyOp53
 70
     1
102
RTVSPropertyOp54
 70
     1
102
RTVSPropertyOp55
 70
     1
102
RTVSPropertyOp56
 70
     1
102
RTVSPropertyOp57
 70
     1
102
RTVSPost2010Prop28
280
     0
102
RTVSPost2010PropOp28
 70
     1
102
RTVSPost2010Prop29
280
     1
102
RTVSPost2010PropOp29
 70
     1
102
RTVSPost2010Prop30
280
     1
102
RTVSPost2010PropOp30
 70
     1
102
RTVSPost2010Prop31
280
     0
102
RTVSPost2010PropOp31
 70
     1
102
RTVSPost2010Prop32
280
     0
102
RTVSPost2010PropOp32
 70
     1
102
RTVSPost2010Prop33
280
     0
102
RTVSPost2010PropOp33
 70
     1
102
RTVSPost2010Prop34
280
     0
102
RTVSPost2010PropOp34
 70
     1
102
RTVSPost2010Prop35
280
     0
102
RTVSPost2010PropOp35
 70
     1
102
RTVSPost2010Prop36
280
     0
102
RTVSPost2010PropOp36
 70
     1
102
RTVSPost2010Prop37
 90
       50
102
RTVSPost2010PropOp37
 70
     1
102
RTVSPost2010Prop38
140
0.0
102
RTVSPost2010PropOp38
 70
     1
102
RTVSPost2010Prop39
140
1.0
102
RTVSPost2010PropOp39
 70
     1
102
RTVSPost2010Prop40
 90
        0
102
RTVSPost2010PropOp40
 70
     1
102
RTVSPost2010Prop41ColorIndex
 90
       18
102
RTVSPost2010Prop41ColorRGB
 90
        0
102
RTVSPost2010PropOp41
 70
     1
102
RTVSPost2010Prop42
 90
       50
102
RTVSPost2010PropOp42
 70
     1
102
RTVSPost2010Prop43
 90
        3
102
RTVSPost2010PropOp43
 70
     1
102
RTVSPost2010Prop44ColorIndex
 90
        5
102
RTVSPost2010Prop44ColorRGB
 90
      255
102
RTVSPost2010PropOp44
 70
     1
102
RTVSPost2010Prop45
280
     0
102
RTVSPost2010PropOp45
 70
     1
102
RTVSPost2010Prop46
 90
       50
102
RTVSPost2010PropOp46
 70
     1
102
RTVSPost2010Prop47
 90
       50
102
RTVSPost2010PropOp47
 70
     1
102
RTVSPost2010Prop48
 90
       50
102
RTVSPost2010PropOp48
 70
     1
102
RTVSPost2010Prop49
280
     0
102
RTVSPost2010PropOp49
 70
     1
102
RTVSPost2010Prop50
 90
       50
102
RTVSPost2010PropOp50
 70
     1
102
RTVSPost2010Prop51ColorIndex
 90
      256
102
RTVSPost2010Prop51ColorRGB
 90
-16777216
102
RTVSPost2010PropOp51
 70
     0
102
RTVSPost2010Prop52
140
1.0
102
RTVSPost2010PropOp52
 70
     0
102
RTVSPost2010Prop53
 90
        2
102
RTVSPost2010PropOp53
 70
     1
102
RTVSPost2010Prop54
  1
strokes_ogs.tif
102
RTVSPost2010PropOp54
 70
     1
102
RTVSPost2010Prop55
280
     0
102
RTVSPost2010PropOp55
 70
     1
102
RTVSPost2010Prop56
140
1.0
102
RTVSPost2010PropOp56
 70
     1
102
RTVSPost2010Prop57
140
1.0
102
RTVSPost2010PropOp57
 70
     1
  0
XRECORD
  5
6E4
102
{ACAD_REACTORS
330
6E3
102
}
330
6E3
100
AcDbXrecord
280
     1
102
RTVSPropertyOp0
 70
     1
102
RTVSPropertyOp1
 70
     1
102
RTVSPropertyOp2
 70
     1
102
RTVSPropertyOp3
 70
     1
102
RTVSPropertyOp4
 70
     1
102
RTVSPropertyOp5
 70
     1
102
RTVSPropertyOp6
 70
     1
102
RTVSPropertyOp7
 70
     1
102
RTVSPropertyOp8
 70
     1
102
RTVSPropertyOp9
 70
     1
102
RTVSPropertyOp10
 70
     1
102
RTVSPropertyOp11
 70
     1
102
RTVSPropertyOp12
 70
     1
102
RTVSPropertyOp13
 70
     1
102
RTVSPropertyOp14
 70
     1
102
RTVSPropertyOp15
 70
     1
102
RTVSPropertyOp16
 70
     1
102
RTVSPropertyOp17
 70
     1
102
RTVSPropertyOp18
 70
     1
102
RTVSPropertyOp19
 70
     1
102
RTVSPropertyOp20
 70
     1
102
RTVSPropertyOp21
 70
     1
102
RTVSPropertyOp22
 70
     1
102
RTVSPropertyOp23
 70
     1
102
RTVSPropertyOp24
 70
     1
102
RTVSPropertyOp25
 70
     1
102
RTVSPropertyOp26
 70
     1
102
RTVSPropertyOp27
 70
     1
102
RTVSPropertyOp28
 70
     1
102
RTVSPropertyOp29
 70
     1
102
RTVSPropertyOp30
 70
     1
102
RTVSPropertyOp31
 70
     1
102
RTVSPropertyOp32
 70
     1
102
RTVSPropertyOp33
 70
     1
102
RTVSPropertyOp34
 70
     1
102
RTVSPropertyOp35
 70
     1
102
RTVSPropertyOp36
 70
     1
102
RTVSPropertyOp37
 70
     1
102
RTVSPropertyOp38
 70
     1
102
RTVSPropertyOp39
 70
     1
102
RTVSPropertyOp40
 70
     1
102
RTVSPropertyOp41
 70
     1
102
RTVSPropertyOp42
 70
     1
102
RTVSPropertyOp43
 70
     1
102
RTVSPropertyOp44
 70
     1
102
RTVSPropertyOp45
 70
     1
102
RTVSPropertyOp46
 70
     1
102
RTVSPropertyOp47
 70
     1
102
RTVSPropertyOp48
 70
     1
102
RTVSPropertyOp49
 70
     1
102
RTVSPropertyOp50
 70
     1
102
RTVSPropertyOp51
 70
     0
102
RTVSPropertyOp52
 70
     0
102
RTVSPropertyOp53
 70
     1
102
RTVSPropertyOp54
 70
     1
102
RTVSPropertyOp55
 70
     1
102
RTVSPropertyOp56
 70
     1
102
RTVSPropertyOp57
 70
     1
102
RTVSPost2010Prop28
280
     0
102
RTVSPost2010PropOp28
 70
     1
102
RTVSPost2010Prop29
280
     1
102
RTVSPost2010PropOp29
 70
     1
102
RTVSPost2010Prop30
280
     1
102
RTVSPost2010PropOp30
 70
     1
102
RTVSPost2010Prop31
280
     0
102
RTVSPost2010PropOp31
 70
     1
102
RTVSPost2010Prop32
280
     0
102
RTVSPost2010PropOp32
 70
     1
102
RTVSPost2010Prop33
280
     0
102
RTVSPost2010PropOp33
 70
     1
102
RTVSPost2010Prop34
280
     0
102
RTVSPost2010PropOp34
 70
     1
102
RTVSPost2010Prop35
280
     0
102
RTVSPost2010PropOp35
 70
     1
102
RTVSPost2010Prop36
280
     0
102
RTVSPost2010PropOp36
 70
     1
102
RTVSPost2010Prop37
 90
       50
102
RTVSPost2010PropOp37
 70
     1
102
RTVSPost2010Prop38
140
0.0
102
RTVSPost2010PropOp38
 70
     1
102
RTVSPost2010Prop39
140
1.0
102
RTVSPost2010PropOp39
 70
     1
102
RTVSPost2010Prop40
 90
        0
102
RTVSPost2010PropOp40
 70
     1
102
RTVSPost2010Prop41ColorIndex
 90
       18
102
RTVSPost2010Prop41ColorRGB
 90
        0
102
RTVSPost2010PropOp41
 70
     1
102
RTVSPost2010Prop42
 90
       50
102
RTVSPost2010PropOp42
 70
     1
102
RTVSPost2010Prop43
 90
        3
102
RTVSPost2010PropOp43
 70
     1
102
RTVSPost2010Prop44ColorIndex
 90
        5
102
RTVSPost2010Prop44ColorRGB
 90
      255
102
RTVSPost2010PropOp44
 70
     1
102
RTVSPost2010Prop45
280
     0
102
RTVSPost2010PropOp45
 70
     1
102
RTVSPost2010Prop46
 90
       50
102
RTVSPost2010PropOp46
 70
     1
102
RTVSPost2010Prop47
 90
       50
102
RTVSPost2010PropOp47
 70
     1
102
RTVSPost2010Prop48
 90
       50
102
RTVSPost2010PropOp48
 70
     1
102
RTVSPost2010Prop49
280
     0
102
RTVSPost2010PropOp49
 70
     1
102
RTVSPost2010Prop50
 90
       50
102
RTVSPost2010PropOp50
 70
     1
102
RTVSPost2010Prop51ColorIndex
 90
      256
102
RTVSPost2010Prop51ColorRGB
 90
-16777216
102
RTVSPost2010PropOp51
 70
     0
102
RTVSPost2010Prop52
140
1.0
102
RTVSPost2010PropOp52
 70
     0
102
RTVSPost2010Prop53
 90
        2
102
RTVSPost2010PropOp53
 70
     1
102
RTVSPost2010Prop54
  1
strokes_ogs.tif
102
RTVSPost2010PropOp54
 70
     1
102
RTVSPost2010Prop55
280
     0
102
RTVSPost2010PropOp55
 70
     1
102
RTVSPost2010Prop56
140
1.0
102
RTVSPost2010PropOp56
 70
     1
102
RTVSPost2010Prop57
140
1.0
102
RTVSPost2010PropOp57
 70
     1
  0
XRECORD
  5
6E6
102
{ACAD_REACTORS
330
6E5
102
}
330
6E5
100
AcDbXrecord
280
     1
102
RTVSPropertyOp0
 70
     1
102
RTVSPropertyOp1
 70
     1
102
RTVSPropertyOp2
 70
     1
102
RTVSPropertyOp3
 70
     1
102
RTVSPropertyOp4
 70
     1
102
RTVSPropertyOp5
 70
     1
102
RTVSPropertyOp6
 70
     1
102
RTVSPropertyOp7
 70
     1
102
RTVSPropertyOp8
 70
     1
102
RTVSPropertyOp9
 70
     1
102
RTVSPropertyOp10
 70
     1
102
RTVSPropertyOp11
 70
     1
102
RTVSPropertyOp12
 70
     1
102
RTVSPropertyOp13
 70
     1
102
RTVSPropertyOp14
 70
     1
102
RTVSPropertyOp15
 70
     1
102
RTVSPropertyOp16
 70
     1
102
RTVSPropertyOp17
 70
     1
102
RTVSPropertyOp18
 70
     1
102
RTVSPropertyOp19
 70
     1
102
RTVSPropertyOp20
 70
     1
102
RTVSPropertyOp21
 70
     1
102
RTVSPropertyOp22
 70
     1
102
RTVSPropertyOp23
 70
     1
102
RTVSPropertyOp24
 70
     1
102
RTVSPropertyOp25
 70
     1
102
RTVSPropertyOp26
 70
     1
102
RTVSPropertyOp27
 70
     1
102
RTVSPropertyOp28
 70
     1
102
RTVSPropertyOp29
 70
     1
102
RTVSPropertyOp30
 70
     1
102
RTVSPropertyOp31
 70
     1
102
RTVSPropertyOp32
 70
     1
102
RTVSPropertyOp33
 70
     1
102
RTVSPropertyOp34
 70
     1
102
RTVSPropertyOp35
 70
     1
102
RTVSPropertyOp36
 70
     1
102
RTVSPropertyOp37
 70
     1
102
RTVSPropertyOp38
 70
     1
102
RTVSPropertyOp39
 70
     1
102
RTVSPropertyOp40
 70
     1
102
RTVSPropertyOp41
 70
     1
102
RTVSPropertyOp42
 70
     1
102
RTVSPropertyOp43
 70
     1
102
RTVSPropertyOp44
 70
     1
102
RTVSPropertyOp45
 70
     1
102
RTVSPropertyOp46
 70
     1
102
RTVSPropertyOp47
 70
     1
102
RTVSPropertyOp48
 70
     1
102
RTVSPropertyOp49
 70
     1
102
RTVSPropertyOp50
 70
     1
102
RTVSPropertyOp51
 70
     0
102
RTVSPropertyOp52
 70
     0
102
RTVSPropertyOp53
 70
     1
102
RTVSPropertyOp54
 70
     1
102
RTVSPropertyOp55
 70
     1
102
RTVSPropertyOp56
 70
     1
102
RTVSPropertyOp57
 70
     1
102
RTVSPost2010Prop28
280
     0
102
RTVSPost2010PropOp28
 70
     1
102
RTVSPost2010Prop29
280
     1
102
RTVSPost2010PropOp29
 70
     1
102
RTVSPost2010Prop30
280
     1
102
RTVSPost2010PropOp30
 70
     1
102
RTVSPost2010Prop31
280
     0
102
RTVSPost2010PropOp31
 70
     1
102
RTVSPost2010Prop32
280
     0
102
RTVSPost2010PropOp32
 70
     1
102
RTVSPost2010Prop33
280
     0
102
RTVSPost2010PropOp33
 70
     1
102
RTVSPost2010Prop34
280
     0
102
RTVSPost2010PropOp34
 70
     1
102
RTVSPost2010Prop35
280
     0
102
RTVSPost2010PropOp35
 70
     1
102
RTVSPost2010Prop36
280
     0
102
RTVSPost2010PropOp36
 70
     1
102
RTVSPost2010Prop37
 90
       50
102
RTVSPost2010PropOp37
 70
     1
102
RTVSPost2010Prop38
140
0.0
102
RTVSPost2010PropOp38
 70
     1
102
RTVSPost2010Prop39
140
1.0
102
RTVSPost2010PropOp39
 70
     1
102
RTVSPost2010Prop40
 90
        0
102
RTVSPost2010PropOp40
 70
     1
102
RTVSPost2010Prop41ColorIndex
 90
       18
102
RTVSPost2010Prop41ColorRGB
 90
        0
102
RTVSPost2010PropOp41
 70
     1
102
RTVSPost2010Prop42
 90
       50
102
RTVSPost2010PropOp42
 70
     1
102
RTVSPost2010Prop43
 90
        3
102
RTVSPost2010PropOp43
 70
     1
102
RTVSPost2010Prop44ColorIndex
 90
        5
102
RTVSPost2010Prop44ColorRGB
 90
      255
102
RTVSPost2010PropOp44
 70
     1
102
RTVSPost2010Prop45
280
     0
102
RTVSPost2010PropOp45
 70
     1
102
RTVSPost2010Prop46
 90
       50
102
RTVSPost2010PropOp46
 70
     1
102
RTVSPost2010Prop47
 90
       50
102
RTVSPost2010PropOp47
 70
     1
102
RTVSPost2010Prop48
 90
       50
102
RTVSPost2010PropOp48
 70
     1
102
RTVSPost2010Prop49
280
     0
102
RTVSPost2010PropOp49
 70
     1
102
RTVSPost2010Prop50
 90
       50
102
RTVSPost2010PropOp50
 70
     1
102
RTVSPost2010Prop51ColorIndex
 90
      256
102
RTVSPost2010Prop51ColorRGB
 90
-16777216
102
RTVSPost2010PropOp51
 70
     0
102
RTVSPost2010Prop52
140
1.0
102
RTVSPost2010PropOp52
 70
     0
102
RTVSPost2010Prop53
 90
        2
102
RTVSPost2010PropOp53
 70
     1
102
RTVSPost2010Prop54
  1
strokes_ogs.tif
102
RTVSPost2010PropOp54
 70
     1
102
RTVSPost2010Prop55
280
     0
102
RTVSPost2010PropOp55
 70
     1
102
RTVSPost2010Prop56
140
1.0
102
RTVSPost2010PropOp56
 70
     1
102
RTVSPost2010Prop57
140
1.0
102
RTVSPost2010PropOp57
 70
     1
  0
XRECORD
  5
6E8
102
{ACAD_REACTORS
330
6E7
102
}
330
6E7
100
AcDbXrecord
280
     1
102
RTVSPropertyOp0
 70
     1
102
RTVSPropertyOp1
 70
     1
102
RTVSPropertyOp2
 70
     1
102
RTVSPropertyOp3
 70
     1
102
RTVSPropertyOp4
 70
     1
102
RTVSPropertyOp5
 70
     1
102
RTVSPropertyOp6
 70
     1
102
RTVSPropertyOp7
 70
     1
102
RTVSPropertyOp8
 70
     1
102
RTVSPropertyOp9
 70
     1
102
RTVSPropertyOp10
 70
     1
102
RTVSPropertyOp11
 70
     1
102
RTVSPropertyOp12
 70
     1
102
RTVSPropertyOp13
 70
     1
102
RTVSPropertyOp14
 70
     1
102
RTVSPropertyOp15
 70
     1
102
RTVSPropertyOp16
 70
     1
102
RTVSPropertyOp17
 70
     1
102
RTVSPropertyOp18
 70
     1
102
RTVSPropertyOp19
 70
     1
102
RTVSPropertyOp20
 70
     1
102
RTVSPropertyOp21
 70
     1
102
RTVSPropertyOp22
 70
     1
102
RTVSPropertyOp23
 70
     1
102
RTVSPropertyOp24
 70
     1
102
RTVSPropertyOp25
 70
     1
102
RTVSPropertyOp26
 70
     1
102
RTVSPropertyOp27
 70
     1
102
RTVSPropertyOp28
 70
     1
102
RTVSPropertyOp29
 70
     1
102
RTVSPropertyOp30
 70
     1
102
RTVSPropertyOp31
 70
     1
102
RTVSPropertyOp32
 70
     1
102
RTVSPropertyOp33
 70
     1
102
RTVSPropertyOp34
 70
     1
102
RTVSPropertyOp35
 70
     1
102
RTVSPropertyOp36
 70
     1
102
RTVSPropertyOp37
 70
     1
102
RTVSPropertyOp38
 70
     1
102
RTVSPropertyOp39
 70
     1
102
RTVSPropertyOp40
 70
     1
102
RTVSPropertyOp41
 70
     1
102
RTVSPropertyOp42
 70
     1
102
RTVSPropertyOp43
 70
     1
102
RTVSPropertyOp44
 70
     1
102
RTVSPropertyOp45
 70
     1
102
RTVSPropertyOp46
 70
     1
102
RTVSPropertyOp47
 70
     1
102
RTVSPropertyOp48
 70
     1
102
RTVSPropertyOp49
 70
     1
102
RTVSPropertyOp50
 70
     1
102
RTVSPropertyOp51
 70
     0
102
RTVSPropertyOp52
 70
     0
102
RTVSPropertyOp53
 70
     1
102
RTVSPropertyOp54
 70
     1
102
RTVSPropertyOp55
 70
     1
102
RTVSPropertyOp56
 70
     1
102
RTVSPropertyOp57
 70
     1
102
RTVSPost2010Prop28
280
     0
102
RTVSPost2010PropOp28
 70
     1
102
RTVSPost2010Prop29
280
     1
102
RTVSPost2010PropOp29
 70
     1
102
RTVSPost2010Prop30
280
     1
102
RTVSPost2010PropOp30
 70
     1
102
RTVSPost2010Prop31
280
     0
102
RTVSPost2010PropOp31
 70
     1
102
RTVSPost2010Prop32
280
     0
102
RTVSPost2010PropOp32
 70
     1
102
RTVSPost2010Prop33
280
     0
102
RTVSPost2010PropOp33
 70
     1
102
RTVSPost2010Prop34
280
     0
102
RTVSPost2010PropOp34
 70
     1
102
RTVSPost2010Prop35
280
     0
102
RTVSPost2010PropOp35
 70
     1
102
RTVSPost2010Prop36
280
     0
102
RTVSPost2010PropOp36
 70
     1
102
RTVSPost2010Prop37
 90
       50
102
RTVSPost2010PropOp37
 70
     1
102
RTVSPost2010Prop38
140
0.0
102
RTVSPost2010PropOp38
 70
     1
102
RTVSPost2010Prop39
140
1.0
102
RTVSPost2010PropOp39
 70
     1
102
RTVSPost2010Prop40
 90
        0
102
RTVSPost2010PropOp40
 70
     1
102
RTVSPost2010Prop41ColorIndex
 90
       18
102
RTVSPost2010Prop41ColorRGB
 90
        0
102
RTVSPost2010PropOp41
 70
     1
102
RTVSPost2010Prop42
 90
       50
102
RTVSPost2010PropOp42
 70
     1
102
RTVSPost2010Prop43
 90
        3
102
RTVSPost2010PropOp43
 70
     1
102
RTVSPost2010Prop44ColorIndex
 90
        5
102
RTVSPost2010Prop44ColorRGB
 90
      255
102
RTVSPost2010PropOp44
 70
     1
102
RTVSPost2010Prop45
280
     0
102
RTVSPost2010PropOp45
 70
     1
102
RTVSPost2010Prop46
 90
       50
102
RTVSPost2010PropOp46
 70
     1
102
RTVSPost2010Prop47
 90
       50
102
RTVSPost2010PropOp47
 70
     1
102
RTVSPost2010Prop48
 90
       50
102
RTVSPost2010PropOp48
 70
     1
102
RTVSPost2010Prop49
280
     0
102
RTVSPost2010PropOp49
 70
     1
102
RTVSPost2010Prop50
 90
       50
102
RTVSPost2010PropOp50
 70
     1
102
RTVSPost2010Prop51ColorIndex
 90
      256
102
RTVSPost2010Prop51ColorRGB
 90
-16777216
102
RTVSPost2010PropOp51
 70
     0
102
RTVSPost2010Prop52
140
1.0
102
RTVSPost2010PropOp52
 70
     0
102
RTVSPost2010Prop53
 90
        2
102
RTVSPost2010PropOp53
 70
     1
102
RTVSPost2010Prop54
  1
strokes_ogs.tif
102
RTVSPost2010PropOp54
 70
     1
102
RTVSPost2010Prop55
280
     0
102
RTVSPost2010PropOp55
 70
     1
102
RTVSPost2010Prop56
140
1.0
102
RTVSPost2010PropOp56
 70
     1
102
RTVSPost2010Prop57
140
1.0
102
RTVSPost2010PropOp57
 70
     1
  0
XRECORD
  5
6EA
102
{ACAD_REACTORS
330
6E9
102
}
330
6E9
100
AcDbXrecord
280
     1
102
RTVSPropertyOp0
 70
     1
102
RTVSPropertyOp1
 70
     1
102
RTVSPropertyOp2
 70
     1
102
RTVSPropertyOp3
 70
     1
102
RTVSPropertyOp4
 70
     1
102
RTVSPropertyOp5
 70
     1
102
RTVSPropertyOp6
 70
     1
102
RTVSPropertyOp7
 70
     1
102
RTVSPropertyOp8
 70
     1
102
RTVSPropertyOp9
 70
     1
102
RTVSPropertyOp10
 70
     1
102
RTVSPropertyOp11
 70
     1
102
RTVSPropertyOp12
 70
     1
102
RTVSPropertyOp13
 70
     1
102
RTVSPropertyOp14
 70
     1
102
RTVSPropertyOp15
 70
     1
102
RTVSPropertyOp16
 70
     1
102
RTVSPropertyOp17
 70
     1
102
RTVSPropertyOp18
 70
     1
102
RTVSPropertyOp19
 70
     1
102
RTVSPropertyOp20
 70
     1
102
RTVSPropertyOp21
 70
     1
102
RTVSPropertyOp22
 70
     1
102
RTVSPropertyOp23
 70
     1
102
RTVSPropertyOp24
 70
     1
102
RTVSPropertyOp25
 70
     1
102
RTVSPropertyOp26
 70
     1
102
RTVSPropertyOp27
 70
     1
102
RTVSPropertyOp28
 70
     1
102
RTVSPropertyOp29
 70
     1
102
RTVSPropertyOp30
 70
     1
102
RTVSPropertyOp31
 70
     1
102
RTVSPropertyOp32
 70
     1
102
RTVSPropertyOp33
 70
     1
102
RTVSPropertyOp34
 70
     1
102
RTVSPropertyOp35
 70
     1
102
RTVSPropertyOp36
 70
     1
102
RTVSPropertyOp37
 70
     1
102
RTVSPropertyOp38
 70
     1
102
RTVSPropertyOp39
 70
     1
102
RTVSPropertyOp40
 70
     1
102
RTVSPropertyOp41
 70
     1
102
RTVSPropertyOp42
 70
     1
102
RTVSPropertyOp43
 70
     1
102
RTVSPropertyOp44
 70
     1
102
RTVSPropertyOp45
 70
     1
102
RTVSPropertyOp46
 70
     1
102
RTVSPropertyOp47
 70
     1
102
RTVSPropertyOp48
 70
     1
102
RTVSPropertyOp49
 70
     1
102
RTVSPropertyOp50
 70
     1
102
RTVSPropertyOp51
 70
     0
102
RTVSPropertyOp52
 70
     0
102
RTVSPropertyOp53
 70
     1
102
RTVSPropertyOp54
 70
     1
102
RTVSPropertyOp55
 70
     1
102
RTVSPropertyOp56
 70
     1
102
RTVSPropertyOp57
 70
     1
102
RTVSPost2010Prop28
280
     0
102
RTVSPost2010PropOp28
 70
     1
102
RTVSPost2010Prop29
280
     1
102
RTVSPost2010PropOp29
 70
     1
102
RTVSPost2010Prop30
280
     1
102
RTVSPost2010PropOp30
 70
     1
102
RTVSPost2010Prop31
280
     0
102
RTVSPost2010PropOp31
 70
     1
102
RTVSPost2010Prop32
280
     0
102
RTVSPost2010PropOp32
 70
     1
102
RTVSPost2010Prop33
280
     0
102
RTVSPost2010PropOp33
 70
     1
102
RTVSPost2010Prop34
280
     0
102
RTVSPost2010PropOp34
 70
     1
102
RTVSPost2010Prop35
280
     0
102
RTVSPost2010PropOp35
 70
     1
102
RTVSPost2010Prop36
280
     0
102
RTVSPost2010PropOp36
 70
     1
102
RTVSPost2010Prop37
 90
       50
102
RTVSPost2010PropOp37
 70
     1
102
RTVSPost2010Prop38
140
0.0
102
RTVSPost2010PropOp38
 70
     1
102
RTVSPost2010Prop39
140
1.0
102
RTVSPost2010PropOp39
 70
     1
102
RTVSPost2010Prop40
 90
        0
102
RTVSPost2010PropOp40
 70
     1
102
RTVSPost2010Prop41ColorIndex
 90
       18
102
RTVSPost2010Prop41ColorRGB
 90
        0
102
RTVSPost2010PropOp41
 70
     1
102
RTVSPost2010Prop42
 90
       50
102
RTVSPost2010PropOp42
 70
     1
102
RTVSPost2010Prop43
 90
        3
102
RTVSPost2010PropOp43
 70
     1
102
RTVSPost2010Prop44ColorIndex
 90
        5
102
RTVSPost2010Prop44ColorRGB
 90
      255
102
RTVSPost2010PropOp44
 70
     1
102
RTVSPost2010Prop45
280
     0
102
RTVSPost2010PropOp45
 70
     1
102
RTVSPost2010Prop46
 90
       50
102
RTVSPost2010PropOp46
 70
     1
102
RTVSPost2010Prop47
 90
       50
102
RTVSPost2010PropOp47
 70
     1
102
RTVSPost2010Prop48
 90
       50
102
RTVSPost2010PropOp48
 70
     1
102
RTVSPost2010Prop49
280
     0
102
RTVSPost2010PropOp49
 70
     1
102
RTVSPost2010Prop50
 90
       50
102
RTVSPost2010PropOp50
 70
     1
102
RTVSPost2010Prop51ColorIndex
 90
      256
102
RTVSPost2010Prop51ColorRGB
 90
-16777216
102
RTVSPost2010PropOp51
 70
     0
102
RTVSPost2010Prop52
140
1.0
102
RTVSPost2010PropOp52
 70
     0
102
RTVSPost2010Prop53
 90
        2
102
RTVSPost2010PropOp53
 70
     1
102
RTVSPost2010Prop54
  1
strokes_ogs.tif
102
RTVSPost2010PropOp54
 70
     1
102
RTVSPost2010Prop55
280
     0
102
RTVSPost2010PropOp55
 70
     1
102
RTVSPost2010Prop56
140
1.0
102
RTVSPost2010PropOp56
 70
     1
102
RTVSPost2010Prop57
140
1.0
102
RTVSPost2010PropOp57
 70
     1
  0
XRECORD
  5
6FC
102
{ACAD_REACTORS
330
6FB
102
}
330
6FB
100
AcDbXrecord
280
     1
102
RTVSPropertyOp0
 70
     0
102
RTVSPropertyOp1
 70
     0
102
RTVSPropertyOp2
 70
     0
102
RTVSPropertyOp3
 70
     0
102
RTVSPropertyOp4
 70
     0
102
RTVSPropertyOp5
 70
     0
102
RTVSPropertyOp6
 70
     0
102
RTVSPropertyOp7
 70
     0
102
RTVSPropertyOp8
 70
     0
102
RTVSPropertyOp9
 70
     0
102
RTVSPropertyOp10
 70
     0
102
RTVSPropertyOp11
 70
     0
102
RTVSPropertyOp12
 70
     0
102
RTVSPropertyOp13
 70
     0
102
RTVSPropertyOp14
 70
     0
102
RTVSPropertyOp15
 70
     0
102
RTVSPropertyOp16
 70
     0
102
RTVSPropertyOp17
 70
     0
102
RTVSPropertyOp18
 70
     0
102
RTVSPropertyOp19
 70
     0
102
RTVSPropertyOp20
 70
     0
102
RTVSPropertyOp21
 70
     0
102
RTVSPropertyOp22
 70
     0
102
RTVSPropertyOp23
 70
     0
102
RTVSPropertyOp24
 70
     0
102
RTVSPropertyOp25
 70
     0
102
RTVSPropertyOp26
 70
     0
102
RTVSPropertyOp27
 70
     0
102
RTVSPropertyOp28
 70
     1
102
RTVSPropertyOp29
 70
     1
102
RTVSPropertyOp30
 70
     1
102
RTVSPropertyOp31
 70
     1
102
RTVSPropertyOp32
 70
     1
102
RTVSPropertyOp33
 70
     1
102
RTVSPropertyOp34
 70
     1
102
RTVSPropertyOp35
 70
     1
102
RTVSPropertyOp36
 70
     1
102
RTVSPropertyOp37
 70
     1
102
RTVSPropertyOp38
 70
     1
102
RTVSPropertyOp39
 70
     1
102
RTVSPropertyOp40
 70
     1
102
RTVSPropertyOp41
 70
     1
102
RTVSPropertyOp42
 70
     1
102
RTVSPropertyOp43
 70
     1
102
RTVSPropertyOp44
 70
     1
102
RTVSPropertyOp45
 70
     1
102
RTVSPropertyOp46
 70
     1
102
RTVSPropertyOp47
 70
     1
102
RTVSPropertyOp48
 70
     1
102
RTVSPropertyOp49
 70
     1
102
RTVSPropertyOp50
 70
     1
102
RTVSPropertyOp51
 70
     0
102
RTVSPropertyOp52
 70
     0
102
RTVSPropertyOp53
 70
     1
102
RTVSPropertyOp54
 70
     1
102
RTVSPropertyOp55
 70
     1
102
RTVSPropertyOp56
 70
     1
102
RTVSPropertyOp57
 70
     1
102
RTVSPost2010Prop28
280
     0
102
RTVSPost2010PropOp28
 70
     1
102
RTVSPost2010Prop29
280
     1
102
RTVSPost2010PropOp29
 70
     1
102
RTVSPost2010Prop30
280
     1
102
RTVSPost2010PropOp30
 70
     1
102
RTVSPost2010Prop31
280
     0
102
RTVSPost2010PropOp31
 70
     1
102
RTVSPost2010Prop32
280
     0
102
RTVSPost2010PropOp32
 70
     1
102
RTVSPost2010Prop33
280
     0
102
RTVSPost2010PropOp33
 70
     1
102
RTVSPost2010Prop34
280
     0
102
RTVSPost2010PropOp34
 70
     1
102
RTVSPost2010Prop35
280
     0
102
RTVSPost2010PropOp35
 70
     1
102
RTVSPost2010Prop36
280
     0
102
RTVSPost2010PropOp36
 70
     1
102
RTVSPost2010Prop37
 90
       50
102
RTVSPost2010PropOp37
 70
     1
102
RTVSPost2010Prop38
140
0.0
102
RTVSPost2010PropOp38
 70
     1
102
RTVSPost2010Prop39
140
1.0
102
RTVSPost2010PropOp39
 70
     1
102
RTVSPost2010Prop40
 90
        0
102
RTVSPost2010PropOp40
 70
     1
102
RTVSPost2010Prop41ColorIndex
 90
       18
102
RTVSPost2010Prop41ColorRGB
 90
        0
102
RTVSPost2010PropOp41
 70
     1
102
RTVSPost2010Prop42
 90
       50
102
RTVSPost2010PropOp42
 70
     1
102
RTVSPost2010Prop43
 90
        3
102
RTVSPost2010PropOp43
 70
     1
102
RTVSPost2010Prop44ColorIndex
 90
        5
102
RTVSPost2010Prop44ColorRGB
 90
      255
102
RTVSPost2010PropOp44
 70
     1
102
RTVSPost2010Prop45
280
     0
102
RTVSPost2010PropOp45
 70
     1
102
RTVSPost2010Prop46
 90
       50
102
RTVSPost2010PropOp46
 70
     1
102
RTVSPost2010Prop47
 90
       50
102
RTVSPost2010PropOp47
 70
     1
102
RTVSPost2010Prop48
 90
       50
102
RTVSPost2010PropOp48
 70
     1
102
RTVSPost2010Prop49
280
     0
102
RTVSPost2010PropOp49
 70
     1
102
RTVSPost2010Prop50
 90
       50
102
RTVSPost2010PropOp50
 70
     1
102
RTVSPost2010Prop51ColorIndex
 90
      256
102
RTVSPost2010Prop51ColorRGB
 90
-16777216
102
RTVSPost2010PropOp51
 70
     0
102
RTVSPost2010Prop52
140
1.0
102
RTVSPost2010PropOp52
 70
     0
102
RTVSPost2010Prop53
 90
        2
102
RTVSPost2010PropOp53
 70
     1
102
RTVSPost2010Prop54
  1
strokes_ogs.tif
102
RTVSPost2010PropOp54
 70
     1
102
RTVSPost2010Prop55
280
     0
102
RTVSPost2010PropOp55
 70
     1
102
RTVSPost2010Prop56
140
1.0
102
RTVSPost2010PropOp56
 70
     1
102
RTVSPost2010Prop57
140
1.0
102
RTVSPost2010PropOp57
 70
     1
  0
XRECORD
  5
6F6
102
{ACAD_REACTORS
330
6F5
102
}
330
6F5
100
AcDbXrecord
280
     1
102
RTVSPropertyOp0
 70
     1
102
RTVSPropertyOp1
 70
     1
102
RTVSPropertyOp2
 70
     1
102
RTVSPropertyOp3
 70
     1
102
RTVSPropertyOp4
 70
     1
102
RTVSPropertyOp5
 70
     1
102
RTVSPropertyOp6
 70
     1
102
RTVSPropertyOp7
 70
     1
102
RTVSPropertyOp8
 70
     1
102
RTVSPropertyOp9
 70
     1
102
RTVSPropertyOp10
 70
     1
102
RTVSPropertyOp11
 70
     1
102
RTVSPropertyOp12
 70
     1
102
RTVSPropertyOp13
 70
     1
102
RTVSPropertyOp14
 70
     1
102
RTVSPropertyOp15
 70
     1
102
RTVSPropertyOp16
 70
     1
102
RTVSPropertyOp17
 70
     1
102
RTVSPropertyOp18
 70
     1
102
RTVSPropertyOp19
 70
     1
102
RTVSPropertyOp20
 70
     1
102
RTVSPropertyOp21
 70
     1
102
RTVSPropertyOp22
 70
     1
102
RTVSPropertyOp23
 70
     1
102
RTVSPropertyOp24
 70
     1
102
RTVSPropertyOp25
 70
     1
102
RTVSPropertyOp26
 70
     1
102
RTVSPropertyOp27
 70
     1
102
RTVSPropertyOp28
 70
     1
102
RTVSPropertyOp29
 70
     1
102
RTVSPropertyOp30
 70
     1
102
RTVSPropertyOp31
 70
     1
102
RTVSPropertyOp32
 70
     1
102
RTVSPropertyOp33
 70
     1
102
RTVSPropertyOp34
 70
     1
102
RTVSPropertyOp35
 70
     1
102
RTVSPropertyOp36
 70
     1
102
RTVSPropertyOp37
 70
     1
102
RTVSPropertyOp38
 70
     1
102
RTVSPropertyOp39
 70
     1
102
RTVSPropertyOp40
 70
     1
102
RTVSPropertyOp41
 70
     1
102
RTVSPropertyOp42
 70
     1
102
RTVSPropertyOp43
 70
     1
102
RTVSPropertyOp44
 70
     1
102
RTVSPropertyOp45
 70
     1
102
RTVSPropertyOp46
 70
     1
102
RTVSPropertyOp47
 70
     1
102
RTVSPropertyOp48
 70
     1
102
RTVSPropertyOp49
 70
     1
102
RTVSPropertyOp50
 70
     1
102
RTVSPropertyOp51
 70
     0
102
RTVSPropertyOp52
 70
     0
102
RTVSPropertyOp53
 70
     1
102
RTVSPropertyOp54
 70
     1
102
RTVSPropertyOp55
 70
     1
102
RTVSPropertyOp56
 70
     1
102
RTVSPropertyOp57
 70
     1
102
RTVSPost2010Prop28
280
     0
102
RTVSPost2010PropOp28
 70
     1
102
RTVSPost2010Prop29
280
     1
102
RTVSPost2010PropOp29
 70
     1
102
RTVSPost2010Prop30
280
     1
102
RTVSPost2010PropOp30
 70
     1
102
RTVSPost2010Prop31
280
     0
102
RTVSPost2010PropOp31
 70
     1
102
RTVSPost2010Prop32
280
     0
102
RTVSPost2010PropOp32
 70
     1
102
RTVSPost2010Prop33
280
     0
102
RTVSPost2010PropOp33
 70
     1
102
RTVSPost2010Prop34
280
     0
102
RTVSPost2010PropOp34
 70
     1
102
RTVSPost2010Prop35
280
     0
102
RTVSPost2010PropOp35
 70
     1
102
RTVSPost2010Prop36
280
     0
102
RTVSPost2010PropOp36
 70
     1
102
RTVSPost2010Prop37
 90
       50
102
RTVSPost2010PropOp37
 70
     1
102
RTVSPost2010Prop38
140
0.0
102
RTVSPost2010PropOp38
 70
     1
102
RTVSPost2010Prop39
140
1.0
102
RTVSPost2010PropOp39
 70
     1
102
RTVSPost2010Prop40
 90
        0
102
RTVSPost2010PropOp40
 70
     1
102
RTVSPost2010Prop41ColorIndex
 90
       18
102
RTVSPost2010Prop41ColorRGB
 90
        0
102
RTVSPost2010PropOp41
 70
     1
102
RTVSPost2010Prop42
 90
       50
102
RTVSPost2010PropOp42
 70
     1
102
RTVSPost2010Prop43
 90
        3
102
RTVSPost2010PropOp43
 70
     1
102
RTVSPost2010Prop44ColorIndex
 90
        5
102
RTVSPost2010Prop44ColorRGB
 90
      255
102
RTVSPost2010PropOp44
 70
     1
102
RTVSPost2010Prop45
280
     0
102
RTVSPost2010PropOp45
 70
     1
102
RTVSPost2010Prop46
 90
       50
102
RTVSPost2010PropOp46
 70
     1
102
RTVSPost2010Prop47
 90
       50
102
RTVSPost2010PropOp47
 70
     1
102
RTVSPost2010Prop48
 90
       50
102
RTVSPost2010PropOp48
 70
     1
102
RTVSPost2010Prop49
280
     0
102
RTVSPost2010PropOp49
 70
     1
102
RTVSPost2010Prop50
 90
       50
102
RTVSPost2010PropOp50
 70
     1
102
RTVSPost2010Prop51ColorIndex
 90
      256
102
RTVSPost2010Prop51ColorRGB
 90
-16777216
102
RTVSPost2010PropOp51
 70
     0
102
RTVSPost2010Prop52
140
1.0
102
RTVSPost2010PropOp52
 70
     0
102
RTVSPost2010Prop53
 90
        2
102
RTVSPost2010PropOp53
 70
     1
102
RTVSPost2010Prop54
  1
strokes_ogs.tif
102
RTVSPost2010PropOp54
 70
     1
102
RTVSPost2010Prop55
280
     0
102
RTVSPost2010PropOp55
 70
     1
102
RTVSPost2010Prop56
140
1.0
102
RTVSPost2010PropOp56
 70
     1
102
RTVSPost2010Prop57
140
1.0
102
RTVSPost2010PropOp57
 70
     1
  0
XRECORD
  5
6FE
102
{ACAD_REACTORS
330
6FD
102
}
330
6FD
100
AcDbXrecord
280
     1
102
RTVSPropertyOp0
 70
     0
102
RTVSPropertyOp1
 70
     0
102
RTVSPropertyOp2
 70
     0
102
RTVSPropertyOp3
 70
     0
102
RTVSPropertyOp4
 70
     0
102
RTVSPropertyOp5
 70
     0
102
RTVSPropertyOp6
 70
     0
102
RTVSPropertyOp7
 70
     0
102
RTVSPropertyOp8
 70
     0
102
RTVSPropertyOp9
 70
     0
102
RTVSPropertyOp10
 70
     0
102
RTVSPropertyOp11
 70
     0
102
RTVSPropertyOp12
 70
     0
102
RTVSPropertyOp13
 70
     0
102
RTVSPropertyOp14
 70
     0
102
RTVSPropertyOp15
 70
     0
102
RTVSPropertyOp16
 70
     0
102
RTVSPropertyOp17
 70
     0
102
RTVSPropertyOp18
 70
     0
102
RTVSPropertyOp19
 70
     0
102
RTVSPropertyOp20
 70
     0
102
RTVSPropertyOp21
 70
     0
102
RTVSPropertyOp22
 70
     0
102
RTVSPropertyOp23
 70
     0
102
RTVSPropertyOp24
 70
     0
102
RTVSPropertyOp25
 70
     0
102
RTVSPropertyOp26
 70
     0
102
RTVSPropertyOp27
 70
     0
102
RTVSPropertyOp28
 70
     1
102
RTVSPropertyOp29
 70
     1
102
RTVSPropertyOp30
 70
     1
102
RTVSPropertyOp31
 70
     1
102
RTVSPropertyOp32
 70
     1
102
RTVSPropertyOp33
 70
     1
102
RTVSPropertyOp34
 70
     1
102
RTVSPropertyOp35
 70
     1
102
RTVSPropertyOp36
 70
     1
102
RTVSPropertyOp37
 70
     1
102
RTVSPropertyOp38
 70
     1
102
RTVSPropertyOp39
 70
     1
102
RTVSPropertyOp40
 70
     1
102
RTVSPropertyOp41
 70
     1
102
RTVSPropertyOp42
 70
     1
102
RTVSPropertyOp43
 70
     1
102
RTVSPropertyOp44
 70
     1
102
RTVSPropertyOp45
 70
     1
102
RTVSPropertyOp46
 70
     1
102
RTVSPropertyOp47
 70
     1
102
RTVSPropertyOp48
 70
     1
102
RTVSPropertyOp49
 70
     1
102
RTVSPropertyOp50
 70
     1
102
RTVSPropertyOp51
 70
     0
102
RTVSPropertyOp52
 70
     0
102
RTVSPropertyOp53
 70
     1
102
RTVSPropertyOp54
 70
     1
102
RTVSPropertyOp55
 70
     1
102
RTVSPropertyOp56
 70
     1
102
RTVSPropertyOp57
 70
     1
102
RTVSPost2010Prop28
280
     0
102
RTVSPost2010PropOp28
 70
     1
102
RTVSPost2010Prop29
280
     1
102
RTVSPost2010PropOp29
 70
     1
102
RTVSPost2010Prop30
280
     1
102
RTVSPost2010PropOp30
 70
     1
102
RTVSPost2010Prop31
280
     0
102
RTVSPost2010PropOp31
 70
     1
102
RTVSPost2010Prop32
280
     0
102
RTVSPost2010PropOp32
 70
     1
102
RTVSPost2010Prop33
280
     0
102
RTVSPost2010PropOp33
 70
     1
102
RTVSPost2010Prop34
280
     0
102
RTVSPost2010PropOp34
 70
     1
102
RTVSPost2010Prop35
280
     0
102
RTVSPost2010PropOp35
 70
     1
102
RTVSPost2010Prop36
280
     0
102
RTVSPost2010PropOp36
 70
     1
102
RTVSPost2010Prop37
 90
       50
102
RTVSPost2010PropOp37
 70
     1
102
RTVSPost2010Prop38
140
0.0
102
RTVSPost2010PropOp38
 70
     1
102
RTVSPost2010Prop39
140
1.0
102
RTVSPost2010PropOp39
 70
     1
102
RTVSPost2010Prop40
 90
        0
102
RTVSPost2010PropOp40
 70
     1
102
RTVSPost2010Prop41ColorIndex
 90
       18
102
RTVSPost2010Prop41ColorRGB
 90
        0
102
RTVSPost2010PropOp41
 70
     1
102
RTVSPost2010Prop42
 90
       50
102
RTVSPost2010PropOp42
 70
     1
102
RTVSPost2010Prop43
 90
        3
102
RTVSPost2010PropOp43
 70
     1
102
RTVSPost2010Prop44ColorIndex
 90
        5
102
RTVSPost2010Prop44ColorRGB
 90
      255
102
RTVSPost2010PropOp44
 70
     1
102
RTVSPost2010Prop45
280
     0
102
RTVSPost2010PropOp45
 70
     1
102
RTVSPost2010Prop46
 90
       50
102
RTVSPost2010PropOp46
 70
     1
102
RTVSPost2010Prop47
 90
       50
102
RTVSPost2010PropOp47
 70
     1
102
RTVSPost2010Prop48
 90
       50
102
RTVSPost2010PropOp48
 70
     1
102
RTVSPost2010Prop49
280
     0
102
RTVSPost2010PropOp49
 70
     1
102
RTVSPost2010Prop50
 90
       50
102
RTVSPost2010PropOp50
 70
     1
102
RTVSPost2010Prop51ColorIndex
 90
      256
102
RTVSPost2010Prop51ColorRGB
 90
-16777216
102
RTVSPost2010PropOp51
 70
     0
102
RTVSPost2010Prop52
140
1.0
102
RTVSPost2010PropOp52
 70
     0
102
RTVSPost2010Prop53
 90
        2
102
RTVSPost2010PropOp53
 70
     1
102
RTVSPost2010Prop54
  1
strokes_ogs.tif
102
RTVSPost2010PropOp54
 70
     1
102
RTVSPost2010Prop55
280
     0
102
RTVSPost2010PropOp55
 70
     1
102
RTVSPost2010Prop56
140
1.0
102
RTVSPost2010PropOp56
 70
     1
102
RTVSPost2010Prop57
140
1.0
102
RTVSPost2010PropOp57
 70
     1
  0
XRECORD
  5
6DC
102
{ACAD_REACTORS
330
6DB
102
}
330
6DB
100
AcDbXrecord
280
     1
102
RTVSPropertyOp0
 70
     1
102
RTVSPropertyOp1
 70
     1
102
RTVSPropertyOp2
 70
     1
102
RTVSPropertyOp3
 70
     1
102
RTVSPropertyOp4
 70
     1
102
RTVSPropertyOp5
 70
     1
102
RTVSPropertyOp6
 70
     1
102
RTVSPropertyOp7
 70
     1
102
RTVSPropertyOp8
 70
     1
102
RTVSPropertyOp9
 70
     1
102
RTVSPropertyOp10
 70
     1
102
RTVSPropertyOp11
 70
     1
102
RTVSPropertyOp12
 70
     1
102
RTVSPropertyOp13
 70
     1
102
RTVSPropertyOp14
 70
     1
102
RTVSPropertyOp15
 70
     1
102
RTVSPropertyOp16
 70
     1
102
RTVSPropertyOp17
 70
     1
102
RTVSPropertyOp18
 70
     1
102
RTVSPropertyOp19
 70
     1
102
RTVSPropertyOp20
 70
     1
102
RTVSPropertyOp21
 70
     1
102
RTVSPropertyOp22
 70
     1
102
RTVSPropertyOp23
 70
     1
102
RTVSPropertyOp24
 70
     1
102
RTVSPropertyOp25
 70
     1
102
RTVSPropertyOp26
 70
     1
102
RTVSPropertyOp27
 70
     1
102
RTVSPropertyOp28
 70
     1
102
RTVSPropertyOp29
 70
     1
102
RTVSPropertyOp30
 70
     1
102
RTVSPropertyOp31
 70
     1
102
RTVSPropertyOp32
 70
     1
102
RTVSPropertyOp33
 70
     1
102
RTVSPropertyOp34
 70
     1
102
RTVSPropertyOp35
 70
     1
102
RTVSPropertyOp36
 70
     1
102
RTVSPropertyOp37
 70
     1
102
RTVSPropertyOp38
 70
     1
102
RTVSPropertyOp39
 70
     1
102
RTVSPropertyOp40
 70
     1
102
RTVSPropertyOp41
 70
     1
102
RTVSPropertyOp42
 70
     1
102
RTVSPropertyOp43
 70
     1
102
RTVSPropertyOp44
 70
     1
102
RTVSPropertyOp45
 70
     1
102
RTVSPropertyOp46
 70
     1
102
RTVSPropertyOp47
 70
     1
102
RTVSPropertyOp48
 70
     1
102
RTVSPropertyOp49
 70
     1
102
RTVSPropertyOp50
 70
     1
102
RTVSPropertyOp51
 70
     0
102
RTVSPropertyOp52
 70
     0
102
RTVSPropertyOp53
 70
     1
102
RTVSPropertyOp54
 70
     1
102
RTVSPropertyOp55
 70
     1
102
RTVSPropertyOp56
 70
     1
102
RTVSPropertyOp57
 70
     1
102
RTVSPost2010Prop28
280
     0
102
RTVSPost2010PropOp28
 70
     1
102
RTVSPost2010Prop29
280
     1
102
RTVSPost2010PropOp29
 70
     1
102
RTVSPost2010Prop30
280
     1
102
RTVSPost2010PropOp30
 70
     1
102
RTVSPost2010Prop31
280
     0
102
RTVSPost2010PropOp31
 70
     1
102
RTVSPost2010Prop32
280
     0
102
RTVSPost2010PropOp32
 70
     1
102
RTVSPost2010Prop33
280
     0
102
RTVSPost2010PropOp33
 70
     1
102
RTVSPost2010Prop34
280
     0
102
RTVSPost2010PropOp34
 70
     1
102
RTVSPost2010Prop35
280
     0
102
RTVSPost2010PropOp35
 70
     1
102
RTVSPost2010Prop36
280
     0
102
RTVSPost2010PropOp36
 70
     1
102
RTVSPost2010Prop37
 90
       50
102
RTVSPost2010PropOp37
 70
     1
102
RTVSPost2010Prop38
140
0.0
102
RTVSPost2010PropOp38
 70
     1
102
RTVSPost2010Prop39
140
1.0
102
RTVSPost2010PropOp39
 70
     1
102
RTVSPost2010Prop40
 90
        0
102
RTVSPost2010PropOp40
 70
     1
102
RTVSPost2010Prop41ColorIndex
 90
       18
102
RTVSPost2010Prop41ColorRGB
 90
        0
102
RTVSPost2010PropOp41
 70
     1
102
RTVSPost2010Prop42
 90
       50
102
RTVSPost2010PropOp42
 70
     1
102
RTVSPost2010Prop43
 90
        3
102
RTVSPost2010PropOp43
 70
     1
102
RTVSPost2010Prop44ColorIndex
 90
        5
102
RTVSPost2010Prop44ColorRGB
 90
      255
102
RTVSPost2010PropOp44
 70
     1
102
RTVSPost2010Prop45
280
     0
102
RTVSPost2010PropOp45
 70
     1
102
RTVSPost2010Prop46
 90
       50
102
RTVSPost2010PropOp46
 70
     1
102
RTVSPost2010Prop47
 90
       50
102
RTVSPost2010PropOp47
 70
     1
102
RTVSPost2010Prop48
 90
       50
102
RTVSPost2010PropOp48
 70
     1
102
RTVSPost2010Prop49
280
     0
102
RTVSPost2010PropOp49
 70
     1
102
RTVSPost2010Prop50
 90
       50
102
RTVSPost2010PropOp50
 70
     1
102
RTVSPost2010Prop51ColorIndex
 90
      256
102
RTVSPost2010Prop51ColorRGB
 90
-16777216
102
RTVSPost2010PropOp51
 70
     0
102
RTVSPost2010Prop52
140
1.0
102
RTVSPost2010PropOp52
 70
     0
102
RTVSPost2010Prop53
 90
        2
102
RTVSPost2010PropOp53
 70
     1
102
RTVSPost2010Prop54
  1
strokes_ogs.tif
102
RTVSPost2010PropOp54
 70
     1
102
RTVSPost2010Prop55
280
     0
102
RTVSPost2010PropOp55
 70
     1
102
RTVSPost2010Prop56
140
1.0
102
RTVSPost2010PropOp56
 70
     1
102
RTVSPost2010Prop57
140
1.0
102
RTVSPost2010PropOp57
 70
     1
  0
XRECORD
  5
70A
102
{ACAD_REACTORS
330
709
102
}
330
709
100
AcDbXrecord
280
     1
102
RTVSPropertyOp0
 70
     1
102
RTVSPropertyOp1
 70
     1
102
RTVSPropertyOp2
 70
     1
102
RTVSPropertyOp3
 70
     1
102
RTVSPropertyOp4
 70
     1
102
RTVSPropertyOp5
 70
     1
102
RTVSPropertyOp6
 70
     1
102
RTVSPropertyOp7
 70
     1
102
RTVSPropertyOp8
 70
     1
102
RTVSPropertyOp9
 70
     1
102
RTVSPropertyOp10
 70
     1
102
RTVSPropertyOp11
 70
     1
102
RTVSPropertyOp12
 70
     1
102
RTVSPropertyOp13
 70
     1
102
RTVSPropertyOp14
 70
     1
102
RTVSPropertyOp15
 70
     1
102
RTVSPropertyOp16
 70
     1
102
RTVSPropertyOp17
 70
     1
102
RTVSPropertyOp18
 70
     1
102
RTVSPropertyOp19
 70
     1
102
RTVSPropertyOp20
 70
     1
102
RTVSPropertyOp21
 70
     1
102
RTVSPropertyOp22
 70
     1
102
RTVSPropertyOp23
 70
     1
102
RTVSPropertyOp24
 70
     1
102
RTVSPropertyOp25
 70
     1
102
RTVSPropertyOp26
 70
     1
102
RTVSPropertyOp27
 70
     1
102
RTVSPropertyOp28
 70
     1
102
RTVSPropertyOp29
 70
     1
102
RTVSPropertyOp30
 70
     1
102
RTVSPropertyOp31
 70
     1
102
RTVSPropertyOp32
 70
     1
102
RTVSPropertyOp33
 70
     1
102
RTVSPropertyOp34
 70
     1
102
RTVSPropertyOp35
 70
     1
102
RTVSPropertyOp36
 70
     1
102
RTVSPropertyOp37
 70
     1
102
RTVSPropertyOp38
 70
     1
102
RTVSPropertyOp39
 70
     1
102
RTVSPropertyOp40
 70
     1
102
RTVSPropertyOp41
 70
     1
102
RTVSPropertyOp42
 70
     1
102
RTVSPropertyOp43
 70
     1
102
RTVSPropertyOp44
 70
     1
102
RTVSPropertyOp45
 70
     1
102
RTVSPropertyOp46
 70
     1
102
RTVSPropertyOp47
 70
     1
102
RTVSPropertyOp48
 70
     1
102
RTVSPropertyOp49
 70
     1
102
RTVSPropertyOp50
 70
     1
102
RTVSPropertyOp51
 70
     0
102
RTVSPropertyOp52
 70
     0
102
RTVSPropertyOp53
 70
     1
102
RTVSPropertyOp54
 70
     1
102
RTVSPropertyOp55
 70
     1
102
RTVSPropertyOp56
 70
     1
102
RTVSPropertyOp57
 70
     1
102
RTVSPost2010Prop28
280
     0
102
RTVSPost2010PropOp28
 70
     1
102
RTVSPost2010Prop29
280
     1
102
RTVSPost2010PropOp29
 70
     1
102
RTVSPost2010Prop30
280
     1
102
RTVSPost2010PropOp30
 70
     1
102
RTVSPost2010Prop31
280
     0
102
RTVSPost2010PropOp31
 70
     1
102
RTVSPost2010Prop32
280
     0
102
RTVSPost2010PropOp32
 70
     1
102
RTVSPost2010Prop33
280
     0
102
RTVSPost2010PropOp33
 70
     1
102
RTVSPost2010Prop34
280
     0
102
RTVSPost2010PropOp34
 70
     1
102
RTVSPost2010Prop35
280
     0
102
RTVSPost2010PropOp35
 70
     1
102
RTVSPost2010Prop36
280
     0
102
RTVSPost2010PropOp36
 70
     1
102
RTVSPost2010Prop37
 90
       50
102
RTVSPost2010PropOp37
 70
     1
102
RTVSPost2010Prop38
140
0.0
102
RTVSPost2010PropOp38
 70
     1
102
RTVSPost2010Prop39
140
1.0
102
RTVSPost2010PropOp39
 70
     1
102
RTVSPost2010Prop40
 90
        0
102
RTVSPost2010PropOp40
 70
     1
102
RTVSPost2010Prop41ColorIndex
 90
       18
102
RTVSPost2010Prop41ColorRGB
 90
        0
102
RTVSPost2010PropOp41
 70
     1
102
RTVSPost2010Prop42
 90
       50
102
RTVSPost2010PropOp42
 70
     1
102
RTVSPost2010Prop43
 90
        3
102
RTVSPost2010PropOp43
 70
     1
102
RTVSPost2010Prop44ColorIndex
 90
        5
102
RTVSPost2010Prop44ColorRGB
 90
      255
102
RTVSPost2010PropOp44
 70
     1
102
RTVSPost2010Prop45
280
     0
102
RTVSPost2010PropOp45
 70
     1
102
RTVSPost2010Prop46
 90
       50
102
RTVSPost2010PropOp46
 70
     1
102
RTVSPost2010Prop47
 90
       50
102
RTVSPost2010PropOp47
 70
     1
102
RTVSPost2010Prop48
 90
       50
102
RTVSPost2010PropOp48
 70
     1
102
RTVSPost2010Prop49
280
     0
102
RTVSPost2010PropOp49
 70
     1
102
RTVSPost2010Prop50
 90
       50
102
RTVSPost2010PropOp50
 70
     1
102
RTVSPost2010Prop51ColorIndex
 90
      256
102
RTVSPost2010Prop51ColorRGB
 90
-16777216
102
RTVSPost2010PropOp51
 70
     0
102
RTVSPost2010Prop52
140
1.0
102
RTVSPost2010PropOp52
 70
     0
102
RTVSPost2010Prop53
 90
        2
102
RTVSPost2010PropOp53
 70
     1
102
RTVSPost2010Prop54
  1
strokes_ogs.tif
102
RTVSPost2010PropOp54
 70
     1
102
RTVSPost2010Prop55
280
     0
102
RTVSPost2010PropOp55
 70
     1
102
RTVSPost2010Prop56
140
1.0
102
RTVSPost2010PropOp56
 70
     1
102
RTVSPost2010Prop57
140
1.0
102
RTVSPost2010PropOp57
 70
     1
  0
XRECORD
  5
708
102
{ACAD_REACTORS
330
707
102
}
330
707
100
AcDbXrecord
280
     1
102
RTVSPropertyOp0
 70
     1
102
RTVSPropertyOp1
 70
     1
102
RTVSPropertyOp2
 70
     1
102
RTVSPropertyOp3
 70
     1
102
RTVSPropertyOp4
 70
     1
102
RTVSPropertyOp5
 70
     1
102
RTVSPropertyOp6
 70
     1
102
RTVSPropertyOp7
 70
     1
102
RTVSPropertyOp8
 70
     1
102
RTVSPropertyOp9
 70
     1
102
RTVSPropertyOp10
 70
     1
102
RTVSPropertyOp11
 70
     1
102
RTVSPropertyOp12
 70
     1
102
RTVSPropertyOp13
 70
     1
102
RTVSPropertyOp14
 70
     1
102
RTVSPropertyOp15
 70
     1
102
RTVSPropertyOp16
 70
     1
102
RTVSPropertyOp17
 70
     1
102
RTVSPropertyOp18
 70
     1
102
RTVSPropertyOp19
 70
     1
102
RTVSPropertyOp20
 70
     1
102
RTVSPropertyOp21
 70
     1
102
RTVSPropertyOp22
 70
     1
102
RTVSPropertyOp23
 70
     1
102
RTVSPropertyOp24
 70
     1
102
RTVSPropertyOp25
 70
     1
102
RTVSPropertyOp26
 70
     1
102
RTVSPropertyOp27
 70
     1
102
RTVSPropertyOp28
 70
     1
102
RTVSPropertyOp29
 70
     1
102
RTVSPropertyOp30
 70
     1
102
RTVSPropertyOp31
 70
     1
102
RTVSPropertyOp32
 70
     1
102
RTVSPropertyOp33
 70
     1
102
RTVSPropertyOp34
 70
     1
102
RTVSPropertyOp35
 70
     1
102
RTVSPropertyOp36
 70
     1
102
RTVSPropertyOp37
 70
     1
102
RTVSPropertyOp38
 70
     1
102
RTVSPropertyOp39
 70
     1
102
RTVSPropertyOp40
 70
     1
102
RTVSPropertyOp41
 70
     1
102
RTVSPropertyOp42
 70
     1
102
RTVSPropertyOp43
 70
     1
102
RTVSPropertyOp44
 70
     1
102
RTVSPropertyOp45
 70
     1
102
RTVSPropertyOp46
 70
     1
102
RTVSPropertyOp47
 70
     1
102
RTVSPropertyOp48
 70
     1
102
RTVSPropertyOp49
 70
     1
102
RTVSPropertyOp50
 70
     1
102
RTVSPropertyOp51
 70
     0
102
RTVSPropertyOp52
 70
     0
102
RTVSPropertyOp53
 70
     1
102
RTVSPropertyOp54
 70
     1
102
RTVSPropertyOp55
 70
     1
102
RTVSPropertyOp56
 70
     1
102
RTVSPropertyOp57
 70
     1
102
RTVSPost2010Prop28
280
     0
102
RTVSPost2010PropOp28
 70
     1
102
RTVSPost2010Prop29
280
     1
102
RTVSPost2010PropOp29
 70
     1
102
RTVSPost2010Prop30
280
     1
102
RTVSPost2010PropOp30
 70
     1
102
RTVSPost2010Prop31
280
     0
102
RTVSPost2010PropOp31
 70
     1
102
RTVSPost2010Prop32
280
     0
102
RTVSPost2010PropOp32
 70
     1
102
RTVSPost2010Prop33
280
     0
102
RTVSPost2010PropOp33
 70
     1
102
RTVSPost2010Prop34
280
     0
102
RTVSPost2010PropOp34
 70
     1
102
RTVSPost2010Prop35
280
     0
102
RTVSPost2010PropOp35
 70
     1
102
RTVSPost2010Prop36
280
     0
102
RTVSPost2010PropOp36
 70
     1
102
RTVSPost2010Prop37
 90
       50
102
RTVSPost2010PropOp37
 70
     1
102
RTVSPost2010Prop38
140
0.0
102
RTVSPost2010PropOp38
 70
     1
102
RTVSPost2010Prop39
140
1.0
102
RTVSPost2010PropOp39
 70
     1
102
RTVSPost2010Prop40
 90
        0
102
RTVSPost2010PropOp40
 70
     1
102
RTVSPost2010Prop41ColorIndex
 90
       18
102
RTVSPost2010Prop41ColorRGB
 90
        0
102
RTVSPost2010PropOp41
 70
     1
102
RTVSPost2010Prop42
 90
       50
102
RTVSPost2010PropOp42
 70
     1
102
RTVSPost2010Prop43
 90
        3
102
RTVSPost2010PropOp43
 70
     1
102
RTVSPost2010Prop44ColorIndex
 90
        5
102
RTVSPost2010Prop44ColorRGB
 90
      255
102
RTVSPost2010PropOp44
 70
     1
102
RTVSPost2010Prop45
280
     0
102
RTVSPost2010PropOp45
 70
     1
102
RTVSPost2010Prop46
 90
       50
102
RTVSPost2010PropOp46
 70
     1
102
RTVSPost2010Prop47
 90
       50
102
RTVSPost2010PropOp47
 70
     1
102
RTVSPost2010Prop48
 90
       50
102
RTVSPost2010PropOp48
 70
     1
102
RTVSPost2010Prop49
280
     0
102
RTVSPost2010PropOp49
 70
     1
102
RTVSPost2010Prop50
 90
       50
102
RTVSPost2010PropOp50
 70
     1
102
RTVSPost2010Prop51ColorIndex
 90
      256
102
RTVSPost2010Prop51ColorRGB
 90
-16777216
102
RTVSPost2010PropOp51
 70
     0
102
RTVSPost2010Prop52
140
1.0
102
RTVSPost2010PropOp52
 70
     0
102
RTVSPost2010Prop53
 90
        2
102
RTVSPost2010PropOp53
 70
     1
102
RTVSPost2010Prop54
  1
strokes_ogs.tif
102
RTVSPost2010PropOp54
 70
     1
102
RTVSPost2010Prop55
280
     0
102
RTVSPost2010PropOp55
 70
     1
102
RTVSPost2010Prop56
140
1.0
102
RTVSPost2010PropOp56
 70
     1
102
RTVSPost2010Prop57
140
1.0
102
RTVSPost2010PropOp57
 70
     1
  0
XRECORD
  5
702
102
{ACAD_REACTORS
330
701
102
}
330
701
100
AcDbXrecord
280
     1
102
RTVSPropertyOp0
 70
     1
102
RTVSPropertyOp1
 70
     1
102
RTVSPropertyOp2
 70
     1
102
RTVSPropertyOp3
 70
     1
102
RTVSPropertyOp4
 70
     1
102
RTVSPropertyOp5
 70
     1
102
RTVSPropertyOp6
 70
     1
102
RTVSPropertyOp7
 70
     1
102
RTVSPropertyOp8
 70
     1
102
RTVSPropertyOp9
 70
     1
102
RTVSPropertyOp10
 70
     1
102
RTVSPropertyOp11
 70
     1
102
RTVSPropertyOp12
 70
     1
102
RTVSPropertyOp13
 70
     1
102
RTVSPropertyOp14
 70
     1
102
RTVSPropertyOp15
 70
     1
102
RTVSPropertyOp16
 70
     1
102
RTVSPropertyOp17
 70
     1
102
RTVSPropertyOp18
 70
     1
102
RTVSPropertyOp19
 70
     1
102
RTVSPropertyOp20
 70
     1
102
RTVSPropertyOp21
 70
     1
102
RTVSPropertyOp22
 70
     1
102
RTVSPropertyOp23
 70
     1
102
RTVSPropertyOp24
 70
     1
102
RTVSPropertyOp25
 70
     1
102
RTVSPropertyOp26
 70
     1
102
RTVSPropertyOp27
 70
     1
102
RTVSPropertyOp28
 70
     1
102
RTVSPropertyOp29
 70
     1
102
RTVSPropertyOp30
 70
     1
102
RTVSPropertyOp31
 70
     1
102
RTVSPropertyOp32
 70
     1
102
RTVSPropertyOp33
 70
     1
102
RTVSPropertyOp34
 70
     1
102
RTVSPropertyOp35
 70
     1
102
RTVSPropertyOp36
 70
     1
102
RTVSPropertyOp37
 70
     1
102
RTVSPropertyOp38
 70
     1
102
RTVSPropertyOp39
 70
     1
102
RTVSPropertyOp40
 70
     1
102
RTVSPropertyOp41
 70
     1
102
RTVSPropertyOp42
 70
     1
102
RTVSPropertyOp43
 70
     1
102
RTVSPropertyOp44
 70
     1
102
RTVSPropertyOp45
 70
     1
102
RTVSPropertyOp46
 70
     1
102
RTVSPropertyOp47
 70
     1
102
RTVSPropertyOp48
 70
     1
102
RTVSPropertyOp49
 70
     1
102
RTVSPropertyOp50
 70
     1
102
RTVSPropertyOp51
 70
     0
102
RTVSPropertyOp52
 70
     0
102
RTVSPropertyOp53
 70
     1
102
RTVSPropertyOp54
 70
     1
102
RTVSPropertyOp55
 70
     1
102
RTVSPropertyOp56
 70
     1
102
RTVSPropertyOp57
 70
     1
102
RTVSPost2010Prop28
280
     0
102
RTVSPost2010PropOp28
 70
     1
102
RTVSPost2010Prop29
280
     1
102
RTVSPost2010PropOp29
 70
     1
102
RTVSPost2010Prop30
280
     1
102
RTVSPost2010PropOp30
 70
     1
102
RTVSPost2010Prop31
280
     0
102
RTVSPost2010PropOp31
 70
     1
102
RTVSPost2010Prop32
280
     0
102
RTVSPost2010PropOp32
 70
     1
102
RTVSPost2010Prop33
280
     0
102
RTVSPost2010PropOp33
 70
     1
102
RTVSPost2010Prop34
280
     0
102
RTVSPost2010PropOp34
 70
     1
102
RTVSPost2010Prop35
280
     0
102
RTVSPost2010PropOp35
 70
     1
102
RTVSPost2010Prop36
280
     0
102
RTVSPost2010PropOp36
 70
     1
102
RTVSPost2010Prop37
 90
       50
102
RTVSPost2010PropOp37
 70
     1
102
RTVSPost2010Prop38
140
0.0
102
RTVSPost2010PropOp38
 70
     1
102
RTVSPost2010Prop39
140
1.0
102
RTVSPost2010PropOp39
 70
     1
102
RTVSPost2010Prop40
 90
        0
102
RTVSPost2010PropOp40
 70
     1
102
RTVSPost2010Prop41ColorIndex
 90
       18
102
RTVSPost2010Prop41ColorRGB
 90
        0
102
RTVSPost2010PropOp41
 70
     1
102
RTVSPost2010Prop42
 90
       50
102
RTVSPost2010PropOp42
 70
     1
102
RTVSPost2010Prop43
 90
        3
102
RTVSPost2010PropOp43
 70
     1
102
RTVSPost2010Prop44ColorIndex
 90
        5
102
RTVSPost2010Prop44ColorRGB
 90
      255
102
RTVSPost2010PropOp44
 70
     1
102
RTVSPost2010Prop45
280
     0
102
RTVSPost2010PropOp45
 70
     1
102
RTVSPost2010Prop46
 90
       50
102
RTVSPost2010PropOp46
 70
     1
102
RTVSPost2010Prop47
 90
       50
102
RTVSPost2010PropOp47
 70
     1
102
RTVSPost2010Prop48
 90
       50
102
RTVSPost2010PropOp48
 70
     1
102
RTVSPost2010Prop49
280
     0
102
RTVSPost2010PropOp49
 70
     1
102
RTVSPost2010Prop50
 90
       50
102
RTVSPost2010PropOp50
 70
     1
102
RTVSPost2010Prop51ColorIndex
 90
      256
102
RTVSPost2010Prop51ColorRGB
 90
-16777216
102
RTVSPost2010PropOp51
 70
     0
102
RTVSPost2010Prop52
140
1.0
102
RTVSPost2010PropOp52
 70
     0
102
RTVSPost2010Prop53
 90
        2
102
RTVSPost2010PropOp53
 70
     1
102
RTVSPost2010Prop54
  1
strokes_ogs.tif
102
RTVSPost2010PropOp54
 70
     1
102
RTVSPost2010Prop55
280
     0
102
RTVSPost2010PropOp55
 70
     1
102
RTVSPost2010Prop56
140
1.0
102
RTVSPost2010PropOp56
 70
     1
102
RTVSPost2010Prop57
140
1.0
102
RTVSPost2010PropOp57
 70
     1
  0
XRECORD
  5
704
102
{ACAD_REACTORS
330
703
102
}
330
703
100
AcDbXrecord
280
     1
102
RTVSPropertyOp0
 70
     1
102
RTVSPropertyOp1
 70
     1
102
RTVSPropertyOp2
 70
     1
102
RTVSPropertyOp3
 70
     1
102
RTVSPropertyOp4
 70
     1
102
RTVSPropertyOp5
 70
     1
102
RTVSPropertyOp6
 70
     1
102
RTVSPropertyOp7
 70
     1
102
RTVSPropertyOp8
 70
     1
102
RTVSPropertyOp9
 70
     1
102
RTVSPropertyOp10
 70
     1
102
RTVSPropertyOp11
 70
     1
102
RTVSPropertyOp12
 70
     1
102
RTVSPropertyOp13
 70
     1
102
RTVSPropertyOp14
 70
     1
102
RTVSPropertyOp15
 70
     1
102
RTVSPropertyOp16
 70
     1
102
RTVSPropertyOp17
 70
     1
102
RTVSPropertyOp18
 70
     1
102
RTVSPropertyOp19
 70
     1
102
RTVSPropertyOp20
 70
     1
102
RTVSPropertyOp21
 70
     1
102
RTVSPropertyOp22
 70
     1
102
RTVSPropertyOp23
 70
     1
102
RTVSPropertyOp24
 70
     1
102
RTVSPropertyOp25
 70
     1
102
RTVSPropertyOp26
 70
     1
102
RTVSPropertyOp27
 70
     1
102
RTVSPropertyOp28
 70
     1
102
RTVSPropertyOp29
 70
     1
102
RTVSPropertyOp30
 70
     1
102
RTVSPropertyOp31
 70
     1
102
RTVSPropertyOp32
 70
     1
102
RTVSPropertyOp33
 70
     1
102
RTVSPropertyOp34
 70
     1
102
RTVSPropertyOp35
 70
     1
102
RTVSPropertyOp36
 70
     1
102
RTVSPropertyOp37
 70
     1
102
RTVSPropertyOp38
 70
     1
102
RTVSPropertyOp39
 70
     1
102
RTVSPropertyOp40
 70
     1
102
RTVSPropertyOp41
 70
     1
102
RTVSPropertyOp42
 70
     1
102
RTVSPropertyOp43
 70
     1
102
RTVSPropertyOp44
 70
     1
102
RTVSPropertyOp45
 70
     1
102
RTVSPropertyOp46
 70
     1
102
RTVSPropertyOp47
 70
     1
102
RTVSPropertyOp48
 70
     1
102
RTVSPropertyOp49
 70
     1
102
RTVSPropertyOp50
 70
     1
102
RTVSPropertyOp51
 70
     0
102
RTVSPropertyOp52
 70
     0
102
RTVSPropertyOp53
 70
     1
102
RTVSPropertyOp54
 70
     1
102
RTVSPropertyOp55
 70
     1
102
RTVSPropertyOp56
 70
     1
102
RTVSPropertyOp57
 70
     1
102
RTVSPost2010Prop28
280
     0
102
RTVSPost2010PropOp28
 70
     1
102
RTVSPost2010Prop29
280
     1
102
RTVSPost2010PropOp29
 70
     1
102
RTVSPost2010Prop30
280
     1
102
RTVSPost2010PropOp30
 70
     1
102
RTVSPost2010Prop31
280
     0
102
RTVSPost2010PropOp31
 70
     1
102
RTVSPost2010Prop32
280
     0
102
RTVSPost2010PropOp32
 70
     1
102
RTVSPost2010Prop33
280
     0
102
RTVSPost2010PropOp33
 70
     1
102
RTVSPost2010Prop34
280
     0
102
RTVSPost2010PropOp34
 70
     1
102
RTVSPost2010Prop35
280
     0
102
RTVSPost2010PropOp35
 70
     1
102
RTVSPost2010Prop36
280
     0
102
RTVSPost2010PropOp36
 70
     1
102
RTVSPost2010Prop37
 90
       50
102
RTVSPost2010PropOp37
 70
     1
102
RTVSPost2010Prop38
140
0.0
102
RTVSPost2010PropOp38
 70
     1
102
RTVSPost2010Prop39
140
1.0
102
RTVSPost2010PropOp39
 70
     1
102
RTVSPost2010Prop40
 90
        0
102
RTVSPost2010PropOp40
 70
     1
102
RTVSPost2010Prop41ColorIndex
 90
       18
102
RTVSPost2010Prop41ColorRGB
 90
        0
102
RTVSPost2010PropOp41
 70
     1
102
RTVSPost2010Prop42
 90
       50
102
RTVSPost2010PropOp42
 70
     1
102
RTVSPost2010Prop43
 90
        3
102
RTVSPost2010PropOp43
 70
     1
102
RTVSPost2010Prop44ColorIndex
 90
        5
102
RTVSPost2010Prop44ColorRGB
 90
      255
102
RTVSPost2010PropOp44
 70
     1
102
RTVSPost2010Prop45
280
     0
102
RTVSPost2010PropOp45
 70
     1
102
RTVSPost2010Prop46
 90
       50
102
RTVSPost2010PropOp46
 70
     1
102
RTVSPost2010Prop47
 90
       50
102
RTVSPost2010PropOp47
 70
     1
102
RTVSPost2010Prop48
 90
       50
102
RTVSPost2010PropOp48
 70
     1
102
RTVSPost2010Prop49
280
     0
102
RTVSPost2010PropOp49
 70
     1
102
RTVSPost2010Prop50
 90
       50
102
RTVSPost2010PropOp50
 70
     1
102
RTVSPost2010Prop51ColorIndex
 90
      256
102
RTVSPost2010Prop51ColorRGB
 90
-16777216
102
RTVSPost2010PropOp51
 70
     0
102
RTVSPost2010Prop52
140
1.0
102
RTVSPost2010PropOp52
 70
     0
102
RTVSPost2010Prop53
 90
        2
102
RTVSPost2010PropOp53
 70
     1
102
RTVSPost2010Prop54
  1
strokes_ogs.tif
102
RTVSPost2010PropOp54
 70
     1
102
RTVSPost2010Prop55
280
     0
102
RTVSPost2010PropOp55
 70
     1
102
RTVSPost2010Prop56
140
1.0
102
RTVSPost2010PropOp56
 70
     1
102
RTVSPost2010Prop57
140
1.0
102
RTVSPost2010PropOp57
 70
     1
  0
XRECORD
  5
6F4
102
{ACAD_REACTORS
330
6F3
102
}
330
6F3
100
AcDbXrecord
280
     1
102
RTVSPropertyOp0
 70
     1
102
RTVSPropertyOp1
 70
     1
102
RTVSPropertyOp2
 70
     1
102
RTVSPropertyOp3
 70
     1
102
RTVSPropertyOp4
 70
     1
102
RTVSPropertyOp5
 70
     1
102
RTVSPropertyOp6
 70
     1
102
RTVSPropertyOp7
 70
     1
102
RTVSPropertyOp8
 70
     1
102
RTVSPropertyOp9
 70
     1
102
RTVSPropertyOp10
 70
     1
102
RTVSPropertyOp11
 70
     1
102
RTVSPropertyOp12
 70
     1
102
RTVSPropertyOp13
 70
     1
102
RTVSPropertyOp14
 70
     1
102
RTVSPropertyOp15
 70
     1
102
RTVSPropertyOp16
 70
     1
102
RTVSPropertyOp17
 70
     1
102
RTVSPropertyOp18
 70
     1
102
RTVSPropertyOp19
 70
     1
102
RTVSPropertyOp20
 70
     1
102
RTVSPropertyOp21
 70
     1
102
RTVSPropertyOp22
 70
     1
102
RTVSPropertyOp23
 70
     1
102
RTVSPropertyOp24
 70
     1
102
RTVSPropertyOp25
 70
     1
102
RTVSPropertyOp26
 70
     1
102
RTVSPropertyOp27
 70
     1
102
RTVSPropertyOp28
 70
     1
102
RTVSPropertyOp29
 70
     1
102
RTVSPropertyOp30
 70
     1
102
RTVSPropertyOp31
 70
     1
102
RTVSPropertyOp32
 70
     1
102
RTVSPropertyOp33
 70
     1
102
RTVSPropertyOp34
 70
     1
102
RTVSPropertyOp35
 70
     1
102
RTVSPropertyOp36
 70
     1
102
RTVSPropertyOp37
 70
     1
102
RTVSPropertyOp38
 70
     1
102
RTVSPropertyOp39
 70
     1
102
RTVSPropertyOp40
 70
     1
102
RTVSPropertyOp41
 70
     1
102
RTVSPropertyOp42
 70
     1
102
RTVSPropertyOp43
 70
     1
102
RTVSPropertyOp44
 70
     1
102
RTVSPropertyOp45
 70
     1
102
RTVSPropertyOp46
 70
     1
102
RTVSPropertyOp47
 70
     1
102
RTVSPropertyOp48
 70
     1
102
RTVSPropertyOp49
 70
     1
102
RTVSPropertyOp50
 70
     1
102
RTVSPropertyOp51
 70
     0
102
RTVSPropertyOp52
 70
     0
102
RTVSPropertyOp53
 70
     1
102
RTVSPropertyOp54
 70
     1
102
RTVSPropertyOp55
 70
     1
102
RTVSPropertyOp56
 70
     1
102
RTVSPropertyOp57
 70
     1
102
RTVSPost2010Prop28
280
     0
102
RTVSPost2010PropOp28
 70
     1
102
RTVSPost2010Prop29
280
     1
102
RTVSPost2010PropOp29
 70
     1
102
RTVSPost2010Prop30
280
     1
102
RTVSPost2010PropOp30
 70
     1
102
RTVSPost2010Prop31
280
     0
102
RTVSPost2010PropOp31
 70
     1
102
RTVSPost2010Prop32
280
     0
102
RTVSPost2010PropOp32
 70
     1
102
RTVSPost2010Prop33
280
     0
102
RTVSPost2010PropOp33
 70
     1
102
RTVSPost2010Prop34
280
     0
102
RTVSPost2010PropOp34
 70
     1
102
RTVSPost2010Prop35
280
     0
102
RTVSPost2010PropOp35
 70
     1
102
RTVSPost2010Prop36
280
     0
102
RTVSPost2010PropOp36
 70
     1
102
RTVSPost2010Prop37
 90
       50
102
RTVSPost2010PropOp37
 70
     1
102
RTVSPost2010Prop38
140
0.0
102
RTVSPost2010PropOp38
 70
     1
102
RTVSPost2010Prop39
140
1.0
102
RTVSPost2010PropOp39
 70
     1
102
RTVSPost2010Prop40
 90
        0
102
RTVSPost2010PropOp40
 70
     1
102
RTVSPost2010Prop41ColorIndex
 90
       18
102
RTVSPost2010Prop41ColorRGB
 90
        0
102
RTVSPost2010PropOp41
 70
     1
102
RTVSPost2010Prop42
 90
       50
102
RTVSPost2010PropOp42
 70
     1
102
RTVSPost2010Prop43
 90
        3
102
RTVSPost2010PropOp43
 70
     1
102
RTVSPost2010Prop44ColorIndex
 90
        5
102
RTVSPost2010Prop44ColorRGB
 90
      255
102
RTVSPost2010PropOp44
 70
     1
102
RTVSPost2010Prop45
280
     0
102
RTVSPost2010PropOp45
 70
     1
102
RTVSPost2010Prop46
 90
       50
102
RTVSPost2010PropOp46
 70
     1
102
RTVSPost2010Prop47
 90
       50
102
RTVSPost2010PropOp47
 70
     1
102
RTVSPost2010Prop48
 90
       50
102
RTVSPost2010PropOp48
 70
     1
102
RTVSPost2010Prop49
280
     0
102
RTVSPost2010PropOp49
 70
     1
102
RTVSPost2010Prop50
 90
       50
102
RTVSPost2010PropOp50
 70
     1
102
RTVSPost2010Prop51ColorIndex
 90
      256
102
RTVSPost2010Prop51ColorRGB
 90
-16777216
102
RTVSPost2010PropOp51
 70
     0
102
RTVSPost2010Prop52
140
1.0
102
RTVSPost2010PropOp52
 70
     0
102
RTVSPost2010Prop53
 90
        2
102
RTVSPost2010PropOp53
 70
     1
102
RTVSPost2010Prop54
  1
strokes_ogs.tif
102
RTVSPost2010PropOp54
 70
     1
102
RTVSPost2010Prop55
280
     0
102
RTVSPost2010PropOp55
 70
     1
102
RTVSPost2010Prop56
140
1.0
102
RTVSPost2010PropOp56
 70
     1
102
RTVSPost2010Prop57
140
1.0
102
RTVSPost2010PropOp57
 70
     1
  0
XRECORD
  5
6DE
102
{ACAD_REACTORS
330
6DD
102
}
330
6DD
100
AcDbXrecord
280
     1
102
RTVSPropertyOp0
 70
     1
102
RTVSPropertyOp1
 70
     1
102
RTVSPropertyOp2
 70
     1
102
RTVSPropertyOp3
 70
     1
102
RTVSPropertyOp4
 70
     1
102
RTVSPropertyOp5
 70
     1
102
RTVSPropertyOp6
 70
     1
102
RTVSPropertyOp7
 70
     1
102
RTVSPropertyOp8
 70
     1
102
RTVSPropertyOp9
 70
     1
102
RTVSPropertyOp10
 70
     1
102
RTVSPropertyOp11
 70
     1
102
RTVSPropertyOp12
 70
     1
102
RTVSPropertyOp13
 70
     1
102
RTVSPropertyOp14
 70
     1
102
RTVSPropertyOp15
 70
     1
102
RTVSPropertyOp16
 70
     1
102
RTVSPropertyOp17
 70
     1
102
RTVSPropertyOp18
 70
     1
102
RTVSPropertyOp19
 70
     1
102
RTVSPropertyOp20
 70
     1
102
RTVSPropertyOp21
 70
     1
102
RTVSPropertyOp22
 70
     1
102
RTVSPropertyOp23
 70
     1
102
RTVSPropertyOp24
 70
     1
102
RTVSPropertyOp25
 70
     1
102
RTVSPropertyOp26
 70
     1
102
RTVSPropertyOp27
 70
     1
102
RTVSPropertyOp28
 70
     1
102
RTVSPropertyOp29
 70
     1
102
RTVSPropertyOp30
 70
     1
102
RTVSPropertyOp31
 70
     1
102
RTVSPropertyOp32
 70
     1
102
RTVSPropertyOp33
 70
     1
102
RTVSPropertyOp34
 70
     1
102
RTVSPropertyOp35
 70
     1
102
RTVSPropertyOp36
 70
     1
102
RTVSPropertyOp37
 70
     1
102
RTVSPropertyOp38
 70
     1
102
RTVSPropertyOp39
 70
     1
102
RTVSPropertyOp40
 70
     1
102
RTVSPropertyOp41
 70
     1
102
RTVSPropertyOp42
 70
     1
102
RTVSPropertyOp43
 70
     1
102
RTVSPropertyOp44
 70
     1
102
RTVSPropertyOp45
 70
     1
102
RTVSPropertyOp46
 70
     1
102
RTVSPropertyOp47
 70
     1
102
RTVSPropertyOp48
 70
     1
102
RTVSPropertyOp49
 70
     1
102
RTVSPropertyOp50
 70
     1
102
RTVSPropertyOp51
 70
     0
102
RTVSPropertyOp52
 70
     0
102
RTVSPropertyOp53
 70
     1
102
RTVSPropertyOp54
 70
     1
102
RTVSPropertyOp55
 70
     1
102
RTVSPropertyOp56
 70
     1
102
RTVSPropertyOp57
 70
     1
102
RTVSPost2010Prop28
280
     0
102
RTVSPost2010PropOp28
 70
     1
102
RTVSPost2010Prop29
280
     1
102
RTVSPost2010PropOp29
 70
     1
102
RTVSPost2010Prop30
280
     1
102
RTVSPost2010PropOp30
 70
     1
102
RTVSPost2010Prop31
280
     0
102
RTVSPost2010PropOp31
 70
     1
102
RTVSPost2010Prop32
280
     0
102
RTVSPost2010PropOp32
 70
     1
102
RTVSPost2010Prop33
280
     0
102
RTVSPost2010PropOp33
 70
     1
102
RTVSPost2010Prop34
280
     0
102
RTVSPost2010PropOp34
 70
     1
102
RTVSPost2010Prop35
280
     0
102
RTVSPost2010PropOp35
 70
     1
102
RTVSPost2010Prop36
280
     0
102
RTVSPost2010PropOp36
 70
     1
102
RTVSPost2010Prop37
 90
       50
102
RTVSPost2010PropOp37
 70
     1
102
RTVSPost2010Prop38
140
0.0
102
RTVSPost2010PropOp38
 70
     1
102
RTVSPost2010Prop39
140
1.0
102
RTVSPost2010PropOp39
 70
     1
102
RTVSPost2010Prop40
 90
        0
102
RTVSPost2010PropOp40
 70
     1
102
RTVSPost2010Prop41ColorIndex
 90
       18
102
RTVSPost2010Prop41ColorRGB
 90
        0
102
RTVSPost2010PropOp41
 70
     1
102
RTVSPost2010Prop42
 90
       50
102
RTVSPost2010PropOp42
 70
     1
102
RTVSPost2010Prop43
 90
        3
102
RTVSPost2010PropOp43
 70
     1
102
RTVSPost2010Prop44ColorIndex
 90
        5
102
RTVSPost2010Prop44ColorRGB
 90
      255
102
RTVSPost2010PropOp44
 70
     1
102
RTVSPost2010Prop45
280
     0
102
RTVSPost2010PropOp45
 70
     1
102
RTVSPost2010Prop46
 90
       50
102
RTVSPost2010PropOp46
 70
     1
102
RTVSPost2010Prop47
 90
       50
102
RTVSPost2010PropOp47
 70
     1
102
RTVSPost2010Prop48
 90
       50
102
RTVSPost2010PropOp48
 70
     1
102
RTVSPost2010Prop49
280
     0
102
RTVSPost2010PropOp49
 70
     1
102
RTVSPost2010Prop50
 90
       50
102
RTVSPost2010PropOp50
 70
     1
102
RTVSPost2010Prop51ColorIndex
 90
      256
102
RTVSPost2010Prop51ColorRGB
 90
-16777216
102
RTVSPost2010PropOp51
 70
     0
102
RTVSPost2010Prop52
140
1.0
102
RTVSPost2010PropOp52
 70
     0
102
RTVSPost2010Prop53
 90
        2
102
RTVSPost2010PropOp53
 70
     1
102
RTVSPost2010Prop54
  1
strokes_ogs.tif
102
RTVSPost2010PropOp54
 70
     1
102
RTVSPost2010Prop55
280
     0
102
RTVSPost2010PropOp55
 70
     1
102
RTVSPost2010Prop56
140
1.0
102
RTVSPost2010PropOp56
 70
     1
102
RTVSPost2010Prop57
140
1.0
102
RTVSPost2010PropOp57
 70
     1
  0
XRECORD
  5
706
102
{ACAD_REACTORS
330
705
102
}
330
705
100
AcDbXrecord
280
     1
102
RTVSPropertyOp0
 70
     1
102
RTVSPropertyOp1
 70
     1
102
RTVSPropertyOp2
 70
     1
102
RTVSPropertyOp3
 70
     1
102
RTVSPropertyOp4
 70
     1
102
RTVSPropertyOp5
 70
     1
102
RTVSPropertyOp6
 70
     1
102
RTVSPropertyOp7
 70
     1
102
RTVSPropertyOp8
 70
     1
102
RTVSPropertyOp9
 70
     1
102
RTVSPropertyOp10
 70
     1
102
RTVSPropertyOp11
 70
     1
102
RTVSPropertyOp12
 70
     1
102
RTVSPropertyOp13
 70
     1
102
RTVSPropertyOp14
 70
     1
102
RTVSPropertyOp15
 70
     1
102
RTVSPropertyOp16
 70
     1
102
RTVSPropertyOp17
 70
     1
102
RTVSPropertyOp18
 70
     1
102
RTVSPropertyOp19
 70
     1
102
RTVSPropertyOp20
 70
     1
102
RTVSPropertyOp21
 70
     1
102
RTVSPropertyOp22
 70
     1
102
RTVSPropertyOp23
 70
     1
102
RTVSPropertyOp24
 70
     1
102
RTVSPropertyOp25
 70
     1
102
RTVSPropertyOp26
 70
     1
102
RTVSPropertyOp27
 70
     1
102
RTVSPropertyOp28
 70
     1
102
RTVSPropertyOp29
 70
     1
102
RTVSPropertyOp30
 70
     1
102
RTVSPropertyOp31
 70
     1
102
RTVSPropertyOp32
 70
     1
102
RTVSPropertyOp33
 70
     1
102
RTVSPropertyOp34
 70
     1
102
RTVSPropertyOp35
 70
     1
102
RTVSPropertyOp36
 70
     1
102
RTVSPropertyOp37
 70
     1
102
RTVSPropertyOp38
 70
     1
102
RTVSPropertyOp39
 70
     1
102
RTVSPropertyOp40
 70
     1
102
RTVSPropertyOp41
 70
     1
102
RTVSPropertyOp42
 70
     1
102
RTVSPropertyOp43
 70
     1
102
RTVSPropertyOp44
 70
     1
102
RTVSPropertyOp45
 70
     1
102
RTVSPropertyOp46
 70
     1
102
RTVSPropertyOp47
 70
     1
102
RTVSPropertyOp48
 70
     1
102
RTVSPropertyOp49
 70
     1
102
RTVSPropertyOp50
 70
     1
102
RTVSPropertyOp51
 70
     0
102
RTVSPropertyOp52
 70
     0
102
RTVSPropertyOp53
 70
     1
102
RTVSPropertyOp54
 70
     1
102
RTVSPropertyOp55
 70
     1
102
RTVSPropertyOp56
 70
     1
102
RTVSPropertyOp57
 70
     1
102
RTVSPost2010Prop28
280
     0
102
RTVSPost2010PropOp28
 70
     1
102
RTVSPost2010Prop29
280
     1
102
RTVSPost2010PropOp29
 70
     1
102
RTVSPost2010Prop30
280
     1
102
RTVSPost2010PropOp30
 70
     1
102
RTVSPost2010Prop31
280
     0
102
RTVSPost2010PropOp31
 70
     1
102
RTVSPost2010Prop32
280
     0
102
RTVSPost2010PropOp32
 70
     1
102
RTVSPost2010Prop33
280
     0
102
RTVSPost2010PropOp33
 70
     1
102
RTVSPost2010Prop34
280
     0
102
RTVSPost2010PropOp34
 70
     1
102
RTVSPost2010Prop35
280
     0
102
RTVSPost2010PropOp35
 70
     1
102
RTVSPost2010Prop36
280
     0
102
RTVSPost2010PropOp36
 70
     1
102
RTVSPost2010Prop37
 90
       50
102
RTVSPost2010PropOp37
 70
     1
102
RTVSPost2010Prop38
140
0.0
102
RTVSPost2010PropOp38
 70
     1
102
RTVSPost2010Prop39
140
1.0
102
RTVSPost2010PropOp39
 70
     1
102
RTVSPost2010Prop40
 90
        0
102
RTVSPost2010PropOp40
 70
     1
102
RTVSPost2010Prop41ColorIndex
 90
       18
102
RTVSPost2010Prop41ColorRGB
 90
        0
102
RTVSPost2010PropOp41
 70
     1
102
RTVSPost2010Prop42
 90
       50
102
RTVSPost2010PropOp42
 70
     1
102
RTVSPost2010Prop43
 90
        3
102
RTVSPost2010PropOp43
 70
     1
102
RTVSPost2010Prop44ColorIndex
 90
        5
102
RTVSPost2010Prop44ColorRGB
 90
      255
102
RTVSPost2010PropOp44
 70
     1
102
RTVSPost2010Prop45
280
     0
102
RTVSPost2010PropOp45
 70
     1
102
RTVSPost2010Prop46
 90
       50
102
RTVSPost2010PropOp46
 70
     1
102
RTVSPost2010Prop47
 90
       50
102
RTVSPost2010PropOp47
 70
     1
102
RTVSPost2010Prop48
 90
       50
102
RTVSPost2010PropOp48
 70
     1
102
RTVSPost2010Prop49
280
     0
102
RTVSPost2010PropOp49
 70
     1
102
RTVSPost2010Prop50
 90
       50
102
RTVSPost2010PropOp50
 70
     1
102
RTVSPost2010Prop51ColorIndex
 90
      256
102
RTVSPost2010Prop51ColorRGB
 90
-16777216
102
RTVSPost2010PropOp51
 70
     0
102
RTVSPost2010Prop52
140
1.0
102
RTVSPost2010PropOp52
 70
     0
102
RTVSPost2010Prop53
 90
        2
102
RTVSPost2010PropOp53
 70
     1
102
RTVSPost2010Prop54
  1
strokes_ogs.tif
102
RTVSPost2010PropOp54
 70
     1
102
RTVSPost2010Prop55
280
     0
102
RTVSPost2010PropOp55
 70
     1
102
RTVSPost2010Prop56
140
1.0
102
RTVSPost2010PropOp56
 70
     1
102
RTVSPost2010Prop57
140
1.0
102
RTVSPost2010PropOp57
 70
     1
  0
ENDSEC
  0
SECTION
  2
THUMBNAILIMAGE
 90
    16364
310
28000000B4000000550000000100080000000000C43B000000000000000000000001000000010000FFFFFF000000FF0000FFFF0000FF0000FFFF0000FF000000FF00FF000000000080808000C0C0C0000000FF007F7FFF000000A5005252A50000007F003F3F7F0000004C0026264C000000260013132600003FFF007F9FFF
310
000029A5005267A500001F7F003F4F7F0000134C00262F4C000009260013172600007FFF007FBFFF000052A500527CA500003F7F003F5F7F0000264C0026394C0000132600131C260000BFFF007FDFFF00007CA5005291A500005F7F003F6F7F0000394C0026424C00001C26001321260000FFFF007FFFFF0000A5A50052A5
310
A500007F7F003F7F7F00004C4C00264C4C00002626001326260000FFBF007FFFDF0000A57C0052A59100007F5F003F7F6F00004C3900264C420000261C001326210000FF7F007FFFBF0000A5520052A57C00007F3F003F7F5F00004C2600264C39000026130013261C0000FF3F007FFF9F0000A5290052A56700007F1F003F
310
7F4F00004C1300264C2F00002609001326170000FF00007FFF7F0000A5000052A55200007F00003F7F3F00004C0000264C260000260000132613003FFF00009FFF7F0029A5000067A552001F7F00004F7F3F00134C00002F4C260009260000172613007FFF0000BFFF7F0052A500007CA552003F7F00005F7F3F00264C0000
310
394C2600132600001C261300BFFF0000DFFF7F007CA5000091A552005F7F00006F7F3F00394C0000424C26001C26000021261300FFFF0000FFFF7F00A5A50000A5A552007F7F00007F7F3F004C4C00004C4C26002626000026261300FFBF0000FFDF7F00A57C0000A59152007F5F00007F6F3F004C3900004C422600261C00
310
0026211300FF7F0000FFBF7F00A5520000A57C52007F3F00007F5F3F004C2600004C39260026130000261C1300FF3F0000FF9F7F00A5290000A56752007F1F00007F4F3F004C1300004C2F26002609000026171300FF000000FF7F7F00A5000000A55252007F0000007F3F3F004C0000004C2626002600000026131300FF00
310
3F00FF7F9F00A5002900A55267007F001F007F3F4F004C0013004C262F002600090026131700FF007F00FF7FBF00A5005200A5527C007F003F007F3F5F004C0026004C2639002600130026131C00FF00BF00FF7FDF00A5007C00A55291007F005F007F3F6F004C0039004C26420026001C0026132100FF00FF00FF7FFF00A5
310
00A500A552A5007F007F007F3F7F004C004C004C264C002600260026132600BF00FF00DF7FFF007C00A5009152A5005F007F006F3F7F0039004C0042264C001C002600211326007F00FF00BF7FFF005200A5007C52A5003F007F005F3F7F0026004C0039264C00130026001C1326003F00FF009F7FFF002900A5006752A500
310
1F007F004F3F7F0013004C002F264C000900260017132600000000002D2D2D005B5B5B0089898900B7B7B700B3B3B30000000000000000000000000000000000000000000000000000000000000000000000000000000000000000000000000000000000000000000000000000000000000000000000000000000000000000
310
00000000000000000000000000000000000000000000000000000000000000000000000000000000000000000000000000000000000000000000000000000000000000000000000000000000000000000000000000000000000000000000000000000000000000000000000000000000000000000000000000000000000000
310
00000000000000000000000000000000000000000000000000000000000000000000000000000000000000000000000000000000000000000000000000000000000000000000000000000000000000000000000000000000000000000000000000000000000000000000000000000000000000000000000000000000000000
310
00000000000000000000000000000000000000000000000000000000000000000000000000000000000000000000000000000000000000000000000000000000000000000000000000000000000000000000000000000000000000000000000000000000000000000000000000000000000000000000000000000000000000
310
00000000000000000000000000000000000000000000000000000000000000000000000000000000000000000000000000000000000000000000000000000000000000000000000000000000000000000000000000000000000000000000000000000000000000000000000000000000000000000000000000000000000000
310
00000000000000000000000000000000000000000000000000000000000000000000000000000000000000000000000000000000000000000000000000000000000000000000000000000000000000000000000000000000000000000000000000000000000000000000000000000000000000000000000000000000000000
310
00000000000000000000000000000000000000000000000000000000000000000000000000000000000000000000000000000000000000000000000000000000000000000000000000000000000000000000000000000000000000000000000000000000000000000000000000000000000000000000000000000000000000
310
00000000000000000000000000000000000000000000000000000000000000000000000000000000000000000000000000000000000000000000000000000000000000000000000000000000000000000000000000000000000000000000000000000000000000000000000000000000000000000000000000000000000000
310
00000000000000000000000000000000000000000000000000000000000000000000000000000000000000000000000000000000000000000000000000000000000000000000000000000000000000000000000000000000000000000000000000000000000000000000000000000000000000000000000000000000000000
310
00000000000000000000000000000000000000000000000000000000000000000000000000000000000000000000000000000000000000000000000000000000000000000000000000000000000000000000000000000000000000000000000000000000000000000000000000000000000000000000000000000000000000
310
00000000000000000000000000000000000000000000000000000000000000000000000000000000000000000000000000000000000000000000000000000000000000000000000000000000000000000000000000000000000000000000000000000000000000000000000000000000000000000000000000000000000000
310
00000000000000000000000000000000000000000000000000000000000000000000000000000000000000000000000000000000000000000000000000000000000000000000000000000000000000000000000000000000000000000000000000000000000000000000000000000000000000000000000000000000000000
310
00000000000100000000000000000000000000000000000000000000000000000000000000000000000000000000000000000000000000000001000000000000000000000000000000000000000000000000000000000000000000000000000000000000000000000000000000000000000000000000000000000000000000
310
00000000000000000000000000000000000000000000000000000000000000000000000000000000000000000000000000000000000000000303030303000000000000000000000000000000000000000000000000000000000000000000000000000000000000000000000003030303030000000000000000000000000000
310
00000000000000000000000000000000000000000000000000000000000000000000000000000000000000000000000000000000000000000000000000000000000000000000000000000000000000000000000000000000000000000000000000000000000000000000000000030303000300000000000000000000000000
310
00000000000000000000000000000000000000000000000000000000000000000000030001000300000000000000000000000000000000000000000000000000000000000000000000000000000000000000000000000000000000000000000000000000000000000000000000000000000000000000000000000000000000
310
00000000000000000000000000000000000000000000000000000000000000000000000303030003000000000000000000000000000000000000000000000000000000000000000000000000000000000000000000000003000100030000000000000000000000000000000000000000000000000000000000000000000000
310
00000000000000000000000000000000000000000000000000000000000000000000000000000000000000000000000000000000000000000000000000000000000000000000000000000000000000000000000000000000030303000300000000000000000000000000000000000000000000000000000000000000000000
310
00000000000000000000000000030001000300000000000000000000000000000000000000000000000000000000000000000000000000000000000000000000000000000000000000000000000000000000000000000000000000000000000000000000000000000000000000000000000000000000000000000000000000
310
00000000000000000000000000000303030003000000000000000000000000000000000000000000000000020202020202000000000000000000000000000000000003000100030000000000000000000000000000000000000000000000000000000000000000000000000000000000000000000000000000000000000000
310
00000000000000000000000000000000000000000000000000000000000000000000000000000000000000000000000000000000000000000000000000000100000000030303000300000000000000000000000100000000000000000000000002020202020200000000000000010000000000000000000300010003000000
310
00000000000000010000000000000000000000000000000000000000000000000000000000000000000000000000000000000000000000000000000000000000000000000000000000000000000000000000000000000000000000000000000000000000000000000000000000000000000303010303030303030300030100
310
00000100000303030301030303000000000000000000000000000000000000000003030103030303030300000103000100030100000003030303030301030000000000000000000000000000000000000000000000000000000000000000000000000000000000000000000000000000000000000000000000000000000000
310
00000000000000000000000000000000000000000000000000000000000000000000000000000003000100000000030303030303030303030301030000000100000300000000000000000000000000000000000000000300010000000000030303010303030303030303000300000000000103000000000000000000000000
310
00000000000000000000000000000000000000000000000000000000000000000000000000000000000000000000000000000000000000000000000000000000000000000000000000000000000000000000000000000000000000030303010303030303030103030101030301030103030303010303030000000000000000
310
00000000000000000000000003030303030303030303030103010103010303030303010303030303030000000000000000000000000000000000000000000000000000000000000000000000000000000000000000000000000000000000000000000000000000000000000000000000000000000000000000000000000000
310
00000000000000000000000000000000030300000000000003030001000000010000000001030300000000000303030000000000000000000000000000000000000300030000000000000000000001010000000003030303030303010301000000000000000000000000000000000000000000000000000000000000000000
310
00000000000000000000000000000000000000000000000000000000000000000000000000000000000000000000000000000000000000000000000000000000000000000003010100000000000000000100000001000000000100000000000000010303000000000000000000000000000000000000030000000000000000
310
00000000010100000000030303030303030003030000000000000000000000000000000000000000000000000000000000000000000000000000000000000000000000000000000000000000000000000000000000000000000000000000000000000000000000000000000000000000000000000000000000000303000000
310
00000000000001000000010000000001000000000000000303030303030300000000000000000000000000000300000000000000000000000001010000000003030303030003000300000000000000000000000000000000000000000000000000000000000000000000000000000000000000000000000000000000000000
310
00000000000000000000000000000000000000000000000000000000000000000000000000000000000000000000000003030101010101010101010101010101010101010101010101010101030303010101030000000000000000000000000000030000000000000000000000000101000000010303030103010300030000
310
00000000000000000000000000000000000000000000000000000000000000000000000000000000000000000000000000000000000000000000000000000000000000000000000000000000000000000000000000000000000000000000000000000000000303000000000000000000010000000100000000010000000000
310
00000303030303030300000000000000000000000000000300000000000000000000000001010000000003030303010303000300000000000000000000000000000000000000000000000000000000000000000000000000000000000000000000000000000000000000000000000000000000000000000000000000000000
310
00000000000000000000000000000000000000000000000000000003010100000000000000000100000001000000000100000000000000010303000000000000000000000000000000000000030000000000000000000000000101000000000303000103030300030000000000000000000000000000000000000000000000
310
00000000000000000000000000000000000000000000000000000000000000000000000000000000000000000000000000000000000000000000000000000000000000000000000000000000000000000303000000000000000000010000000100000000010000000000000003030000000000000000000000000000000000
310
00000300000000000000000000000001010000000003030303030303000303000000000000000000000000000000000000000000000000000000000000000000000000000000000000000000000000000000000000000000000000000000000000000000000000000000000000000000000000000000000000000000000000
310
00000000000000030000000000000000000100000001000000000100000000000000030000000000000000000000000000000000000000030000000000000000000000000101000000000000000000000001030300000000000000000000000000000000000000000000000000000000000000000000000000000000000000
310
00000000000000000000000000000000000000000000000000000000000000000000000000000000000000000000000000000000000000000000000003000000000000000000010000000100000000010000000000000003000000000000000000000000000000000000000003000000000000000000000000010100000000
310
00000000000000000303000000000000000000000000000000000000000000000000000000000000000000000000000000000000000000000000000000000000000000000000000000000000000000000000000000000000000000000000000000000000000000000000000000000000000303030303030303030303030303
310
03030303030303030303030103030000000000000000000000000000000000000000030301030303030303010303030101030303010303030303030103030000000000000000000000000000000000000000000000000000000000000000000000000000000000000000000000000000000000000000000000000000000000
310
00000000000000000000000000000000000000000000000000000000000000000000000000000000030303030303010301030303010103030103030301030303030303000000000000000000000000000000000000000000030303030103030303030103010103010103030303010303030303000000000000000000000000
310
00000000000000000000000000000000000000000000000000000000000000000000000000000000000000000000000000000000000000000000000000000000000000000000000000000000000000000000000000000000000000000000030303030303030103030303030303030301030303030301030000000000000000
310
00000000000000000000000000000001030303030303030303030303030303010303030303030103000000000000000000000000000000000000000000000000000000000000000000000000000000000000000000000000000000000000000000000000000000000000000000000000000000000000000000000000000000
310
00000000000000000000000000000000000000000000000000030303030303030300030300000003030000000000000000000000000000000000000000000000000000000003030303030000000303030303030300000003010303000000000000000000000000000000000000000000000000000000000000000000000000
310
00000000000000000000000000000000000000000000000000000000000000000000000000000000000000000000000000000000000000000000000000000000000000000000000000000000000000030303000301010100000000000000000000000000000000000000000000000000000000000000000000000101010101
310
00000000030001000300000001030101030100000000000000000000000000000000000000000000000000000000000000000000000000000000000000000000000000000000000000000000000000000000000000000000000000000000000000000000000000000000000000000000000000000000000000000000000000
310
00000000000303030003030300000000000000000000000000000000000000000000000000000000000000000000000000030303000000000003000100030000000003010303000000000000000000000000000000000000000000000000000000000000000000000000000000000000000000000000000000000000000000
310
00000000000000000000000000000000000000000000000000000000000000000000000000000000000000000000000000000000000000000000030303000300010000000000000000000000000000000000000000000000000000000000000000000000000000010000000000000300010003000000000001000000000000
310
00000000000000000000000000000000000000000000000000000000000000000000000000000000000000000000000000000000000000000000000000000000000000000000000000000000000000000000000000000000000000000000000000000000000000000000000000000003030300030000000000000000000000
310
00000000000000000000000000000000000000000000000000000000000000000000000003000100030000000000000000000000000000000000000000000000000000000000000000000000000000000000000000000000000000000000000000000000000000000000000000000000000000000000000000000000000000
310
00000000000000000000000000000000000000000000000000000000000000000000000000030303000300000000000000000000000000000000000000000000000000000000000000000000000000000000000000000000000300010003000000000000000000000000000000000000000000000000000000000000000000
310
00000000000000000000000000000000000000000000000000000000000000000000000000000000000000000000000000000000000000000000000000000000000000000000000000000000000000000000000000000000000003030300030000000000000000000000000000000000000000000000000000000000000000
310
00000000000000000000000000000003000100030000000000000000000000000000000000000000000000000000000000000000000000000000000000000000000000000000000000000000000000000000000000000000000000000000000000000000000000000000000000000000000000000000000000000000000000
310
00000000000000000000000000000000030303030300000000000000000000000000000000000000000000000000000000000000000000000000000000000000000000000303030303000000000000000000000000000000000000000000000000000000000000000000000000000000000000000000000000000000000000
310
00000000000000000000000000000000000000000000000000000000000000000000000000000000000000000000000000000000000000000000000000000000000000000000000000000000000000000000000000000000000000000000000000000000000000000000000000000000000000000000000000000000000000
310
00000000000000000000000000000000000000000000000000000000000000000000000000000000000000000000000000000000000000000000000000000000000000000000000000000000000000000000000000000000000000000000000000000000000000000000000000000000000000000000000000000000000000
310
00000000000000000000000000000000000000000000000000000000000000000000000000000000000000000000000000000000000000000000000000000000000000000000000000000000000000000000000000000000000000000000000000000000000000000000000000000000000000000000000000000000000000
310
00000000000000000000000000000000000000000000000000000000000000000000000000000000000000000000000000000000000000000000000000000000000000000000000000000000000000000000000000000000000000000000000000000000000000000000000000000000000000000000000000000000000000
310
00000000000000000000000000000000000000000000000000000000000000000000000000000000000000000000000000000000000000000000000000000000000000000000000000000000000000000000000000000000000000000000000000000000000000000000000000000000000000000000000000000000000000
310
00000000000000000000000000000000000000000000000000000000000000000000000000000000000000000000000000000000000000000000000000000000000000000000000000000000000000000000000000000000000000000000000000000000000000000000000000000000000000000000000000000000000000
310
00000000000000000000000000000000000000000000000000000000000000000000000000000000000000000000000000000000000000000000000000000000000000000000000000000000000000000000000000000000000000000000000000000000000000000000000000000000000000000000000000000000000000
310
00000000000000000000000000000000000000000000000000000000000000000000000000000000000000000000000000000000000000000000000000000000000000000000000000000000000000000000000000000000000000000000000000000000000000000000000000000000000000000000000000000000000000
310
00000000000000000000000000000000000000000000000000000000000000000000000000000000000000000000000000000000000000000000000000000000000000000000000000000000000000000000000000000000000000000000000000000000000000000000000000000000000000000000000000000000000000
310
00000000000000000000000000000000000000000000000000000000000000000000000000000000000000000000000000000000000000000000000000000000000000000000000000000000000000000000000000000000000000000000000000000000000000000000000000000000000000000000000000000000000000
310
00000000000000000000000000000000000000000000000000000000000000000000000000000000000000000000000000000000000000000000000000000000000000000000000000000000000000000000000000000000000000000000000000000000000000000000000000000000000000000000000000000000000000
310
00000000000000000000000000000000000000000000000000000000000000000000000000000000000000000000000000000000000000000000000000000000000000000000000000000000000000000000000000000000000000000000000000000000000000000000000000000000000000000000000000000000000000
310
00000000000000000000000000000000000000000000000000000000000000000000000000000000000000000000000000000000000000000000000000000000000000000000000000000000000000000000000000000000000000000000000000000000000000000000000000000000000000000000000000000000000000
310
00000000000000000000000000000000000000000000000000000000000000000000000000000000000000000000000000000000000000000000000000000000000000000000000000000000000000000000000000000000000000000000000000000000000000000000000000000000000000000000000000000000000000
310
00000000000000000000000000000000000000000000000000000000000000000000000000000000000000000000000000000000000000000000000000000000000000000000000000000000000000000000000000000000000000000000000000000000000000000000000000000000000000000000000000000000000000
310
00000000000000000000000000000000000000000000000000000000000000000000000000000000000000000000000000000000000000000000000000000000000000000000000000000000000000000000000000000000000000000000000000000000000000000000000000000000000000000000000000000000000000
310
00000000000000000000000000000000000000000000000000000000000000000000000000000000000000000000000000000000000000000000000000000000000000000000000000000000000000000000000000000000000000000000000000000000000000000000000000000000000000000000000000000000000000
310
00000000000000000000000000000000000000000000000000000000000000000000000000000000000000000000000000000000000000000000000000000000000000000000000000000000000000000000000000000000000000000000000000000000000000000000000000000000000000000000000000000000000000
310
00000000000000000000000000000000000000000000000000000000000000000000000000000000000000000000000000000000000000000000000000000000000000000000000000000000000000000000000000000000000000000000000000000000000000000000000000000000000000000303030303030303000000
310
03030103030000000303030303030303000000000000000000000000000000000000000000000000000000000000000000000000000000000000000000000000000000000000000000000000000000000000000000000000000000000000000000000000000000000000000000000000000000000000000000000000000000
310
00000000000000000000000000000000000000000000000000000000000000000000000000000000000003000100000003030103030303010303030301030300000100000300000000000000000000000000000000000000000000000000000000000000000000000000000000000000000000000000000000000000000000
310
00000000000000000000000000000000000000000000000000000000000000000000000000000000000000000000000000000000000000000000000000000000000000000000000000000000000000000000000000000000000000000000000301010101000303030303030301030303030303030001010101030000000000
310
00000000000000000000000000000000000000000000000000000000000000000000000000000000000000000000000000000000000000000000000000000000000000000000000000000000000000000000000000000000000000000000000000000000000000000000000000000000000000000000000000000000000000
310
00000000000000000000000000000000000000000003000100000301010301000003030000000303010103000100000300000000000000000000000000000000000000000000000000000000000000000000000000000000000000000000000000000000000000000000000000000000000000000000000000000000000000
310
00000000000000000000000000000000000000000000000000000000000000000000000000000000000000000000000000000000000000000000000000000000000000000000000000000300000003010303000303030303030303030003010103000000030000000000000000000000000000000000000000000000000000
310
00000000000000000000000000000000000000000000000000000000000000000000000000000000000000000000000000000000000000000000000000000000000000000000000000000000000000000000000000000000000000000000000000000000000000000000000000000000000000000000000000000000000000
310
03000003030300030300000103030301000003030303010300000300000000000000000000000000000000000000000000000000000000000000000000000000000000000000000000000000000000000000000000000000000000000000000000000000000000000000000000000000000000000000000000000000000000
310
00000000000000000000000000000000000000000000000000000000000000000000000000000000000000000000000000000000000300030103000300000000000303030000000000030003030300030000000000000000000000000000000000000000000000000000000000000000000000000000000000000000000000
310
00000000000000000000000000000000000000000000000000000000000000000000000000000000000000000000000000000000000000000000000000000000000000000000000000000000000000000000000000000000000000000000000000000000000000000000030303010303000000000000030300000000000003
310
03030103030300000000000000000000000000000000000000000000000000000000000000000000000000000000000000000000000000000000000000000000000000000000000000000000000000000000000000000000000000000000000000000000000000000000000000000000000000000000000000000000000000
310
00000000000000000000000000000000000000000000000000000000000000000303030303000000000000000303030000000000000003030303030000000000000000000000000000000000000000000000000000000000000000000000000000000000000000000000000000000000000000000000000000000000000000
310
00000000000000000000000000000000000000000000000000000000000000000000000000000000000000000000000000000000000000000000000000000000000000000000000000000000000000000000000000010303030000000000010001030103010000010000000301030300000000000000000000000000000000
310
00000000000000000000000000000000000000000000000000000000000000000000000000000000000000000000000000000000000000000000000000000000000000000000000000000000000000000000000000000000000000000000000000000000000000000000000000000000000000000000000000000000000000
310
00000000000000000000000301030300000301010101030303030003030103030000030303030000000000000000000000000000000000000000000000000000000000000000000000000000000000000000000000000000000000000000000000000000000000000000000000000000000000000000000000000000000000
310
00000000000000000000000000000000000000000000000000000000000000000000000000000000000000000000000000000000000000000000000000000000030300030001030100010003030300030301010103010003030103000000000000000000000000000000000000000000000000000000000000000000000000
310
00000000000000000000000000000000000000000000000000000000000000000000000000000000000000000000000000000000000000000000000000000000000000000000000000000000000000000000000000000000000000000000000000000000000000000000000000000000000000000303030003000103030303
310
03010301000303030103010303030301030000000000000000000000000000000000000000000000000000000000000000000000000000000000000000000000000000000000000000000000000000000000000000000000000000000000000000000000000000000000000000000000000000000000000000000000000000
310
00000000000000000000000000000000000000000000000000000000000000000000000000000000000003030300030301030303030303000103010300010003000303000303000000000000000000000000000000000000000000000000000000000000000000000000000000000000000000000000000000000000000000
310
00000000000000000000000000000000000000000000000000000000000000000000000000000000000000000000000000000000000000000000000000000000000000000000000000000000000000000000000000000000000000000000000303030301010103030101010303010101010101010101010301030301000000
310
00000000000000000000000000000000000000000000000000000000000000000000000000000000000000000000000000000000000000000000000000000000000000000000000000000000000000000000000000000000000000000000000000000000000000000000000000000000000000000000000000000000000000
310
00000000000000000000000000000000000000000003030300030301030300010303000103030303010301030303000303000000000000000000000000000000000000000000000000000000000000000000000000000000000000000000000000000000000000000000000000000000000000000000000000000000000000
310
00000000000000000000000000000000000000000000000000000000000000000000000000000000000000000000000000000000000000000000000000000000000000000000000000000303030003030100030303030300010003030101010301000303010300000000000000000000000000000000000000000000000000
310
00000000000000000000000000000000000000000000000000000000000000000000000000000000000000000000000000000000000000000000000000000000000000000000000000000000000000000000000000000000000000000000000000000000000000000000000000000000000000000000000000000000000000
310
00030300030001030003030303030300000303010303000003030103000000000000000000000000000000000000000000000000000000000000000000000000000000000000000000000000000000000000000000000000000000000000000000000000000000000000000000000000000000000000000000000000000000
310
00000000000000000000000000000000000000000000000000000000000000000000000000000000000000000000000000000000000003030303000103010101010103010000000001000000030103030300000000000000000000000000000000000000000000000000000000000000000000000000000000000000000000
310
00000000000000000000000000000000000000000000000000000000000000000000000000000000000000000000000000000000000000000000000000000000000000000000000000000000000000000000000000000000000000000000000000000000000000000003030303030003000003030103000001000000000100
310
00000300030303030300000000000000000000000000000000000000000000000000000000000000000000000000000000000000000000000000000000000000000000000000000000000000000000000000000000000000000000000000000000000000000000000000000000000000000000000000000000000000000000
310
00000000000000000000000000000000000000000000000000000000000000030101030303000300000001000000010000000000000003000303030103030000000000000000000000000000000000000000000000000000000000000000000000000000000000000000000000000000000000000000000000000000000000
310
00000000000000000000000000000000000000000000000000000000000000000000000000000000000000000000000000000000000000000000000000000000000000000000000000000000000000000000000003030003030103030000000000000303000000000000030003010303000303030303030000000000000000
310
00000000000000000000000000000000000000000000000000000000000000000000000000000000000000000000000000000000000000000000000000000000000000000000000000000000000000000000000000000000000000000000000000000000000000000000000000000000000000000000000000000000000000
310
00000000000000000000030301010301030103010101010103030301010101010303010303010103030303030300000000000000000000000000000000000000000000000000000000000000000000000000000000000000000000000000000000000000000000000000000000000000000000000000000000000000000000
310
00000000000000000000000000000000000000000000000000000000000000000000000000000000000000000000000000000000000000000000000000000003030000000301030303030000010101010100000303030101030000000303030303030000000000000000000000000000000000000000000000000000000000
310
00000000000000000000000000000000000000000000000000000000000000000000000000000000000000000000000000000000000000000000000000000000000000000000000000000000000000000000000000000000000000000000000000000000000000000000000000000000000000000301010000000303010300
310
01030303030303030300030303030000000103030000000000000000000000000000000000000000000000000000000000000000000000000000000000000000000000000000000000000000000000000000000000000000000000000000000000000000000000000000000000000000000000000000000000000000000000
310
00000000000000000000000000000000000000000000000000000000000000000000000000000000000003030303030303030303030103030001000303030303030303030303030300000000000000000000000000000000000000000000000000000000000000000000000000000000000000000000000000000000000000
310
00000000000000000000000000000000000000000000000000000000000000000000000000000000000000000000000000000000000000000000000000000000000000000000000000000000000000000000000000000000000000000000000000030001000000030303030101030103010103030303000001000003000000
310
00000000000000000000000000000000000000000000000000000000000000000000000000000000000000000000000000000000000000000000000000000000000000000000000000000000000000000000000000000000000000000000000000000000000000000000000000000000000000000000000000000000000000
310
00000000000000000000000000000000000000000000000301010101000303000303030301030303030003030001010101030000000000000000000000000000000000000000000000000000000000000000000000000000000000000000000000000000000000000000000000000000000000000000000000000000000000
310
00000000000000000000000000000000000000000000000000000000000000000000000000000000000000000000000000000000000000000000000000000000000000000000000000000000030001000000030300000000030303000000000303000001000003000000000000000000000000000000000000000000000000
310
00000000000000000000000000000000000000000000000000000000000000000000000000000000000000000000000000000000000000000000000000000000000000000000000000000000000000000000000000000000000000000000000000000000000000000000000000000000000000000000000000000000000000
310
00000303030303030303000000000000000000000003030303030303030000000000000000000000000000000000000000000000000000000000000000000000000000000000000000000000000000000000000000000000000000000000000000000000000000000000000000000000000000000000000000000000000000
310
00000000000000000000000000000000000000000000000000000000000000000000000000000000000000000000000000000000000000000000000000000000000000000000000000000000000000000000000000000000000000000000000000000000000000000000000000000000000000000000000000000000000000
310
00000000000000000000000000000000000000000000000000000000000000000000000000000000000000000000000000000000000000000000000000000000000000000000000000000000000000000000000000000000000000000000000000000000000000000000000000000000000000000000000000000000000000
310
00000000000000000000000000000000000000000000000000000000000000000000000000000000000000000000000000000000000000000000000000000000000000000000000000000000000000000000000000000000000000000000000000000000000000000000000000000000000000000000000000000000000000
310
00000000000000000000000000000000000000000000000000000000000000000000000000000000000000000000000000000000000000000000000000000000000000000000000000000000000000000000000000000000000000000000000000000000000000000000000000000000000000000000000000000000000000
310
00000000000000000000000000000000000000000000000000000000000000000000000000000000000000000000000000000000000000000000000000000000000000000000000000000000000000000000000000000000000000000000000000000000000000000000000000000000000000000000000000000000000000
310
000000000000000000000000000000000000000000000000000000000000000000000000000000000000000000000000000000000000000000000000000000000000000000000000000000000000000000000000000000000000000000000000000000000000000000000000
  0
ENDSEC
  0
EOF
