  0
SECTION
  2
HEADER
  9
$ACADVER
  1
AC1015
  9
$ACADMAINTVER
 70
     6
  9
$DWGCODEPAGE
  3
ANSI_932
  9
$INSBASE
 10
2338.924747886368
 20
1439.730190057071
 30
0.0
  9
$EXTMIN
 10
250.8802790135574
 20
14.96175371004529
 30
0.0
  9
$EXTMAX
 10
2229.59687491063
 20
1584.690518057716
 30
0.0
  9
$LIMMIN
 10
0.0
 20
0.0
  9
$LIMMAX
 10
4200.0
 20
2970.0
  9
$ORTHOMODE
 70
     1
  9
$REGENMODE
 70
     1
  9
$FILLMODE
 70
     1
  9
$QTEXTMODE
 70
     0
  9
$MIRRTEXT
 70
     1
  9
$LTSCALE
 40
30.0
  9
$ATTMODE
 70
     1
  9
$TEXTSIZE
 40
12.0
  9
$TRACEWID
 40
0.05
  9
$TEXTSTYLE
  7
STANDARD
  9
$CLAYER
  8
2
  9
$CELTYPE
  6
BYLAYER
  9
$CECOLOR
 62
   256
  9
$CELTSCALE
 40
1.0
  9
$DISPSILH
 70
     0
  9
$DIMSCALE
 40
6.0
  9
$DIMASZ
 40
2.0
  9
$DIMEXO
 40
0.5
  9
$DIMDLI
 40
0.0
  9
$DIMRND
 40
0.0
  9
$DIMDLE
 40
0.0
  9
$DIMEXE
 40
1.0
  9
$DIMTP
 40
0.0
  9
$DIMTM
 40
0.0
  9
$DIMTXT
 40
3.0
  9
$DIMCEN
 40
0.09
  9
$DIMTSZ
 40
0.0
  9
$DIMTOL
 70
     0
  9
$DIMLIM
 70
     0
  9
$DIMTIH
 70
     0
  9
$DIMTOH
 70
     0
  9
$DIMSE1
 70
     0
  9
$DIMSE2
 70
     0
  9
$DIMTAD
 70
     0
  9
$DIMZIN
 70
     8
  9
$DIMBLK
  1

  9
$DIMASO
 70
     0
  9
$DIMSHO
 70
     0
  9
$DIMPOST
  1

  9
$DIMAPOST
  1

  9
$DIMALT
 70
     0
  9
$DIMALTD
 70
     2
  9
$DIMALTF
 40
25.4
  9
$DIMLFAC
 40
1.0
  9
$DIMTOFL
 70
     1
  9
$DIMTVP
 40
1.0
  9
$DIMTIX
 70
     1
  9
$DIMSOXD
 70
     1
  9
$DIMSAH
 70
     0
  9
$DIMBLK1
  1

  9
$DIMBLK2
  1

  9
$DIMSTYLE
  2
STANDARD
  9
$DIMCLRD
 70
   256
  9
$DIMCLRE
 70
   256
  9
$DIMCLRT
 70
     2
  9
$DIMTFAC
 40
1.0
  9
$DIMGAP
 40
0.09
  9
$DIMJUST
 70
     0
  9
$DIMSD1
 70
     0
  9
$DIMSD2
 70
     0
  9
$DIMTOLJ
 70
     1
  9
$DIMTZIN
 70
     0
  9
$DIMALTZ
 70
     0
  9
$DIMALTTZ
 70
     0
  9
$DIMUPT
 70
     0
  9
$DIMDEC
 70
     3
  9
$DIMTDEC
 70
     3
  9
$DIMALTU
 70
     2
  9
$DIMALTTD
 70
     2
  9
$DIMTXSTY
  7
STANDARD
  9
$DIMAUNIT
 70
     0
  9
$DIMADEC
 70
     0
  9
$DIMALTRND
 40
0.0
  9
$DIMAZIN
 70
     0
  9
$DIMDSEP
 70
    46
  9
$DIMATFIT
 70
     3
  9
$DIMFRAC
 70
     0
  9
$DIMLDRBLK
  1

  9
$DIMLUNIT
 70
     2
  9
$DIMLWD
 70
    -2
  9
$DIMLWE
 70
    -2
  9
$DIMTMOVE
 70
     0
  9
$LUNITS
 70
     2
  9
$LUPREC
 70
     3
  9
$SKETCHINC
 40
0.1
  9
$FILLETRAD
 40
15.0
  9
$AUNITS
 70
     0
  9
$AUPREC
 70
     3
  9
$MENU
  1
C:\R13\WIN\SUPPORT\ACADFULL
  9
$ELEVATION
 40
0.0
  9
$PELEVATION
 40
0.0
  9
$THICKNESS
 40
0.0
  9
$LIMCHECK
 70
     0
  9
$CHAMFERA
 40
0.0
  9
$CHAMFERB
 40
0.0
  9
$CHAMFERC
 40
0.0
  9
$CHAMFERD
 40
0.0
  9
$SKPOLY
 70
     0
  9
$TDCREATE
 40
2450157.58412037
  9
$TDUCREATE
 40
2450157.20912037
  9
$TDUPDATE
 40
2458115.670541389
  9
$TDUUPDATE
 40
2458115.295541389
  9
$TDINDWG
 40
0.6322555556
  9
$TDUSRTIMER
 40
0.6322534028
  9
$USRTIMER
 70
     1
  9
$ANGBASE
 50
0.0
  9
$ANGDIR
 70
     0
  9
$PDMODE
 70
     0
  9
$PDSIZE
 40
0.0
  9
$PLINEWID
 40
0.0
  9
$SPLFRAME
 70
     0
  9
$SPLINETYPE
 70
     6
  9
$SPLINESEGS
 70
     8
  9
$HANDSEED
  5
6BE
  9
$SURFTAB1
 70
     6
  9
$SURFTAB2
 70
     6
  9
$SURFTYPE
 70
     6
  9
$SURFU
 70
     6
  9
$SURFV
 70
     6
  9
$UCSBASE
  2

  9
$UCSNAME
  2

  9
$UCSORG
 10
0.0
 20
0.0
 30
0.0
  9
$UCSXDIR
 10
1.0
 20
0.0
 30
0.0
  9
$UCSYDIR
 10
0.0
 20
1.0
 30
0.0
  9
$UCSORTHOREF
  2

  9
$UCSORTHOVIEW
 70
     0
  9
$UCSORGTOP
 10
0.0
 20
0.0
 30
0.0
  9
$UCSORGBOTTOM
 10
0.0
 20
0.0
 30
0.0
  9
$UCSORGLEFT
 10
0.0
 20
0.0
 30
0.0
  9
$UCSORGRIGHT
 10
0.0
 20
0.0
 30
0.0
  9
$UCSORGFRONT
 10
0.0
 20
0.0
 30
0.0
  9
$UCSORGBACK
 10
0.0
 20
0.0
 30
0.0
  9
$PUCSBASE
  2

  9
$PUCSNAME
  2

  9
$PUCSORG
 10
0.0
 20
0.0
 30
0.0
  9
$PUCSXDIR
 10
1.0
 20
0.0
 30
0.0
  9
$PUCSYDIR
 10
0.0
 20
1.0
 30
0.0
  9
$PUCSORTHOREF
  2

  9
$PUCSORTHOVIEW
 70
     0
  9
$PUCSORGTOP
 10
0.0
 20
0.0
 30
0.0
  9
$PUCSORGBOTTOM
 10
0.0
 20
0.0
 30
0.0
  9
$PUCSORGLEFT
 10
0.0
 20
0.0
 30
0.0
  9
$PUCSORGRIGHT
 10
0.0
 20
0.0
 30
0.0
  9
$PUCSORGFRONT
 10
0.0
 20
0.0
 30
0.0
  9
$PUCSORGBACK
 10
0.0
 20
0.0
 30
0.0
  9
$USERI1
 70
     0
  9
$USERI2
 70
     0
  9
$USERI3
 70
     0
  9
$USERI4
 70
     0
  9
$USERI5
 70
     0
  9
$USERR1
 40
0.0
  9
$USERR2
 40
0.0
  9
$USERR3
 40
0.0
  9
$USERR4
 40
2448925.372986111
  9
$USERR5
 40
0.04166667
  9
$WORLDVIEW
 70
     1
  9
$SHADEDGE
 70
     3
  9
$SHADEDIF
 70
    70
  9
$TILEMODE
 70
     1
  9
$MAXACTVP
 70
    16
  9
$PINSBASE
 10
0.0
 20
0.0
 30
0.0
  9
$PLIMCHECK
 70
     0
  9
$PEXTMIN
 10
1000000000000000E+20
 20
1000000000000000E+20
 30
1000000000000000E+20
  9
$PEXTMAX
 10
-1000000000000000E+20
 20
-1000000000000000E+20
 30
-1000000000000000E+20
  9
$PLIMMIN
 10
0.0
 20
0.0
  9
$PLIMMAX
 10
12.0
 20
9.0
  9
$UNITMODE
 70
     0
  9
$VISRETAIN
 70
     0
  9
$PLINEGEN
 70
     0
  9
$PSLTSCALE
 70
     0
  9
$TREEDEPTH
 70
  3020
  9
$CMLSTYLE
  2
STANDARD
  9
$CMLJUST
 70
     0
  9
$CMLSCALE
 40
1.0
  9
$PROXYGRAPHICS
 70
     1
  9
$MEASUREMENT
 70
     0
  9
$CELWEIGHT
370
    -1
  9
$ENDCAPS
280
     0
  9
$JOINSTYLE
280
     0
  9
$LWDISPLAY
290
     0
  9
$INSUNITS
 70
     0
  9
$HYPERLINKBASE
  1

  9
$STYLESHEET
  1
monochrome.ctb
  9
$XEDIT
290
     1
  9
$CEPSNTYPE
380
     0
  9
$PSTYLEMODE
290
     1
  9
$FINGERPRINTGUID
  2
{87F7F482-FC05-461E-99B3-FD1EC1C4D1BB}
  9
$VERSIONGUID
  2
{2C917999-45BD-40D5-9508-2847F087CD07}
  9
$EXTNAMES
290
     1
  9
$PSVPSCALE
 40
0.0
  9
$OLESTARTUP
290
     0
  0
ENDSEC
  0
SECTION
  2
CLASSES
  0
CLASS
  1
ACDBDICTIONARYWDFLT
  2
AcDbDictionaryWithDefault
  3
ObjectDBX Classes
 90
        0
280
     0
281
     0
  0
CLASS
  1
MATERIAL
  2
AcDbMaterial
  3
ObjectDBX Classes
 90
     1153
280
     0
281
     0
  0
CLASS
  1
SORTENTSTABLE
  2
AcDbSortentsTable
  3
ObjectDBX Classes
 90
        0
280
     0
281
     0
  0
CLASS
  1
VISUALSTYLE
  2
AcDbVisualStyle
  3
ObjectDBX Classes
 90
     4095
280
     0
281
     0
  0
CLASS
  1
SCALE
  2
AcDbScale
  3
ObjectDBX Classes
 90
     1153
280
     0
281
     0
  0
CLASS
  1
DICTIONARYVAR
  2
AcDbDictionaryVar
  3
ObjectDBX Classes
 90
        0
280
     0
281
     0
  0
CLASS
  1
MLEADERSTYLE
  2
AcDbMLeaderStyle
  3
ACDB_MLEADERSTYLE_CLASS
 90
     4095
280
     0
281
     0
  0
CLASS
  1
TABLESTYLE
  2
AcDbTableStyle
  3
ObjectDBX Classes
 90
     4095
280
     0
281
     0
  0
CLASS
  1
ACDBPLACEHOLDER
  2
AcDbPlaceHolder
  3
ObjectDBX Classes
 90
        0
280
     0
281
     0
  0
CLASS
  1
LAYOUT
  2
AcDbLayout
  3
ObjectDBX Classes
 90
        0
280
     0
281
     0
  0
ENDSEC
  0
SECTION
  2
TABLES
  0
TABLE
  2
VPORT
  5
2C
102
{ACAD_XDICTIONARY
360
683
102
}
330
0
100
AcDbSymbolTable
 70
     1
  0
VPORT
  5
34
330
2C
100
AcDbSymbolTableRecord
100
AcDbViewportTableRecord
  2
*ACTIVE
 70
     0
 10
0.0
 20
0.0
 11
1.0
 21
1.0
 12
125.1279483646972
 22
621.1666777890391
 13
0.0
 23
0.0
 14
1.0
 24
1.0
 15
40.0
 25
40.0
 16
0.0
 26
0.0
 36
1138.438156774555
 17
1497.696919839021
 27
159.1917999344669
 37
0.0
 40
1675.69824796656
 41
1.82716049382716
 42
50.0
 43
0.0
 44
0.0
 50
0.0
 51
0.0
 71
     0
 72
  5000
 73
     1
 74
     0
 75
     0
 76
     0
 77
     0
 78
     0
281
     0
 65
     1
110
0.0
120
0.0
130
0.0
111
1.0
121
0.0
131
0.0
112
0.0
122
1.0
132
0.0
 79
     0
146
0.0
1001
ACAD_NAV_VCDISPLAY
1070
     3
  0
ENDTAB
  0
TABLE
  2
LTYPE
  5
D
330
0
100
AcDbSymbolTable
 70
     2
  0
LTYPE
  5
E
330
D
100
AcDbSymbolTableRecord
100
AcDbLinetypeTableRecord
  2
BYBLOCK
 70
     0
  3

 72
    65
 73
     0
 40
0.0
  0
LTYPE
  5
F
330
D
100
AcDbSymbolTableRecord
100
AcDbLinetypeTableRecord
  2
BYLAYER
 70
     0
  3

 72
    65
 73
     0
 40
0.0
  0
LTYPE
  5
C
330
D
100
AcDbSymbolTableRecord
100
AcDbLinetypeTableRecord
  2
CONTINUOUS
 70
     0
  3
Solid line
 72
    65
 73
     0
 40
0.0
  0
LTYPE
  5
79
330
D
100
AcDbSymbolTableRecord
100
AcDbLinetypeTableRecord
  2
CENTER
 70
     0
  3
____ _ ____ _ ____ _ ____ _ ____ _ ____ _ ____
 72
    65
 73
     4
 40
2.0
 49
1.25
 74
     0
 49
-0.25
 74
     0
 49
0.25
 74
     0
 49
-0.25
 74
     0
  0
ENDTAB
  0
TABLE
  2
LAYER
  5
2
102
{ACAD_XDICTIONARY
360
3
102
}
330
0
100
AcDbSymbolTable
 70
     8
  0
LAYER
  5
1D
102
{ACAD_XDICTIONARY
360
1E
102
}
330
2
100
AcDbSymbolTableRecord
100
AcDbLayerTableRecord
  2
0
 70
     0
 62
     7
  6
CONTINUOUS
370
    -3
390
7
  0
LAYER
  5
6D
102
{ACAD_XDICTIONARY
360
6E
102
}
330
2
100
AcDbSymbolTableRecord
100
AcDbLayerTableRecord
  2
4
 70
     0
 62
     3
  6
CONTINUOUS
370
    -3
390
7
  0
LAYER
  5
76
102
{ACAD_XDICTIONARY
360
77
102
}
330
2
100
AcDbSymbolTableRecord
100
AcDbLayerTableRecord
  2
L-CENTER
 70
     0
 62
     1
  6
CENTER
370
    -3
390
7
  0
LAYER
  5
3CF
102
{ACAD_XDICTIONARY
360
3D0
102
}
330
2
100
AcDbSymbolTableRecord
100
AcDbLayerTableRecord
  2
1
 70
     0
 62
     9
  6
CONTINUOUS
370
    -3
390
7
  0
LAYER
  5
1
102
{ACAD_XDICTIONARY
360
5
102
}
330
2
100
AcDbSymbolTableRecord
100
AcDbLayerTableRecord
  2
2
 70
     0
 62
     4
  6
CONTINUOUS
370
    -3
390
7
  0
LAYER
  5
7B
330
2
100
AcDbSymbolTableRecord
100
AcDbLayerTableRecord
  2
3
 70
     0
 62
     2
  6
CONTINUOUS
370
    -3
390
7
1001
AcAecLayerStandard
1000

1000

1001
AcCmTransparency
1071
        0
  0
LAYER
  5
3C9
330
2
100
AcDbSymbolTableRecord
100
AcDbLayerTableRecord
  2
5
 70
     0
 62
     6
  6
CONTINUOUS
370
    -3
390
7
  0
LAYER
  5
66A
330
2
100
AcDbSymbolTableRecord
100
AcDbLayerTableRecord
  2
Defpoints
 70
     0
 62
     7
  6
CONTINUOUS
290
     0
370
    -3
390
7
  0
ENDTAB
  0
TABLE
  2
STYLE
  5
11
330
0
100
AcDbSymbolTable
 70
     2
  0
STYLE
  5
10
330
11
100
AcDbSymbolTableRecord
100
AcDbTextStyleTableRecord
  2
STANDARD
 70
     0
 40
0.0
 41
1.0
 50
0.0
 71
     0
 42
12.0
  3
TXT
  4

  0
STYLE
  5
15
330
11
100
AcDbSymbolTableRecord
100
AcDbTextStyleTableRecord
  2
KANJI
 70
     0
 40
0.0
 41
1.0
 50
0.0
 71
     0
 42
12.0
  3
TXT
  4
BIGFONT
  0
ENDTAB
  0
TABLE
  2
VIEW
  5
2A
330
0
100
AcDbSymbolTable
 70
     0
  0
ENDTAB
  0
TABLE
  2
UCS
  5
2B
330
0
100
AcDbSymbolTable
 70
     0
  0
ENDTAB
  0
TABLE
  2
APPID
  5
25
330
0
100
AcDbSymbolTable
 70
     6
  0
APPID
  5
33
330
25
100
AcDbSymbolTableRecord
100
AcDbRegAppTableRecord
  2
ACAD
 70
     0
  0
APPID
  5
36
330
25
100
AcDbSymbolTableRecord
100
AcDbRegAppTableRecord
  2
ACAD_NAV_VCDISPLAY
 70
     0
  0
APPID
  5
7C
330
25
100
AcDbSymbolTableRecord
100
AcDbRegAppTableRecord
  2
AcAecLayerStandard
 70
     0
  0
APPID
  5
7D
330
25
100
AcDbSymbolTableRecord
100
AcDbRegAppTableRecord
  2
AcCmTransparency
 70
     0
  0
APPID
  5
24
330
25
100
AcDbSymbolTableRecord
100
AcDbRegAppTableRecord
  2
ACAD_PSEXT
 70
     0
  0
APPID
  5
636
330
25
100
AcDbSymbolTableRecord
100
AcDbRegAppTableRecord
  2
ACAD_MLEADERVER
 70
     0
  0
ENDTAB
  0
TABLE
  2
DIMSTYLE
  5
14
330
0
100
AcDbSymbolTable
 70
     1
100
AcDbDimStyleTable
  0
DIMSTYLE
105
13
330
14
100
AcDbSymbolTableRecord
100
AcDbDimStyleTableRecord
  2
STANDARD
 70
     0
178
     0
271
     3
272
     3
279
     2
340
15
  0
ENDTAB
  0
TABLE
  2
BLOCK_RECORD
  5
18
330
0
100
AcDbSymbolTable
 70
     0
  0
BLOCK_RECORD
  5
19
102
{ACAD_XDICTIONARY
360
1A
102
}
330
18
100
AcDbSymbolTableRecord
100
AcDbBlockTableRecord
  2
*MODEL_SPACE
340
21
  0
BLOCK_RECORD
  5
26
330
18
100
AcDbSymbolTableRecord
100
AcDbBlockTableRecord
  2
*PAPER_SPACE
340
29
  0
ENDTAB
  0
ENDSEC
  0
SECTION
  2
BLOCKS
  0
BLOCK
  5
1C
330
19
100
AcDbEntity
  8
0
100
AcDbBlockBegin
  2
*MODEL_SPACE
 70
     0
 10
0.0
 20
0.0
 30
0.0
  3
*MODEL_SPACE
  1

  0
ENDBLK
  5
20
330
19
100
AcDbEntity
  8
0
100
AcDbBlockEnd
  0
BLOCK
  5
27
330
26
100
AcDbEntity
 67
     1
  8
0
100
AcDbBlockBegin
  2
*PAPER_SPACE
 70
     0
 10
0.0
 20
0.0
 30
0.0
  3
*PAPER_SPACE
  1

  0
ENDBLK
  5
28
330
26
100
AcDbEntity
 67
     1
  8
0
100
AcDbBlockEnd
  0
ENDSEC
  0
SECTION
  2
ENTITIES
  0
LINE
  5
6C
330
19
100
AcDbEntity
  8
4
100
AcDbLine
 10
845.9298662783463
 20
350.9617537100448
 30
0.0
 11
823.9905560491402
 21
350.9617537100448
 31
0.0
  0
LINE
  5
70
330
19
100
AcDbEntity
  8
4
100
AcDbLine
 10
845.9298662783463
 20
347.9617537100448
 30
0.0
 11
823.9905560491402
 21
347.9617537100448
 31
0.0
  0
LINE
  5
71
330
19
100
AcDbEntity
  8
4
100
AcDbLine
 10
826.7329698277913
 20
358.9617537100448
 30
0.0
 11
843.1874524996952
 21
358.9617537100448
 31
0.0
  0
ARC
  5
72
330
19
100
AcDbEntity
  8
4
100
AcDbCircle
 10
834.9602111637437
 20
345.1660095748675
 30
0.0
 40
13.7957441351769
100
AcDbArc
 50
66.57340249137164
 51
113.4265975086284
  0
LINE
  5
7F
330
19
100
AcDbEntity
  8
4
100
AcDbLine
 10
1044.155181454216
 20
74.96175371004483
 30
0.0
 11
396.1551814542163
 21
74.96175371004483
 31
0.0
  0
LINE
  5
80
330
19
100
AcDbEntity
  8
L-CENTER
100
AcDbLine
 10
1189.430083894877
 20
174.9617537100457
 30
0.0
 11
250.8802790135569
 21
174.9617537100457
 31
0.0
  0
LINE
  5
81
330
19
100
AcDbEntity
  8
4
100
AcDbLine
 10
870.1551814542172
 20
83.96175371004483
 30
0.0
 11
570.1551814542172
 21
83.96175371004483
 31
0.0
  0
LINE
  5
82
330
19
100
AcDbEntity
  8
4
100
AcDbLine
 10
1044.155181454217
 20
319.9617537100448
 30
0.0
 11
396.1551814542172
 21
319.9617537100448
 31
0.0
  0
LINE
  5
83
330
19
100
AcDbEntity
  8
4
100
AcDbLine
 10
435.1551814542172
 20
363.9617537100448
 30
0.0
 11
1005.155181454217
 21
363.9617537100448
 31
0.0
  0
LINE
  5
84
330
19
100
AcDbEntity
  8
4
100
AcDbLine
 10
1035.15503937934
 20
347.9617537100448
 30
0.0
 11
405.1550393793395
 21
347.9617537100448
 31
0.0
  0
LINE
  5
85
330
19
100
AcDbEntity
  8
4
100
AcDbLine
 10
1005.15503937934
 20
363.9617537100448
 30
0.0
 11
435.1550393793395
 21
363.9617537100448
 31
0.0
  0
LINE
  5
86
330
19
100
AcDbEntity
  8
4
100
AcDbLine
 10
935.1550393793395
 20
378.9617537100448
 30
0.0
 11
755.1550393793395
 21
378.9617537100448
 31
0.0
  0
LINE
  5
87
330
19
100
AcDbEntity
  8
4
100
AcDbLine
 10
870.1550393793395
 20
59.96175371004483
 30
0.0
 11
755.1550393793395
 21
59.96175371004483
 31
0.0
  0
LINE
  5
97
330
19
100
AcDbEntity
  8
L-CENTER
100
AcDbLine
 10
720.1551814542172
 20
51.31769764046476
 30
0.0
 11
720.1551814542172
 21
462.7482175961154
 31
0.0
  0
LINE
  5
98
330
19
100
AcDbEntity
  8
4
100
AcDbLine
 10
396.1551814542172
 20
319.9617537100448
 30
0.0
 11
396.1551814542163
 21
74.96175371004483
 31
0.0
  0
LINE
  5
99
330
19
100
AcDbEntity
  8
4
100
AcDbLine
 10
384.1551814542172
 20
249.9617537100457
 30
0.0
 11
384.1551814542172
 21
99.96175371004665
 31
0.0
  0
LINE
  5
9A
330
19
100
AcDbEntity
  8
4
100
AcDbLine
 10
372.1551814542163
 20
246.9617537100457
 30
0.0
 11
372.1551814542163
 21
102.9617537100467
 31
0.0
  0
LINE
  5
9B
330
19
100
AcDbEntity
  8
L-CENTER
100
AcDbLine
 10
623.8070393793387
 20
564.1461491368359
 30
0.0
 11
623.8070393793394
 21
51.31769764046476
 31
0.0
  0
LINE
  5
9C
330
19
100
AcDbEntity
  8
4
100
AcDbLine
 10
558.1551814542172
 20
83.96175371004483
 30
0.0
 11
396.1551814542163
 21
83.96175371004483
 31
0.0
  0
LINE
  5
9D
330
19
100
AcDbEntity
  8
4
100
AcDbLine
 10
570.1551814542163
 20
34.96175371004483
 30
0.0
 11
410.1551814542163
 21
34.96175371004483
 31
0.0
  0
ARC
  5
9E
330
19
100
AcDbEntity
  8
4
100
AcDbCircle
 10
376.4343467516755
 20
123.6967537100454
 30
0.0
 40
13.77916529745958
100
AcDbArc
 50
159.1359356360806
 51
200.8640643639194
  0
LINE
  5
9F
330
19
100
AcDbEntity
  8
4
100
AcDbLine
 10
362.6551814542163
 20
131.0579696422128
 30
0.0
 11
362.6551814542163
 21
116.335537777878
 31
0.0
  0
LINE
  5
A0
330
19
100
AcDbEntity
  8
4
100
AcDbLine
 10
369.6551814542163
 20
113.8817991338219
 30
0.0
 11
369.6551814542163
 21
133.5117082862698
 31
0.0
  0
LINE
  5
A1
330
19
100
AcDbEntity
  8
4
100
AcDbLine
 10
372.1551814542163
 20
113.8817991338219
 30
0.0
 11
372.1551814542163
 21
133.5117082862698
 31
0.0
  0
LINE
  5
A2
330
19
100
AcDbEntity
  8
4
100
AcDbLine
 10
410.1551814542163
 20
74.96175371004483
 30
0.0
 11
410.1551814542163
 21
34.96175371004483
 31
0.0
  0
LINE
  5
A3
330
19
100
AcDbEntity
  8
4
 48
0.8
100
AcDbLine
 10
396.1551814542172
 20
99.96175371004665
 30
0.0
 11
384.1551814542172
 21
99.96175371004665
 31
0.0
  0
LINE
  5
A4
330
19
100
AcDbEntity
  8
4
100
AcDbLine
 10
396.1551814542172
 20
99.96175371004574
 30
0.0
 11
384.1551814542172
 21
99.96175371004665
 31
0.0
  0
LINE
  5
A5
330
19
100
AcDbEntity
  8
L-CENTER
100
AcDbLine
 10
400.2462581519931
 20
123.6967537100454
 30
0.0
 11
359.7872031996358
 21
123.6967537100454
 31
0.0
  0
LINE
  5
A6
330
19
100
AcDbEntity
  8
4
 48
0.8
100
AcDbLine
 10
372.1551814542172
 20
102.9617537100457
 30
0.0
 11
384.1551814542163
 21
102.9617537100457
 31
0.0
  0
LINE
  5
A7
330
19
100
AcDbEntity
  8
4
100
AcDbLine
 10
363.558708400069
 20
118.7892764219332
 30
0.0
 11
369.6551814542163
 21
118.7892764219332
 31
0.0
  0
LINE
  5
A8
330
19
100
AcDbEntity
  8
4
100
AcDbLine
 10
363.558708400069
 20
113.8817991338219
 30
0.0
 11
372.1551814542163
 21
113.8817991338219
 31
0.0
  0
ARC
  5
A9
330
19
100
AcDbEntity
  8
4
100
AcDbCircle
 10
366.4387953832756
 20
116.335537777878
 30
0.0
 40
3.783613929059507
100
AcDbArc
 50
139.5701031551772
 51
220.4298968448228
  0
LINE
  5
AA
330
19
100
AcDbEntity
  8
L-CENTER
100
AcDbLine
 10
470.1551814542163
 20
94.96175371004483
 30
0.0
 11
470.1551814542172
 21
14.96175371004574
 31
0.0
  0
LINE
  5
AB
330
19
100
AcDbEntity
  8
4
100
AcDbLine
 10
363.558708400069
 20
128.6042309981576
 30
0.0
 11
369.6551814542163
 21
128.6042309981576
 31
0.0
  0
ARC
  5
AC
330
19
100
AcDbEntity
  8
4
100
AcDbCircle
 10
366.4387953832756
 20
131.0579696422128
 30
0.0
 40
3.783613929059507
100
AcDbArc
 50
139.5701031551772
 51
220.4298968448228
  0
LINE
  5
AD
330
19
100
AcDbEntity
  8
4
100
AcDbLine
 10
372.1551814542163
 20
133.5117082862698
 30
0.0
 11
363.558708400069
 21
133.5117082862698
 31
0.0
  0
LINE
  5
AE
330
19
100
AcDbEntity
  8
L-CENTER
100
AcDbLine
 10
400.2462581519931
 20
226.2267537100461
 30
0.0
 11
359.7872031996358
 21
226.2267537100461
 31
0.0
  0
ARC
  5
AF
330
19
100
AcDbEntity
  8
4
100
AcDbCircle
 10
366.4387953832756
 20
233.5879696422135
 30
0.0
 40
3.783613929059507
100
AcDbArc
 50
139.5701031551772
 51
220.4298968448228
  0
LINE
  5
B0
330
19
100
AcDbEntity
  8
4
100
AcDbLine
 10
372.1551814542163
 20
236.0417082862687
 30
0.0
 11
363.558708400069
 21
236.0417082862687
 31
0.0
  0
LINE
  5
B1
330
19
100
AcDbEntity
  8
4
100
AcDbLine
 10
362.6551814542163
 20
233.5879696422135
 30
0.0
 11
362.6551814542163
 21
218.8655377778778
 31
0.0
  0
LINE
  5
B2
330
19
100
AcDbEntity
  8
4
100
AcDbLine
 10
369.6551814542163
 20
216.4117991338217
 30
0.0
 11
369.6551814542163
 21
236.0417082862687
 31
0.0
  0
LINE
  5
B3
330
19
100
AcDbEntity
  8
4
100
AcDbLine
 10
372.1551814542163
 20
216.4117991338217
 30
0.0
 11
372.1551814542163
 21
236.0417082862687
 31
0.0
  0
LINE
  5
B4
330
19
100
AcDbEntity
  8
4
100
AcDbLine
 10
363.558708400069
 20
231.1342309981574
 30
0.0
 11
369.6551814542163
 21
231.1342309981574
 31
0.0
  0
LINE
  5
B5
330
19
100
AcDbEntity
  8
4
100
AcDbLine
 10
363.558708400069
 20
221.3192764219339
 30
0.0
 11
369.6551814542163
 21
221.3192764219339
 31
0.0
  0
ARC
  5
B6
330
19
100
AcDbEntity
  8
4
100
AcDbCircle
 10
376.4343467516755
 20
226.2267537100461
 30
0.0
 40
13.77916529745958
100
AcDbArc
 50
159.1359356360806
 51
200.8640643639194
  0
LINE
  5
B7
330
19
100
AcDbEntity
  8
4
100
AcDbLine
 10
363.558708400069
 20
216.4117991338217
 30
0.0
 11
372.1551814542163
 21
216.4117991338217
 31
0.0
  0
ARC
  5
B8
330
19
100
AcDbEntity
  8
4
100
AcDbCircle
 10
366.4387953832756
 20
218.8655377778778
 30
0.0
 40
3.783613929059507
100
AcDbArc
 50
139.5701031551772
 51
220.4298968448228
  0
LINE
  5
B9
330
19
100
AcDbEntity
  8
4
100
AcDbLine
 10
738.8070393793396
 20
59.96175371004483
 30
0.0
 11
570.1550393793395
 21
59.96175371004483
 31
0.0
  0
LINE
  5
BA
330
19
100
AcDbEntity
  8
4
100
AcDbLine
 10
570.1551814542172
 20
119.369522883886
 30
0.0
 11
570.1551814542163
 21
34.96175371004483
 31
0.0
  0
LINE
  5
BB
330
19
100
AcDbEntity
  8
4
100
AcDbLine
 10
558.1551814542172
 20
119.369522883886
 30
0.0
 11
558.1551814542172
 21
74.96175371004483
 31
0.0
  0
LINE
  5
BC
330
19
100
AcDbEntity
  8
4
100
AcDbLine
 10
570.1551814542172
 20
119.369522883886
 30
0.0
 11
558.1551814542163
 21
119.369522883886
 31
0.0
  0
LINE
  5
BD
330
19
100
AcDbEntity
  8
L-CENTER
100
AcDbLine
 10
623.8070393793396
 20
243.9617537100467
 30
0.0
 11
623.8070393793396
 21
243.9617537100467
 31
0.0
  0
LINE
  5
BE
330
19
100
AcDbEntity
  8
L-CENTER
100
AcDbLine
 10
694.5177174979952
 20
88.39770912765698
 30
0.0
 11
694.5177174979952
 21
47.59377545546522
 31
0.0
  0
LINE
  5
BF
330
19
100
AcDbEntity
  8
4
100
AcDbLine
 10
755.1550393793395
 20
59.96175371004483
 30
0.0
 11
755.1550393793395
 21
74.96175371004483
 31
0.0
  0
LINE
  5
C0
330
19
100
AcDbEntity
  8
4
100
AcDbLine
 10
738.8070393793396
 20
59.96175371004483
 30
0.0
 11
738.8070393793396
 21
74.96175371004483
 31
0.0
  0
ARC
  5
C1
330
19
100
AcDbEntity
  8
4
100
AcDbCircle
 10
687.1565015658269
 20
54.24536763910419
 30
0.0
 40
3.783613929059507
100
AcDbArc
 50
229.5701031551699
 51
310.4298968448301
  0
LINE
  5
C2
330
19
100
AcDbEntity
  8
4
100
AcDbLine
 10
689.610240209883
 20
51.36528065589664
 30
0.0
 11
689.610240209883
 21
57.46175371004483
 31
0.0
  0
LINE
  5
C3
330
19
100
AcDbEntity
  8
4
100
AcDbLine
 10
684.7027629217718
 20
59.96175371004483
 30
0.0
 11
684.7027629217718
 21
51.36528065589664
 31
0.0
  0
ARC
  5
C4
330
19
100
AcDbEntity
  8
4
100
AcDbCircle
 10
701.8789334301626
 20
54.24536763910419
 30
0.0
 40
3.783613929059507
100
AcDbArc
 50
229.5701031551699
 51
310.4298968448301
  0
LINE
  5
C5
330
19
100
AcDbEntity
  8
4
100
AcDbLine
 10
704.3326720742187
 20
51.36528065589664
 30
0.0
 11
704.3326720742187
 21
59.96175371004483
 31
0.0
  0
LINE
  5
C6
330
19
100
AcDbEntity
  8
4
100
AcDbLine
 10
699.4251947861065
 20
51.36528065589664
 30
0.0
 11
699.4251947861065
 21
57.46175371004483
 31
0.0
  0
LINE
  5
C7
330
19
100
AcDbEntity
  8
4
100
AcDbLine
 10
704.3326720742187
 20
57.46175371004483
 30
0.0
 11
684.7027629217718
 21
57.46175371004483
 31
0.0
  0
LINE
  5
C8
330
19
100
AcDbEntity
  8
4
100
AcDbLine
 10
704.3326720742187
 20
59.96175371004483
 30
0.0
 11
684.7027629217718
 21
59.96175371004483
 31
0.0
  0
ARC
  5
C9
330
19
100
AcDbEntity
  8
4
100
AcDbCircle
 10
694.5177174979952
 20
64.24091900750409
 30
0.0
 40
13.77916529745958
100
AcDbArc
 50
249.1359356360801
 51
290.8640643639195
  0
LINE
  5
CA
330
19
100
AcDbEntity
  8
4
100
AcDbLine
 10
687.1565015658269
 20
50.46175371004483
 30
0.0
 11
701.8789334301626
 21
50.46175371004483
 31
0.0
  0
LINE
  5
CB
330
19
100
AcDbEntity
  8
L-CENTER
100
AcDbLine
 10
792.1221728652216
 20
88.39770912765698
 30
0.0
 11
792.1221728652216
 21
47.59377545546522
 31
0.0
  0
ARC
  5
CC
330
19
100
AcDbEntity
  8
4
100
AcDbCircle
 10
799.483388797389
 20
54.24536763910419
 30
0.0
 40
3.783613929059507
100
AcDbArc
 50
229.5701031551699
 51
310.4298968448301
  0
LINE
  5
CD
330
19
100
AcDbEntity
  8
4
100
AcDbLine
 10
801.9371274414451
 20
57.46175371004483
 30
0.0
 11
782.3072182889981
 21
57.46175371004483
 31
0.0
  0
LINE
  5
CE
330
19
100
AcDbEntity
  8
4
100
AcDbLine
 10
801.9371274414451
 20
59.96175371004483
 30
0.0
 11
782.3072182889981
 21
59.96175371004483
 31
0.0
  0
LINE
  5
CF
330
19
100
AcDbEntity
  8
4
100
AcDbLine
 10
784.7609569330533
 20
50.46175371004483
 30
0.0
 11
799.483388797389
 21
50.46175371004483
 31
0.0
  0
ARC
  5
D0
330
19
100
AcDbEntity
  8
4
100
AcDbCircle
 10
784.7609569330533
 20
54.24536763910419
 30
0.0
 40
3.783613929059507
100
AcDbArc
 50
229.5701031551699
 51
310.4298968448301
  0
LINE
  5
D1
330
19
100
AcDbEntity
  8
4
100
AcDbLine
 10
787.2146955771094
 20
51.36528065589664
 30
0.0
 11
787.2146955771094
 21
57.46175371004483
 31
0.0
  0
LINE
  5
D2
330
19
100
AcDbEntity
  8
4
100
AcDbLine
 10
782.3072182889981
 20
59.96175371004483
 30
0.0
 11
782.3072182889981
 21
51.36528065589664
 31
0.0
  0
LINE
  5
D3
330
19
100
AcDbEntity
  8
4
100
AcDbLine
 10
797.0296501533329
 20
51.36528065589664
 30
0.0
 11
797.0296501533329
 21
57.46175371004483
 31
0.0
  0
ARC
  5
D4
330
19
100
AcDbEntity
  8
4
100
AcDbCircle
 10
792.1221728652216
 20
64.24091900750409
 30
0.0
 40
13.77916529745958
100
AcDbArc
 50
249.1359356360801
 51
290.8640643639195
  0
LINE
  5
D5
330
19
100
AcDbEntity
  8
4
100
AcDbLine
 10
801.9371274414451
 20
51.36528065589664
 30
0.0
 11
801.9371274414451
 21
59.96175371004483
 31
0.0
  0
LINE
  5
D6
330
19
100
AcDbEntity
  8
4
100
AcDbLine
 10
697.6550393793395
 20
378.9617537100448
 30
0.0
 11
508.8070393793396
 21
378.9617537100448
 31
0.0
  0
LINE
  5
D7
330
19
100
AcDbEntity
  8
4
100
AcDbLine
 10
508.8070393793396
 20
378.9617537100448
 30
0.0
 11
508.8070393793396
 21
363.9617537100448
 31
0.0
  0
LINE
  5
D8
330
19
100
AcDbEntity
  8
4
100
AcDbLine
 10
405.1551814542172
 20
347.9617537100448
 30
0.0
 11
435.1551814542172
 21
347.9617537100448
 31
0.0
  0
LINE
  5
D9
330
19
100
AcDbEntity
  8
4
 48
0.8
100
AcDbLine
 10
396.1551814542172
 20
249.9617537100457
 30
0.0
 11
384.1551814542172
 21
249.9617537100457
 31
0.0
  0
LINE
  5
DA
330
19
100
AcDbEntity
  8
4
100
AcDbLine
 10
396.1551814542172
 20
249.9617537100457
 30
0.0
 11
384.1551814542172
 21
249.9617537100467
 31
0.0
  0
LINE
  5
DB
330
19
100
AcDbEntity
  8
4
 48
0.8
100
AcDbLine
 10
372.1551814542172
 20
246.9617537100448
 30
0.0
 11
384.1551814542163
 21
246.9617537100457
 31
0.0
  0
LINE
  5
DC
330
19
100
AcDbEntity
  8
4
100
AcDbLine
 10
405.1551814542172
 20
329.9617537100448
 30
0.0
 11
405.1551814542172
 21
319.9617537100448
 31
0.0
  0
LINE
  5
DD
330
19
100
AcDbEntity
  8
4
100
AcDbLine
 10
405.1551814542172
 20
347.9617537100448
 30
0.0
 11
405.1551814542172
 21
329.9617537100448
 31
0.0
  0
LINE
  5
DE
330
19
100
AcDbEntity
  8
4
100
AcDbLine
 10
405.1550393793395
 20
319.9617537100448
 30
0.0
 11
405.1550393793395
 21
347.9617537100448
 31
0.0
  0
ARC
  5
DF
330
19
100
AcDbEntity
  8
4
100
AcDbCircle
 10
442.9913217008313
 20
345.1660095748675
 30
0.0
 40
13.7957441351769
100
AcDbArc
 50
66.57340249137185
 51
113.4265975086282
  0
LINE
  5
E0
330
19
100
AcDbEntity
  8
4
100
AcDbLine
 10
451.2185630367837
 20
358.9617537100448
 30
0.0
 11
434.7640803648799
 21
358.9617537100448
 31
0.0
  0
LINE
  5
E1
330
19
100
AcDbEntity
  8
4
100
AcDbLine
 10
432.0216665862288
 20
347.9617537100448
 30
0.0
 11
453.9609768154348
 21
347.9617537100448
 31
0.0
  0
LINE
  5
E2
330
19
100
AcDbEntity
  8
4
100
AcDbLine
 10
432.0216665862288
 20
350.9617537100448
 30
0.0
 11
453.9609768154348
 21
350.9617537100448
 31
0.0
  0
LINE
  5
E3
330
19
100
AcDbEntity
  8
4
100
AcDbLine
 10
437.5064941435301
 20
357.8245727994181
 30
0.0
 11
437.5064941435301
 21
350.9617537100448
 31
0.0
  0
LINE
  5
E4
330
19
100
AcDbEntity
  8
4
100
AcDbLine
 10
432.0216665862288
 20
357.8245727994181
 30
0.0
 11
432.0216665862288
 21
347.9617537100448
 31
0.0
  0
ARC
  5
E5
330
19
100
AcDbEntity
  8
4
100
AcDbCircle
 10
434.7640803648799
 20
355.0863748347656
 30
0.0
 40
3.875378875279244
100
AcDbArc
 50
44.955926762744
 51
135.044073237256
  0
ARC
  5
E6
330
19
100
AcDbEntity
  8
4
100
AcDbCircle
 10
451.2185630367837
 20
355.0863748347656
 30
0.0
 40
3.875378875279264
100
AcDbArc
 50
44.955926762744
 51
135.044073237256
  0
LINE
  5
E7
330
19
100
AcDbEntity
  8
4
100
AcDbLine
 10
448.4761492581326
 20
357.8245727994181
 30
0.0
 11
448.4761492581326
 21
350.9617537100448
 31
0.0
  0
LINE
  5
E8
330
19
100
AcDbEntity
  8
4
100
AcDbLine
 10
453.9609768154348
 20
347.9617537100448
 30
0.0
 11
453.9609768154348
 21
357.8245727994181
 31
0.0
  0
LINE
  5
E9
330
19
100
AcDbEntity
  8
L-CENTER
100
AcDbLine
 10
442.9913217008313
 20
362.5625935901489
 30
0.0
 11
442.9913217008313
 21
315.5090421801583
 31
0.0
  0
LINE
  5
EA
330
19
100
AcDbEntity
  8
4
100
AcDbLine
 10
435.1551814542172
 20
363.9617537100448
 30
0.0
 11
435.1551814542172
 21
358.9617537100448
 31
0.0
  0
LINE
  5
EB
330
19
100
AcDbEntity
  8
4
100
AcDbLine
 10
435.1550393793395
 20
358.9617537100448
 30
0.0
 11
435.1550393793395
 21
363.9617537100448
 31
0.0
  0
LINE
  5
EC
330
19
100
AcDbEntity
  8
4
100
AcDbLine
 10
578.8070393793396
 20
553.9617537100467
 30
0.0
 11
578.8070393793396
 21
396.9617537100467
 31
0.0
  0
LINE
  5
ED
330
19
100
AcDbEntity
  8
4
100
AcDbLine
 10
635.8070393793396
 20
554.9617537100467
 30
0.0
 11
635.8070393793396
 21
416.9617537100467
 31
0.0
  0
LINE
  5
EE
330
19
100
AcDbEntity
  8
4
100
AcDbLine
 10
611.8070393793396
 20
554.9617537100467
 30
0.0
 11
611.8070393793396
 21
416.9617537100467
 31
0.0
  0
LINE
  5
EF
330
19
100
AcDbEntity
  8
4
100
AcDbLine
 10
668.8070393793396
 20
553.9617537100448
 30
0.0
 11
668.8070393793396
 21
396.9617537100448
 31
0.0
  0
LINE
  5
F0
330
19
100
AcDbEntity
  8
4
100
AcDbLine
 10
684.7027629217718
 20
379.9617537100448
 30
0.0
 11
562.9113158369084
 21
379.9617537100448
 31
0.0
  0
LINE
  5
F1
330
19
100
AcDbEntity
  8
L-CENTER
100
AcDbLine
 10
553.0963612606832
 20
350.5257982924368
 30
0.0
 11
553.0963612606856
 21
391.3297319646285
 31
0.0
  0
ARC
  5
F2
330
19
100
AcDbEntity
  8
4
100
AcDbCircle
 10
605.3501517446907
 20
345.1660095748675
 30
0.0
 40
13.7957441351769
100
AcDbArc
 50
66.57340249137164
 51
113.4265975086284
  0
LINE
  5
F3
330
19
100
AcDbEntity
  8
4
100
AcDbLine
 10
613.5773930806431
 20
358.9617537100448
 30
0.0
 11
597.1229104087392
 21
358.9617537100448
 31
0.0
  0
LINE
  5
F4
330
19
100
AcDbEntity
  8
4
100
AcDbLine
 10
594.3804966300881
 20
347.9617537100448
 30
0.0
 11
616.3198068592942
 21
347.9617537100448
 31
0.0
  0
LINE
  5
F5
330
19
100
AcDbEntity
  8
4
100
AcDbLine
 10
594.3804966300881
 20
350.9617537100448
 30
0.0
 11
616.3198068592942
 21
350.9617537100448
 31
0.0
  0
LINE
  5
F6
330
19
100
AcDbEntity
  8
4
100
AcDbLine
 10
599.8653241873894
 20
357.8245727994181
 30
0.0
 11
599.8653241873894
 21
350.9617537100448
 31
0.0
  0
LINE
  5
F7
330
19
100
AcDbEntity
  8
4
100
AcDbLine
 10
594.3804966300881
 20
357.8245727994181
 30
0.0
 11
594.3804966300881
 21
347.9617537100448
 31
0.0
  0
ARC
  5
F8
330
19
100
AcDbEntity
  8
4
100
AcDbCircle
 10
597.1229104087392
 20
355.0863748347656
 30
0.0
 40
3.875378875279244
100
AcDbArc
 50
44.955926762744
 51
135.044073237256
  0
ARC
  5
F9
330
19
100
AcDbEntity
  8
4
100
AcDbCircle
 10
613.5773930806431
 20
355.0863748347656
 30
0.0
 40
3.875378875279264
100
AcDbArc
 50
44.955926762744
 51
135.044073237256
  0
LINE
  5
FA
330
19
100
AcDbEntity
  8
4
100
AcDbLine
 10
610.834979301992
 20
357.8245727994181
 30
0.0
 11
610.834979301992
 21
350.9617537100448
 31
0.0
  0
LINE
  5
FB
330
19
100
AcDbEntity
  8
4
100
AcDbLine
 10
616.3198068592942
 20
347.9617537100448
 30
0.0
 11
616.3198068592942
 21
357.8245727994181
 31
0.0
  0
LINE
  5
FC
330
19
100
AcDbEntity
  8
L-CENTER
100
AcDbLine
 10
605.3501517446907
 20
362.5625935901489
 30
0.0
 11
605.3501517446907
 21
315.5090421801583
 31
0.0
  0
LINE
  5
FD
330
19
100
AcDbEntity
  8
4
100
AcDbLine
 10
671.3070393793396
 20
394.9617537100448
 30
0.0
 11
576.3070393793396
 21
394.9617537100467
 31
0.0
  0
ARC
  5
FE
330
19
100
AcDbEntity
  8
4
100
AcDbCircle
 10
553.0963612606847
 20
374.6825884125897
 30
0.0
 40
13.77916529745958
100
AcDbArc
 50
69.13593563607698
 51
110.8640643639175
  0
LINE
  5
FF
330
19
100
AcDbEntity
  8
4
100
AcDbLine
 10
545.7351453285172
 20
388.4617537100494
 30
0.0
 11
560.4575771928529
 21
388.4617537100485
 31
0.0
  0
LINE
  5
100
330
19
100
AcDbEntity
  8
4
100
AcDbLine
 10
562.9113158369084
 20
378.9617537100485
 30
0.0
 11
543.2814066844614
 21
378.9617537100494
 31
0.0
  0
LINE
  5
101
330
19
100
AcDbEntity
  8
4
100
AcDbLine
 10
562.9113158369086
 20
381.4617537100485
 30
0.0
 11
543.2814066844616
 21
381.4617537100494
 31
0.0
  0
ARC
  5
102
330
19
100
AcDbEntity
  8
4
100
AcDbCircle
 10
545.735145328517
 20
384.67813978099
 30
0.0
 40
3.783613929059507
100
AcDbArc
 50
49.57010315516856
 51
130.4298968448301
  0
LINE
  5
103
330
19
100
AcDbEntity
  8
4
100
AcDbLine
 10
548.1888839725732
 20
387.5582267641976
 30
0.0
 11
548.1888839725729
 21
381.4617537100494
 31
0.0
  0
LINE
  5
104
330
19
100
AcDbEntity
  8
4
100
AcDbLine
 10
543.2814066844614
 20
378.9617537100494
 30
0.0
 11
543.2814066844619
 21
387.5582267641976
 31
0.0
  0
ARC
  5
105
330
19
100
AcDbEntity
  8
4
100
AcDbCircle
 10
560.4575771928527
 20
384.6781397809891
 30
0.0
 40
3.783613929059507
100
AcDbArc
 50
49.57010315516856
 51
130.4298968448301
  0
LINE
  5
106
330
19
100
AcDbEntity
  8
4
100
AcDbLine
 10
562.9113158369089
 20
387.5582267641967
 30
0.0
 11
562.9113158369084
 21
378.9617537100485
 31
0.0
  0
LINE
  5
107
330
19
100
AcDbEntity
  8
4
100
AcDbLine
 10
558.0038385487967
 20
387.5582267641967
 30
0.0
 11
558.0038385487964
 21
381.4617537100485
 31
0.0
  0
LINE
  5
108
330
19
100
AcDbEntity
  8
4
100
AcDbLine
 10
576.3070393793396
 20
394.9617537100467
 30
0.0
 11
576.3070393793396
 21
379.9617537100453
 31
0.0
  0
ARC
  5
109
330
19
100
AcDbEntity
  8
4
100
AcDbCircle
 10
576.8070393793396
 20
396.9617537100467
 30
0.0
 40
2.0
100
AcDbArc
 50
270.0
 51
0.0
  0
LINE
  5
10A
330
19
100
AcDbEntity
  8
4
100
AcDbLine
 10
576.3070393793396
 20
394.9617537100448
 30
0.0
 11
576.3070393793396
 21
379.9617537100448
 31
0.0
  0
ARC
  5
10B
330
19
100
AcDbEntity
  8
4
100
AcDbCircle
 10
623.8070393793396
 20
416.9617537100467
 30
0.0
 40
12.0
100
AcDbArc
 50
270.0
 51
0.0
  0
ARC
  5
10C
330
19
100
AcDbEntity
  8
4
100
AcDbCircle
 10
623.8070393793396
 20
416.9617537100467
 30
0.0
 40
12.0
100
AcDbArc
 50
180.0
 51
270.0
  0
LINE
  5
10D
330
19
100
AcDbEntity
  8
4
100
AcDbLine
 10
671.3070393793396
 20
394.9617537100448
 30
0.0
 11
671.3070393793396
 21
379.9617537100448
 31
0.0
  0
ARC
  5
10E
330
19
100
AcDbEntity
  8
4
100
AcDbCircle
 10
670.8070393793396
 20
396.9617537100467
 30
0.0
 40
2.0
100
AcDbArc
 50
180.0
 51
270.0
  0
LINE
  5
10F
330
19
100
AcDbEntity
  8
4
100
AcDbLine
 10
671.3070393793396
 20
394.9617537100448
 30
0.0
 11
671.3070393793396
 21
379.9617537100448
 31
0.0
  0
LINE
  5
110
330
19
100
AcDbEntity
  8
L-CENTER
100
AcDbLine
 10
694.5177174979952
 20
350.5257982924327
 30
0.0
 11
694.5177174979952
 21
391.3297319646244
 31
0.0
  0
LINE
  5
111
330
19
100
AcDbEntity
  8
L-CENTER
100
AcDbLine
 10
792.1221728652216
 20
350.5257982924327
 30
0.0
 11
792.1221728652216
 21
391.3297319646244
 31
0.0
  0
LINE
  5
112
330
19
100
AcDbEntity
  8
4
100
AcDbLine
 10
742.6550393793395
 20
363.9617537100448
 30
0.0
 11
742.6550393793395
 21
381.9617537100448
 31
0.0
  0
LINE
  5
113
330
19
100
AcDbEntity
  8
4
100
AcDbLine
 10
755.1550393793395
 20
378.9617537100448
 30
0.0
 11
755.1550393793395
 21
363.9617537100448
 31
0.0
  0
LINE
  5
114
330
19
100
AcDbEntity
  8
4
100
AcDbLine
 10
697.6550393793395
 20
363.9617537100448
 30
0.0
 11
697.6550393793395
 21
381.9617537100448
 31
0.0
  0
LINE
  5
115
330
19
100
AcDbEntity
  8
4
100
AcDbLine
 10
823.9905560491402
 20
347.9617537100448
 30
0.0
 11
823.9905560491402
 21
357.8245727994181
 31
0.0
  0
LINE
  5
116
330
19
100
AcDbEntity
  8
4
100
AcDbLine
 10
829.4753836064424
 20
357.8245727994181
 30
0.0
 11
829.4753836064424
 21
350.9617537100448
 31
0.0
  0
ARC
  5
117
330
19
100
AcDbEntity
  8
4
100
AcDbCircle
 10
826.7329698277913
 20
355.0863748347656
 30
0.0
 40
3.875378875279264
100
AcDbArc
 50
44.955926762744
 51
135.044073237256
  0
LINE
  5
118
330
19
100
AcDbEntity
  8
L-CENTER
100
AcDbLine
 10
834.9602111637437
 20
362.5625935901489
 30
0.0
 11
834.9602111637437
 21
315.5090421801583
 31
0.0
  0
LINE
  5
119
330
19
100
AcDbEntity
  8
4
100
AcDbLine
 10
710.1550393793395
 20
443.9617537100448
 30
0.0
 11
710.1553235290945
 21
379.9906105387358
 31
0.0
  0
LINE
  5
11A
330
19
100
AcDbEntity
  8
4
100
AcDbLine
 10
730.1550393793395
 20
443.9617537100448
 30
0.0
 11
730.1550393793395
 21
379.9152254317291
 31
0.0
  0
LINE
  5
11B
330
19
100
AcDbEntity
  8
L-CENTER
100
AcDbLine
 10
739.1879679212586
 20
408.9617537100448
 30
0.0
 11
701.1223949871758
 21
408.9617537100448
 31
0.0
  0
LINE
  5
11C
330
19
100
AcDbEntity
  8
4
100
AcDbLine
 10
704.3326720742187
 20
382.5553210013441
 30
0.0
 11
704.3326720742187
 21
387.558226764193
 31
0.0
  0
LINE
  5
11D
330
19
100
AcDbEntity
  8
4
100
AcDbLine
 10
701.8789334301636
 20
388.4617537100448
 30
0.0
 11
687.1565015658279
 21
388.4617537100448
 31
0.0
  0
ARC
  5
11E
330
19
100
AcDbEntity
  8
4
100
AcDbCircle
 10
694.5177174979952
 20
374.6825884125856
 30
0.0
 40
13.77916529745958
100
AcDbArc
 50
69.13593563608075
 51
110.8640643639193
  0
LINE
  5
11F
330
19
100
AcDbEntity
  8
4
100
AcDbLine
 10
684.7027629217718
 20
378.9617537100448
 30
0.0
 11
697.6550393793395
 21
378.9617537100448
 31
0.0
  0
LINE
  5
120
330
19
100
AcDbEntity
  8
4
100
AcDbLine
 10
684.7027629217718
 20
381.4617537100448
 30
0.0
 11
697.6550393793395
 21
381.4617537100448
 31
0.0
  0
LINE
  5
121
330
19
100
AcDbEntity
  8
4
100
AcDbLine
 10
689.610240209884
 20
387.558226764193
 30
0.0
 11
689.610240209884
 21
381.4617537100448
 31
0.0
  0
LINE
  5
122
330
19
100
AcDbEntity
  8
4
100
AcDbLine
 10
684.7027629217718
 20
387.558226764193
 30
0.0
 11
684.7027629217718
 21
378.9617537100448
 31
0.0
  0
ARC
  5
123
330
19
100
AcDbEntity
  8
4
100
AcDbCircle
 10
687.1565015658279
 20
384.6781397809855
 30
0.0
 40
3.783613929059507
100
AcDbArc
 50
49.57010315516987
 51
130.4298968448301
  0
LINE
  5
124
330
19
100
AcDbEntity
  8
4
100
AcDbLine
 10
699.4251947861075
 20
387.558226764193
 30
0.0
 11
699.4251947861075
 21
382.1191008415785
 31
0.0
  0
ARC
  5
125
330
19
100
AcDbEntity
  8
4
100
AcDbCircle
 10
701.8789334301636
 20
384.6781397809855
 30
0.0
 40
3.783613929059507
100
AcDbArc
 50
49.57010315516987
 51
130.4298968448301
  0
LINE
  5
126
330
19
100
AcDbEntity
  8
4
100
AcDbLine
 10
710.1550393793395
 20
381.9617537100448
 30
0.0
 11
697.6550393793395
 21
381.9617537100448
 31
0.0
  0
LINE
  5
127
330
19
100
AcDbEntity
  8
4
100
AcDbLine
 10
710.1550393793395
 20
383.072864710045
 30
0.0
 11
697.6550393793395
 21
381.9617537100448
 31
0.0
  0
LINE
  5
128
330
19
100
AcDbEntity
  8
4
100
AcDbLine
 10
730.1550393793395
 20
383.072864710045
 30
0.0
 11
742.6550393793395
 21
381.9617537100448
 31
0.0
  0
LINE
  5
129
330
19
100
AcDbEntity
  8
4
100
AcDbLine
 10
742.6550393793395
 20
381.9617537100448
 30
0.0
 11
730.1550393793395
 21
381.9617537100448
 31
0.0
  0
ARC
  5
12A
330
19
100
AcDbEntity
  8
4
100
AcDbCircle
 10
720.1550393793395
 20
443.9617537100448
 30
0.0
 40
10.0
100
AcDbArc
 50
0.0
 51
180.0
  0
LINE
  5
12B
330
19
100
AcDbEntity
  8
4
100
AcDbLine
 10
799.4833887973899
 20
388.4617537100448
 30
0.0
 11
784.7609569330542
 21
388.4617537100448
 31
0.0
  0
LINE
  5
12C
330
19
100
AcDbEntity
  8
4
100
AcDbLine
 10
782.3072182889981
 20
378.9617537100448
 30
0.0
 11
801.9371274414451
 21
378.9617537100448
 31
0.0
  0
LINE
  5
12D
330
19
100
AcDbEntity
  8
4
100
AcDbLine
 10
782.3072182889981
 20
381.4617537100448
 30
0.0
 11
801.9371274414451
 21
381.4617537100448
 31
0.0
  0
ARC
  5
12E
330
19
100
AcDbEntity
  8
4
100
AcDbCircle
 10
799.4833887973899
 20
384.6781397809855
 30
0.0
 40
3.783613929059507
100
AcDbArc
 50
49.57010315516987
 51
130.4298968448301
  0
ARC
  5
12F
330
19
100
AcDbEntity
  8
4
100
AcDbCircle
 10
792.1221728652216
 20
374.6825884125856
 30
0.0
 40
13.77916529745958
100
AcDbArc
 50
69.13593563608075
 51
110.8640643639193
  0
LINE
  5
130
330
19
100
AcDbEntity
  8
4
100
AcDbLine
 10
787.2146955771103
 20
387.558226764193
 30
0.0
 11
787.2146955771103
 21
381.4617537100448
 31
0.0
  0
LINE
  5
131
330
19
100
AcDbEntity
  8
4
100
AcDbLine
 10
782.3072182889981
 20
387.558226764193
 30
0.0
 11
782.3072182889981
 21
378.9617537100448
 31
0.0
  0
ARC
  5
132
330
19
100
AcDbEntity
  8
4
100
AcDbCircle
 10
784.7609569330542
 20
384.6781397809855
 30
0.0
 40
3.783613929059507
100
AcDbArc
 50
49.57010315516987
 51
130.4298968448301
  0
LINE
  5
133
330
19
100
AcDbEntity
  8
4
100
AcDbLine
 10
797.0296501533338
 20
387.558226764193
 30
0.0
 11
797.0296501533338
 21
381.4617537100448
 31
0.0
  0
LINE
  5
134
330
19
100
AcDbEntity
  8
4
100
AcDbLine
 10
801.9371274414451
 20
378.9617537100448
 30
0.0
 11
801.9371274414451
 21
387.558226764193
 31
0.0
  0
LINE
  5
137
330
19
100
AcDbEntity
  8
4
100
AcDbLine
 10
611.8070393793396
 20
553.9617537100467
 30
0.0
 11
578.8070393793396
 21
553.9617537100467
 31
0.0
  0
LINE
  5
138
330
19
100
AcDbEntity
  8
4
100
AcDbLine
 10
667.8070393793396
 20
554.9617537100448
 30
0.0
 11
579.8070393793396
 21
554.9617537100467
 31
0.0
  0
LINE
  5
139
330
19
100
AcDbEntity
  8
4
100
AcDbLine
 10
579.8070393793396
 20
554.9617537100467
 30
0.0
 11
578.8070393793396
 21
553.9617537100467
 31
0.0
  0
LINE
  5
13B
330
19
100
AcDbEntity
  8
4
100
AcDbLine
 10
668.8070393793396
 20
553.9617537100448
 30
0.0
 11
667.8070393793396
 21
554.9617537100448
 31
0.0
  0
LINE
  5
13C
330
19
100
AcDbEntity
  8
4
100
AcDbLine
 10
668.8070393793396
 20
553.9617537100448
 30
0.0
 11
635.8070393793396
 21
553.9617537100467
 31
0.0
  0
LINE
  5
13D
330
19
100
AcDbEntity
  8
4
100
AcDbLine
 10
1748.822190086497
 20
350.9617537100448
 30
0.0
 11
1770.761500315703
 21
350.9617537100448
 31
0.0
  0
LINE
  5
13E
330
19
100
AcDbEntity
  8
4
100
AcDbLine
 10
1748.822190086497
 20
347.9617537100448
 30
0.0
 11
1770.761500315703
 21
347.9617537100448
 31
0.0
  0
LINE
  5
13F
330
19
100
AcDbEntity
  8
4
100
AcDbLine
 10
1768.019086537052
 20
358.9617537100448
 30
0.0
 11
1751.564603865148
 21
358.9617537100448
 31
0.0
  0
ARC
  5
140
330
19
100
AcDbEntity
  8
4
100
AcDbCircle
 10
1759.7918452011
 20
345.1660095748675
 30
0.0
 40
13.7957441351769
100
AcDbArc
 50
66.57340249137164
 51
113.4265975086284
  0
LINE
  5
141
330
19
100
AcDbEntity
  8
4
100
AcDbLine
 10
2159.596874910626
 20
363.9617537100448
 30
0.0
 11
1589.596874910626
 21
363.9617537100448
 31
0.0
  0
LINE
  5
142
330
19
100
AcDbEntity
  8
L-CENTER
100
AcDbLine
 10
2151.436964207986
 20
174.9617537100457
 30
0.0
 11
1983.756785613265
 21
174.9617537100457
 31
0.0
  0
LINE
  5
143
330
19
100
AcDbEntity
  8
4
100
AcDbLine
 10
2189.596874910626
 20
329.9617537100448
 30
0.0
 11
1559.596874910626
 21
329.9617537100467
 31
0.0
  0
LINE
  5
144
330
19
100
AcDbEntity
  8
4
100
AcDbLine
 10
2198.596874910626
 20
319.9617537100448
 30
0.0
 11
1550.596874910626
 21
319.9617537100448
 31
0.0
  0
LINE
  5
145
330
19
100
AcDbEntity
  8
4
100
AcDbLine
 10
2229.596874910626
 20
74.96175371004483
 30
0.0
 11
1549.596874910626
 21
74.96175371004483
 31
0.0
  0
LINE
  5
146
330
19
100
AcDbEntity
  8
4
100
AcDbLine
 10
2185.189105736784
 20
83.96175371004483
 30
0.0
 11
1594.004644084468
 21
83.96175371004483
 31
0.0
  0
LINE
  5
147
330
19
100
AcDbEntity
  8
4
100
AcDbLine
 10
2189.596874910626
 20
347.9617537100448
 30
0.0
 11
1559.596874910626
 21
347.9617537100448
 31
0.0
  0
LINE
  5
148
330
19
100
AcDbEntity
  8
4
100
AcDbLine
 10
1550.596874910626
 20
319.9617537100448
 30
0.0
 11
1550.596874910626
 21
75.96175371004483
 31
0.0
  0
LINE
  5
149
330
19
100
AcDbEntity
  8
4
100
AcDbLine
 10
1044.155181454217
 20
319.9617537100448
 30
0.0
 11
1044.155181454216
 21
74.96175371004483
 31
0.0
  0
LINE
  5
14A
330
19
100
AcDbEntity
  8
4
100
AcDbLine
 10
1056.155181454217
 20
249.9617537100457
 30
0.0
 11
1056.155181454217
 21
99.96175371004574
 31
0.0
  0
LINE
  5
14B
330
19
100
AcDbEntity
  8
4
100
AcDbLine
 10
1068.155181454217
 20
246.9617537100457
 30
0.0
 11
1068.155181454217
 21
102.9617537100467
 31
0.0
  0
LINE
  5
14C
330
19
100
AcDbEntity
  8
L-CENTER
100
AcDbLine
 10
845.1551814542171
 20
383.9617537100448
 30
0.0
 11
845.1551814542172
 21
51.31769764046476
 31
0.0
  0
LINE
  5
14D
330
19
100
AcDbEntity
  8
4
100
AcDbLine
 10
1091.405181454216
 20
201.4617537100457
 30
0.0
 11
1181.405181454217
 21
201.4617537100457
 31
0.0
  0
LINE
  5
14E
330
19
100
AcDbEntity
  8
4
100
AcDbLine
 10
1083.405181454216
 20
197.9617537100457
 30
0.0
 11
1180.405181454217
 21
197.9617537100457
 31
0.0
  0
LINE
  5
14F
330
19
100
AcDbEntity
  8
4
100
AcDbLine
 10
1083.405181454216
 20
151.9617537100457
 30
0.0
 11
1180.405181454217
 21
151.9617537100457
 31
0.0
  0
LINE
  5
150
330
19
100
AcDbEntity
  8
4
100
AcDbLine
 10
1030.155181454217
 20
34.96175371004574
 30
0.0
 11
870.1551814542172
 21
34.96175371004574
 31
0.0
  0
LINE
  5
151
330
19
100
AcDbEntity
  8
4
100
AcDbLine
 10
1035.15503937934
 20
329.9617537100457
 30
0.0
 11
405.1551814542171
 21
329.9617537100457
 31
0.0
  0
LINE
  5
152
330
19
100
AcDbEntity
  8
4
100
AcDbLine
 10
1044.155181454216
 20
83.96175371004483
 30
0.0
 11
882.1551814542163
 21
83.96175371004483
 31
0.0
  0
LINE
  5
153
330
19
100
AcDbEntity
  8
4
100
AcDbLine
 10
870.1551814542172
 20
119.369522883886
 30
0.0
 11
870.1551814542172
 21
34.96175371004574
 31
0.0
  0
LINE
  5
154
330
19
100
AcDbEntity
  8
4
100
AcDbLine
 10
882.1551814542163
 20
119.369522883886
 30
0.0
 11
870.1551814542172
 21
119.369522883886
 31
0.0
  0
LINE
  5
155
330
19
100
AcDbEntity
  8
4
100
AcDbLine
 10
882.1551814542163
 20
119.369522883886
 30
0.0
 11
882.1551814542163
 21
74.96175371004483
 31
0.0
  0
LINE
  5
156
330
19
100
AcDbEntity
  8
L-CENTER
100
AcDbLine
 10
970.1551814542172
 20
94.96175371004483
 30
0.0
 11
970.1551814542172
 21
14.96175371004574
 31
0.0
  0
LINE
  5
157
330
19
100
AcDbEntity
  8
4
100
AcDbLine
 10
1068.155181454217
 20
113.8817991338219
 30
0.0
 11
1068.155181454217
 21
133.5117082862698
 31
0.0
  0
LINE
  5
158
330
19
100
AcDbEntity
  8
4
100
AcDbLine
 10
1070.655181454217
 20
113.8817991338219
 30
0.0
 11
1070.655181454217
 21
133.5117082862698
 31
0.0
  0
LINE
  5
159
330
19
100
AcDbEntity
  8
4
100
AcDbLine
 10
1077.655181454217
 20
131.0579696422128
 30
0.0
 11
1077.655181454217
 21
116.335537777878
 31
0.0
  0
ARC
  5
15A
330
19
100
AcDbEntity
  8
4
100
AcDbCircle
 10
1063.876016156758
 20
123.6967537100454
 30
0.0
 40
13.77916529745958
100
AcDbArc
 50
339.1359356360808
 51
20.86406436391924
  0
LINE
  5
15B
330
19
100
AcDbEntity
  8
4
100
AcDbLine
 10
1030.155181454217
 20
74.96175371004483
 30
0.0
 11
1030.155181454217
 21
34.96175371004574
 31
0.0
  0
LINE
  5
15C
330
19
100
AcDbEntity
  8
L-CENTER
100
AcDbLine
 10
1040.06410475644
 20
123.6967537100454
 30
0.0
 11
1080.523159708798
 21
123.6967537100454
 31
0.0
  0
LINE
  5
15D
330
19
100
AcDbEntity
  8
4
 48
0.8
100
AcDbLine
 10
1056.155181454217
 20
99.96175371004574
 30
0.0
 11
1044.155181454217
 21
99.96175371004574
 31
0.0
  0
LINE
  5
15E
330
19
100
AcDbEntity
  8
4
100
AcDbLine
 10
1056.155181454217
 20
99.96175371004665
 30
0.0
 11
1044.155181454217
 21
99.96175371004574
 31
0.0
  0
LINE
  5
15F
330
19
100
AcDbEntity
  8
4
 48
0.8
100
AcDbLine
 10
1068.155181454217
 20
102.9617537100457
 30
0.0
 11
1056.155181454217
 21
102.9617537100457
 31
0.0
  0
ARC
  5
160
330
19
100
AcDbEntity
  8
4
100
AcDbCircle
 10
1073.871567525158
 20
116.335537777878
 30
0.0
 40
3.783613929059507
100
AcDbArc
 50
319.5701031551782
 51
40.42989684482174
  0
LINE
  5
161
330
19
100
AcDbEntity
  8
4
100
AcDbLine
 10
1076.751654508364
 20
113.8817991338219
 30
0.0
 11
1068.155181454217
 21
113.8817991338219
 31
0.0
  0
LINE
  5
162
330
19
100
AcDbEntity
  8
4
100
AcDbLine
 10
1076.751654508364
 20
118.7892764219332
 30
0.0
 11
1070.655181454217
 21
118.7892764219332
 31
0.0
  0
LINE
  5
163
330
19
100
AcDbEntity
  8
4
100
AcDbLine
 10
1081.405181454216
 20
199.9617537100457
 30
0.0
 11
1081.405181454216
 21
149.9617537100457
 31
0.0
  0
LINE
  5
164
330
19
100
AcDbEntity
  8
4
100
AcDbLine
 10
1069.155181454217
 20
210.9617537100467
 30
0.0
 11
1069.155181454217
 21
138.9617537100457
 31
0.0
  0
ARC
  5
165
330
19
100
AcDbEntity
  8
4
100
AcDbCircle
 10
1083.405181454216
 20
149.9617537100457
 30
0.0
 40
2.0
100
AcDbArc
 50
90.0
 51
180.0
  0
LINE
  5
166
330
19
100
AcDbEntity
  8
4
100
AcDbLine
 10
1081.405181454216
 20
149.9617537100457
 30
0.0
 11
1069.155181454217
 21
149.9617537100457
 31
0.0
  0
LINE
  5
167
330
19
100
AcDbEntity
  8
4
 48
0.8
100
AcDbLine
 10
1069.155181454217
 20
138.9617537100457
 30
0.0
 11
1068.155181454217
 21
138.9617537100467
 31
0.0
  0
LINE
  5
168
330
19
100
AcDbEntity
  8
4
100
AcDbLine
 10
1068.155181454217
 20
133.5117082862698
 30
0.0
 11
1076.751654508364
 21
133.5117082862698
 31
0.0
  0
ARC
  5
169
330
19
100
AcDbEntity
  8
4
100
AcDbCircle
 10
1073.871567525158
 20
131.0579696422128
 30
0.0
 40
3.783613929059507
100
AcDbArc
 50
319.5701031551782
 51
40.42989684482174
  0
LINE
  5
16A
330
19
100
AcDbEntity
  8
4
100
AcDbLine
 10
1076.751654508364
 20
128.6042309981576
 30
0.0
 11
1070.655181454217
 21
128.6042309981576
 31
0.0
  0
LINE
  5
16B
330
19
100
AcDbEntity
  8
L-CENTER
100
AcDbLine
 10
1040.06410475644
 20
226.2267537100461
 30
0.0
 11
1080.523159708798
 21
226.2267537100461
 31
0.0
  0
ARC
  5
16C
330
19
100
AcDbEntity
  8
4
100
AcDbCircle
 10
1083.405181454216
 20
199.9617537100457
 30
0.0
 40
2.0
100
AcDbArc
 50
180.0
 51
270.0
  0
LINE
  5
16D
330
19
100
AcDbEntity
  8
4
100
AcDbLine
 10
1081.405181454216
 20
199.9617537100457
 30
0.0
 11
1069.155181454217
 21
199.9617537100457
 31
0.0
  0
LINE
  5
16E
330
19
100
AcDbEntity
  8
4
 48
0.8
100
AcDbLine
 10
1069.155181454217
 20
210.9617537100457
 30
0.0
 11
1068.155181454217
 21
210.9617537100457
 31
0.0
  0
LINE
  5
16F
330
19
100
AcDbEntity
  8
4
100
AcDbLine
 10
1068.155181454217
 20
216.4117991338217
 30
0.0
 11
1068.155181454217
 21
236.0417082862687
 31
0.0
  0
LINE
  5
170
330
19
100
AcDbEntity
  8
4
100
AcDbLine
 10
1070.655181454217
 20
216.4117991338217
 30
0.0
 11
1070.655181454217
 21
236.0417082862687
 31
0.0
  0
ARC
  5
171
330
19
100
AcDbEntity
  8
4
100
AcDbCircle
 10
1073.871567525158
 20
218.8655377778778
 30
0.0
 40
3.783613929059507
100
AcDbArc
 50
319.5701031551782
 51
40.42989684482174
  0
LINE
  5
172
330
19
100
AcDbEntity
  8
4
100
AcDbLine
 10
1076.751654508364
 20
216.4117991338217
 30
0.0
 11
1068.155181454217
 21
216.4117991338217
 31
0.0
  0
LINE
  5
173
330
19
100
AcDbEntity
  8
4
100
AcDbLine
 10
1077.655181454217
 20
233.5879696422135
 30
0.0
 11
1077.655181454217
 21
218.8655377778778
 31
0.0
  0
ARC
  5
174
330
19
100
AcDbEntity
  8
4
100
AcDbCircle
 10
1063.876016156758
 20
226.2267537100461
 30
0.0
 40
13.77916529745958
100
AcDbArc
 50
339.1359356360808
 51
20.86406436391924
  0
LINE
  5
175
330
19
100
AcDbEntity
  8
4
100
AcDbLine
 10
1076.751654508364
 20
221.3192764219339
 30
0.0
 11
1070.655181454217
 21
221.3192764219339
 31
0.0
  0
LINE
  5
176
330
19
100
AcDbEntity
  8
4
100
AcDbLine
 10
1068.155181454217
 20
236.0417082862687
 30
0.0
 11
1076.751654508364
 21
236.0417082862687
 31
0.0
  0
ARC
  5
177
330
19
100
AcDbEntity
  8
4
100
AcDbCircle
 10
1073.871567525158
 20
233.5879696422135
 30
0.0
 40
3.783613929059507
100
AcDbArc
 50
319.5701031551782
 51
40.42989684482174
  0
LINE
  5
178
330
19
100
AcDbEntity
  8
4
100
AcDbLine
 10
1076.751654508364
 20
231.1342309981574
 30
0.0
 11
1070.655181454217
 21
231.1342309981574
 31
0.0
  0
LINE
  5
179
330
19
100
AcDbEntity
  8
4
100
AcDbLine
 10
1091.405181454216
 20
197.9617537100467
 30
0.0
 11
1091.405181454216
 21
201.4617537100457
 31
0.0
  0
LINE
  5
17A
330
19
100
AcDbEntity
  8
4
100
AcDbLine
 10
1594.004644084464
 20
119.3695228838833
 30
0.0
 11
1549.596874910623
 21
74.9617537100412
 31
0.0
  0
LINE
  5
17B
330
19
100
AcDbEntity
  8
4
100
AcDbLine
 10
1729.596874910626
 20
34.96175371004483
 30
0.0
 11
1549.596874910626
 21
34.96175371004483
 31
0.0
  0
LINE
  5
17C
330
19
100
AcDbEntity
  8
L-CENTER
100
AcDbLine
 10
1589.596874910626
 20
94.96175371004483
 30
0.0
 11
1589.596874910626
 21
14.96175371004529
 31
0.0
  0
LINE
  5
17D
330
19
100
AcDbEntity
  8
4
100
AcDbLine
 10
1549.596874910626
 20
34.96175371004483
 30
0.0
 11
1549.596874910626
 21
74.96175371004483
 31
0.0
  0
LINE
  5
17F
330
19
100
AcDbEntity
  8
4
100
AcDbLine
 10
1181.405181454217
 20
196.9617537100457
 30
0.0
 11
1181.405181454217
 21
152.9617537100457
 31
0.0
  0
LINE
  5
180
330
19
100
AcDbEntity
  8
4
100
AcDbLine
 10
1180.405181454217
 20
151.9617537100457
 30
0.0
 11
1180.405181454217
 21
197.9617537100457
 31
0.0
  0
LINE
  5
181
330
19
100
AcDbEntity
  8
4
100
AcDbLine
 10
1180.405181454217
 20
151.9617537100457
 30
0.0
 11
1181.405181454217
 21
152.9617537100457
 31
0.0
  0
LINE
  5
183
330
19
100
AcDbEntity
  8
4
100
AcDbLine
 10
1181.405181454217
 20
196.9617537100457
 30
0.0
 11
1180.405181454217
 21
197.9617537100457
 31
0.0
  0
LINE
  5
184
330
19
100
AcDbEntity
  8
4
100
AcDbLine
 10
1181.405181454217
 20
196.9617537100457
 30
0.0
 11
1181.405181454217
 21
201.4617537100457
 31
0.0
  0
LINE
  5
186
330
19
100
AcDbEntity
  8
4
100
AcDbLine
 10
1594.004644084468
 20
119.3695228838797
 30
0.0
 11
1594.004644084468
 21
74.96175371004483
 31
0.0
  0
LINE
  5
187
330
19
100
AcDbEntity
  8
4
100
AcDbLine
 10
1729.596874910626
 20
34.96175371004483
 30
0.0
 11
1729.596874910626
 21
74.96175371004483
 31
0.0
  0
ARC
  5
188
330
19
100
AcDbEntity
  8
4
100
AcDbCircle
 10
1005.546282543555
 20
355.0863748347656
 30
0.0
 40
3.875378875279244
100
AcDbArc
 50
44.955926762744
 51
135.044073237256
  0
LINE
  5
189
330
19
100
AcDbEntity
  8
4
100
AcDbLine
 10
1008.288696322206
 20
350.9617537100448
 30
0.0
 11
986.3493860929996
 21
350.9617537100448
 31
0.0
  0
LINE
  5
18A
330
19
100
AcDbEntity
  8
4
100
AcDbLine
 10
1008.288696322206
 20
347.9617537100448
 30
0.0
 11
986.3493860929996
 21
347.9617537100448
 31
0.0
  0
LINE
  5
18B
330
19
100
AcDbEntity
  8
4
100
AcDbLine
 10
989.0917998716507
 20
358.9617537100448
 30
0.0
 11
1005.546282543555
 21
358.9617537100448
 31
0.0
  0
LINE
  5
18C
330
19
100
AcDbEntity
  8
L-CENTER
100
AcDbLine
 10
898.1881900432126
 20
350.5257982924327
 30
0.0
 11
898.1881900432126
 21
391.3297319646244
 31
0.0
  0
LINE
  5
18D
330
19
100
AcDbEntity
  8
4
100
AcDbLine
 10
935.1550393793395
 20
378.9617537100448
 30
0.0
 11
935.1550393793395
 21
363.9617537100448
 31
0.0
  0
ARC
  5
18E
330
19
100
AcDbEntity
  8
4
100
AcDbCircle
 10
843.1874524996952
 20
355.0863748347656
 30
0.0
 40
3.875378875279244
100
AcDbArc
 50
44.955926762744
 51
135.044073237256
  0
LINE
  5
18F
330
19
100
AcDbEntity
  8
4
100
AcDbLine
 10
845.9298662783463
 20
357.8245727994181
 30
0.0
 11
845.9298662783463
 21
347.9617537100448
 31
0.0
  0
LINE
  5
190
330
19
100
AcDbEntity
  8
4
100
AcDbLine
 10
840.445038721045
 20
357.8245727994181
 30
0.0
 11
840.445038721045
 21
350.9617537100448
 31
0.0
  0
LINE
  5
191
330
19
100
AcDbEntity
  8
L-CENTER
100
AcDbLine
 10
997.319041207603
 20
362.5625935901489
 30
0.0
 11
997.319041207603
 21
315.5090421801583
 31
0.0
  0
LINE
  5
192
330
19
100
AcDbEntity
  8
4
100
AcDbLine
 10
986.3493860929996
 20
347.9617537100448
 30
0.0
 11
986.3493860929996
 21
357.8245727994181
 31
0.0
  0
LINE
  5
193
330
19
100
AcDbEntity
  8
4
100
AcDbLine
 10
991.8342136503018
 20
357.8245727994181
 30
0.0
 11
991.8342136503018
 21
350.9617537100448
 31
0.0
  0
ARC
  5
194
330
19
100
AcDbEntity
  8
4
100
AcDbCircle
 10
989.0917998716507
 20
355.0863748347656
 30
0.0
 40
3.875378875279264
100
AcDbArc
 50
44.955926762744
 51
135.044073237256
  0
LINE
  5
195
330
19
100
AcDbEntity
  8
4
100
AcDbLine
 10
1002.803868764904
 20
357.8245727994181
 30
0.0
 11
1002.803868764904
 21
350.9617537100448
 31
0.0
  0
ARC
  5
196
330
19
100
AcDbEntity
  8
4
100
AcDbCircle
 10
997.319041207603
 20
345.1660095748675
 30
0.0
 40
13.7957441351769
100
AcDbArc
 50
66.57340249137164
 51
113.4265975086284
  0
ARC
  5
197
330
19
100
AcDbEntity
  8
4
100
AcDbCircle
 10
890.8269741110443
 20
384.6781397809855
 30
0.0
 40
3.783613929059507
100
AcDbArc
 50
49.57010315516987
 51
130.4298968448301
  0
LINE
  5
198
330
19
100
AcDbEntity
  8
4
100
AcDbLine
 10
893.2807127551004
 20
387.558226764193
 30
0.0
 11
893.2807127551004
 21
381.4617537100448
 31
0.0
  0
LINE
  5
199
330
19
100
AcDbEntity
  8
4
100
AcDbLine
 10
888.3732354669891
 20
378.9617537100448
 30
0.0
 11
888.3732354669891
 21
387.558226764193
 31
0.0
  0
ARC
  5
19A
330
19
100
AcDbEntity
  8
4
100
AcDbCircle
 10
905.54940597538
 20
384.6781397809855
 30
0.0
 40
3.783613929059507
100
AcDbArc
 50
49.57010315516987
 51
130.4298968448301
  0
LINE
  5
19B
330
19
100
AcDbEntity
  8
4
100
AcDbLine
 10
908.0031446194361
 20
387.558226764193
 30
0.0
 11
908.0031446194361
 21
378.9617537100448
 31
0.0
  0
LINE
  5
19C
330
19
100
AcDbEntity
  8
4
100
AcDbLine
 10
903.0956673313239
 20
387.558226764193
 30
0.0
 11
903.0956673313239
 21
381.4617537100448
 31
0.0
  0
LINE
  5
19D
330
19
100
AcDbEntity
  8
4
100
AcDbLine
 10
908.0031446194361
 20
381.4617537100448
 30
0.0
 11
888.3732354669891
 21
381.4617537100448
 31
0.0
  0
LINE
  5
19E
330
19
100
AcDbEntity
  8
4
100
AcDbLine
 10
908.0031446194361
 20
378.9617537100448
 30
0.0
 11
888.3732354669891
 21
378.9617537100448
 31
0.0
  0
ARC
  5
19F
330
19
100
AcDbEntity
  8
4
100
AcDbCircle
 10
898.1881900432126
 20
374.6825884125856
 30
0.0
 40
13.77916529745958
100
AcDbArc
 50
69.13593563608075
 51
110.8640643639193
  0
LINE
  5
1A0
330
19
100
AcDbEntity
  8
4
100
AcDbLine
 10
890.8269741110443
 20
388.4617537100448
 30
0.0
 11
905.54940597538
 21
388.4617537100448
 31
0.0
  0
LINE
  5
1A1
330
19
100
AcDbEntity
  8
4
 48
0.8
100
AcDbLine
 10
1056.155181454217
 20
249.9617537100457
 30
0.0
 11
1044.155181454217
 21
249.9617537100457
 31
0.0
  0
LINE
  5
1A2
330
19
100
AcDbEntity
  8
4
100
AcDbLine
 10
1056.155181454217
 20
249.9617537100467
 30
0.0
 11
1044.155181454217
 21
249.9617537100457
 31
0.0
  0
LINE
  5
1A3
330
19
100
AcDbEntity
  8
4
 48
0.8
100
AcDbLine
 10
1068.155181454217
 20
246.9617537100448
 30
0.0
 11
1056.155181454217
 21
246.9617537100457
 31
0.0
  0
LINE
  5
1A4
330
19
100
AcDbEntity
  8
4
100
AcDbLine
 10
1008.288696322206
 20
357.8245727994181
 30
0.0
 11
1008.288696322206
 21
347.9617537100448
 31
0.0
  0
LINE
  5
1A5
330
19
100
AcDbEntity
  8
4
100
AcDbLine
 10
1005.155181454217
 20
363.9617537100448
 30
0.0
 11
1005.155181454217
 21
358.9617537100448
 31
0.0
  0
LINE
  5
1A6
330
19
100
AcDbEntity
  8
4
100
AcDbLine
 10
1005.15503937934
 20
358.9617537100448
 30
0.0
 11
1005.15503937934
 21
363.9617537100448
 31
0.0
  0
LINE
  5
1A7
330
19
100
AcDbEntity
  8
4
100
AcDbLine
 10
1035.155181454217
 20
329.9617537100448
 30
0.0
 11
1035.155181454217
 21
319.9617537100448
 31
0.0
  0
LINE
  5
1A8
330
19
100
AcDbEntity
  8
4
100
AcDbLine
 10
1035.155181454217
 20
347.9617537100448
 30
0.0
 11
1035.155181454217
 21
329.9617537100448
 31
0.0
  0
LINE
  5
1A9
330
19
100
AcDbEntity
  8
4
100
AcDbLine
 10
1035.15503937934
 20
319.9617537100448
 30
0.0
 11
1035.15503937934
 21
347.9617537100448
 31
0.0
  0
LINE
  5
1AA
330
19
100
AcDbEntity
  8
4
100
AcDbLine
 10
1005.155181454217
 20
347.9617537100448
 30
0.0
 11
1035.155181454217
 21
347.9617537100448
 31
0.0
  0
ARC
  5
1AB
330
19
100
AcDbEntity
  8
4
100
AcDbCircle
 10
1589.205773821289
 20
355.0863748347656
 30
0.0
 40
3.875378875279244
100
AcDbArc
 50
44.95592676274519
 51
135.0440732372548
  0
LINE
  5
1AC
330
19
100
AcDbEntity
  8
4
100
AcDbLine
 10
1586.463360042638
 20
350.9617537100448
 30
0.0
 11
1608.402670271844
 21
350.9617537100448
 31
0.0
  0
LINE
  5
1AD
330
19
100
AcDbEntity
  8
4
100
AcDbLine
 10
1586.463360042638
 20
347.9617537100448
 30
0.0
 11
1608.402670271844
 21
347.9617537100448
 31
0.0
  0
LINE
  5
1AE
330
19
100
AcDbEntity
  8
4
100
AcDbLine
 10
1605.660256493193
 20
358.9617537100448
 30
0.0
 11
1589.205773821289
 21
358.9617537100448
 31
0.0
  0
LINE
  5
1AF
330
19
100
AcDbEntity
  8
4
100
AcDbLine
 10
1586.463360042638
 20
357.8245727994181
 30
0.0
 11
1586.463360042638
 21
347.9617537100448
 31
0.0
  0
LINE
  5
1B0
330
19
100
AcDbEntity
  8
4
100
AcDbLine
 10
1589.596874910626
 20
358.4617537100448
 30
0.0
 11
1589.596874910626
 21
363.9617537100448
 31
0.0
  0
LINE
  5
1B1
330
19
100
AcDbEntity
  8
4
100
AcDbLine
 10
1559.596874910626
 20
329.9617537100467
 30
0.0
 11
1559.596874910626
 21
319.9617537100467
 31
0.0
  0
LINE
  5
1B2
330
19
100
AcDbEntity
  8
4
100
AcDbLine
 10
1559.596874910626
 20
329.9617537100467
 30
0.0
 11
1559.596874910626
 21
347.9617537100448
 31
0.0
  0
LINE
  5
1B3
330
19
100
AcDbEntity
  8
4
100
AcDbLine
 10
1687.096874910626
 20
363.9617537100448
 30
0.0
 11
1687.096874910626
 21
381.9617537100448
 31
0.0
  0
LINE
  5
1B4
330
19
100
AcDbEntity
  8
4
100
AcDbLine
 10
1642.096874910626
 20
363.9617537100448
 30
0.0
 11
1642.096874910626
 21
381.9617537100448
 31
0.0
  0
ARC
  5
1B5
330
19
100
AcDbEntity
  8
4
100
AcDbCircle
 10
1664.596874910626
 20
408.9617537100448
 30
0.0
 40
45.0
100
AcDbArc
 50
299.9999999999998
 51
239.9999999999999
  0
LINE
  5
1B6
330
19
100
AcDbEntity
  8
L-CENTER
100
AcDbLine
 10
1664.596874910626
 20
347.9617537100448
 30
0.0
 11
1664.596874910626
 21
467.6880717100457
 31
0.0
  0
LINE
  5
1B7
330
19
100
AcDbEntity
  8
L-CENTER
100
AcDbLine
 10
1597.433015157241
 20
362.5625935901489
 30
0.0
 11
1597.433015157241
 21
315.5090421801583
 31
0.0
  0
LINE
  5
1B8
330
19
100
AcDbEntity
  8
4
100
AcDbLine
 10
1608.402670271844
 20
347.9617537100448
 30
0.0
 11
1608.402670271844
 21
357.8245727994181
 31
0.0
  0
LINE
  5
1B9
330
19
100
AcDbEntity
  8
4
100
AcDbLine
 10
1602.917842714542
 20
357.8245727994181
 30
0.0
 11
1602.917842714542
 21
350.9617537100448
 31
0.0
  0
ARC
  5
1BA
330
19
100
AcDbEntity
  8
4
100
AcDbCircle
 10
1605.660256493193
 20
355.0863748347656
 30
0.0
 40
3.875378875279264
100
AcDbArc
 50
44.95592676274519
 51
135.0440732372548
  0
LINE
  5
1BB
330
19
100
AcDbEntity
  8
4
100
AcDbLine
 10
1591.948187599939
 20
357.8245727994181
 30
0.0
 11
1591.948187599939
 21
350.9617537100448
 31
0.0
  0
ARC
  5
1BC
330
19
100
AcDbEntity
  8
4
100
AcDbCircle
 10
1597.433015157241
 20
345.1660095748675
 30
0.0
 40
13.7957441351769
100
AcDbArc
 50
66.57340249137164
 51
113.4265975086284
  0
ARC
  5
1BD
330
19
100
AcDbEntity
  8
4
100
AcDbCircle
 10
1751.564603865148
 20
355.0863748347656
 30
0.0
 40
3.875378875279244
100
AcDbArc
 50
44.95592676274519
 51
135.0440732372548
  0
LINE
  5
1BE
330
19
100
AcDbEntity
  8
4
100
AcDbLine
 10
1748.822190086497
 20
357.8245727994181
 30
0.0
 11
1748.822190086497
 21
347.9617537100448
 31
0.0
  0
LINE
  5
1BF
330
19
100
AcDbEntity
  8
4
100
AcDbLine
 10
1754.307017643799
 20
357.8245727994181
 30
0.0
 11
1754.307017643799
 21
350.9617537100448
 31
0.0
  0
LINE
  5
1C0
330
19
100
AcDbEntity
  8
4
100
AcDbLine
 10
1687.096874910626
 20
381.9617537100448
 30
0.0
 11
1642.096874910626
 21
381.9617537100448
 31
0.0
  0
CIRCLE
  5
1C1
330
19
100
AcDbEntity
  8
4
100
AcDbCircle
 10
1664.596874910626
 20
408.9617537100448
 30
0.0
 40
25.0
  0
LINE
  5
1C2
330
19
100
AcDbEntity
  8
4
100
AcDbLine
 10
1664.596874910626
 20
383.9617537100448
 30
0.0
 11
1687.096874910626
 21
381.9617537100448
 31
0.0
  0
LINE
  5
1C3
330
19
100
AcDbEntity
  8
L-CENTER
100
AcDbLine
 10
1723.323192910627
 20
408.9617537100448
 30
0.0
 11
1605.870556910626
 21
408.9617537100448
 31
0.0
  0
LINE
  5
1C4
330
19
100
AcDbEntity
  8
4
100
AcDbLine
 10
1664.596874910626
 20
383.9617537100448
 30
0.0
 11
1642.096874910626
 21
381.9617537100448
 31
0.0
  0
LINE
  5
1C5
330
19
100
AcDbEntity
  8
L-CENTER
 48
0.8
100
AcDbLine
 10
1867.596874910626
 20
370.574069456301
 30
0.0
 11
1867.596874910626
 21
51.31769764046476
 31
0.0
  0
LINE
  5
1C6
330
19
100
AcDbEntity
  8
4
100
AcDbLine
 10
2198.596874910626
 20
319.9617537100448
 30
0.0
 11
2198.596874910626
 21
105.9617537100467
 31
0.0
  0
ARC
  5
1C7
330
19
100
AcDbEntity
  8
4
100
AcDbCircle
 10
2067.596874910626
 20
-153.0382462899543
 30
0.0
 40
400.0
100
AcDbArc
 50
80.95623721670229
 51
99.04376278329771
  0
LINE
  5
1C8
330
19
100
AcDbEntity
  8
4
 48
0.8
100
AcDbLine
 10
2142.596874910626
 20
249.9617537100457
 30
0.0
 11
2142.596874910626
 21
99.96175371004574
 31
0.0
  0
LINE
  5
1C9
330
19
100
AcDbEntity
  8
4
 48
0.8
100
AcDbLine
 10
1992.596874910626
 20
249.9617537100457
 30
0.0
 11
1992.596874910626
 21
99.96175371004574
 31
0.0
  0
LINE
  5
1CA
330
19
100
AcDbEntity
  8
L-CENTER
100
AcDbLine
 10
2067.596874910626
 20
258.8018430074058
 30
0.0
 11
2067.596874910626
 21
91.12166441268573
 31
0.0
  0
CIRCLE
  5
1CB
330
19
100
AcDbEntity
  8
L-CENTER
100
AcDbCircle
 10
2067.596874910626
 20
174.9617537100457
 30
0.0
 40
72.5
  0
LINE
  5
1CC
330
19
100
AcDbEntity
  8
L-CENTER
100
AcDbLine
 10
1874.596874910626
 20
51.31769764046476
 30
0.0
 11
1874.596874910626
 21
405.738339663505
 31
0.0
  0
LINE
  5
1CD
330
19
100
AcDbEntity
  8
L-CENTER
100
AcDbLine
 10
1754.596874910626
 20
322.2725791870214
 30
0.0
 11
1754.596874910626
 21
378.5789212941122
 31
0.0
  0
LINE
  5
1CE
330
19
100
AcDbEntity
  8
L-CENTER
100
AcDbLine
 10
1884.596874910626
 20
51.31769764046476
 30
0.0
 11
1884.596874910626
 21
564.1461491368359
 31
0.0
  0
LINE
  5
1CF
330
19
100
AcDbEntity
  8
4
 48
0.8
100
AcDbLine
 10
2142.596874910626
 20
99.96175371004574
 30
0.0
 11
1992.596874910626
 21
99.96175371004574
 31
0.0
  0
ARC
  5
1D0
330
19
100
AcDbEntity
  8
4
100
AcDbCircle
 10
2067.596874910626
 20
502.9617537100448
 30
0.0
 40
400.0
100
AcDbArc
 50
260.9562372167022
 51
279.0437627832977
  0
ARC
  5
1D1
330
19
100
AcDbEntity
  8
4
100
AcDbCircle
 10
2067.596874910626
 20
174.9617537100457
 30
0.0
 40
23.0
100
AcDbArc
 50
105.121665314909
 51
74.87833468509102
  0
CIRCLE
  5
1D2
330
19
100
AcDbEntity
  8
4
100
AcDbCircle
 10
2067.596874910626
 20
174.9617537100457
 30
0.0
 40
36.0
  0
LINE
  5
1D3
330
19
100
AcDbEntity
  8
4
100
AcDbLine
 10
2229.596874910626
 20
34.96175371004574
 30
0.0
 11
2049.596874910626
 21
34.96175371004574
 31
0.0
  0
LINE
  5
1D4
330
19
100
AcDbEntity
  8
4
100
AcDbLine
 10
1999.596874910626
 20
59.96175371004483
 30
0.0
 11
1769.596874910626
 21
59.96175371004483
 31
0.0
  0
LINE
  5
1D5
330
19
100
AcDbEntity
  8
4
100
AcDbLine
 10
1769.596874910626
 20
59.96175371004483
 30
0.0
 11
1769.596874910626
 21
74.96175371004483
 31
0.0
  0
LINE
  5
1D6
330
19
100
AcDbEntity
  8
L-CENTER
100
AcDbLine
 10
2029.007821825357
 20
136.3727006247768
 30
0.0
 11
2003.655444723845
 21
111.0203235232652
 31
0.0
  0
ARC
  5
1D7
330
19
100
AcDbEntity
  8
4
100
AcDbCircle
 10
2395.596874910626
 20
174.9617537100457
 30
0.0
 40
400.0
100
AcDbArc
 50
170.9562372167024
 51
189.0437627832976
  0
ARC
  5
1D8
330
19
100
AcDbEntity
  8
4
100
AcDbCircle
 10
2005.507290895793
 20
112.8721696952134
 30
0.0
 40
5.0
100
AcDbArc
 50
189.0437627833011
 51
260.956237216704
  0
LINE
  5
1D9
330
19
100
AcDbEntity
  8
4
100
AcDbLine
 10
1999.596874910626
 20
59.96175371004483
 30
0.0
 11
1999.596874910626
 21
74.96175371004483
 31
0.0
  0
LINE
  5
1DA
330
19
100
AcDbEntity
  8
4
100
AcDbLine
 10
2049.596874910626
 20
34.96175371004574
 30
0.0
 11
2049.596874910626
 21
74.96175371004574
 31
0.0
  0
ARC
  5
1DB
330
19
100
AcDbEntity
  8
4
100
AcDbCircle
 10
2005.507290895793
 20
237.0513377248781
 30
0.0
 40
5.0
100
AcDbArc
 50
99.043762783296
 51
170.956237216704
  0
LINE
  5
1DC
330
19
100
AcDbEntity
  8
L-CENTER
100
AcDbLine
 10
2029.007821825357
 20
213.5508067953147
 30
0.0
 11
2003.655444723845
 21
238.9031838968262
 31
0.0
  0
LINE
  5
1DD
330
19
100
AcDbEntity
  8
4
100
AcDbLine
 10
2024.831633274601
 20
221.3195180579587
 30
0.0
 11
2024.831633274601
 21
231.1344726341822
 31
0.0
  0
LINE
  5
1DE
330
19
100
AcDbEntity
  8
4
100
AcDbLine
 10
2016.331633274601
 20
236.0419499222944
 30
0.0
 11
2007.831633274601
 21
231.1344726341822
 31
0.0
  0
LINE
  5
1DF
330
19
100
AcDbEntity
  8
4
100
AcDbLine
 10
2007.831633274601
 20
231.1344726341822
 30
0.0
 11
2007.831633274601
 21
221.3195180579587
 31
0.0
  0
LINE
  5
1E0
330
19
100
AcDbEntity
  8
4
100
AcDbLine
 10
2007.831633274601
 20
221.3195180579587
 30
0.0
 11
2016.331633274601
 21
216.4120407698474
 31
0.0
  0
LINE
  5
1E1
330
19
100
AcDbEntity
  8
4
100
AcDbLine
 10
2024.831633274601
 20
231.1344726341822
 30
0.0
 11
2016.331633274601
 21
236.0419499222944
 31
0.0
  0
LINE
  5
1E2
330
19
100
AcDbEntity
  8
4
100
AcDbLine
 10
2016.331633274601
 20
216.4120407698474
 30
0.0
 11
2024.831633274601
 21
221.3195180579587
 31
0.0
  0
LINE
  5
1E3
330
19
100
AcDbEntity
  8
4
 48
0.8
100
AcDbLine
 10
2073.596874910625
 20
201.4617537100457
 30
0.0
 11
2073.596874910625
 21
193.4617537100457
 31
0.0
  0
LINE
  5
1E4
330
19
100
AcDbEntity
  8
4
 48
0.8
100
AcDbLine
 10
2061.596874910626
 20
201.4617537100457
 30
0.0
 11
2061.596874910625
 21
193.4617537100457
 31
0.0
  0
LINE
  5
1E5
330
19
100
AcDbEntity
  8
4
100
AcDbLine
 10
2061.596874910626
 20
193.4617537100457
 30
0.0
 11
2073.596874910625
 21
193.4617537100457
 31
0.0
  0
LINE
  5
1E6
330
19
100
AcDbEntity
  8
4
100
AcDbLine
 10
2061.596874910626
 20
201.4617537100457
 30
0.0
 11
2073.596874910625
 21
201.4617537100457
 31
0.0
  0
LINE
  5
1E7
330
19
100
AcDbEntity
  8
4
100
AcDbLine
 10
2208.989281279047
 20
126.490563710046
 30
0.0
 11
2208.989281279047
 21
109.4329437100455
 31
0.0
  0
LINE
  5
1E8
330
19
100
AcDbEntity
  8
4
100
AcDbLine
 10
2203.596874910626
 20
130.4617537100457
 30
0.0
 11
2203.596874910626
 21
105.4617537100457
 31
0.0
  0
LINE
  5
1E9
330
19
100
AcDbEntity
  8
L-CENTER
100
AcDbLine
 10
2106.185927995894
 20
136.3727006247768
 30
0.0
 11
2131.538305097406
 21
111.0203235232657
 31
0.0
  0
ARC
  5
1EA
330
19
100
AcDbEntity
  8
4
100
AcDbCircle
 10
1739.596874910626
 20
174.9617537100457
 30
0.0
 40
400.0
100
AcDbArc
 50
350.9562372167024
 51
9.043762783297629
  0
ARC
  5
1EB
330
19
100
AcDbEntity
  8
4
100
AcDbCircle
 10
2129.686458925458
 20
112.8721696952134
 30
0.0
 40
5.0
100
AcDbArc
 50
279.043762783296
 51
350.956237216704
  0
LINE
  5
1EC
330
19
100
AcDbEntity
  8
4
100
AcDbLine
 10
2229.596874910626
 20
34.96175371004574
 30
0.0
 11
2229.596874910626
 21
74.96175371004574
 31
0.0
  0
LINE
  5
1ED
330
19
100
AcDbEntity
  8
L-CENTER
100
AcDbLine
 10
2189.596874910626
 20
94.96175371004483
 30
0.0
 11
2189.596874910626
 21
14.96175371004574
 31
0.0
  0
LINE
  5
1EE
330
19
100
AcDbEntity
  8
4
100
AcDbLine
 10
2208.989281279047
 20
109.4329437100455
 30
0.0
 11
2203.596874910626
 21
109.6212182106378
 31
0.0
  0
LINE
  5
1EF
330
19
100
AcDbEntity
  8
L-CENTER
100
AcDbLine
 10
2218.596874910626
 20
117.9617537100457
 30
0.0
 11
2168.596874910626
 21
117.9617537100457
 31
0.0
  0
LINE
  5
1F0
330
19
100
AcDbEntity
  8
4
100
AcDbLine
 10
2185.189105736788
 20
119.3695228838833
 30
0.0
 11
2229.59687491063
 21
74.9617537100421
 31
0.0
  0
LINE
  5
1F1
330
19
100
AcDbEntity
  8
4
100
AcDbLine
 10
2203.596874910626
 20
105.4617537100457
 30
0.0
 11
2199.096874910626
 21
105.4617537100457
 31
0.0
  0
LINE
  5
1F2
330
19
100
AcDbEntity
  8
4
100
AcDbLine
 10
2185.189105736784
 20
119.3695228838806
 30
0.0
 11
2185.189105736784
 21
74.96175371004574
 31
0.0
  0
LINE
  5
1F3
330
19
100
AcDbEntity
  8
L-CENTER
100
AcDbLine
 10
2106.185927995894
 20
213.5508067953142
 30
0.0
 11
2131.538305097406
 21
238.9031838968258
 31
0.0
  0
ARC
  5
1F4
330
19
100
AcDbEntity
  8
4
100
AcDbCircle
 10
2129.686458925458
 20
237.0513377248781
 30
0.0
 40
5.0
100
AcDbArc
 50
9.04376278330115
 51
80.956237216704
  0
LINE
  5
1F5
330
19
100
AcDbEntity
  8
4
100
AcDbLine
 10
2208.989281279047
 20
126.490563710046
 30
0.0
 11
2203.596874910626
 21
126.3022892094536
 31
0.0
  0
LINE
  5
1F6
330
19
100
AcDbEntity
  8
4
100
AcDbLine
 10
2203.596874910626
 20
130.4617537100457
 30
0.0
 11
2198.596874910626
 21
130.4617537100457
 31
0.0
  0
LINE
  5
1F7
330
19
100
AcDbEntity
  8
4
100
AcDbLine
 10
2084.596874910626
 20
383.9617537100448
 30
0.0
 11
2062.096874910626
 21
381.9617537100448
 31
0.0
  0
LINE
  5
1F8
330
19
100
AcDbEntity
  8
4
100
AcDbLine
 10
2107.096874910626
 20
381.9617537100448
 30
0.0
 11
2062.096874910626
 21
381.9617537100448
 31
0.0
  0
CIRCLE
  5
1F9
330
19
100
AcDbEntity
  8
4
100
AcDbCircle
 10
2084.596874910626
 20
408.9617537100448
 30
0.0
 40
25.0
  0
LINE
  5
1FA
330
19
100
AcDbEntity
  8
L-CENTER
100
AcDbLine
 10
2143.323192910627
 20
408.9617537100448
 30
0.0
 11
2025.870556910626
 21
408.9617537100448
 31
0.0
  0
ARC
  5
1FB
330
19
100
AcDbEntity
  8
4
100
AcDbCircle
 10
2084.596874910626
 20
408.9617537100448
 30
0.0
 40
45.0
100
AcDbArc
 50
299.9999999999998
 51
239.9999999999999
  0
LINE
  5
1FC
330
19
100
AcDbEntity
  8
4
 48
0.8
100
AcDbLine
 10
2142.596874910626
 20
249.9617537100457
 30
0.0
 11
1992.596874910626
 21
249.9617537100457
 31
0.0
  0
LINE
  5
1FD
330
19
100
AcDbEntity
  8
4
100
AcDbLine
 10
1929.596874910626
 20
553.9617537100448
 30
0.0
 11
1929.596874910626
 21
396.9617537100448
 31
0.0
  0
LINE
  5
1FE
330
19
100
AcDbEntity
  8
4
100
AcDbLine
 10
1839.596874910626
 20
553.9617537100467
 30
0.0
 11
1839.596874910626
 21
396.9617537100467
 31
0.0
  0
LINE
  5
1FF
330
19
100
AcDbEntity
  8
4
100
AcDbLine
 10
1831.596874910626
 20
554.9617537100467
 30
0.0
 11
1831.596874910626
 21
404.9617537100467
 31
0.0
  0
LINE
  5
200
330
19
100
AcDbEntity
  8
4
100
AcDbLine
 10
1910.81492892339
 20
381.4617537100485
 30
0.0
 11
1930.444838075837
 21
381.4617537100494
 31
0.0
  0
LINE
  5
201
330
19
100
AcDbEntity
  8
4
100
AcDbLine
 10
1910.81492892339
 20
378.9617537100485
 30
0.0
 11
1930.444838075837
 21
378.9617537100494
 31
0.0
  0
LINE
  5
202
330
19
100
AcDbEntity
  8
4
100
AcDbLine
 10
1927.991099431781
 20
388.4617537100494
 30
0.0
 11
1913.268667567445
 21
388.4617537100485
 31
0.0
  0
ARC
  5
203
330
19
100
AcDbEntity
  8
4
100
AcDbCircle
 10
1920.629883499613
 20
374.6825884125897
 30
0.0
 40
13.77916529745958
100
AcDbArc
 50
69.13593563608373
 51
110.8640643639235
  0
LINE
  5
204
330
19
100
AcDbEntity
  8
4
100
AcDbLine
 10
1932.096874910626
 20
394.9617537100448
 30
0.0
 11
1837.096874910626
 21
394.9617537100467
 31
0.0
  0
LINE
  5
205
330
19
100
AcDbEntity
  8
4
100
AcDbLine
 10
1999.596874910626
 20
378.9617537100448
 30
0.0
 11
1769.596874910626
 21
378.9617537100448
 31
0.0
  0
LINE
  5
206
330
19
100
AcDbEntity
  8
L-CENTER
100
AcDbLine
 10
1814.563866321638
 20
350.5257982924368
 30
0.0
 11
1814.56386632164
 21
391.3297319646285
 31
0.0
  0
LINE
  5
207
330
19
100
AcDbEntity
  8
L-CENTER
100
AcDbLine
 10
1813.886196791971
 20
350.5257982924368
 30
0.0
 11
1813.886196791973
 21
391.3297319646285
 31
0.0
  0
LINE
  5
208
330
19
100
AcDbEntity
  8
4
100
AcDbLine
 10
1769.596874910626
 20
378.9617537100448
 30
0.0
 11
1769.596874910626
 21
374.4617537100453
 31
0.0
  0
LINE
  5
209
330
19
100
AcDbEntity
  8
L-CENTER
100
AcDbLine
 10
1759.7918452011
 20
362.5625935901489
 30
0.0
 11
1759.7918452011
 21
315.5090421801583
 31
0.0
  0
LINE
  5
20A
330
19
100
AcDbEntity
  8
4
100
AcDbLine
 10
1770.761500315703
 20
347.9617537100448
 30
0.0
 11
1770.761500315703
 21
357.8245727994181
 31
0.0
  0
LINE
  5
20B
330
19
100
AcDbEntity
  8
4
100
AcDbLine
 10
1765.276672758401
 20
357.8245727994181
 30
0.0
 11
1765.276672758401
 21
350.9617537100448
 31
0.0
  0
ARC
  5
20C
330
19
100
AcDbEntity
  8
4
100
AcDbCircle
 10
1768.019086537052
 20
355.0863748347656
 30
0.0
 40
3.875378875279264
100
AcDbArc
 50
44.95592676274519
 51
135.0440732372548
  0
LINE
  5
20D
330
19
100
AcDbEntity
  8
4
100
AcDbLine
 10
1910.81492892339
 20
379.9617537100448
 30
0.0
 11
1824.378820897863
 21
379.9617537100448
 31
0.0
  0
LINE
  5
20E
330
19
100
AcDbEntity
  8
4
100
AcDbLine
 10
1839.596874910626
 20
404.9617537100467
 30
0.0
 11
1831.596874910626
 21
404.9617537100467
 31
0.0
  0
ARC
  5
20F
330
19
100
AcDbEntity
  8
4
100
AcDbCircle
 10
1814.563866321639
 20
374.6825884125897
 30
0.0
 40
13.77916529745958
100
AcDbArc
 50
69.13593563607654
 51
110.8640643639163
  0
LINE
  5
210
330
19
100
AcDbEntity
  8
4
100
AcDbLine
 10
1807.202650389472
 20
388.4617537100494
 30
0.0
 11
1821.925082253807
 21
388.4617537100485
 31
0.0
  0
LINE
  5
211
330
19
100
AcDbEntity
  8
4
100
AcDbLine
 10
1824.378820897863
 20
378.9617537100485
 30
0.0
 11
1804.748911745416
 21
378.9617537100494
 31
0.0
  0
LINE
  5
212
330
19
100
AcDbEntity
  8
4
100
AcDbLine
 10
1824.378820897863
 20
381.4617537100485
 30
0.0
 11
1804.071242215749
 21
381.4617537100494
 31
0.0
  0
ARC
  5
213
330
19
100
AcDbEntity
  8
4
100
AcDbCircle
 10
1821.925082253807
 20
384.6781397809891
 30
0.0
 40
3.783613929059507
100
AcDbArc
 50
49.57010315516856
 51
130.4298968448217
  0
LINE
  5
214
330
19
100
AcDbEntity
  8
4
100
AcDbLine
 10
1824.378820897864
 20
387.5582267641967
 30
0.0
 11
1824.378820897863
 21
378.9617537100485
 31
0.0
  0
LINE
  5
215
330
19
100
AcDbEntity
  8
4
100
AcDbLine
 10
1819.471343609751
 20
387.5582267641967
 30
0.0
 11
1819.471343609751
 21
381.4617537100485
 31
0.0
  0
LINE
  5
216
330
19
100
AcDbEntity
  8
4
100
AcDbLine
 10
1809.656389033528
 20
387.5582267641976
 30
0.0
 11
1809.656389033527
 21
381.4617537100494
 31
0.0
  0
LINE
  5
217
330
19
100
AcDbEntity
  8
4
100
AcDbLine
 10
1804.748911745416
 20
378.9617537100494
 30
0.0
 11
1804.748911745417
 21
387.5582267641976
 31
0.0
  0
ARC
  5
218
330
19
100
AcDbEntity
  8
4
100
AcDbCircle
 10
1807.202650389472
 20
384.67813978099
 30
0.0
 40
3.783613929059507
100
AcDbArc
 50
49.57010315516856
 51
130.4298968448217
  0
LINE
  5
219
330
19
100
AcDbEntity
  8
4
100
AcDbLine
 10
1804.071242215749
 20
378.9617537100494
 30
0.0
 11
1804.071242215749
 21
387.5582267641976
 31
0.0
  0
LINE
  5
21A
330
19
100
AcDbEntity
  8
4
100
AcDbLine
 10
1823.701151368196
 20
378.9617537100485
 30
0.0
 11
1804.071242215749
 21
378.9617537100494
 31
0.0
  0
LINE
  5
21B
330
19
100
AcDbEntity
  8
4
100
AcDbLine
 10
1806.524980859805
 20
388.4617537100494
 30
0.0
 11
1821.24741272414
 21
388.4617537100485
 31
0.0
  0
ARC
  5
21C
330
19
100
AcDbEntity
  8
4
100
AcDbCircle
 10
1806.524980859805
 20
384.67813978099
 30
0.0
 40
3.783613929059507
100
AcDbArc
 50
84.86209600149718
 51
130.4298968448217
  0
LINE
  5
21D
330
19
100
AcDbEntity
  8
4
100
AcDbLine
 10
1837.096874910626
 20
394.9617537100467
 30
0.0
 11
1837.096874910626
 21
379.9617537100448
 31
0.0
  0
ARC
  5
21E
330
19
100
AcDbEntity
  8
4
100
AcDbCircle
 10
1837.596874910626
 20
396.9617537100467
 30
0.0
 40
2.0
100
AcDbArc
 50
270.0
 51
0.0
  0
LINE
  5
21F
330
19
100
AcDbEntity
  8
4
100
AcDbLine
 10
1915.722406211501
 20
387.5582267641967
 30
0.0
 11
1915.722406211502
 21
381.4617537100485
 31
0.0
  0
LINE
  5
220
330
19
100
AcDbEntity
  8
4
100
AcDbLine
 10
1910.814928923389
 20
387.5582267641967
 30
0.0
 11
1910.81492892339
 21
378.9617537100485
 31
0.0
  0
ARC
  5
221
330
19
100
AcDbEntity
  8
4
100
AcDbCircle
 10
1913.268667567445
 20
384.6781397809891
 30
0.0
 40
3.783613929059507
100
AcDbArc
 50
49.57010315517826
 51
130.4298968448315
  0
LINE
  5
222
330
19
100
AcDbEntity
  8
L-CENTER
100
AcDbLine
 10
1920.629883499615
 20
350.5257982924368
 30
0.0
 11
1920.629883499613
 21
391.3297319646285
 31
0.0
  0
LINE
  5
223
330
19
100
AcDbEntity
  8
L-CENTER
100
AcDbLine
 10
1955.307553029282
 20
350.5257982924368
 30
0.0
 11
1955.30755302928
 21
391.3297319646285
 31
0.0
  0
LINE
  5
224
330
19
100
AcDbEntity
  8
4
100
AcDbLine
 10
2062.096874910626
 20
363.9617537100448
 30
0.0
 11
2062.096874910626
 21
381.9617537100448
 31
0.0
  0
LINE
  5
225
330
19
100
AcDbEntity
  8
4
100
AcDbLine
 10
1999.596874910626
 20
378.9617537100448
 30
0.0
 11
1999.596874910626
 21
363.9617537100448
 31
0.0
  0
LINE
  5
226
330
19
100
AcDbEntity
  8
L-CENTER
100
AcDbLine
 10
1989.401904620153
 20
362.5625935901489
 30
0.0
 11
1989.401904620153
 21
315.5090421801583
 31
0.0
  0
ARC
  5
227
330
19
100
AcDbEntity
  8
4
100
AcDbCircle
 10
1989.401904620153
 20
345.1660095748675
 30
0.0
 40
13.7957441351769
100
AcDbArc
 50
66.57340249137164
 51
113.4265975086284
  0
LINE
  5
228
330
19
100
AcDbEntity
  8
4
100
AcDbLine
 10
1981.174663284201
 20
358.9617537100448
 30
0.0
 11
1997.629145956104
 21
358.9617537100448
 31
0.0
  0
LINE
  5
229
330
19
100
AcDbEntity
  8
4
100
AcDbLine
 10
2000.371559734755
 20
347.9617537100448
 30
0.0
 11
1978.432249505549
 21
347.9617537100448
 31
0.0
  0
LINE
  5
22A
330
19
100
AcDbEntity
  8
4
100
AcDbLine
 10
2000.371559734755
 20
350.9617537100448
 30
0.0
 11
1978.432249505549
 21
350.9617537100448
 31
0.0
  0
LINE
  5
22B
330
19
100
AcDbEntity
  8
4
100
AcDbLine
 10
1994.886732177454
 20
357.8245727994181
 30
0.0
 11
1994.886732177454
 21
350.9617537100448
 31
0.0
  0
LINE
  5
22C
330
19
100
AcDbEntity
  8
4
100
AcDbLine
 10
2000.371559734755
 20
357.8245727994181
 30
0.0
 11
2000.371559734755
 21
347.9617537100448
 31
0.0
  0
ARC
  5
22D
330
19
100
AcDbEntity
  8
4
100
AcDbCircle
 10
1997.629145956104
 20
355.0863748347656
 30
0.0
 40
3.875378875279244
100
AcDbArc
 50
44.95592676274519
 51
135.0440732372548
  0
ARC
  5
22E
330
19
100
AcDbEntity
  8
4
100
AcDbCircle
 10
1981.174663284201
 20
355.0863748347656
 30
0.0
 40
3.875378875279264
100
AcDbArc
 50
44.95592676274519
 51
135.0440732372548
  0
LINE
  5
22F
330
19
100
AcDbEntity
  8
4
100
AcDbLine
 10
1983.917077062852
 20
357.8245727994181
 30
0.0
 11
1983.917077062852
 21
350.9617537100448
 31
0.0
  0
LINE
  5
230
330
19
100
AcDbEntity
  8
4
100
AcDbLine
 10
1978.432249505549
 20
347.9617537100448
 30
0.0
 11
1978.432249505549
 21
357.8245727994181
 31
0.0
  0
ARC
  5
231
330
19
100
AcDbEntity
  8
4
100
AcDbCircle
 10
1955.307553029281
 20
374.6825884125897
 30
0.0
 40
13.77916529745958
100
AcDbArc
 50
69.13593563608373
 51
110.8640643639235
  0
LINE
  5
232
330
19
100
AcDbEntity
  8
4
100
AcDbLine
 10
1962.668768961448
 20
388.4617537100494
 30
0.0
 11
1947.946337097113
 21
388.4617537100485
 31
0.0
  0
LINE
  5
233
330
19
100
AcDbEntity
  8
4
100
AcDbLine
 10
1945.492598453057
 20
378.9617537100485
 30
0.0
 11
1965.122507605504
 21
378.9617537100494
 31
0.0
  0
LINE
  5
234
330
19
100
AcDbEntity
  8
4
100
AcDbLine
 10
1945.492598453057
 20
381.4617537100485
 30
0.0
 11
1965.122507605504
 21
381.4617537100494
 31
0.0
  0
LINE
  5
235
330
19
100
AcDbEntity
  8
4
100
AcDbLine
 10
1945.492598453059
 20
379.9617537100448
 30
0.0
 11
1930.444838075837
 21
379.9617537100448
 31
0.0
  0
ARC
  5
236
330
19
100
AcDbEntity
  8
4
100
AcDbCircle
 10
1927.991099431781
 20
384.67813978099
 30
0.0
 40
3.783613929059507
100
AcDbArc
 50
49.57010315517826
 51
130.4298968448315
  0
LINE
  5
237
330
19
100
AcDbEntity
  8
4
100
AcDbLine
 10
1930.444838075837
 20
378.9617537100494
 30
0.0
 11
1930.444838075836
 21
387.5582267641976
 31
0.0
  0
LINE
  5
238
330
19
100
AcDbEntity
  8
4
100
AcDbLine
 10
1925.537360787725
 20
387.5582267641976
 30
0.0
 11
1925.537360787725
 21
381.4617537100494
 31
0.0
  0
ARC
  5
239
330
19
100
AcDbEntity
  8
4
100
AcDbCircle
 10
1947.946337097113
 20
384.6781397809891
 30
0.0
 40
3.783613929059507
100
AcDbArc
 50
49.57010315517826
 51
130.4298968448315
  0
LINE
  5
23A
330
19
100
AcDbEntity
  8
4
100
AcDbLine
 10
1945.492598453056
 20
387.5582267641967
 30
0.0
 11
1945.492598453057
 21
378.9617537100485
 31
0.0
  0
LINE
  5
23B
330
19
100
AcDbEntity
  8
4
100
AcDbLine
 10
1950.400075741169
 20
387.5582267641967
 30
0.0
 11
1950.400075741169
 21
381.4617537100485
 31
0.0
  0
LINE
  5
23C
330
19
100
AcDbEntity
  8
4
100
AcDbLine
 10
1932.096874910626
 20
394.9617537100448
 30
0.0
 11
1932.096874910626
 21
379.9617537100448
 31
0.0
  0
ARC
  5
23D
330
19
100
AcDbEntity
  8
4
100
AcDbCircle
 10
1931.596874910626
 20
396.9617537100467
 30
0.0
 40
2.0
100
AcDbArc
 50
180.0
 51
270.0
  0
LINE
  5
23E
330
19
100
AcDbEntity
  8
4
100
AcDbLine
 10
1960.215030317392
 20
387.5582267641976
 30
0.0
 11
1960.215030317393
 21
381.4617537100494
 31
0.0
  0
LINE
  5
23F
330
19
100
AcDbEntity
  8
4
100
AcDbLine
 10
1965.122507605504
 20
378.9617537100494
 30
0.0
 11
1965.122507605503
 21
387.5582267641976
 31
0.0
  0
ARC
  5
240
330
19
100
AcDbEntity
  8
4
100
AcDbCircle
 10
1962.668768961448
 20
384.67813978099
 30
0.0
 40
3.783613929059507
100
AcDbArc
 50
49.57010315517826
 51
130.4298968448315
  0
LINE
  5
241
330
19
100
AcDbEntity
  8
4
100
AcDbLine
 10
1928.596874910626
 20
554.9617537100448
 30
0.0
 11
1831.596874910626
 21
554.9617537100467
 31
0.0
  0
LINE
  5
242
330
19
100
AcDbEntity
  8
4
100
AcDbLine
 10
1839.596874910626
 20
553.9617537100467
 30
0.0
 11
1929.596874910626
 21
553.9617537100448
 31
0.0
  0
LINE
  5
243
330
19
100
AcDbEntity
  8
4
100
AcDbLine
 10
1840.596874910626
 20
554.9617537100467
 30
0.0
 11
1839.596874910626
 21
553.9617537100467
 31
0.0
  0
LINE
  5
244
330
19
100
AcDbEntity
  8
4
100
AcDbLine
 10
1929.596874910626
 20
553.9617537100448
 30
0.0
 11
1928.596874910626
 21
554.9617537100448
 31
0.0
  0
LINE
  5
245
330
19
100
AcDbEntity
  8
4
100
AcDbLine
 10
2107.096874910626
 20
363.9617537100448
 30
0.0
 11
2107.096874910626
 21
381.9617537100448
 31
0.0
  0
LINE
  5
246
330
19
100
AcDbEntity
  8
L-CENTER
100
AcDbLine
 10
2084.596874910626
 20
347.9617537100448
 30
0.0
 11
2084.596874910626
 21
467.6880717100457
 31
0.0
  0
LINE
  5
247
330
19
100
AcDbEntity
  8
L-CENTER
100
AcDbLine
 10
2218.596874910626
 20
274.9617537100457
 30
0.0
 11
2163.596874910626
 21
274.9617537100457
 31
0.0
  0
LINE
  5
248
330
19
100
AcDbEntity
  8
L-CENTER
100
AcDbLine
 10
2151.760734664012
 20
362.5625935901489
 30
0.0
 11
2151.760734664012
 21
315.5090421801583
 31
0.0
  0
LINE
  5
249
330
19
100
AcDbEntity
  8
4
100
AcDbLine
 10
2143.53349332806
 20
358.9617537100448
 30
0.0
 11
2159.987975999964
 21
358.9617537100448
 31
0.0
  0
LINE
  5
24A
330
19
100
AcDbEntity
  8
4
100
AcDbLine
 10
2162.730389778615
 20
347.9617537100448
 30
0.0
 11
2140.791079549409
 21
347.9617537100448
 31
0.0
  0
LINE
  5
24B
330
19
100
AcDbEntity
  8
4
100
AcDbLine
 10
2162.730389778615
 20
350.9617537100448
 30
0.0
 11
2140.791079549409
 21
350.9617537100448
 31
0.0
  0
ARC
  5
24C
330
19
100
AcDbEntity
  8
4
100
AcDbCircle
 10
2159.987975999964
 20
355.0863748347656
 30
0.0
 40
3.875378875279244
100
AcDbArc
 50
44.95592676274758
 51
135.044073237262
  0
LINE
  5
24D
330
19
100
AcDbEntity
  8
4
100
AcDbLine
 10
2162.730389778615
 20
357.8245727994181
 30
0.0
 11
2162.730389778615
 21
347.9617537100448
 31
0.0
  0
ARC
  5
24E
330
19
100
AcDbEntity
  8
4
100
AcDbCircle
 10
2151.760734664012
 20
345.1660095748675
 30
0.0
 40
13.7957441351769
100
AcDbArc
 50
66.57340249137289
 51
113.4265975086292
  0
LINE
  5
24F
330
19
100
AcDbEntity
  8
4
100
AcDbLine
 10
2157.245562221314
 20
357.8245727994181
 30
0.0
 11
2157.245562221314
 21
350.9617537100448
 31
0.0
  0
ARC
  5
250
330
19
100
AcDbEntity
  8
4
100
AcDbCircle
 10
2143.53349332806
 20
355.0863748347656
 30
0.0
 40
3.875378875279264
100
AcDbArc
 50
44.95592676274758
 51
135.044073237262
  0
LINE
  5
251
330
19
100
AcDbEntity
  8
4
100
AcDbLine
 10
2146.275907106711
 20
357.8245727994181
 30
0.0
 11
2146.275907106711
 21
350.9617537100448
 31
0.0
  0
LINE
  5
252
330
19
100
AcDbEntity
  8
4
100
AcDbLine
 10
2140.791079549409
 20
347.9617537100448
 30
0.0
 11
2140.791079549409
 21
357.8245727994181
 31
0.0
  0
LINE
  5
253
330
19
100
AcDbEntity
  8
4
100
AcDbLine
 10
2159.596874910626
 20
358.4617537100448
 30
0.0
 11
2159.596874910626
 21
363.9617537100448
 31
0.0
  0
LINE
  5
254
330
19
100
AcDbEntity
  8
4
100
AcDbLine
 10
2205.596874910626
 20
292.9617537100457
 30
0.0
 11
2212.596874910626
 21
292.9617537100457
 31
0.0
  0
LINE
  5
255
330
19
100
AcDbEntity
  8
4
100
AcDbLine
 10
2205.596874910626
 20
256.9617537100453
 30
0.0
 11
2212.596874910626
 21
256.9617537100453
 31
0.0
  0
LINE
  5
256
330
19
100
AcDbEntity
  8
4
100
AcDbLine
 10
2205.596874910626
 20
257.9617537100462
 30
0.0
 11
2203.596874910626
 21
257.9617537100462
 31
0.0
  0
LINE
  5
257
330
19
100
AcDbEntity
  8
4
100
AcDbLine
 10
2205.596874910626
 20
292.9617537100457
 30
0.0
 11
2205.596874910626
 21
256.9617537100453
 31
0.0
  0
LINE
  5
258
330
19
100
AcDbEntity
  8
4
100
AcDbLine
 10
2205.596874910626
 20
291.9617537100453
 30
0.0
 11
2203.596874910626
 21
291.9617537100453
 31
0.0
  0
LINE
  5
259
330
19
100
AcDbEntity
  8
4
100
AcDbLine
 10
2203.596874910626
 20
294.9617537100457
 30
0.0
 11
2198.596874910626
 21
294.9617537100457
 31
0.0
  0
LINE
  5
25A
330
19
100
AcDbEntity
  8
4
100
AcDbLine
 10
2203.596874910626
 20
254.9617537100457
 30
0.0
 11
2198.596874910626
 21
254.9617537100457
 31
0.0
  0
LINE
  5
25B
330
19
100
AcDbEntity
  8
4
100
AcDbLine
 10
2203.596874910626
 20
294.9617537100457
 30
0.0
 11
2203.596874910626
 21
254.9617537100457
 31
0.0
  0
LINE
  5
25C
330
19
100
AcDbEntity
  8
4
100
AcDbLine
 10
2207.596874910626
 20
283.9617537100457
 30
0.0
 11
2212.596874910626
 21
283.9617537100457
 31
0.0
  0
LINE
  5
25D
330
19
100
AcDbEntity
  8
4
100
AcDbLine
 10
2212.596874910626
 20
292.9617537100457
 30
0.0
 11
2212.596874910626
 21
256.9617537100453
 31
0.0
  0
LINE
  5
25E
330
19
100
AcDbEntity
  8
4
100
AcDbLine
 10
2207.596874910626
 20
292.9617537100457
 30
0.0
 11
2207.596874910626
 21
256.9617537100453
 31
0.0
  0
LINE
  5
25F
330
19
100
AcDbEntity
  8
4
100
AcDbLine
 10
2207.596874910626
 20
265.9617537100457
 30
0.0
 11
2212.596874910626
 21
265.9617537100457
 31
0.0
  0
LINE
  5
260
330
19
100
AcDbEntity
  8
4
100
AcDbLine
 10
2189.596874910626
 20
329.9617537100448
 30
0.0
 11
2189.596874910626
 21
319.9617537100448
 31
0.0
  0
LINE
  5
261
330
19
100
AcDbEntity
  8
4
100
AcDbLine
 10
2189.596874910626
 20
329.9617537100448
 30
0.0
 11
2189.596874910626
 21
347.9617537100448
 31
0.0
  0
LINE
  5
262
330
19
100
AcDbEntity
  8
4
100
AcDbLine
 10
2084.596874910626
 20
383.9617537100448
 30
0.0
 11
2107.096874910626
 21
381.9617537100448
 31
0.0
  0
CIRCLE
  5
263
330
19
100
AcDbEntity
  8
4
100
AcDbCircle
 10
845.1551814542174
 20
1222.690518057716
 30
0.0
 40
52.5
  0
LINE
  5
264
330
19
100
AcDbEntity
  8
4
100
AcDbLine
 10
843.6630236907565
 20
945.8487553810319
 30
0.0
 11
833.5283838516673
 21
941.6508501099142
 31
0.0
  0
CIRCLE
  5
265
330
19
100
AcDbEntity
  8
4
100
AcDbCircle
 10
834.9602111637437
 20
952.5266583043303
 30
0.0
 40
9.5
  0
LINE
  5
266
330
19
100
AcDbEntity
  8
4
100
AcDbLine
 10
836.3920384758198
 20
963.4024664987464
 30
0.0
 11
845.0948510028336
 21
956.724563575448
 31
0.0
  0
CIRCLE
  5
267
330
19
100
AcDbEntity
  8
4
100
AcDbCircle
 10
834.9602111637446
 20
1506.854377811103
 30
0.0
 40
9.5
  0
LINE
  5
268
330
19
100
AcDbEntity
  8
4
100
AcDbLine
 10
836.392038475821
 20
1495.978569616687
 30
0.0
 11
845.0948510028334
 21
1502.656472539985
 31
0.0
  0
LINE
  5
269
330
19
100
AcDbEntity
  8
4
100
AcDbLine
 10
843.6630236907574
 20
1513.532280734401
 30
0.0
 11
833.5283838516684
 21
1517.730186005519
 31
0.0
  0
LINE
  5
26A
330
19
100
AcDbEntity
  8
L-CENTER
100
AcDbLine
 10
824.6277584898869
 20
1481.909630433297
 30
0.0
 11
845.2926638376018
 21
1531.799125188907
 31
0.0
  0
CIRCLE
  5
26B
330
19
100
AcDbEntity
  8
L-CENTER
 48
4.0
100
AcDbCircle
 10
845.1551814542175
 20
1222.690518057716
 30
0.0
 40
75.0
  0
CIRCLE
  5
26C
330
19
100
AcDbEntity
  8
4
100
AcDbCircle
 10
845.1551814542175
 20
1222.690518057716
 30
0.0
 40
90.0
  0
LINE
  5
26D
330
19
100
AcDbEntity
  8
L-CENTER
 48
0.8
100
AcDbLine
 10
725.1551814542172
 20
1222.690518057716
 30
0.0
 11
965.1551814542174
 21
1222.690518057716
 31
0.0
  0
LINE
  5
26E
330
19
100
AcDbEntity
  8
L-CENTER
 48
0.8
100
AcDbLine
 10
376.1551814542172
 20
1229.690518057716
 30
0.0
 11
1064.155181454217
 21
1229.690518057716
 31
0.0
  0
LINE
  5
26F
330
19
100
AcDbEntity
  8
L-CENTER
 48
0.8
100
AcDbLine
 10
1189.430083894877
 20
1422.690518057716
 30
0.0
 11
250.880279013557
 21
1422.690518057716
 31
0.0
  0
LINE
  5
270
330
19
100
AcDbEntity
  8
L-CENTER
100
AcDbLine
 10
824.6277584898867
 20
977.4714056821354
 30
0.0
 11
845.2926638376016
 21
927.5819109265253
 31
0.0
  0
CIRCLE
  5
271
330
19
100
AcDbEntity
  8
4
100
AcDbCircle
 10
720.1551814542173
 20
1229.690518057716
 30
0.0
 40
324.0
  0
CIRCLE
  5
272
330
19
100
AcDbEntity
  8
L-CENTER
 48
4.0
100
AcDbCircle
 10
720.1551814542173
 20
1229.690518057716
 30
0.0
 40
300.0
  0
CIRCLE
  5
273
330
19
100
AcDbEntity
  8
4
100
AcDbCircle
 10
720.1551814542173
 20
1229.690518057716
 30
0.0
 40
314.9999999999999
  0
CIRCLE
  5
274
330
19
100
AcDbEntity
  8
4
100
AcDbCircle
 10
720.1551814542173
 20
1229.690518057716
 30
0.0
 40
285.0
  0
ARC
  5
275
330
19
100
AcDbEntity
  8
4
100
AcDbCircle
 10
720.1551814542173
 20
1229.690518057716
 30
0.0
 40
250.0
100
AcDbArc
 50
272.0050369384209
 51
87.99496306157906
  0
CIRCLE
  5
276
330
19
100
AcDbEntity
  8
4
100
AcDbCircle
 10
470.1551814542174
 20
1544.690518057716
 30
0.0
 40
11.0
  0
LINE
  5
277
330
19
100
AcDbEntity
  8
L-CENTER
 48
0.8
100
AcDbLine
 10
470.1551814542172
 20
1575.690518057716
 30
0.0
 11
470.1551814542172
 21
1513.690518057716
 31
0.0
  0
LINE
  5
278
330
19
100
AcDbEntity
  8
4
100
AcDbLine
 10
410.1551814542172
 20
1584.690518057716
 30
0.0
 11
410.1551814542172
 21
1497.690518057716
 31
0.0
  0
LINE
  5
279
330
19
100
AcDbEntity
  8
4
100
AcDbLine
 10
570.1551814542172
 20
1584.690518057716
 30
0.0
 11
570.1551814542172
 21
1516.876868708299
 31
0.0
  0
LINE
  5
27A
330
19
100
AcDbEntity
  8
4
100
AcDbLine
 10
558.1551814542172
 20
1584.690518057716
 30
0.0
 11
558.1551814542172
 21
1510.282748883873
 31
0.0
  0
LINE
  5
27B
330
19
100
AcDbEntity
  8
L-CENTER
 48
0.8
100
AcDbLine
 10
720.1551814542172
 20
1573.690518057716
 30
0.0
 11
720.1551814542172
 21
885.6905180577164
 31
0.0
  0
ARC
  5
27C
330
19
100
AcDbEntity
  8
4
100
AcDbCircle
 10
720.1551814542173
 20
1229.690518057716
 30
0.0
 40
250.0
100
AcDbArc
 50
92.00503693842093
 51
267.9949630615791
  0
LINE
  5
27D
330
19
100
AcDbEntity
  8
4
100
AcDbLine
 10
410.1551814542172
 20
1084.690518057716
 30
0.0
 11
410.1551814542172
 21
904.6905180577164
 31
0.0
  0
LINE
  5
27E
330
19
100
AcDbEntity
  8
4
100
AcDbLine
 10
410.1551814542172
 20
904.6905180577164
 30
0.0
 11
570.1551814542172
 21
904.6905180577164
 31
0.0
  0
CIRCLE
  5
27F
330
19
100
AcDbEntity
  8
4
100
AcDbCircle
 10
470.1551814542173
 20
944.6905180577164
 30
0.0
 40
11.0
  0
LINE
  5
280
330
19
100
AcDbEntity
  8
L-CENTER
 48
0.8
100
AcDbLine
 10
470.1551814542172
 20
975.6905180577164
 30
0.0
 11
470.1551814542172
 21
913.6905180577164
 31
0.0
  0
LINE
  5
281
330
19
100
AcDbEntity
  8
L-CENTER
 48
0.8
100
AcDbLine
 10
501.1551814542172
 20
944.6905180577164
 30
0.0
 11
439.1551814542172
 21
944.6905180577164
 31
0.0
  0
CIRCLE
  5
282
330
19
100
AcDbEntity
  8
4
100
AcDbCircle
 10
605.3501517446907
 20
952.5266583043303
 30
0.0
 40
9.5
  0
LINE
  5
283
330
19
100
AcDbEntity
  8
4
100
AcDbLine
 10
596.6473392176779
 20
945.8487553810319
 30
0.0
 11
606.7819790567671
 21
941.6508501099142
 31
0.0
  0
LINE
  5
284
330
19
100
AcDbEntity
  8
4
100
AcDbLine
 10
606.7819790567671
 20
941.6508501099142
 30
0.0
 11
615.4847915837795
 21
948.3287530332132
 31
0.0
  0
LINE
  5
285
330
19
100
AcDbEntity
  8
L-CENTER
100
AcDbLine
 10
615.6826044185482
 20
977.4714056821354
 30
0.0
 11
595.0176990708333
 21
927.5819109265253
 31
0.0
  0
LINE
  5
286
330
19
100
AcDbEntity
  8
4
100
AcDbLine
 10
558.1551814542172
 20
949.0982872315581
 30
0.0
 11
558.1551814542172
 21
904.6905180577164
 31
0.0
  0
LINE
  5
287
330
19
100
AcDbEntity
  8
4
100
AcDbLine
 10
570.1551814542172
 20
942.5041674071326
 30
0.0
 11
570.1551814542172
 21
904.6905180577164
 31
0.0
  0
LINE
  5
288
330
19
100
AcDbEntity
  8
4
100
AcDbLine
 10
603.9183244326146
 20
963.4024664987464
 30
0.0
 11
595.2155119056008
 21
956.724563575448
 31
0.0
  0
LINE
  5
289
330
19
100
AcDbEntity
  8
4
100
AcDbLine
 10
615.4847915837795
 20
948.3287530332132
 30
0.0
 11
614.0529642717036
 21
959.2045612276288
 31
0.0
  0
LINE
  5
28A
330
19
100
AcDbEntity
  8
4
100
AcDbLine
 10
595.2155119056008
 20
956.724563575448
 30
0.0
 11
596.6473392176779
 21
945.8487553810319
 31
0.0
  0
LINE
  5
28B
330
19
100
AcDbEntity
  8
4
100
AcDbLine
 10
614.0529642717036
 20
959.2045612276288
 30
0.0
 11
603.9183244326146
 21
963.4024664987464
 31
0.0
  0
LINE
  5
28C
330
19
100
AcDbEntity
  8
4
100
AcDbLine
 10
833.5283838516673
 20
941.6508501099142
 30
0.0
 11
824.8255713246549
 21
948.3287530332132
 31
0.0
  0
LINE
  5
28D
330
19
100
AcDbEntity
  8
L-CENTER
 48
4.0
100
AcDbLine
 10
680.1551814542172
 20
1019.690518057716
 30
0.0
 11
760.1551814542174
 21
1019.690518057716
 31
0.0
  0
ARC
  5
28E
330
19
100
AcDbEntity
  8
4
100
AcDbCircle
 10
720.1551814542173
 20
1019.690518057716
 30
0.0
 40
25.0
100
AcDbArc
 50
293.5781784781998
 51
66.42182152179805
  0
ARC
  5
28F
330
19
100
AcDbEntity
  8
4
100
AcDbCircle
 10
720.1551814542174
 20
1019.690518057716
 30
0.0
 40
22.5
100
AcDbArc
 50
296.3877999612436
 51
63.61220003875751
  0
ARC
  5
290
330
19
100
AcDbEntity
  8
4
100
AcDbCircle
 10
720.1551814542174
 20
1019.690518057716
 30
0.0
 40
22.5
100
AcDbArc
 50
116.3877999612425
 51
243.6122000387565
  0
ARC
  5
291
330
19
100
AcDbEntity
  8
4
100
AcDbCircle
 10
720.1551814542174
 20
1019.690518057716
 30
0.0
 40
20.0
100
AcDbArc
 50
119.9999999999999
 51
240.0000000000001
  0
ARC
  5
292
330
19
100
AcDbEntity
  8
4
100
AcDbCircle
 10
720.1551814542174
 20
1019.690518057716
 30
0.0
 40
20.0
100
AcDbArc
 50
299.9999999999998
 51
60.00000000000011
  0
LINE
  5
293
330
19
100
AcDbEntity
  8
4
100
AcDbLine
 10
710.1551814542163
 20
984.6905180577164
 30
0.0
 11
710.1551814542172
 21
1054.690518057716
 31
0.0
  0
LINE
  5
294
330
19
100
AcDbEntity
  8
4
100
AcDbLine
 10
730.1551814542163
 20
984.6905180577164
 30
0.0
 11
730.1551814542172
 21
1054.690518057716
 31
0.0
  0
ARC
  5
295
330
19
100
AcDbEntity
  8
4
100
AcDbCircle
 10
720.1551814542173
 20
1019.690518057716
 30
0.0
 40
25.0
100
AcDbArc
 50
113.5781784782027
 51
246.4218215217964
  0
ARC
  5
296
330
19
100
AcDbEntity
  8
4
100
AcDbCircle
 10
720.1551814542174
 20
984.6905180577164
 30
0.0
 40
10.0
100
AcDbArc
 50
180.0
 51
0.0
  0
ARC
  5
297
330
19
100
AcDbEntity
  8
4
100
AcDbCircle
 10
720.1551814542174
 20
1054.690518057716
 30
0.0
 40
10.0
100
AcDbArc
 50
0.0
 51
180.0
  0
LINE
  5
298
330
19
100
AcDbEntity
  8
4
100
AcDbLine
 10
826.2573986367308
 20
959.2045612276288
 30
0.0
 11
836.3920384758198
 21
963.4024664987464
 31
0.0
  0
LINE
  5
299
330
19
100
AcDbEntity
  8
4
100
AcDbLine
 10
824.8255713246549
 20
948.3287530332132
 30
0.0
 11
826.2573986367308
 21
959.2045612276288
 31
0.0
  0
LINE
  5
29A
330
19
100
AcDbEntity
  8
4
100
AcDbLine
 10
384.1551814542172
 20
1497.690518057716
 30
0.0
 11
538.0782746263603
 21
1497.690518057716
 31
0.0
  0
CIRCLE
  5
29B
330
19
100
AcDbEntity
  8
4
100
AcDbCircle
 10
623.8070393793406
 20
1239.690518057716
 30
0.0
 40
115.0
  0
LINE
  5
29C
330
19
100
AcDbEntity
  8
L-CENTER
 48
0.8
100
AcDbLine
 10
478.8070393793396
 20
1239.690518057716
 30
0.0
 11
768.8070393793398
 21
1239.690518057716
 31
0.0
  0
LINE
  5
29D
330
19
100
AcDbEntity
  8
L-CENTER
100
AcDbLine
 10
467.9360690786361
 20
1125.217941022046
 30
0.0
 11
418.046574323027
 21
1104.553035674332
 31
0.0
  0
LINE
  5
29E
330
19
100
AcDbEntity
  8
4
100
AcDbLine
 10
410.1551814542172
 20
1084.690518057716
 30
0.0
 11
430.4121918927785
 21
1084.690518057716
 31
0.0
  0
LINE
  5
29F
330
19
100
AcDbEntity
  8
4
100
AcDbLine
 10
453.8671298952472
 20
1113.453661036113
 30
0.0
 11
449.66922462413
 21
1123.588300875203
 31
0.0
  0
LINE
  5
2A0
330
19
100
AcDbEntity
  8
4
100
AcDbLine
 10
436.3134187775329
 20
1106.182675821176
 30
0.0
 11
447.1892269719488
 21
1104.750848509101
 31
0.0
  0
LINE
  5
2A1
330
19
100
AcDbEntity
  8
4
100
AcDbLine
 10
438.7934164297135
 20
1125.020128187279
 30
0.0
 11
432.1155135064155
 21
1116.317315660266
 31
0.0
  0
LINE
  5
2A2
330
19
100
AcDbEntity
  8
4
100
AcDbLine
 10
432.1155135064155
 20
1116.317315660266
 30
0.0
 11
436.3134187775329
 21
1106.182675821176
 31
0.0
  0
CIRCLE
  5
2A3
330
19
100
AcDbEntity
  8
4
100
AcDbCircle
 10
442.9913217008311
 20
1114.885488348189
 30
0.0
 40
9.5
  0
LINE
  5
2A4
330
19
100
AcDbEntity
  8
4
100
AcDbLine
 10
447.1892269719488
 20
1104.750848509101
 30
0.0
 11
453.8671298952472
 21
1113.453661036113
 31
0.0
  0
LINE
  5
2A5
330
19
100
AcDbEntity
  8
4
100
AcDbLine
 10
449.66922462413
 20
1123.588300875203
 30
0.0
 11
438.7934164297135
 21
1125.020128187279
 31
0.0
  0
LINE
  5
2A6
330
19
100
AcDbEntity
  8
4
100
AcDbLine
 10
372.1551814542163
 20
1494.690518057716
 30
0.0
 11
372.1551814542163
 21
1350.690518057716
 31
0.0
  0
LINE
  5
2A7
330
19
100
AcDbEntity
  8
4
100
AcDbLine
 10
384.1551814542172
 20
1497.690518057716
 30
0.0
 11
384.1551814542172
 21
1347.690518057716
 31
0.0
  0
LINE
  5
2A8
330
19
100
AcDbEntity
  8
L-CENTER
100
AcDbLine
 10
467.9360690786361
 20
1334.163095093385
 30
0.0
 11
418.046574323027
 21
1354.8280004411
 31
0.0
  0
LINE
  5
2A9
330
19
100
AcDbEntity
  8
4
100
AcDbLine
 10
372.1551814542163
 20
1361.610563481492
 30
0.0
 11
372.1551814542163
 21
1381.24047263394
 31
0.0
  0
LINE
  5
2AA
330
19
100
AcDbEntity
  8
4
100
AcDbLine
 10
369.6551814542163
 20
1361.610563481492
 30
0.0
 11
369.6551814542163
 21
1381.24047263394
 31
0.0
  0
LINE
  5
2AB
330
19
100
AcDbEntity
  8
4
100
AcDbLine
 10
362.6551814542163
 20
1378.786733989883
 30
0.0
 11
362.6551814542163
 21
1364.064302125548
 31
0.0
  0
ARC
  5
2AC
330
19
100
AcDbEntity
  8
4
100
AcDbCircle
 10
376.4343467516755
 20
1371.425518057715
 30
0.0
 40
13.77916529745958
100
AcDbArc
 50
159.1359356360806
 51
200.8640643639194
  0
LINE
  5
2AD
330
19
100
AcDbEntity
  8
4
100
AcDbLine
 10
384.1551814542172
 20
1347.690518057716
 30
0.0
 11
418.4069420227333
 21
1347.690518057716
 31
0.0
  0
ARC
  5
2AE
330
19
100
AcDbEntity
  8
4
100
AcDbCircle
 10
366.4387953832756
 20
1364.064302125548
 30
0.0
 40
3.783613929059507
100
AcDbArc
 50
139.5701031551685
 51
220.4298968448315
  0
LINE
  5
2AF
330
19
100
AcDbEntity
  8
4
100
AcDbLine
 10
363.558708400069
 20
1361.610563481492
 30
0.0
 11
372.1551814542163
 21
1361.610563481492
 31
0.0
  0
LINE
  5
2B0
330
19
100
AcDbEntity
  8
4
100
AcDbLine
 10
363.558708400069
 20
1366.518040769603
 30
0.0
 11
369.6551814542163
 21
1366.518040769603
 31
0.0
  0
LINE
  5
2B1
330
19
100
AcDbEntity
  8
4
 48
0.8
100
AcDbLine
 10
372.1551814542172
 20
1350.690518057716
 30
0.0
 11
384.1551814542163
 21
1350.690518057716
 31
0.0
  0
LINE
  5
2B2
330
19
100
AcDbEntity
  8
L-CENTER
100
AcDbLine
 10
400.2462581519931
 20
1371.425518057715
 30
0.0
 11
359.7872031996358
 21
1371.425518057715
 31
0.0
  0
LINE
  5
2B3
330
19
100
AcDbEntity
  8
4
100
AcDbLine
 10
372.1551814542163
 20
1381.24047263394
 30
0.0
 11
363.558708400069
 21
1381.24047263394
 31
0.0
  0
ARC
  5
2B4
330
19
100
AcDbEntity
  8
4
100
AcDbCircle
 10
366.4387953832756
 20
1378.786733989883
 30
0.0
 40
3.783613929059507
100
AcDbArc
 50
139.5701031551685
 51
220.4298968448315
  0
LINE
  5
2B5
330
19
100
AcDbEntity
  8
4
100
AcDbLine
 10
363.558708400069
 20
1376.332995345827
 30
0.0
 11
369.6551814542163
 21
1376.332995345827
 31
0.0
  0
LINE
  5
2B6
330
19
100
AcDbEntity
  8
4
100
AcDbLine
 10
436.3134187775322
 20
1353.198360294256
 30
0.0
 11
447.1892269719488
 21
1354.630187606333
 31
0.0
  0
LINE
  5
2B7
330
19
100
AcDbEntity
  8
4
100
AcDbLine
 10
438.7934164297135
 20
1334.360907928154
 30
0.0
 11
432.115513506415
 21
1343.063720455167
 31
0.0
  0
CIRCLE
  5
2B8
330
19
100
AcDbEntity
  8
4
100
AcDbCircle
 10
442.9913217008311
 20
1344.495547767243
 30
0.0
 40
9.5
  0
LINE
  5
2B9
330
19
100
AcDbEntity
  8
4
100
AcDbLine
 10
453.8671298952468
 20
1345.927375079319
 30
0.0
 11
449.6692246241294
 21
1335.79273524023
 31
0.0
  0
LINE
  5
2BA
330
19
100
AcDbEntity
  8
4
100
AcDbLine
 10
447.1892269719488
 20
1354.630187606333
 30
0.0
 11
453.8671298952468
 21
1345.927375079319
 31
0.0
  0
LINE
  5
2BB
330
19
100
AcDbEntity
  8
4
100
AcDbLine
 10
449.6692246241294
 20
1335.79273524023
 30
0.0
 11
438.7934164297135
 21
1334.360907928154
 31
0.0
  0
LINE
  5
2BC
330
19
100
AcDbEntity
  8
4
100
AcDbLine
 10
432.115513506415
 20
1343.063720455167
 30
0.0
 11
436.3134187775322
 21
1353.198360294256
 31
0.0
  0
LINE
  5
2BD
330
19
100
AcDbEntity
  8
L-CENTER
100
AcDbLine
 10
400.2462581519931
 20
1473.955518057716
 30
0.0
 11
359.7872031996358
 21
1473.955518057716
 31
0.0
  0
LINE
  5
2BE
330
19
100
AcDbEntity
  8
4
100
AcDbLine
 10
363.558708400069
 20
1478.862995345827
 30
0.0
 11
369.6551814542163
 21
1478.862995345827
 31
0.0
  0
LINE
  5
2BF
330
19
100
AcDbEntity
  8
4
100
AcDbLine
 10
372.1551814542163
 20
1483.770472633938
 30
0.0
 11
363.558708400069
 21
1483.770472633938
 31
0.0
  0
ARC
  5
2C0
330
19
100
AcDbEntity
  8
4
100
AcDbCircle
 10
366.4387953832756
 20
1481.316733989883
 30
0.0
 40
3.783613929059507
100
AcDbArc
 50
139.5701031551685
 51
220.4298968448315
  0
ARC
  5
2C1
330
19
100
AcDbEntity
  8
4
100
AcDbCircle
 10
366.4387953832756
 20
1466.594302125548
 30
0.0
 40
3.783613929059507
100
AcDbArc
 50
139.5701031551685
 51
220.4298968448315
  0
LINE
  5
2C2
330
19
100
AcDbEntity
  8
4
100
AcDbLine
 10
363.558708400069
 20
1464.140563481491
 30
0.0
 11
372.1551814542163
 21
1464.140563481491
 31
0.0
  0
LINE
  5
2C3
330
19
100
AcDbEntity
  8
4
100
AcDbLine
 10
363.558708400069
 20
1469.048040769604
 30
0.0
 11
369.6551814542163
 21
1469.048040769604
 31
0.0
  0
ARC
  5
2C4
330
19
100
AcDbEntity
  8
4
100
AcDbCircle
 10
376.4343467516755
 20
1473.955518057716
 30
0.0
 40
13.77916529745958
100
AcDbArc
 50
159.1359356360806
 51
200.8640643639194
  0
LINE
  5
2C5
330
19
100
AcDbEntity
  8
4
100
AcDbLine
 10
372.1551814542163
 20
1464.140563481491
 30
0.0
 11
372.1551814542163
 21
1483.770472633938
 31
0.0
  0
LINE
  5
2C6
330
19
100
AcDbEntity
  8
4
100
AcDbLine
 10
369.6551814542163
 20
1464.140563481491
 30
0.0
 11
369.6551814542163
 21
1483.770472633938
 31
0.0
  0
LINE
  5
2C7
330
19
100
AcDbEntity
  8
4
100
AcDbLine
 10
362.6551814542163
 20
1481.316733989883
 30
0.0
 11
362.6551814542163
 21
1466.594302125548
 31
0.0
  0
LINE
  5
2C8
330
19
100
AcDbEntity
  8
4
 48
0.8
100
AcDbLine
 10
372.1551814542172
 20
1494.690518057715
 30
0.0
 11
384.1551814542163
 21
1494.690518057716
 31
0.0
  0
LINE
  5
2C9
330
19
100
AcDbEntity
  8
L-CENTER
 48
0.8
100
AcDbLine
 10
501.1551814542172
 20
1544.690518057716
 30
0.0
 11
439.1551814542172
 21
1544.690518057716
 31
0.0
  0
LINE
  5
2CA
330
19
100
AcDbEntity
  8
L-CENTER
100
AcDbLine
 10
567.2384968844162
 20
1296.259060552639
 30
0.0
 11
538.954225636955
 21
1324.543331800101
 31
0.0
  0
CIRCLE
  5
2CB
330
19
100
AcDbEntity
  8
4
100
AcDbCircle
 10
553.0963612606857
 20
1310.40119617637
 30
0.0
 40
8.5
  0
LINE
  5
2CC
330
19
100
AcDbEntity
  8
4
100
AcDbLine
 10
543.6158431516569
 20
1312.941493347514
 30
0.0
 11
546.1561403227997
 21
1303.460975238485
 31
0.0
  0
LINE
  5
2CD
330
19
100
AcDbEntity
  8
4
100
AcDbLine
 10
562.5768793697134
 20
1307.860899005228
 30
0.0
 11
560.0365821985706
 21
1317.341417114256
 31
0.0
  0
CIRCLE
  5
2CE
330
19
100
AcDbEntity
  8
4
100
AcDbCircle
 10
694.5177174979946
 20
1310.40119617637
 30
0.0
 40
8.5
  0
LINE
  5
2CF
330
19
100
AcDbEntity
  8
L-CENTER
100
AcDbLine
 10
680.3755818742638
 20
1296.259060552639
 30
0.0
 11
708.659853121726
 21
1324.543331800101
 31
0.0
  0
LINE
  5
2D0
330
19
100
AcDbEntity
  8
4
100
AcDbLine
 10
685.0371993889667
 20
1307.860899005228
 30
0.0
 11
687.5774965601095
 21
1317.341417114256
 31
0.0
  0
LINE
  5
2D1
330
19
100
AcDbEntity
  8
4
100
AcDbLine
 10
703.9982356070241
 20
1312.941493347514
 30
0.0
 11
701.4579384358813
 21
1303.460975238485
 31
0.0
  0
LINE
  5
2D2
330
19
100
AcDbEntity
  8
L-CENTER
 48
4.0
100
AcDbLine
 10
623.8070393793405
 20
1104.690518057716
 30
0.0
 11
623.8070393793405
 21
1374.690518057716
 31
0.0
  0
CIRCLE
  5
2D3
330
19
100
AcDbEntity
  8
L-CENTER
 48
4.0
100
AcDbCircle
 10
623.8070393793406
 20
1239.690518057716
 30
0.0
 40
100.0
  0
CIRCLE
  5
2D4
330
19
100
AcDbEntity
  8
4
100
AcDbCircle
 10
623.8070393793406
 20
1239.690518057716
 30
0.0
 40
65.0
  0
LINE
  5
2D5
330
19
100
AcDbEntity
  8
4
100
AcDbLine
 10
611.8070393793404
 20
1186.690518057716
 30
0.0
 11
611.8070393793404
 21
1202.690518057716
 31
0.0
  0
LINE
  5
2D6
330
19
100
AcDbEntity
  8
4
100
AcDbLine
 10
635.8070393793404
 20
1186.690518057716
 30
0.0
 11
635.8070393793404
 21
1202.690518057716
 31
0.0
  0
LINE
  5
2D7
330
19
100
AcDbEntity
  8
4
100
AcDbLine
 10
546.1561403227997
 20
1175.920060876947
 30
0.0
 11
555.6366584318284
 21
1178.460358048091
 31
0.0
  0
LINE
  5
2D8
330
19
100
AcDbEntity
  8
4
100
AcDbLine
 10
560.0365821985706
 20
1162.039619001176
 30
0.0
 11
550.5560640895428
 21
1159.499321830034
 31
0.0
  0
CIRCLE
  5
2D9
330
19
100
AcDbEntity
  8
4
100
AcDbCircle
 10
553.0963612606857
 20
1168.979839939062
 30
0.0
 40
8.5
  0
LINE
  5
2DA
330
19
100
AcDbEntity
  8
L-CENTER
100
AcDbLine
 10
567.2384968844162
 20
1183.121975562793
 30
0.0
 11
538.954225636955
 21
1154.837704315331
 31
0.0
  0
LINE
  5
2DB
330
19
100
AcDbEntity
  8
4
100
AcDbLine
 10
543.6158431516569
 20
1166.439542767919
 30
0.0
 11
546.1561403227997
 21
1175.920060876947
 31
0.0
  0
LINE
  5
2DC
330
19
100
AcDbEntity
  8
4
100
AcDbLine
 10
550.5560640895428
 20
1159.499321830034
 30
0.0
 11
543.6158431516569
 21
1166.439542767919
 31
0.0
  0
LINE
  5
2DD
330
19
100
AcDbEntity
  8
4
100
AcDbLine
 10
555.6366584318284
 20
1178.460358048091
 30
0.0
 11
562.5768793697134
 21
1171.520137110204
 31
0.0
  0
LINE
  5
2DE
330
19
100
AcDbEntity
  8
4
100
AcDbLine
 10
562.5768793697134
 20
1171.520137110204
 30
0.0
 11
560.0365821985706
 21
1162.039619001176
 31
0.0
  0
LINE
  5
2DF
330
19
100
AcDbEntity
  8
4
100
AcDbLine
 10
635.8070393793404
 20
1186.690518057716
 30
0.0
 11
611.8070393793404
 21
1186.690518057716
 31
0.0
  0
ARC
  5
2E0
330
19
100
AcDbEntity
  8
4
100
AcDbCircle
 10
623.8070393793404
 20
1239.690518057716
 30
0.0
 40
45.0
100
AcDbArc
 50
285.4660099534207
 51
254.5339900465793
  0
LINE
  5
2E1
330
19
100
AcDbEntity
  8
4
100
AcDbLine
 10
546.1561403227997
 20
1303.460975238485
 30
0.0
 11
555.6366584318284
 21
1300.920678067342
 31
0.0
  0
LINE
  5
2E2
330
19
100
AcDbEntity
  8
4
100
AcDbLine
 10
555.6366584318284
 20
1300.920678067342
 30
0.0
 11
562.5768793697134
 21
1307.860899005228
 31
0.0
  0
LINE
  5
2E3
330
19
100
AcDbEntity
  8
4
100
AcDbLine
 10
635.8070393793404
 20
1202.690518057716
 30
0.0
 11
611.8070393793404
 21
1202.690518057716
 31
0.0
  0
LINE
  5
2E4
330
19
100
AcDbEntity
  8
4
100
AcDbLine
 10
701.4579384358813
 20
1175.920060876947
 30
0.0
 11
691.9774203268526
 21
1178.460358048091
 31
0.0
  0
LINE
  5
2E5
330
19
100
AcDbEntity
  8
4
100
AcDbLine
 10
691.9774203268526
 20
1178.460358048091
 30
0.0
 11
685.0371993889667
 21
1171.520137110204
 31
0.0
  0
LINE
  5
2E6
330
19
100
AcDbEntity
  8
4
100
AcDbLine
 10
703.9982356070241
 20
1166.439542767919
 30
0.0
 11
701.4579384358813
 21
1175.920060876947
 31
0.0
  0
LINE
  5
2E7
330
19
100
AcDbEntity
  8
4
100
AcDbLine
 10
687.5774965601095
 20
1162.039619001176
 30
0.0
 11
697.0580146691382
 21
1159.499321830034
 31
0.0
  0
LINE
  5
2E8
330
19
100
AcDbEntity
  8
L-CENTER
100
AcDbLine
 10
680.3755818742638
 20
1183.121975562793
 30
0.0
 11
708.659853121726
 21
1154.837704315331
 31
0.0
  0
CIRCLE
  5
2E9
330
19
100
AcDbEntity
  8
4
100
AcDbCircle
 10
694.5177174979946
 20
1168.979839939062
 30
0.0
 40
8.5
  0
LINE
  5
2EA
330
19
100
AcDbEntity
  8
4
100
AcDbLine
 10
685.0371993889667
 20
1171.520137110204
 30
0.0
 11
687.5774965601095
 21
1162.039619001176
 31
0.0
  0
LINE
  5
2EB
330
19
100
AcDbEntity
  8
4
100
AcDbLine
 10
697.0580146691382
 20
1159.499321830034
 30
0.0
 11
703.9982356070241
 21
1166.439542767919
 31
0.0
  0
LINE
  5
2EC
330
19
100
AcDbEntity
  8
4
100
AcDbLine
 10
794.6624700363648
 20
1179.138027577759
 30
0.0
 11
801.6026909742502
 21
1172.197806639872
 31
0.0
  0
LINE
  5
2ED
330
19
100
AcDbEntity
  8
4
100
AcDbLine
 10
799.0623938031074
 20
1162.717288530844
 30
0.0
 11
789.5818756940791
 21
1160.176991359702
 31
0.0
  0
CIRCLE
  5
2EE
330
19
100
AcDbEntity
  8
4
100
AcDbCircle
 10
792.1221728652218
 20
1169.65750946873
 30
0.0
 40
8.5
  0
LINE
  5
2EF
330
19
100
AcDbEntity
  8
L-CENTER
100
AcDbLine
 10
806.264308488953
 20
1183.799645092461
 30
0.0
 11
777.9800372414909
 21
1155.515373844999
 31
0.0
  0
LINE
  5
2F0
330
19
100
AcDbEntity
  8
4
100
AcDbLine
 10
785.1819519273361
 20
1176.597730406615
 30
0.0
 11
794.6624700363648
 21
1179.138027577759
 31
0.0
  0
LINE
  5
2F1
330
19
100
AcDbEntity
  8
4
100
AcDbLine
 10
782.6416547561932
 20
1167.117212297587
 30
0.0
 11
785.1819519273361
 21
1176.597730406615
 31
0.0
  0
LINE
  5
2F2
330
19
100
AcDbEntity
  8
4
100
AcDbLine
 10
789.5818756940791
 20
1160.176991359702
 30
0.0
 11
782.6416547561932
 21
1167.117212297587
 31
0.0
  0
LINE
  5
2F3
330
19
100
AcDbEntity
  8
4
100
AcDbLine
 10
801.6026909742502
 20
1172.197806639872
 30
0.0
 11
799.0623938031074
 21
1162.717288530844
 31
0.0
  0
LINE
  5
2F4
330
19
100
AcDbEntity
  8
4
100
AcDbLine
 10
701.4579384358813
 20
1303.460975238485
 30
0.0
 11
691.9774203268526
 21
1300.920678067342
 31
0.0
  0
LINE
  5
2F5
330
19
100
AcDbEntity
  8
4
100
AcDbLine
 10
691.9774203268526
 20
1300.920678067342
 30
0.0
 11
685.0371993889667
 21
1307.860899005228
 31
0.0
  0
LINE
  5
2F6
330
19
100
AcDbEntity
  8
L-CENTER
100
AcDbLine
 10
806.264308488953
 20
1261.581391022972
 30
0.0
 11
777.9800372414909
 21
1289.865662270433
 31
0.0
  0
LINE
  5
2F7
330
19
100
AcDbEntity
  8
4
100
AcDbLine
 10
794.6624700363648
 20
1266.243008537674
 30
0.0
 11
801.6026909742502
 21
1273.18322947556
 31
0.0
  0
CIRCLE
  5
2F8
330
19
100
AcDbEntity
  8
4
100
AcDbCircle
 10
792.1221728652218
 20
1275.723526646702
 30
0.0
 40
8.5
  0
LINE
  5
2F9
330
19
100
AcDbEntity
  8
4
100
AcDbLine
 10
799.0623938031074
 20
1282.663747584588
 30
0.0
 11
789.5818756940791
 21
1285.204044755731
 31
0.0
  0
LINE
  5
2FA
330
19
100
AcDbEntity
  8
4
100
AcDbLine
 10
782.6416547561932
 20
1278.263823817846
 30
0.0
 11
785.1819519273361
 21
1268.783305708817
 31
0.0
  0
LINE
  5
2FB
330
19
100
AcDbEntity
  8
4
100
AcDbLine
 10
785.1819519273361
 20
1268.783305708817
 30
0.0
 11
794.6624700363648
 21
1266.243008537674
 31
0.0
  0
LINE
  5
2FC
330
19
100
AcDbEntity
  8
4
100
AcDbLine
 10
789.5818756940791
 20
1285.204044755731
 30
0.0
 11
782.6416547561932
 21
1278.263823817846
 31
0.0
  0
LINE
  5
2FD
330
19
100
AcDbEntity
  8
4
100
AcDbLine
 10
801.6026909742502
 20
1273.18322947556
 30
0.0
 11
799.0623938031074
 21
1282.663747584588
 31
0.0
  0
LINE
  5
2FE
330
19
100
AcDbEntity
  8
4
100
AcDbLine
 10
560.0365821985706
 20
1317.341417114256
 30
0.0
 11
550.5560640895428
 21
1319.881714285399
 31
0.0
  0
LINE
  5
2FF
330
19
100
AcDbEntity
  8
4
100
AcDbLine
 10
550.5560640895428
 20
1319.881714285399
 30
0.0
 11
543.6158431516569
 21
1312.941493347514
 31
0.0
  0
LINE
  5
300
330
19
100
AcDbEntity
  8
L-CENTER
100
AcDbLine
 10
615.6826044185482
 20
1481.909630433297
 30
0.0
 11
595.0176990708333
 21
1531.799125188907
 31
0.0
  0
LINE
  5
301
330
19
100
AcDbEntity
  8
4
100
AcDbLine
 10
596.647339217677
 20
1513.532280734401
 30
0.0
 11
606.781979056766
 21
1517.730186005519
 31
0.0
  0
LINE
  5
302
330
19
100
AcDbEntity
  8
4
100
AcDbLine
 10
603.9183244326134
 20
1495.978569616687
 30
0.0
 11
595.215511905601
 21
1502.656472539985
 31
0.0
  0
LINE
  5
303
330
19
100
AcDbEntity
  8
4
100
AcDbLine
 10
615.4847915837797
 20
1511.052283082221
 30
0.0
 11
614.0529642717026
 21
1500.176474887804
 31
0.0
  0
LINE
  5
304
330
19
100
AcDbEntity
  8
4
100
AcDbLine
 10
614.0529642717026
 20
1500.176474887804
 30
0.0
 11
603.9183244326134
 21
1495.978569616687
 31
0.0
  0
CIRCLE
  5
305
330
19
100
AcDbEntity
  8
4
100
AcDbCircle
 10
605.3501517446898
 20
1506.854377811103
 30
0.0
 40
9.5
  0
LINE
  5
306
330
19
100
AcDbEntity
  8
4
100
AcDbLine
 10
595.215511905601
 20
1502.656472539985
 30
0.0
 11
596.647339217677
 21
1513.532280734401
 31
0.0
  0
LINE
  5
307
330
19
100
AcDbEntity
  8
4
100
AcDbLine
 10
606.781979056766
 20
1517.730186005519
 30
0.0
 11
615.4847915837797
 21
1511.052283082221
 31
0.0
  0
ARC
  5
308
330
19
100
AcDbEntity
  8
4
100
AcDbCircle
 10
720.1551814542173
 20
1439.690518057716
 30
0.0
 40
25.0
100
AcDbArc
 50
293.5781784781997
 51
66.42182152179943
  0
ARC
  5
309
330
19
100
AcDbEntity
  8
4
100
AcDbCircle
 10
720.1551814542174
 20
1439.690518057716
 30
0.0
 40
22.5
100
AcDbArc
 50
296.387799961243
 51
63.61220003875699
  0
ARC
  5
30A
330
19
100
AcDbEntity
  8
4
100
AcDbCircle
 10
720.1551814542174
 20
1439.690518057716
 30
0.0
 40
22.5
100
AcDbArc
 50
116.387799961243
 51
243.612200038757
  0
ARC
  5
30B
330
19
100
AcDbEntity
  8
4
100
AcDbCircle
 10
720.1551814542174
 20
1439.690518057716
 30
0.0
 40
20.0
100
AcDbArc
 50
119.9999999999999
 51
240.0000000000001
  0
ARC
  5
30C
330
19
100
AcDbEntity
  8
4
100
AcDbCircle
 10
720.1551814542174
 20
1439.690518057716
 30
0.0
 40
20.0
100
AcDbArc
 50
299.9999999999998
 51
60.00000000000011
  0
LINE
  5
30D
330
19
100
AcDbEntity
  8
4
100
AcDbLine
 10
710.1551814542163
 20
1404.690518057716
 30
0.0
 11
710.1551814542172
 21
1474.690518057716
 31
0.0
  0
LINE
  5
30E
330
19
100
AcDbEntity
  8
4
100
AcDbLine
 10
730.1551814542163
 20
1404.690518057716
 30
0.0
 11
730.1551814542172
 21
1474.690518057716
 31
0.0
  0
ARC
  5
30F
330
19
100
AcDbEntity
  8
4
100
AcDbCircle
 10
720.1551814542173
 20
1439.690518057716
 30
0.0
 40
25.0
100
AcDbArc
 50
113.5781784782027
 51
246.4218215217957
  0
LINE
  5
310
330
19
100
AcDbEntity
  8
L-CENTER
 48
4.0
100
AcDbLine
 10
680.1551814542172
 20
1109.690518057716
 30
0.0
 11
760.1551814542174
 21
1109.690518057716
 31
0.0
  0
LWPOLYLINE
  5
311
330
19
100
AcDbEntity
  8
4
100
AcDbPolyline
 90
        6
 70
     1
 43
0.0
 10
720.1551814542172
 20
1132.690518057716
 10
700.2365971671751
 20
1121.190518057716
 10
700.2365971671751
 20
1098.190518057716
 10
720.1551814542172
 20
1086.690518057716
 10
740.0737657412593
 20
1098.190518057716
 10
740.0737657412593
 20
1121.190518057716
  0
CIRCLE
  5
312
330
19
100
AcDbEntity
  8
4
100
AcDbCircle
 10
720.1551814542172
 20
1109.690518057716
 30
0.0
 40
23.0
  0
CIRCLE
  5
313
330
19
100
AcDbEntity
  8
4
100
AcDbCircle
 10
720.1551814542173
 20
1109.690518057716
 30
0.0
 40
25.0
  0
LINE
  5
314
330
19
100
AcDbEntity
  8
4
100
AcDbLine
 10
687.5774965601095
 20
1317.341417114256
 30
0.0
 11
697.0580146691382
 21
1319.881714285399
 31
0.0
  0
LINE
  5
315
330
19
100
AcDbEntity
  8
4
100
AcDbLine
 10
697.0580146691382
 20
1319.881714285399
 30
0.0
 11
703.9982356070241
 21
1312.941493347514
 31
0.0
  0
ARC
  5
316
330
19
100
AcDbEntity
  8
4
100
AcDbCircle
 10
720.1551814542174
 20
1404.690518057716
 30
0.0
 40
10.0
100
AcDbArc
 50
180.0
 51
0.0
  0
LINE
  5
317
330
19
100
AcDbEntity
  8
L-CENTER
 48
4.0
100
AcDbLine
 10
680.1551814542172
 20
1439.690518057716
 30
0.0
 11
760.1551814542174
 21
1439.690518057716
 31
0.0
  0
ARC
  5
318
330
19
100
AcDbEntity
  8
4
100
AcDbCircle
 10
720.1551814542174
 20
1474.690518057716
 30
0.0
 40
10.0
100
AcDbArc
 50
0.0
 51
180.0
  0
LINE
  5
319
330
19
100
AcDbEntity
  8
4
100
AcDbLine
 10
833.5283838516684
 20
1517.730186005519
 30
0.0
 11
824.8255713246547
 21
1511.052283082221
 31
0.0
  0
LINE
  5
31A
330
19
100
AcDbEntity
  8
4
100
AcDbLine
 10
826.2573986367318
 20
1500.176474887804
 30
0.0
 11
836.392038475821
 21
1495.978569616687
 31
0.0
  0
LINE
  5
31B
330
19
100
AcDbEntity
  8
4
100
AcDbLine
 10
824.8255713246547
 20
1511.052283082221
 30
0.0
 11
826.2573986367318
 21
1500.176474887804
 31
0.0
  0
LINE
  5
31C
330
19
100
AcDbEntity
  8
4
100
AcDbLine
 10
410.1551814542172
 20
1584.690518057716
 30
0.0
 11
570.1551814542172
 21
1584.690518057716
 31
0.0
  0
LINE
  5
31D
330
19
100
AcDbEntity
  8
4
100
AcDbLine
 10
704.5671814542147
 20
1567.690518057716
 30
0.0
 11
735.743181454216
 21
1567.690518057716
 31
0.0
  0
LINE
  5
31E
330
19
100
AcDbEntity
  8
4
100
AcDbLine
 10
702.1551814542163
 20
1562.690518057716
 30
0.0
 11
738.1551814542163
 21
1562.690518057716
 31
0.0
  0
LINE
  5
31F
330
19
100
AcDbEntity
  8
4
100
AcDbLine
 10
702.1551814542163
 20
1560.690518057716
 30
0.0
 11
738.1551814542163
 21
1560.690518057716
 31
0.0
  0
LINE
  5
320
330
19
100
AcDbEntity
  8
4
100
AcDbLine
 10
700.1551814542172
 20
1558.690518057716
 30
0.0
 11
740.1551814542174
 21
1558.690518057716
 31
0.0
  0
LINE
  5
321
330
19
100
AcDbEntity
  8
4
100
AcDbLine
 10
704.5671814542166
 20
1562.690518057716
 30
0.0
 11
704.5671814542147
 21
1567.690518057716
 31
0.0
  0
LINE
  5
322
330
19
100
AcDbEntity
  8
4
100
AcDbLine
 10
702.1551814542163
 20
1560.690518057716
 30
0.0
 11
702.1551814542163
 21
1562.690518057716
 31
0.0
  0
LINE
  5
323
330
19
100
AcDbEntity
  8
4
100
AcDbLine
 10
703.1551814542163
 20
1560.690518057716
 30
0.0
 11
703.1551814542163
 21
1558.690518057716
 31
0.0
  0
LINE
  5
324
330
19
100
AcDbEntity
  8
4
 48
0.8
100
AcDbLine
 10
700.1551814542172
 20
1558.690518057716
 30
0.0
 11
700.1551814542163
 21
1553.072644960239
 31
0.0
  0
LINE
  5
325
330
19
100
AcDbEntity
  8
4
100
AcDbLine
 10
735.743181454216
 20
1562.690518057716
 30
0.0
 11
735.743181454216
 21
1567.690518057716
 31
0.0
  0
LINE
  5
326
330
19
100
AcDbEntity
  8
4
100
AcDbLine
 10
737.1551814542145
 20
1560.690518057716
 30
0.0
 11
737.1551814542145
 21
1558.690518057716
 31
0.0
  0
LINE
  5
327
330
19
100
AcDbEntity
  8
4
100
AcDbLine
 10
738.1551814542163
 20
1560.690518057716
 30
0.0
 11
738.1551814542163
 21
1562.690518057716
 31
0.0
  0
LINE
  5
328
330
19
100
AcDbEntity
  8
4
 48
0.8
100
AcDbLine
 10
740.1551814542174
 20
1558.690518057716
 30
0.0
 11
740.1551814542174
 21
1553.072644960239
 31
0.0
  0
LINE
  5
329
330
19
100
AcDbEntity
  8
4
100
AcDbLine
 10
882.1551814542174
 20
1584.690518057716
 30
0.0
 11
882.1551814542174
 21
1510.282748883873
 31
0.0
  0
LINE
  5
32A
330
19
100
AcDbEntity
  8
4
100
AcDbLine
 10
870.1551814542174
 20
1584.690518057716
 30
0.0
 11
870.1551814542174
 21
1516.8768687083
 31
0.0
  0
CIRCLE
  5
32B
330
19
100
AcDbEntity
  8
4
100
AcDbCircle
 10
970.1551814542175
 20
1544.690518057716
 30
0.0
 40
11.0
  0
LINE
  5
32C
330
19
100
AcDbEntity
  8
4
100
AcDbLine
 10
1030.155181454218
 20
1584.690518057716
 30
0.0
 11
1030.155181454217
 21
1497.690518057716
 31
0.0
  0
LINE
  5
32D
330
19
100
AcDbEntity
  8
L-CENTER
 48
0.8
100
AcDbLine
 10
970.1551814542183
 20
1575.690518057716
 30
0.0
 11
970.1551814542183
 21
1513.690518057716
 31
0.0
  0
LINE
  5
32E
330
19
100
AcDbEntity
  8
4
100
AcDbLine
 10
1030.155181454217
 20
1084.690518057716
 30
0.0
 11
1030.155181454217
 21
904.690518057716
 31
0.0
  0
LINE
  5
32F
330
19
100
AcDbEntity
  8
4
100
AcDbLine
 10
870.1551814542172
 20
904.6905180577164
 30
0.0
 11
1030.155181454217
 21
904.690518057716
 31
0.0
  0
LINE
  5
330
330
19
100
AcDbEntity
  8
4
100
AcDbLine
 10
882.1551814542172
 20
949.0982872315581
 30
0.0
 11
882.1551814542172
 21
904.6905180577164
 31
0.0
  0
CIRCLE
  5
331
330
19
100
AcDbEntity
  8
4
100
AcDbCircle
 10
970.1551814542173
 20
944.6905180577164
 30
0.0
 40
11.0
  0
LINE
  5
332
330
19
100
AcDbEntity
  8
L-CENTER
 48
0.8
100
AcDbLine
 10
970.1551814542172
 20
975.690518057716
 30
0.0
 11
970.1551814542172
 21
913.690518057716
 31
0.0
  0
LINE
  5
333
330
19
100
AcDbEntity
  8
4
100
AcDbLine
 10
870.1551814542172
 20
942.5041674071326
 30
0.0
 11
870.1551814542172
 21
904.6905180577164
 31
0.0
  0
LINE
  5
334
330
19
100
AcDbEntity
  8
4
100
AcDbLine
 10
845.0948510028336
 20
956.724563575448
 30
0.0
 11
843.6630236907565
 21
945.8487553810319
 31
0.0
  0
LINE
  5
335
330
19
100
AcDbEntity
  8
L-CENTER
 48
0.8
100
AcDbLine
 10
939.1551814542172
 20
944.690518057716
 30
0.0
 11
1001.155181454217
 21
944.690518057716
 31
0.0
  0
LINE
  5
336
330
19
100
AcDbEntity
  8
4
100
AcDbLine
 10
1083.155181454217
 20
1445.690518057716
 30
0.0
 11
1180.155181454217
 21
1445.690518057716
 31
0.0
  0
LINE
  5
337
330
19
100
AcDbEntity
  8
4
100
AcDbLine
 10
1083.155181454217
 20
1399.690518057716
 30
0.0
 11
1180.155181454217
 21
1399.690518057716
 31
0.0
  0
LINE
  5
338
330
19
100
AcDbEntity
  8
4
100
AcDbLine
 10
1181.155181454217
 20
1428.690518057716
 30
0.0
 11
1097.155181454217
 21
1428.690518057716
 31
0.0
  0
LINE
  5
339
330
19
100
AcDbEntity
  8
4
100
AcDbLine
 10
1181.155181454217
 20
1416.690518057716
 30
0.0
 11
1097.155181454217
 21
1416.690518057716
 31
0.0
  0
LINE
  5
33A
330
19
100
AcDbEntity
  8
L-CENTER
 48
0.8
100
AcDbLine
 10
845.1551814542174
 20
1342.690518057716
 30
0.0
 11
845.1551814542174
 21
1102.690518057716
 31
0.0
  0
CIRCLE
  5
33B
330
19
100
AcDbEntity
  8
4
100
AcDbCircle
 10
997.3190412076033
 20
1114.885488348189
 30
0.0
 40
9.5
  0
LINE
  5
33C
330
19
100
AcDbEntity
  8
4
100
AcDbLine
 10
1001.516946478721
 20
1125.020128187279
 30
0.0
 11
1008.194849402019
 21
1116.317315660266
 31
0.0
  0
LINE
  5
33D
330
19
100
AcDbEntity
  8
4
100
AcDbLine
 10
1003.996944130902
 20
1106.182675821176
 30
0.0
 11
993.1211359364856
 21
1104.750848509101
 31
0.0
  0
LINE
  5
33E
330
19
100
AcDbEntity
  8
L-CENTER
100
AcDbLine
 10
972.3742938297985
 20
1125.217941022046
 30
0.0
 11
1022.263788585408
 21
1104.553035674332
 31
0.0
  0
LINE
  5
33F
330
19
100
AcDbEntity
  8
4
100
AcDbLine
 10
895.6478928720701
 20
1179.138027577759
 30
0.0
 11
888.7076719341846
 21
1172.197806639872
 31
0.0
  0
LINE
  5
340
330
19
100
AcDbEntity
  8
4
100
AcDbLine
 10
907.6687081522416
 20
1167.117212297586
 30
0.0
 11
905.1284109810988
 21
1176.597730406615
 31
0.0
  0
LINE
  5
341
330
19
100
AcDbEntity
  8
4
100
AcDbLine
 10
905.1284109810988
 20
1176.597730406615
 30
0.0
 11
895.6478928720701
 21
1179.138027577759
 31
0.0
  0
LINE
  5
342
330
19
100
AcDbEntity
  8
4
100
AcDbLine
 10
891.2479691053275
 20
1162.717288530844
 30
0.0
 11
900.7284872143557
 21
1160.176991359702
 31
0.0
  0
CIRCLE
  5
343
330
19
100
AcDbEntity
  8
4
100
AcDbCircle
 10
898.1881900432128
 20
1169.65750946873
 30
0.0
 40
8.5
  0
LINE
  5
344
330
19
100
AcDbEntity
  8
4
100
AcDbLine
 10
900.7284872143557
 20
1160.176991359702
 30
0.0
 11
907.6687081522416
 21
1167.117212297586
 31
0.0
  0
LINE
  5
345
330
19
100
AcDbEntity
  8
4
100
AcDbLine
 10
888.7076719341846
 20
1172.197806639872
 30
0.0
 11
891.2479691053275
 21
1162.717288530844
 31
0.0
  0
LINE
  5
346
330
19
100
AcDbEntity
  8
L-CENTER
100
AcDbLine
 10
884.0460544194818
 20
1183.799645092461
 30
0.0
 11
912.330325666944
 21
1155.515373844999
 31
0.0
  0
LINE
  5
347
330
19
100
AcDbEntity
  8
4
100
AcDbLine
 10
990.6411382843044
 20
1123.588300875203
 30
0.0
 11
1001.516946478721
 21
1125.020128187279
 31
0.0
  0
LINE
  5
348
330
19
100
AcDbEntity
  8
4
100
AcDbLine
 10
993.1211359364856
 20
1104.750848509101
 30
0.0
 11
986.4432330131872
 21
1113.453661036113
 31
0.0
  0
LINE
  5
349
330
19
100
AcDbEntity
  8
4
100
AcDbLine
 10
986.4432330131872
 20
1113.453661036113
 30
0.0
 11
990.6411382843044
 21
1123.588300875203
 31
0.0
  0
LINE
  5
34A
330
19
100
AcDbEntity
  8
4
100
AcDbLine
 10
888.7076719341846
 20
1273.18322947556
 30
0.0
 11
891.2479691053275
 21
1282.663747584588
 31
0.0
  0
LINE
  5
34B
330
19
100
AcDbEntity
  8
4
100
AcDbLine
 10
891.2479691053275
 20
1282.663747584588
 30
0.0
 11
900.7284872143557
 21
1285.204044755731
 31
0.0
  0
LINE
  5
34C
330
19
100
AcDbEntity
  8
4
100
AcDbLine
 10
900.7284872143557
 20
1285.204044755731
 30
0.0
 11
907.6687081522416
 21
1278.263823817846
 31
0.0
  0
LINE
  5
34D
330
19
100
AcDbEntity
  8
4
100
AcDbLine
 10
905.1284109810988
 20
1268.783305708817
 30
0.0
 11
895.6478928720701
 21
1266.243008537674
 31
0.0
  0
LINE
  5
34E
330
19
100
AcDbEntity
  8
4
100
AcDbLine
 10
907.6687081522416
 20
1278.263823817846
 30
0.0
 11
905.1284109810988
 21
1268.783305708817
 31
0.0
  0
CIRCLE
  5
34F
330
19
100
AcDbEntity
  8
4
100
AcDbCircle
 10
898.1881900432128
 20
1275.723526646702
 30
0.0
 40
8.5
  0
LINE
  5
350
330
19
100
AcDbEntity
  8
4
100
AcDbLine
 10
895.6478928720701
 20
1266.243008537674
 30
0.0
 11
888.7076719341846
 21
1273.18322947556
 31
0.0
  0
LINE
  5
351
330
19
100
AcDbEntity
  8
L-CENTER
100
AcDbLine
 10
884.0460544194818
 20
1261.581391022972
 30
0.0
 11
912.330325666944
 21
1289.865662270433
 31
0.0
  0
LINE
  5
352
330
19
100
AcDbEntity
  8
4
100
AcDbLine
 10
1008.194849402019
 20
1116.317315660266
 30
0.0
 11
1003.996944130902
 21
1106.182675821176
 31
0.0
  0
LINE
  5
353
330
19
100
AcDbEntity
  8
4
100
AcDbLine
 10
1009.898171015656
 20
1084.690518057716
 30
0.0
 11
1030.155181454217
 21
1084.690518057716
 31
0.0
  0
CIRCLE
  5
354
330
19
100
AcDbEntity
  8
4
100
AcDbCircle
 10
997.3190412076033
 20
1344.495547767243
 30
0.0
 40
9.5
  0
LINE
  5
355
330
19
100
AcDbEntity
  8
4
100
AcDbLine
 10
1001.516946478721
 20
1334.360907928154
 30
0.0
 11
1008.194849402019
 21
1343.063720455167
 31
0.0
  0
LINE
  5
356
330
19
100
AcDbEntity
  8
4
100
AcDbLine
 10
1003.996944130902
 20
1353.198360294256
 30
0.0
 11
993.1211359364856
 21
1354.630187606333
 31
0.0
  0
LINE
  5
357
330
19
100
AcDbEntity
  8
4
100
AcDbLine
 10
1056.155181454217
 20
1497.690518057716
 30
0.0
 11
902.2320882820743
 21
1497.690518057716
 31
0.0
  0
LINE
  5
358
330
19
100
AcDbEntity
  8
L-CENTER
100
AcDbLine
 10
972.3742938297985
 20
1334.163095093385
 30
0.0
 11
1022.263788585408
 21
1354.8280004411
 31
0.0
  0
LINE
  5
359
330
19
100
AcDbEntity
  8
4
100
AcDbLine
 10
990.641138284305
 20
1335.79273524023
 30
0.0
 11
1001.516946478721
 21
1334.360907928154
 31
0.0
  0
LINE
  5
35A
330
19
100
AcDbEntity
  8
4
100
AcDbLine
 10
993.1211359364856
 20
1354.630187606333
 30
0.0
 11
986.4432330131876
 21
1345.927375079319
 31
0.0
  0
LINE
  5
35B
330
19
100
AcDbEntity
  8
4
100
AcDbLine
 10
986.4432330131876
 20
1345.927375079319
 30
0.0
 11
990.641138284305
 21
1335.79273524023
 31
0.0
  0
LINE
  5
35C
330
19
100
AcDbEntity
  8
4
100
AcDbLine
 10
845.0948510028334
 20
1502.656472539985
 30
0.0
 11
843.6630236907574
 21
1513.532280734401
 31
0.0
  0
LINE
  5
35D
330
19
100
AcDbEntity
  8
L-CENTER
 48
0.8
100
AcDbLine
 10
939.1551814542174
 20
1544.690518057716
 30
0.0
 11
1001.155181454217
 21
1544.690518057716
 31
0.0
  0
LINE
  5
35E
330
19
100
AcDbEntity
  8
4
100
AcDbLine
 10
1081.155181454217
 20
1397.690518057716
 30
0.0
 11
1081.155181454217
 21
1447.690518057716
 31
0.0
  0
LINE
  5
35F
330
19
100
AcDbEntity
  8
4
100
AcDbLine
 10
1069.155181454217
 20
1458.690518057716
 30
0.0
 11
1069.155181454217
 21
1386.690518057716
 31
0.0
  0
LINE
  5
360
330
19
100
AcDbEntity
  8
4
100
AcDbLine
 10
1068.155181454217
 20
1494.690518057716
 30
0.0
 11
1068.155181454217
 21
1350.690518057716
 31
0.0
  0
LINE
  5
361
330
19
100
AcDbEntity
  8
4
100
AcDbLine
 10
1056.155181454217
 20
1497.690518057716
 30
0.0
 11
1056.155181454217
 21
1347.690518057716
 31
0.0
  0
ARC
  5
362
330
19
100
AcDbEntity
  8
4
100
AcDbCircle
 10
1063.876016156758
 20
1371.425518057715
 30
0.0
 40
13.77916529745958
100
AcDbArc
 50
339.1359356360808
 51
20.86406436391924
  0
LINE
  5
363
330
19
100
AcDbEntity
  8
4
100
AcDbLine
 10
1077.655181454217
 20
1378.786733989883
 30
0.0
 11
1077.655181454217
 21
1364.064302125548
 31
0.0
  0
LINE
  5
364
330
19
100
AcDbEntity
  8
4
100
AcDbLine
 10
1070.655181454217
 20
1361.610563481492
 30
0.0
 11
1070.655181454217
 21
1381.24047263394
 31
0.0
  0
LINE
  5
365
330
19
100
AcDbEntity
  8
4
100
AcDbLine
 10
1068.155181454217
 20
1361.610563481492
 30
0.0
 11
1068.155181454217
 21
1381.24047263394
 31
0.0
  0
LINE
  5
366
330
19
100
AcDbEntity
  8
4
100
AcDbLine
 10
1056.155181454217
 20
1347.690518057716
 30
0.0
 11
1021.903420885701
 21
1347.690518057716
 31
0.0
  0
LINE
  5
367
330
19
100
AcDbEntity
  8
4
100
AcDbLine
 10
1008.194849402019
 20
1343.063720455167
 30
0.0
 11
1003.996944130902
 21
1353.198360294256
 31
0.0
  0
LINE
  5
368
330
19
100
AcDbEntity
  8
4
100
AcDbLine
 10
1076.751654508364
 20
1366.518040769603
 30
0.0
 11
1070.655181454217
 21
1366.518040769603
 31
0.0
  0
LINE
  5
369
330
19
100
AcDbEntity
  8
4
100
AcDbLine
 10
1076.751654508364
 20
1361.610563481492
 30
0.0
 11
1068.155181454217
 21
1361.610563481492
 31
0.0
  0
ARC
  5
36A
330
19
100
AcDbEntity
  8
4
100
AcDbCircle
 10
1073.871567525158
 20
1364.064302125548
 30
0.0
 40
3.783613929059507
100
AcDbArc
 50
319.5701031551686
 51
40.42989684483145
  0
LINE
  5
36B
330
19
100
AcDbEntity
  8
4
 48
0.8
100
AcDbLine
 10
1068.155181454217
 20
1350.690518057716
 30
0.0
 11
1056.155181454217
 21
1350.690518057716
 31
0.0
  0
LINE
  5
36C
330
19
100
AcDbEntity
  8
L-CENTER
100
AcDbLine
 10
1040.06410475644
 20
1371.425518057715
 30
0.0
 11
1080.523159708798
 21
1371.425518057715
 31
0.0
  0
LINE
  5
36D
330
19
100
AcDbEntity
  8
4
100
AcDbLine
 10
1081.155181454217
 20
1397.690518057716
 30
0.0
 11
1069.155181454217
 21
1397.690518057716
 31
0.0
  0
ARC
  5
36E
330
19
100
AcDbEntity
  8
4
100
AcDbCircle
 10
1083.155181454217
 20
1397.690518057716
 30
0.0
 40
2.0
100
AcDbArc
 50
90.0
 51
180.0
  0
LINE
  5
36F
330
19
100
AcDbEntity
  8
4
100
AcDbLine
 10
1076.751654508364
 20
1376.332995345827
 30
0.0
 11
1070.655181454217
 21
1376.332995345827
 31
0.0
  0
ARC
  5
370
330
19
100
AcDbEntity
  8
4
100
AcDbCircle
 10
1073.871567525158
 20
1378.786733989883
 30
0.0
 40
3.783613929059507
100
AcDbArc
 50
319.5701031551686
 51
40.42989684483145
  0
LINE
  5
371
330
19
100
AcDbEntity
  8
4
100
AcDbLine
 10
1068.155181454217
 20
1381.24047263394
 30
0.0
 11
1076.751654508364
 21
1381.24047263394
 31
0.0
  0
LINE
  5
372
330
19
100
AcDbEntity
  8
4
 48
0.8
100
AcDbLine
 10
1069.155181454217
 20
1386.690518057716
 30
0.0
 11
1068.155181454217
 21
1386.690518057716
 31
0.0
  0
ARC
  5
373
330
19
100
AcDbEntity
  8
4
100
AcDbCircle
 10
1097.155181454217
 20
1422.690518057716
 30
0.0
 40
6.0
100
AcDbArc
 50
90.0
 51
270.0
  0
LINE
  5
374
330
19
100
AcDbEntity
  8
L-CENTER
100
AcDbLine
 10
1040.06410475644
 20
1473.955518057716
 30
0.0
 11
1080.523159708798
 21
1473.955518057716
 31
0.0
  0
LINE
  5
375
330
19
100
AcDbEntity
  8
4
100
AcDbLine
 10
1081.155181454217
 20
1447.690518057716
 30
0.0
 11
1069.155181454217
 21
1447.690518057716
 31
0.0
  0
ARC
  5
376
330
19
100
AcDbEntity
  8
4
100
AcDbCircle
 10
1083.155181454217
 20
1447.690518057716
 30
0.0
 40
2.0
100
AcDbArc
 50
180.0
 51
270.0
  0
LINE
  5
377
330
19
100
AcDbEntity
  8
4
100
AcDbLine
 10
1076.751654508364
 20
1478.862995345827
 30
0.0
 11
1070.655181454217
 21
1478.862995345827
 31
0.0
  0
ARC
  5
378
330
19
100
AcDbEntity
  8
4
100
AcDbCircle
 10
1073.871567525158
 20
1481.316733989883
 30
0.0
 40
3.783613929059507
100
AcDbArc
 50
319.5701031551686
 51
40.42989684483145
  0
LINE
  5
379
330
19
100
AcDbEntity
  8
4
100
AcDbLine
 10
1068.155181454217
 20
1483.770472633938
 30
0.0
 11
1076.751654508364
 21
1483.770472633938
 31
0.0
  0
LINE
  5
37A
330
19
100
AcDbEntity
  8
4
100
AcDbLine
 10
1076.751654508364
 20
1469.048040769604
 30
0.0
 11
1070.655181454217
 21
1469.048040769604
 31
0.0
  0
LINE
  5
37B
330
19
100
AcDbEntity
  8
4
100
AcDbLine
 10
1076.751654508364
 20
1464.140563481491
 30
0.0
 11
1068.155181454217
 21
1464.140563481491
 31
0.0
  0
ARC
  5
37C
330
19
100
AcDbEntity
  8
4
100
AcDbCircle
 10
1073.871567525158
 20
1466.594302125548
 30
0.0
 40
3.783613929059507
100
AcDbArc
 50
319.5701031551686
 51
40.42989684483145
  0
LINE
  5
37D
330
19
100
AcDbEntity
  8
4
 48
0.8
100
AcDbLine
 10
1069.155181454217
 20
1458.690518057716
 30
0.0
 11
1068.155181454217
 21
1458.690518057716
 31
0.0
  0
ARC
  5
37E
330
19
100
AcDbEntity
  8
4
100
AcDbCircle
 10
1063.876016156758
 20
1473.955518057716
 30
0.0
 40
13.77916529745958
100
AcDbArc
 50
339.1359356360808
 51
20.86406436391924
  0
LINE
  5
37F
330
19
100
AcDbEntity
  8
4
100
AcDbLine
 10
1077.655181454217
 20
1481.316733989883
 30
0.0
 11
1077.655181454217
 21
1466.594302125548
 31
0.0
  0
LINE
  5
380
330
19
100
AcDbEntity
  8
4
100
AcDbLine
 10
1070.655181454217
 20
1464.140563481491
 30
0.0
 11
1070.655181454217
 21
1483.770472633938
 31
0.0
  0
LINE
  5
381
330
19
100
AcDbEntity
  8
4
100
AcDbLine
 10
1068.155181454217
 20
1464.140563481491
 30
0.0
 11
1068.155181454217
 21
1483.770472633938
 31
0.0
  0
LINE
  5
382
330
19
100
AcDbEntity
  8
4
 48
0.8
100
AcDbLine
 10
1068.155181454217
 20
1494.690518057715
 30
0.0
 11
1056.155181454217
 21
1494.690518057716
 31
0.0
  0
LINE
  5
383
330
19
100
AcDbEntity
  8
4
100
AcDbLine
 10
1181.155181454217
 20
1444.690518057716
 30
0.0
 11
1181.155181454217
 21
1400.690518057716
 31
0.0
  0
LINE
  5
384
330
19
100
AcDbEntity
  8
4
100
AcDbLine
 10
1180.155181454217
 20
1445.690518057716
 30
0.0
 11
1180.155181454217
 21
1428.690518057716
 31
0.0
  0
LINE
  5
385
330
19
100
AcDbEntity
  8
4
100
AcDbLine
 10
1180.155181454217
 20
1416.690518057716
 30
0.0
 11
1180.155181454217
 21
1399.690518057716
 31
0.0
  0
LINE
  5
386
330
19
100
AcDbEntity
  8
4
100
AcDbLine
 10
1181.155181454217
 20
1400.690518057716
 30
0.0
 11
1180.155181454217
 21
1399.690518057716
 31
0.0
  0
LINE
  5
387
330
19
100
AcDbEntity
  8
4
100
AcDbLine
 10
1180.155181454217
 20
1445.690518057716
 30
0.0
 11
1181.155181454217
 21
1444.690518057716
 31
0.0
  0
LINE
  5
388
330
19
100
AcDbEntity
  8
4
100
AcDbLine
 10
870.1551814542174
 20
1584.690518057716
 30
0.0
 11
1030.155181454218
 21
1584.690518057716
 31
0.0
  0
ARC
  5
389
330
19
100
AcDbEntity
  8
4
100
AcDbCircle
 10
1806.524980859805
 20
54.24536763909964
 30
0.0
 40
3.783613929059507
100
AcDbArc
 50
229.5701031551782
 51
275.1379039985028
  0
LINE
  5
38A
330
19
100
AcDbEntity
  8
4
100
AcDbLine
 10
1806.524980859805
 20
50.46175371004028
 30
0.0
 11
1821.24741272414
 21
50.46175371004119
 31
0.0
  0
LINE
  5
38B
330
19
100
AcDbEntity
  8
4
100
AcDbLine
 10
1823.701151368196
 20
59.96175371004119
 30
0.0
 11
1804.071242215749
 21
59.96175371004028
 31
0.0
  0
LINE
  5
38C
330
19
100
AcDbEntity
  8
4
100
AcDbLine
 10
1804.071242215749
 20
59.96175371004028
 30
0.0
 11
1804.071242215749
 21
51.36528065589209
 31
0.0
  0
ARC
  5
38D
330
19
100
AcDbEntity
  8
4
100
AcDbCircle
 10
1807.202650389472
 20
54.24536763909964
 30
0.0
 40
3.783613929059507
100
AcDbArc
 50
229.5701031551782
 51
310.4298968448314
  0
LINE
  5
38E
330
19
100
AcDbEntity
  8
4
100
AcDbLine
 10
1804.748911745416
 20
59.96175371004028
 30
0.0
 11
1804.748911745417
 21
51.36528065589209
 31
0.0
  0
LINE
  5
38F
330
19
100
AcDbEntity
  8
4
100
AcDbLine
 10
1809.656389033528
 20
51.36528065589209
 30
0.0
 11
1809.656389033527
 21
57.46175371004028
 31
0.0
  0
LINE
  5
390
330
19
100
AcDbEntity
  8
4
100
AcDbLine
 10
1819.471343609751
 20
51.365280655893
 30
0.0
 11
1819.471343609751
 21
57.46175371004119
 31
0.0
  0
LINE
  5
391
330
19
100
AcDbEntity
  8
4
100
AcDbLine
 10
1824.378820897864
 20
51.365280655893
 30
0.0
 11
1824.378820897863
 21
59.96175371004119
 31
0.0
  0
ARC
  5
392
330
19
100
AcDbEntity
  8
4
100
AcDbCircle
 10
1821.925082253807
 20
54.24536763910055
 30
0.0
 40
3.783613929059507
100
AcDbArc
 50
229.5701031551782
 51
310.4298968448314
  0
LINE
  5
393
330
19
100
AcDbEntity
  8
4
100
AcDbLine
 10
1824.378820897863
 20
57.46175371004119
 30
0.0
 11
1804.071242215749
 21
57.46175371004028
 31
0.0
  0
LINE
  5
394
330
19
100
AcDbEntity
  8
4
100
AcDbLine
 10
1824.378820897863
 20
59.96175371004119
 30
0.0
 11
1804.748911745416
 21
59.96175371004028
 31
0.0
  0
LINE
  5
395
330
19
100
AcDbEntity
  8
4
100
AcDbLine
 10
1807.202650389472
 20
50.46175371004028
 30
0.0
 11
1821.925082253807
 21
50.46175371004119
 31
0.0
  0
ARC
  5
396
330
19
100
AcDbEntity
  8
4
100
AcDbCircle
 10
1814.563866321639
 20
64.2409190075
 30
0.0
 40
13.77916529745958
100
AcDbArc
 50
249.1359356360836
 51
290.8640643639235
  0
LINE
  5
397
330
19
100
AcDbEntity
  8
L-CENTER
100
AcDbLine
 10
1813.886196791971
 20
88.39770912765289
 30
0.0
 11
1813.886196791973
 21
47.59377545546113
 31
0.0
  0
LINE
  5
398
330
19
100
AcDbEntity
  8
L-CENTER
100
AcDbLine
 10
1814.563866321638
 20
88.39770912765289
 30
0.0
 11
1814.56386632164
 21
47.59377545546113
 31
0.0
  0
ARC
  5
399
330
19
100
AcDbEntity
  8
4
100
AcDbCircle
 10
1920.629883499613
 20
64.2409190075
 30
0.0
 40
13.77916529745958
100
AcDbArc
 50
249.1359356360765
 51
290.8640643639164
  0
LINE
  5
39A
330
19
100
AcDbEntity
  8
4
100
AcDbLine
 10
1927.991099431781
 20
50.46175371004028
 30
0.0
 11
1913.268667567445
 21
50.46175371004119
 31
0.0
  0
LINE
  5
39B
330
19
100
AcDbEntity
  8
4
100
AcDbLine
 10
1910.81492892339
 20
59.96175371004119
 30
0.0
 11
1930.444838075837
 21
59.96175371004028
 31
0.0
  0
LINE
  5
39C
330
19
100
AcDbEntity
  8
4
100
AcDbLine
 10
1910.81492892339
 20
57.46175371004119
 30
0.0
 11
1930.444838075837
 21
57.46175371004028
 31
0.0
  0
ARC
  5
39D
330
19
100
AcDbEntity
  8
4
100
AcDbCircle
 10
1913.268667567445
 20
54.24536763910055
 30
0.0
 40
3.783613929059507
100
AcDbArc
 50
229.5701031551686
 51
310.4298968448218
  0
LINE
  5
39E
330
19
100
AcDbEntity
  8
4
100
AcDbLine
 10
1910.814928923389
 20
51.365280655893
 30
0.0
 11
1910.81492892339
 21
59.96175371004119
 31
0.0
  0
LINE
  5
39F
330
19
100
AcDbEntity
  8
4
100
AcDbLine
 10
1915.722406211501
 20
51.365280655893
 30
0.0
 11
1915.722406211502
 21
57.46175371004119
 31
0.0
  0
LINE
  5
3A0
330
19
100
AcDbEntity
  8
4
100
AcDbLine
 10
1925.537360787725
 20
51.36528065589209
 30
0.0
 11
1925.537360787725
 21
57.46175371004028
 31
0.0
  0
LINE
  5
3A1
330
19
100
AcDbEntity
  8
4
100
AcDbLine
 10
1930.444838075837
 20
59.96175371004028
 30
0.0
 11
1930.444838075836
 21
51.36528065589209
 31
0.0
  0
ARC
  5
3A2
330
19
100
AcDbEntity
  8
4
100
AcDbCircle
 10
1927.991099431781
 20
54.24536763909964
 30
0.0
 40
3.783613929059507
100
AcDbArc
 50
229.5701031551686
 51
310.4298968448218
  0
LINE
  5
3A3
330
19
100
AcDbEntity
  8
L-CENTER
100
AcDbLine
 10
1920.629883499615
 20
88.39770912765289
 30
0.0
 11
1920.629883499613
 21
47.59377545546113
 31
0.0
  0
LINE
  5
3A4
330
19
100
AcDbEntity
  8
4
100
AcDbLine
 10
1945.492598453057
 20
57.46175371004119
 30
0.0
 11
1965.122507605504
 21
57.46175371004028
 31
0.0
  0
LINE
  5
3A5
330
19
100
AcDbEntity
  8
4
100
AcDbLine
 10
1945.492598453057
 20
59.96175371004119
 30
0.0
 11
1965.122507605504
 21
59.96175371004028
 31
0.0
  0
LINE
  5
3A6
330
19
100
AcDbEntity
  8
4
100
AcDbLine
 10
1962.668768961448
 20
50.46175371004028
 30
0.0
 11
1947.946337097113
 21
50.46175371004119
 31
0.0
  0
ARC
  5
3A7
330
19
100
AcDbEntity
  8
4
100
AcDbCircle
 10
1955.307553029281
 20
64.2409190075
 30
0.0
 40
13.77916529745958
100
AcDbArc
 50
249.1359356360765
 51
290.8640643639164
  0
LINE
  5
3A8
330
19
100
AcDbEntity
  8
4
100
AcDbLine
 10
1950.400075741169
 20
51.365280655893
 30
0.0
 11
1950.400075741169
 21
57.46175371004119
 31
0.0
  0
LINE
  5
3A9
330
19
100
AcDbEntity
  8
4
100
AcDbLine
 10
1945.492598453056
 20
51.365280655893
 30
0.0
 11
1945.492598453057
 21
59.96175371004119
 31
0.0
  0
ARC
  5
3AA
330
19
100
AcDbEntity
  8
4
100
AcDbCircle
 10
1947.946337097113
 20
54.24536763910055
 30
0.0
 40
3.783613929059507
100
AcDbArc
 50
229.5701031551686
 51
310.4298968448218
  0
ARC
  5
3AB
330
19
100
AcDbEntity
  8
4
100
AcDbCircle
 10
1962.668768961448
 20
54.24536763909964
 30
0.0
 40
3.783613929059507
100
AcDbArc
 50
229.5701031551686
 51
310.4298968448218
  0
LINE
  5
3AC
330
19
100
AcDbEntity
  8
4
100
AcDbLine
 10
1965.122507605504
 20
59.96175371004028
 30
0.0
 11
1965.122507605503
 21
51.36528065589209
 31
0.0
  0
LINE
  5
3AD
330
19
100
AcDbEntity
  8
4
100
AcDbLine
 10
1960.215030317392
 20
51.36528065589209
 30
0.0
 11
1960.215030317393
 21
57.46175371004028
 31
0.0
  0
LINE
  5
3AE
330
19
100
AcDbEntity
  8
L-CENTER
100
AcDbLine
 10
1955.307553029282
 20
88.39770912765289
 30
0.0
 11
1955.30755302928
 21
47.59377545546113
 31
0.0
  0
LINE
  5
3AF
330
19
100
AcDbEntity
  8
4
 48
0.8
100
AcDbLine
 10
1777.596874910626
 20
74.96175371004483
 30
0.0
 11
1777.596874910626
 21
59.96175371004483
 31
0.0
  0
LINE
  5
3B0
330
19
100
AcDbEntity
  8
4
 48
0.8
100
AcDbLine
 10
1957.596874910626
 20
74.96175371004483
 30
0.0
 11
1957.596874910626
 21
59.96175371004483
 31
0.0
  0
LINE
  5
3B1
330
19
100
AcDbEntity
  8
4
 48
0.8
100
AcDbLine
 10
1777.596874910627
 20
378.9617537100448
 30
0.0
 11
1777.596874910626
 21
363.9617537100448
 31
0.0
  0
LINE
  5
3B2
330
19
100
AcDbEntity
  8
4
 48
0.8
100
AcDbLine
 10
1957.596874910627
 20
378.9617537100448
 30
0.0
 11
1957.596874910626
 21
363.9617537100448
 31
0.0
  0
TEXT
  5
3BE
330
19
100
AcDbEntity
  8
3
100
AcDbText
 10
1272.968685856296
 20
29.18280622481586
 30
0.0
 40
18.0
  1
LDC8-04
  7
KANJI
 72
     1
 11
1331.468685856296
 21
29.18280622481586
 31
0.0
100
AcDbText
  0
LINE
  5
504
330
19
100
AcDbEntity
  8
4
100
AcDbLine
 10
1777.096874910626
 20
374.4617537100453
 30
0.0
 11
1732.096874910626
 21
374.4617537100453
 31
0.0
  0
LINE
  5
505
330
19
100
AcDbEntity
  8
4
100
AcDbLine
 10
1777.596874910626
 20
373.9617537100453
 30
0.0
 11
1777.596874910626
 21
365.4617537100453
 31
0.0
  0
LINE
  5
506
330
19
100
AcDbEntity
  8
4
100
AcDbLine
 10
1731.596874910626
 20
373.9617537100453
 30
0.0
 11
1731.596874910626
 21
365.4617537100453
 31
0.0
  0
ARC
  5
507
330
19
100
AcDbEntity
  8
4
100
AcDbCircle
 10
1777.096874910626
 20
373.9617537100453
 30
0.0
 40
0.5
100
AcDbArc
 50
0.0
 51
90.0
  0
ARC
  5
508
330
19
100
AcDbEntity
  8
4
100
AcDbCircle
 10
1732.096874910626
 20
373.9617537100453
 30
0.0
 40
0.5
100
AcDbArc
 50
90.0
 51
180.0
  0
LINE
  5
509
330
19
100
AcDbEntity
  8
4
100
AcDbLine
 10
1777.596874910626
 20
369.4617537100453
 30
0.0
 11
1731.596874910626
 21
369.4617537100453
 31
0.0
  0
LINE
  5
50A
330
19
100
AcDbEntity
  8
4
100
AcDbLine
 10
1777.596874910626
 20
365.4617537100453
 30
0.0
 11
1731.596874910626
 21
365.4617537100453
 31
0.0
  0
LINE
  5
50B
330
19
100
AcDbEntity
  8
4
100
AcDbLine
 10
1766.288217861716
 20
374.4617537100453
 30
0.0
 11
1766.288217861716
 21
369.4617537100453
 31
0.0
  0
LINE
  5
50C
330
19
100
AcDbEntity
  8
4
100
AcDbLine
 10
1777.096874910626
 20
363.9617537100453
 30
0.0
 11
1732.096874910626
 21
363.9617537100448
 31
0.0
  0
LINE
  5
50D
330
19
100
AcDbEntity
  8
4
100
AcDbLine
 10
1777.096874910626
 20
365.4617537100453
 30
0.0
 11
1777.096874910626
 21
363.9617537100453
 31
0.0
  0
LINE
  5
50E
330
19
100
AcDbEntity
  8
4
100
AcDbLine
 10
1732.096874910626
 20
365.4617537100453
 30
0.0
 11
1732.096874910626
 21
363.9617537100453
 31
0.0
  0
LINE
  5
50F
330
19
100
AcDbEntity
  8
4
100
AcDbLine
 10
1742.905531959536
 20
374.4617537100453
 30
0.0
 11
1742.905531959537
 21
369.4617537100453
 31
0.0
  0
LINE
  5
510
330
19
100
AcDbEntity
  8
4
100
AcDbLine
 10
743.1551814542172
 20
369.4617537100448
 30
0.0
 11
743.1551814542172
 21
365.4617537100448
 31
0.0
  0
LINE
  5
511
330
19
100
AcDbEntity
  8
4
100
AcDbLine
 10
697.1551814542172
 20
369.4617537100448
 30
0.0
 11
697.1551814542172
 21
365.4617537100448
 31
0.0
  0
LINE
  5
512
330
19
100
AcDbEntity
  8
4
100
AcDbLine
 10
743.1551814542172
 20
369.4617537100448
 30
0.0
 11
742.6550393793395
 21
369.4617537100448
 31
0.0
  0
LINE
  5
513
330
19
100
AcDbEntity
  8
4
100
AcDbLine
 10
697.6550393793395
 20
369.4617537100448
 30
0.0
 11
697.1551814542172
 21
369.4617537100448
 31
0.0
  0
LINE
  5
514
330
19
100
AcDbEntity
  8
4
100
AcDbLine
 10
743.1551814542172
 20
365.4617537100448
 30
0.0
 11
742.6550393793395
 21
365.4617537100448
 31
0.0
  0
LINE
  5
515
330
19
100
AcDbEntity
  8
4
100
AcDbLine
 10
697.6550393793395
 20
365.4617537100448
 30
0.0
 11
697.1551814542172
 21
365.4617537100448
 31
0.0
  0
LINE
  5
516
330
19
100
AcDbEntity
  8
4
100
AcDbLine
 10
742.6551814542172
 20
363.9617537100451
 30
0.0
 11
697.6551814542172
 21
363.9617537100446
 31
0.0
  0
LINE
  5
517
330
19
100
AcDbEntity
  8
4
100
AcDbLine
 10
742.6551814542172
 20
365.4617537100448
 30
0.0
 11
742.6551814542172
 21
363.9617537100448
 31
0.0
  0
LINE
  5
518
330
19
100
AcDbEntity
  8
4
100
AcDbLine
 10
697.6551814542172
 20
365.4617537100448
 30
0.0
 11
697.6551814542172
 21
363.9617537100448
 31
0.0
  0
ARC
  5
531
330
19
100
AcDbEntity
  8
4
100
AcDbCircle
 10
720.1553235290945
 20
379.9906105387358
 30
0.0
 40
10.0
100
AcDbArc
 50
180.0
 51
0.0
  0
ARC
  5
532
330
19
100
AcDbEntity
  8
4
100
AcDbCircle
 10
2016.331633274601
 20
226.2269953460705
 30
0.0
 40
9.2
100
AcDbArc
 50
217.5050178288687
 51
262.4949821711367
  0
ARC
  5
533
330
19
100
AcDbEntity
  8
4
100
AcDbCircle
 10
2016.331633274601
 20
226.2269953460705
 30
0.0
 40
9.2
100
AcDbArc
 50
277.5050178288705
 51
322.4949821711234
  0
ARC
  5
534
330
19
100
AcDbEntity
  8
4
100
AcDbCircle
 10
2016.331633274601
 20
226.2269953460705
 30
0.0
 40
9.2
100
AcDbArc
 50
337.505017828882
 51
22.49498217111796
  0
ARC
  5
535
330
19
100
AcDbEntity
  8
4
100
AcDbCircle
 10
2016.331633274601
 20
226.2269953460705
 30
0.0
 40
9.2
100
AcDbArc
 50
37.50501782887776
 51
82.4949821711181
  0
ARC
  5
536
330
19
100
AcDbEntity
  8
4
100
AcDbCircle
 10
2016.331633274601
 20
226.2269953460705
 30
0.0
 40
9.2
100
AcDbArc
 50
97.5050178288747
 51
142.4949821711294
  0
ARC
  5
537
330
19
100
AcDbEntity
  8
4
100
AcDbCircle
 10
2016.331633274601
 20
226.2269953460705
 30
0.0
 40
9.2
100
AcDbArc
 50
157.5050178288668
 51
202.4949821711332
  0
LINE
  5
538
330
19
100
AcDbEntity
  8
4
100
AcDbLine
 10
2127.362116546651
 20
221.3195180579587
 30
0.0
 11
2127.362116546651
 21
231.1344726341822
 31
0.0
  0
LINE
  5
539
330
19
100
AcDbEntity
  8
4
100
AcDbLine
 10
2118.862116546651
 20
236.0419499222944
 30
0.0
 11
2110.362116546651
 21
231.1344726341822
 31
0.0
  0
LINE
  5
53A
330
19
100
AcDbEntity
  8
4
100
AcDbLine
 10
2110.362116546651
 20
231.1344726341822
 30
0.0
 11
2110.362116546651
 21
221.3195180579587
 31
0.0
  0
LINE
  5
53B
330
19
100
AcDbEntity
  8
4
100
AcDbLine
 10
2110.362116546651
 20
221.3195180579587
 30
0.0
 11
2118.862116546651
 21
216.4120407698474
 31
0.0
  0
LINE
  5
53C
330
19
100
AcDbEntity
  8
4
100
AcDbLine
 10
2127.362116546651
 20
231.1344726341822
 30
0.0
 11
2118.862116546651
 21
236.0419499222944
 31
0.0
  0
LINE
  5
53D
330
19
100
AcDbEntity
  8
4
100
AcDbLine
 10
2118.862116546651
 20
216.4120407698474
 30
0.0
 11
2127.362116546651
 21
221.3195180579587
 31
0.0
  0
ARC
  5
53E
330
19
100
AcDbEntity
  8
4
100
AcDbCircle
 10
2118.86211654665
 20
226.2269953460705
 30
0.0
 40
9.2
100
AcDbArc
 50
217.5050178288667
 51
262.4949821711367
  0
ARC
  5
53F
330
19
100
AcDbEntity
  8
4
100
AcDbCircle
 10
2118.86211654665
 20
226.2269953460705
 30
0.0
 40
9.2
100
AcDbArc
 50
277.5050178288691
 51
322.4949821711242
  0
ARC
  5
540
330
19
100
AcDbEntity
  8
4
100
AcDbCircle
 10
2118.86211654665
 20
226.2269953460705
 30
0.0
 40
9.2
100
AcDbArc
 50
337.505017828882
 51
22.49498217111796
  0
ARC
  5
541
330
19
100
AcDbEntity
  8
4
100
AcDbCircle
 10
2118.86211654665
 20
226.2269953460705
 30
0.0
 40
9.2
100
AcDbArc
 50
37.50501782887576
 51
82.4949821711195
  0
ARC
  5
542
330
19
100
AcDbEntity
  8
4
100
AcDbCircle
 10
2118.86211654665
 20
226.2269953460705
 30
0.0
 40
9.2
100
AcDbArc
 50
97.5050178288747
 51
142.4949821711294
  0
ARC
  5
543
330
19
100
AcDbEntity
  8
4
100
AcDbCircle
 10
2118.86211654665
 20
226.2269953460705
 30
0.0
 40
9.2
100
AcDbArc
 50
157.5050178288668
 51
202.4949821711332
  0
LINE
  5
544
330
19
100
AcDbEntity
  8
4
100
AcDbLine
 10
2127.36211654665
 20
118.7890347859092
 30
0.0
 11
2127.36211654665
 21
128.6039893621327
 31
0.0
  0
LINE
  5
545
330
19
100
AcDbEntity
  8
4
100
AcDbLine
 10
2118.86211654665
 20
133.5114666502449
 30
0.0
 11
2110.36211654665
 21
128.6039893621327
 31
0.0
  0
LINE
  5
546
330
19
100
AcDbEntity
  8
4
100
AcDbLine
 10
2110.36211654665
 20
128.6039893621327
 30
0.0
 11
2110.36211654665
 21
118.7890347859092
 31
0.0
  0
LINE
  5
547
330
19
100
AcDbEntity
  8
4
100
AcDbLine
 10
2110.36211654665
 20
118.7890347859092
 30
0.0
 11
2118.86211654665
 21
113.8815574977979
 31
0.0
  0
LINE
  5
548
330
19
100
AcDbEntity
  8
4
100
AcDbLine
 10
2127.36211654665
 20
128.6039893621327
 30
0.0
 11
2118.86211654665
 21
133.5114666502449
 31
0.0
  0
LINE
  5
549
330
19
100
AcDbEntity
  8
4
100
AcDbLine
 10
2118.86211654665
 20
113.8815574977979
 30
0.0
 11
2127.36211654665
 21
118.7890347859092
 31
0.0
  0
ARC
  5
54A
330
19
100
AcDbEntity
  8
4
100
AcDbCircle
 10
2118.86211654665
 20
123.6965120740209
 30
0.0
 40
9.2
100
AcDbArc
 50
217.5050178288667
 51
262.4949821711367
  0
ARC
  5
54B
330
19
100
AcDbEntity
  8
4
100
AcDbCircle
 10
2118.86211654665
 20
123.6965120740209
 30
0.0
 40
9.2
100
AcDbArc
 50
277.505017828869
 51
322.4949821711219
  0
ARC
  5
54C
330
19
100
AcDbEntity
  8
4
100
AcDbCircle
 10
2118.86211654665
 20
123.6965120740209
 30
0.0
 40
9.2
100
AcDbArc
 50
337.5050178288814
 51
22.49498217111862
  0
ARC
  5
54D
330
19
100
AcDbEntity
  8
4
100
AcDbCircle
 10
2118.86211654665
 20
123.6965120740209
 30
0.0
 40
9.2
100
AcDbArc
 50
37.50501782887918
 51
82.49498217111959
  0
ARC
  5
54E
330
19
100
AcDbEntity
  8
4
100
AcDbCircle
 10
2118.86211654665
 20
123.6965120740209
 30
0.0
 40
9.2
100
AcDbArc
 50
97.5050178288747
 51
142.4949821711305
  0
ARC
  5
54F
330
19
100
AcDbEntity
  8
4
100
AcDbCircle
 10
2118.86211654665
 20
123.6965120740209
 30
0.0
 40
9.2
100
AcDbArc
 50
157.5050178288675
 51
202.4949821711319
  0
LINE
  5
550
330
19
100
AcDbEntity
  8
4
100
AcDbLine
 10
2024.831633274601
 20
118.7890347859093
 30
0.0
 11
2024.831633274601
 21
128.6039893621328
 31
0.0
  0
LINE
  5
551
330
19
100
AcDbEntity
  8
4
100
AcDbLine
 10
2016.331633274601
 20
133.511466650245
 30
0.0
 11
2007.831633274601
 21
128.6039893621328
 31
0.0
  0
LINE
  5
552
330
19
100
AcDbEntity
  8
4
100
AcDbLine
 10
2007.831633274601
 20
128.6039893621328
 30
0.0
 11
2007.831633274601
 21
118.7890347859093
 31
0.0
  0
LINE
  5
553
330
19
100
AcDbEntity
  8
4
100
AcDbLine
 10
2007.831633274601
 20
118.7890347859093
 30
0.0
 11
2016.331633274601
 21
113.881557497798
 31
0.0
  0
LINE
  5
554
330
19
100
AcDbEntity
  8
4
100
AcDbLine
 10
2024.831633274601
 20
128.6039893621328
 30
0.0
 11
2016.331633274601
 21
133.511466650245
 31
0.0
  0
LINE
  5
555
330
19
100
AcDbEntity
  8
4
100
AcDbLine
 10
2016.331633274601
 20
113.881557497798
 30
0.0
 11
2024.831633274601
 21
118.7890347859093
 31
0.0
  0
ARC
  5
556
330
19
100
AcDbEntity
  8
4
100
AcDbCircle
 10
2016.331633274601
 20
123.696512074021
 30
0.0
 40
9.2
100
AcDbArc
 50
217.5050178288681
 51
262.4949821711367
  0
ARC
  5
557
330
19
100
AcDbEntity
  8
4
100
AcDbCircle
 10
2016.331633274601
 20
123.696512074021
 30
0.0
 40
9.2
100
AcDbArc
 50
277.5050178288704
 51
322.4949821711234
  0
ARC
  5
558
330
19
100
AcDbEntity
  8
4
100
AcDbCircle
 10
2016.331633274601
 20
123.696512074021
 30
0.0
 40
9.2
100
AcDbArc
 50
337.505017828882
 51
22.49498217111796
  0
ARC
  5
559
330
19
100
AcDbEntity
  8
4
100
AcDbCircle
 10
2016.331633274601
 20
123.696512074021
 30
0.0
 40
9.2
100
AcDbArc
 50
37.50501782887776
 51
82.4949821711181
  0
ARC
  5
55A
330
19
100
AcDbEntity
  8
4
100
AcDbCircle
 10
2016.331633274601
 20
123.696512074021
 30
0.0
 40
9.2
100
AcDbArc
 50
97.5050178288747
 51
142.4949821711294
  0
ARC
  5
55B
330
19
100
AcDbEntity
  8
4
100
AcDbCircle
 10
2016.331633274601
 20
123.696512074021
 30
0.0
 40
9.2
100
AcDbArc
 50
157.5050178288668
 51
202.4949821711332
  0
LINE
  5
642
330
19
100
AcDbEntity
  8
4
100
AcDbLine
 10
348.9051814542183
 20
201.4617537100452
 30
0.0
 11
258.9051814542174
 21
201.4617537100451
 31
0.0
  0
LINE
  5
643
330
19
100
AcDbEntity
  8
4
100
AcDbLine
 10
356.9051814542183
 20
197.9617537100452
 30
0.0
 11
259.9051814542174
 21
197.9617537100451
 31
0.0
  0
LINE
  5
644
330
19
100
AcDbEntity
  8
4
100
AcDbLine
 10
356.9051814542183
 20
151.9617537100452
 30
0.0
 11
259.9051814542174
 21
151.9617537100451
 31
0.0
  0
LINE
  5
645
330
19
100
AcDbEntity
  8
4
100
AcDbLine
 10
358.9051814542183
 20
199.9617537100452
 30
0.0
 11
358.9051814542183
 21
149.9617537100452
 31
0.0
  0
LINE
  5
646
330
19
100
AcDbEntity
  8
4
100
AcDbLine
 10
371.1551814542174
 20
210.9617537100461
 30
0.0
 11
371.1551814542174
 21
138.9617537100452
 31
0.0
  0
ARC
  5
647
330
19
100
AcDbEntity
  8
4
100
AcDbCircle
 10
356.9051814542183
 20
149.9617537100452
 30
0.0
 40
2.0
100
AcDbArc
 50
0.0
 51
90.0
  0
LINE
  5
648
330
19
100
AcDbEntity
  8
4
100
AcDbLine
 10
358.9051814542183
 20
149.9617537100452
 30
0.0
 11
371.1551814542174
 21
149.9617537100452
 31
0.0
  0
LINE
  5
649
330
19
100
AcDbEntity
  8
4
 48
0.8
100
AcDbLine
 10
371.1551814542174
 20
138.9617537100452
 30
0.0
 11
372.1551814542174
 21
138.9617537100461
 31
0.0
  0
ARC
  5
64A
330
19
100
AcDbEntity
  8
4
100
AcDbCircle
 10
356.9051814542183
 20
199.9617537100452
 30
0.0
 40
2.0
100
AcDbArc
 50
270.0
 51
0.0
  0
LINE
  5
64B
330
19
100
AcDbEntity
  8
4
100
AcDbLine
 10
358.9051814542183
 20
199.9617537100452
 30
0.0
 11
371.1551814542174
 21
199.9617537100452
 31
0.0
  0
LINE
  5
64C
330
19
100
AcDbEntity
  8
4
 48
0.8
100
AcDbLine
 10
371.1551814542174
 20
210.9617537100452
 30
0.0
 11
372.1551814542174
 21
210.9617537100452
 31
0.0
  0
LINE
  5
64D
330
19
100
AcDbEntity
  8
4
100
AcDbLine
 10
348.9051814542183
 20
197.9617537100461
 30
0.0
 11
348.9051814542183
 21
201.4617537100452
 31
0.0
  0
LINE
  5
64E
330
19
100
AcDbEntity
  8
4
100
AcDbLine
 10
258.9051814542174
 20
196.9617537100451
 30
0.0
 11
258.9051814542174
 21
152.9617537100451
 31
0.0
  0
LINE
  5
64F
330
19
100
AcDbEntity
  8
4
100
AcDbLine
 10
259.9051814542174
 20
151.9617537100451
 30
0.0
 11
259.9051814542174
 21
197.9617537100451
 31
0.0
  0
LINE
  5
650
330
19
100
AcDbEntity
  8
4
100
AcDbLine
 10
259.9051814542174
 20
151.9617537100451
 30
0.0
 11
258.9051814542174
 21
152.9617537100451
 31
0.0
  0
LINE
  5
651
330
19
100
AcDbEntity
  8
4
100
AcDbLine
 10
258.9051814542174
 20
196.9617537100451
 30
0.0
 11
259.9051814542174
 21
197.9617537100451
 31
0.0
  0
LINE
  5
652
330
19
100
AcDbEntity
  8
4
100
AcDbLine
 10
258.9051814542174
 20
196.9617537100451
 30
0.0
 11
258.9051814542174
 21
201.4617537100451
 31
0.0
  0
LINE
  5
654
330
19
100
AcDbEntity
  8
4
100
AcDbLine
 10
357.1551814542172
 20
1445.690518057716
 30
0.0
 11
260.1551814542172
 21
1445.690518057716
 31
0.0
  0
LINE
  5
655
330
19
100
AcDbEntity
  8
4
100
AcDbLine
 10
357.1551814542172
 20
1399.690518057716
 30
0.0
 11
260.1551814542172
 21
1399.690518057716
 31
0.0
  0
LINE
  5
656
330
19
100
AcDbEntity
  8
4
100
AcDbLine
 10
259.1551814542172
 20
1428.690518057716
 30
0.0
 11
343.1551814542172
 21
1428.690518057716
 31
0.0
  0
LINE
  5
657
330
19
100
AcDbEntity
  8
4
100
AcDbLine
 10
259.1551814542172
 20
1416.690518057716
 30
0.0
 11
343.1551814542172
 21
1416.690518057716
 31
0.0
  0
LINE
  5
658
330
19
100
AcDbEntity
  8
4
100
AcDbLine
 10
359.1551814542172
 20
1397.690518057716
 30
0.0
 11
359.1551814542172
 21
1447.690518057716
 31
0.0
  0
LINE
  5
659
330
19
100
AcDbEntity
  8
4
100
AcDbLine
 10
371.1551814542172
 20
1458.690518057716
 30
0.0
 11
371.1551814542172
 21
1386.690518057716
 31
0.0
  0
LINE
  5
65A
330
19
100
AcDbEntity
  8
4
100
AcDbLine
 10
359.1551814542172
 20
1397.690518057716
 30
0.0
 11
371.1551814542172
 21
1397.690518057716
 31
0.0
  0
ARC
  5
65B
330
19
100
AcDbEntity
  8
4
100
AcDbCircle
 10
357.1551814542172
 20
1397.690518057716
 30
0.0
 40
2.0
100
AcDbArc
 50
0.0
 51
90.0
  0
LINE
  5
65C
330
19
100
AcDbEntity
  8
4
 48
0.8
100
AcDbLine
 10
371.1551814542172
 20
1386.690518057716
 30
0.0
 11
372.1551814542172
 21
1386.690518057716
 31
0.0
  0
ARC
  5
65D
330
19
100
AcDbEntity
  8
4
100
AcDbCircle
 10
343.1551814542172
 20
1422.690518057716
 30
0.0
 40
6.0
100
AcDbArc
 50
270.0
 51
90.0
  0
LINE
  5
65E
330
19
100
AcDbEntity
  8
4
100
AcDbLine
 10
359.1551814542172
 20
1447.690518057716
 30
0.0
 11
371.1551814542172
 21
1447.690518057716
 31
0.0
  0
ARC
  5
65F
330
19
100
AcDbEntity
  8
4
100
AcDbCircle
 10
357.1551814542172
 20
1447.690518057716
 30
0.0
 40
2.0
100
AcDbArc
 50
270.0
 51
0.0
  0
LINE
  5
660
330
19
100
AcDbEntity
  8
4
 48
0.8
100
AcDbLine
 10
371.1551814542172
 20
1458.690518057716
 30
0.0
 11
372.1551814542172
 21
1458.690518057716
 31
0.0
  0
LINE
  5
661
330
19
100
AcDbEntity
  8
4
100
AcDbLine
 10
259.1551814542172
 20
1444.690518057716
 30
0.0
 11
259.1551814542172
 21
1400.690518057716
 31
0.0
  0
LINE
  5
662
330
19
100
AcDbEntity
  8
4
100
AcDbLine
 10
260.1551814542172
 20
1445.690518057716
 30
0.0
 11
260.1551814542172
 21
1428.690518057716
 31
0.0
  0
LINE
  5
663
330
19
100
AcDbEntity
  8
4
100
AcDbLine
 10
260.1551814542172
 20
1416.690518057716
 30
0.0
 11
260.1551814542172
 21
1399.690518057716
 31
0.0
  0
LINE
  5
664
330
19
100
AcDbEntity
  8
4
100
AcDbLine
 10
259.1551814542172
 20
1400.690518057716
 30
0.0
 11
260.1551814542172
 21
1399.690518057716
 31
0.0
  0
LINE
  5
665
330
19
100
AcDbEntity
  8
4
100
AcDbLine
 10
260.1551814542172
 20
1445.690518057716
 30
0.0
 11
259.1551814542172
 21
1444.690518057716
 31
0.0
  0
ENDSEC
  0
SECTION
  2
OBJECTS
  0
DICTIONARY
  5
9
330
0
100
AcDbDictionary
281
     1
  3
ACAD_COLOR
350
2F
  3
ACAD_GROUP
350
2D
  3
ACAD_LAYOUT
350
22
  3
ACAD_MATERIAL
350
B
  3
ACAD_MLEADERSTYLE
350
61D
  3
ACAD_MLINESTYLE
350
17
  3
ACAD_PLOTSETTINGS
350
2E
  3
ACAD_PLOTSTYLENAME
350
8
  3
ACAD_SCALELIST
350
38
  3
ACAD_TABLESTYLE
350
61C
  3
ACAD_VISUALSTYLE
350
30
  3
ACDBHEADERROUNDTRIPXREC
350
67F
  3
AcDbVariableDictionary
350
61A
  3
DWGPROPS
350
682
  0
DICTIONARY
  5
683
330
2C
100
AcDbDictionary
280
     1
281
     1
  3
ACAD_XREC_ROUNDTRIP
360
684
  0
DICTIONARY
  5
3
330
2
100
AcDbDictionary
280
     1
281
     1
  3
ACAD_LAYERSTATES
360
4
  0
DICTIONARY
  5
1E
330
1D
100
AcDbDictionary
280
     1
281
     1
  3
ADSK_XREC_LAYER_RECONCILED
360
1F
  0
DICTIONARY
  5
6E
330
6D
100
AcDbDictionary
280
     1
281
     1
  3
ADSK_XREC_LAYER_RECONCILED
360
6F
  0
DICTIONARY
  5
77
330
76
100
AcDbDictionary
280
     1
281
     1
  3
ADSK_XREC_LAYER_RECONCILED
360
78
  0
DICTIONARY
  5
3D0
330
3CF
100
AcDbDictionary
280
     1
281
     1
  3
ADSK_XREC_LAYER_RECONCILED
360
3D1
  0
DICTIONARY
  5
5
330
1
100
AcDbDictionary
280
     1
281
     1
  3
ADSK_XREC_LAYER_RECONCILED
360
6
  0
DICTIONARY
  5
1A
330
19
100
AcDbDictionary
280
     1
281
     1
  3
ACAD_SORTENTS
360
1B
  0
DICTIONARY
  5
2F
102
{ACAD_REACTORS
330
9
102
}
330
9
100
AcDbDictionary
281
     1
  0
DICTIONARY
  5
2D
102
{ACAD_REACTORS
330
9
102
}
330
9
100
AcDbDictionary
281
     1
  0
DICTIONARY
  5
22
102
{ACAD_REACTORS
330
9
102
}
330
9
100
AcDbDictionary
281
     1
  3
Model
350
21
  3
ﾚｲｱｳﾄ1
350
29
  0
DICTIONARY
  5
B
102
{ACAD_REACTORS
330
9
102
}
330
9
100
AcDbDictionary
281
     1
  3
ByBlock
350
6B
  3
ByLayer
350
12
  3
Global
350
A
  0
DICTIONARY
  5
61D
102
{ACAD_REACTORS
330
9
102
}
330
9
100
AcDbDictionary
281
     1
  3
Standard
350
635
  0
DICTIONARY
  5
17
102
{ACAD_REACTORS
330
9
102
}
330
9
100
AcDbDictionary
281
     1
  3
STANDARD
350
16
  0
DICTIONARY
  5
2E
102
{ACAD_REACTORS
330
9
102
}
330
9
100
AcDbDictionary
281
     1
  0
ACDBDICTIONARYWDFLT
  5
8
102
{ACAD_REACTORS
330
9
102
}
330
9
100
AcDbDictionary
281
     1
  3
Normal
350
7
100
AcDbDictionaryWithDefault
340
7
  0
DICTIONARY
  5
38
102
{ACAD_REACTORS
330
9
102
}
330
9
100
AcDbDictionary
281
     1
  3
*A1
350
5A
  3
*A10
350
63
  3
*A11
350
64
  3
*A12
350
65
  3
*A13
350
66
  3
*A14
350
67
  3
*A15
350
68
  3
*A16
350
69
  3
*A17
350
6A
  3
*A2
350
5B
  3
*A3
350
5C
  3
*A4
350
5D
  3
*A5
350
5E
  3
*A6
350
5F
  3
*A7
350
60
  3
*A8
350
61
  3
*A9
350
62
  0
DICTIONARY
  5
61C
102
{ACAD_REACTORS
330
9
102
}
330
9
100
AcDbDictionary
281
     1
  3
Standard
350
63D
  0
DICTIONARY
  5
30
102
{ACAD_REACTORS
330
9
102
}
330
9
100
AcDbDictionary
281
     1
  3
2dWireframe
350
35
  3
Basic
350
625
  3
Brighten
350
628
  3
ColorChange
350
62C
  3
Conceptual
350
626
  3
Dim
350
627
  3
EdgeColorOff
350
62F
  3
Facepattern
350
62B
  3
Flat
350
620
  3
FlatWithEdges
350
621
  3
Gouraud
350
622
  3
GouraudWithEdges
350
623
  3
Hidden
350
624
  3
JitterOff
350
62D
  3
Linepattern
350
62A
  3
OverhangOff
350
62E
  3
Realistic
350
31
  3
Shaded
350
634
  3
Shaded with edges
350
633
  3
Shades of Gray
350
630
  3
Sketchy
350
631
  3
Thicken
350
629
  3
Wireframe
350
32
  3
X-Ray
350
632
  0
DICTIONARY
  5
67F
102
{ACAD_REACTORS
330
9
102
}
330
9
100
AcDbDictionary
281
     1
  3
COLORDICT
350
680
  3
MATERIALDICT
350
681
  0
DICTIONARY
  5
61A
102
{ACAD_REACTORS
330
9
102
}
330
9
100
AcDbDictionary
281
     1
  3
CANNOSCALE
350
61B
  3
CMLEADERSTYLE
350
63B
  3
CTABLESTYLE
350
63E
  3
DIMASSOC
350
67D
  3
HIDETEXT
350
67E
  3
MSLTSCALE
350
685
  0
XRECORD
  5
682
102
{ACAD_REACTORS
330
9
102
}
330
9
100
AcDbXrecord
280
     1
  1
DWGPROPS COOKIE
  2

  3

  4

  6

  7

  8
sg-d03
  9

300
=
301
=
302
=
303
=
304
=
305
=
306
=
307
=
308
=
309
=
 40
0.0
 41
2450157.20912037
 42
2458115.295541389
  1

 90
        0
  0
XRECORD
  5
684
102
{ACAD_REACTORS
330
683
102
}
330
683
100
AcDbXrecord
280
     1
102
VTR_0.000_0.000_1.000_1.000_GRIDDISPLAY
 70
     3
102
VTR_0.000_0.000_1.000_1.000_GRIDMAJOR
 70
     5
102
VTR_0.000_0.000_1.000_1.000_DEFAULTLIGHTING
280
     1
102
VTR_0.000_0.000_1.000_1.000_DEFAULTLIGHTINGTYPE
 70
     1
102
VTR_0.000_0.000_1.000_1.000_BRIGHTNESS
141
0.0
102
VTR_0.000_0.000_1.000_1.000_CONTRAST
142
0.0
  0
DICTIONARY
  5
4
102
{ACAD_REACTORS
330
3
102
}
330
3
100
AcDbDictionary
281
     1
  0
XRECORD
  5
1F
102
{ACAD_REACTORS
330
1E
102
}
330
1E
100
AcDbXrecord
280
     1
290
     1
  0
XRECORD
  5
6F
102
{ACAD_REACTORS
330
6E
102
}
330
6E
100
AcDbXrecord
280
     1
290
     1
  0
XRECORD
  5
78
102
{ACAD_REACTORS
330
77
102
}
330
77
100
AcDbXrecord
280
     1
290
     1
  0
XRECORD
  5
3D1
102
{ACAD_REACTORS
330
3D0
102
}
330
3D0
100
AcDbXrecord
280
     1
290
     1
  0
XRECORD
  5
6
102
{ACAD_REACTORS
330
5
102
}
330
5
100
AcDbXrecord
280
     1
290
     1
  0
SORTENTSTABLE
  5
1B
102
{ACAD_REACTORS
330
1A
102
}
330
1A
100
AcDbSortentsTable
330
19
  0
LAYOUT
  5
21
102
{ACAD_REACTORS
330
22
102
}
102
{ACAD_XDICTIONARY
360
23
102
}
330
22
100
AcDbPlotSettings
  1

  2
Bullzip PDF Printer.pc3
  4
A3
  6

 40
0.2
 41
0.0
 42
0.0
 43
0.0
 44
420.2
 45
297.1
 46
25.0
 47
12.0
 48
-1386.696920095688
 49
-159.1917999344669
140
905.3030746543118
141
1475.808196250533
142
1.0
143
6.0
 70
 11936
 72
     1
 73
     0
 74
     4
  7
monochrome.ctb
 75
     0
147
0.1666666666666667
148
1386.696920095688
149
159.1917999344669
100
AcDbLayout
  1
Model
 70
     0
 71
     0
 10
0.0
 20
0.0
 11
12.0
 21
9.0
 12
0.0
 22
0.0
 32
0.0
 14
250.8802790135574
 24
14.96175371004529
 34
0.0
 15
2229.59687491063
 25
1584.690518057716
 35
0.0
146
0.0
 13
0.0
 23
0.0
 33
0.0
 16
1.0
 26
0.0
 36
0.0
 17
0.0
 27
1.0
 37
0.0
 76
     0
330
19
331
34
1001
ACAD_PSEXT
1000
Bullzip PDF Printer.pc3
1000
Bullzip PDF Printer
1000
BULLZIP
1000
Bullzip PDF Printer 10.1.0.1871
1070
     0
  0
LAYOUT
  5
29
102
{ACAD_REACTORS
330
22
102
}
330
22
100
AcDbPlotSettings
  1

  2
SR-LP8300F
  4

  6

 40
0.0
 41
0.0
 42
0.0
 43
0.0
 44
0.0
 45
0.0
 46
0.0
 47
0.0
 48
0.0
 49
0.0
140
0.0
141
0.0
142
1.0
143
1.0
 70
   688
 72
     0
 73
     0
 74
     5
  7
monochrome.ctb
 75
    16
147
1.0
148
0.0
149
0.0
100
AcDbLayout
  1
ﾚｲｱｳﾄ1
 70
     0
 71
     1
 10
0.0
 20
0.0
 11
12.0
 21
9.0
 12
0.0
 22
0.0
 32
0.0
 14
1000000000000000E+20
 24
1000000000000000E+20
 34
1000000000000000E+20
 15
-1000000000000000E+20
 25
-1000000000000000E+20
 35
-1000000000000000E+20
146
0.0
 13
0.0
 23
0.0
 33
0.0
 16
1.0
 26
0.0
 36
0.0
 17
0.0
 27
1.0
 37
0.0
 76
     0
330
26
  0
MATERIAL
  5
6B
102
{ACAD_REACTORS
330
B
102
}
102
{ACAD_XDICTIONARY
360
68A
102
}
330
B
100
AcDbMaterial
  1
ByBlock
 72
     0
 73
     2
 43
0.0208333333333333
 43
0.0
 43
0.0
 43
0.0
 43
0.0
 43
0.0208333333333333
 43
0.0
 43
0.0
 43
0.0
 43
0.0
 43
1.0
 43
0.0
 43
0.0
 43
0.0
 43
0.0
 43
1.0
 77
     0
 78
     2
 47
0.0208333333333333
 47
0.0
 47
0.0
 47
0.0
 47
0.0
 47
0.0208333333333333
 47
0.0
 47
0.0
 47
0.0
 47
0.0
 47
1.0
 47
0.0
 47
0.0
 47
0.0
 47
0.0
 47
1.0
171
     0
172
     2
 49
0.0208333333333333
 49
0.0
 49
0.0
 49
0.0
 49
0.0
 49
0.0208333333333333
 49
0.0
 49
0.0
 49
0.0
 49
0.0
 49
1.0
 49
0.0
 49
0.0
 49
0.0
 49
0.0
 49
1.0
175
     0
176
     2
142
0.0208333333333333
142
0.0
142
0.0
142
0.0
142
0.0
142
0.0208333333333333
142
0.0
142
0.0
142
0.0
142
0.0
142
1.0
142
0.0
142
0.0
142
0.0
142
0.0
142
1.0
179
     0
270
     2
144
0.0208333333333333
144
0.0
144
0.0
144
0.0
144
0.0
144
0.0208333333333333
144
0.0
144
0.0
144
0.0
144
0.0
144
1.0
144
0.0
144
0.0
144
0.0
144
0.0
144
1.0
274
     2
147
0.0208333333333333
147
0.0
147
0.0
147
0.0
147
0.0
147
0.0208333333333333
147
0.0
147
0.0
147
0.0
147
0.0
147
1.0
147
0.0
147
0.0
147
0.0
147
0.0
147
1.0
  0
MATERIAL
  5
12
102
{ACAD_REACTORS
330
B
102
}
102
{ACAD_XDICTIONARY
360
686
102
}
330
B
100
AcDbMaterial
  1
ByLayer
 72
     0
 73
     2
 43
0.0208333333333333
 43
0.0
 43
0.0
 43
0.0
 43
0.0
 43
0.0208333333333333
 43
0.0
 43
0.0
 43
0.0
 43
0.0
 43
1.0
 43
0.0
 43
0.0
 43
0.0
 43
0.0
 43
1.0
 77
     0
 78
     2
 47
0.0208333333333333
 47
0.0
 47
0.0
 47
0.0
 47
0.0
 47
0.0208333333333333
 47
0.0
 47
0.0
 47
0.0
 47
0.0
 47
1.0
 47
0.0
 47
0.0
 47
0.0
 47
0.0
 47
1.0
171
     0
172
     2
 49
0.0208333333333333
 49
0.0
 49
0.0
 49
0.0
 49
0.0
 49
0.0208333333333333
 49
0.0
 49
0.0
 49
0.0
 49
0.0
 49
1.0
 49
0.0
 49
0.0
 49
0.0
 49
0.0
 49
1.0
175
     0
176
     2
142
0.0208333333333333
142
0.0
142
0.0
142
0.0
142
0.0
142
0.0208333333333333
142
0.0
142
0.0
142
0.0
142
0.0
142
1.0
142
0.0
142
0.0
142
0.0
142
0.0
142
1.0
179
     0
270
     2
144
0.0208333333333333
144
0.0
144
0.0
144
0.0
144
0.0
144
0.0208333333333333
144
0.0
144
0.0
144
0.0
144
0.0
144
1.0
144
0.0
144
0.0
144
0.0
144
0.0
144
1.0
274
     2
147
0.0208333333333333
147
0.0
147
0.0
147
0.0
147
0.0
147
0.0208333333333333
147
0.0
147
0.0
147
0.0
147
0.0
147
1.0
147
0.0
147
0.0
147
0.0
147
0.0
147
1.0
  0
MATERIAL
  5
A
102
{ACAD_REACTORS
330
B
102
}
102
{ACAD_XDICTIONARY
360
688
102
}
330
B
100
AcDbMaterial
  1
Global
 72
     0
 73
     2
 43
0.0208333333333333
 43
0.0
 43
0.0
 43
0.0
 43
0.0
 43
0.0208333333333333
 43
0.0
 43
0.0
 43
0.0
 43
0.0
 43
1.0
 43
0.0
 43
0.0
 43
0.0
 43
0.0
 43
1.0
 77
     0
 78
     2
 47
0.0208333333333333
 47
0.0
 47
0.0
 47
0.0
 47
0.0
 47
0.0208333333333333
 47
0.0
 47
0.0
 47
0.0
 47
0.0
 47
1.0
 47
0.0
 47
0.0
 47
0.0
 47
0.0
 47
1.0
171
     0
172
     2
 49
0.0208333333333333
 49
0.0
 49
0.0
 49
0.0
 49
0.0
 49
0.0208333333333333
 49
0.0
 49
0.0
 49
0.0
 49
0.0
 49
1.0
 49
0.0
 49
0.0
 49
0.0
 49
0.0
 49
1.0
175
     0
176
     2
142
0.0208333333333333
142
0.0
142
0.0
142
0.0
142
0.0
142
0.0208333333333333
142
0.0
142
0.0
142
0.0
142
0.0
142
1.0
142
0.0
142
0.0
142
0.0
142
0.0
142
1.0
179
     0
270
     2
144
0.0208333333333333
144
0.0
144
0.0
144
0.0
144
0.0
144
0.0208333333333333
144
0.0
144
0.0
144
0.0
144
0.0
144
1.0
144
0.0
144
0.0
144
0.0
144
0.0
144
1.0
274
     2
147
0.0208333333333333
147
0.0
147
0.0
147
0.0
147
0.0
147
0.0208333333333333
147
0.0
147
0.0
147
0.0
147
0.0
147
1.0
147
0.0
147
0.0
147
0.0
147
0.0
147
1.0
  0
MLEADERSTYLE
  5
635
102
{ACAD_REACTORS
330
61D
102
}
102
{ACAD_XDICTIONARY
360
6BC
102
}
330
61D
100
AcDbMLeaderStyle
170
     2
171
     1
172
     0
 90
        2
 40
0.0
 41
0.0
173
     1
 91
-1056964608
340
F
 92
       -2
290
     1
 42
0.09
291
     1
 43
0.36
  3
Standard
341
0
 44
0.18
300

342
10
174
     1
178
     6
175
     1
176
     0
 93
-1056964608
 45
0.18
292
     0
297
     0
 46
0.18
343
0
 94
-1056964608
 47
1.0
 49
1.0
140
1.0
293
     1
141
0.0
294
     1
177
     0
142
1.0
295
     0
296
     0
143
0.125
1001
ACAD_MLEADERVER
1070
     2
  0
MLINESTYLE
  5
16
102
{ACAD_REACTORS
330
17
102
}
330
17
100
AcDbMlineStyle
  2
STANDARD
 70
     0
  3

 62
     0
 51
90.0
 52
90.0
 71
     2
 49
0.5
 62
   256
  6
BYLAYER
 49
-0.5
 62
   256
  6
BYLAYER
  0
ACDBPLACEHOLDER
  5
7
102
{ACAD_REACTORS
330
8
102
}
330
8
  0
SCALE
  5
5A
102
{ACAD_REACTORS
330
38
102
}
330
38
100
AcDbScale
 70
     0
300
1:1
140
1.0
141
1.0
290
     1
  0
SCALE
  5
63
102
{ACAD_REACTORS
330
38
102
}
330
38
100
AcDbScale
 70
     0
300
3/8" = 1'-0"
140
0.375
141
12.0
290
     0
  0
SCALE
  5
64
102
{ACAD_REACTORS
330
38
102
}
330
38
100
AcDbScale
 70
     0
300
1/2" = 1'-0"
140
0.5
141
12.0
290
     0
  0
SCALE
  5
65
102
{ACAD_REACTORS
330
38
102
}
330
38
100
AcDbScale
 70
     0
300
3/4" = 1'-0"
140
0.75
141
12.0
290
     0
  0
SCALE
  5
66
102
{ACAD_REACTORS
330
38
102
}
330
38
100
AcDbScale
 70
     0
300
1" = 1'-0"
140
1.0
141
12.0
290
     0
  0
SCALE
  5
67
102
{ACAD_REACTORS
330
38
102
}
330
38
100
AcDbScale
 70
     0
300
1-1/2" = 1'-0"
140
1.5
141
12.0
290
     0
  0
SCALE
  5
68
102
{ACAD_REACTORS
330
38
102
}
330
38
100
AcDbScale
 70
     0
300
3" = 1'-0"
140
3.0
141
12.0
290
     0
  0
SCALE
  5
69
102
{ACAD_REACTORS
330
38
102
}
330
38
100
AcDbScale
 70
     0
300
6" = 1'-0"
140
6.0
141
12.0
290
     0
  0
SCALE
  5
6A
102
{ACAD_REACTORS
330
38
102
}
330
38
100
AcDbScale
 70
     0
300
1'-0" = 1'-0"
140
12.0
141
12.0
290
     0
  0
SCALE
  5
5B
102
{ACAD_REACTORS
330
38
102
}
330
38
100
AcDbScale
 70
     0
300
1/128" = 1'-0"
140
0.0078125
141
12.0
290
     0
  0
SCALE
  5
5C
102
{ACAD_REACTORS
330
38
102
}
330
38
100
AcDbScale
 70
     0
300
1/64" = 1'-0"
140
0.015625
141
12.0
290
     0
  0
SCALE
  5
5D
102
{ACAD_REACTORS
330
38
102
}
330
38
100
AcDbScale
 70
     0
300
1/32" = 1'-0"
140
0.03125
141
12.0
290
     0
  0
SCALE
  5
5E
102
{ACAD_REACTORS
330
38
102
}
330
38
100
AcDbScale
 70
     0
300
1/16" = 1'-0"
140
0.0625
141
12.0
290
     0
  0
SCALE
  5
5F
102
{ACAD_REACTORS
330
38
102
}
330
38
100
AcDbScale
 70
     0
300
3/32" = 1'-0"
140
0.09375
141
12.0
290
     0
  0
SCALE
  5
60
102
{ACAD_REACTORS
330
38
102
}
330
38
100
AcDbScale
 70
     0
300
1/8" = 1'-0"
140
0.125
141
12.0
290
     0
  0
SCALE
  5
61
102
{ACAD_REACTORS
330
38
102
}
330
38
100
AcDbScale
 70
     0
300
3/16" = 1'-0"
140
0.1875
141
12.0
290
     0
  0
SCALE
  5
62
102
{ACAD_REACTORS
330
38
102
}
330
38
100
AcDbScale
 70
     0
300
1/4" = 1'-0"
140
0.25
141
12.0
290
     0
  0
TABLESTYLE
  5
63D
102
{ACAD_REACTORS
330
61C
102
}
330
61C
100
AcDbTableStyle
  3
Standard
 70
     0
 71
     0
 40
0.06
 41
0.06
280
     0
281
     0
  7
STANDARD
140
0.18
170
     2
 62
     0
 63
   257
283
     0
274
    -2
284
     1
 64
     0
275
    -2
285
     1
 65
     0
276
    -2
286
     1
 66
     0
277
    -2
287
     1
 67
     0
278
    -2
288
     1
 68
     0
279
    -2
289
     1
 69
     0
  7
STANDARD
140
0.25
170
     5
 62
     0
 63
   257
283
     0
274
    -2
284
     1
 64
     0
275
    -2
285
     1
 65
     0
276
    -2
286
     1
 66
     0
277
    -2
287
     1
 67
     0
278
    -2
288
     1
 68
     0
279
    -2
289
     1
 69
     0
  7
STANDARD
140
0.18
170
     5
 62
     0
 63
   257
283
     0
274
    -2
284
     1
 64
     0
275
    -2
285
     1
 65
     0
276
    -2
286
     1
 66
     0
277
    -2
287
     1
 67
     0
278
    -2
288
     1
 68
     0
279
    -2
289
     1
 69
     0
  0
VISUALSTYLE
  5
35
102
{ACAD_REACTORS
330
30
102
}
102
{ACAD_XDICTIONARY
360
690
102
}
330
30
100
AcDbVisualStyle
  2
2dWireframe
 70
     4
 71
     0
 72
     2
 73
     0
 90
        0
 40
0.6
 41
30.0
 62
     5
 63
     7
 74
     1
 91
        4
 64
     7
 65
   257
 75
     1
175
     1
 42
1.0
 92
        0
 66
   257
 43
1.0
 76
     1
 77
     6
 78
     2
 67
     7
 79
     5
170
     0
171
     0
290
     0
174
     0
 93
        1
 44
0.0
173
     0
291
     0
 45
0.0
1001
ACAD
1000
AcDbSavedByObjectVersion
1070
     0
  0
VISUALSTYLE
  5
625
102
{ACAD_REACTORS
330
30
102
}
102
{ACAD_XDICTIONARY
360
69C
102
}
330
30
100
AcDbVisualStyle
  2
Basic
 70
     7
 71
     1
 72
     0
 73
     1
 90
        0
 40
0.6
 41
30.0
 62
     5
 63
     7
 74
     0
 91
        4
 64
     7
 65
   257
 75
     1
175
     1
 42
1.0
 92
        8
 66
     7
 43
1.0
 76
     1
 77
     6
 78
     2
 67
     7
 79
     5
170
     0
171
     0
290
     0
174
     0
 93
        1
 44
0.0
173
     0
291
     1
 45
0.0
1001
ACAD
1000
AcDbSavedByObjectVersion
1070
     0
  0
VISUALSTYLE
  5
628
102
{ACAD_REACTORS
330
30
102
}
102
{ACAD_XDICTIONARY
360
6A2
102
}
330
30
100
AcDbVisualStyle
  2
Brighten
 70
    12
 71
     2
 72
     2
 73
     0
 90
        0
 40
0.6
 41
30.0
 62
     5
 63
     7
 74
     1
 91
        4
 64
     7
 65
   257
 75
     1
175
     1
 42
1.0
 92
        8
 66
     7
 43
1.0
 76
     1
 77
     6
 78
     2
 67
     7
 79
     5
170
     0
171
     0
290
     0
174
     0
 93
        1
 44
50.0
173
     0
291
     1
 45
0.0
1001
ACAD
1000
AcDbSavedByObjectVersion
1070
     0
  0
VISUALSTYLE
  5
62C
102
{ACAD_REACTORS
330
30
102
}
102
{ACAD_XDICTIONARY
360
6AA
102
}
330
30
100
AcDbVisualStyle
  2
ColorChange
 70
    16
 71
     2
 72
     2
 73
     3
 90
        0
 40
0.6
 41
30.0
 62
     5
 63
     8
 74
     1
 91
        4
 64
     7
 65
   257
 75
     1
175
     1
 42
1.0
 92
        8
 66
     8
 43
1.0
 76
     1
 77
     6
 78
     2
 67
     7
 79
     5
170
     0
171
     0
290
     0
174
     0
 93
        1
 44
0.0
173
     0
291
     1
 45
0.0
1001
ACAD
1000
AcDbSavedByObjectVersion
1070
     0
  0
VISUALSTYLE
  5
626
102
{ACAD_REACTORS
330
30
102
}
102
{ACAD_XDICTIONARY
360
69E
102
}
330
30
100
AcDbVisualStyle
  2
Conceptual
 70
     9
 71
     3
 72
     2
 73
     0
 90
        0
 40
0.6
 41
30.0
 62
     5
 63
     7
 74
     2
 91
        2
 64
     7
 65
   257
 75
     1
175
     1
 42
40.0
 92
        8
 66
     7
 43
1.0
 76
     1
 77
     6
 78
     2
 67
     7
 79
     3
170
     0
171
     0
290
     0
174
     0
 93
        1
 44
0.0
173
     0
291
     0
 45
0.0
1001
ACAD
1000
AcDbSavedByObjectVersion
1070
     0
  0
VISUALSTYLE
  5
627
102
{ACAD_REACTORS
330
30
102
}
102
{ACAD_XDICTIONARY
360
6A0
102
}
330
30
100
AcDbVisualStyle
  2
Dim
 70
    11
 71
     2
 72
     2
 73
     0
 90
        0
 40
0.6
 41
30.0
 62
     5
 63
     7
 74
     1
 91
        4
 64
     7
 65
   257
 75
     1
175
     1
 42
1.0
 92
        8
 66
     7
 43
1.0
 76
     1
 77
     6
 78
     2
 67
     7
 79
     5
170
     0
171
     0
290
     0
174
     0
 93
        1
 44
-50.0
173
     0
291
     1
 45
0.0
1001
ACAD
1000
AcDbSavedByObjectVersion
1070
     0
  0
VISUALSTYLE
  5
62F
102
{ACAD_REACTORS
330
30
102
}
102
{ACAD_XDICTIONARY
360
6B0
102
}
330
30
100
AcDbVisualStyle
  2
EdgeColorOff
 70
    22
 71
     2
 72
     2
 73
     0
 90
        0
 40
0.6
 41
30.0
 62
     5
 63
     7
 74
     1
 91
        4
 64
     7
 65
   257
 75
     1
175
     1
 42
1.0
 92
        8
 66
     7
 43
1.0
 76
     1
 77
     6
 78
     2
 67
     7
 79
     5
170
     0
171
     0
290
     0
174
     0
 93
        1
 44
0.0
173
     0
291
     1
 45
0.0
1001
ACAD
1000
AcDbSavedByObjectVersion
1070
     0
  0
VISUALSTYLE
  5
62B
102
{ACAD_REACTORS
330
30
102
}
102
{ACAD_XDICTIONARY
360
6A8
102
}
330
30
100
AcDbVisualStyle
  2
Facepattern
 70
    15
 71
     2
 72
     2
 73
     0
 90
        0
 40
0.6
 41
30.0
 62
     5
 63
     7
 74
     1
 91
        4
 64
     7
 65
   257
 75
     1
175
     1
 42
1.0
 92
        8
 66
     7
 43
1.0
 76
     1
 77
     6
 78
     2
 67
     7
 79
     5
170
     0
171
     0
290
     0
174
     0
 93
        1
 44
0.0
173
     0
291
     1
 45
0.0
1001
ACAD
1000
AcDbSavedByObjectVersion
1070
     0
  0
VISUALSTYLE
  5
620
102
{ACAD_REACTORS
330
30
102
}
102
{ACAD_XDICTIONARY
360
692
102
}
330
30
100
AcDbVisualStyle
  2
Flat
 70
     0
 71
     2
 72
     1
 73
     1
 90
        2
 40
0.6
 41
30.0
 62
     5
 63
     7
 74
     0
 91
        4
 64
     7
 65
   257
 75
     1
175
     1
 42
1.0
 92
        8
 66
     7
 43
1.0
 76
     1
 77
     6
 78
     2
 67
     7
 79
     5
170
     0
171
     0
290
     0
174
     0
 93
       13
 44
0.0
173
     0
291
     1
 45
0.0
1001
ACAD
1000
AcDbSavedByObjectVersion
1070
     0
  0
VISUALSTYLE
  5
621
102
{ACAD_REACTORS
330
30
102
}
102
{ACAD_XDICTIONARY
360
694
102
}
330
30
100
AcDbVisualStyle
  2
FlatWithEdges
 70
     1
 71
     2
 72
     1
 73
     1
 90
        2
 40
0.6
 41
30.0
 62
     5
 63
     7
 74
     1
 91
        4
 64
     7
 65
   257
 75
     1
175
     1
 42
1.0
 92
        0
 66
   257
 43
1.0
 76
     1
 77
     6
 78
     2
 67
     7
 79
     5
170
     0
171
     0
290
     0
174
     0
 93
       13
 44
0.0
173
     0
291
     1
 45
0.0
1001
ACAD
1000
AcDbSavedByObjectVersion
1070
     0
  0
VISUALSTYLE
  5
622
102
{ACAD_REACTORS
330
30
102
}
102
{ACAD_XDICTIONARY
360
696
102
}
330
30
100
AcDbVisualStyle
  2
Gouraud
 70
     2
 71
     2
 72
     2
 73
     1
 90
        2
 40
0.6
 41
30.0
 62
     5
 63
     7
 74
     0
 91
        4
 64
     7
 65
   257
 75
     1
175
     1
 42
1.0
 92
        0
 66
     7
 43
1.0
 76
     1
 77
     6
 78
     2
 67
     7
 79
     5
170
     0
171
     0
290
     0
174
     0
 93
       13
 44
0.0
173
     0
291
     1
 45
0.0
1001
ACAD
1000
AcDbSavedByObjectVersion
1070
     0
  0
VISUALSTYLE
  5
623
102
{ACAD_REACTORS
330
30
102
}
102
{ACAD_XDICTIONARY
360
698
102
}
330
30
100
AcDbVisualStyle
  2
GouraudWithEdges
 70
     3
 71
     2
 72
     2
 73
     1
 90
        2
 40
0.6
 41
30.0
 62
     5
 63
     7
 74
     1
 91
        4
 64
     7
 65
   257
 75
     1
175
     1
 42
1.0
 92
        0
 66
   257
 43
1.0
 76
     1
 77
     6
 78
     2
 67
     7
 79
     5
170
     0
171
     0
290
     0
174
     0
 93
       13
 44
0.0
173
     0
291
     1
 45
0.0
1001
ACAD
1000
AcDbSavedByObjectVersion
1070
     0
  0
VISUALSTYLE
  5
624
102
{ACAD_REACTORS
330
30
102
}
102
{ACAD_XDICTIONARY
360
69A
102
}
330
30
100
AcDbVisualStyle
  2
Hidden
 70
     6
 71
     1
 72
     2
 73
     2
 90
        0
 40
0.6
 41
30.0
 62
     5
 63
     7
 74
     2
 91
        2
 64
     7
 65
   257
 75
     2
175
     1
 42
40.0
 92
        0
 66
   257
 43
1.0
 76
     1
 77
     6
 78
     2
 67
     7
 79
     3
170
     0
171
     0
290
     0
174
     0
 93
        1
 44
0.0
173
     0
291
     0
 45
0.0
1001
ACAD
1000
AcDbSavedByObjectVersion
1070
     0
  0
VISUALSTYLE
  5
62D
102
{ACAD_REACTORS
330
30
102
}
102
{ACAD_XDICTIONARY
360
6AC
102
}
330
30
100
AcDbVisualStyle
  2
JitterOff
 70
    20
 71
     2
 72
     2
 73
     0
 90
        0
 40
0.6
 41
30.0
 62
     5
 63
     7
 74
     1
 91
        4
 64
     7
 65
   257
 75
     1
175
     1
 42
1.0
 92
       10
 66
     7
 43
1.0
 76
     1
 77
     6
 78
     2
 67
     7
 79
     5
170
     0
171
     0
290
     0
174
     0
 93
        1
 44
0.0
173
     0
291
     1
 45
0.0
1001
ACAD
1000
AcDbSavedByObjectVersion
1070
     0
  0
VISUALSTYLE
  5
62A
102
{ACAD_REACTORS
330
30
102
}
102
{ACAD_XDICTIONARY
360
6A6
102
}
330
30
100
AcDbVisualStyle
  2
Linepattern
 70
    14
 71
     2
 72
     2
 73
     0
 90
        0
 40
0.6
 41
30.0
 62
     5
 63
     7
 74
     1
 91
        4
 64
     7
 65
   257
 75
     7
175
     7
 42
1.0
 92
        8
 66
     7
 43
1.0
 76
     1
 77
     6
 78
     2
 67
     7
 79
     5
170
     0
171
     0
290
     0
174
     0
 93
        1
 44
0.0
173
     0
291
     1
 45
0.0
1001
ACAD
1000
AcDbSavedByObjectVersion
1070
     0
  0
VISUALSTYLE
  5
62E
102
{ACAD_REACTORS
330
30
102
}
102
{ACAD_XDICTIONARY
360
6AE
102
}
330
30
100
AcDbVisualStyle
  2
OverhangOff
 70
    21
 71
     2
 72
     2
 73
     0
 90
        0
 40
0.6
 41
30.0
 62
     5
 63
     7
 74
     1
 91
        4
 64
     7
 65
   257
 75
     1
175
     1
 42
1.0
 92
        9
 66
     7
 43
1.0
 76
     1
 77
     6
 78
     2
 67
     7
 79
     5
170
     0
171
     0
290
     0
174
     0
 93
        1
 44
0.0
173
     0
291
     1
 45
0.0
1001
ACAD
1000
AcDbSavedByObjectVersion
1070
     0
  0
VISUALSTYLE
  5
31
102
{ACAD_REACTORS
330
30
102
}
102
{ACAD_XDICTIONARY
360
68C
102
}
330
30
100
AcDbVisualStyle
  2
Realistic
 70
     8
 71
     2
 72
     3
 73
     0
 90
        2
 40
0.6
 41
30.0
 62
     5
 63
     7
 74
     0
 91
        0
 64
     7
 65
   257
 75
     1
175
     1
 42
1.0
 92
        8
 66
   257
 43
1.0
 76
     1
 77
     6
 78
     2
 67
     7
 79
     3
170
     0
171
     0
290
     0
174
     0
 93
       13
 44
0.0
173
     0
291
     0
 45
0.0
1001
ACAD
1000
AcDbSavedByObjectVersion
1070
     0
  0
VISUALSTYLE
  5
634
102
{ACAD_REACTORS
330
30
102
}
102
{ACAD_XDICTIONARY
360
6BA
102
}
330
30
100
AcDbVisualStyle
  2
Shaded
 70
    27
 71
     2
 72
     2
 73
     1
 90
        2
 40
0.6
 41
30.0
 62
     5
 63
     7
 74
     0
 91
        4
 64
     7
 65
   257
 75
     1
175
     1
 42
1.0
 92
        8
 66
   257
 43
1.0
 76
     1
 77
     6
 78
     2
 67
   251
 79
     3
170
     0
171
     0
290
     0
174
     0
 93
        5
 44
0.0
173
     0
291
     0
 45
0.0
1001
ACAD
1000
AcDbSavedByObjectVersion
1070
     0
  0
VISUALSTYLE
  5
633
102
{ACAD_REACTORS
330
30
102
}
102
{ACAD_XDICTIONARY
360
6B8
102
}
330
30
100
AcDbVisualStyle
  2
Shaded with edges
 70
    26
 71
     2
 72
     2
 73
     1
 90
        2
 40
0.6
 41
30.0
 62
     5
 63
     7
 74
     1
 91
       10
 64
     7
 65
   257
 75
     2
175
     1
 42
1.0
 92
        8
 66
   257
 43
1.0
 76
     1
 77
     6
 78
     2
 67
     7
 79
     3
170
     0
171
     0
290
     0
174
     0
 93
        5
 44
0.0
173
     0
291
     0
 45
0.0
1001
ACAD
1000
AcDbSavedByObjectVersion
1070
     0
  0
VISUALSTYLE
  5
630
102
{ACAD_REACTORS
330
30
102
}
102
{ACAD_XDICTIONARY
360
6B2
102
}
330
30
100
AcDbVisualStyle
  2
Shades of Gray
 70
    23
 71
     2
 72
     2
 73
     3
 90
        0
 40
0.6
 41
30.0
 62
     5
 63
     7
 74
     2
 91
        2
 64
     7
 65
     7
 75
     1
175
     1
 42
40.0
 92
        8
 66
     7
 43
1.0
 76
     1
 77
     6
 78
     2
 67
     7
 79
     3
170
     0
171
     0
290
     0
174
     0
 93
        1
 44
0.0
173
     0
291
     0
 45
0.0
1001
ACAD
1000
AcDbSavedByObjectVersion
1070
     0
  0
VISUALSTYLE
  5
631
102
{ACAD_REACTORS
330
30
102
}
102
{ACAD_XDICTIONARY
360
6B4
102
}
330
30
100
AcDbVisualStyle
  2
Sketchy
 70
    24
 71
     1
 72
     2
 73
     2
 90
        0
 40
0.6
 41
30.0
 62
     5
 63
     7
 74
     2
 91
        2
 64
     7
 65
     7
 75
     1
175
     1
 42
40.0
 92
       11
 66
     7
 43
1.0
 76
     1
 77
     6
 78
     2
 67
     7
 79
     6
170
     0
171
     0
290
     0
174
     0
 93
        1
 44
0.0
173
     0
291
     0
 45
0.0
1001
ACAD
1000
AcDbSavedByObjectVersion
1070
     0
  0
VISUALSTYLE
  5
629
102
{ACAD_REACTORS
330
30
102
}
102
{ACAD_XDICTIONARY
360
6A4
102
}
330
30
100
AcDbVisualStyle
  2
Thicken
 70
    13
 71
     2
 72
     2
 73
     0
 90
        0
 40
0.6
 41
30.0
 62
     5
 63
     7
 74
     1
 91
        4
 64
     7
 65
   257
 75
     1
175
     1
 42
1.0
 92
       12
 66
     7
 43
1.0
 76
     1
 77
     6
 78
     2
 67
     7
 79
     5
170
     0
171
     0
290
     0
174
     0
 93
        1
 44
0.0
173
     0
291
     1
 45
0.0
1001
ACAD
1000
AcDbSavedByObjectVersion
1070
     0
  0
VISUALSTYLE
  5
32
102
{ACAD_REACTORS
330
30
102
}
102
{ACAD_XDICTIONARY
360
68E
102
}
330
30
100
AcDbVisualStyle
  2
Wireframe
 70
     5
 71
     0
 72
     2
 73
     0
 90
        0
 40
0.6
 41
30.0
 62
     5
 63
     7
 74
     1
 91
        4
 64
     7
 65
   257
 75
     1
175
     1
 42
1.0
 92
        0
 66
   257
 43
1.0
 76
     1
 77
     6
 78
     2
 67
     7
 79
     3
170
     0
171
     0
290
     0
174
     0
 93
        1
 44
0.0
173
     0
291
     0
 45
0.0
1001
ACAD
1000
AcDbSavedByObjectVersion
1070
     0
  0
VISUALSTYLE
  5
632
102
{ACAD_REACTORS
330
30
102
}
102
{ACAD_XDICTIONARY
360
6B6
102
}
330
30
100
AcDbVisualStyle
  2
X-Ray
 70
    25
 71
     2
 72
     2
 73
     1
 90
        1
 40
0.5
 41
30.0
 62
     5
 63
     7
 74
     1
 91
        0
 64
     7
 65
   257
 75
     1
175
     1
 42
1.0
 92
        8
 66
     7
 43
1.0
 76
     1
 77
     6
 78
     2
 67
     7
 79
     3
170
     0
171
     0
290
     0
174
     0
 93
       13
 44
0.0
173
     0
291
     0
 45
0.0
1001
ACAD
1000
AcDbSavedByObjectVersion
1070
     0
  0
XRECORD
  5
680
102
{ACAD_REACTORS
330
67F
102
}
330
67F
100
AcDbXrecord
280
     1
340
2F
  0
XRECORD
  5
681
102
{ACAD_REACTORS
330
67F
102
}
330
67F
100
AcDbXrecord
280
     1
340
B
  0
DICTIONARYVAR
  5
61B
102
{ACAD_REACTORS
330
61A
102
}
330
61A
100
DictionaryVariables
280
     0
  1
1:1
  0
DICTIONARYVAR
  5
63B
102
{ACAD_REACTORS
330
61A
102
}
330
61A
100
DictionaryVariables
280
     0
  1
Standard
  0
DICTIONARYVAR
  5
63E
102
{ACAD_REACTORS
330
61A
102
}
330
61A
100
DictionaryVariables
280
     0
  1
Standard
  0
DICTIONARYVAR
  5
67D
102
{ACAD_REACTORS
330
61A
102
}
330
61A
100
DictionaryVariables
280
     0
  1
0
  0
DICTIONARYVAR
  5
67E
102
{ACAD_REACTORS
330
61A
102
}
330
61A
100
DictionaryVariables
280
     0
  1
1
  0
DICTIONARYVAR
  5
685
102
{ACAD_REACTORS
330
61A
102
}
330
61A
100
DictionaryVariables
280
     0
  1
1
  0
DICTIONARY
  5
23
330
21
100
AcDbDictionary
280
     1
281
     1
  0
DICTIONARY
  5
68A
330
6B
100
AcDbDictionary
280
     1
281
     1
  3
ACAD_XREC_ROUNDTRIP
360
68B
  0
DICTIONARY
  5
686
330
12
100
AcDbDictionary
280
     1
281
     1
  3
ACAD_XREC_ROUNDTRIP
360
687
  0
DICTIONARY
  5
688
330
A
100
AcDbDictionary
280
     1
281
     1
  3
ACAD_XREC_ROUNDTRIP
360
689
  0
DICTIONARY
  5
6BC
330
635
100
AcDbDictionary
280
     1
281
     1
  3
ACAD_XREC_ROUNDTRIP
360
6BD
  0
DICTIONARY
  5
690
330
35
100
AcDbDictionary
280
     1
281
     1
  3
ACAD_XREC_ROUNDTRIP
360
691
  0
DICTIONARY
  5
69C
330
625
100
AcDbDictionary
280
     1
281
     1
  3
ACAD_XREC_ROUNDTRIP
360
69D
  0
DICTIONARY
  5
6A2
330
628
100
AcDbDictionary
280
     1
281
     1
  3
ACAD_XREC_ROUNDTRIP
360
6A3
  0
DICTIONARY
  5
6AA
330
62C
100
AcDbDictionary
280
     1
281
     1
  3
ACAD_XREC_ROUNDTRIP
360
6AB
  0
DICTIONARY
  5
69E
330
626
100
AcDbDictionary
280
     1
281
     1
  3
ACAD_XREC_ROUNDTRIP
360
69F
  0
DICTIONARY
  5
6A0
330
627
100
AcDbDictionary
280
     1
281
     1
  3
ACAD_XREC_ROUNDTRIP
360
6A1
  0
DICTIONARY
  5
6B0
330
62F
100
AcDbDictionary
280
     1
281
     1
  3
ACAD_XREC_ROUNDTRIP
360
6B1
  0
DICTIONARY
  5
6A8
330
62B
100
AcDbDictionary
280
     1
281
     1
  3
ACAD_XREC_ROUNDTRIP
360
6A9
  0
DICTIONARY
  5
692
330
620
100
AcDbDictionary
280
     1
281
     1
  3
ACAD_XREC_ROUNDTRIP
360
693
  0
DICTIONARY
  5
694
330
621
100
AcDbDictionary
280
     1
281
     1
  3
ACAD_XREC_ROUNDTRIP
360
695
  0
DICTIONARY
  5
696
330
622
100
AcDbDictionary
280
     1
281
     1
  3
ACAD_XREC_ROUNDTRIP
360
697
  0
DICTIONARY
  5
698
330
623
100
AcDbDictionary
280
     1
281
     1
  3
ACAD_XREC_ROUNDTRIP
360
699
  0
DICTIONARY
  5
69A
330
624
100
AcDbDictionary
280
     1
281
     1
  3
ACAD_XREC_ROUNDTRIP
360
69B
  0
DICTIONARY
  5
6AC
330
62D
100
AcDbDictionary
280
     1
281
     1
  3
ACAD_XREC_ROUNDTRIP
360
6AD
  0
DICTIONARY
  5
6A6
330
62A
100
AcDbDictionary
280
     1
281
     1
  3
ACAD_XREC_ROUNDTRIP
360
6A7
  0
DICTIONARY
  5
6AE
330
62E
100
AcDbDictionary
280
     1
281
     1
  3
ACAD_XREC_ROUNDTRIP
360
6AF
  0
DICTIONARY
  5
68C
330
31
100
AcDbDictionary
280
     1
281
     1
  3
ACAD_XREC_ROUNDTRIP
360
68D
  0
DICTIONARY
  5
6BA
330
634
100
AcDbDictionary
280
     1
281
     1
  3
ACAD_XREC_ROUNDTRIP
360
6BB
  0
DICTIONARY
  5
6B8
330
633
100
AcDbDictionary
280
     1
281
     1
  3
ACAD_XREC_ROUNDTRIP
360
6B9
  0
DICTIONARY
  5
6B2
330
630
100
AcDbDictionary
280
     1
281
     1
  3
ACAD_XREC_ROUNDTRIP
360
6B3
  0
DICTIONARY
  5
6B4
330
631
100
AcDbDictionary
280
     1
281
     1
  3
ACAD_XREC_ROUNDTRIP
360
6B5
  0
DICTIONARY
  5
6A4
330
629
100
AcDbDictionary
280
     1
281
     1
  3
ACAD_XREC_ROUNDTRIP
360
6A5
  0
DICTIONARY
  5
68E
330
32
100
AcDbDictionary
280
     1
281
     1
  3
ACAD_XREC_ROUNDTRIP
360
68F
  0
DICTIONARY
  5
6B6
330
632
100
AcDbDictionary
280
     1
281
     1
  3
ACAD_XREC_ROUNDTRIP
360
6B7
  0
XRECORD
  5
68B
102
{ACAD_REACTORS
330
68A
102
}
330
68A
100
AcDbXrecord
280
     1
102
MATERIAL
148
0.0
149
0.0
149
0.0
 93
        0
 94
      127
282
     0
 72
     0
 77
     0
171
     0
175
     0
179
     0
273
     0
  0
XRECORD
  5
687
102
{ACAD_REACTORS
330
686
102
}
330
686
100
AcDbXrecord
280
     1
102
MATERIAL
148
0.0
149
0.0
149
0.0
 93
        0
 94
      127
282
     0
 72
     0
 77
     0
171
     0
175
     0
179
     0
273
     0
  0
XRECORD
  5
689
102
{ACAD_REACTORS
330
688
102
}
330
688
100
AcDbXrecord
280
     1
102
MATERIAL
148
0.0
149
0.0
149
0.0
 93
        0
 94
      127
282
     0
 72
     0
 77
     0
171
     0
175
     0
179
     0
273
     0
  0
XRECORD
  5
6BD
102
{ACAD_REACTORS
330
6BC
102
}
330
6BC
100
AcDbXrecord
280
     1
102
ACAD_ROUNDTRIP_2010_MLEADER_STYLE
  0
XRECORD
  5
691
102
{ACAD_REACTORS
330
690
102
}
330
690
100
AcDbXrecord
280
     1
102
RTVSPropertyOp0
 70
     1
102
RTVSPropertyOp1
 70
     1
102
RTVSPropertyOp2
 70
     1
102
RTVSPropertyOp3
 70
     1
102
RTVSPropertyOp4
 70
     1
102
RTVSPropertyOp5
 70
     1
102
RTVSPropertyOp6
 70
     1
102
RTVSPropertyOp7
 70
     1
102
RTVSPropertyOp8
 70
     1
102
RTVSPropertyOp9
 70
     1
102
RTVSPropertyOp10
 70
     1
102
RTVSPropertyOp11
 70
     1
102
RTVSPropertyOp12
 70
     1
102
RTVSPropertyOp13
 70
     1
102
RTVSPropertyOp14
 70
     1
102
RTVSPropertyOp15
 70
     1
102
RTVSPropertyOp16
 70
     1
102
RTVSPropertyOp17
 70
     1
102
RTVSPropertyOp18
 70
     1
102
RTVSPropertyOp19
 70
     1
102
RTVSPropertyOp20
 70
     1
102
RTVSPropertyOp21
 70
     1
102
RTVSPropertyOp22
 70
     1
102
RTVSPropertyOp23
 70
     1
102
RTVSPropertyOp24
 70
     1
102
RTVSPropertyOp25
 70
     1
102
RTVSPropertyOp26
 70
     1
102
RTVSPropertyOp27
 70
     1
102
RTVSPropertyOp28
 70
     1
102
RTVSPropertyOp29
 70
     1
102
RTVSPropertyOp30
 70
     1
102
RTVSPropertyOp31
 70
     1
102
RTVSPropertyOp32
 70
     1
102
RTVSPropertyOp33
 70
     1
102
RTVSPropertyOp34
 70
     1
102
RTVSPropertyOp35
 70
     1
102
RTVSPropertyOp36
 70
     1
102
RTVSPropertyOp37
 70
     1
102
RTVSPropertyOp38
 70
     1
102
RTVSPropertyOp39
 70
     1
102
RTVSPropertyOp40
 70
     1
102
RTVSPropertyOp41
 70
     1
102
RTVSPropertyOp42
 70
     1
102
RTVSPropertyOp43
 70
     1
102
RTVSPropertyOp44
 70
     1
102
RTVSPropertyOp45
 70
     1
102
RTVSPropertyOp46
 70
     1
102
RTVSPropertyOp47
 70
     1
102
RTVSPropertyOp48
 70
     1
102
RTVSPropertyOp49
 70
     1
102
RTVSPropertyOp50
 70
     1
102
RTVSPropertyOp51
 70
     0
102
RTVSPropertyOp52
 70
     0
102
RTVSPropertyOp53
 70
     1
102
RTVSPropertyOp54
 70
     1
102
RTVSPropertyOp55
 70
     1
102
RTVSPropertyOp56
 70
     1
102
RTVSPropertyOp57
 70
     1
102
RTVSPost2010Prop28
280
     1
102
RTVSPost2010PropOp28
 70
     1
102
RTVSPost2010Prop29
280
     1
102
RTVSPost2010PropOp29
 70
     1
102
RTVSPost2010Prop30
280
     0
102
RTVSPost2010PropOp30
 70
     1
102
RTVSPost2010Prop31
280
     0
102
RTVSPost2010PropOp31
 70
     1
102
RTVSPost2010Prop32
280
     0
102
RTVSPost2010PropOp32
 70
     1
102
RTVSPost2010Prop33
280
     0
102
RTVSPost2010PropOp33
 70
     1
102
RTVSPost2010Prop34
280
     0
102
RTVSPost2010PropOp34
 70
     1
102
RTVSPost2010Prop35
280
     0
102
RTVSPost2010PropOp35
 70
     1
102
RTVSPost2010Prop36
280
     0
102
RTVSPost2010PropOp36
 70
     1
102
RTVSPost2010Prop37
 90
       50
102
RTVSPost2010PropOp37
 70
     1
102
RTVSPost2010Prop38
140
0.0
102
RTVSPost2010PropOp38
 70
     1
102
RTVSPost2010Prop39
140
1.0
102
RTVSPost2010PropOp39
 70
     1
102
RTVSPost2010Prop40
 90
        0
102
RTVSPost2010PropOp40
 70
     1
102
RTVSPost2010Prop41ColorIndex
 90
       18
102
RTVSPost2010Prop41ColorRGB
 90
        0
102
RTVSPost2010PropOp41
 70
     1
102
RTVSPost2010Prop42
 90
       50
102
RTVSPost2010PropOp42
 70
     1
102
RTVSPost2010Prop43
 90
        3
102
RTVSPost2010PropOp43
 70
     1
102
RTVSPost2010Prop44ColorIndex
 90
        5
102
RTVSPost2010Prop44ColorRGB
 90
      255
102
RTVSPost2010PropOp44
 70
     1
102
RTVSPost2010Prop45
280
     0
102
RTVSPost2010PropOp45
 70
     1
102
RTVSPost2010Prop46
 90
       50
102
RTVSPost2010PropOp46
 70
     1
102
RTVSPost2010Prop47
 90
       50
102
RTVSPost2010PropOp47
 70
     1
102
RTVSPost2010Prop48
 90
       50
102
RTVSPost2010PropOp48
 70
     1
102
RTVSPost2010Prop49
280
     0
102
RTVSPost2010PropOp49
 70
     1
102
RTVSPost2010Prop50
 90
       50
102
RTVSPost2010PropOp50
 70
     1
102
RTVSPost2010Prop51ColorIndex
 90
      256
102
RTVSPost2010Prop51ColorRGB
 90
-16777216
102
RTVSPost2010PropOp51
 70
     0
102
RTVSPost2010Prop52
140
1.0
102
RTVSPost2010PropOp52
 70
     0
102
RTVSPost2010Prop53
 90
        2
102
RTVSPost2010PropOp53
 70
     1
102
RTVSPost2010Prop54
  1
strokes_ogs.tif
102
RTVSPost2010PropOp54
 70
     1
102
RTVSPost2010Prop55
280
     0
102
RTVSPost2010PropOp55
 70
     1
102
RTVSPost2010Prop56
140
1.0
102
RTVSPost2010PropOp56
 70
     1
102
RTVSPost2010Prop57
140
1.0
102
RTVSPost2010PropOp57
 70
     1
  0
XRECORD
  5
69D
102
{ACAD_REACTORS
330
69C
102
}
330
69C
100
AcDbXrecord
280
     1
102
RTVSPropertyOp0
 70
     1
102
RTVSPropertyOp1
 70
     1
102
RTVSPropertyOp2
 70
     1
102
RTVSPropertyOp3
 70
     1
102
RTVSPropertyOp4
 70
     1
102
RTVSPropertyOp5
 70
     1
102
RTVSPropertyOp6
 70
     1
102
RTVSPropertyOp7
 70
     1
102
RTVSPropertyOp8
 70
     1
102
RTVSPropertyOp9
 70
     1
102
RTVSPropertyOp10
 70
     1
102
RTVSPropertyOp11
 70
     1
102
RTVSPropertyOp12
 70
     1
102
RTVSPropertyOp13
 70
     1
102
RTVSPropertyOp14
 70
     1
102
RTVSPropertyOp15
 70
     1
102
RTVSPropertyOp16
 70
     1
102
RTVSPropertyOp17
 70
     1
102
RTVSPropertyOp18
 70
     1
102
RTVSPropertyOp19
 70
     1
102
RTVSPropertyOp20
 70
     1
102
RTVSPropertyOp21
 70
     1
102
RTVSPropertyOp22
 70
     1
102
RTVSPropertyOp23
 70
     1
102
RTVSPropertyOp24
 70
     1
102
RTVSPropertyOp25
 70
     1
102
RTVSPropertyOp26
 70
     1
102
RTVSPropertyOp27
 70
     1
102
RTVSPropertyOp28
 70
     1
102
RTVSPropertyOp29
 70
     1
102
RTVSPropertyOp30
 70
     1
102
RTVSPropertyOp31
 70
     1
102
RTVSPropertyOp32
 70
     1
102
RTVSPropertyOp33
 70
     1
102
RTVSPropertyOp34
 70
     1
102
RTVSPropertyOp35
 70
     1
102
RTVSPropertyOp36
 70
     1
102
RTVSPropertyOp37
 70
     1
102
RTVSPropertyOp38
 70
     1
102
RTVSPropertyOp39
 70
     1
102
RTVSPropertyOp40
 70
     1
102
RTVSPropertyOp41
 70
     1
102
RTVSPropertyOp42
 70
     1
102
RTVSPropertyOp43
 70
     1
102
RTVSPropertyOp44
 70
     1
102
RTVSPropertyOp45
 70
     1
102
RTVSPropertyOp46
 70
     1
102
RTVSPropertyOp47
 70
     1
102
RTVSPropertyOp48
 70
     1
102
RTVSPropertyOp49
 70
     1
102
RTVSPropertyOp50
 70
     1
102
RTVSPropertyOp51
 70
     0
102
RTVSPropertyOp52
 70
     0
102
RTVSPropertyOp53
 70
     1
102
RTVSPropertyOp54
 70
     1
102
RTVSPropertyOp55
 70
     1
102
RTVSPropertyOp56
 70
     1
102
RTVSPropertyOp57
 70
     1
102
RTVSPost2010Prop28
280
     0
102
RTVSPost2010PropOp28
 70
     1
102
RTVSPost2010Prop29
280
     1
102
RTVSPost2010PropOp29
 70
     1
102
RTVSPost2010Prop30
280
     1
102
RTVSPost2010PropOp30
 70
     1
102
RTVSPost2010Prop31
280
     0
102
RTVSPost2010PropOp31
 70
     1
102
RTVSPost2010Prop32
280
     0
102
RTVSPost2010PropOp32
 70
     1
102
RTVSPost2010Prop33
280
     0
102
RTVSPost2010PropOp33
 70
     1
102
RTVSPost2010Prop34
280
     0
102
RTVSPost2010PropOp34
 70
     1
102
RTVSPost2010Prop35
280
     0
102
RTVSPost2010PropOp35
 70
     1
102
RTVSPost2010Prop36
280
     0
102
RTVSPost2010PropOp36
 70
     1
102
RTVSPost2010Prop37
 90
       50
102
RTVSPost2010PropOp37
 70
     1
102
RTVSPost2010Prop38
140
0.0
102
RTVSPost2010PropOp38
 70
     1
102
RTVSPost2010Prop39
140
1.0
102
RTVSPost2010PropOp39
 70
     1
102
RTVSPost2010Prop40
 90
        0
102
RTVSPost2010PropOp40
 70
     1
102
RTVSPost2010Prop41ColorIndex
 90
       18
102
RTVSPost2010Prop41ColorRGB
 90
        0
102
RTVSPost2010PropOp41
 70
     1
102
RTVSPost2010Prop42
 90
       50
102
RTVSPost2010PropOp42
 70
     1
102
RTVSPost2010Prop43
 90
        3
102
RTVSPost2010PropOp43
 70
     1
102
RTVSPost2010Prop44ColorIndex
 90
        5
102
RTVSPost2010Prop44ColorRGB
 90
      255
102
RTVSPost2010PropOp44
 70
     1
102
RTVSPost2010Prop45
280
     0
102
RTVSPost2010PropOp45
 70
     1
102
RTVSPost2010Prop46
 90
       50
102
RTVSPost2010PropOp46
 70
     1
102
RTVSPost2010Prop47
 90
       50
102
RTVSPost2010PropOp47
 70
     1
102
RTVSPost2010Prop48
 90
       50
102
RTVSPost2010PropOp48
 70
     1
102
RTVSPost2010Prop49
280
     0
102
RTVSPost2010PropOp49
 70
     1
102
RTVSPost2010Prop50
 90
       50
102
RTVSPost2010PropOp50
 70
     1
102
RTVSPost2010Prop51ColorIndex
 90
      256
102
RTVSPost2010Prop51ColorRGB
 90
-16777216
102
RTVSPost2010PropOp51
 70
     0
102
RTVSPost2010Prop52
140
1.0
102
RTVSPost2010PropOp52
 70
     0
102
RTVSPost2010Prop53
 90
        2
102
RTVSPost2010PropOp53
 70
     1
102
RTVSPost2010Prop54
  1
strokes_ogs.tif
102
RTVSPost2010PropOp54
 70
     1
102
RTVSPost2010Prop55
280
     0
102
RTVSPost2010PropOp55
 70
     1
102
RTVSPost2010Prop56
140
1.0
102
RTVSPost2010PropOp56
 70
     1
102
RTVSPost2010Prop57
140
1.0
102
RTVSPost2010PropOp57
 70
     1
  0
XRECORD
  5
6A3
102
{ACAD_REACTORS
330
6A2
102
}
330
6A2
100
AcDbXrecord
280
     1
102
RTVSPropertyOp0
 70
     1
102
RTVSPropertyOp1
 70
     1
102
RTVSPropertyOp2
 70
     1
102
RTVSPropertyOp3
 70
     1
102
RTVSPropertyOp4
 70
     1
102
RTVSPropertyOp5
 70
     1
102
RTVSPropertyOp6
 70
     1
102
RTVSPropertyOp7
 70
     1
102
RTVSPropertyOp8
 70
     1
102
RTVSPropertyOp9
 70
     1
102
RTVSPropertyOp10
 70
     1
102
RTVSPropertyOp11
 70
     1
102
RTVSPropertyOp12
 70
     1
102
RTVSPropertyOp13
 70
     1
102
RTVSPropertyOp14
 70
     1
102
RTVSPropertyOp15
 70
     1
102
RTVSPropertyOp16
 70
     1
102
RTVSPropertyOp17
 70
     1
102
RTVSPropertyOp18
 70
     1
102
RTVSPropertyOp19
 70
     1
102
RTVSPropertyOp20
 70
     1
102
RTVSPropertyOp21
 70
     1
102
RTVSPropertyOp22
 70
     1
102
RTVSPropertyOp23
 70
     1
102
RTVSPropertyOp24
 70
     1
102
RTVSPropertyOp25
 70
     1
102
RTVSPropertyOp26
 70
     1
102
RTVSPropertyOp27
 70
     1
102
RTVSPropertyOp28
 70
     1
102
RTVSPropertyOp29
 70
     1
102
RTVSPropertyOp30
 70
     1
102
RTVSPropertyOp31
 70
     1
102
RTVSPropertyOp32
 70
     1
102
RTVSPropertyOp33
 70
     1
102
RTVSPropertyOp34
 70
     1
102
RTVSPropertyOp35
 70
     1
102
RTVSPropertyOp36
 70
     1
102
RTVSPropertyOp37
 70
     1
102
RTVSPropertyOp38
 70
     1
102
RTVSPropertyOp39
 70
     1
102
RTVSPropertyOp40
 70
     1
102
RTVSPropertyOp41
 70
     1
102
RTVSPropertyOp42
 70
     1
102
RTVSPropertyOp43
 70
     1
102
RTVSPropertyOp44
 70
     1
102
RTVSPropertyOp45
 70
     1
102
RTVSPropertyOp46
 70
     1
102
RTVSPropertyOp47
 70
     1
102
RTVSPropertyOp48
 70
     1
102
RTVSPropertyOp49
 70
     1
102
RTVSPropertyOp50
 70
     1
102
RTVSPropertyOp51
 70
     0
102
RTVSPropertyOp52
 70
     0
102
RTVSPropertyOp53
 70
     1
102
RTVSPropertyOp54
 70
     1
102
RTVSPropertyOp55
 70
     1
102
RTVSPropertyOp56
 70
     1
102
RTVSPropertyOp57
 70
     1
102
RTVSPost2010Prop28
280
     0
102
RTVSPost2010PropOp28
 70
     1
102
RTVSPost2010Prop29
280
     1
102
RTVSPost2010PropOp29
 70
     1
102
RTVSPost2010Prop30
280
     1
102
RTVSPost2010PropOp30
 70
     1
102
RTVSPost2010Prop31
280
     0
102
RTVSPost2010PropOp31
 70
     1
102
RTVSPost2010Prop32
280
     0
102
RTVSPost2010PropOp32
 70
     1
102
RTVSPost2010Prop33
280
     0
102
RTVSPost2010PropOp33
 70
     1
102
RTVSPost2010Prop34
280
     0
102
RTVSPost2010PropOp34
 70
     1
102
RTVSPost2010Prop35
280
     0
102
RTVSPost2010PropOp35
 70
     1
102
RTVSPost2010Prop36
280
     0
102
RTVSPost2010PropOp36
 70
     1
102
RTVSPost2010Prop37
 90
       50
102
RTVSPost2010PropOp37
 70
     1
102
RTVSPost2010Prop38
140
0.0
102
RTVSPost2010PropOp38
 70
     1
102
RTVSPost2010Prop39
140
1.0
102
RTVSPost2010PropOp39
 70
     1
102
RTVSPost2010Prop40
 90
        0
102
RTVSPost2010PropOp40
 70
     1
102
RTVSPost2010Prop41ColorIndex
 90
       18
102
RTVSPost2010Prop41ColorRGB
 90
        0
102
RTVSPost2010PropOp41
 70
     1
102
RTVSPost2010Prop42
 90
       50
102
RTVSPost2010PropOp42
 70
     1
102
RTVSPost2010Prop43
 90
        3
102
RTVSPost2010PropOp43
 70
     1
102
RTVSPost2010Prop44ColorIndex
 90
        5
102
RTVSPost2010Prop44ColorRGB
 90
      255
102
RTVSPost2010PropOp44
 70
     1
102
RTVSPost2010Prop45
280
     0
102
RTVSPost2010PropOp45
 70
     1
102
RTVSPost2010Prop46
 90
       50
102
RTVSPost2010PropOp46
 70
     1
102
RTVSPost2010Prop47
 90
       50
102
RTVSPost2010PropOp47
 70
     1
102
RTVSPost2010Prop48
 90
       50
102
RTVSPost2010PropOp48
 70
     1
102
RTVSPost2010Prop49
280
     0
102
RTVSPost2010PropOp49
 70
     1
102
RTVSPost2010Prop50
 90
       50
102
RTVSPost2010PropOp50
 70
     1
102
RTVSPost2010Prop51ColorIndex
 90
      256
102
RTVSPost2010Prop51ColorRGB
 90
-16777216
102
RTVSPost2010PropOp51
 70
     0
102
RTVSPost2010Prop52
140
1.0
102
RTVSPost2010PropOp52
 70
     0
102
RTVSPost2010Prop53
 90
        2
102
RTVSPost2010PropOp53
 70
     1
102
RTVSPost2010Prop54
  1
strokes_ogs.tif
102
RTVSPost2010PropOp54
 70
     1
102
RTVSPost2010Prop55
280
     0
102
RTVSPost2010PropOp55
 70
     1
102
RTVSPost2010Prop56
140
1.0
102
RTVSPost2010PropOp56
 70
     1
102
RTVSPost2010Prop57
140
1.0
102
RTVSPost2010PropOp57
 70
     1
  0
XRECORD
  5
6AB
102
{ACAD_REACTORS
330
6AA
102
}
330
6AA
100
AcDbXrecord
280
     1
102
RTVSPropertyOp0
 70
     1
102
RTVSPropertyOp1
 70
     1
102
RTVSPropertyOp2
 70
     1
102
RTVSPropertyOp3
 70
     1
102
RTVSPropertyOp4
 70
     1
102
RTVSPropertyOp5
 70
     1
102
RTVSPropertyOp6
 70
     1
102
RTVSPropertyOp7
 70
     1
102
RTVSPropertyOp8
 70
     1
102
RTVSPropertyOp9
 70
     1
102
RTVSPropertyOp10
 70
     1
102
RTVSPropertyOp11
 70
     1
102
RTVSPropertyOp12
 70
     1
102
RTVSPropertyOp13
 70
     1
102
RTVSPropertyOp14
 70
     1
102
RTVSPropertyOp15
 70
     1
102
RTVSPropertyOp16
 70
     1
102
RTVSPropertyOp17
 70
     1
102
RTVSPropertyOp18
 70
     1
102
RTVSPropertyOp19
 70
     1
102
RTVSPropertyOp20
 70
     1
102
RTVSPropertyOp21
 70
     1
102
RTVSPropertyOp22
 70
     1
102
RTVSPropertyOp23
 70
     1
102
RTVSPropertyOp24
 70
     1
102
RTVSPropertyOp25
 70
     1
102
RTVSPropertyOp26
 70
     1
102
RTVSPropertyOp27
 70
     1
102
RTVSPropertyOp28
 70
     1
102
RTVSPropertyOp29
 70
     1
102
RTVSPropertyOp30
 70
     1
102
RTVSPropertyOp31
 70
     1
102
RTVSPropertyOp32
 70
     1
102
RTVSPropertyOp33
 70
     1
102
RTVSPropertyOp34
 70
     1
102
RTVSPropertyOp35
 70
     1
102
RTVSPropertyOp36
 70
     1
102
RTVSPropertyOp37
 70
     1
102
RTVSPropertyOp38
 70
     1
102
RTVSPropertyOp39
 70
     1
102
RTVSPropertyOp40
 70
     1
102
RTVSPropertyOp41
 70
     1
102
RTVSPropertyOp42
 70
     1
102
RTVSPropertyOp43
 70
     1
102
RTVSPropertyOp44
 70
     1
102
RTVSPropertyOp45
 70
     1
102
RTVSPropertyOp46
 70
     1
102
RTVSPropertyOp47
 70
     1
102
RTVSPropertyOp48
 70
     1
102
RTVSPropertyOp49
 70
     1
102
RTVSPropertyOp50
 70
     1
102
RTVSPropertyOp51
 70
     0
102
RTVSPropertyOp52
 70
     0
102
RTVSPropertyOp53
 70
     1
102
RTVSPropertyOp54
 70
     1
102
RTVSPropertyOp55
 70
     1
102
RTVSPropertyOp56
 70
     1
102
RTVSPropertyOp57
 70
     1
102
RTVSPost2010Prop28
280
     0
102
RTVSPost2010PropOp28
 70
     1
102
RTVSPost2010Prop29
280
     1
102
RTVSPost2010PropOp29
 70
     1
102
RTVSPost2010Prop30
280
     1
102
RTVSPost2010PropOp30
 70
     1
102
RTVSPost2010Prop31
280
     0
102
RTVSPost2010PropOp31
 70
     1
102
RTVSPost2010Prop32
280
     0
102
RTVSPost2010PropOp32
 70
     1
102
RTVSPost2010Prop33
280
     0
102
RTVSPost2010PropOp33
 70
     1
102
RTVSPost2010Prop34
280
     0
102
RTVSPost2010PropOp34
 70
     1
102
RTVSPost2010Prop35
280
     0
102
RTVSPost2010PropOp35
 70
     1
102
RTVSPost2010Prop36
280
     0
102
RTVSPost2010PropOp36
 70
     1
102
RTVSPost2010Prop37
 90
       50
102
RTVSPost2010PropOp37
 70
     1
102
RTVSPost2010Prop38
140
0.0
102
RTVSPost2010PropOp38
 70
     1
102
RTVSPost2010Prop39
140
1.0
102
RTVSPost2010PropOp39
 70
     1
102
RTVSPost2010Prop40
 90
        0
102
RTVSPost2010PropOp40
 70
     1
102
RTVSPost2010Prop41ColorIndex
 90
       18
102
RTVSPost2010Prop41ColorRGB
 90
        0
102
RTVSPost2010PropOp41
 70
     1
102
RTVSPost2010Prop42
 90
       50
102
RTVSPost2010PropOp42
 70
     1
102
RTVSPost2010Prop43
 90
        3
102
RTVSPost2010PropOp43
 70
     1
102
RTVSPost2010Prop44ColorIndex
 90
        5
102
RTVSPost2010Prop44ColorRGB
 90
      255
102
RTVSPost2010PropOp44
 70
     1
102
RTVSPost2010Prop45
280
     0
102
RTVSPost2010PropOp45
 70
     1
102
RTVSPost2010Prop46
 90
       50
102
RTVSPost2010PropOp46
 70
     1
102
RTVSPost2010Prop47
 90
       50
102
RTVSPost2010PropOp47
 70
     1
102
RTVSPost2010Prop48
 90
       50
102
RTVSPost2010PropOp48
 70
     1
102
RTVSPost2010Prop49
280
     0
102
RTVSPost2010PropOp49
 70
     1
102
RTVSPost2010Prop50
 90
       50
102
RTVSPost2010PropOp50
 70
     1
102
RTVSPost2010Prop51ColorIndex
 90
      256
102
RTVSPost2010Prop51ColorRGB
 90
-16777216
102
RTVSPost2010PropOp51
 70
     0
102
RTVSPost2010Prop52
140
1.0
102
RTVSPost2010PropOp52
 70
     0
102
RTVSPost2010Prop53
 90
        2
102
RTVSPost2010PropOp53
 70
     1
102
RTVSPost2010Prop54
  1
strokes_ogs.tif
102
RTVSPost2010PropOp54
 70
     1
102
RTVSPost2010Prop55
280
     0
102
RTVSPost2010PropOp55
 70
     1
102
RTVSPost2010Prop56
140
1.0
102
RTVSPost2010PropOp56
 70
     1
102
RTVSPost2010Prop57
140
1.0
102
RTVSPost2010PropOp57
 70
     1
  0
XRECORD
  5
69F
102
{ACAD_REACTORS
330
69E
102
}
330
69E
100
AcDbXrecord
280
     1
102
RTVSPropertyOp0
 70
     1
102
RTVSPropertyOp1
 70
     1
102
RTVSPropertyOp2
 70
     1
102
RTVSPropertyOp3
 70
     1
102
RTVSPropertyOp4
 70
     1
102
RTVSPropertyOp5
 70
     1
102
RTVSPropertyOp6
 70
     1
102
RTVSPropertyOp7
 70
     1
102
RTVSPropertyOp8
 70
     1
102
RTVSPropertyOp9
 70
     1
102
RTVSPropertyOp10
 70
     1
102
RTVSPropertyOp11
 70
     1
102
RTVSPropertyOp12
 70
     1
102
RTVSPropertyOp13
 70
     1
102
RTVSPropertyOp14
 70
     1
102
RTVSPropertyOp15
 70
     1
102
RTVSPropertyOp16
 70
     1
102
RTVSPropertyOp17
 70
     1
102
RTVSPropertyOp18
 70
     1
102
RTVSPropertyOp19
 70
     1
102
RTVSPropertyOp20
 70
     1
102
RTVSPropertyOp21
 70
     1
102
RTVSPropertyOp22
 70
     1
102
RTVSPropertyOp23
 70
     1
102
RTVSPropertyOp24
 70
     1
102
RTVSPropertyOp25
 70
     1
102
RTVSPropertyOp26
 70
     1
102
RTVSPropertyOp27
 70
     1
102
RTVSPropertyOp28
 70
     1
102
RTVSPropertyOp29
 70
     1
102
RTVSPropertyOp30
 70
     1
102
RTVSPropertyOp31
 70
     1
102
RTVSPropertyOp32
 70
     1
102
RTVSPropertyOp33
 70
     1
102
RTVSPropertyOp34
 70
     1
102
RTVSPropertyOp35
 70
     1
102
RTVSPropertyOp36
 70
     1
102
RTVSPropertyOp37
 70
     1
102
RTVSPropertyOp38
 70
     1
102
RTVSPropertyOp39
 70
     1
102
RTVSPropertyOp40
 70
     1
102
RTVSPropertyOp41
 70
     1
102
RTVSPropertyOp42
 70
     1
102
RTVSPropertyOp43
 70
     1
102
RTVSPropertyOp44
 70
     1
102
RTVSPropertyOp45
 70
     1
102
RTVSPropertyOp46
 70
     1
102
RTVSPropertyOp47
 70
     1
102
RTVSPropertyOp48
 70
     1
102
RTVSPropertyOp49
 70
     1
102
RTVSPropertyOp50
 70
     1
102
RTVSPropertyOp51
 70
     0
102
RTVSPropertyOp52
 70
     0
102
RTVSPropertyOp53
 70
     1
102
RTVSPropertyOp54
 70
     1
102
RTVSPropertyOp55
 70
     1
102
RTVSPropertyOp56
 70
     1
102
RTVSPropertyOp57
 70
     1
102
RTVSPost2010Prop28
280
     0
102
RTVSPost2010PropOp28
 70
     1
102
RTVSPost2010Prop29
280
     1
102
RTVSPost2010PropOp29
 70
     1
102
RTVSPost2010Prop30
280
     1
102
RTVSPost2010PropOp30
 70
     1
102
RTVSPost2010Prop31
280
     0
102
RTVSPost2010PropOp31
 70
     1
102
RTVSPost2010Prop32
280
     0
102
RTVSPost2010PropOp32
 70
     1
102
RTVSPost2010Prop33
280
     0
102
RTVSPost2010PropOp33
 70
     1
102
RTVSPost2010Prop34
280
     0
102
RTVSPost2010PropOp34
 70
     1
102
RTVSPost2010Prop35
280
     0
102
RTVSPost2010PropOp35
 70
     1
102
RTVSPost2010Prop36
280
     0
102
RTVSPost2010PropOp36
 70
     1
102
RTVSPost2010Prop37
 90
       50
102
RTVSPost2010PropOp37
 70
     1
102
RTVSPost2010Prop38
140
0.0
102
RTVSPost2010PropOp38
 70
     1
102
RTVSPost2010Prop39
140
1.0
102
RTVSPost2010PropOp39
 70
     1
102
RTVSPost2010Prop40
 90
        0
102
RTVSPost2010PropOp40
 70
     1
102
RTVSPost2010Prop41ColorIndex
 90
       18
102
RTVSPost2010Prop41ColorRGB
 90
        0
102
RTVSPost2010PropOp41
 70
     1
102
RTVSPost2010Prop42
 90
       50
102
RTVSPost2010PropOp42
 70
     1
102
RTVSPost2010Prop43
 90
        3
102
RTVSPost2010PropOp43
 70
     1
102
RTVSPost2010Prop44ColorIndex
 90
        5
102
RTVSPost2010Prop44ColorRGB
 90
      255
102
RTVSPost2010PropOp44
 70
     1
102
RTVSPost2010Prop45
280
     0
102
RTVSPost2010PropOp45
 70
     1
102
RTVSPost2010Prop46
 90
       50
102
RTVSPost2010PropOp46
 70
     1
102
RTVSPost2010Prop47
 90
       50
102
RTVSPost2010PropOp47
 70
     1
102
RTVSPost2010Prop48
 90
       50
102
RTVSPost2010PropOp48
 70
     1
102
RTVSPost2010Prop49
280
     0
102
RTVSPost2010PropOp49
 70
     1
102
RTVSPost2010Prop50
 90
       50
102
RTVSPost2010PropOp50
 70
     1
102
RTVSPost2010Prop51ColorIndex
 90
      256
102
RTVSPost2010Prop51ColorRGB
 90
-16777216
102
RTVSPost2010PropOp51
 70
     0
102
RTVSPost2010Prop52
140
1.0
102
RTVSPost2010PropOp52
 70
     0
102
RTVSPost2010Prop53
 90
        2
102
RTVSPost2010PropOp53
 70
     1
102
RTVSPost2010Prop54
  1
strokes_ogs.tif
102
RTVSPost2010PropOp54
 70
     1
102
RTVSPost2010Prop55
280
     0
102
RTVSPost2010PropOp55
 70
     1
102
RTVSPost2010Prop56
140
1.0
102
RTVSPost2010PropOp56
 70
     1
102
RTVSPost2010Prop57
140
1.0
102
RTVSPost2010PropOp57
 70
     1
  0
XRECORD
  5
6A1
102
{ACAD_REACTORS
330
6A0
102
}
330
6A0
100
AcDbXrecord
280
     1
102
RTVSPropertyOp0
 70
     1
102
RTVSPropertyOp1
 70
     1
102
RTVSPropertyOp2
 70
     1
102
RTVSPropertyOp3
 70
     1
102
RTVSPropertyOp4
 70
     1
102
RTVSPropertyOp5
 70
     1
102
RTVSPropertyOp6
 70
     1
102
RTVSPropertyOp7
 70
     1
102
RTVSPropertyOp8
 70
     1
102
RTVSPropertyOp9
 70
     1
102
RTVSPropertyOp10
 70
     1
102
RTVSPropertyOp11
 70
     1
102
RTVSPropertyOp12
 70
     1
102
RTVSPropertyOp13
 70
     1
102
RTVSPropertyOp14
 70
     1
102
RTVSPropertyOp15
 70
     1
102
RTVSPropertyOp16
 70
     1
102
RTVSPropertyOp17
 70
     1
102
RTVSPropertyOp18
 70
     1
102
RTVSPropertyOp19
 70
     1
102
RTVSPropertyOp20
 70
     1
102
RTVSPropertyOp21
 70
     1
102
RTVSPropertyOp22
 70
     1
102
RTVSPropertyOp23
 70
     1
102
RTVSPropertyOp24
 70
     1
102
RTVSPropertyOp25
 70
     1
102
RTVSPropertyOp26
 70
     1
102
RTVSPropertyOp27
 70
     1
102
RTVSPropertyOp28
 70
     1
102
RTVSPropertyOp29
 70
     1
102
RTVSPropertyOp30
 70
     1
102
RTVSPropertyOp31
 70
     1
102
RTVSPropertyOp32
 70
     1
102
RTVSPropertyOp33
 70
     1
102
RTVSPropertyOp34
 70
     1
102
RTVSPropertyOp35
 70
     1
102
RTVSPropertyOp36
 70
     1
102
RTVSPropertyOp37
 70
     1
102
RTVSPropertyOp38
 70
     1
102
RTVSPropertyOp39
 70
     1
102
RTVSPropertyOp40
 70
     1
102
RTVSPropertyOp41
 70
     1
102
RTVSPropertyOp42
 70
     1
102
RTVSPropertyOp43
 70
     1
102
RTVSPropertyOp44
 70
     1
102
RTVSPropertyOp45
 70
     1
102
RTVSPropertyOp46
 70
     1
102
RTVSPropertyOp47
 70
     1
102
RTVSPropertyOp48
 70
     1
102
RTVSPropertyOp49
 70
     1
102
RTVSPropertyOp50
 70
     1
102
RTVSPropertyOp51
 70
     0
102
RTVSPropertyOp52
 70
     0
102
RTVSPropertyOp53
 70
     1
102
RTVSPropertyOp54
 70
     1
102
RTVSPropertyOp55
 70
     1
102
RTVSPropertyOp56
 70
     1
102
RTVSPropertyOp57
 70
     1
102
RTVSPost2010Prop28
280
     0
102
RTVSPost2010PropOp28
 70
     1
102
RTVSPost2010Prop29
280
     1
102
RTVSPost2010PropOp29
 70
     1
102
RTVSPost2010Prop30
280
     1
102
RTVSPost2010PropOp30
 70
     1
102
RTVSPost2010Prop31
280
     0
102
RTVSPost2010PropOp31
 70
     1
102
RTVSPost2010Prop32
280
     0
102
RTVSPost2010PropOp32
 70
     1
102
RTVSPost2010Prop33
280
     0
102
RTVSPost2010PropOp33
 70
     1
102
RTVSPost2010Prop34
280
     0
102
RTVSPost2010PropOp34
 70
     1
102
RTVSPost2010Prop35
280
     0
102
RTVSPost2010PropOp35
 70
     1
102
RTVSPost2010Prop36
280
     0
102
RTVSPost2010PropOp36
 70
     1
102
RTVSPost2010Prop37
 90
       50
102
RTVSPost2010PropOp37
 70
     1
102
RTVSPost2010Prop38
140
0.0
102
RTVSPost2010PropOp38
 70
     1
102
RTVSPost2010Prop39
140
1.0
102
RTVSPost2010PropOp39
 70
     1
102
RTVSPost2010Prop40
 90
        0
102
RTVSPost2010PropOp40
 70
     1
102
RTVSPost2010Prop41ColorIndex
 90
       18
102
RTVSPost2010Prop41ColorRGB
 90
        0
102
RTVSPost2010PropOp41
 70
     1
102
RTVSPost2010Prop42
 90
       50
102
RTVSPost2010PropOp42
 70
     1
102
RTVSPost2010Prop43
 90
        3
102
RTVSPost2010PropOp43
 70
     1
102
RTVSPost2010Prop44ColorIndex
 90
        5
102
RTVSPost2010Prop44ColorRGB
 90
      255
102
RTVSPost2010PropOp44
 70
     1
102
RTVSPost2010Prop45
280
     0
102
RTVSPost2010PropOp45
 70
     1
102
RTVSPost2010Prop46
 90
       50
102
RTVSPost2010PropOp46
 70
     1
102
RTVSPost2010Prop47
 90
       50
102
RTVSPost2010PropOp47
 70
     1
102
RTVSPost2010Prop48
 90
       50
102
RTVSPost2010PropOp48
 70
     1
102
RTVSPost2010Prop49
280
     0
102
RTVSPost2010PropOp49
 70
     1
102
RTVSPost2010Prop50
 90
       50
102
RTVSPost2010PropOp50
 70
     1
102
RTVSPost2010Prop51ColorIndex
 90
      256
102
RTVSPost2010Prop51ColorRGB
 90
-16777216
102
RTVSPost2010PropOp51
 70
     0
102
RTVSPost2010Prop52
140
1.0
102
RTVSPost2010PropOp52
 70
     0
102
RTVSPost2010Prop53
 90
        2
102
RTVSPost2010PropOp53
 70
     1
102
RTVSPost2010Prop54
  1
strokes_ogs.tif
102
RTVSPost2010PropOp54
 70
     1
102
RTVSPost2010Prop55
280
     0
102
RTVSPost2010PropOp55
 70
     1
102
RTVSPost2010Prop56
140
1.0
102
RTVSPost2010PropOp56
 70
     1
102
RTVSPost2010Prop57
140
1.0
102
RTVSPost2010PropOp57
 70
     1
  0
XRECORD
  5
6B1
102
{ACAD_REACTORS
330
6B0
102
}
330
6B0
100
AcDbXrecord
280
     1
102
RTVSPropertyOp0
 70
     0
102
RTVSPropertyOp1
 70
     0
102
RTVSPropertyOp2
 70
     0
102
RTVSPropertyOp3
 70
     0
102
RTVSPropertyOp4
 70
     0
102
RTVSPropertyOp5
 70
     0
102
RTVSPropertyOp6
 70
     0
102
RTVSPropertyOp7
 70
     0
102
RTVSPropertyOp8
 70
     0
102
RTVSPropertyOp9
 70
     0
102
RTVSPropertyOp10
 70
     0
102
RTVSPropertyOp11
 70
     0
102
RTVSPropertyOp12
 70
     0
102
RTVSPropertyOp13
 70
     0
102
RTVSPropertyOp14
 70
     0
102
RTVSPropertyOp15
 70
     0
102
RTVSPropertyOp16
 70
     0
102
RTVSPropertyOp17
 70
     0
102
RTVSPropertyOp18
 70
     0
102
RTVSPropertyOp19
 70
     0
102
RTVSPropertyOp20
 70
     0
102
RTVSPropertyOp21
 70
     0
102
RTVSPropertyOp22
 70
     0
102
RTVSPropertyOp23
 70
     0
102
RTVSPropertyOp24
 70
     0
102
RTVSPropertyOp25
 70
     0
102
RTVSPropertyOp26
 70
     0
102
RTVSPropertyOp27
 70
     0
102
RTVSPropertyOp28
 70
     1
102
RTVSPropertyOp29
 70
     1
102
RTVSPropertyOp30
 70
     1
102
RTVSPropertyOp31
 70
     1
102
RTVSPropertyOp32
 70
     1
102
RTVSPropertyOp33
 70
     1
102
RTVSPropertyOp34
 70
     1
102
RTVSPropertyOp35
 70
     1
102
RTVSPropertyOp36
 70
     1
102
RTVSPropertyOp37
 70
     1
102
RTVSPropertyOp38
 70
     1
102
RTVSPropertyOp39
 70
     1
102
RTVSPropertyOp40
 70
     1
102
RTVSPropertyOp41
 70
     1
102
RTVSPropertyOp42
 70
     1
102
RTVSPropertyOp43
 70
     1
102
RTVSPropertyOp44
 70
     1
102
RTVSPropertyOp45
 70
     1
102
RTVSPropertyOp46
 70
     1
102
RTVSPropertyOp47
 70
     1
102
RTVSPropertyOp48
 70
     1
102
RTVSPropertyOp49
 70
     1
102
RTVSPropertyOp50
 70
     1
102
RTVSPropertyOp51
 70
     0
102
RTVSPropertyOp52
 70
     0
102
RTVSPropertyOp53
 70
     1
102
RTVSPropertyOp54
 70
     1
102
RTVSPropertyOp55
 70
     1
102
RTVSPropertyOp56
 70
     1
102
RTVSPropertyOp57
 70
     1
102
RTVSPost2010Prop28
280
     0
102
RTVSPost2010PropOp28
 70
     1
102
RTVSPost2010Prop29
280
     1
102
RTVSPost2010PropOp29
 70
     1
102
RTVSPost2010Prop30
280
     1
102
RTVSPost2010PropOp30
 70
     1
102
RTVSPost2010Prop31
280
     0
102
RTVSPost2010PropOp31
 70
     1
102
RTVSPost2010Prop32
280
     0
102
RTVSPost2010PropOp32
 70
     1
102
RTVSPost2010Prop33
280
     0
102
RTVSPost2010PropOp33
 70
     1
102
RTVSPost2010Prop34
280
     0
102
RTVSPost2010PropOp34
 70
     1
102
RTVSPost2010Prop35
280
     0
102
RTVSPost2010PropOp35
 70
     1
102
RTVSPost2010Prop36
280
     0
102
RTVSPost2010PropOp36
 70
     1
102
RTVSPost2010Prop37
 90
       50
102
RTVSPost2010PropOp37
 70
     1
102
RTVSPost2010Prop38
140
0.0
102
RTVSPost2010PropOp38
 70
     1
102
RTVSPost2010Prop39
140
1.0
102
RTVSPost2010PropOp39
 70
     1
102
RTVSPost2010Prop40
 90
        0
102
RTVSPost2010PropOp40
 70
     1
102
RTVSPost2010Prop41ColorIndex
 90
       18
102
RTVSPost2010Prop41ColorRGB
 90
        0
102
RTVSPost2010PropOp41
 70
     1
102
RTVSPost2010Prop42
 90
       50
102
RTVSPost2010PropOp42
 70
     1
102
RTVSPost2010Prop43
 90
        3
102
RTVSPost2010PropOp43
 70
     1
102
RTVSPost2010Prop44ColorIndex
 90
        5
102
RTVSPost2010Prop44ColorRGB
 90
      255
102
RTVSPost2010PropOp44
 70
     1
102
RTVSPost2010Prop45
280
     0
102
RTVSPost2010PropOp45
 70
     1
102
RTVSPost2010Prop46
 90
       50
102
RTVSPost2010PropOp46
 70
     1
102
RTVSPost2010Prop47
 90
       50
102
RTVSPost2010PropOp47
 70
     1
102
RTVSPost2010Prop48
 90
       50
102
RTVSPost2010PropOp48
 70
     1
102
RTVSPost2010Prop49
280
     0
102
RTVSPost2010PropOp49
 70
     1
102
RTVSPost2010Prop50
 90
       50
102
RTVSPost2010PropOp50
 70
     1
102
RTVSPost2010Prop51ColorIndex
 90
      256
102
RTVSPost2010Prop51ColorRGB
 90
-16777216
102
RTVSPost2010PropOp51
 70
     0
102
RTVSPost2010Prop52
140
1.0
102
RTVSPost2010PropOp52
 70
     0
102
RTVSPost2010Prop53
 90
        2
102
RTVSPost2010PropOp53
 70
     1
102
RTVSPost2010Prop54
  1
strokes_ogs.tif
102
RTVSPost2010PropOp54
 70
     1
102
RTVSPost2010Prop55
280
     0
102
RTVSPost2010PropOp55
 70
     1
102
RTVSPost2010Prop56
140
1.0
102
RTVSPost2010PropOp56
 70
     1
102
RTVSPost2010Prop57
140
1.0
102
RTVSPost2010PropOp57
 70
     1
  0
XRECORD
  5
6A9
102
{ACAD_REACTORS
330
6A8
102
}
330
6A8
100
AcDbXrecord
280
     1
102
RTVSPropertyOp0
 70
     1
102
RTVSPropertyOp1
 70
     1
102
RTVSPropertyOp2
 70
     1
102
RTVSPropertyOp3
 70
     1
102
RTVSPropertyOp4
 70
     1
102
RTVSPropertyOp5
 70
     1
102
RTVSPropertyOp6
 70
     1
102
RTVSPropertyOp7
 70
     1
102
RTVSPropertyOp8
 70
     1
102
RTVSPropertyOp9
 70
     1
102
RTVSPropertyOp10
 70
     1
102
RTVSPropertyOp11
 70
     1
102
RTVSPropertyOp12
 70
     1
102
RTVSPropertyOp13
 70
     1
102
RTVSPropertyOp14
 70
     1
102
RTVSPropertyOp15
 70
     1
102
RTVSPropertyOp16
 70
     1
102
RTVSPropertyOp17
 70
     1
102
RTVSPropertyOp18
 70
     1
102
RTVSPropertyOp19
 70
     1
102
RTVSPropertyOp20
 70
     1
102
RTVSPropertyOp21
 70
     1
102
RTVSPropertyOp22
 70
     1
102
RTVSPropertyOp23
 70
     1
102
RTVSPropertyOp24
 70
     1
102
RTVSPropertyOp25
 70
     1
102
RTVSPropertyOp26
 70
     1
102
RTVSPropertyOp27
 70
     1
102
RTVSPropertyOp28
 70
     1
102
RTVSPropertyOp29
 70
     1
102
RTVSPropertyOp30
 70
     1
102
RTVSPropertyOp31
 70
     1
102
RTVSPropertyOp32
 70
     1
102
RTVSPropertyOp33
 70
     1
102
RTVSPropertyOp34
 70
     1
102
RTVSPropertyOp35
 70
     1
102
RTVSPropertyOp36
 70
     1
102
RTVSPropertyOp37
 70
     1
102
RTVSPropertyOp38
 70
     1
102
RTVSPropertyOp39
 70
     1
102
RTVSPropertyOp40
 70
     1
102
RTVSPropertyOp41
 70
     1
102
RTVSPropertyOp42
 70
     1
102
RTVSPropertyOp43
 70
     1
102
RTVSPropertyOp44
 70
     1
102
RTVSPropertyOp45
 70
     1
102
RTVSPropertyOp46
 70
     1
102
RTVSPropertyOp47
 70
     1
102
RTVSPropertyOp48
 70
     1
102
RTVSPropertyOp49
 70
     1
102
RTVSPropertyOp50
 70
     1
102
RTVSPropertyOp51
 70
     0
102
RTVSPropertyOp52
 70
     0
102
RTVSPropertyOp53
 70
     1
102
RTVSPropertyOp54
 70
     1
102
RTVSPropertyOp55
 70
     1
102
RTVSPropertyOp56
 70
     1
102
RTVSPropertyOp57
 70
     1
102
RTVSPost2010Prop28
280
     0
102
RTVSPost2010PropOp28
 70
     1
102
RTVSPost2010Prop29
280
     1
102
RTVSPost2010PropOp29
 70
     1
102
RTVSPost2010Prop30
280
     1
102
RTVSPost2010PropOp30
 70
     1
102
RTVSPost2010Prop31
280
     0
102
RTVSPost2010PropOp31
 70
     1
102
RTVSPost2010Prop32
280
     0
102
RTVSPost2010PropOp32
 70
     1
102
RTVSPost2010Prop33
280
     0
102
RTVSPost2010PropOp33
 70
     1
102
RTVSPost2010Prop34
280
     0
102
RTVSPost2010PropOp34
 70
     1
102
RTVSPost2010Prop35
280
     0
102
RTVSPost2010PropOp35
 70
     1
102
RTVSPost2010Prop36
280
     0
102
RTVSPost2010PropOp36
 70
     1
102
RTVSPost2010Prop37
 90
       50
102
RTVSPost2010PropOp37
 70
     1
102
RTVSPost2010Prop38
140
0.0
102
RTVSPost2010PropOp38
 70
     1
102
RTVSPost2010Prop39
140
1.0
102
RTVSPost2010PropOp39
 70
     1
102
RTVSPost2010Prop40
 90
        0
102
RTVSPost2010PropOp40
 70
     1
102
RTVSPost2010Prop41ColorIndex
 90
       18
102
RTVSPost2010Prop41ColorRGB
 90
        0
102
RTVSPost2010PropOp41
 70
     1
102
RTVSPost2010Prop42
 90
       50
102
RTVSPost2010PropOp42
 70
     1
102
RTVSPost2010Prop43
 90
        3
102
RTVSPost2010PropOp43
 70
     1
102
RTVSPost2010Prop44ColorIndex
 90
        5
102
RTVSPost2010Prop44ColorRGB
 90
      255
102
RTVSPost2010PropOp44
 70
     1
102
RTVSPost2010Prop45
280
     0
102
RTVSPost2010PropOp45
 70
     1
102
RTVSPost2010Prop46
 90
       50
102
RTVSPost2010PropOp46
 70
     1
102
RTVSPost2010Prop47
 90
       50
102
RTVSPost2010PropOp47
 70
     1
102
RTVSPost2010Prop48
 90
       50
102
RTVSPost2010PropOp48
 70
     1
102
RTVSPost2010Prop49
280
     0
102
RTVSPost2010PropOp49
 70
     1
102
RTVSPost2010Prop50
 90
       50
102
RTVSPost2010PropOp50
 70
     1
102
RTVSPost2010Prop51ColorIndex
 90
      256
102
RTVSPost2010Prop51ColorRGB
 90
-16777216
102
RTVSPost2010PropOp51
 70
     0
102
RTVSPost2010Prop52
140
1.0
102
RTVSPost2010PropOp52
 70
     0
102
RTVSPost2010Prop53
 90
        2
102
RTVSPost2010PropOp53
 70
     1
102
RTVSPost2010Prop54
  1
strokes_ogs.tif
102
RTVSPost2010PropOp54
 70
     1
102
RTVSPost2010Prop55
280
     0
102
RTVSPost2010PropOp55
 70
     1
102
RTVSPost2010Prop56
140
1.0
102
RTVSPost2010PropOp56
 70
     1
102
RTVSPost2010Prop57
140
1.0
102
RTVSPost2010PropOp57
 70
     1
  0
XRECORD
  5
693
102
{ACAD_REACTORS
330
692
102
}
330
692
100
AcDbXrecord
280
     1
102
RTVSPropertyOp0
 70
     1
102
RTVSPropertyOp1
 70
     1
102
RTVSPropertyOp2
 70
     1
102
RTVSPropertyOp3
 70
     1
102
RTVSPropertyOp4
 70
     1
102
RTVSPropertyOp5
 70
     1
102
RTVSPropertyOp6
 70
     1
102
RTVSPropertyOp7
 70
     1
102
RTVSPropertyOp8
 70
     1
102
RTVSPropertyOp9
 70
     1
102
RTVSPropertyOp10
 70
     1
102
RTVSPropertyOp11
 70
     1
102
RTVSPropertyOp12
 70
     1
102
RTVSPropertyOp13
 70
     1
102
RTVSPropertyOp14
 70
     1
102
RTVSPropertyOp15
 70
     1
102
RTVSPropertyOp16
 70
     1
102
RTVSPropertyOp17
 70
     1
102
RTVSPropertyOp18
 70
     1
102
RTVSPropertyOp19
 70
     1
102
RTVSPropertyOp20
 70
     1
102
RTVSPropertyOp21
 70
     1
102
RTVSPropertyOp22
 70
     1
102
RTVSPropertyOp23
 70
     1
102
RTVSPropertyOp24
 70
     1
102
RTVSPropertyOp25
 70
     1
102
RTVSPropertyOp26
 70
     1
102
RTVSPropertyOp27
 70
     1
102
RTVSPropertyOp28
 70
     1
102
RTVSPropertyOp29
 70
     1
102
RTVSPropertyOp30
 70
     1
102
RTVSPropertyOp31
 70
     1
102
RTVSPropertyOp32
 70
     1
102
RTVSPropertyOp33
 70
     1
102
RTVSPropertyOp34
 70
     1
102
RTVSPropertyOp35
 70
     1
102
RTVSPropertyOp36
 70
     1
102
RTVSPropertyOp37
 70
     1
102
RTVSPropertyOp38
 70
     1
102
RTVSPropertyOp39
 70
     1
102
RTVSPropertyOp40
 70
     1
102
RTVSPropertyOp41
 70
     1
102
RTVSPropertyOp42
 70
     1
102
RTVSPropertyOp43
 70
     1
102
RTVSPropertyOp44
 70
     1
102
RTVSPropertyOp45
 70
     1
102
RTVSPropertyOp46
 70
     1
102
RTVSPropertyOp47
 70
     1
102
RTVSPropertyOp48
 70
     1
102
RTVSPropertyOp49
 70
     1
102
RTVSPropertyOp50
 70
     1
102
RTVSPropertyOp51
 70
     0
102
RTVSPropertyOp52
 70
     0
102
RTVSPropertyOp53
 70
     1
102
RTVSPropertyOp54
 70
     1
102
RTVSPropertyOp55
 70
     1
102
RTVSPropertyOp56
 70
     1
102
RTVSPropertyOp57
 70
     1
102
RTVSPost2010Prop28
280
     0
102
RTVSPost2010PropOp28
 70
     1
102
RTVSPost2010Prop29
280
     1
102
RTVSPost2010PropOp29
 70
     1
102
RTVSPost2010Prop30
280
     1
102
RTVSPost2010PropOp30
 70
     1
102
RTVSPost2010Prop31
280
     0
102
RTVSPost2010PropOp31
 70
     1
102
RTVSPost2010Prop32
280
     0
102
RTVSPost2010PropOp32
 70
     1
102
RTVSPost2010Prop33
280
     0
102
RTVSPost2010PropOp33
 70
     1
102
RTVSPost2010Prop34
280
     0
102
RTVSPost2010PropOp34
 70
     1
102
RTVSPost2010Prop35
280
     0
102
RTVSPost2010PropOp35
 70
     1
102
RTVSPost2010Prop36
280
     0
102
RTVSPost2010PropOp36
 70
     1
102
RTVSPost2010Prop37
 90
       50
102
RTVSPost2010PropOp37
 70
     1
102
RTVSPost2010Prop38
140
0.0
102
RTVSPost2010PropOp38
 70
     1
102
RTVSPost2010Prop39
140
1.0
102
RTVSPost2010PropOp39
 70
     1
102
RTVSPost2010Prop40
 90
        0
102
RTVSPost2010PropOp40
 70
     1
102
RTVSPost2010Prop41ColorIndex
 90
       18
102
RTVSPost2010Prop41ColorRGB
 90
        0
102
RTVSPost2010PropOp41
 70
     1
102
RTVSPost2010Prop42
 90
       50
102
RTVSPost2010PropOp42
 70
     1
102
RTVSPost2010Prop43
 90
        3
102
RTVSPost2010PropOp43
 70
     1
102
RTVSPost2010Prop44ColorIndex
 90
        5
102
RTVSPost2010Prop44ColorRGB
 90
      255
102
RTVSPost2010PropOp44
 70
     1
102
RTVSPost2010Prop45
280
     0
102
RTVSPost2010PropOp45
 70
     1
102
RTVSPost2010Prop46
 90
       50
102
RTVSPost2010PropOp46
 70
     1
102
RTVSPost2010Prop47
 90
       50
102
RTVSPost2010PropOp47
 70
     1
102
RTVSPost2010Prop48
 90
       50
102
RTVSPost2010PropOp48
 70
     1
102
RTVSPost2010Prop49
280
     0
102
RTVSPost2010PropOp49
 70
     1
102
RTVSPost2010Prop50
 90
       50
102
RTVSPost2010PropOp50
 70
     1
102
RTVSPost2010Prop51ColorIndex
 90
      256
102
RTVSPost2010Prop51ColorRGB
 90
-16777216
102
RTVSPost2010PropOp51
 70
     0
102
RTVSPost2010Prop52
140
1.0
102
RTVSPost2010PropOp52
 70
     0
102
RTVSPost2010Prop53
 90
        2
102
RTVSPost2010PropOp53
 70
     1
102
RTVSPost2010Prop54
  1
strokes_ogs.tif
102
RTVSPost2010PropOp54
 70
     1
102
RTVSPost2010Prop55
280
     0
102
RTVSPost2010PropOp55
 70
     1
102
RTVSPost2010Prop56
140
1.0
102
RTVSPost2010PropOp56
 70
     1
102
RTVSPost2010Prop57
140
1.0
102
RTVSPost2010PropOp57
 70
     1
  0
XRECORD
  5
695
102
{ACAD_REACTORS
330
694
102
}
330
694
100
AcDbXrecord
280
     1
102
RTVSPropertyOp0
 70
     1
102
RTVSPropertyOp1
 70
     1
102
RTVSPropertyOp2
 70
     1
102
RTVSPropertyOp3
 70
     1
102
RTVSPropertyOp4
 70
     1
102
RTVSPropertyOp5
 70
     1
102
RTVSPropertyOp6
 70
     1
102
RTVSPropertyOp7
 70
     1
102
RTVSPropertyOp8
 70
     1
102
RTVSPropertyOp9
 70
     1
102
RTVSPropertyOp10
 70
     1
102
RTVSPropertyOp11
 70
     1
102
RTVSPropertyOp12
 70
     1
102
RTVSPropertyOp13
 70
     1
102
RTVSPropertyOp14
 70
     1
102
RTVSPropertyOp15
 70
     1
102
RTVSPropertyOp16
 70
     1
102
RTVSPropertyOp17
 70
     1
102
RTVSPropertyOp18
 70
     1
102
RTVSPropertyOp19
 70
     1
102
RTVSPropertyOp20
 70
     1
102
RTVSPropertyOp21
 70
     1
102
RTVSPropertyOp22
 70
     1
102
RTVSPropertyOp23
 70
     1
102
RTVSPropertyOp24
 70
     1
102
RTVSPropertyOp25
 70
     1
102
RTVSPropertyOp26
 70
     1
102
RTVSPropertyOp27
 70
     1
102
RTVSPropertyOp28
 70
     1
102
RTVSPropertyOp29
 70
     1
102
RTVSPropertyOp30
 70
     1
102
RTVSPropertyOp31
 70
     1
102
RTVSPropertyOp32
 70
     1
102
RTVSPropertyOp33
 70
     1
102
RTVSPropertyOp34
 70
     1
102
RTVSPropertyOp35
 70
     1
102
RTVSPropertyOp36
 70
     1
102
RTVSPropertyOp37
 70
     1
102
RTVSPropertyOp38
 70
     1
102
RTVSPropertyOp39
 70
     1
102
RTVSPropertyOp40
 70
     1
102
RTVSPropertyOp41
 70
     1
102
RTVSPropertyOp42
 70
     1
102
RTVSPropertyOp43
 70
     1
102
RTVSPropertyOp44
 70
     1
102
RTVSPropertyOp45
 70
     1
102
RTVSPropertyOp46
 70
     1
102
RTVSPropertyOp47
 70
     1
102
RTVSPropertyOp48
 70
     1
102
RTVSPropertyOp49
 70
     1
102
RTVSPropertyOp50
 70
     1
102
RTVSPropertyOp51
 70
     0
102
RTVSPropertyOp52
 70
     0
102
RTVSPropertyOp53
 70
     1
102
RTVSPropertyOp54
 70
     1
102
RTVSPropertyOp55
 70
     1
102
RTVSPropertyOp56
 70
     1
102
RTVSPropertyOp57
 70
     1
102
RTVSPost2010Prop28
280
     0
102
RTVSPost2010PropOp28
 70
     1
102
RTVSPost2010Prop29
280
     1
102
RTVSPost2010PropOp29
 70
     1
102
RTVSPost2010Prop30
280
     1
102
RTVSPost2010PropOp30
 70
     1
102
RTVSPost2010Prop31
280
     0
102
RTVSPost2010PropOp31
 70
     1
102
RTVSPost2010Prop32
280
     0
102
RTVSPost2010PropOp32
 70
     1
102
RTVSPost2010Prop33
280
     0
102
RTVSPost2010PropOp33
 70
     1
102
RTVSPost2010Prop34
280
     0
102
RTVSPost2010PropOp34
 70
     1
102
RTVSPost2010Prop35
280
     0
102
RTVSPost2010PropOp35
 70
     1
102
RTVSPost2010Prop36
280
     0
102
RTVSPost2010PropOp36
 70
     1
102
RTVSPost2010Prop37
 90
       50
102
RTVSPost2010PropOp37
 70
     1
102
RTVSPost2010Prop38
140
0.0
102
RTVSPost2010PropOp38
 70
     1
102
RTVSPost2010Prop39
140
1.0
102
RTVSPost2010PropOp39
 70
     1
102
RTVSPost2010Prop40
 90
        0
102
RTVSPost2010PropOp40
 70
     1
102
RTVSPost2010Prop41ColorIndex
 90
       18
102
RTVSPost2010Prop41ColorRGB
 90
        0
102
RTVSPost2010PropOp41
 70
     1
102
RTVSPost2010Prop42
 90
       50
102
RTVSPost2010PropOp42
 70
     1
102
RTVSPost2010Prop43
 90
        3
102
RTVSPost2010PropOp43
 70
     1
102
RTVSPost2010Prop44ColorIndex
 90
        5
102
RTVSPost2010Prop44ColorRGB
 90
      255
102
RTVSPost2010PropOp44
 70
     1
102
RTVSPost2010Prop45
280
     0
102
RTVSPost2010PropOp45
 70
     1
102
RTVSPost2010Prop46
 90
       50
102
RTVSPost2010PropOp46
 70
     1
102
RTVSPost2010Prop47
 90
       50
102
RTVSPost2010PropOp47
 70
     1
102
RTVSPost2010Prop48
 90
       50
102
RTVSPost2010PropOp48
 70
     1
102
RTVSPost2010Prop49
280
     0
102
RTVSPost2010PropOp49
 70
     1
102
RTVSPost2010Prop50
 90
       50
102
RTVSPost2010PropOp50
 70
     1
102
RTVSPost2010Prop51ColorIndex
 90
      256
102
RTVSPost2010Prop51ColorRGB
 90
-16777216
102
RTVSPost2010PropOp51
 70
     0
102
RTVSPost2010Prop52
140
1.0
102
RTVSPost2010PropOp52
 70
     0
102
RTVSPost2010Prop53
 90
        2
102
RTVSPost2010PropOp53
 70
     1
102
RTVSPost2010Prop54
  1
strokes_ogs.tif
102
RTVSPost2010PropOp54
 70
     1
102
RTVSPost2010Prop55
280
     0
102
RTVSPost2010PropOp55
 70
     1
102
RTVSPost2010Prop56
140
1.0
102
RTVSPost2010PropOp56
 70
     1
102
RTVSPost2010Prop57
140
1.0
102
RTVSPost2010PropOp57
 70
     1
  0
XRECORD
  5
697
102
{ACAD_REACTORS
330
696
102
}
330
696
100
AcDbXrecord
280
     1
102
RTVSPropertyOp0
 70
     1
102
RTVSPropertyOp1
 70
     1
102
RTVSPropertyOp2
 70
     1
102
RTVSPropertyOp3
 70
     1
102
RTVSPropertyOp4
 70
     1
102
RTVSPropertyOp5
 70
     1
102
RTVSPropertyOp6
 70
     1
102
RTVSPropertyOp7
 70
     1
102
RTVSPropertyOp8
 70
     1
102
RTVSPropertyOp9
 70
     1
102
RTVSPropertyOp10
 70
     1
102
RTVSPropertyOp11
 70
     1
102
RTVSPropertyOp12
 70
     1
102
RTVSPropertyOp13
 70
     1
102
RTVSPropertyOp14
 70
     1
102
RTVSPropertyOp15
 70
     1
102
RTVSPropertyOp16
 70
     1
102
RTVSPropertyOp17
 70
     1
102
RTVSPropertyOp18
 70
     1
102
RTVSPropertyOp19
 70
     1
102
RTVSPropertyOp20
 70
     1
102
RTVSPropertyOp21
 70
     1
102
RTVSPropertyOp22
 70
     1
102
RTVSPropertyOp23
 70
     1
102
RTVSPropertyOp24
 70
     1
102
RTVSPropertyOp25
 70
     1
102
RTVSPropertyOp26
 70
     1
102
RTVSPropertyOp27
 70
     1
102
RTVSPropertyOp28
 70
     1
102
RTVSPropertyOp29
 70
     1
102
RTVSPropertyOp30
 70
     1
102
RTVSPropertyOp31
 70
     1
102
RTVSPropertyOp32
 70
     1
102
RTVSPropertyOp33
 70
     1
102
RTVSPropertyOp34
 70
     1
102
RTVSPropertyOp35
 70
     1
102
RTVSPropertyOp36
 70
     1
102
RTVSPropertyOp37
 70
     1
102
RTVSPropertyOp38
 70
     1
102
RTVSPropertyOp39
 70
     1
102
RTVSPropertyOp40
 70
     1
102
RTVSPropertyOp41
 70
     1
102
RTVSPropertyOp42
 70
     1
102
RTVSPropertyOp43
 70
     1
102
RTVSPropertyOp44
 70
     1
102
RTVSPropertyOp45
 70
     1
102
RTVSPropertyOp46
 70
     1
102
RTVSPropertyOp47
 70
     1
102
RTVSPropertyOp48
 70
     1
102
RTVSPropertyOp49
 70
     1
102
RTVSPropertyOp50
 70
     1
102
RTVSPropertyOp51
 70
     0
102
RTVSPropertyOp52
 70
     0
102
RTVSPropertyOp53
 70
     1
102
RTVSPropertyOp54
 70
     1
102
RTVSPropertyOp55
 70
     1
102
RTVSPropertyOp56
 70
     1
102
RTVSPropertyOp57
 70
     1
102
RTVSPost2010Prop28
280
     0
102
RTVSPost2010PropOp28
 70
     1
102
RTVSPost2010Prop29
280
     1
102
RTVSPost2010PropOp29
 70
     1
102
RTVSPost2010Prop30
280
     1
102
RTVSPost2010PropOp30
 70
     1
102
RTVSPost2010Prop31
280
     0
102
RTVSPost2010PropOp31
 70
     1
102
RTVSPost2010Prop32
280
     0
102
RTVSPost2010PropOp32
 70
     1
102
RTVSPost2010Prop33
280
     0
102
RTVSPost2010PropOp33
 70
     1
102
RTVSPost2010Prop34
280
     0
102
RTVSPost2010PropOp34
 70
     1
102
RTVSPost2010Prop35
280
     0
102
RTVSPost2010PropOp35
 70
     1
102
RTVSPost2010Prop36
280
     0
102
RTVSPost2010PropOp36
 70
     1
102
RTVSPost2010Prop37
 90
       50
102
RTVSPost2010PropOp37
 70
     1
102
RTVSPost2010Prop38
140
0.0
102
RTVSPost2010PropOp38
 70
     1
102
RTVSPost2010Prop39
140
1.0
102
RTVSPost2010PropOp39
 70
     1
102
RTVSPost2010Prop40
 90
        0
102
RTVSPost2010PropOp40
 70
     1
102
RTVSPost2010Prop41ColorIndex
 90
       18
102
RTVSPost2010Prop41ColorRGB
 90
        0
102
RTVSPost2010PropOp41
 70
     1
102
RTVSPost2010Prop42
 90
       50
102
RTVSPost2010PropOp42
 70
     1
102
RTVSPost2010Prop43
 90
        3
102
RTVSPost2010PropOp43
 70
     1
102
RTVSPost2010Prop44ColorIndex
 90
        5
102
RTVSPost2010Prop44ColorRGB
 90
      255
102
RTVSPost2010PropOp44
 70
     1
102
RTVSPost2010Prop45
280
     0
102
RTVSPost2010PropOp45
 70
     1
102
RTVSPost2010Prop46
 90
       50
102
RTVSPost2010PropOp46
 70
     1
102
RTVSPost2010Prop47
 90
       50
102
RTVSPost2010PropOp47
 70
     1
102
RTVSPost2010Prop48
 90
       50
102
RTVSPost2010PropOp48
 70
     1
102
RTVSPost2010Prop49
280
     0
102
RTVSPost2010PropOp49
 70
     1
102
RTVSPost2010Prop50
 90
       50
102
RTVSPost2010PropOp50
 70
     1
102
RTVSPost2010Prop51ColorIndex
 90
      256
102
RTVSPost2010Prop51ColorRGB
 90
-16777216
102
RTVSPost2010PropOp51
 70
     0
102
RTVSPost2010Prop52
140
1.0
102
RTVSPost2010PropOp52
 70
     0
102
RTVSPost2010Prop53
 90
        2
102
RTVSPost2010PropOp53
 70
     1
102
RTVSPost2010Prop54
  1
strokes_ogs.tif
102
RTVSPost2010PropOp54
 70
     1
102
RTVSPost2010Prop55
280
     0
102
RTVSPost2010PropOp55
 70
     1
102
RTVSPost2010Prop56
140
1.0
102
RTVSPost2010PropOp56
 70
     1
102
RTVSPost2010Prop57
140
1.0
102
RTVSPost2010PropOp57
 70
     1
  0
XRECORD
  5
699
102
{ACAD_REACTORS
330
698
102
}
330
698
100
AcDbXrecord
280
     1
102
RTVSPropertyOp0
 70
     1
102
RTVSPropertyOp1
 70
     1
102
RTVSPropertyOp2
 70
     1
102
RTVSPropertyOp3
 70
     1
102
RTVSPropertyOp4
 70
     1
102
RTVSPropertyOp5
 70
     1
102
RTVSPropertyOp6
 70
     1
102
RTVSPropertyOp7
 70
     1
102
RTVSPropertyOp8
 70
     1
102
RTVSPropertyOp9
 70
     1
102
RTVSPropertyOp10
 70
     1
102
RTVSPropertyOp11
 70
     1
102
RTVSPropertyOp12
 70
     1
102
RTVSPropertyOp13
 70
     1
102
RTVSPropertyOp14
 70
     1
102
RTVSPropertyOp15
 70
     1
102
RTVSPropertyOp16
 70
     1
102
RTVSPropertyOp17
 70
     1
102
RTVSPropertyOp18
 70
     1
102
RTVSPropertyOp19
 70
     1
102
RTVSPropertyOp20
 70
     1
102
RTVSPropertyOp21
 70
     1
102
RTVSPropertyOp22
 70
     1
102
RTVSPropertyOp23
 70
     1
102
RTVSPropertyOp24
 70
     1
102
RTVSPropertyOp25
 70
     1
102
RTVSPropertyOp26
 70
     1
102
RTVSPropertyOp27
 70
     1
102
RTVSPropertyOp28
 70
     1
102
RTVSPropertyOp29
 70
     1
102
RTVSPropertyOp30
 70
     1
102
RTVSPropertyOp31
 70
     1
102
RTVSPropertyOp32
 70
     1
102
RTVSPropertyOp33
 70
     1
102
RTVSPropertyOp34
 70
     1
102
RTVSPropertyOp35
 70
     1
102
RTVSPropertyOp36
 70
     1
102
RTVSPropertyOp37
 70
     1
102
RTVSPropertyOp38
 70
     1
102
RTVSPropertyOp39
 70
     1
102
RTVSPropertyOp40
 70
     1
102
RTVSPropertyOp41
 70
     1
102
RTVSPropertyOp42
 70
     1
102
RTVSPropertyOp43
 70
     1
102
RTVSPropertyOp44
 70
     1
102
RTVSPropertyOp45
 70
     1
102
RTVSPropertyOp46
 70
     1
102
RTVSPropertyOp47
 70
     1
102
RTVSPropertyOp48
 70
     1
102
RTVSPropertyOp49
 70
     1
102
RTVSPropertyOp50
 70
     1
102
RTVSPropertyOp51
 70
     0
102
RTVSPropertyOp52
 70
     0
102
RTVSPropertyOp53
 70
     1
102
RTVSPropertyOp54
 70
     1
102
RTVSPropertyOp55
 70
     1
102
RTVSPropertyOp56
 70
     1
102
RTVSPropertyOp57
 70
     1
102
RTVSPost2010Prop28
280
     0
102
RTVSPost2010PropOp28
 70
     1
102
RTVSPost2010Prop29
280
     1
102
RTVSPost2010PropOp29
 70
     1
102
RTVSPost2010Prop30
280
     1
102
RTVSPost2010PropOp30
 70
     1
102
RTVSPost2010Prop31
280
     0
102
RTVSPost2010PropOp31
 70
     1
102
RTVSPost2010Prop32
280
     0
102
RTVSPost2010PropOp32
 70
     1
102
RTVSPost2010Prop33
280
     0
102
RTVSPost2010PropOp33
 70
     1
102
RTVSPost2010Prop34
280
     0
102
RTVSPost2010PropOp34
 70
     1
102
RTVSPost2010Prop35
280
     0
102
RTVSPost2010PropOp35
 70
     1
102
RTVSPost2010Prop36
280
     0
102
RTVSPost2010PropOp36
 70
     1
102
RTVSPost2010Prop37
 90
       50
102
RTVSPost2010PropOp37
 70
     1
102
RTVSPost2010Prop38
140
0.0
102
RTVSPost2010PropOp38
 70
     1
102
RTVSPost2010Prop39
140
1.0
102
RTVSPost2010PropOp39
 70
     1
102
RTVSPost2010Prop40
 90
        0
102
RTVSPost2010PropOp40
 70
     1
102
RTVSPost2010Prop41ColorIndex
 90
       18
102
RTVSPost2010Prop41ColorRGB
 90
        0
102
RTVSPost2010PropOp41
 70
     1
102
RTVSPost2010Prop42
 90
       50
102
RTVSPost2010PropOp42
 70
     1
102
RTVSPost2010Prop43
 90
        3
102
RTVSPost2010PropOp43
 70
     1
102
RTVSPost2010Prop44ColorIndex
 90
        5
102
RTVSPost2010Prop44ColorRGB
 90
      255
102
RTVSPost2010PropOp44
 70
     1
102
RTVSPost2010Prop45
280
     0
102
RTVSPost2010PropOp45
 70
     1
102
RTVSPost2010Prop46
 90
       50
102
RTVSPost2010PropOp46
 70
     1
102
RTVSPost2010Prop47
 90
       50
102
RTVSPost2010PropOp47
 70
     1
102
RTVSPost2010Prop48
 90
       50
102
RTVSPost2010PropOp48
 70
     1
102
RTVSPost2010Prop49
280
     0
102
RTVSPost2010PropOp49
 70
     1
102
RTVSPost2010Prop50
 90
       50
102
RTVSPost2010PropOp50
 70
     1
102
RTVSPost2010Prop51ColorIndex
 90
      256
102
RTVSPost2010Prop51ColorRGB
 90
-16777216
102
RTVSPost2010PropOp51
 70
     0
102
RTVSPost2010Prop52
140
1.0
102
RTVSPost2010PropOp52
 70
     0
102
RTVSPost2010Prop53
 90
        2
102
RTVSPost2010PropOp53
 70
     1
102
RTVSPost2010Prop54
  1
strokes_ogs.tif
102
RTVSPost2010PropOp54
 70
     1
102
RTVSPost2010Prop55
280
     0
102
RTVSPost2010PropOp55
 70
     1
102
RTVSPost2010Prop56
140
1.0
102
RTVSPost2010PropOp56
 70
     1
102
RTVSPost2010Prop57
140
1.0
102
RTVSPost2010PropOp57
 70
     1
  0
XRECORD
  5
69B
102
{ACAD_REACTORS
330
69A
102
}
330
69A
100
AcDbXrecord
280
     1
102
RTVSPropertyOp0
 70
     1
102
RTVSPropertyOp1
 70
     1
102
RTVSPropertyOp2
 70
     1
102
RTVSPropertyOp3
 70
     1
102
RTVSPropertyOp4
 70
     1
102
RTVSPropertyOp5
 70
     1
102
RTVSPropertyOp6
 70
     1
102
RTVSPropertyOp7
 70
     1
102
RTVSPropertyOp8
 70
     1
102
RTVSPropertyOp9
 70
     1
102
RTVSPropertyOp10
 70
     1
102
RTVSPropertyOp11
 70
     1
102
RTVSPropertyOp12
 70
     1
102
RTVSPropertyOp13
 70
     1
102
RTVSPropertyOp14
 70
     1
102
RTVSPropertyOp15
 70
     1
102
RTVSPropertyOp16
 70
     1
102
RTVSPropertyOp17
 70
     1
102
RTVSPropertyOp18
 70
     1
102
RTVSPropertyOp19
 70
     1
102
RTVSPropertyOp20
 70
     1
102
RTVSPropertyOp21
 70
     1
102
RTVSPropertyOp22
 70
     1
102
RTVSPropertyOp23
 70
     1
102
RTVSPropertyOp24
 70
     1
102
RTVSPropertyOp25
 70
     1
102
RTVSPropertyOp26
 70
     1
102
RTVSPropertyOp27
 70
     1
102
RTVSPropertyOp28
 70
     1
102
RTVSPropertyOp29
 70
     1
102
RTVSPropertyOp30
 70
     1
102
RTVSPropertyOp31
 70
     1
102
RTVSPropertyOp32
 70
     1
102
RTVSPropertyOp33
 70
     1
102
RTVSPropertyOp34
 70
     1
102
RTVSPropertyOp35
 70
     1
102
RTVSPropertyOp36
 70
     1
102
RTVSPropertyOp37
 70
     1
102
RTVSPropertyOp38
 70
     1
102
RTVSPropertyOp39
 70
     1
102
RTVSPropertyOp40
 70
     1
102
RTVSPropertyOp41
 70
     1
102
RTVSPropertyOp42
 70
     1
102
RTVSPropertyOp43
 70
     1
102
RTVSPropertyOp44
 70
     1
102
RTVSPropertyOp45
 70
     1
102
RTVSPropertyOp46
 70
     1
102
RTVSPropertyOp47
 70
     1
102
RTVSPropertyOp48
 70
     1
102
RTVSPropertyOp49
 70
     1
102
RTVSPropertyOp50
 70
     1
102
RTVSPropertyOp51
 70
     0
102
RTVSPropertyOp52
 70
     0
102
RTVSPropertyOp53
 70
     1
102
RTVSPropertyOp54
 70
     1
102
RTVSPropertyOp55
 70
     1
102
RTVSPropertyOp56
 70
     1
102
RTVSPropertyOp57
 70
     1
102
RTVSPost2010Prop28
280
     0
102
RTVSPost2010PropOp28
 70
     1
102
RTVSPost2010Prop29
280
     1
102
RTVSPost2010PropOp29
 70
     1
102
RTVSPost2010Prop30
280
     1
102
RTVSPost2010PropOp30
 70
     1
102
RTVSPost2010Prop31
280
     0
102
RTVSPost2010PropOp31
 70
     1
102
RTVSPost2010Prop32
280
     0
102
RTVSPost2010PropOp32
 70
     1
102
RTVSPost2010Prop33
280
     0
102
RTVSPost2010PropOp33
 70
     1
102
RTVSPost2010Prop34
280
     0
102
RTVSPost2010PropOp34
 70
     1
102
RTVSPost2010Prop35
280
     0
102
RTVSPost2010PropOp35
 70
     1
102
RTVSPost2010Prop36
280
     0
102
RTVSPost2010PropOp36
 70
     1
102
RTVSPost2010Prop37
 90
       50
102
RTVSPost2010PropOp37
 70
     1
102
RTVSPost2010Prop38
140
0.0
102
RTVSPost2010PropOp38
 70
     1
102
RTVSPost2010Prop39
140
1.0
102
RTVSPost2010PropOp39
 70
     1
102
RTVSPost2010Prop40
 90
        0
102
RTVSPost2010PropOp40
 70
     1
102
RTVSPost2010Prop41ColorIndex
 90
       18
102
RTVSPost2010Prop41ColorRGB
 90
        0
102
RTVSPost2010PropOp41
 70
     1
102
RTVSPost2010Prop42
 90
       50
102
RTVSPost2010PropOp42
 70
     1
102
RTVSPost2010Prop43
 90
        3
102
RTVSPost2010PropOp43
 70
     1
102
RTVSPost2010Prop44ColorIndex
 90
        5
102
RTVSPost2010Prop44ColorRGB
 90
      255
102
RTVSPost2010PropOp44
 70
     1
102
RTVSPost2010Prop45
280
     0
102
RTVSPost2010PropOp45
 70
     1
102
RTVSPost2010Prop46
 90
       50
102
RTVSPost2010PropOp46
 70
     1
102
RTVSPost2010Prop47
 90
       50
102
RTVSPost2010PropOp47
 70
     1
102
RTVSPost2010Prop48
 90
       50
102
RTVSPost2010PropOp48
 70
     1
102
RTVSPost2010Prop49
280
     0
102
RTVSPost2010PropOp49
 70
     1
102
RTVSPost2010Prop50
 90
       50
102
RTVSPost2010PropOp50
 70
     1
102
RTVSPost2010Prop51ColorIndex
 90
      256
102
RTVSPost2010Prop51ColorRGB
 90
-16777216
102
RTVSPost2010PropOp51
 70
     0
102
RTVSPost2010Prop52
140
1.0
102
RTVSPost2010PropOp52
 70
     0
102
RTVSPost2010Prop53
 90
        2
102
RTVSPost2010PropOp53
 70
     1
102
RTVSPost2010Prop54
  1
strokes_ogs.tif
102
RTVSPost2010PropOp54
 70
     1
102
RTVSPost2010Prop55
280
     0
102
RTVSPost2010PropOp55
 70
     1
102
RTVSPost2010Prop56
140
1.0
102
RTVSPost2010PropOp56
 70
     1
102
RTVSPost2010Prop57
140
1.0
102
RTVSPost2010PropOp57
 70
     1
  0
XRECORD
  5
6AD
102
{ACAD_REACTORS
330
6AC
102
}
330
6AC
100
AcDbXrecord
280
     1
102
RTVSPropertyOp0
 70
     0
102
RTVSPropertyOp1
 70
     0
102
RTVSPropertyOp2
 70
     0
102
RTVSPropertyOp3
 70
     0
102
RTVSPropertyOp4
 70
     0
102
RTVSPropertyOp5
 70
     0
102
RTVSPropertyOp6
 70
     0
102
RTVSPropertyOp7
 70
     0
102
RTVSPropertyOp8
 70
     0
102
RTVSPropertyOp9
 70
     0
102
RTVSPropertyOp10
 70
     0
102
RTVSPropertyOp11
 70
     0
102
RTVSPropertyOp12
 70
     0
102
RTVSPropertyOp13
 70
     0
102
RTVSPropertyOp14
 70
     0
102
RTVSPropertyOp15
 70
     0
102
RTVSPropertyOp16
 70
     0
102
RTVSPropertyOp17
 70
     0
102
RTVSPropertyOp18
 70
     0
102
RTVSPropertyOp19
 70
     0
102
RTVSPropertyOp20
 70
     0
102
RTVSPropertyOp21
 70
     0
102
RTVSPropertyOp22
 70
     0
102
RTVSPropertyOp23
 70
     0
102
RTVSPropertyOp24
 70
     0
102
RTVSPropertyOp25
 70
     0
102
RTVSPropertyOp26
 70
     0
102
RTVSPropertyOp27
 70
     0
102
RTVSPropertyOp28
 70
     1
102
RTVSPropertyOp29
 70
     1
102
RTVSPropertyOp30
 70
     1
102
RTVSPropertyOp31
 70
     1
102
RTVSPropertyOp32
 70
     1
102
RTVSPropertyOp33
 70
     1
102
RTVSPropertyOp34
 70
     1
102
RTVSPropertyOp35
 70
     1
102
RTVSPropertyOp36
 70
     1
102
RTVSPropertyOp37
 70
     1
102
RTVSPropertyOp38
 70
     1
102
RTVSPropertyOp39
 70
     1
102
RTVSPropertyOp40
 70
     1
102
RTVSPropertyOp41
 70
     1
102
RTVSPropertyOp42
 70
     1
102
RTVSPropertyOp43
 70
     1
102
RTVSPropertyOp44
 70
     1
102
RTVSPropertyOp45
 70
     1
102
RTVSPropertyOp46
 70
     1
102
RTVSPropertyOp47
 70
     1
102
RTVSPropertyOp48
 70
     1
102
RTVSPropertyOp49
 70
     1
102
RTVSPropertyOp50
 70
     1
102
RTVSPropertyOp51
 70
     0
102
RTVSPropertyOp52
 70
     0
102
RTVSPropertyOp53
 70
     1
102
RTVSPropertyOp54
 70
     1
102
RTVSPropertyOp55
 70
     1
102
RTVSPropertyOp56
 70
     1
102
RTVSPropertyOp57
 70
     1
102
RTVSPost2010Prop28
280
     0
102
RTVSPost2010PropOp28
 70
     1
102
RTVSPost2010Prop29
280
     1
102
RTVSPost2010PropOp29
 70
     1
102
RTVSPost2010Prop30
280
     1
102
RTVSPost2010PropOp30
 70
     1
102
RTVSPost2010Prop31
280
     0
102
RTVSPost2010PropOp31
 70
     1
102
RTVSPost2010Prop32
280
     0
102
RTVSPost2010PropOp32
 70
     1
102
RTVSPost2010Prop33
280
     0
102
RTVSPost2010PropOp33
 70
     1
102
RTVSPost2010Prop34
280
     0
102
RTVSPost2010PropOp34
 70
     1
102
RTVSPost2010Prop35
280
     0
102
RTVSPost2010PropOp35
 70
     1
102
RTVSPost2010Prop36
280
     0
102
RTVSPost2010PropOp36
 70
     1
102
RTVSPost2010Prop37
 90
       50
102
RTVSPost2010PropOp37
 70
     1
102
RTVSPost2010Prop38
140
0.0
102
RTVSPost2010PropOp38
 70
     1
102
RTVSPost2010Prop39
140
1.0
102
RTVSPost2010PropOp39
 70
     1
102
RTVSPost2010Prop40
 90
        0
102
RTVSPost2010PropOp40
 70
     1
102
RTVSPost2010Prop41ColorIndex
 90
       18
102
RTVSPost2010Prop41ColorRGB
 90
        0
102
RTVSPost2010PropOp41
 70
     1
102
RTVSPost2010Prop42
 90
       50
102
RTVSPost2010PropOp42
 70
     1
102
RTVSPost2010Prop43
 90
        3
102
RTVSPost2010PropOp43
 70
     1
102
RTVSPost2010Prop44ColorIndex
 90
        5
102
RTVSPost2010Prop44ColorRGB
 90
      255
102
RTVSPost2010PropOp44
 70
     1
102
RTVSPost2010Prop45
280
     0
102
RTVSPost2010PropOp45
 70
     1
102
RTVSPost2010Prop46
 90
       50
102
RTVSPost2010PropOp46
 70
     1
102
RTVSPost2010Prop47
 90
       50
102
RTVSPost2010PropOp47
 70
     1
102
RTVSPost2010Prop48
 90
       50
102
RTVSPost2010PropOp48
 70
     1
102
RTVSPost2010Prop49
280
     0
102
RTVSPost2010PropOp49
 70
     1
102
RTVSPost2010Prop50
 90
       50
102
RTVSPost2010PropOp50
 70
     1
102
RTVSPost2010Prop51ColorIndex
 90
      256
102
RTVSPost2010Prop51ColorRGB
 90
-16777216
102
RTVSPost2010PropOp51
 70
     0
102
RTVSPost2010Prop52
140
1.0
102
RTVSPost2010PropOp52
 70
     0
102
RTVSPost2010Prop53
 90
        2
102
RTVSPost2010PropOp53
 70
     1
102
RTVSPost2010Prop54
  1
strokes_ogs.tif
102
RTVSPost2010PropOp54
 70
     1
102
RTVSPost2010Prop55
280
     0
102
RTVSPost2010PropOp55
 70
     1
102
RTVSPost2010Prop56
140
1.0
102
RTVSPost2010PropOp56
 70
     1
102
RTVSPost2010Prop57
140
1.0
102
RTVSPost2010PropOp57
 70
     1
  0
XRECORD
  5
6A7
102
{ACAD_REACTORS
330
6A6
102
}
330
6A6
100
AcDbXrecord
280
     1
102
RTVSPropertyOp0
 70
     1
102
RTVSPropertyOp1
 70
     1
102
RTVSPropertyOp2
 70
     1
102
RTVSPropertyOp3
 70
     1
102
RTVSPropertyOp4
 70
     1
102
RTVSPropertyOp5
 70
     1
102
RTVSPropertyOp6
 70
     1
102
RTVSPropertyOp7
 70
     1
102
RTVSPropertyOp8
 70
     1
102
RTVSPropertyOp9
 70
     1
102
RTVSPropertyOp10
 70
     1
102
RTVSPropertyOp11
 70
     1
102
RTVSPropertyOp12
 70
     1
102
RTVSPropertyOp13
 70
     1
102
RTVSPropertyOp14
 70
     1
102
RTVSPropertyOp15
 70
     1
102
RTVSPropertyOp16
 70
     1
102
RTVSPropertyOp17
 70
     1
102
RTVSPropertyOp18
 70
     1
102
RTVSPropertyOp19
 70
     1
102
RTVSPropertyOp20
 70
     1
102
RTVSPropertyOp21
 70
     1
102
RTVSPropertyOp22
 70
     1
102
RTVSPropertyOp23
 70
     1
102
RTVSPropertyOp24
 70
     1
102
RTVSPropertyOp25
 70
     1
102
RTVSPropertyOp26
 70
     1
102
RTVSPropertyOp27
 70
     1
102
RTVSPropertyOp28
 70
     1
102
RTVSPropertyOp29
 70
     1
102
RTVSPropertyOp30
 70
     1
102
RTVSPropertyOp31
 70
     1
102
RTVSPropertyOp32
 70
     1
102
RTVSPropertyOp33
 70
     1
102
RTVSPropertyOp34
 70
     1
102
RTVSPropertyOp35
 70
     1
102
RTVSPropertyOp36
 70
     1
102
RTVSPropertyOp37
 70
     1
102
RTVSPropertyOp38
 70
     1
102
RTVSPropertyOp39
 70
     1
102
RTVSPropertyOp40
 70
     1
102
RTVSPropertyOp41
 70
     1
102
RTVSPropertyOp42
 70
     1
102
RTVSPropertyOp43
 70
     1
102
RTVSPropertyOp44
 70
     1
102
RTVSPropertyOp45
 70
     1
102
RTVSPropertyOp46
 70
     1
102
RTVSPropertyOp47
 70
     1
102
RTVSPropertyOp48
 70
     1
102
RTVSPropertyOp49
 70
     1
102
RTVSPropertyOp50
 70
     1
102
RTVSPropertyOp51
 70
     0
102
RTVSPropertyOp52
 70
     0
102
RTVSPropertyOp53
 70
     1
102
RTVSPropertyOp54
 70
     1
102
RTVSPropertyOp55
 70
     1
102
RTVSPropertyOp56
 70
     1
102
RTVSPropertyOp57
 70
     1
102
RTVSPost2010Prop28
280
     0
102
RTVSPost2010PropOp28
 70
     1
102
RTVSPost2010Prop29
280
     1
102
RTVSPost2010PropOp29
 70
     1
102
RTVSPost2010Prop30
280
     1
102
RTVSPost2010PropOp30
 70
     1
102
RTVSPost2010Prop31
280
     0
102
RTVSPost2010PropOp31
 70
     1
102
RTVSPost2010Prop32
280
     0
102
RTVSPost2010PropOp32
 70
     1
102
RTVSPost2010Prop33
280
     0
102
RTVSPost2010PropOp33
 70
     1
102
RTVSPost2010Prop34
280
     0
102
RTVSPost2010PropOp34
 70
     1
102
RTVSPost2010Prop35
280
     0
102
RTVSPost2010PropOp35
 70
     1
102
RTVSPost2010Prop36
280
     0
102
RTVSPost2010PropOp36
 70
     1
102
RTVSPost2010Prop37
 90
       50
102
RTVSPost2010PropOp37
 70
     1
102
RTVSPost2010Prop38
140
0.0
102
RTVSPost2010PropOp38
 70
     1
102
RTVSPost2010Prop39
140
1.0
102
RTVSPost2010PropOp39
 70
     1
102
RTVSPost2010Prop40
 90
        0
102
RTVSPost2010PropOp40
 70
     1
102
RTVSPost2010Prop41ColorIndex
 90
       18
102
RTVSPost2010Prop41ColorRGB
 90
        0
102
RTVSPost2010PropOp41
 70
     1
102
RTVSPost2010Prop42
 90
       50
102
RTVSPost2010PropOp42
 70
     1
102
RTVSPost2010Prop43
 90
        3
102
RTVSPost2010PropOp43
 70
     1
102
RTVSPost2010Prop44ColorIndex
 90
        5
102
RTVSPost2010Prop44ColorRGB
 90
      255
102
RTVSPost2010PropOp44
 70
     1
102
RTVSPost2010Prop45
280
     0
102
RTVSPost2010PropOp45
 70
     1
102
RTVSPost2010Prop46
 90
       50
102
RTVSPost2010PropOp46
 70
     1
102
RTVSPost2010Prop47
 90
       50
102
RTVSPost2010PropOp47
 70
     1
102
RTVSPost2010Prop48
 90
       50
102
RTVSPost2010PropOp48
 70
     1
102
RTVSPost2010Prop49
280
     0
102
RTVSPost2010PropOp49
 70
     1
102
RTVSPost2010Prop50
 90
       50
102
RTVSPost2010PropOp50
 70
     1
102
RTVSPost2010Prop51ColorIndex
 90
      256
102
RTVSPost2010Prop51ColorRGB
 90
-16777216
102
RTVSPost2010PropOp51
 70
     0
102
RTVSPost2010Prop52
140
1.0
102
RTVSPost2010PropOp52
 70
     0
102
RTVSPost2010Prop53
 90
        2
102
RTVSPost2010PropOp53
 70
     1
102
RTVSPost2010Prop54
  1
strokes_ogs.tif
102
RTVSPost2010PropOp54
 70
     1
102
RTVSPost2010Prop55
280
     0
102
RTVSPost2010PropOp55
 70
     1
102
RTVSPost2010Prop56
140
1.0
102
RTVSPost2010PropOp56
 70
     1
102
RTVSPost2010Prop57
140
1.0
102
RTVSPost2010PropOp57
 70
     1
  0
XRECORD
  5
6AF
102
{ACAD_REACTORS
330
6AE
102
}
330
6AE
100
AcDbXrecord
280
     1
102
RTVSPropertyOp0
 70
     0
102
RTVSPropertyOp1
 70
     0
102
RTVSPropertyOp2
 70
     0
102
RTVSPropertyOp3
 70
     0
102
RTVSPropertyOp4
 70
     0
102
RTVSPropertyOp5
 70
     0
102
RTVSPropertyOp6
 70
     0
102
RTVSPropertyOp7
 70
     0
102
RTVSPropertyOp8
 70
     0
102
RTVSPropertyOp9
 70
     0
102
RTVSPropertyOp10
 70
     0
102
RTVSPropertyOp11
 70
     0
102
RTVSPropertyOp12
 70
     0
102
RTVSPropertyOp13
 70
     0
102
RTVSPropertyOp14
 70
     0
102
RTVSPropertyOp15
 70
     0
102
RTVSPropertyOp16
 70
     0
102
RTVSPropertyOp17
 70
     0
102
RTVSPropertyOp18
 70
     0
102
RTVSPropertyOp19
 70
     0
102
RTVSPropertyOp20
 70
     0
102
RTVSPropertyOp21
 70
     0
102
RTVSPropertyOp22
 70
     0
102
RTVSPropertyOp23
 70
     0
102
RTVSPropertyOp24
 70
     0
102
RTVSPropertyOp25
 70
     0
102
RTVSPropertyOp26
 70
     0
102
RTVSPropertyOp27
 70
     0
102
RTVSPropertyOp28
 70
     1
102
RTVSPropertyOp29
 70
     1
102
RTVSPropertyOp30
 70
     1
102
RTVSPropertyOp31
 70
     1
102
RTVSPropertyOp32
 70
     1
102
RTVSPropertyOp33
 70
     1
102
RTVSPropertyOp34
 70
     1
102
RTVSPropertyOp35
 70
     1
102
RTVSPropertyOp36
 70
     1
102
RTVSPropertyOp37
 70
     1
102
RTVSPropertyOp38
 70
     1
102
RTVSPropertyOp39
 70
     1
102
RTVSPropertyOp40
 70
     1
102
RTVSPropertyOp41
 70
     1
102
RTVSPropertyOp42
 70
     1
102
RTVSPropertyOp43
 70
     1
102
RTVSPropertyOp44
 70
     1
102
RTVSPropertyOp45
 70
     1
102
RTVSPropertyOp46
 70
     1
102
RTVSPropertyOp47
 70
     1
102
RTVSPropertyOp48
 70
     1
102
RTVSPropertyOp49
 70
     1
102
RTVSPropertyOp50
 70
     1
102
RTVSPropertyOp51
 70
     0
102
RTVSPropertyOp52
 70
     0
102
RTVSPropertyOp53
 70
     1
102
RTVSPropertyOp54
 70
     1
102
RTVSPropertyOp55
 70
     1
102
RTVSPropertyOp56
 70
     1
102
RTVSPropertyOp57
 70
     1
102
RTVSPost2010Prop28
280
     0
102
RTVSPost2010PropOp28
 70
     1
102
RTVSPost2010Prop29
280
     1
102
RTVSPost2010PropOp29
 70
     1
102
RTVSPost2010Prop30
280
     1
102
RTVSPost2010PropOp30
 70
     1
102
RTVSPost2010Prop31
280
     0
102
RTVSPost2010PropOp31
 70
     1
102
RTVSPost2010Prop32
280
     0
102
RTVSPost2010PropOp32
 70
     1
102
RTVSPost2010Prop33
280
     0
102
RTVSPost2010PropOp33
 70
     1
102
RTVSPost2010Prop34
280
     0
102
RTVSPost2010PropOp34
 70
     1
102
RTVSPost2010Prop35
280
     0
102
RTVSPost2010PropOp35
 70
     1
102
RTVSPost2010Prop36
280
     0
102
RTVSPost2010PropOp36
 70
     1
102
RTVSPost2010Prop37
 90
       50
102
RTVSPost2010PropOp37
 70
     1
102
RTVSPost2010Prop38
140
0.0
102
RTVSPost2010PropOp38
 70
     1
102
RTVSPost2010Prop39
140
1.0
102
RTVSPost2010PropOp39
 70
     1
102
RTVSPost2010Prop40
 90
        0
102
RTVSPost2010PropOp40
 70
     1
102
RTVSPost2010Prop41ColorIndex
 90
       18
102
RTVSPost2010Prop41ColorRGB
 90
        0
102
RTVSPost2010PropOp41
 70
     1
102
RTVSPost2010Prop42
 90
       50
102
RTVSPost2010PropOp42
 70
     1
102
RTVSPost2010Prop43
 90
        3
102
RTVSPost2010PropOp43
 70
     1
102
RTVSPost2010Prop44ColorIndex
 90
        5
102
RTVSPost2010Prop44ColorRGB
 90
      255
102
RTVSPost2010PropOp44
 70
     1
102
RTVSPost2010Prop45
280
     0
102
RTVSPost2010PropOp45
 70
     1
102
RTVSPost2010Prop46
 90
       50
102
RTVSPost2010PropOp46
 70
     1
102
RTVSPost2010Prop47
 90
       50
102
RTVSPost2010PropOp47
 70
     1
102
RTVSPost2010Prop48
 90
       50
102
RTVSPost2010PropOp48
 70
     1
102
RTVSPost2010Prop49
280
     0
102
RTVSPost2010PropOp49
 70
     1
102
RTVSPost2010Prop50
 90
       50
102
RTVSPost2010PropOp50
 70
     1
102
RTVSPost2010Prop51ColorIndex
 90
      256
102
RTVSPost2010Prop51ColorRGB
 90
-16777216
102
RTVSPost2010PropOp51
 70
     0
102
RTVSPost2010Prop52
140
1.0
102
RTVSPost2010PropOp52
 70
     0
102
RTVSPost2010Prop53
 90
        2
102
RTVSPost2010PropOp53
 70
     1
102
RTVSPost2010Prop54
  1
strokes_ogs.tif
102
RTVSPost2010PropOp54
 70
     1
102
RTVSPost2010Prop55
280
     0
102
RTVSPost2010PropOp55
 70
     1
102
RTVSPost2010Prop56
140
1.0
102
RTVSPost2010PropOp56
 70
     1
102
RTVSPost2010Prop57
140
1.0
102
RTVSPost2010PropOp57
 70
     1
  0
XRECORD
  5
68D
102
{ACAD_REACTORS
330
68C
102
}
330
68C
100
AcDbXrecord
280
     1
102
RTVSPropertyOp0
 70
     1
102
RTVSPropertyOp1
 70
     1
102
RTVSPropertyOp2
 70
     1
102
RTVSPropertyOp3
 70
     1
102
RTVSPropertyOp4
 70
     1
102
RTVSPropertyOp5
 70
     1
102
RTVSPropertyOp6
 70
     1
102
RTVSPropertyOp7
 70
     1
102
RTVSPropertyOp8
 70
     1
102
RTVSPropertyOp9
 70
     1
102
RTVSPropertyOp10
 70
     1
102
RTVSPropertyOp11
 70
     1
102
RTVSPropertyOp12
 70
     1
102
RTVSPropertyOp13
 70
     1
102
RTVSPropertyOp14
 70
     1
102
RTVSPropertyOp15
 70
     1
102
RTVSPropertyOp16
 70
     1
102
RTVSPropertyOp17
 70
     1
102
RTVSPropertyOp18
 70
     1
102
RTVSPropertyOp19
 70
     1
102
RTVSPropertyOp20
 70
     1
102
RTVSPropertyOp21
 70
     1
102
RTVSPropertyOp22
 70
     1
102
RTVSPropertyOp23
 70
     1
102
RTVSPropertyOp24
 70
     1
102
RTVSPropertyOp25
 70
     1
102
RTVSPropertyOp26
 70
     1
102
RTVSPropertyOp27
 70
     1
102
RTVSPropertyOp28
 70
     1
102
RTVSPropertyOp29
 70
     1
102
RTVSPropertyOp30
 70
     1
102
RTVSPropertyOp31
 70
     1
102
RTVSPropertyOp32
 70
     1
102
RTVSPropertyOp33
 70
     1
102
RTVSPropertyOp34
 70
     1
102
RTVSPropertyOp35
 70
     1
102
RTVSPropertyOp36
 70
     1
102
RTVSPropertyOp37
 70
     1
102
RTVSPropertyOp38
 70
     1
102
RTVSPropertyOp39
 70
     1
102
RTVSPropertyOp40
 70
     1
102
RTVSPropertyOp41
 70
     1
102
RTVSPropertyOp42
 70
     1
102
RTVSPropertyOp43
 70
     1
102
RTVSPropertyOp44
 70
     1
102
RTVSPropertyOp45
 70
     1
102
RTVSPropertyOp46
 70
     1
102
RTVSPropertyOp47
 70
     1
102
RTVSPropertyOp48
 70
     1
102
RTVSPropertyOp49
 70
     1
102
RTVSPropertyOp50
 70
     1
102
RTVSPropertyOp51
 70
     0
102
RTVSPropertyOp52
 70
     0
102
RTVSPropertyOp53
 70
     1
102
RTVSPropertyOp54
 70
     1
102
RTVSPropertyOp55
 70
     1
102
RTVSPropertyOp56
 70
     1
102
RTVSPropertyOp57
 70
     1
102
RTVSPost2010Prop28
280
     0
102
RTVSPost2010PropOp28
 70
     1
102
RTVSPost2010Prop29
280
     1
102
RTVSPost2010PropOp29
 70
     1
102
RTVSPost2010Prop30
280
     1
102
RTVSPost2010PropOp30
 70
     1
102
RTVSPost2010Prop31
280
     0
102
RTVSPost2010PropOp31
 70
     1
102
RTVSPost2010Prop32
280
     0
102
RTVSPost2010PropOp32
 70
     1
102
RTVSPost2010Prop33
280
     0
102
RTVSPost2010PropOp33
 70
     1
102
RTVSPost2010Prop34
280
     0
102
RTVSPost2010PropOp34
 70
     1
102
RTVSPost2010Prop35
280
     0
102
RTVSPost2010PropOp35
 70
     1
102
RTVSPost2010Prop36
280
     0
102
RTVSPost2010PropOp36
 70
     1
102
RTVSPost2010Prop37
 90
       50
102
RTVSPost2010PropOp37
 70
     1
102
RTVSPost2010Prop38
140
0.0
102
RTVSPost2010PropOp38
 70
     1
102
RTVSPost2010Prop39
140
1.0
102
RTVSPost2010PropOp39
 70
     1
102
RTVSPost2010Prop40
 90
        0
102
RTVSPost2010PropOp40
 70
     1
102
RTVSPost2010Prop41ColorIndex
 90
       18
102
RTVSPost2010Prop41ColorRGB
 90
        0
102
RTVSPost2010PropOp41
 70
     1
102
RTVSPost2010Prop42
 90
       50
102
RTVSPost2010PropOp42
 70
     1
102
RTVSPost2010Prop43
 90
        3
102
RTVSPost2010PropOp43
 70
     1
102
RTVSPost2010Prop44ColorIndex
 90
        5
102
RTVSPost2010Prop44ColorRGB
 90
      255
102
RTVSPost2010PropOp44
 70
     1
102
RTVSPost2010Prop45
280
     0
102
RTVSPost2010PropOp45
 70
     1
102
RTVSPost2010Prop46
 90
       50
102
RTVSPost2010PropOp46
 70
     1
102
RTVSPost2010Prop47
 90
       50
102
RTVSPost2010PropOp47
 70
     1
102
RTVSPost2010Prop48
 90
       50
102
RTVSPost2010PropOp48
 70
     1
102
RTVSPost2010Prop49
280
     0
102
RTVSPost2010PropOp49
 70
     1
102
RTVSPost2010Prop50
 90
       50
102
RTVSPost2010PropOp50
 70
     1
102
RTVSPost2010Prop51ColorIndex
 90
      256
102
RTVSPost2010Prop51ColorRGB
 90
-16777216
102
RTVSPost2010PropOp51
 70
     0
102
RTVSPost2010Prop52
140
1.0
102
RTVSPost2010PropOp52
 70
     0
102
RTVSPost2010Prop53
 90
        2
102
RTVSPost2010PropOp53
 70
     1
102
RTVSPost2010Prop54
  1
strokes_ogs.tif
102
RTVSPost2010PropOp54
 70
     1
102
RTVSPost2010Prop55
280
     0
102
RTVSPost2010PropOp55
 70
     1
102
RTVSPost2010Prop56
140
1.0
102
RTVSPost2010PropOp56
 70
     1
102
RTVSPost2010Prop57
140
1.0
102
RTVSPost2010PropOp57
 70
     1
  0
XRECORD
  5
6BB
102
{ACAD_REACTORS
330
6BA
102
}
330
6BA
100
AcDbXrecord
280
     1
102
RTVSPropertyOp0
 70
     1
102
RTVSPropertyOp1
 70
     1
102
RTVSPropertyOp2
 70
     1
102
RTVSPropertyOp3
 70
     1
102
RTVSPropertyOp4
 70
     1
102
RTVSPropertyOp5
 70
     1
102
RTVSPropertyOp6
 70
     1
102
RTVSPropertyOp7
 70
     1
102
RTVSPropertyOp8
 70
     1
102
RTVSPropertyOp9
 70
     1
102
RTVSPropertyOp10
 70
     1
102
RTVSPropertyOp11
 70
     1
102
RTVSPropertyOp12
 70
     1
102
RTVSPropertyOp13
 70
     1
102
RTVSPropertyOp14
 70
     1
102
RTVSPropertyOp15
 70
     1
102
RTVSPropertyOp16
 70
     1
102
RTVSPropertyOp17
 70
     1
102
RTVSPropertyOp18
 70
     1
102
RTVSPropertyOp19
 70
     1
102
RTVSPropertyOp20
 70
     1
102
RTVSPropertyOp21
 70
     1
102
RTVSPropertyOp22
 70
     1
102
RTVSPropertyOp23
 70
     1
102
RTVSPropertyOp24
 70
     1
102
RTVSPropertyOp25
 70
     1
102
RTVSPropertyOp26
 70
     1
102
RTVSPropertyOp27
 70
     1
102
RTVSPropertyOp28
 70
     1
102
RTVSPropertyOp29
 70
     1
102
RTVSPropertyOp30
 70
     1
102
RTVSPropertyOp31
 70
     1
102
RTVSPropertyOp32
 70
     1
102
RTVSPropertyOp33
 70
     1
102
RTVSPropertyOp34
 70
     1
102
RTVSPropertyOp35
 70
     1
102
RTVSPropertyOp36
 70
     1
102
RTVSPropertyOp37
 70
     1
102
RTVSPropertyOp38
 70
     1
102
RTVSPropertyOp39
 70
     1
102
RTVSPropertyOp40
 70
     1
102
RTVSPropertyOp41
 70
     1
102
RTVSPropertyOp42
 70
     1
102
RTVSPropertyOp43
 70
     1
102
RTVSPropertyOp44
 70
     1
102
RTVSPropertyOp45
 70
     1
102
RTVSPropertyOp46
 70
     1
102
RTVSPropertyOp47
 70
     1
102
RTVSPropertyOp48
 70
     1
102
RTVSPropertyOp49
 70
     1
102
RTVSPropertyOp50
 70
     1
102
RTVSPropertyOp51
 70
     0
102
RTVSPropertyOp52
 70
     0
102
RTVSPropertyOp53
 70
     1
102
RTVSPropertyOp54
 70
     1
102
RTVSPropertyOp55
 70
     1
102
RTVSPropertyOp56
 70
     1
102
RTVSPropertyOp57
 70
     1
102
RTVSPost2010Prop28
280
     0
102
RTVSPost2010PropOp28
 70
     1
102
RTVSPost2010Prop29
280
     1
102
RTVSPost2010PropOp29
 70
     1
102
RTVSPost2010Prop30
280
     1
102
RTVSPost2010PropOp30
 70
     1
102
RTVSPost2010Prop31
280
     0
102
RTVSPost2010PropOp31
 70
     1
102
RTVSPost2010Prop32
280
     0
102
RTVSPost2010PropOp32
 70
     1
102
RTVSPost2010Prop33
280
     0
102
RTVSPost2010PropOp33
 70
     1
102
RTVSPost2010Prop34
280
     0
102
RTVSPost2010PropOp34
 70
     1
102
RTVSPost2010Prop35
280
     0
102
RTVSPost2010PropOp35
 70
     1
102
RTVSPost2010Prop36
280
     0
102
RTVSPost2010PropOp36
 70
     1
102
RTVSPost2010Prop37
 90
       50
102
RTVSPost2010PropOp37
 70
     1
102
RTVSPost2010Prop38
140
0.0
102
RTVSPost2010PropOp38
 70
     1
102
RTVSPost2010Prop39
140
1.0
102
RTVSPost2010PropOp39
 70
     1
102
RTVSPost2010Prop40
 90
        0
102
RTVSPost2010PropOp40
 70
     1
102
RTVSPost2010Prop41ColorIndex
 90
       18
102
RTVSPost2010Prop41ColorRGB
 90
        0
102
RTVSPost2010PropOp41
 70
     1
102
RTVSPost2010Prop42
 90
       50
102
RTVSPost2010PropOp42
 70
     1
102
RTVSPost2010Prop43
 90
        3
102
RTVSPost2010PropOp43
 70
     1
102
RTVSPost2010Prop44ColorIndex
 90
        5
102
RTVSPost2010Prop44ColorRGB
 90
      255
102
RTVSPost2010PropOp44
 70
     1
102
RTVSPost2010Prop45
280
     0
102
RTVSPost2010PropOp45
 70
     1
102
RTVSPost2010Prop46
 90
       50
102
RTVSPost2010PropOp46
 70
     1
102
RTVSPost2010Prop47
 90
       50
102
RTVSPost2010PropOp47
 70
     1
102
RTVSPost2010Prop48
 90
       50
102
RTVSPost2010PropOp48
 70
     1
102
RTVSPost2010Prop49
280
     0
102
RTVSPost2010PropOp49
 70
     1
102
RTVSPost2010Prop50
 90
       50
102
RTVSPost2010PropOp50
 70
     1
102
RTVSPost2010Prop51ColorIndex
 90
      256
102
RTVSPost2010Prop51ColorRGB
 90
-16777216
102
RTVSPost2010PropOp51
 70
     0
102
RTVSPost2010Prop52
140
1.0
102
RTVSPost2010PropOp52
 70
     0
102
RTVSPost2010Prop53
 90
        2
102
RTVSPost2010PropOp53
 70
     1
102
RTVSPost2010Prop54
  1
strokes_ogs.tif
102
RTVSPost2010PropOp54
 70
     1
102
RTVSPost2010Prop55
280
     0
102
RTVSPost2010PropOp55
 70
     1
102
RTVSPost2010Prop56
140
1.0
102
RTVSPost2010PropOp56
 70
     1
102
RTVSPost2010Prop57
140
1.0
102
RTVSPost2010PropOp57
 70
     1
  0
XRECORD
  5
6B9
102
{ACAD_REACTORS
330
6B8
102
}
330
6B8
100
AcDbXrecord
280
     1
102
RTVSPropertyOp0
 70
     1
102
RTVSPropertyOp1
 70
     1
102
RTVSPropertyOp2
 70
     1
102
RTVSPropertyOp3
 70
     1
102
RTVSPropertyOp4
 70
     1
102
RTVSPropertyOp5
 70
     1
102
RTVSPropertyOp6
 70
     1
102
RTVSPropertyOp7
 70
     1
102
RTVSPropertyOp8
 70
     1
102
RTVSPropertyOp9
 70
     1
102
RTVSPropertyOp10
 70
     1
102
RTVSPropertyOp11
 70
     1
102
RTVSPropertyOp12
 70
     1
102
RTVSPropertyOp13
 70
     1
102
RTVSPropertyOp14
 70
     1
102
RTVSPropertyOp15
 70
     1
102
RTVSPropertyOp16
 70
     1
102
RTVSPropertyOp17
 70
     1
102
RTVSPropertyOp18
 70
     1
102
RTVSPropertyOp19
 70
     1
102
RTVSPropertyOp20
 70
     1
102
RTVSPropertyOp21
 70
     1
102
RTVSPropertyOp22
 70
     1
102
RTVSPropertyOp23
 70
     1
102
RTVSPropertyOp24
 70
     1
102
RTVSPropertyOp25
 70
     1
102
RTVSPropertyOp26
 70
     1
102
RTVSPropertyOp27
 70
     1
102
RTVSPropertyOp28
 70
     1
102
RTVSPropertyOp29
 70
     1
102
RTVSPropertyOp30
 70
     1
102
RTVSPropertyOp31
 70
     1
102
RTVSPropertyOp32
 70
     1
102
RTVSPropertyOp33
 70
     1
102
RTVSPropertyOp34
 70
     1
102
RTVSPropertyOp35
 70
     1
102
RTVSPropertyOp36
 70
     1
102
RTVSPropertyOp37
 70
     1
102
RTVSPropertyOp38
 70
     1
102
RTVSPropertyOp39
 70
     1
102
RTVSPropertyOp40
 70
     1
102
RTVSPropertyOp41
 70
     1
102
RTVSPropertyOp42
 70
     1
102
RTVSPropertyOp43
 70
     1
102
RTVSPropertyOp44
 70
     1
102
RTVSPropertyOp45
 70
     1
102
RTVSPropertyOp46
 70
     1
102
RTVSPropertyOp47
 70
     1
102
RTVSPropertyOp48
 70
     1
102
RTVSPropertyOp49
 70
     1
102
RTVSPropertyOp50
 70
     1
102
RTVSPropertyOp51
 70
     0
102
RTVSPropertyOp52
 70
     0
102
RTVSPropertyOp53
 70
     1
102
RTVSPropertyOp54
 70
     1
102
RTVSPropertyOp55
 70
     1
102
RTVSPropertyOp56
 70
     1
102
RTVSPropertyOp57
 70
     1
102
RTVSPost2010Prop28
280
     0
102
RTVSPost2010PropOp28
 70
     1
102
RTVSPost2010Prop29
280
     1
102
RTVSPost2010PropOp29
 70
     1
102
RTVSPost2010Prop30
280
     1
102
RTVSPost2010PropOp30
 70
     1
102
RTVSPost2010Prop31
280
     0
102
RTVSPost2010PropOp31
 70
     1
102
RTVSPost2010Prop32
280
     0
102
RTVSPost2010PropOp32
 70
     1
102
RTVSPost2010Prop33
280
     0
102
RTVSPost2010PropOp33
 70
     1
102
RTVSPost2010Prop34
280
     0
102
RTVSPost2010PropOp34
 70
     1
102
RTVSPost2010Prop35
280
     0
102
RTVSPost2010PropOp35
 70
     1
102
RTVSPost2010Prop36
280
     0
102
RTVSPost2010PropOp36
 70
     1
102
RTVSPost2010Prop37
 90
       50
102
RTVSPost2010PropOp37
 70
     1
102
RTVSPost2010Prop38
140
0.0
102
RTVSPost2010PropOp38
 70
     1
102
RTVSPost2010Prop39
140
1.0
102
RTVSPost2010PropOp39
 70
     1
102
RTVSPost2010Prop40
 90
        0
102
RTVSPost2010PropOp40
 70
     1
102
RTVSPost2010Prop41ColorIndex
 90
       18
102
RTVSPost2010Prop41ColorRGB
 90
        0
102
RTVSPost2010PropOp41
 70
     1
102
RTVSPost2010Prop42
 90
       50
102
RTVSPost2010PropOp42
 70
     1
102
RTVSPost2010Prop43
 90
        3
102
RTVSPost2010PropOp43
 70
     1
102
RTVSPost2010Prop44ColorIndex
 90
        5
102
RTVSPost2010Prop44ColorRGB
 90
      255
102
RTVSPost2010PropOp44
 70
     1
102
RTVSPost2010Prop45
280
     0
102
RTVSPost2010PropOp45
 70
     1
102
RTVSPost2010Prop46
 90
       50
102
RTVSPost2010PropOp46
 70
     1
102
RTVSPost2010Prop47
 90
       50
102
RTVSPost2010PropOp47
 70
     1
102
RTVSPost2010Prop48
 90
       50
102
RTVSPost2010PropOp48
 70
     1
102
RTVSPost2010Prop49
280
     0
102
RTVSPost2010PropOp49
 70
     1
102
RTVSPost2010Prop50
 90
       50
102
RTVSPost2010PropOp50
 70
     1
102
RTVSPost2010Prop51ColorIndex
 90
      256
102
RTVSPost2010Prop51ColorRGB
 90
-16777216
102
RTVSPost2010PropOp51
 70
     0
102
RTVSPost2010Prop52
140
1.0
102
RTVSPost2010PropOp52
 70
     0
102
RTVSPost2010Prop53
 90
        2
102
RTVSPost2010PropOp53
 70
     1
102
RTVSPost2010Prop54
  1
strokes_ogs.tif
102
RTVSPost2010PropOp54
 70
     1
102
RTVSPost2010Prop55
280
     0
102
RTVSPost2010PropOp55
 70
     1
102
RTVSPost2010Prop56
140
1.0
102
RTVSPost2010PropOp56
 70
     1
102
RTVSPost2010Prop57
140
1.0
102
RTVSPost2010PropOp57
 70
     1
  0
XRECORD
  5
6B3
102
{ACAD_REACTORS
330
6B2
102
}
330
6B2
100
AcDbXrecord
280
     1
102
RTVSPropertyOp0
 70
     1
102
RTVSPropertyOp1
 70
     1
102
RTVSPropertyOp2
 70
     1
102
RTVSPropertyOp3
 70
     1
102
RTVSPropertyOp4
 70
     1
102
RTVSPropertyOp5
 70
     1
102
RTVSPropertyOp6
 70
     1
102
RTVSPropertyOp7
 70
     1
102
RTVSPropertyOp8
 70
     1
102
RTVSPropertyOp9
 70
     1
102
RTVSPropertyOp10
 70
     1
102
RTVSPropertyOp11
 70
     1
102
RTVSPropertyOp12
 70
     1
102
RTVSPropertyOp13
 70
     1
102
RTVSPropertyOp14
 70
     1
102
RTVSPropertyOp15
 70
     1
102
RTVSPropertyOp16
 70
     1
102
RTVSPropertyOp17
 70
     1
102
RTVSPropertyOp18
 70
     1
102
RTVSPropertyOp19
 70
     1
102
RTVSPropertyOp20
 70
     1
102
RTVSPropertyOp21
 70
     1
102
RTVSPropertyOp22
 70
     1
102
RTVSPropertyOp23
 70
     1
102
RTVSPropertyOp24
 70
     1
102
RTVSPropertyOp25
 70
     1
102
RTVSPropertyOp26
 70
     1
102
RTVSPropertyOp27
 70
     1
102
RTVSPropertyOp28
 70
     1
102
RTVSPropertyOp29
 70
     1
102
RTVSPropertyOp30
 70
     1
102
RTVSPropertyOp31
 70
     1
102
RTVSPropertyOp32
 70
     1
102
RTVSPropertyOp33
 70
     1
102
RTVSPropertyOp34
 70
     1
102
RTVSPropertyOp35
 70
     1
102
RTVSPropertyOp36
 70
     1
102
RTVSPropertyOp37
 70
     1
102
RTVSPropertyOp38
 70
     1
102
RTVSPropertyOp39
 70
     1
102
RTVSPropertyOp40
 70
     1
102
RTVSPropertyOp41
 70
     1
102
RTVSPropertyOp42
 70
     1
102
RTVSPropertyOp43
 70
     1
102
RTVSPropertyOp44
 70
     1
102
RTVSPropertyOp45
 70
     1
102
RTVSPropertyOp46
 70
     1
102
RTVSPropertyOp47
 70
     1
102
RTVSPropertyOp48
 70
     1
102
RTVSPropertyOp49
 70
     1
102
RTVSPropertyOp50
 70
     1
102
RTVSPropertyOp51
 70
     0
102
RTVSPropertyOp52
 70
     0
102
RTVSPropertyOp53
 70
     1
102
RTVSPropertyOp54
 70
     1
102
RTVSPropertyOp55
 70
     1
102
RTVSPropertyOp56
 70
     1
102
RTVSPropertyOp57
 70
     1
102
RTVSPost2010Prop28
280
     0
102
RTVSPost2010PropOp28
 70
     1
102
RTVSPost2010Prop29
280
     1
102
RTVSPost2010PropOp29
 70
     1
102
RTVSPost2010Prop30
280
     1
102
RTVSPost2010PropOp30
 70
     1
102
RTVSPost2010Prop31
280
     0
102
RTVSPost2010PropOp31
 70
     1
102
RTVSPost2010Prop32
280
     0
102
RTVSPost2010PropOp32
 70
     1
102
RTVSPost2010Prop33
280
     0
102
RTVSPost2010PropOp33
 70
     1
102
RTVSPost2010Prop34
280
     0
102
RTVSPost2010PropOp34
 70
     1
102
RTVSPost2010Prop35
280
     0
102
RTVSPost2010PropOp35
 70
     1
102
RTVSPost2010Prop36
280
     0
102
RTVSPost2010PropOp36
 70
     1
102
RTVSPost2010Prop37
 90
       50
102
RTVSPost2010PropOp37
 70
     1
102
RTVSPost2010Prop38
140
0.0
102
RTVSPost2010PropOp38
 70
     1
102
RTVSPost2010Prop39
140
1.0
102
RTVSPost2010PropOp39
 70
     1
102
RTVSPost2010Prop40
 90
        0
102
RTVSPost2010PropOp40
 70
     1
102
RTVSPost2010Prop41ColorIndex
 90
       18
102
RTVSPost2010Prop41ColorRGB
 90
        0
102
RTVSPost2010PropOp41
 70
     1
102
RTVSPost2010Prop42
 90
       50
102
RTVSPost2010PropOp42
 70
     1
102
RTVSPost2010Prop43
 90
        3
102
RTVSPost2010PropOp43
 70
     1
102
RTVSPost2010Prop44ColorIndex
 90
        5
102
RTVSPost2010Prop44ColorRGB
 90
      255
102
RTVSPost2010PropOp44
 70
     1
102
RTVSPost2010Prop45
280
     0
102
RTVSPost2010PropOp45
 70
     1
102
RTVSPost2010Prop46
 90
       50
102
RTVSPost2010PropOp46
 70
     1
102
RTVSPost2010Prop47
 90
       50
102
RTVSPost2010PropOp47
 70
     1
102
RTVSPost2010Prop48
 90
       50
102
RTVSPost2010PropOp48
 70
     1
102
RTVSPost2010Prop49
280
     0
102
RTVSPost2010PropOp49
 70
     1
102
RTVSPost2010Prop50
 90
       50
102
RTVSPost2010PropOp50
 70
     1
102
RTVSPost2010Prop51ColorIndex
 90
      256
102
RTVSPost2010Prop51ColorRGB
 90
-16777216
102
RTVSPost2010PropOp51
 70
     0
102
RTVSPost2010Prop52
140
1.0
102
RTVSPost2010PropOp52
 70
     0
102
RTVSPost2010Prop53
 90
        2
102
RTVSPost2010PropOp53
 70
     1
102
RTVSPost2010Prop54
  1
strokes_ogs.tif
102
RTVSPost2010PropOp54
 70
     1
102
RTVSPost2010Prop55
280
     0
102
RTVSPost2010PropOp55
 70
     1
102
RTVSPost2010Prop56
140
1.0
102
RTVSPost2010PropOp56
 70
     1
102
RTVSPost2010Prop57
140
1.0
102
RTVSPost2010PropOp57
 70
     1
  0
XRECORD
  5
6B5
102
{ACAD_REACTORS
330
6B4
102
}
330
6B4
100
AcDbXrecord
280
     1
102
RTVSPropertyOp0
 70
     1
102
RTVSPropertyOp1
 70
     1
102
RTVSPropertyOp2
 70
     1
102
RTVSPropertyOp3
 70
     1
102
RTVSPropertyOp4
 70
     1
102
RTVSPropertyOp5
 70
     1
102
RTVSPropertyOp6
 70
     1
102
RTVSPropertyOp7
 70
     1
102
RTVSPropertyOp8
 70
     1
102
RTVSPropertyOp9
 70
     1
102
RTVSPropertyOp10
 70
     1
102
RTVSPropertyOp11
 70
     1
102
RTVSPropertyOp12
 70
     1
102
RTVSPropertyOp13
 70
     1
102
RTVSPropertyOp14
 70
     1
102
RTVSPropertyOp15
 70
     1
102
RTVSPropertyOp16
 70
     1
102
RTVSPropertyOp17
 70
     1
102
RTVSPropertyOp18
 70
     1
102
RTVSPropertyOp19
 70
     1
102
RTVSPropertyOp20
 70
     1
102
RTVSPropertyOp21
 70
     1
102
RTVSPropertyOp22
 70
     1
102
RTVSPropertyOp23
 70
     1
102
RTVSPropertyOp24
 70
     1
102
RTVSPropertyOp25
 70
     1
102
RTVSPropertyOp26
 70
     1
102
RTVSPropertyOp27
 70
     1
102
RTVSPropertyOp28
 70
     1
102
RTVSPropertyOp29
 70
     1
102
RTVSPropertyOp30
 70
     1
102
RTVSPropertyOp31
 70
     1
102
RTVSPropertyOp32
 70
     1
102
RTVSPropertyOp33
 70
     1
102
RTVSPropertyOp34
 70
     1
102
RTVSPropertyOp35
 70
     1
102
RTVSPropertyOp36
 70
     1
102
RTVSPropertyOp37
 70
     1
102
RTVSPropertyOp38
 70
     1
102
RTVSPropertyOp39
 70
     1
102
RTVSPropertyOp40
 70
     1
102
RTVSPropertyOp41
 70
     1
102
RTVSPropertyOp42
 70
     1
102
RTVSPropertyOp43
 70
     1
102
RTVSPropertyOp44
 70
     1
102
RTVSPropertyOp45
 70
     1
102
RTVSPropertyOp46
 70
     1
102
RTVSPropertyOp47
 70
     1
102
RTVSPropertyOp48
 70
     1
102
RTVSPropertyOp49
 70
     1
102
RTVSPropertyOp50
 70
     1
102
RTVSPropertyOp51
 70
     0
102
RTVSPropertyOp52
 70
     0
102
RTVSPropertyOp53
 70
     1
102
RTVSPropertyOp54
 70
     1
102
RTVSPropertyOp55
 70
     1
102
RTVSPropertyOp56
 70
     1
102
RTVSPropertyOp57
 70
     1
102
RTVSPost2010Prop28
280
     0
102
RTVSPost2010PropOp28
 70
     1
102
RTVSPost2010Prop29
280
     1
102
RTVSPost2010PropOp29
 70
     1
102
RTVSPost2010Prop30
280
     1
102
RTVSPost2010PropOp30
 70
     1
102
RTVSPost2010Prop31
280
     0
102
RTVSPost2010PropOp31
 70
     1
102
RTVSPost2010Prop32
280
     0
102
RTVSPost2010PropOp32
 70
     1
102
RTVSPost2010Prop33
280
     0
102
RTVSPost2010PropOp33
 70
     1
102
RTVSPost2010Prop34
280
     0
102
RTVSPost2010PropOp34
 70
     1
102
RTVSPost2010Prop35
280
     0
102
RTVSPost2010PropOp35
 70
     1
102
RTVSPost2010Prop36
280
     0
102
RTVSPost2010PropOp36
 70
     1
102
RTVSPost2010Prop37
 90
       50
102
RTVSPost2010PropOp37
 70
     1
102
RTVSPost2010Prop38
140
0.0
102
RTVSPost2010PropOp38
 70
     1
102
RTVSPost2010Prop39
140
1.0
102
RTVSPost2010PropOp39
 70
     1
102
RTVSPost2010Prop40
 90
        0
102
RTVSPost2010PropOp40
 70
     1
102
RTVSPost2010Prop41ColorIndex
 90
       18
102
RTVSPost2010Prop41ColorRGB
 90
        0
102
RTVSPost2010PropOp41
 70
     1
102
RTVSPost2010Prop42
 90
       50
102
RTVSPost2010PropOp42
 70
     1
102
RTVSPost2010Prop43
 90
        3
102
RTVSPost2010PropOp43
 70
     1
102
RTVSPost2010Prop44ColorIndex
 90
        5
102
RTVSPost2010Prop44ColorRGB
 90
      255
102
RTVSPost2010PropOp44
 70
     1
102
RTVSPost2010Prop45
280
     0
102
RTVSPost2010PropOp45
 70
     1
102
RTVSPost2010Prop46
 90
       50
102
RTVSPost2010PropOp46
 70
     1
102
RTVSPost2010Prop47
 90
       50
102
RTVSPost2010PropOp47
 70
     1
102
RTVSPost2010Prop48
 90
       50
102
RTVSPost2010PropOp48
 70
     1
102
RTVSPost2010Prop49
280
     0
102
RTVSPost2010PropOp49
 70
     1
102
RTVSPost2010Prop50
 90
       50
102
RTVSPost2010PropOp50
 70
     1
102
RTVSPost2010Prop51ColorIndex
 90
      256
102
RTVSPost2010Prop51ColorRGB
 90
-16777216
102
RTVSPost2010PropOp51
 70
     0
102
RTVSPost2010Prop52
140
1.0
102
RTVSPost2010PropOp52
 70
     0
102
RTVSPost2010Prop53
 90
        2
102
RTVSPost2010PropOp53
 70
     1
102
RTVSPost2010Prop54
  1
strokes_ogs.tif
102
RTVSPost2010PropOp54
 70
     1
102
RTVSPost2010Prop55
280
     0
102
RTVSPost2010PropOp55
 70
     1
102
RTVSPost2010Prop56
140
1.0
102
RTVSPost2010PropOp56
 70
     1
102
RTVSPost2010Prop57
140
1.0
102
RTVSPost2010PropOp57
 70
     1
  0
XRECORD
  5
6A5
102
{ACAD_REACTORS
330
6A4
102
}
330
6A4
100
AcDbXrecord
280
     1
102
RTVSPropertyOp0
 70
     1
102
RTVSPropertyOp1
 70
     1
102
RTVSPropertyOp2
 70
     1
102
RTVSPropertyOp3
 70
     1
102
RTVSPropertyOp4
 70
     1
102
RTVSPropertyOp5
 70
     1
102
RTVSPropertyOp6
 70
     1
102
RTVSPropertyOp7
 70
     1
102
RTVSPropertyOp8
 70
     1
102
RTVSPropertyOp9
 70
     1
102
RTVSPropertyOp10
 70
     1
102
RTVSPropertyOp11
 70
     1
102
RTVSPropertyOp12
 70
     1
102
RTVSPropertyOp13
 70
     1
102
RTVSPropertyOp14
 70
     1
102
RTVSPropertyOp15
 70
     1
102
RTVSPropertyOp16
 70
     1
102
RTVSPropertyOp17
 70
     1
102
RTVSPropertyOp18
 70
     1
102
RTVSPropertyOp19
 70
     1
102
RTVSPropertyOp20
 70
     1
102
RTVSPropertyOp21
 70
     1
102
RTVSPropertyOp22
 70
     1
102
RTVSPropertyOp23
 70
     1
102
RTVSPropertyOp24
 70
     1
102
RTVSPropertyOp25
 70
     1
102
RTVSPropertyOp26
 70
     1
102
RTVSPropertyOp27
 70
     1
102
RTVSPropertyOp28
 70
     1
102
RTVSPropertyOp29
 70
     1
102
RTVSPropertyOp30
 70
     1
102
RTVSPropertyOp31
 70
     1
102
RTVSPropertyOp32
 70
     1
102
RTVSPropertyOp33
 70
     1
102
RTVSPropertyOp34
 70
     1
102
RTVSPropertyOp35
 70
     1
102
RTVSPropertyOp36
 70
     1
102
RTVSPropertyOp37
 70
     1
102
RTVSPropertyOp38
 70
     1
102
RTVSPropertyOp39
 70
     1
102
RTVSPropertyOp40
 70
     1
102
RTVSPropertyOp41
 70
     1
102
RTVSPropertyOp42
 70
     1
102
RTVSPropertyOp43
 70
     1
102
RTVSPropertyOp44
 70
     1
102
RTVSPropertyOp45
 70
     1
102
RTVSPropertyOp46
 70
     1
102
RTVSPropertyOp47
 70
     1
102
RTVSPropertyOp48
 70
     1
102
RTVSPropertyOp49
 70
     1
102
RTVSPropertyOp50
 70
     1
102
RTVSPropertyOp51
 70
     0
102
RTVSPropertyOp52
 70
     0
102
RTVSPropertyOp53
 70
     1
102
RTVSPropertyOp54
 70
     1
102
RTVSPropertyOp55
 70
     1
102
RTVSPropertyOp56
 70
     1
102
RTVSPropertyOp57
 70
     1
102
RTVSPost2010Prop28
280
     0
102
RTVSPost2010PropOp28
 70
     1
102
RTVSPost2010Prop29
280
     1
102
RTVSPost2010PropOp29
 70
     1
102
RTVSPost2010Prop30
280
     1
102
RTVSPost2010PropOp30
 70
     1
102
RTVSPost2010Prop31
280
     0
102
RTVSPost2010PropOp31
 70
     1
102
RTVSPost2010Prop32
280
     0
102
RTVSPost2010PropOp32
 70
     1
102
RTVSPost2010Prop33
280
     0
102
RTVSPost2010PropOp33
 70
     1
102
RTVSPost2010Prop34
280
     0
102
RTVSPost2010PropOp34
 70
     1
102
RTVSPost2010Prop35
280
     0
102
RTVSPost2010PropOp35
 70
     1
102
RTVSPost2010Prop36
280
     0
102
RTVSPost2010PropOp36
 70
     1
102
RTVSPost2010Prop37
 90
       50
102
RTVSPost2010PropOp37
 70
     1
102
RTVSPost2010Prop38
140
0.0
102
RTVSPost2010PropOp38
 70
     1
102
RTVSPost2010Prop39
140
1.0
102
RTVSPost2010PropOp39
 70
     1
102
RTVSPost2010Prop40
 90
        0
102
RTVSPost2010PropOp40
 70
     1
102
RTVSPost2010Prop41ColorIndex
 90
       18
102
RTVSPost2010Prop41ColorRGB
 90
        0
102
RTVSPost2010PropOp41
 70
     1
102
RTVSPost2010Prop42
 90
       50
102
RTVSPost2010PropOp42
 70
     1
102
RTVSPost2010Prop43
 90
        3
102
RTVSPost2010PropOp43
 70
     1
102
RTVSPost2010Prop44ColorIndex
 90
        5
102
RTVSPost2010Prop44ColorRGB
 90
      255
102
RTVSPost2010PropOp44
 70
     1
102
RTVSPost2010Prop45
280
     0
102
RTVSPost2010PropOp45
 70
     1
102
RTVSPost2010Prop46
 90
       50
102
RTVSPost2010PropOp46
 70
     1
102
RTVSPost2010Prop47
 90
       50
102
RTVSPost2010PropOp47
 70
     1
102
RTVSPost2010Prop48
 90
       50
102
RTVSPost2010PropOp48
 70
     1
102
RTVSPost2010Prop49
280
     0
102
RTVSPost2010PropOp49
 70
     1
102
RTVSPost2010Prop50
 90
       50
102
RTVSPost2010PropOp50
 70
     1
102
RTVSPost2010Prop51ColorIndex
 90
      256
102
RTVSPost2010Prop51ColorRGB
 90
-16777216
102
RTVSPost2010PropOp51
 70
     0
102
RTVSPost2010Prop52
140
1.0
102
RTVSPost2010PropOp52
 70
     0
102
RTVSPost2010Prop53
 90
        2
102
RTVSPost2010PropOp53
 70
     1
102
RTVSPost2010Prop54
  1
strokes_ogs.tif
102
RTVSPost2010PropOp54
 70
     1
102
RTVSPost2010Prop55
280
     0
102
RTVSPost2010PropOp55
 70
     1
102
RTVSPost2010Prop56
140
1.0
102
RTVSPost2010PropOp56
 70
     1
102
RTVSPost2010Prop57
140
1.0
102
RTVSPost2010PropOp57
 70
     1
  0
XRECORD
  5
68F
102
{ACAD_REACTORS
330
68E
102
}
330
68E
100
AcDbXrecord
280
     1
102
RTVSPropertyOp0
 70
     1
102
RTVSPropertyOp1
 70
     1
102
RTVSPropertyOp2
 70
     1
102
RTVSPropertyOp3
 70
     1
102
RTVSPropertyOp4
 70
     1
102
RTVSPropertyOp5
 70
     1
102
RTVSPropertyOp6
 70
     1
102
RTVSPropertyOp7
 70
     1
102
RTVSPropertyOp8
 70
     1
102
RTVSPropertyOp9
 70
     1
102
RTVSPropertyOp10
 70
     1
102
RTVSPropertyOp11
 70
     1
102
RTVSPropertyOp12
 70
     1
102
RTVSPropertyOp13
 70
     1
102
RTVSPropertyOp14
 70
     1
102
RTVSPropertyOp15
 70
     1
102
RTVSPropertyOp16
 70
     1
102
RTVSPropertyOp17
 70
     1
102
RTVSPropertyOp18
 70
     1
102
RTVSPropertyOp19
 70
     1
102
RTVSPropertyOp20
 70
     1
102
RTVSPropertyOp21
 70
     1
102
RTVSPropertyOp22
 70
     1
102
RTVSPropertyOp23
 70
     1
102
RTVSPropertyOp24
 70
     1
102
RTVSPropertyOp25
 70
     1
102
RTVSPropertyOp26
 70
     1
102
RTVSPropertyOp27
 70
     1
102
RTVSPropertyOp28
 70
     1
102
RTVSPropertyOp29
 70
     1
102
RTVSPropertyOp30
 70
     1
102
RTVSPropertyOp31
 70
     1
102
RTVSPropertyOp32
 70
     1
102
RTVSPropertyOp33
 70
     1
102
RTVSPropertyOp34
 70
     1
102
RTVSPropertyOp35
 70
     1
102
RTVSPropertyOp36
 70
     1
102
RTVSPropertyOp37
 70
     1
102
RTVSPropertyOp38
 70
     1
102
RTVSPropertyOp39
 70
     1
102
RTVSPropertyOp40
 70
     1
102
RTVSPropertyOp41
 70
     1
102
RTVSPropertyOp42
 70
     1
102
RTVSPropertyOp43
 70
     1
102
RTVSPropertyOp44
 70
     1
102
RTVSPropertyOp45
 70
     1
102
RTVSPropertyOp46
 70
     1
102
RTVSPropertyOp47
 70
     1
102
RTVSPropertyOp48
 70
     1
102
RTVSPropertyOp49
 70
     1
102
RTVSPropertyOp50
 70
     1
102
RTVSPropertyOp51
 70
     0
102
RTVSPropertyOp52
 70
     0
102
RTVSPropertyOp53
 70
     1
102
RTVSPropertyOp54
 70
     1
102
RTVSPropertyOp55
 70
     1
102
RTVSPropertyOp56
 70
     1
102
RTVSPropertyOp57
 70
     1
102
RTVSPost2010Prop28
280
     0
102
RTVSPost2010PropOp28
 70
     1
102
RTVSPost2010Prop29
280
     1
102
RTVSPost2010PropOp29
 70
     1
102
RTVSPost2010Prop30
280
     1
102
RTVSPost2010PropOp30
 70
     1
102
RTVSPost2010Prop31
280
     0
102
RTVSPost2010PropOp31
 70
     1
102
RTVSPost2010Prop32
280
     0
102
RTVSPost2010PropOp32
 70
     1
102
RTVSPost2010Prop33
280
     0
102
RTVSPost2010PropOp33
 70
     1
102
RTVSPost2010Prop34
280
     0
102
RTVSPost2010PropOp34
 70
     1
102
RTVSPost2010Prop35
280
     0
102
RTVSPost2010PropOp35
 70
     1
102
RTVSPost2010Prop36
280
     0
102
RTVSPost2010PropOp36
 70
     1
102
RTVSPost2010Prop37
 90
       50
102
RTVSPost2010PropOp37
 70
     1
102
RTVSPost2010Prop38
140
0.0
102
RTVSPost2010PropOp38
 70
     1
102
RTVSPost2010Prop39
140
1.0
102
RTVSPost2010PropOp39
 70
     1
102
RTVSPost2010Prop40
 90
        0
102
RTVSPost2010PropOp40
 70
     1
102
RTVSPost2010Prop41ColorIndex
 90
       18
102
RTVSPost2010Prop41ColorRGB
 90
        0
102
RTVSPost2010PropOp41
 70
     1
102
RTVSPost2010Prop42
 90
       50
102
RTVSPost2010PropOp42
 70
     1
102
RTVSPost2010Prop43
 90
        3
102
RTVSPost2010PropOp43
 70
     1
102
RTVSPost2010Prop44ColorIndex
 90
        5
102
RTVSPost2010Prop44ColorRGB
 90
      255
102
RTVSPost2010PropOp44
 70
     1
102
RTVSPost2010Prop45
280
     0
102
RTVSPost2010PropOp45
 70
     1
102
RTVSPost2010Prop46
 90
       50
102
RTVSPost2010PropOp46
 70
     1
102
RTVSPost2010Prop47
 90
       50
102
RTVSPost2010PropOp47
 70
     1
102
RTVSPost2010Prop48
 90
       50
102
RTVSPost2010PropOp48
 70
     1
102
RTVSPost2010Prop49
280
     0
102
RTVSPost2010PropOp49
 70
     1
102
RTVSPost2010Prop50
 90
       50
102
RTVSPost2010PropOp50
 70
     1
102
RTVSPost2010Prop51ColorIndex
 90
      256
102
RTVSPost2010Prop51ColorRGB
 90
-16777216
102
RTVSPost2010PropOp51
 70
     0
102
RTVSPost2010Prop52
140
1.0
102
RTVSPost2010PropOp52
 70
     0
102
RTVSPost2010Prop53
 90
        2
102
RTVSPost2010PropOp53
 70
     1
102
RTVSPost2010Prop54
  1
strokes_ogs.tif
102
RTVSPost2010PropOp54
 70
     1
102
RTVSPost2010Prop55
280
     0
102
RTVSPost2010PropOp55
 70
     1
102
RTVSPost2010Prop56
140
1.0
102
RTVSPost2010PropOp56
 70
     1
102
RTVSPost2010Prop57
140
1.0
102
RTVSPost2010PropOp57
 70
     1
  0
XRECORD
  5
6B7
102
{ACAD_REACTORS
330
6B6
102
}
330
6B6
100
AcDbXrecord
280
     1
102
RTVSPropertyOp0
 70
     1
102
RTVSPropertyOp1
 70
     1
102
RTVSPropertyOp2
 70
     1
102
RTVSPropertyOp3
 70
     1
102
RTVSPropertyOp4
 70
     1
102
RTVSPropertyOp5
 70
     1
102
RTVSPropertyOp6
 70
     1
102
RTVSPropertyOp7
 70
     1
102
RTVSPropertyOp8
 70
     1
102
RTVSPropertyOp9
 70
     1
102
RTVSPropertyOp10
 70
     1
102
RTVSPropertyOp11
 70
     1
102
RTVSPropertyOp12
 70
     1
102
RTVSPropertyOp13
 70
     1
102
RTVSPropertyOp14
 70
     1
102
RTVSPropertyOp15
 70
     1
102
RTVSPropertyOp16
 70
     1
102
RTVSPropertyOp17
 70
     1
102
RTVSPropertyOp18
 70
     1
102
RTVSPropertyOp19
 70
     1
102
RTVSPropertyOp20
 70
     1
102
RTVSPropertyOp21
 70
     1
102
RTVSPropertyOp22
 70
     1
102
RTVSPropertyOp23
 70
     1
102
RTVSPropertyOp24
 70
     1
102
RTVSPropertyOp25
 70
     1
102
RTVSPropertyOp26
 70
     1
102
RTVSPropertyOp27
 70
     1
102
RTVSPropertyOp28
 70
     1
102
RTVSPropertyOp29
 70
     1
102
RTVSPropertyOp30
 70
     1
102
RTVSPropertyOp31
 70
     1
102
RTVSPropertyOp32
 70
     1
102
RTVSPropertyOp33
 70
     1
102
RTVSPropertyOp34
 70
     1
102
RTVSPropertyOp35
 70
     1
102
RTVSPropertyOp36
 70
     1
102
RTVSPropertyOp37
 70
     1
102
RTVSPropertyOp38
 70
     1
102
RTVSPropertyOp39
 70
     1
102
RTVSPropertyOp40
 70
     1
102
RTVSPropertyOp41
 70
     1
102
RTVSPropertyOp42
 70
     1
102
RTVSPropertyOp43
 70
     1
102
RTVSPropertyOp44
 70
     1
102
RTVSPropertyOp45
 70
     1
102
RTVSPropertyOp46
 70
     1
102
RTVSPropertyOp47
 70
     1
102
RTVSPropertyOp48
 70
     1
102
RTVSPropertyOp49
 70
     1
102
RTVSPropertyOp50
 70
     1
102
RTVSPropertyOp51
 70
     0
102
RTVSPropertyOp52
 70
     0
102
RTVSPropertyOp53
 70
     1
102
RTVSPropertyOp54
 70
     1
102
RTVSPropertyOp55
 70
     1
102
RTVSPropertyOp56
 70
     1
102
RTVSPropertyOp57
 70
     1
102
RTVSPost2010Prop28
280
     0
102
RTVSPost2010PropOp28
 70
     1
102
RTVSPost2010Prop29
280
     1
102
RTVSPost2010PropOp29
 70
     1
102
RTVSPost2010Prop30
280
     1
102
RTVSPost2010PropOp30
 70
     1
102
RTVSPost2010Prop31
280
     0
102
RTVSPost2010PropOp31
 70
     1
102
RTVSPost2010Prop32
280
     0
102
RTVSPost2010PropOp32
 70
     1
102
RTVSPost2010Prop33
280
     0
102
RTVSPost2010PropOp33
 70
     1
102
RTVSPost2010Prop34
280
     0
102
RTVSPost2010PropOp34
 70
     1
102
RTVSPost2010Prop35
280
     0
102
RTVSPost2010PropOp35
 70
     1
102
RTVSPost2010Prop36
280
     0
102
RTVSPost2010PropOp36
 70
     1
102
RTVSPost2010Prop37
 90
       50
102
RTVSPost2010PropOp37
 70
     1
102
RTVSPost2010Prop38
140
0.0
102
RTVSPost2010PropOp38
 70
     1
102
RTVSPost2010Prop39
140
1.0
102
RTVSPost2010PropOp39
 70
     1
102
RTVSPost2010Prop40
 90
        0
102
RTVSPost2010PropOp40
 70
     1
102
RTVSPost2010Prop41ColorIndex
 90
       18
102
RTVSPost2010Prop41ColorRGB
 90
        0
102
RTVSPost2010PropOp41
 70
     1
102
RTVSPost2010Prop42
 90
       50
102
RTVSPost2010PropOp42
 70
     1
102
RTVSPost2010Prop43
 90
        3
102
RTVSPost2010PropOp43
 70
     1
102
RTVSPost2010Prop44ColorIndex
 90
        5
102
RTVSPost2010Prop44ColorRGB
 90
      255
102
RTVSPost2010PropOp44
 70
     1
102
RTVSPost2010Prop45
280
     0
102
RTVSPost2010PropOp45
 70
     1
102
RTVSPost2010Prop46
 90
       50
102
RTVSPost2010PropOp46
 70
     1
102
RTVSPost2010Prop47
 90
       50
102
RTVSPost2010PropOp47
 70
     1
102
RTVSPost2010Prop48
 90
       50
102
RTVSPost2010PropOp48
 70
     1
102
RTVSPost2010Prop49
280
     0
102
RTVSPost2010PropOp49
 70
     1
102
RTVSPost2010Prop50
 90
       50
102
RTVSPost2010PropOp50
 70
     1
102
RTVSPost2010Prop51ColorIndex
 90
      256
102
RTVSPost2010Prop51ColorRGB
 90
-16777216
102
RTVSPost2010PropOp51
 70
     0
102
RTVSPost2010Prop52
140
1.0
102
RTVSPost2010PropOp52
 70
     0
102
RTVSPost2010Prop53
 90
        2
102
RTVSPost2010PropOp53
 70
     1
102
RTVSPost2010Prop54
  1
strokes_ogs.tif
102
RTVSPost2010PropOp54
 70
     1
102
RTVSPost2010Prop55
280
     0
102
RTVSPost2010PropOp55
 70
     1
102
RTVSPost2010Prop56
140
1.0
102
RTVSPost2010PropOp56
 70
     1
102
RTVSPost2010Prop57
140
1.0
102
RTVSPost2010PropOp57
 70
     1
  0
ENDSEC
  0
SECTION
  2
THUMBNAILIMAGE
 90
    16364
310
28000000B4000000550000000100080000000000C43B000000000000000000000001000000010000FFFFFF000000FF0000FFFF0000FF0000FFFF0000FF000000FF00FF000000000080808000C0C0C0000000FF007F7FFF000000A5005252A50000007F003F3F7F0000004C0026264C000000260013132600003FFF007F9FFF
310
000029A5005267A500001F7F003F4F7F0000134C00262F4C000009260013172600007FFF007FBFFF000052A500527CA500003F7F003F5F7F0000264C0026394C0000132600131C260000BFFF007FDFFF00007CA5005291A500005F7F003F6F7F0000394C0026424C00001C26001321260000FFFF007FFFFF0000A5A50052A5
310
A500007F7F003F7F7F00004C4C00264C4C00002626001326260000FFBF007FFFDF0000A57C0052A59100007F5F003F7F6F00004C3900264C420000261C001326210000FF7F007FFFBF0000A5520052A57C00007F3F003F7F5F00004C2600264C39000026130013261C0000FF3F007FFF9F0000A5290052A56700007F1F003F
310
7F4F00004C1300264C2F00002609001326170000FF00007FFF7F0000A5000052A55200007F00003F7F3F00004C0000264C260000260000132613003FFF00009FFF7F0029A5000067A552001F7F00004F7F3F00134C00002F4C260009260000172613007FFF0000BFFF7F0052A500007CA552003F7F00005F7F3F00264C0000
310
394C2600132600001C261300BFFF0000DFFF7F007CA5000091A552005F7F00006F7F3F00394C0000424C26001C26000021261300FFFF0000FFFF7F00A5A50000A5A552007F7F00007F7F3F004C4C00004C4C26002626000026261300FFBF0000FFDF7F00A57C0000A59152007F5F00007F6F3F004C3900004C422600261C00
310
0026211300FF7F0000FFBF7F00A5520000A57C52007F3F00007F5F3F004C2600004C39260026130000261C1300FF3F0000FF9F7F00A5290000A56752007F1F00007F4F3F004C1300004C2F26002609000026171300FF000000FF7F7F00A5000000A55252007F0000007F3F3F004C0000004C2626002600000026131300FF00
310
3F00FF7F9F00A5002900A55267007F001F007F3F4F004C0013004C262F002600090026131700FF007F00FF7FBF00A5005200A5527C007F003F007F3F5F004C0026004C2639002600130026131C00FF00BF00FF7FDF00A5007C00A55291007F005F007F3F6F004C0039004C26420026001C0026132100FF00FF00FF7FFF00A5
310
00A500A552A5007F007F007F3F7F004C004C004C264C002600260026132600BF00FF00DF7FFF007C00A5009152A5005F007F006F3F7F0039004C0042264C001C002600211326007F00FF00BF7FFF005200A5007C52A5003F007F005F3F7F0026004C0039264C00130026001C1326003F00FF009F7FFF002900A5006752A500
310
1F007F004F3F7F0013004C002F264C000900260017132600000000002D2D2D005B5B5B0089898900B7B7B700B3B3B30000000000000000000000000000000000000000000000000000000000000000000000000000000000000000000000000000000000000000000000000000000000000000000000000000000000000000
310
00000000000000000000000000000000000000000000000000000000000000000000000000000000000000000000000000000000000000000000000000000000000000000000000000000000000000000000000000000000000000000000000000000000000000000000000000000000000000000000000000000000000000
310
00000000000000000000000000000000000000000000000000000000000000000000000000000000000000000000000000000000000000000000000000000000000000000000000000000000000000000000000000000000000000000000000000000000000000000000000000000000000000000000000000000000000000
310
00000000000000000000000000000000000000000000000000000000000000000000000000000000000000000000000000000000000000000000000000000000000000000000000000000000000000000000000000000000000000000000000000000000000000000000000000000000000000000000000000000000000000
310
00000000000000000000000000000000000000000000000000000000000000000000000000000000000000000000000000000000000000000000000000000000000000000000000000000000000000000000000000000000000000000000000000000000000000000000000000000000010000000000000000000000000000
310
00000000000000000000010000000000000000000000000000020202020002020000000000000000000100000000000000000000000000000000000000000000000000000000000001000000000000000000000000000000000000000000000000000000000000000000000000000000000000000000000000000000000000
310
00000000000000000000000000000000000000000000000000000000000000000000030303030103030303030000000003030000000303000000030303030301030303000000000000000000000002020202020202000000000000000303010303030303030300000003010000000001030100000000030303030303030103
310
03000000000000000000000000000000000000000000000000000000000000000000000000000000000000000000000000000000000000000000000000000000000000000000000000000000000000000000000000000003000000010000000003030303030303030303030303030103000000000100000300000000000000
310
00000000000000000000000000000000000003000100000000000003000303030103030303010303030300000300000000000001000300000000000000000000000000000000000000000000000000000000000000000000000000000000000000000000000000000000000000000000000000000000000000000000000000
310
00000000000000000000000000030303030103030303030301030303010103030301030301030303030301030303030000000000000000000000000000000000000000000000000303010303030303030303030303010301010301030303030303030303030303030303030000000000000000000000000000000000000000
310
00000000000000000000000000000000000000000000000000000000000000000000000000000000000000000000000000000000000000000000000000000000000303000000010000000303000100000000010000000000000103000000000100000003030000000000000000000000000000000000000000000000030301
310
03000000000000000000000000010100000000000303030303030303000003030000000000000000000000000000000000000000000000000000000000000000000000000000000000000000000000000000000000000000000000000000000000000000000000000000000000000000000000000003030100000000000000
310
03030001000000000100000000000001030000000000000001010300000000000000000000000000000000000000000000000300000300000000000000000000000001010000000000030301000101030300010303000000000000000000000000000000000000000000000000000000000000000000000000000000000000
310
00000000000000000000000000000000000000000000000000000000000000000000000000000000000000030303000000000000000000000100000000010000000000000100000000000000000003030000000000000000000000000000000000000000000000030000000000000000000000000000000101000000000003
310
03010303030303000003000000000000000000000000000000000000000000000000000000000000000000000000000000000000000000000000000000000000000000000000000000000000000000000000000000000000000000030303030303030300000000000000000000010000000001000000000000010000000000
310
00000000030303030303030300000000000000000000000000000000000300000000000000000000000000000001010000000000030003030303000300000300000000000000000000000000000000000000000000000000000000000000000000000000000000000000000000000000000000000000000000000000000000
310
00000000000000000000000000000000010301010101030303010101010101010101010101010101010101010101010101010101010101010103030301010101030000000000000000000000000000000000030000000000000000000000000000000101000000000103010303010301030100030000000000000000000000
310
00000000000000000000000000000000000000000000000000000000000000000000000000000000000000000000000000000000000000000000000000000000000000000000030303030303030300000000000000000000010000000001000000000000010000000000000000000303030303030303000000000000000000
310
00000000000000000300000000000000000000000000000001010000000000030003030303000300000300000000000000000000000000000000000000000000000000000000000000000000000000000000000000000000000000000000000000000000000000000000000000000000000000000000000000000000000000
310
00030301000000000000000000000100000000010000000000000100000000000000000101030000000000000000000000000000000000000000000000030000000000000000000000000000000101000000000003030103030003030000030000000000000000000000000000000000000000000000000000000000000000
310
00000000000000000000000000000000000000000000000000000000000000000000000000000000000000000000000000000000000003030300000000000000000000010000000001000000000000010000000000000000000303000000000000000000000000000000000000000000000003000000000000000000000000
310
00000001010000000000010301010101030300000300000000000000000000000000000000000000000000000000000000000000000000000000000000000000000000000000000000000000000000000000000000000000000000000000000000000000000000000000000003030000000000000000000001000000000100
310
00000000000100000000000000000003000000000000000000000000000000000000000000000000030000000000000000000000000000000101000000000003030303030303030000030300000000000000000000000000000000000000000000000000000000000000000000000000000000000000000000000000000000
310
00000000000000000000000000000000000000000000000000000000000000000000000300000000000000000000010000000001000000000000010000000000000000000300000000000000000000000000000000000000000000000003000000000000000000000000000000010100000000000000000000000000010103
310
03000000000000000000000000000000000000000000000000000000000000000000000000000000000000000000000000000000000000000000000000000000000000000000000000000000000000000000000000000000030000000000000000000001000000000100000000000001000000000000000000030000000000
310
00000000000000000000000000000000000000030000000000000000000000000000000101000000000000000000000000000000030300000000000000000000000000000000000000000000000000000000000000000000000000000000000000000000000000000000000000000000000000000000000000000000000000
310
00000000000000000000000000000303010303030303030301010303030301030303030301010303030303030103030300000000000000000000000000000000000000000000000003030301030303030303030103030303010103030303030103030303030303010303000000000000000000000000000000000000000000
310
00000000000000000000000000000000000000000000000000000000000000000000000000000000000000000000000000000000000000000000000000000000000000030303030303030303030303030303030303030303030303030303030303010303000000000000000000000000000000000000000000000000000003
310
03010303030303030301030303030101030303030301030303030303030103030000000000000000000000000000000000000000000000000000000000000000000000000000000000000000000000000000000000000000000000000000000000000000000000000000000000000000000000000000000003030303030303
310
03010301030303030303030303010303030301030303030303030000000000000000000000000000000000000000000000000000030303030301030303030303030103010103010303030303030301030303030303000000000000000000000000000000000000000000000000000000000000000000000000000000000000
310
00000000000000000000000000000000000000000000000000000000000000000000000000000000000000000000000000000003030303030303030303030303030303030301030303030000000000000000000000000000000000000000000000000000000000000000000000030303030003030303030303030303030303
310
03000003030303000000000000000000000000000000000000000000000000000000000000000000000000000000000000000000000000000000000000000000000000000000000000000000000000000000000000000000000000000000000000000000000000000000030303030303030303030300030300000000030300
310
00000000000000000000000000000000000000000000000000000000000000000000030301030300000000030303030303030303000000030301030303000000000000000000000000000000000000000000000000000000000000000000000000000000000000000000000000000000000000000000000000000000000000
310
00000000000000000000000000000000000000000000000000000000000000000000030003030003010101000000000000000000000000000000000000000000000000000000000000000000000000000000000000000101010101010100000000000300010000030000000103010101010300000000000000000000000000
310
00000000000000000000000000000000000000000000000000000000000000000000000000000000000000000000000000000000000000000000000000000000000000000000000000000000000000000000000000000003000303000300030300000000000000000000000000000000000000000000000000000000000000
310
00000000000000000000000000030303030300000000000003000100000300000000030301030300000000000000000000000000000000000000000000000000000000000000000000000000000000000000000000000000000000000000000000000000000000000000000000000000000000000000000000000000000000
310
00000000000000000000000000030003030003000303000000000000000000000000000000000000000000000000000000000000000000000000000000000000000000030103000000000000000300010000030000000000030103030000000000000000000000000000000000000000000000000000000000000000000000
310
00000000000000000000000000000000000000000000000000000000000000000000000000000000000000000000000000000000000000000000000000000000000003000303000300000000000000000000000000000000000000000000000000000000000000000000000000000000000000000000000000010000000000
310
00000003000100000300000000000001000000000000000000000000000000000000000000000000000000000000000000000000000000000000000000000000000000000000000000000000000000000000000000000000000000000000000000000000000000000000000000000000000000000000000300030300030000
310
00000000000000000000000000000000000000000000000000000000000000000000000000000000000000000000000000000000000000000300010000030000000000000000000000000000000000000000000000000000000000000000000000000000000000000000000000000000000000000000000000000000000000
310
00000000000000000000000000000000000000000000000000000000000000000000000000000000000000000003000303000300000000000000000000000000000000000000000000000000000000000000000000000000000000000000000000000000000000000000000000030001000003000000000000000000000000
310
00000000000000000000000000000000000000000000000000000000000000000000000000000000000000000000000000000000000000000000000000000000000000000000000000000000000000000000000000000000000000000000000000000300030300030000000000000000000000000000000000000000000000
310
00000000000000000000000000000000000000000000000000000000000000000000000300010000030000000000000000000000000000000000000000000000000000000000000000000000000000000000000000000000000000000000000000000000000000000000000000000000000000000000000000000000000000
310
00000000000000000000000000000000000000000000000003030303030300000000000000000000000000000000000000000000000000000000000000000000000000000000000000000000000000000000000000000000030303030303000000000000000000000000000000000000000000000000000000000000000000
310
00000000000000000000000000000000000000000000000000000000000000000000000000000000000000000000000000000000000000000000000000000000000000000000000000000000000000010000000000000000000000000000000000000000000000000000000000000000000000000000000000000000000000
310
00000000000000000000000000000000010000000000000000000000000000000000000000000000000000000000000000000000000000000000000000000000000000000000000000000000000000000000000000000000000000000000000000000000000000000000000000000000000000000000000000000000000000
310
00000000000000000000000000000000000000000000000000000000000000000000000000000000000000000000000000000000000000000000000000000000000000000000000000000000000000000000000000000000000000000000000000000000000000000000000000000000000000000000000000000000000000
310
00000000000000000000000000000000000000000000000000000000000000000000000000000000000000000000000000000000000000000000000000000000000000000000000000000000000000000000000000000000000000000000000000000000000000000000000000000000000000000000000000000000000000
310
00000000000000000000000000000000000000000000000000000000000000000000000000000000000000000000000000000000000000000000000000000000000000000000000000000000000000000000000000000000000000000000000000000000000000000000000000000000000000000000000000000000000000
310
00000000000000000000000000000000000000000000000000000000000000000000000000000000000000000000000000000000000000000000000000000000000000000000000000000000000000000000000000000000000000000000000000000000000000000000000000000000000000000000000000000000000000
310
00000000000000000000000000000000000000000000000000000000000000000000000000000000000000000000000000000000000000000000000000000000000000000000000000000000000000000000000000000000000000000000000000000000000000000000000000000000000000000000000000000000000000
310
00000000000000000000000000000000000000000000000000000000000000000000000000000000000000000000000000000000000000000000000000000000000000000000000000000000000000000000000000000000000000000000000000000000000000000000000000000000000000000000000000000000000000
310
00000000000000000000000000000000000000000000000000000000000000000000000000000000000000000000000000000000000000000000000000000000000000000000000000000000000000000000000000000000000000000000000000000000000000000000000000000000000000000000000000000000000000
310
00000000000000000000000000000000000000000000000000000000000000000000000000000000000000000000000000000000000000000000000000000000000000000000000000000000000000000000000000000000000000000000000000000000000000000000000000000000000000000000000000000000000000
310
00000000000000000000000000000000000000000000000000000000000000000000000000000000000000000000000000000000000000000000000000000000000000000000000000000000000000000000000000000000000000000000000000000000000000000000000000000000000000000000000000000000000000
310
00000000000000000000000000000000000000000000000000000000000000000000000000000000000000000000000000000000000000000000000000000000000000000000000000000000000000000000000000000000000000000000000000000000000000000000000000000000000000000000000000000000000000
310
00000000000000000000000000000000000000000000000000000000000000000000000000000000000000000000000000000000000000000000000000000000000000000000000000000000000000000000000000000000000000000000000000000000000000000000000000000000000000000000000000000000000000
310
00000000000000000000000000000000000000000000000000000000000000000000000000000000000000000000000000000000000000000000000000000000000000000000000000000000000000000000000000000000000000000000000000000000000000000000000000000000000000000000000000000000000000
310
00000000000000000000000000000000000000000000000000000000000000000000000000000000000000000000000000000000000000000000000000000000000000000000000000000000000000000000000000000000000000000000000000000000000000000000000000000000000000000000000000000000000000
310
00000000000000000000000000000000000000000000000000000000000000000000000000000000000000000000000000000000000000000000000000000000000000000000000000000000000000000000000000000000000000000000000000000000000000000000000000000000000000000000000000000000000000
310
00000000000000000000000000000000000000000000000000000000000000000000000000000000000000000000000000000000000000000000000000000000000000000000000000000000000000000000000000000000000000000000000000000000000000000000000000000000000000000000000000000000000000
310
00000000000000000000000000000000000000000000000000000000000000000000000000000000000000000000000000000000000000000000000000000000000000000000000000000000000000000000000000000000000000000000000000000000000000000000000000000000000000000000000000000000000000
310
00000000000000000000000000000000000000000000000000000000000000000000000000000000000000000000000000000000000000000000000000000000000000000000000000000000000000000000000000000000000000000000000000000000000000000000000000000000000000000000000000000000000000
310
00000000000000000000000000000000000000000000000000000000000000000000000000000000000000000000000000000000000000000000000000000000000000000000000000000000000000000000000000000000000000000000000000000000000000000000000000000000000000000000000000000000000000
310
00000000000000000000000000000000000000000000000000000000000000000000000000000000000000000000000000000000000000000000000000000000000000000000000000000000000000000000000000000000000000000000000000000000000000000000000000000000000000000000000000000000000000
310
00000000000000000000000000000000000000000000000000000000000000000000000000000000000000000000000000000000000000000000000000000000000000000000000000000000000000000000000000000000000000000000000000000000000000000000000000000000000000000000000000000000000000
310
00000000000000000000000000000000000000000000000000000000000000000000000000000000000000000000000000000000000000000000000000000000000000000000000000000000000000000000000000000000000000000000000000000000000000000000000000000000000000000000000000000000000000
310
00000000000000000000000000000000000000000000000000000000000000000000000000000000000000010000000000000000000000000000000000000000000000000000000000000000000000000000000000000000000000000000000000000000000000000000000000000000000000000000000000000000000000
310
00000000000000000000000000000000000000000000000000000000000000000000000000000000000000000000000000000000000000000000000000000000000000000000000000000000000000000303030301030303030300000303030301030303030000000303030303010303030000000000000000000000000000
310
00000000000000000000000000000000000000000000000000000000000000000000000000000000000000000000000000000000000000000000000000000000000000000000000000000000000000000000000000000000000000000000000000000000000000000000000000000000000000000000000000000000000000
310
00000000000003000003010000000303010303030101010101030303030303000000000100000300000000000000000000000000000000000000000000000000000000000000000000000000000000000000000000000000000000000000000000000000000000000000000000000000000000000000000000000000000000
310
00000000000000000000000000000000000000000000000000000000000000000000000000000000000000000000000000000000000000000000000300010101010000030303030103030301030303030103030300000101010100030000000000000000000000000000000000000000000000000000000000000000000000
310
00000000000000000000000000000000000000000000000000000000000000000000000000000000000000000000000000000000000000000000000000000000000000000000000000000000000000000000000000000000000000000000000000000000000000000000000000000000030000000100000301010303030000
310
00030000000003030100030300000100000300000000000000000000000000000000000000000000000000000000000000000000000000000000000000000000000000000000000000000000000000000000000000000000000000000000000000000000000000000000000000000000000000000000000000000000000000
310
00000000000000000000000000000000000000000000000000000000000000000000000000000300000000000301010300030303030303030303030300030301030300000000030000000000000000000000000000000000000000000000000000000000000000000000000000000000000000000000000000000000000000
310
00000000000000000000000000000000000000000000000000000000000000000000000000000000000000000000000000000000000000000000000000000000000000000000000000000000000000000000000000000000000000030000000003010103000300000000030303000000000300000301000300000003000000
310
00000000000000000000000000000000000000000000000000000000000000000000000000000000000000000000000000000000000000000000000000000000000000000000000000000000000000000000000000000000000000000000000000000000000000000000000000000000000000000000000000000000000000
310
00000000000000000000000000000000000300000003010303000300000000010303030100000000030000030101030000030000000000000000000000000000000000000000000000000000000000000000000000000000000000000000000000000000000000000000000000000000000000000000000000000000000000
310
00000000000000000000000000000000000000000000000000000000000000000000000000000000000000000000000000000000000000000000000000000000000000000000030000030103000303000000000000030303000000000000030300030103030003000000000000000000000000000000000000000000000000
310
00000000000000000000000000000000000000000000000000000000000000000000000000000000000000000000000000000000000000000000000000000000000000000000000000000000000000000000000000000000000000000000000000000000000000000000000000000000000000000000000000000003000003
310
01030003000000000000000003030000000000000003000003030300030000000000000000000000000000000000000000000000000000000000000000000000000000000000000000000000000000000000000000000000000000000000000000000000000000000000000000000000000000000000000000000000000000
310
00000000000000000000000000000000000000000000000000000000000000000000000000000000000000000000000000030303010300030000000000000000030303000000000000000003000003030303000000000000000000000000000000000000000000000000000000000000000000000000000000000000000000
310
00000000000000000000000000000000000000000000000000000000000000000000000000000000000000000000000000000000000000000000000000000000000000000000000000000000000000000000000000000000000000000000000000000000000000010303000300000000000100000103010301000000000100
310
00000300030303010000000000000000000000000000000000000000000000000000000000000000000000000000000000000000000000000000000000000000000000000000000000000000000000000000000000000000000000000000000000000000000000000000000000000000000000000000000000000000000000
310
00000000000000000000000000000000000000000000000000000000000303010003000000000301030300030303000000000301000000000301030300000000000000000000000000000000000000000000000000000000000000000000000000000000000000000000000000000000000000000000000000000000000000
310
00000000000000000000000000000000000000000000000000000000000000000000000000000000000000000000000000000000000000000000000000000000000000000000000000000000000000000003030300030000010301010101010103010000000303010103030000030003010300000000000000000000000000
310
00000000000000000000000000000000000000000000000000000000000000000000000000000000000000000000000000000000000000000000000000000000000000000000000000000000000000000000000000000000000000000000000000000000000000000000000000000000000000000000000000000000000000
310
00000000000000030303000300000303000001000003030300000303010301000301000300030103000000000000000000000000000000000000000000000000000000000000000000000000000000000000000000000000000000000000000000000000000000000000000000000000000000000000000000000000000000
310
00000000000000000000000000000000000000000000000000000000000000000000000000000000000000000000000000000000000000000000000003030300030003030303030303030103010303030301000103010303000303010300000000000000000000000000000000000000000000000000000000000000000000
310
00000000000000000000000000000000000000000000000000000000000000000000000000000000000000000000000000000000000000000000000000000000000000000000000000000000000000000000000000000000000000000000000000000000000000000000000000000000000301030003000100000303030303
310
03000103030103000001000300030003000303030000000000000000000000000000000000000000000000000000000000000000000000000000000000000000000000000000000000000000000000000000000000000000000000000000000000000000000000000000000000000000000000000000000000000000000000
310
00000000000000000000000000000000000000000000000000000000000000000000000000000103010301030101010303010101030303010301010101010101010101010301030303010000000000000000000000000000000000000000000000000000000000000000000000000000000000000000000000000000000000
310
00000000000000000000000000000000000000000000000000000000000000000000000000000000000000000000000000000000000000000000000000000000000000000000000000000000000000000000000000000000000000000300030001010101030301010101030301010101030000010003010300030003030300
310
00000000000000000000000000000000000000000000000000000000000000000000000000000000000000000000000000000000000000000000000000000000000000000000000000000000000000000000000000000000000000000000000000000000000000000000000000000000000000000000000000000000000000
310
00000000000000000000000000000000000003010300030001010303000100030300010300030301000103010303000300030303000000000000000000000000000000000000000000000000000000000000000000000000000000000000000000000000000000000000000000000000000000000000000000000000000000
310
00000000000000000000000000000000000000000000000000000000000000000000000000000000000000000000000000000000000000000000000000000000000000000000000303030003000301000303030303030001030003030103010103010000030301030000000000000000000000000000000000000000000000
310
00000000000000000000000000000000000000000000000000000000000000000000000000000000000000000000000000000000000000000000000000000000000000000000000000000000000000000000000000000000000000000000000000000000000000000000000000000000000000000000000000000000030303
310
00030000030303030303030303030000000303030103030000030003010300000000000000000000000000000000000000000000000000000000000000000000000000000000000000000000000000000000000000000000000000000000000000000000000000000000000000000000000000000000000000000000000000
310
00000000000000000000000000000000000000000000000000000000000000000000000000000000000000000000000000000303030003000003030100010001010301000000000000010000000003000301030000000000000000000000000000000000000000000000000000000000000000000000000000000000000000
310
00000000000000000000000000000000000000000000000000000000000000000000000000000000000000000000000000000000000000000000000000000000000000000000000000000000000000000000000000000000000000000000000000000000000003030303030003000003030101000103030100000000000001
310
00000000030103030303030000000000000000000000000000000000000000000000000000000000000000000000000000000000000000000000000000000000000000000000000000000000000000000000000000000000000000000000000000000000000000000000000000000000000000000000000000000000000000
310
00000000000000000000000000000000000000000000000000000001010101030300030000000003010300000001000000000000000000000300030303010101000000000000000000000000000000000000000000000000000000000000000000000000000000000000000000000000000000000000000000000000000000
310
00000000000000000000000000000000000000000000000000000000000000000000000000000000000000000000000000000000000000000000000000000000000000000000000000000000000000000303000003010300030000000001000000000100000000000000000003000003030300030300000000000000000000
310
00000000000000000000000000000000000000000000000000000000000000000000000000000000000000000000000000000000000000000000000000000000000000000000000000000000000000000000000000000000000000000000000000000000000000000000000000000000000000000000000000000000000000
310
00030303030303030000000301030003000000000000000003030000000000000003000003030300000303030303030303000000000000000000000000000000000000000000000000000000000000000000000000000000000000000000000000000000000000000000000000000000000000000000000000000000000000
310
00000000000000000000000000000000000000000000000000000000000000000000000000000000000000000000000000000000000103030303030303010101030303030103010101010101030303010101010101030101030103030101030303030303030300000000000000000000000000000000000000000000000000
310
00000000000000000000000000000000000000000000000000000000000000000000000000000000000000000000000000000000000000000000000000000000000000000000000000000000000000000000000000000000000000000000000000000000000000000000000303030303030300000000030100030003000000
310
00010101010100000000030000030100030000000303030303030303000000000000000000000000000000000000000000000000000000000000000000000000000000000000000000000000000000000000000000000000000000000000000000000000000000000000000000000000000000000000000000000000000000
310
00000000000000000000000000000000000000000000000000000000000000000000000000000303000000000003000103000303030000030303000003030300030301030300000000030300000000000000000000000000000000000000000000000000000000000000000000000000000000000000000000000000000000
310
00000000000000000000000000000000000000000000000000000000000000000000000000000000000000000000000000000000000000000000000000000000000000000000000000000000000000000000000000000000000000030301000000000003000103000100030303030303030000010301010303000000000101
310
03000000000000000000000000000000000000000000000000000000000000000000000000000000000000000000000000000000000000000000000000000000000000000000000000000000000000000000000000000000000000000000000000000000000000000000000000000000000000000000000000000000000000
310
00000000000000000000000000000000000003030303030303030303030303030303000100000303030303030303030303030303030300000000000000000000000000000000000000000000000000000000000000000000000000000000000000000000000000000000000000000000000000000000000000000000000000
310
00000000000000000000000000000000000000000000000000000000000000000000000000000000000000000000000000000000000000000000000000000000000000000000000003000000010000000303030301010103010303010001030303000000000100000300000000000000000000000000000000000000000000
310
00000000000000000000000000000000000000000000000000000000000000000000000000000000000000000000000000000000000000000000000000000000000000000000000000000000000000000000000000000000000000000000000000000000000000000000000000000000000000000000000000000000000300
310
01010101000003030103030303030103030303030001030000010101010003000000000000000000000000000000000000000000000000000000000000000000000000000000000000000000000000000000000000000000000000000000000000000000000000000000000000000000000000000000000000000000000000
310
00000000000000000000000000000000000000000000000000000000000000000000000000000000000000000000000000000003000003010000000303000000000003030303000000000003000000030100000300000000000000000000000000000000000000000000000000000000000000000000000000000000000000
310
00000000000000000000000000000000000000000000000000000000000000000000000000000000000000000000000000000000000000000000000000000000000000000000000000000000000000000000000000000000000000000000000000000000000000000303030303030303030300000000000001000000000000
310
00030303030303030303000000000000000000000000000000000000000000000000000000000000000000000000000000000000000000000000000000000000000000000000000000000000000000000000000000000000000000000000000000000000000000000000000000000000000000000000000000000000000000
310
00000000000000000000000000000000000000000000000000000000000000000000000000000000000000000000000000000000000000000000000000000000000000000000000000000000000000000000000000000000000000000000000000000000000000000000000000000000000000000000000000000000000000
310
00000000000000000000000000000000000000000000000000000000000000000000000000000000000000000000000000000000000000000000000000000000000000000000000000000000000000000000000000000000000000000000000000000000000000000000000000000000000000000000000000000000000000
310
000000000000000000000000000000000000000000000000000000000000000000000000000000000000000000000000000000000000000000000000000000000000000000000000000000000000000000000000000000000000000000000000000000000000000000000000
  0
ENDSEC
  0
EOF
