  0
SECTION
  2
HEADER
  9
$ACADVER
  1
AC1015
  9
$ACADMAINTVER
 70
     6
  9
$DWGCODEPAGE
  3
ANSI_932
  9
$INSBASE
 10
2242.452377269216
 20
1355.939648254432
 30
0.0
  9
$EXTMIN
 10
306.2899021064782
 20
48.88900012414388
 30
0.0
  9
$EXTMAX
 10
1864.050949092762
 20
1420.130167328839
 30
0.0
  9
$LIMMIN
 10
0.0
 20
0.0
  9
$LIMMAX
 10
816.5000000000001
 20
565.0
  9
$ORTHOMODE
 70
     1
  9
$REGENMODE
 70
     1
  9
$FILLMODE
 70
     1
  9
$QTEXTMODE
 70
     0
  9
$MIRRTEXT
 70
     1
  9
$LTSCALE
 40
8.0
  9
$ATTMODE
 70
     1
  9
$TEXTSIZE
 40
15.0
  9
$TRACEWID
 40
0.05
  9
$TEXTSTYLE
  7
KANJI
  9
$CLAYER
  8
2
  9
$CELTYPE
  6
BYLAYER
  9
$CECOLOR
 62
   256
  9
$CELTSCALE
 40
1.0
  9
$DISPSILH
 70
     0
  9
$DIMSCALE
 40
5.0
  9
$DIMASZ
 40
2.0
  9
$DIMEXO
 40
0.5
  9
$DIMDLI
 40
0.0
  9
$DIMRND
 40
0.0
  9
$DIMDLE
 40
0.0
  9
$DIMEXE
 40
1.0
  9
$DIMTP
 40
0.0
  9
$DIMTM
 40
0.0
  9
$DIMTXT
 40
3.0
  9
$DIMCEN
 40
0.09
  9
$DIMTSZ
 40
0.0
  9
$DIMTOL
 70
     0
  9
$DIMLIM
 70
     0
  9
$DIMTIH
 70
     0
  9
$DIMTOH
 70
     0
  9
$DIMSE1
 70
     0
  9
$DIMSE2
 70
     0
  9
$DIMTAD
 70
     0
  9
$DIMZIN
 70
     8
  9
$DIMBLK
  1

  9
$DIMASO
 70
     0
  9
$DIMSHO
 70
     0
  9
$DIMPOST
  1

  9
$DIMAPOST
  1

  9
$DIMALT
 70
     0
  9
$DIMALTD
 70
     2
  9
$DIMALTF
 40
25.4
  9
$DIMLFAC
 40
1.0
  9
$DIMTOFL
 70
     1
  9
$DIMTVP
 40
1.0
  9
$DIMTIX
 70
     1
  9
$DIMSOXD
 70
     1
  9
$DIMSAH
 70
     0
  9
$DIMBLK1
  1

  9
$DIMBLK2
  1

  9
$DIMSTYLE
  2
STANDARD
  9
$DIMCLRD
 70
   256
  9
$DIMCLRE
 70
   256
  9
$DIMCLRT
 70
   256
  9
$DIMTFAC
 40
1.0
  9
$DIMGAP
 40
0.09
  9
$DIMJUST
 70
     0
  9
$DIMSD1
 70
     0
  9
$DIMSD2
 70
     0
  9
$DIMTOLJ
 70
     1
  9
$DIMTZIN
 70
     0
  9
$DIMALTZ
 70
     0
  9
$DIMALTTZ
 70
     0
  9
$DIMUPT
 70
     0
  9
$DIMDEC
 70
     1
  9
$DIMTDEC
 70
     4
  9
$DIMALTU
 70
     2
  9
$DIMALTTD
 70
     2
  9
$DIMTXSTY
  7
STANDARD
  9
$DIMAUNIT
 70
     0
  9
$DIMADEC
 70
     0
  9
$DIMALTRND
 40
0.0
  9
$DIMAZIN
 70
     0
  9
$DIMDSEP
 70
    46
  9
$DIMATFIT
 70
     3
  9
$DIMFRAC
 70
     0
  9
$DIMLDRBLK
  1

  9
$DIMLUNIT
 70
     2
  9
$DIMLWD
 70
    -2
  9
$DIMLWE
 70
    -2
  9
$DIMTMOVE
 70
     0
  9
$LUNITS
 70
     2
  9
$LUPREC
 70
     3
  9
$SKETCHINC
 40
0.1
  9
$FILLETRAD
 40
2.0
  9
$AUNITS
 70
     0
  9
$AUPREC
 70
     3
  9
$MENU
  1
C:\R13\WIN\SUPPORT\ACADFULL
  9
$ELEVATION
 40
0.0
  9
$PELEVATION
 40
0.0
  9
$THICKNESS
 40
0.0
  9
$LIMCHECK
 70
     0
  9
$CHAMFERA
 40
0.0
  9
$CHAMFERB
 40
0.0
  9
$CHAMFERC
 40
0.0
  9
$CHAMFERD
 40
0.0
  9
$SKPOLY
 70
     0
  9
$TDCREATE
 40
2457407.586298704
  9
$TDUCREATE
 40
2457407.211298704
  9
$TDUPDATE
 40
2458115.643363183
  9
$TDUUPDATE
 40
2458115.268363183
  9
$TDINDWG
 40
0.0611135417
  9
$TDUSRTIMER
 40
0.0611122801
  9
$USRTIMER
 70
     1
  9
$ANGBASE
 50
0.0
  9
$ANGDIR
 70
     0
  9
$PDMODE
 70
     0
  9
$PDSIZE
 40
0.0
  9
$PLINEWID
 40
0.0
  9
$SPLFRAME
 70
     0
  9
$SPLINETYPE
 70
     6
  9
$SPLINESEGS
 70
     8
  9
$HANDSEED
  5
6AE
  9
$SURFTAB1
 70
     6
  9
$SURFTAB2
 70
     6
  9
$SURFTYPE
 70
     6
  9
$SURFU
 70
     6
  9
$SURFV
 70
     6
  9
$UCSBASE
  2

  9
$UCSNAME
  2

  9
$UCSORG
 10
0.0
 20
0.0
 30
0.0
  9
$UCSXDIR
 10
1.0
 20
0.0
 30
0.0
  9
$UCSYDIR
 10
0.0
 20
1.0
 30
0.0
  9
$UCSORTHOREF
  2

  9
$UCSORTHOVIEW
 70
     0
  9
$UCSORGTOP
 10
0.0
 20
0.0
 30
0.0
  9
$UCSORGBOTTOM
 10
0.0
 20
0.0
 30
0.0
  9
$UCSORGLEFT
 10
0.0
 20
0.0
 30
0.0
  9
$UCSORGRIGHT
 10
0.0
 20
0.0
 30
0.0
  9
$UCSORGFRONT
 10
0.0
 20
0.0
 30
0.0
  9
$UCSORGBACK
 10
0.0
 20
0.0
 30
0.0
  9
$PUCSBASE
  2

  9
$PUCSNAME
  2

  9
$PUCSORG
 10
0.0
 20
0.0
 30
0.0
  9
$PUCSXDIR
 10
1.0
 20
0.0
 30
0.0
  9
$PUCSYDIR
 10
0.0
 20
1.0
 30
0.0
  9
$PUCSORTHOREF
  2

  9
$PUCSORTHOVIEW
 70
     0
  9
$PUCSORGTOP
 10
0.0
 20
0.0
 30
0.0
  9
$PUCSORGBOTTOM
 10
0.0
 20
0.0
 30
0.0
  9
$PUCSORGLEFT
 10
0.0
 20
0.0
 30
0.0
  9
$PUCSORGRIGHT
 10
0.0
 20
0.0
 30
0.0
  9
$PUCSORGFRONT
 10
0.0
 20
0.0
 30
0.0
  9
$PUCSORGBACK
 10
0.0
 20
0.0
 30
0.0
  9
$USERI1
 70
     0
  9
$USERI2
 70
     0
  9
$USERI3
 70
     0
  9
$USERI4
 70
     0
  9
$USERI5
 70
     0
  9
$USERR1
 40
0.0
  9
$USERR2
 40
0.0
  9
$USERR3
 40
0.0
  9
$USERR4
 40
2448925.372986111
  9
$USERR5
 40
0.04166667
  9
$WORLDVIEW
 70
     1
  9
$SHADEDGE
 70
     3
  9
$SHADEDIF
 70
    70
  9
$TILEMODE
 70
     1
  9
$MAXACTVP
 70
    16
  9
$PINSBASE
 10
0.0
 20
0.0
 30
0.0
  9
$PLIMCHECK
 70
     0
  9
$PEXTMIN
 10
1000000000000000E+20
 20
1000000000000000E+20
 30
1000000000000000E+20
  9
$PEXTMAX
 10
-1000000000000000E+20
 20
-1000000000000000E+20
 30
-1000000000000000E+20
  9
$PLIMMIN
 10
0.0
 20
0.0
  9
$PLIMMAX
 10
12.0
 20
9.0
  9
$UNITMODE
 70
     0
  9
$VISRETAIN
 70
     0
  9
$PLINEGEN
 70
     0
  9
$PSLTSCALE
 70
     0
  9
$TREEDEPTH
 70
  3020
  9
$CMLSTYLE
  2
STANDARD
  9
$CMLJUST
 70
     0
  9
$CMLSCALE
 40
1.0
  9
$PROXYGRAPHICS
 70
     1
  9
$MEASUREMENT
 70
     0
  9
$CELWEIGHT
370
    -1
  9
$ENDCAPS
280
     0
  9
$JOINSTYLE
280
     0
  9
$LWDISPLAY
290
     0
  9
$INSUNITS
 70
     0
  9
$HYPERLINKBASE
  1

  9
$STYLESHEET
  1

  9
$XEDIT
290
     1
  9
$CEPSNTYPE
380
     0
  9
$PSTYLEMODE
290
     1
  9
$FINGERPRINTGUID
  2
{C2B2CB2A-30DC-4003-B742-17D26F9AF104}
  9
$VERSIONGUID
  2
{282423BA-AA45-442C-9A98-778408CC42AB}
  9
$EXTNAMES
290
     1
  9
$PSVPSCALE
 40
0.0
  9
$OLESTARTUP
290
     0
  0
ENDSEC
  0
SECTION
  2
CLASSES
  0
CLASS
  1
ACDBDICTIONARYWDFLT
  2
AcDbDictionaryWithDefault
  3
ObjectDBX Classes
 90
        0
280
     0
281
     0
  0
CLASS
  1
MATERIAL
  2
AcDbMaterial
  3
ObjectDBX Classes
 90
     1153
280
     0
281
     0
  0
CLASS
  1
SORTENTSTABLE
  2
AcDbSortentsTable
  3
ObjectDBX Classes
 90
        0
280
     0
281
     0
  0
CLASS
  1
SCALE
  2
AcDbScale
  3
ObjectDBX Classes
 90
     1153
280
     0
281
     0
  0
CLASS
  1
DICTIONARYVAR
  2
AcDbDictionaryVar
  3
ObjectDBX Classes
 90
        0
280
     0
281
     0
  0
CLASS
  1
VISUALSTYLE
  2
AcDbVisualStyle
  3
ObjectDBX Classes
 90
     4095
280
     0
281
     0
  0
CLASS
  1
MLEADERSTYLE
  2
AcDbMLeaderStyle
  3
ACDB_MLEADERSTYLE_CLASS
 90
     4095
280
     0
281
     0
  0
CLASS
  1
TABLESTYLE
  2
AcDbTableStyle
  3
ObjectDBX Classes
 90
     4095
280
     0
281
     0
  0
CLASS
  1
ACDBPLACEHOLDER
  2
AcDbPlaceHolder
  3
ObjectDBX Classes
 90
        0
280
     0
281
     0
  0
CLASS
  1
LAYOUT
  2
AcDbLayout
  3
ObjectDBX Classes
 90
        0
280
     0
281
     0
  0
ENDSEC
  0
SECTION
  2
TABLES
  0
TABLE
  2
VPORT
  5
2C
102
{ACAD_XDICTIONARY
360
673
102
}
330
0
100
AcDbSymbolTable
 70
     1
  0
VPORT
  5
31
330
2C
100
AcDbSymbolTableRecord
100
AcDbViewportTableRecord
  2
*ACTIVE
 70
     0
 10
0.0
 20
0.0
 11
1.0
 21
1.0
 12
1621.400670167626
 22
613.7197544207718
 13
0.0
 23
0.0
 14
1.0
 24
1.0
 15
50.0
 25
50.0
 16
0.0
 26
0.0
 36
1.0
 17
0.0
 27
0.0
 37
0.0
 40
1857.748021374545
 41
1.82716049382716
 42
50.0
 43
0.0
 44
0.0
 50
0.0
 51
0.0
 71
     0
 72
  5000
 73
     1
 74
     0
 75
     0
 76
     0
 77
     0
 78
     0
281
     0
 65
     1
110
0.0
120
0.0
130
0.0
111
1.0
121
0.0
131
0.0
112
0.0
122
1.0
132
0.0
 79
     0
146
0.0
1001
ACAD_NAV_VCDISPLAY
1070
     3
  0
ENDTAB
  0
TABLE
  2
LTYPE
  5
F
330
0
100
AcDbSymbolTable
 70
     2
  0
LTYPE
  5
10
330
F
100
AcDbSymbolTableRecord
100
AcDbLinetypeTableRecord
  2
BYBLOCK
 70
     0
  3

 72
    65
 73
     0
 40
0.0
  0
LTYPE
  5
11
330
F
100
AcDbSymbolTableRecord
100
AcDbLinetypeTableRecord
  2
BYLAYER
 70
     0
  3

 72
    65
 73
     0
 40
0.0
  0
LTYPE
  5
E
330
F
100
AcDbSymbolTableRecord
100
AcDbLinetypeTableRecord
  2
CONTINUOUS
 70
     0
  3
Solid line
 72
    65
 73
     0
 40
0.0
  0
LTYPE
  5
6C
330
F
100
AcDbSymbolTableRecord
100
AcDbLinetypeTableRecord
  2
CENTER
 70
     0
  3
____ _ ____ _ ____ _ ____ _ ____ _ ____ _ ____
 72
    65
 73
     4
 40
2.0
 49
1.25
 74
     0
 49
-0.25
 74
     0
 49
0.25
 74
     0
 49
-0.25
 74
     0
  0
ENDTAB
  0
TABLE
  2
LAYER
  5
2
102
{ACAD_XDICTIONARY
360
3
102
}
330
0
100
AcDbSymbolTable
 70
     9
  0
LAYER
  5
1F
102
{ACAD_XDICTIONARY
360
20
102
}
330
2
100
AcDbSymbolTableRecord
100
AcDbLayerTableRecord
  2
0
 70
     0
 62
     7
  6
CONTINUOUS
370
    -3
390
7
  0
LAYER
  5
51A
102
{ACAD_XDICTIONARY
360
51B
102
}
330
2
100
AcDbSymbolTableRecord
100
AcDbLayerTableRecord
  2
1
 70
     0
 62
     9
  6
CONTINUOUS
370
    -3
390
7
  0
LAYER
  5
1
102
{ACAD_XDICTIONARY
360
5
102
}
330
2
100
AcDbSymbolTableRecord
100
AcDbLayerTableRecord
  2
2
 70
     0
 62
     4
  6
CONTINUOUS
370
    -3
390
7
  0
LAYER
  5
6E
102
{ACAD_XDICTIONARY
360
6F
102
}
330
2
100
AcDbSymbolTableRecord
100
AcDbLayerTableRecord
  2
4
 70
     0
 62
     3
  6
CONTINUOUS
370
    -3
390
7
  0
LAYER
  5
69
102
{ACAD_XDICTIONARY
360
6A
102
}
330
2
100
AcDbSymbolTableRecord
100
AcDbLayerTableRecord
  2
L-CENTER
 70
     0
 62
     1
  6
CENTER
370
    -3
390
7
  0
LAYER
  5
19B
102
{ACAD_XDICTIONARY
360
19C
102
}
330
2
100
AcDbSymbolTableRecord
100
AcDbLayerTableRecord
  2
3
 70
     0
 62
     2
  6
CONTINUOUS
370
    -3
390
7
  0
LAYER
  5
5CE
102
{ACAD_XDICTIONARY
360
5CF
102
}
330
2
100
AcDbSymbolTableRecord
100
AcDbLayerTableRecord
  2
5
 70
     0
 62
     6
  6
CONTINUOUS
370
    -3
390
7
  0
ENDTAB
  0
TABLE
  2
STYLE
  5
13
330
0
100
AcDbSymbolTable
 70
     2
  0
STYLE
  5
17
330
13
100
AcDbSymbolTableRecord
100
AcDbTextStyleTableRecord
  2
STANDARD
 70
     0
 40
0.0
 41
1.0
 50
0.0
 71
     0
 42
9.0
  3
TXT
  4

  0
STYLE
  5
12
330
13
100
AcDbSymbolTableRecord
100
AcDbTextStyleTableRecord
  2
KANJI
 70
     0
 40
0.0
 41
1.0
 50
0.0
 71
     0
 42
15.0
  3
TXT
  4
BIGFONT
  0
ENDTAB
  0
TABLE
  2
VIEW
  5
2A
330
0
100
AcDbSymbolTable
 70
     0
  0
ENDTAB
  0
TABLE
  2
UCS
  5
2B
330
0
100
AcDbSymbolTable
 70
     0
  0
ENDTAB
  0
TABLE
  2
APPID
  5
D
330
0
100
AcDbSymbolTable
 70
     6
  0
APPID
  5
C
330
D
100
AcDbSymbolTableRecord
100
AcDbRegAppTableRecord
  2
ACAD
 70
     0
  0
APPID
  5
32
330
D
100
AcDbSymbolTableRecord
100
AcDbRegAppTableRecord
  2
ACAD_NAV_VCDISPLAY
 70
     0
  0
APPID
  5
25
330
D
100
AcDbSymbolTableRecord
100
AcDbRegAppTableRecord
  2
ACAD_PSEXT
 70
     0
  0
APPID
  5
63C
330
D
100
AcDbSymbolTableRecord
100
AcDbRegAppTableRecord
  2
ACAD_MLEADERVER
 70
     0
  0
ENDTAB
  0
TABLE
  2
DIMSTYLE
  5
16
330
0
100
AcDbSymbolTable
 70
     1
100
AcDbDimStyleTable
  0
DIMSTYLE
105
15
330
16
100
AcDbSymbolTableRecord
100
AcDbDimStyleTableRecord
  2
STANDARD
 70
     0
178
     0
340
17
  0
ENDTAB
  0
TABLE
  2
BLOCK_RECORD
  5
1A
330
0
100
AcDbSymbolTable
 70
     0
  0
BLOCK_RECORD
  5
1B
102
{ACAD_XDICTIONARY
360
1C
102
}
330
1A
100
AcDbSymbolTableRecord
100
AcDbBlockTableRecord
  2
*MODEL_SPACE
340
23
  0
BLOCK_RECORD
  5
26
330
1A
100
AcDbSymbolTableRecord
100
AcDbBlockTableRecord
  2
*PAPER_SPACE
340
29
  0
ENDTAB
  0
ENDSEC
  0
SECTION
  2
BLOCKS
  0
BLOCK
  5
1E
330
1B
100
AcDbEntity
  8
0
100
AcDbBlockBegin
  2
*MODEL_SPACE
 70
     0
 10
0.0
 20
0.0
 30
0.0
  3
*MODEL_SPACE
  1

  0
ENDBLK
  5
22
330
1B
100
AcDbEntity
  8
0
100
AcDbBlockEnd
  0
BLOCK
  5
27
330
26
100
AcDbEntity
 67
     1
  8
0
100
AcDbBlockBegin
  2
*PAPER_SPACE
 70
     0
 10
0.0
 20
0.0
 30
0.0
  3
*PAPER_SPACE
  1

  0
ENDBLK
  5
28
330
26
100
AcDbEntity
 67
     1
  8
0
100
AcDbBlockEnd
  0
ENDSEC
  0
SECTION
  2
ENTITIES
  0
LINE
  5
68
330
1B
100
AcDbEntity
  8
L-CENTER
 48
3.0
100
AcDbLine
 10
312.6408359080465
 20
220.9003334433842
 30
0.0
 11
1030.389753491706
 21
220.9003334433842
 31
0.0
  0
LINE
  5
6D
330
1B
100
AcDbEntity
  8
4
100
AcDbLine
 10
930.6907419865823
 20
283.4003334433844
 30
0.0
 11
915.7907419865824
 21
283.4003334433844
 31
0.0
  0
LINE
  5
71
330
1B
100
AcDbEntity
  8
4
100
AcDbLine
 10
930.6907419865823
 20
158.4003334433842
 30
0.0
 11
915.7907419865824
 21
158.4003334433842
 31
0.0
  0
ARC
  5
72
330
1B
100
AcDbEntity
  8
4
100
AcDbCircle
 10
910.7907419865824
 20
154.9003334433842
 30
0.0
 40
5.0
100
AcDbArc
 50
270.0
 51
0.0
  0
LINE
  5
73
330
1B
100
AcDbEntity
  8
4
100
AcDbLine
 10
582.3808319865825
 20
524.9003334433844
 30
0.0
 11
554.380831986583
 21
524.9003334433844
 31
0.0
  0
LINE
  5
74
330
1B
100
AcDbEntity
  8
4
100
AcDbLine
 10
581.380831986583
 20
525.9003334433844
 30
0.0
 11
507.380831986583
 21
525.9003334433844
 31
0.0
  0
LINE
  5
75
330
1B
100
AcDbEntity
  8
4
100
AcDbLine
 10
584.380831986583
 20
400.9003334433844
 30
0.0
 11
504.380831986583
 21
400.9003334433844
 31
0.0
  0
LINE
  5
76
330
1B
100
AcDbEntity
  8
4
100
AcDbLine
 10
592.9054425496415
 20
388.1003334433844
 30
0.0
 11
495.8562214235239
 21
388.1003334433843
 31
0.0
  0
LINE
  5
77
330
1B
100
AcDbEntity
  8
4
100
AcDbLine
 10
611.1498719865826
 20
375.2003334433841
 30
0.0
 11
506.7603971011858
 21
375.2003334433841
 31
0.0
  0
LINE
  5
78
330
1B
100
AcDbEntity
  8
2
100
AcDbLine
 10
603.7907419865828
 20
375.5003334433841
 30
0.0
 11
506.7603971011858
 21
375.5003334433841
 31
0.0
  0
LINE
  5
79
330
1B
100
AcDbEntity
  8
4
100
AcDbLine
 10
484.8210868719802
 20
375.2003334433841
 30
0.0
 11
449.380831986583
 21
375.2003334433841
 31
0.0
  0
LINE
  5
7A
330
1B
100
AcDbEntity
  8
2
100
AcDbLine
 10
484.8210868719802
 20
375.5003334433841
 30
0.0
 11
449.380831986583
 21
375.5003334433841
 31
0.0
  0
LINE
  5
7B
330
1B
100
AcDbEntity
  8
4
100
AcDbLine
 10
450.380831986583
 20
387.1003334433841
 30
0.0
 11
619.5407419865828
 21
387.1003334433841
 31
0.0
  0
LINE
  5
7C
330
1B
100
AcDbEntity
  8
4
100
AcDbLine
 10
337.7907419865824
 20
343.9003334433842
 30
0.0
 11
913.7907419865824
 21
343.9003334433842
 31
0.0
  0
LINE
  5
7D
330
1B
100
AcDbEntity
  8
4
100
AcDbLine
 10
350.7907419865824
 20
346.9003334433842
 30
0.0
 11
900.7907419865824
 21
346.9003334433842
 31
0.0
  0
LINE
  5
7E
330
1B
100
AcDbEntity
  8
2
100
AcDbLine
 10
350.7907419865824
 20
347.2003334433841
 30
0.0
 11
900.7907419865824
 21
347.2003334433841
 31
0.0
  0
LINE
  5
7F
330
1B
100
AcDbEntity
  8
4
100
AcDbLine
 10
352.7907419865824
 20
369.2003334433841
 30
0.0
 11
898.7907419865824
 21
369.2003334433841
 31
0.0
  0
LINE
  5
80
330
1B
100
AcDbEntity
  8
4
100
AcDbLine
 10
510.7907419865828
 20
133.0003334433842
 30
0.0
 11
638.380831986583
 21
133.0003334433842
 31
0.0
  0
LINE
  5
81
330
1B
100
AcDbEntity
  8
4
100
AcDbLine
 10
510.7907419865828
 20
144.9003334433842
 30
0.0
 11
639.380831986583
 21
144.9003334433842
 31
0.0
  0
LINE
  5
82
330
1B
100
AcDbEntity
  8
4
100
AcDbLine
 10
740.7907419865828
 20
149.9003334433842
 30
0.0
 11
510.7907419865828
 21
149.9003334433842
 31
0.0
  0
LINE
  5
83
330
1B
100
AcDbEntity
  8
L-CENTER
 48
3.0
100
AcDbLine
 10
544.380831986583
 20
534.838658969298
 30
0.0
 11
544.380831986583
 21
127.5016539821968
 31
0.0
  0
LINE
  5
84
330
1B
100
AcDbEntity
  8
4
100
AcDbLine
 10
335.7907419865824
 20
341.9003334433842
 30
0.0
 11
335.7907419865824
 21
154.9003334433842
 31
0.0
  0
LINE
  5
85
330
1B
100
AcDbEntity
  8
4
100
AcDbLine
 10
373.7907419865828
 20
125.9003334433844
 30
0.0
 11
507.7907419865824
 21
125.9003334433844
 31
0.0
  0
LINE
  5
86
330
1B
100
AcDbEntity
  8
4
100
AcDbLine
 10
370.7907419865824
 20
90.9003334433844
 30
0.0
 11
510.7907419865828
 21
90.9003334433844
 31
0.0
  0
LINE
  5
87
330
1B
100
AcDbEntity
  8
4
100
AcDbLine
 10
320.8907419865824
 20
283.4003334433844
 30
0.0
 11
320.8907419865824
 21
158.4003334433842
 31
0.0
  0
LINE
  5
88
330
1B
100
AcDbEntity
  8
4
100
AcDbLine
 10
330.7907419865824
 20
158.4003334433842
 30
0.0
 11
330.7907419865824
 21
283.4003334433844
 31
0.0
  0
LINE
  5
89
330
1B
100
AcDbEntity
  8
2
100
AcDbLine
 10
330.4907419865823
 20
158.4003334433842
 30
0.0
 11
330.4907419865823
 21
283.4003334433844
 31
0.0
  0
LINE
  5
8A
330
1B
100
AcDbEntity
  8
4
100
AcDbLine
 10
382.7907419865824
 20
149.9003334433842
 30
0.0
 11
340.7907419865824
 21
149.9003334433842
 31
0.0
  0
ARC
  5
8B
330
1B
100
AcDbEntity
  8
4
100
AcDbCircle
 10
340.7907419865824
 20
154.9003334433842
 30
0.0
 40
5.0
100
AcDbArc
 50
180.0
 51
270.0
  0
LINE
  5
8C
330
1B
100
AcDbEntity
  8
4
100
AcDbLine
 10
320.8907419865824
 20
158.4003334433842
 30
0.0
 11
335.7907419865824
 21
158.4003334433842
 31
0.0
  0
ARC
  5
8D
330
1B
100
AcDbEntity
  8
4
100
AcDbCircle
 10
382.7907419865824
 20
137.9003334433842
 30
0.0
 40
12.0
100
AcDbArc
 50
0.0
 51
90.0
  0
ARC
  5
8E
330
1B
100
AcDbEntity
  8
4
100
AcDbCircle
 10
382.7907419865824
 20
137.9003334433842
 30
0.0
 40
12.0
100
AcDbArc
 50
270.0
 51
0.0
  0
ARC
  5
8F
330
1B
100
AcDbEntity
  8
4
100
AcDbCircle
 10
373.7907419865828
 20
122.9003334433844
 30
0.0
 40
3.0
100
AcDbArc
 50
90.0
 51
180.0
  0
LINE
  5
90
330
1B
100
AcDbEntity
  8
4
100
AcDbLine
 10
370.7907419865824
 20
122.9003334433844
 30
0.0
 11
370.7907419865824
 21
90.9003334433844
 31
0.0
  0
LINE
  5
91
330
1B
100
AcDbEntity
  8
4
100
AcDbLine
 10
320.8907419865824
 20
283.4003334433844
 30
0.0
 11
335.7907419865824
 21
283.4003334433844
 31
0.0
  0
LINE
  5
92
330
1B
100
AcDbEntity
  8
L-CENTER
 48
3.0
100
AcDbLine
 10
415.7907419865824
 20
70.9003334433844
 30
0.0
 11
415.7907419865824
 21
145.9003334433844
 31
0.0
  0
ARC
  5
93
330
1B
100
AcDbEntity
  8
4
100
AcDbCircle
 10
485.7907419865828
 20
215.9003334433842
 30
0.0
 40
5.0
100
AcDbArc
 50
0.0
 51
90.0
  0
ARC
  5
94
330
1B
100
AcDbEntity
  8
4
100
AcDbCircle
 10
480.7907419865828
 20
135.9003334433842
 30
0.0
 40
10.0
100
AcDbArc
 50
270.0
 51
0.0
  0
LINE
  5
95
330
1B
100
AcDbEntity
  8
4
100
AcDbLine
 10
510.7907419865828
 20
215.9003334433842
 30
0.0
 11
510.7907419865828
 21
90.9003334433844
 31
0.0
  0
LINE
  5
96
330
1B
100
AcDbEntity
  8
4
100
AcDbLine
 10
490.7907419865828
 20
215.9003334433842
 30
0.0
 11
490.7907419865828
 21
135.9003334433842
 31
0.0
  0
ARC
  5
97
330
1B
100
AcDbEntity
  8
4
100
AcDbCircle
 10
507.7907419865824
 20
122.9003334433844
 30
0.0
 40
3.0
100
AcDbArc
 50
0.0
 51
90.0
  0
ARC
  5
98
330
1B
100
AcDbEntity
  8
4
100
AcDbCircle
 10
515.7907419865828
 20
215.9003334433842
 30
0.0
 40
5.0
100
AcDbArc
 50
90.0
 51
180.0
  0
LINE
  5
99
330
1B
100
AcDbEntity
  8
4
100
AcDbLine
 10
350.7907419865824
 20
343.9003334433842
 30
0.0
 11
350.7907419865824
 21
367.2003334433841
 31
0.0
  0
LINE
  5
9A
330
1B
100
AcDbEntity
  8
4
100
AcDbLine
 10
449.380831986583
 20
369.2003334433841
 30
0.0
 11
449.380831986583
 21
386.1003334433841
 31
0.0
  0
ARC
  5
9B
330
1B
100
AcDbEntity
  8
4
100
AcDbCircle
 10
544.380831986583
 20
425.9003334433844
 30
0.0
 40
10.0
100
AcDbArc
 50
180.0
 51
270.0
  0
ARC
  5
9C
330
1B
100
AcDbEntity
  8
4
100
AcDbCircle
 10
544.380831986583
 20
425.9003334433844
 30
0.0
 40
10.0
100
AcDbArc
 50
270.0
 51
0.0
  0
LINE
  5
9D
330
1B
100
AcDbEntity
  8
4
100
AcDbLine
 10
506.380831986583
 20
400.9003334433844
 30
0.0
 11
506.380831986583
 21
524.9003334433844
 31
0.0
  0
LINE
  5
9E
330
1B
100
AcDbEntity
  8
4
100
AcDbLine
 10
504.380831986583
 20
388.1003334433843
 30
0.0
 11
504.380831986583
 21
400.9003334433844
 31
0.0
  0
LINE
  5
9F
330
1B
100
AcDbEntity
  8
4
100
AcDbLine
 10
506.380831986583
 20
524.9003334433844
 30
0.0
 11
534.380831986583
 21
524.9003334433844
 31
0.0
  0
LINE
  5
A0
330
1B
100
AcDbEntity
  8
4
100
AcDbLine
 10
507.380831986583
 20
525.9003334433844
 30
0.0
 11
506.380831986583
 21
524.9003334433844
 31
0.0
  0
LINE
  5
A1
330
1B
100
AcDbEntity
  8
4
100
AcDbLine
 10
554.380831986583
 20
525.9003334433844
 30
0.0
 11
554.380831986583
 21
425.9003334433844
 31
0.0
  0
LINE
  5
A2
330
1B
100
AcDbEntity
  8
4
100
AcDbLine
 10
534.380831986583
 20
525.9003334433844
 30
0.0
 11
534.380831986583
 21
425.9003334433844
 31
0.0
  0
LINE
  5
A3
330
1B
100
AcDbEntity
  8
L-CENTER
 48
3.0
100
AcDbLine
 10
625.7907419865828
 20
439.5503371249388
 30
0.0
 11
625.7907419865828
 21
127.5016539821968
 31
0.0
  0
LINE
  5
A4
330
1B
100
AcDbEntity
  8
L-CENTER
 48
3.0
100
AcDbLine
 10
735.7907419865828
 20
408.9257234433844
 30
0.0
 11
735.7907419865828
 21
127.5016539821969
 31
0.0
  0
LINE
  5
A5
330
1B
100
AcDbEntity
  8
4
100
AcDbLine
 10
915.7907419865824
 20
341.9003334433842
 30
0.0
 11
915.7907419865824
 21
154.9003334433842
 31
0.0
  0
LINE
  5
A6
330
1B
100
AcDbEntity
  8
4
100
AcDbLine
 10
877.7907419865828
 20
125.9003334433844
 30
0.0
 11
743.7907419865828
 21
125.9003334433844
 31
0.0
  0
LINE
  5
A7
330
1B
100
AcDbEntity
  8
4
100
AcDbLine
 10
880.7907419865824
 20
90.9003334433844
 30
0.0
 11
740.7907419865828
 21
90.9003334433844
 31
0.0
  0
LINE
  5
A8
330
1B
100
AcDbEntity
  8
4
100
AcDbLine
 10
656.7907419865828
 20
133.0003334433842
 30
0.0
 11
740.7907419865828
 21
133.0003334433842
 31
0.0
  0
LINE
  5
A9
330
1B
100
AcDbEntity
  8
4
100
AcDbLine
 10
655.7907419865828
 20
144.9003334433842
 30
0.0
 11
740.7907419865828
 21
144.9003334433842
 31
0.0
  0
LINE
  5
AA
330
1B
100
AcDbEntity
  8
4
100
AcDbLine
 10
655.7907419865828
 20
134.0003334433842
 30
0.0
 11
655.7907419865828
 21
149.9003334433842
 31
0.0
  0
LINE
  5
AB
330
1B
100
AcDbEntity
  8
4
100
AcDbLine
 10
639.380831986583
 20
134.0003334433842
 30
0.0
 11
639.380831986583
 21
149.9003334433842
 31
0.0
  0
LINE
  5
AC
330
1B
100
AcDbEntity
  8
4
100
AcDbLine
 10
740.7907419865828
 20
215.9003334433842
 30
0.0
 11
740.7907419865828
 21
90.9003334433844
 31
0.0
  0
ARC
  5
AD
330
1B
100
AcDbEntity
  8
4
100
AcDbCircle
 10
743.7907419865828
 20
122.9003334433844
 30
0.0
 40
3.0
100
AcDbArc
 50
90.0
 51
180.0
  0
ARC
  5
AE
330
1B
100
AcDbEntity
  8
4
100
AcDbCircle
 10
735.7907419865828
 20
215.9003334433842
 30
0.0
 40
5.0
100
AcDbArc
 50
0.0
 51
90.0
  0
LINE
  5
AF
330
1B
100
AcDbEntity
  8
L-CENTER
 48
3.0
100
AcDbLine
 10
835.7907419865824
 20
70.9003334433844
 30
0.0
 11
835.7907419865824
 21
145.9003334433844
 31
0.0
  0
LINE
  5
B0
330
1B
100
AcDbEntity
  8
4
100
AcDbLine
 10
760.7907419865828
 20
215.9003334433842
 30
0.0
 11
760.7907419865828
 21
135.9003334433842
 31
0.0
  0
ARC
  5
B1
330
1B
100
AcDbEntity
  8
4
100
AcDbCircle
 10
770.7907419865828
 20
135.9003334433842
 30
0.0
 40
10.0
100
AcDbArc
 50
180.0
 51
270.0
  0
ARC
  5
B2
330
1B
100
AcDbEntity
  8
4
100
AcDbCircle
 10
765.7907419865828
 20
215.9003334433842
 30
0.0
 40
5.0
100
AcDbArc
 50
90.0
 51
180.0
  0
LINE
  5
B3
330
1B
100
AcDbEntity
  8
4
100
AcDbLine
 10
868.7907419865828
 20
149.9003334433842
 30
0.0
 11
910.7907419865824
 21
149.9003334433842
 31
0.0
  0
ARC
  5
B4
330
1B
100
AcDbEntity
  8
4
100
AcDbCircle
 10
868.7907419865828
 20
137.9003334433842
 30
0.0
 40
12.0
100
AcDbArc
 50
90.0
 51
180.0
  0
ARC
  5
B5
330
1B
100
AcDbEntity
  8
4
100
AcDbCircle
 10
868.7907419865828
 20
137.9003334433842
 30
0.0
 40
12.0
100
AcDbArc
 50
180.0
 51
270.0
  0
ARC
  5
B6
330
1B
100
AcDbEntity
  8
4
100
AcDbCircle
 10
877.7907419865828
 20
122.9003334433844
 30
0.0
 40
3.0
100
AcDbArc
 50
0.0
 51
90.0
  0
LINE
  5
B7
330
1B
100
AcDbEntity
  8
4
100
AcDbLine
 10
880.7907419865824
 20
122.9003334433844
 30
0.0
 11
880.7907419865824
 21
90.9003334433844
 31
0.0
  0
LINE
  5
B8
330
1B
100
AcDbEntity
  8
4
100
AcDbLine
 10
655.7907419865828
 20
375.2003334433841
 30
0.0
 11
744.8210868719798
 21
375.2003334433841
 31
0.0
  0
LINE
  5
B9
330
1B
100
AcDbEntity
  8
2
100
AcDbLine
 10
655.7907419865828
 20
375.5003334433841
 30
0.0
 11
744.8210868719798
 21
375.5003334433841
 31
0.0
  0
LINE
  5
BA
330
1B
100
AcDbEntity
  8
4
100
AcDbLine
 10
766.7603971011849
 20
375.2003334433841
 30
0.0
 11
815.7907419865828
 21
375.2003334433841
 31
0.0
  0
LINE
  5
BB
330
1B
100
AcDbEntity
  8
2
100
AcDbLine
 10
766.7603971011849
 20
375.5003334433841
 30
0.0
 11
815.7907419865828
 21
375.5003334433841
 31
0.0
  0
LINE
  5
BC
330
1B
100
AcDbEntity
  8
4
100
AcDbLine
 10
656.7907419865828
 20
387.1003334433841
 30
0.0
 11
814.7907419865828
 21
387.1003334433841
 31
0.0
  0
LINE
  5
BD
330
1B
100
AcDbEntity
  8
4
100
AcDbLine
 10
619.5407419865828
 20
372.8485284433843
 30
0.0
 11
619.5407419865828
 21
422.0985284433843
 31
0.0
  0
LINE
  5
BE
330
1B
100
AcDbEntity
  8
4
100
AcDbLine
 10
632.0407419865828
 20
372.8485284433843
 30
0.0
 11
632.0407419865828
 21
422.0985284433843
 31
0.0
  0
LINE
  5
BF
330
1B
100
AcDbEntity
  8
4
100
AcDbLine
 10
582.3808319865825
 20
400.9003334433844
 30
0.0
 11
582.3808319865825
 21
524.9003334433844
 31
0.0
  0
LINE
  5
C0
330
1B
100
AcDbEntity
  8
L-CENTER
 48
5.0
100
AcDbLine
 10
611.3827775232221
 20
398.3485284433843
 30
0.0
 11
640.1987064499431
 21
398.3485284433843
 31
0.0
  0
ARC
  5
C1
330
1B
100
AcDbEntity
  8
4
100
AcDbCircle
 10
617.5407419865828
 20
372.8485284433843
 30
0.0
 40
2.0
100
AcDbArc
 50
270.0
 51
0.0
  0
LINE
  5
C2
330
1B
100
AcDbEntity
  8
4
100
AcDbLine
 10
611.367401986583
 20
379.3485284433843
 30
0.0
 11
619.5407419865828
 21
379.3485284433843
 31
0.0
  0
LINE
  5
C3
330
1B
100
AcDbEntity
  8
4
100
AcDbLine
 10
619.5407419865828
 20
380.1986284433842
 30
0.0
 11
611.367401986583
 21
379.3485284433843
 31
0.0
  0
LINE
  5
C4
330
1B
100
AcDbEntity
  8
4
100
AcDbLine
 10
584.380831986583
 20
400.9003334433844
 30
0.0
 11
584.380831986583
 21
388.1003334433844
 31
0.0
  0
LINE
  5
C5
330
1B
100
AcDbEntity
  8
4
100
AcDbLine
 10
610.8353967021553
 20
369.2003334433841
 30
0.0
 11
611.367401986583
 21
379.3485284433843
 31
0.0
  0
LINE
  5
C6
330
1B
100
AcDbEntity
  8
4
100
AcDbLine
 10
632.0407419865828
 20
387.1003334433841
 30
0.0
 11
638.380831986583
 21
387.1003334433841
 31
0.0
  0
LINE
  5
C7
330
1B
100
AcDbEntity
  8
4
100
AcDbLine
 10
632.0407419865828
 20
379.3485284433843
 30
0.0
 11
640.2143269865828
 21
379.3485284433843
 31
0.0
  0
LINE
  5
C8
330
1B
100
AcDbEntity
  8
4
100
AcDbLine
 10
632.0407419865828
 20
380.1986284433842
 30
0.0
 11
640.2143269865828
 21
379.3485284433843
 31
0.0
  0
ARC
  5
C9
330
1B
100
AcDbEntity
  8
4
100
AcDbCircle
 10
634.0407419865828
 20
372.8485284433843
 30
0.0
 40
2.0
100
AcDbArc
 50
180.0
 51
270.0
  0
LINE
  5
CA
330
1B
100
AcDbEntity
  8
4
100
AcDbLine
 10
655.7907419865828
 20
369.2003334433841
 30
0.0
 11
655.7907419865828
 21
386.1003334433841
 31
0.0
  0
LINE
  5
CB
330
1B
100
AcDbEntity
  8
4
100
AcDbLine
 10
640.7461062430302
 20
369.2003334433841
 30
0.0
 11
640.2143269865828
 21
379.3485284433843
 31
0.0
  0
LINE
  5
CC
330
1B
100
AcDbEntity
  8
4
100
AcDbLine
 10
639.380831986583
 20
386.2003334433844
 30
0.0
 11
639.380831986583
 21
386.2003334433841
 31
0.0
  0
LINE
  5
CD
330
1B
100
AcDbEntity
  8
4
100
AcDbLine
 10
581.380831986583
 20
525.9003334433844
 30
0.0
 11
582.3808319865825
 21
524.9003334433844
 31
0.0
  0
ARC
  5
CE
330
1B
100
AcDbEntity
  8
4
100
AcDbCircle
 10
625.7907419865828
 20
422.0985284433843
 30
0.0
 40
6.25
100
AcDbArc
 50
0.0
 51
180.0
  0
LINE
  5
CF
330
1B
100
AcDbEntity
  8
4
100
AcDbLine
 10
815.7907419865828
 20
369.2003334433841
 30
0.0
 11
815.7907419865828
 21
386.1003334433841
 31
0.0
  0
LINE
  5
D0
330
1B
100
AcDbEntity
  8
4
100
AcDbLine
 10
900.7907419865824
 20
343.9003334433842
 30
0.0
 11
900.7907419865824
 21
367.2003334433841
 31
0.0
  0
LINE
  5
D1
330
1B
100
AcDbEntity
  8
4
100
AcDbLine
 10
1826.746014092762
 20
346.9003334433842
 30
0.0
 11
1276.746014092762
 21
346.9003334433842
 31
0.0
  0
LINE
  5
D2
330
1B
100
AcDbEntity
  8
2
100
AcDbLine
 10
1826.746014092762
 20
347.2003334433841
 30
0.0
 11
1276.746014092762
 21
347.2003334433841
 31
0.0
  0
LINE
  5
D3
330
1B
100
AcDbEntity
  8
4
100
AcDbLine
 10
1824.746014092762
 20
369.2003334433841
 30
0.0
 11
1278.746014092762
 21
369.2003334433841
 31
0.0
  0
LINE
  5
D4
330
1B
100
AcDbEntity
  8
4
100
AcDbLine
 10
1263.746014092762
 20
343.9003334433842
 30
0.0
 11
1839.746014092762
 21
343.9003334433842
 31
0.0
  0
LINE
  5
D5
330
1B
100
AcDbEntity
  8
4
100
AcDbLine
 10
1647.746014092762
 20
375.2003334433841
 30
0.0
 11
1562.715669207364
 21
375.2003334433841
 31
0.0
  0
LINE
  5
D6
330
1B
100
AcDbEntity
  8
2
100
AcDbLine
 10
1647.746014092762
 20
375.5003334433841
 30
0.0
 11
1562.715669207364
 21
375.5003334433841
 31
0.0
  0
LINE
  5
D7
330
1B
100
AcDbEntity
  8
4
100
AcDbLine
 10
1540.776358978159
 20
375.2003334433841
 30
0.0
 11
1457.746014092762
 21
375.2003334433841
 31
0.0
  0
LINE
  5
D8
330
1B
100
AcDbEntity
  8
2
100
AcDbLine
 10
1540.776358978159
 20
375.5003334433841
 30
0.0
 11
1457.746014092762
 21
375.5003334433841
 31
0.0
  0
LINE
  5
D9
330
1B
100
AcDbEntity
  8
4
100
AcDbLine
 10
1646.746016621622
 20
387.1003334433841
 30
0.0
 11
1458.746014092762
 21
387.1003334433841
 31
0.0
  0
LINE
  5
DA
330
1B
100
AcDbEntity
  8
4
100
AcDbLine
 10
1556.746014092762
 20
283.4794384433844
 30
0.0
 11
1654.260909092762
 21
283.4794384433844
 31
0.0
  0
LINE
  5
DB
330
1B
100
AcDbEntity
  8
4
100
AcDbLine
 10
1556.746014092762
 20
158.3212334433842
 30
0.0
 11
1654.260909092762
 21
158.3212334433842
 31
0.0
  0
LINE
  5
DC
330
1B
100
AcDbEntity
  8
L-CENTER
 48
3.0
100
AcDbLine
 10
1791.697248198504
 20
220.9003334433842
 30
0.0
 11
1633.79477998702
 21
220.9003334433842
 31
0.0
  0
LINE
  5
DD
330
1B
100
AcDbEntity
  8
4
100
AcDbLine
 10
1407.746014092762
 20
149.9003334433842
 30
0.0
 11
1695.746014092762
 21
149.9003334433842
 31
0.0
  0
LINE
  5
DE
330
1B
100
AcDbEntity
  8
4
100
AcDbLine
 10
1645.746014092762
 20
133.0003334433842
 30
0.0
 11
1457.746014092762
 21
133.0003334433842
 31
0.0
  0
LINE
  5
DF
330
1B
100
AcDbEntity
  8
4
100
AcDbLine
 10
1646.746014092762
 20
144.9003334433842
 30
0.0
 11
1456.746014092762
 21
144.9003334433842
 31
0.0
  0
LINE
  5
E0
330
1B
100
AcDbEntity
  8
4
100
AcDbLine
 10
1394.746014092762
 20
125.9003334433844
 30
0.0
 11
1257.746014092762
 21
125.9003334433844
 31
0.0
  0
LINE
  5
E1
330
1B
100
AcDbEntity
  8
4
100
AcDbLine
 10
1257.746014092762
 20
90.9003334433844
 30
0.0
 11
1397.746014092762
 21
90.9003334433844
 31
0.0
  0
LINE
  5
E2
330
1B
100
AcDbEntity
  8
4
100
AcDbLine
 10
1292.323654092762
 20
220.9003334433842
 30
0.0
 11
1257.746014092762
 21
125.8996034433844
 31
0.0
  0
LINE
  5
E3
330
1B
100
AcDbEntity
  8
4
100
AcDbLine
 10
1261.746014092762
 20
136.8893484433843
 30
0.0
 11
1261.746014092762
 21
341.9003334433842
 31
0.0
  0
LINE
  5
E4
330
1B
100
AcDbEntity
  8
4
100
AcDbLine
 10
949.7907419865828
 20
242.4003334433842
 30
0.0
 11
1024.790741986583
 21
242.4003334433842
 31
0.0
  0
LINE
  5
E5
330
1B
100
AcDbEntity
  8
4
100
AcDbLine
 10
944.7907419865828
 20
238.9003334433842
 30
0.0
 11
1023.790741986583
 21
238.9003334433842
 31
0.0
  0
LINE
  5
E6
330
1B
100
AcDbEntity
  8
4
100
AcDbLine
 10
944.7907419865828
 20
202.9003334433842
 30
0.0
 11
1023.790741986583
 21
202.9003334433842
 31
0.0
  0
LINE
  5
E7
330
1B
100
AcDbEntity
  8
4
100
AcDbLine
 10
931.6907419865828
 20
189.9003334433842
 30
0.0
 11
931.6907419865828
 21
251.9003334433842
 31
0.0
  0
LINE
  5
E8
330
1B
100
AcDbEntity
  8
4
100
AcDbLine
 10
930.6907419865823
 20
158.4003334433842
 30
0.0
 11
930.6907419865823
 21
283.4003334433844
 31
0.0
  0
LINE
  5
E9
330
1B
100
AcDbEntity
  8
4
100
AcDbLine
 10
920.7907419865824
 20
158.4003334433842
 30
0.0
 11
920.7907419865824
 21
283.4003334433844
 31
0.0
  0
LINE
  5
EA
330
1B
100
AcDbEntity
  8
2
100
AcDbLine
 10
921.0907419865823
 20
158.4003334433842
 30
0.0
 11
921.0907419865823
 21
283.4003334433844
 31
0.0
  0
LINE
  5
EB
330
1B
100
AcDbEntity
  8
4
100
AcDbLine
 10
930.6907419865823
 20
189.9003334433842
 30
0.0
 11
931.6907419865828
 21
189.9003334433842
 31
0.0
  0
LINE
  5
EC
330
1B
100
AcDbEntity
  8
4
100
AcDbLine
 10
931.6907419865828
 20
240.9003334433842
 30
0.0
 11
944.7907419865828
 21
240.9003334433842
 31
0.0
  0
LINE
  5
ED
330
1B
100
AcDbEntity
  8
4
100
AcDbLine
 10
931.6907419865828
 20
200.9003334433842
 30
0.0
 11
944.7907419865828
 21
200.9003334433842
 31
0.0
  0
LINE
  5
EE
330
1B
100
AcDbEntity
  8
4
100
AcDbLine
 10
930.6907419865823
 20
251.9003334433842
 30
0.0
 11
931.6907419865828
 21
251.9003334433842
 31
0.0
  0
LINE
  5
EF
330
1B
100
AcDbEntity
  8
4
100
AcDbLine
 10
949.7907419865828
 20
238.9003334433842
 30
0.0
 11
949.7907419865828
 21
242.4003334433842
 31
0.0
  0
LINE
  5
F0
330
1B
100
AcDbEntity
  8
4
100
AcDbLine
 10
944.7907419865828
 20
200.9003334433842
 30
0.0
 11
944.7907419865828
 21
240.9003334433842
 31
0.0
  0
LINE
  5
F1
330
1B
100
AcDbEntity
  8
4
100
AcDbLine
 10
1024.790741986583
 20
237.9003334433842
 30
0.0
 11
1023.790741986583
 21
238.9003334433842
 31
0.0
  0
LINE
  5
F2
330
1B
100
AcDbEntity
  8
4
100
AcDbLine
 10
1024.790741986583
 20
203.9003334433842
 30
0.0
 11
1023.790741986583
 21
202.9003334433842
 31
0.0
  0
LINE
  5
F3
330
1B
100
AcDbEntity
  8
4
100
AcDbLine
 10
1023.790741986583
 20
202.9003334433842
 30
0.0
 11
1023.790741986583
 21
238.9003334433842
 31
0.0
  0
LINE
  5
F4
330
1B
100
AcDbEntity
  8
4
100
AcDbLine
 10
1024.790741986583
 20
242.4003334433842
 30
0.0
 11
1024.790741986583
 21
203.9003334433842
 31
0.0
  0
LINE
  5
F5
330
1B
100
AcDbEntity
  8
4
100
AcDbLine
 10
1257.746014092762
 20
125.9003334433844
 30
0.0
 11
1257.746014092762
 21
90.9003334433844
 31
0.0
  0
LINE
  5
F6
330
1B
100
AcDbEntity
  8
4
100
AcDbLine
 10
1276.746014092762
 20
343.9003334433842
 30
0.0
 11
1276.746014092762
 21
367.2003334433841
 31
0.0
  0
LINE
  5
F7
330
1B
100
AcDbEntity
  8
L-CENTER
 48
3.0
100
AcDbLine
 10
1551.746014092762
 20
127.5016539821968
 30
0.0
 11
1551.746014092762
 21
394.0263134433844
 31
0.0
  0
LINE
  5
F8
330
1B
100
AcDbEntity
  8
L-CENTER
 48
3.0
100
AcDbLine
 10
1537.746014092762
 20
127.5016539821968
 30
0.0
 11
1537.746014092762
 21
394.3080484433845
 31
0.0
  0
LINE
  5
F9
330
1B
100
AcDbEntity
  8
L-CENTER
 48
3.0
100
AcDbLine
 10
1552.746014092762
 20
127.5016539821968
 30
0.0
 11
1552.746014092762
 21
534.838658969298
 31
0.0
  0
LINE
  5
FA
330
1B
100
AcDbEntity
  8
L-CENTER
 48
3.0
100
AcDbLine
 10
1292.746014092762
 20
70.9003334433844
 30
0.0
 11
1292.746014092762
 21
145.9003334433844
 31
0.0
  0
ARC
  5
FB
330
1B
100
AcDbEntity
  8
4
100
AcDbCircle
 10
1407.746014092762
 20
139.9003334433842
 30
0.0
 40
10.0
100
AcDbArc
 50
90.0
 51
180.0
  0
ARC
  5
FC
330
1B
100
AcDbEntity
  8
4
100
AcDbCircle
 10
1394.746014092762
 20
122.9003334433844
 30
0.0
 40
3.0
100
AcDbArc
 50
0.0
 51
90.0
  0
LINE
  5
FD
330
1B
100
AcDbEntity
  8
4
100
AcDbLine
 10
1397.746014092762
 20
139.9003334433842
 30
0.0
 11
1397.746014092762
 21
90.9003334433844
 31
0.0
  0
LINE
  5
FE
330
1B
100
AcDbEntity
  8
4
100
AcDbLine
 10
1456.746014092762
 20
146.9003334433842
 30
0.0
 11
1456.746014092762
 21
134.0003334433842
 31
0.0
  0
ARC
  5
FF
330
1B
100
AcDbEntity
  8
4
100
AcDbCircle
 10
1453.746014092762
 20
146.9003334433842
 30
0.0
 40
3.0
100
AcDbArc
 50
0.0
 51
90.0
  0
LINE
  5
105
330
1B
100
AcDbEntity
  8
L-CENTER
 48
3.0
100
AcDbLine
 10
1491.784344092762
 20
118.3994935632802
 30
0.0
 11
1491.784344092762
 21
165.785756558078
 31
0.0
  0
LINE
  5
10D
330
1B
100
AcDbEntity
  8
L-CENTER
 48
3.0
100
AcDbLine
 10
1583.708174092762
 20
118.3994935632802
 30
0.0
 11
1583.708174092762
 21
165.785756558078
 31
0.0
  0
ARC
  5
112
330
1B
100
AcDbEntity
  8
4
100
AcDbCircle
 10
1556.746014092762
 20
153.3212334433842
 30
0.0
 40
5.0
100
AcDbArc
 50
90.0
 51
180.0
  0
LINE
  5
113
330
1B
100
AcDbEntity
  8
4
100
AcDbLine
 10
1617.746014092762
 20
146.9003334433842
 30
0.0
 11
1617.746014092762
 21
134.0003334433842
 31
0.0
  0
LINE
  5
118
330
1B
100
AcDbEntity
  8
L-CENTER
 48
3.0
100
AcDbLine
 10
1611.082439092762
 20
118.3994935632802
 30
0.0
 11
1611.082439092762
 21
165.785756558078
 31
0.0
  0
ARC
  5
120
330
1B
100
AcDbEntity
  8
4
100
AcDbCircle
 10
1620.746014092762
 20
146.9003334433842
 30
0.0
 40
3.0
100
AcDbArc
 50
90.0
 51
180.0
  0
ARC
  5
121
330
1B
100
AcDbEntity
  8
4
100
AcDbCircle
 10
1556.746014092762
 20
288.4794384433844
 30
0.0
 40
5.0
100
AcDbArc
 50
180.0
 51
270.0
  0
LINE
  5
122
330
1B
100
AcDbEntity
  8
L-CENTER
 48
3.0
100
AcDbLine
 10
1336.746014092762
 20
439.5503371249388
 30
0.0
 11
1336.746014092762
 21
349.3871034433844
 31
0.0
  0
ARC
  5
123
330
1B
100
AcDbEntity
  8
4
100
AcDbCircle
 10
1336.746014092762
 20
398.3485284433843
 30
0.0
 40
30.0
100
AcDbArc
 50
299.550384
 51
225.2074449416087
  0
LINE
  5
124
330
1B
100
AcDbEntity
  8
L-CENTER
 48
3.0
100
AcDbLine
 10
1377.947822774317
 20
398.3485284433843
 30
0.0
 11
1295.544205411207
 21
398.3485284433843
 31
0.0
  0
LINE
  5
125
330
1B
100
AcDbEntity
  8
4
100
AcDbLine
 10
1330.51325617856
 20
380.2003334433841
 30
0.0
 11
1336.746014092762
 21
380.8485284433843
 31
0.0
  0
LINE
  5
126
330
1B
100
AcDbEntity
  8
4
100
AcDbLine
 10
1337.230812660389
 20
379.3485284433843
 30
0.0
 11
1351.169599092762
 21
379.3485284433843
 31
0.0
  0
CIRCLE
  5
127
330
1B
100
AcDbEntity
  8
4
100
AcDbCircle
 10
1336.746014092762
 20
398.3485284433843
 30
0.0
 40
17.5
  0
LINE
  5
128
330
1B
100
AcDbEntity
  8
4
100
AcDbLine
 10
1351.701378349209
 20
369.2003334433841
 30
0.0
 11
1351.169599092762
 21
379.3485284433843
 31
0.0
  0
LINE
  5
129
330
1B
100
AcDbEntity
  8
4
100
AcDbLine
 10
1336.746014092762
 20
380.8485284433843
 30
0.0
 11
1351.169599092762
 21
379.3485284433843
 31
0.0
  0
LINE
  5
12A
330
1B
100
AcDbEntity
  8
4
100
AcDbLine
 10
1457.746014092762
 20
369.2003334433841
 30
0.0
 11
1457.746014092762
 21
386.1003334433841
 31
0.0
  0
LINE
  5
12B
330
1B
100
AcDbEntity
  8
4
100
AcDbLine
 10
1514.746014092762
 20
524.9003334433844
 30
0.0
 11
1590.746014092762
 21
524.9003334433844
 31
0.0
  0
LINE
  5
12C
330
1B
100
AcDbEntity
  8
4
100
AcDbLine
 10
1589.746014092762
 20
525.9003334433844
 30
0.0
 11
1508.746014092762
 21
525.9003334433844
 31
0.0
  0
LINE
  5
12D
330
1B
100
AcDbEntity
  8
4
100
AcDbLine
 10
1592.746014092762
 20
400.9003334433844
 30
0.0
 11
1512.746014092762
 21
400.9003334433844
 31
0.0
  0
LINE
  5
12E
330
1B
100
AcDbEntity
  8
4
100
AcDbLine
 10
1501.59902789187
 20
388.1003334433844
 30
0.0
 11
1573.893000293654
 21
388.1003334433843
 31
0.0
  0
LINE
  5
12F
330
1B
100
AcDbEntity
  8
4
100
AcDbLine
 10
1508.746014092762
 20
525.9003334433844
 30
0.0
 11
1508.746014092762
 21
415.9003334433844
 31
0.0
  0
LINE
  5
130
330
1B
100
AcDbEntity
  8
4
100
AcDbLine
 10
1514.746014092762
 20
400.9003334433844
 30
0.0
 11
1514.746014092762
 21
524.9003334433844
 31
0.0
  0
LINE
  5
131
330
1B
100
AcDbEntity
  8
4
100
AcDbLine
 10
1514.746014092762
 20
415.9003334433844
 30
0.0
 11
1508.746014092762
 21
415.9003334433844
 31
0.0
  0
LINE
  5
132
330
1B
100
AcDbEntity
  8
4
100
AcDbLine
 10
1512.746014092762
 20
388.1003334433844
 30
0.0
 11
1512.746014092762
 21
400.9003334433844
 31
0.0
  0
LINE
  5
133
330
1B
100
AcDbEntity
  8
4
100
AcDbLine
 10
1515.746014092762
 20
525.9003334433844
 30
0.0
 11
1514.746014092762
 21
524.9003334433844
 31
0.0
  0
LINE
  5
134
330
1B
100
AcDbEntity
  8
4
100
AcDbLine
 10
1590.746014092762
 20
400.9003334433844
 30
0.0
 11
1590.746014092762
 21
524.9003334433844
 31
0.0
  0
LINE
  5
135
330
1B
100
AcDbEntity
  8
4
100
AcDbLine
 10
1601.267368964428
 20
388.1003334433843
 30
0.0
 11
1593.522909446102
 21
388.1003334433842
 31
0.0
  0
LINE
  5
136
330
1B
100
AcDbEntity
  8
4
100
AcDbLine
 10
1592.746014092762
 20
396.208464042227
 30
0.0
 11
1592.746014092762
 21
400.9003334433844
 31
0.0
  0
LINE
  5
137
330
1B
100
AcDbEntity
  8
4
100
AcDbLine
 10
1617.746014092762
 20
386.1003334433841
 30
0.0
 11
1617.746014092762
 21
369.2003334433841
 31
0.0
  0
LINE
  5
138
330
1B
100
AcDbEntity
  8
4
100
AcDbLine
 10
1589.746014092762
 20
525.9003334433844
 30
0.0
 11
1590.746014092762
 21
524.9003334433844
 31
0.0
  0
LINE
  5
139
330
1B
100
AcDbEntity
  8
4
100
AcDbLine
 10
1854.746014092762
 20
317.9003334433844
 30
0.0
 11
1854.746014092762
 21
281.9003334433842
 31
0.0
  0
LINE
  5
13A
330
1B
100
AcDbEntity
  8
4
100
AcDbLine
 10
1845.746014092762
 20
292.9003334433844
 30
0.0
 11
1845.746014092762
 21
316.9003334433842
 31
0.0
  0
LINE
  5
13B
330
1B
100
AcDbEntity
  8
4
100
AcDbLine
 10
1845.746014092762
 20
292.9003334433844
 30
0.0
 11
1845.746014092762
 21
320.9003334433844
 31
0.0
  0
LINE
  5
13C
330
1B
100
AcDbEntity
  8
4
100
AcDbLine
 10
1849.746014092762
 20
317.9003334433844
 30
0.0
 11
1849.746014092762
 21
281.9003334433842
 31
0.0
  0
LINE
  5
13D
330
1B
100
AcDbEntity
  8
4
100
AcDbLine
 10
1847.746014092762
 20
317.9003334433844
 30
0.0
 11
1847.746014092762
 21
281.9003334433842
 31
0.0
  0
LINE
  5
13E
330
1B
100
AcDbEntity
  8
L-CENTER
 48
3.0
100
AcDbLine
 10
1712.746014092762
 20
299.8515675491258
 30
0.0
 11
1712.746014092762
 21
141.9490993376426
 31
0.0
  0
LINE
  5
13F
330
1B
100
AcDbEntity
  8
4
100
AcDbLine
 10
1841.746014092762
 20
183.5978434433844
 30
0.0
 11
1841.746014092762
 21
341.9003334433842
 31
0.0
  0
LINE
  5
140
330
1B
100
AcDbEntity
  8
4
100
AcDbLine
 10
1708.746014092762
 20
125.9003334433844
 30
0.0
 11
1862.746014092762
 21
125.9003334433844
 31
0.0
  0
LINE
  5
141
330
1B
100
AcDbEntity
  8
4
100
AcDbLine
 10
1862.746014092762
 20
90.9003334433844
 30
0.0
 11
1705.746014092762
 21
90.9003334433844
 31
0.0
  0
CIRCLE
  5
142
330
1B
100
AcDbEntity
  8
4
100
AcDbCircle
 10
1712.746014092762
 20
220.9003334433842
 30
0.0
 40
31.0
  0
ARC
  5
143
330
1B
100
AcDbEntity
  8
4
100
AcDbCircle
 10
1712.746014092762
 20
220.9003334433842
 30
0.0
 40
17.99989
100
AcDbArc
 50
106.1277199999998
 51
73.87228000000026
  0
CIRCLE
  5
144
330
1B
100
AcDbEntity
  8
L-CENTER
 48
3.0
100
AcDbCircle
 10
1712.746014092762
 20
220.9003334433842
 30
0.0
 40
60.0
  0
ARC
  5
145
330
1B
100
AcDbEntity
  8
4
100
AcDbCircle
 10
1712.746014092762
 20
-61.5996665566156
 30
0.0
 40
350.0000449999999
100
AcDbArc
 50
80.380776
 51
90.0
  0
ARC
  5
146
330
1B
100
AcDbEntity
  8
4
100
AcDbCircle
 10
1712.746014092762
 20
-66.5996665566156
 30
0.0
 40
349.99994
100
AcDbArc
 50
81.10419599999996
 51
90.0
  0
ARC
  5
147
330
1B
100
AcDbEntity
  8
4
100
AcDbCircle
 10
1712.746014092762
 20
508.4003334433844
 30
0.0
 40
350.0000449999999
100
AcDbArc
 50
270.00044
 51
278.8962839999999
  0
ARC
  5
148
330
1B
100
AcDbEntity
  8
4
100
AcDbCircle
 10
1712.746014092762
 20
503.4003334433844
 30
0.0
 40
349.99999
100
AcDbArc
 50
270.0004399999999
 51
279.619592
  0
ARC
  5
149
330
1B
100
AcDbEntity
  8
4
100
AcDbCircle
 10
2000.246014092762
 20
220.9003334433842
 30
0.0
 40
349.999995
100
AcDbArc
 50
180.0002000000074
 51
188.895922
  0
ARC
  5
14A
330
1B
100
AcDbEntity
  8
4
100
AcDbCircle
 10
1712.746014092762
 20
503.4003334433844
 30
0.0
 40
349.999945
100
AcDbArc
 50
260.380973
 51
270.0004399999999
  0
ARC
  5
14B
330
1B
100
AcDbEntity
  8
4
100
AcDbCircle
 10
1712.746014092762
 20
508.4003334433844
 30
0.0
 40
349.999965
100
AcDbArc
 50
261.1043999999999
 51
270.0004399999999
  0
LINE
  5
14C
330
1B
100
AcDbEntity
  8
L-CENTER
 48
3.0
100
AcDbLine
 10
1656.177594098015
 20
164.3316684486369
 30
0.0
 11
1684.461865345477
 21
192.6159396960995
 31
0.0
  0
LINE
  5
14D
330
1B
100
AcDbEntity
  8
4
100
AcDbLine
 10
1646.746014092762
 20
146.9003334433842
 30
0.0
 11
1646.746014092762
 21
134.0003334433842
 31
0.0
  0
ARC
  5
14E
330
1B
100
AcDbEntity
  8
4
100
AcDbCircle
 10
1659.395919092762
 20
167.5502384433844
 30
0.0
 40
5.000084999999999
100
AcDbArc
 50
188.895697
 51
261.1043160000065
  0
ARC
  5
14F
330
1B
100
AcDbEntity
  8
4
100
AcDbCircle
 10
1649.746014092762
 20
146.9003334433842
 30
0.0
 40
3.0
100
AcDbArc
 50
90.0
 51
180.0
  0
ARC
  5
150
330
1B
100
AcDbEntity
  8
4
100
AcDbCircle
 10
1695.746014092762
 20
139.9003334433842
 30
0.0
 40
10.0
100
AcDbArc
 50
0.0
 51
90.0
  0
ARC
  5
151
330
1B
100
AcDbEntity
  8
4
100
AcDbCircle
 10
1708.746014092762
 20
122.9003334433844
 30
0.0
 40
3.0
100
AcDbArc
 50
90.0
 51
180.0
  0
LINE
  5
152
330
1B
100
AcDbEntity
  8
4
100
AcDbLine
 10
1705.746014092762
 20
139.9003334433842
 30
0.0
 11
1705.746014092762
 21
90.9003334433844
 31
0.0
  0
ARC
  5
153
330
1B
100
AcDbEntity
  8
4
100
AcDbCircle
 10
1712.746014092762
 20
-61.5996665566156
 30
0.0
 40
350.00001
100
AcDbArc
 50
90.0
 51
99.619389
  0
ARC
  5
154
330
1B
100
AcDbEntity
  8
4
100
AcDbCircle
 10
1712.746014092762
 20
-66.5996665566156
 30
0.0
 40
350.00005
100
AcDbArc
 50
90.0
 51
98.89604100000003
  0
LINE
  5
155
330
1B
100
AcDbEntity
  8
L-CENTER
 48
3.0
100
AcDbLine
 10
1656.177606316116
 20
277.4690106561268
 30
0.0
 11
1684.461733540628
 21
249.1845953864467
 31
0.0
  0
ARC
  5
156
330
1B
100
AcDbEntity
  8
4
100
AcDbCircle
 10
2000.246014092762
 20
220.9003334433842
 30
0.0
 40
350.00001
100
AcDbArc
 50
171.104564
 51
180.0002400015275
  0
ARC
  5
157
330
1B
100
AcDbEntity
  8
4
100
AcDbCircle
 10
1659.395919092762
 20
274.2504334433843
 30
0.0
 40
5.000084999999999
100
AcDbArc
 50
98.89568399999341
 51
171.1043030000001
  0
LINE
  5
158
330
1B
100
AcDbEntity
  8
4
100
AcDbLine
 10
1717.746014092762
 20
234.4003334433842
 30
0.0
 11
1717.746014092762
 21
242.4003334433842
 31
0.0
  0
LINE
  5
159
330
1B
100
AcDbEntity
  8
4
100
AcDbLine
 10
1707.746014092762
 20
234.4003334433842
 30
0.0
 11
1707.746014092762
 21
242.4003334433842
 31
0.0
  0
LINE
  5
15A
330
1B
100
AcDbEntity
  8
4
100
AcDbLine
 10
1707.746014092762
 20
234.4003334433842
 30
0.0
 11
1717.746014092762
 21
234.4003334433842
 31
0.0
  0
LINE
  5
15B
330
1B
100
AcDbEntity
  8
4
100
AcDbLine
 10
1717.746014092762
 20
242.4003334433842
 30
0.0
 11
1707.746014092762
 21
242.4003334433842
 31
0.0
  0
ARC
  5
15C
330
1B
100
AcDbEntity
  8
4
100
AcDbCircle
 10
1430.246014092762
 20
220.9003334433842
 30
0.0
 40
350.0
100
AcDbArc
 50
350.3813410000001
 51
0.0
  0
ARC
  5
15D
330
1B
100
AcDbEntity
  8
4
100
AcDbCircle
 10
1425.246014092762
 20
220.9003334433842
 30
0.0
 40
350.000035
100
AcDbArc
 50
351.1047679999999
 51
0.0
  0
LINE
  5
15E
330
1B
100
AcDbEntity
  8
L-CENTER
 48
3.0
100
AcDbLine
 10
1769.314572275548
 20
164.3318066367356
 30
0.0
 11
1741.030161340783
 21
192.615938196206
 31
0.0
  0
ARC
  5
15F
330
1B
100
AcDbEntity
  8
4
100
AcDbCircle
 10
1786.680344092762
 20
114.1769484433844
 30
0.0
 40
5.19632
100
AcDbArc
 50
114.6324440000033
 51
205.9835820000004
  0
ARC
  5
160
330
1B
100
AcDbEntity
  8
4
100
AcDbCircle
 10
1786.680344092762
 20
114.1769484433844
 30
0.0
 40
5.19632
100
AcDbArc
 50
114.6324440000033
 51
205.9835820000004
  0
ARC
  5
161
330
1B
100
AcDbEntity
  8
4
100
AcDbCircle
 10
1777.338299092762
 20
109.6237234433843
 30
0.0
 40
5.19632
100
AcDbArc
 50
294.6324289999964
 51
25.98357700000044
  0
ARC
  5
162
330
1B
100
AcDbEntity
  8
4
100
AcDbCircle
 10
1777.338299092762
 20
109.6237234433843
 30
0.0
 40
5.19632
100
AcDbArc
 50
294.6324289999964
 51
25.98357700000044
  0
ARC
  5
163
330
1B
100
AcDbEntity
  8
4
100
AcDbCircle
 10
1781.669599092762
 20
100.1769484433844
 30
0.0
 40
5.19632
100
AcDbArc
 50
114.6324439999978
 51
205.9835820000004
  0
ARC
  5
164
330
1B
100
AcDbEntity
  8
4
100
AcDbCircle
 10
1781.669599092762
 20
100.1769484433844
 30
0.0
 40
5.19632
100
AcDbArc
 50
114.6324439999978
 51
205.9835820000004
  0
ARC
  5
165
330
1B
100
AcDbEntity
  8
4
100
AcDbCircle
 10
1772.327559092762
 20
95.62372344338428
 30
0.0
 40
5.19632
100
AcDbArc
 50
294.632429000002
 51
25.98357700000044
  0
ARC
  5
166
330
1B
100
AcDbEntity
  8
4
100
AcDbCircle
 10
1772.327559092762
 20
95.62372344338428
 30
0.0
 40
5.19632
100
AcDbArc
 50
294.632429000002
 51
25.98357700000044
  0
ARC
  5
167
330
1B
100
AcDbEntity
  8
4
100
AcDbCircle
 10
1782.348799092762
 20
123.6237234433843
 30
0.0
 40
5.19632
100
AcDbArc
 50
294.632429000002
 51
25.98357700000044
  0
ARC
  5
168
330
1B
100
AcDbEntity
  8
4
100
AcDbCircle
 10
1782.348799092762
 20
123.6237234433843
 30
0.0
 40
5.19632
100
AcDbArc
 50
294.632429000002
 51
25.98357700000044
  0
ARC
  5
169
330
1B
100
AcDbEntity
  8
4
100
AcDbCircle
 10
1766.096114092762
 20
167.5502384433844
 30
0.0
 40
5.000084999999999
100
AcDbArc
 50
278.8956949999979
 51
351.1043049999994
  0
ARC
  5
16A
330
1B
100
AcDbEntity
  8
4
100
AcDbCircle
 10
1770.395429092762
 20
163.2509184433843
 30
0.0
 40
4.999979999999999
100
AcDbArc
 50
279.6186979999997
 51
350.3813020000003
  0
LINE
  5
16B
330
1B
100
AcDbEntity
  8
L-CENTER
 48
3.0
100
AcDbLine
 10
1769.314556587686
 20
277.4688759383082
 30
0.0
 11
1741.030285340224
 21
249.1846046908456
 31
0.0
  0
ARC
  5
16C
330
1B
100
AcDbEntity
  8
4
100
AcDbCircle
 10
1430.246014092762
 20
220.9003334433842
 30
0.0
 40
350.0000449999999
100
AcDbArc
 50
0.0
 51
9.61922400000002
  0
ARC
  5
16D
330
1B
100
AcDbEntity
  8
4
100
AcDbCircle
 10
1425.246014092762
 20
220.9003334433842
 30
0.0
 40
349.9999350000001
100
AcDbArc
 50
0.0
 51
8.895804000000016
  0
ARC
  5
16E
330
1B
100
AcDbEntity
  8
4
100
AcDbCircle
 10
1766.096114092762
 20
274.2504334433843
 30
0.0
 40
5.000084999999999
100
AcDbArc
 50
8.89569500000057
 51
81.10430500000214
  0
ARC
  5
16F
330
1B
100
AcDbEntity
  8
4
100
AcDbCircle
 10
1770.395429092762
 20
278.5497484433843
 30
0.0
 40
4.999979999999999
100
AcDbArc
 50
9.618697999999712
 51
80.38130200000033
  0
LINE
  5
170
330
1B
100
AcDbEntity
  8
L-CENTER
 48
3.0
100
AcDbLine
 10
1827.746014092762
 20
145.9003334433844
 30
0.0
 11
1827.746014092762
 21
70.9003334433844
 31
0.0
  0
LINE
  5
171
330
1B
100
AcDbEntity
  8
4
100
AcDbLine
 10
1845.746014092762
 20
172.6078534433843
 30
0.0
 11
1845.746014092762
 21
220.9003334433842
 31
0.0
  0
LINE
  5
172
330
1B
100
AcDbEntity
  8
4
100
AcDbLine
 10
1862.746014092762
 20
125.9003334433844
 30
0.0
 11
1828.169109092762
 21
220.9003334433842
 31
0.0
  0
LINE
  5
173
330
1B
100
AcDbEntity
  8
L-CENTER
 48
3.0
100
AcDbLine
 10
1843.247969092762
 20
179.0629334433843
 30
0.0
 11
1853.962814092762
 21
179.4371984433842
 31
0.0
  0
LINE
  5
174
330
1B
100
AcDbEntity
  8
L-CENTER
 48
3.0
100
AcDbLine
 10
1843.247969092762
 20
164.7374934433842
 30
0.0
 11
1853.962814092762
 21
164.3632234433844
 31
0.0
  0
LINE
  5
175
330
1B
100
AcDbEntity
  8
L-CENTER
 48
3.0
100
AcDbLine
 10
1832.969894092762
 20
171.9003334433842
 30
0.0
 11
1857.440064201531
 21
171.9003334433842
 31
0.0
  0
LINE
  5
176
330
1B
100
AcDbEntity
  8
4
100
AcDbLine
 10
1851.395919092762
 20
180.4291434433844
 30
0.0
 11
1845.746014092762
 21
180.2318784433842
 31
0.0
  0
LINE
  5
177
330
1B
100
AcDbEntity
  8
4
100
AcDbLine
 10
1816.746014092762
 20
90.9003334433844
 30
0.0
 11
1816.746014092762
 21
125.9003334433844
 31
0.0
  0
LINE
  5
178
330
1B
100
AcDbEntity
  8
4
100
AcDbLine
 10
1838.746014092762
 20
90.9003334433844
 30
0.0
 11
1838.746014092762
 21
125.9003334433844
 31
0.0
  0
LINE
  5
179
330
1B
100
AcDbEntity
  8
4
100
AcDbLine
 10
1862.746014092762
 20
125.9003334433844
 30
0.0
 11
1862.746014092762
 21
90.9003334433844
 31
0.0
  0
LINE
  5
17A
330
1B
100
AcDbEntity
  8
4
100
AcDbLine
 10
1851.395919092762
 20
163.3712834433843
 30
0.0
 11
1851.395919092762
 21
171.9003334433842
 31
0.0
  0
LINE
  5
17B
330
1B
100
AcDbEntity
  8
4
100
AcDbLine
 10
1851.395919092762
 20
180.4291434433844
 30
0.0
 11
1851.395919092762
 21
171.9000884433844
 31
0.0
  0
LINE
  5
17C
330
1B
100
AcDbEntity
  8
4
100
AcDbLine
 10
1849.078289092762
 20
163.4520934433845
 30
0.0
 11
1851.395919092762
 21
163.3712834433843
 31
0.0
  0
LINE
  5
17D
330
1B
100
AcDbEntity
  8
L-CENTER
 48
3.0
100
AcDbLine
 10
1826.709149092762
 20
299.9003334433844
 30
0.0
 11
1864.050949092762
 21
299.9003334433844
 31
0.0
  0
LINE
  5
17E
330
1B
100
AcDbEntity
  8
4
100
AcDbLine
 10
1847.746014092762
 20
292.9003334433844
 30
0.0
 11
1845.746014092762
 21
292.9003334433844
 31
0.0
  0
LINE
  5
17F
330
1B
100
AcDbEntity
  8
4
100
AcDbLine
 10
1847.746014092762
 20
220.9003334433842
 30
0.0
 11
1845.746014092762
 21
220.9003334433842
 31
0.0
  0
LINE
  5
180
330
1B
100
AcDbEntity
  8
4
100
AcDbLine
 10
1847.746014092762
 20
292.9003334433844
 30
0.0
 11
1847.746014092762
 21
220.9003334433842
 31
0.0
  0
LINE
  5
181
330
1B
100
AcDbEntity
  8
4
100
AcDbLine
 10
1849.746014092762
 20
308.9003334433844
 30
0.0
 11
1854.746014092762
 21
308.9003334433844
 31
0.0
  0
LINE
  5
182
330
1B
100
AcDbEntity
  8
4
100
AcDbLine
 10
1847.746014092762
 20
281.9003334433842
 30
0.0
 11
1854.746014092762
 21
281.9003334433842
 31
0.0
  0
LINE
  5
183
330
1B
100
AcDbEntity
  8
4
100
AcDbLine
 10
1849.746014092762
 20
290.9003334433844
 30
0.0
 11
1854.746014092762
 21
290.9003334433844
 31
0.0
  0
LINE
  5
184
330
1B
100
AcDbEntity
  8
4
100
AcDbLine
 10
1712.746014092762
 20
376.2003334433841
 30
0.0
 11
1662.746014092762
 21
376.2003334433841
 31
0.0
  0
LINE
  5
185
330
1B
100
AcDbEntity
  8
4
100
AcDbLine
 10
1647.746059612311
 20
369.2003334433841
 30
0.0
 11
1647.746016874506
 21
386.1003359722486
 31
0.0
  0
LINE
  5
186
330
1B
100
AcDbEntity
  8
4
100
AcDbLine
 10
1662.746014092762
 20
376.2003334433841
 30
0.0
 11
1662.746014092762
 21
369.2003334433841
 31
0.0
  0
LINE
  5
187
330
1B
100
AcDbEntity
  8
4
100
AcDbLine
 10
1712.746014092762
 20
376.2003334433841
 30
0.0
 11
1712.746014092762
 21
369.2003334433841
 31
0.0
  0
LINE
  5
188
330
1B
100
AcDbEntity
  8
L-CENTER
 48
3.0
100
AcDbLine
 10
1766.746014092762
 20
439.5503371249388
 30
0.0
 11
1766.746014092762
 21
349.3871034433844
 31
0.0
  0
ARC
  5
189
330
1B
100
AcDbEntity
  8
4
100
AcDbCircle
 10
1766.746014092762
 20
398.3485284433843
 30
0.0
 40
30.00005
100
AcDbArc
 50
314.7924602546627
 51
240.4502499999998
  0
LINE
  5
18A
330
1B
100
AcDbEntity
  8
4
100
AcDbLine
 10
1752.322674092762
 20
379.3485284433843
 30
0.0
 11
1766.261215525214
 21
379.3485284433843
 31
0.0
  0
LINE
  5
18B
330
1B
100
AcDbEntity
  8
4
100
AcDbLine
 10
1752.322674092762
 20
379.3485284433843
 30
0.0
 11
1766.746014092762
 21
380.8485284433843
 31
0.0
  0
CIRCLE
  5
18C
330
1B
100
AcDbEntity
  8
4
100
AcDbCircle
 10
1766.746014092762
 20
398.3485284433843
 30
0.0
 40
17.5
  0
LINE
  5
18D
330
1B
100
AcDbEntity
  8
L-CENTER
 48
3.0
100
AcDbLine
 10
1807.947822774317
 20
398.3485284433843
 30
0.0
 11
1725.544205411207
 21
398.3485284433843
 31
0.0
  0
LINE
  5
18E
330
1B
100
AcDbEntity
  8
4
100
AcDbLine
 10
1751.790668808335
 20
369.2003334433841
 30
0.0
 11
1752.322674092762
 21
379.3485284433843
 31
0.0
  0
LINE
  5
18F
330
1B
100
AcDbEntity
  8
4
100
AcDbLine
 10
1781.544280289715
 20
372.2003334433196
 30
0.0
 11
1781.169599092762
 21
379.3485284433843
 31
0.0
  0
LINE
  5
190
330
1B
100
AcDbEntity
  8
4
100
AcDbLine
 10
1766.746014092762
 20
380.8485284433843
 30
0.0
 11
1772.978877879414
 21
380.2003334433217
 31
0.0
  0
LINE
  5
191
330
1B
100
AcDbEntity
  8
4
100
AcDbLine
 10
1847.746014092762
 20
316.9003334433842
 30
0.0
 11
1845.746014092762
 21
316.9003334433842
 31
0.0
  0
LINE
  5
192
330
1B
100
AcDbEntity
  8
4
100
AcDbLine
 10
1826.746014092762
 20
367.2003334433841
 30
0.0
 11
1826.746014092762
 21
343.9003334433842
 31
0.0
  0
LINE
  5
193
330
1B
100
AcDbEntity
  8
4
100
AcDbLine
 10
1845.746014092762
 20
320.9003334433844
 30
0.0
 11
1841.746014092762
 21
320.9003334433844
 31
0.0
  0
LINE
  5
194
330
1B
100
AcDbEntity
  8
4
100
AcDbLine
 10
1847.746014092762
 20
317.9003334433844
 30
0.0
 11
1854.746014092762
 21
317.9003334433844
 31
0.0
  0
LINE
  5
20E
330
1B
100
AcDbEntity
  8
4
100
AcDbLine
 10
880.7907419865824
 20
1337.630167328838
 30
0.0
 11
880.7907419865824
 21
1410.130167328838
 31
0.0
  0
LINE
  5
20F
330
1B
100
AcDbEntity
  8
L-CENTER
 48
3.0
100
AcDbLine
 10
835.7907419865824
 20
1359.130167328838
 30
0.0
 11
835.7907419865824
 21
1411.130167328838
 31
0.0
  0
LINE
  5
210
330
1B
100
AcDbEntity
  8
4
100
AcDbLine
 10
855.7907419865833
 20
1337.630167328838
 30
0.0
 11
718.4296952657369
 21
1383.93559728855
 31
0.0
  0
LINE
  5
211
330
1B
100
AcDbEntity
  8
L-CENTER
 48
3.0
100
AcDbLine
 10
625.7907419865824
 20
806.4913034400624
 30
0.0
 11
625.7907419865824
 21
1419.130167328838
 31
0.0
  0
LINE
  5
212
330
1B
100
AcDbEntity
  8
4
100
AcDbLine
 10
370.7907419865824
 20
1337.630167328838
 30
0.0
 11
370.7907419865824
 21
1410.130167328838
 31
0.0
  0
LINE
  5
213
330
1B
100
AcDbEntity
  8
L-CENTER
 48
3.0
100
AcDbLine
 10
415.7907419865824
 20
1359.130167328838
 30
0.0
 11
415.7907419865824
 21
1411.130167328838
 31
0.0
  0
LINE
  5
214
330
1B
100
AcDbEntity
  8
4
100
AcDbLine
 10
395.7907419865815
 20
1337.630167328838
 30
0.0
 11
533.1517887074278
 21
1383.93559728855
 31
0.0
  0
CIRCLE
  5
215
330
1B
100
AcDbEntity
  8
4
100
AcDbCircle
 10
625.7907419865824
 20
1109.130167328838
 30
0.0
 40
289.9999999999999
  0
LINE
  5
216
330
1B
100
AcDbEntity
  8
L-CENTER
 48
3.0
100
AcDbLine
 10
323.151878097807
 20
1109.130167328838
 30
0.0
 11
928.4296058753578
 21
1109.130167328838
 31
0.0
  0
LINE
  5
217
330
1B
100
AcDbEntity
  8
L-CENTER
 48
3.0
100
AcDbLine
 10
312.6408359080465
 20
1270.130167328838
 30
0.0
 11
1030.389753491706
 21
1270.130167328838
 31
0.0
  0
LINE
  5
218
330
1B
100
AcDbEntity
  8
4
100
AcDbLine
 10
510.7907419865824
 20
825.1301673288383
 30
0.0
 11
510.7907419865824
 21
842.9065770893553
 31
0.0
  0
LINE
  5
219
330
1B
100
AcDbEntity
  8
4
100
AcDbLine
 10
370.7907419865824
 20
825.1301673288383
 30
0.0
 11
370.7907419865824
 21
945.1301673288374
 31
0.0
  0
LINE
  5
21A
330
1B
100
AcDbEntity
  8
L-CENTER
 48
3.0
100
AcDbLine
 10
415.7907419865824
 20
824.1301673288381
 30
0.0
 11
415.7907419865824
 21
876.1301673288381
 31
0.0
  0
LINE
  5
21B
330
1B
100
AcDbEntity
  8
4
100
AcDbLine
 10
490.7907419865824
 20
825.1301673288383
 30
0.0
 11
490.7907419865824
 21
852.4689119746263
 31
0.0
  0
LINE
  5
21C
330
1B
100
AcDbEntity
  8
4
100
AcDbLine
 10
380.7907419865824
 20
815.1301673288385
 30
0.0
 11
500.7907419865824
 21
815.1301673288385
 31
0.0
  0
ARC
  5
21D
330
1B
100
AcDbEntity
  8
4
100
AcDbCircle
 10
380.7907419865824
 20
825.1301673288383
 30
0.0
 40
10.0
100
AcDbArc
 50
180.0
 51
270.0
  0
ARC
  5
21E
330
1B
100
AcDbEntity
  8
4
100
AcDbCircle
 10
500.7907419865824
 20
825.1301673288383
 30
0.0
 40
10.0
100
AcDbArc
 50
270.0
 51
0.0
  0
ARC
  5
21F
330
1B
100
AcDbEntity
  8
4
100
AcDbCircle
 10
480.7907419865824
 20
825.1301673288383
 30
0.0
 40
10.0
100
AcDbArc
 50
270.0
 51
0.0
  0
LINE
  5
220
330
1B
100
AcDbEntity
  8
L-CENTER
 48
3.0
100
AcDbLine
 10
441.7907419865824
 20
850.1301673288381
 30
0.0
 11
389.7907419865824
 21
850.1301673288381
 31
0.0
  0
ARC
  5
221
330
1B
100
AcDbEntity
  8
4
100
AcDbCircle
 10
380.7907419865824
 20
945.1301673288374
 30
0.0
 40
10.0
100
AcDbArc
 50
94.10300112956489
 51
180.0
  0
CIRCLE
  5
222
330
1B
100
AcDbEntity
  8
4
100
AcDbCircle
 10
415.7907419865824
 20
850.1301673288381
 30
0.0
 40
11.0
  0
LINE
  5
223
330
1B
100
AcDbEntity
  8
4
100
AcDbLine
 10
335.7907419865824
 20
1109.130167328838
 30
0.0
 11
335.7907419865828
 21
1335.630167328838
 31
0.0
  0
LINE
  5
224
330
1B
100
AcDbEntity
  8
4
100
AcDbLine
 10
330.7907419865828
 20
1207.630167328838
 30
0.0
 11
330.7907419865828
 21
1332.630167328838
 31
0.0
  0
LINE
  5
225
330
1B
100
AcDbEntity
  8
4
100
AcDbLine
 10
335.7907419865824
 20
1207.630167328838
 30
0.0
 11
330.7907419865828
 21
1207.630167328838
 31
0.0
  0
LINE
  5
226
330
1B
100
AcDbEntity
  8
4
100
AcDbLine
 10
335.7907419865828
 20
1332.630167328838
 30
0.0
 11
330.7907419865828
 21
1332.630167328838
 31
0.0
  0
ARC
  5
227
330
1B
100
AcDbEntity
  8
4
100
AcDbCircle
 10
337.7907419865828
 20
1335.630167328838
 30
0.0
 40
2.0
100
AcDbArc
 50
90.0
 51
180.0
  0
LINE
  5
228
330
1B
100
AcDbEntity
  8
4
100
AcDbLine
 10
395.790741986581
 20
1337.630167328838
 30
0.0
 11
337.7907419865828
 21
1337.630167328838
 31
0.0
  0
LINE
  5
229
330
1B
100
AcDbEntity
  8
L-CENTER
 48
3.0
100
AcDbLine
 10
735.7907419865824
 20
1003.481783114324
 30
0.0
 11
735.7907419865824
 21
1186.778551543351
 31
0.0
  0
LINE
  5
22A
330
1B
100
AcDbEntity
  8
L-CENTER
 48
3.0
100
AcDbLine
 10
544.3775762951909
 20
1215.133836695766
 30
0.0
 11
544.3775762951909
 21
1005.12649796191
 31
0.0
  0
LINE
  5
22B
330
1B
100
AcDbEntity
  8
4
100
AcDbLine
 10
750.7907419865824
 20
815.1301673288385
 30
0.0
 11
870.7907419865824
 21
815.1301673288378
 31
0.0
  0
LINE
  5
22C
330
1B
100
AcDbEntity
  8
4
100
AcDbLine
 10
740.7907419865824
 20
825.1301673288383
 30
0.0
 11
740.7907419865824
 21
842.9065770893553
 31
0.0
  0
LINE
  5
22D
330
1B
100
AcDbEntity
  8
4
100
AcDbLine
 10
760.7907419865824
 20
825.1301673288383
 30
0.0
 11
760.7907419865824
 21
846.4992475954602
 31
0.0
  0
ARC
  5
22E
330
1B
100
AcDbEntity
  8
4
100
AcDbCircle
 10
750.7907419865824
 20
825.1301673288383
 30
0.0
 40
10.0
100
AcDbArc
 50
180.0
 51
270.0
  0
ARC
  5
22F
330
1B
100
AcDbEntity
  8
4
100
AcDbCircle
 10
770.7907419865824
 20
825.1301673288383
 30
0.0
 40
10.0
100
AcDbArc
 50
180.0
 51
270.0
  0
ARC
  5
230
330
1B
100
AcDbEntity
  8
4
100
AcDbCircle
 10
770.7907419865824
 20
846.4992475954602
 30
0.0
 40
10.0
100
AcDbArc
 50
118.9033345398453
 51
180.0
  0
LINE
  5
231
330
1B
100
AcDbEntity
  8
4
100
AcDbLine
 10
880.7907419865824
 20
825.1301673288378
 30
0.0
 11
880.7907419865824
 21
945.1301673288378
 31
0.0
  0
LINE
  5
232
330
1B
100
AcDbEntity
  8
L-CENTER
 48
3.0
100
AcDbLine
 10
835.7907419865824
 20
824.1301673288381
 30
0.0
 11
835.7907419865824
 21
876.1301673288381
 31
0.0
  0
ARC
  5
233
330
1B
100
AcDbEntity
  8
4
100
AcDbCircle
 10
870.7907419865824
 20
825.1301673288378
 30
0.0
 40
10.0
100
AcDbArc
 50
270.0
 51
0.0
  0
CIRCLE
  5
234
330
1B
100
AcDbEntity
  8
4
100
AcDbCircle
 10
835.7907419865824
 20
850.1301673288381
 30
0.0
 40
11.0
  0
LINE
  5
235
330
1B
100
AcDbEntity
  8
L-CENTER
 48
3.0
100
AcDbLine
 10
809.7907419865824
 20
850.1301673288381
 30
0.0
 11
861.7907419865824
 21
850.1301673288381
 31
0.0
  0
ARC
  5
236
330
1B
100
AcDbEntity
  8
4
100
AcDbCircle
 10
870.7907419865824
 20
945.1301673288378
 30
0.0
 40
10.0
100
AcDbArc
 50
0.0
 51
85.89699887043513
  0
LINE
  5
237
330
1B
100
AcDbEntity
  8
L-CENTER
 48
3.0
100
AcDbLine
 10
644.1423577720689
 20
1095.130167328838
 30
0.0
 11
827.4391262010959
 21
1095.130167328838
 31
0.0
  0
LINE
  5
238
330
1B
100
AcDbEntity
  8
4
100
AcDbLine
 10
915.7907419865824
 20
1109.130167328838
 30
0.0
 11
915.7907419865833
 21
1335.630167328838
 31
0.0
  0
LINE
  5
239
330
1B
100
AcDbEntity
  8
4
100
AcDbLine
 10
920.7907419865824
 20
1207.630167328838
 30
0.0
 11
920.7907419865833
 21
1332.630167328838
 31
0.0
  0
LINE
  5
23A
330
1B
100
AcDbEntity
  8
4
100
AcDbLine
 10
920.7907419865824
 20
1207.630167328838
 30
0.0
 11
915.7907419865824
 21
1207.630167328838
 31
0.0
  0
LINE
  5
23B
330
1B
100
AcDbEntity
  8
4
100
AcDbLine
 10
913.7907419865833
 20
1337.630167328838
 30
0.0
 11
855.7907419865842
 21
1337.630167328838
 31
0.0
  0
LINE
  5
23C
330
1B
100
AcDbEntity
  8
4
100
AcDbLine
 10
920.7907419865833
 20
1332.630167328838
 30
0.0
 11
915.7907419865833
 21
1332.630167328838
 31
0.0
  0
ARC
  5
23D
330
1B
100
AcDbEntity
  8
4
100
AcDbCircle
 10
913.7907419865833
 20
1335.630167328838
 30
0.0
 40
2.0
100
AcDbArc
 50
0.0
 51
90.0
  0
LINE
  5
23E
330
1B
100
AcDbEntity
  8
L-CENTER
 48
3.0
100
AcDbLine
 10
441.7907419865824
 20
1385.130167328838
 30
0.0
 11
389.7907419865824
 21
1385.130167328838
 31
0.0
  0
LINE
  5
23F
330
1B
100
AcDbEntity
  8
4
100
AcDbLine
 10
380.7907419865824
 20
1420.130167328838
 30
0.0
 11
500.7907419865824
 21
1420.130167328838
 31
0.0
  0
ARC
  5
240
330
1B
100
AcDbEntity
  8
4
100
AcDbCircle
 10
380.7907419865824
 20
1410.130167328839
 30
0.0
 40
10.0
100
AcDbArc
 50
90.0
 51
180.0
  0
CIRCLE
  5
241
330
1B
100
AcDbEntity
  8
4
100
AcDbCircle
 10
415.7907419865824
 20
1385.130167328838
 30
0.0
 40
11.0
  0
ARC
  5
242
330
1B
100
AcDbEntity
  8
4
100
AcDbCircle
 10
500.7907419865824
 20
1410.130167328839
 30
0.0
 40
10.0
100
AcDbArc
 50
0.0
 51
90.0
  0
ARC
  5
243
330
1B
100
AcDbEntity
  8
4
100
AcDbCircle
 10
480.7907419865824
 20
1410.130167328838
 30
0.0
 40
10.0
100
AcDbArc
 50
0.0
 51
90.0
  0
ARC
  5
244
330
1B
100
AcDbEntity
  8
4
100
AcDbCircle
 10
480.7907419865824
 20
1376.837220225528
 30
0.0
 40
10.0
100
AcDbArc
 50
288.6293439997952
 51
0.0
  0
LINE
  5
245
330
1B
100
AcDbEntity
  8
4
100
AcDbLine
 10
510.7907419865824
 20
1376.397522212126
 30
0.0
 11
510.7907419865824
 21
1410.130167328838
 31
0.0
  0
LINE
  5
246
330
1B
100
AcDbEntity
  8
4
100
AcDbLine
 10
490.7907419865824
 20
1376.837220225528
 30
0.0
 11
490.7907419865824
 21
1410.130167328838
 31
0.0
  0
LINE
  5
247
330
1B
100
AcDbEntity
  8
4
100
AcDbLine
 10
750.7907419865824
 20
1420.130167328838
 30
0.0
 11
870.7907419865824
 21
1420.130167328838
 31
0.0
  0
LINE
  5
248
330
1B
100
AcDbEntity
  8
4
100
AcDbLine
 10
645.7907419865824
 20
1398.439690158626
 30
0.0
 11
645.7907419865824
 21
1404.130167328838
 31
0.0
  0
LINE
  5
249
330
1B
100
AcDbEntity
  8
4
100
AcDbLine
 10
605.7907419865824
 20
1398.439690158626
 30
0.0
 11
605.7907419865824
 21
1404.130167328838
 31
0.0
  0
LINE
  5
24A
330
1B
100
AcDbEntity
  8
4
100
AcDbLine
 10
605.7907419865824
 20
1404.130167328838
 30
0.0
 11
645.7907419865824
 21
1404.130167328838
 31
0.0
  0
ARC
  5
24B
330
1B
100
AcDbEntity
  8
4
100
AcDbCircle
 10
750.7907419865824
 20
1410.130167328839
 30
0.0
 40
10.0
100
AcDbArc
 50
90.0
 51
180.0
  0
ARC
  5
24C
330
1B
100
AcDbEntity
  8
4
100
AcDbCircle
 10
770.7907419865824
 20
1410.130167328838
 30
0.0
 40
10.0
100
AcDbArc
 50
90.0
 51
180.0
  0
ARC
  5
24D
330
1B
100
AcDbEntity
  8
4
100
AcDbCircle
 10
770.7907419865824
 20
1376.837220225528
 30
0.0
 40
10.0
100
AcDbArc
 50
180.0
 51
251.3706560002045
  0
LINE
  5
24E
330
1B
100
AcDbEntity
  8
4
100
AcDbLine
 10
740.7907419865824
 20
1376.397522212126
 30
0.0
 11
740.7907419865824
 21
1410.130167328838
 31
0.0
  0
LINE
  5
24F
330
1B
100
AcDbEntity
  8
4
100
AcDbLine
 10
760.7907419865824
 20
1376.837220225528
 30
0.0
 11
760.7907419865824
 21
1410.130167328838
 31
0.0
  0
ARC
  5
250
330
1B
100
AcDbEntity
  8
4
100
AcDbCircle
 10
870.7907419865824
 20
1410.130167328838
 30
0.0
 40
10.0
100
AcDbArc
 50
0.0
 51
90.0
  0
LINE
  5
251
330
1B
100
AcDbEntity
  8
L-CENTER
 48
3.0
100
AcDbLine
 10
809.7907419865824
 20
1385.130167328838
 30
0.0
 11
861.7907419865824
 21
1385.130167328838
 31
0.0
  0
CIRCLE
  5
252
330
1B
100
AcDbEntity
  8
4
100
AcDbCircle
 10
835.7907419865824
 20
1385.130167328838
 30
0.0
 40
11.0
  0
ARC
  5
253
330
1B
100
AcDbEntity
  8
4
100
AcDbCircle
 10
625.7907419865828
 20
1324.130167328838
 30
0.0
 40
24.0
100
AcDbArc
 50
285.0947870995421
 51
74.90521290045791
  0
LINE
  5
254
330
1B
100
AcDbEntity
  8
L-CENTER
 48
3.0
100
AcDbLine
 10
585.7907419865824
 20
1324.130167328838
 30
0.0
 11
665.7907419865824
 21
1324.130167328838
 31
0.0
  0
ARC
  5
255
330
1B
100
AcDbEntity
  8
4
100
AcDbCircle
 10
625.7907419865824
 20
894.1301673288383
 30
0.0
 40
24.0
100
AcDbArc
 50
105.0947870995432
 51
254.9052129004568
  0
LINE
  5
256
330
1B
100
AcDbEntity
  8
L-CENTER
 48
3.0
100
AcDbLine
 10
585.7907419865824
 20
894.1301673288378
 30
0.0
 11
665.7907419865824
 21
894.1301673288378
 31
0.0
  0
LINE
  5
257
330
1B
100
AcDbEntity
  8
L-CENTER
 48
3.0
100
AcDbLine
 10
439.3739069282628
 20
1110.130167328838
 30
0.0
 11
649.381245662119
 21
1110.130167328838
 31
0.0
  0
CIRCLE
  5
258
330
1B
100
AcDbEntity
  8
4
100
AcDbCircle
 10
625.7907419865828
 20
1245.130167328838
 30
0.0
 40
25.0
  0
ARC
  5
259
330
1B
100
AcDbEntity
  8
4
100
AcDbCircle
 10
625.7907419865828
 20
1627.130167328838
 30
0.0
 40
650.0
100
AcDbArc
 50
249.5106799506331
 51
267.8066169873769
  0
ARC
  5
25A
330
1B
100
AcDbEntity
  8
4
100
AcDbCircle
 10
625.7907419865828
 20
1627.130167328838
 30
0.0
 40
650.0
100
AcDbArc
 50
272.1933830126231
 51
290.4893200493669
  0
CIRCLE
  5
25B
330
1B
100
AcDbEntity
  8
4
100
AcDbCircle
 10
625.7907419865828
 20
1109.130167328838
 30
0.0
 40
245.0
  0
CIRCLE
  5
25C
330
1B
100
AcDbEntity
  8
L-CENTER
 48
3.0
100
AcDbCircle
 10
625.7907419865828
 20
1109.130167328838
 30
0.0
 40
260.0
  0
CIRCLE
  5
25D
330
1B
100
AcDbEntity
  8
4
100
AcDbCircle
 10
625.7907419865828
 20
1109.130167328838
 30
0.0
 40
275.0
  0
CIRCLE
  5
25E
330
1B
100
AcDbEntity
  8
4
100
AcDbCircle
 10
544.3775762951914
 20
1110.130167328838
 30
0.0
 40
95.0
  0
LINE
  5
25F
330
1B
100
AcDbEntity
  8
L-CENTER
 48
3.0
100
AcDbLine
 10
485.7907419865824
 20
866.6430542691949
 30
0.0
 11
505.7907419865833
 21
901.2840704205726
 31
0.0
  0
ARC
  5
260
330
1B
100
AcDbEntity
  8
4
100
AcDbCircle
 10
625.7907419865819
 20
593.1301673288383
 30
0.0
 40
650.0
100
AcDbArc
 50
92.19338301262312
 51
110.3994507482501
  0
LINE
  5
261
330
1B
100
AcDbEntity
  8
L-CENTER
 48
3.0
100
AcDbLine
 10
485.7907419865824
 20
1351.617280388481
 30
0.0
 11
505.7907419865833
 21
1316.976264237103
 31
0.0
  0
CIRCLE
  5
262
330
1B
100
AcDbEntity
  8
4
100
AcDbCircle
 10
735.7907419865828
 20
1095.130167328838
 30
0.0
 40
80.0
  0
LINE
  5
263
330
1B
100
AcDbEntity
  8
L-CENTER
 48
3.0
100
AcDbLine
 10
765.7907419865824
 20
866.6430542691949
 30
0.0
 11
745.7907419865815
 21
901.2840704205726
 31
0.0
  0
ARC
  5
264
330
1B
100
AcDbEntity
  8
4
100
AcDbCircle
 10
625.7907419865819
 20
593.1301673288383
 30
0.0
 40
650.0
100
AcDbArc
 50
69.60054925174992
 51
87.80661698737677
  0
LINE
  5
265
330
1B
100
AcDbEntity
  8
L-CENTER
 48
3.0
100
AcDbLine
 10
765.7907419865824
 20
1351.617280388481
 30
0.0
 11
745.7907419865815
 21
1316.976264237103
 31
0.0
  0
LINE
  5
266
330
1B
100
AcDbEntity
  8
4
100
AcDbLine
 10
930.6907419865823
 20
1207.630167328838
 30
0.0
 11
930.6907419865832
 21
1332.630167328838
 31
0.0
  0
LINE
  5
267
330
1B
100
AcDbEntity
  8
4
100
AcDbLine
 10
320.8907419865828
 20
1207.630167328838
 30
0.0
 11
320.8907419865828
 21
1332.630167328838
 31
0.0
  0
LINE
  5
268
330
1B
100
AcDbEntity
  8
4
100
AcDbLine
 10
920.7907419865833
 20
1332.630167328838
 30
0.0
 11
930.6907419865832
 21
1332.630167328838
 31
0.0
  0
LINE
  5
269
330
1B
100
AcDbEntity
  8
4
100
AcDbLine
 10
920.7907419865824
 20
1207.630167328838
 30
0.0
 11
930.6907419865823
 21
1207.630167328838
 31
0.0
  0
LINE
  5
26A
330
1B
100
AcDbEntity
  8
4
100
AcDbLine
 10
320.8907419865824
 20
1332.630167328838
 30
0.0
 11
330.7907419865828
 21
1332.630167328838
 31
0.0
  0
LINE
  5
26B
330
1B
100
AcDbEntity
  8
4
100
AcDbLine
 10
320.8907419865824
 20
1207.630167328838
 30
0.0
 11
330.7907419865828
 21
1207.630167328838
 31
0.0
  0
LINE
  5
26C
330
1B
100
AcDbEntity
  8
2
100
AcDbLine
 10
330.4907419865827
 20
1207.630167328838
 30
0.0
 11
330.4907419865827
 21
1332.630167328838
 31
0.0
  0
LINE
  5
26D
330
1B
100
AcDbEntity
  8
2
100
AcDbLine
 10
921.0907419865824
 20
1207.630167328838
 30
0.0
 11
921.0907419865833
 21
1332.630167328838
 31
0.0
  0
CIRCLE
  5
26E
330
1B
100
AcDbEntity
  8
4
100
AcDbCircle
 10
544.3775762951909
 20
1110.130167328838
 30
0.0
 40
50.0
  0
LINE
  5
26F
330
1B
100
AcDbEntity
  8
L-CENTER
 48
3.0
100
AcDbLine
 10
499.4512954893574
 20
1155.056448134671
 30
0.0
 11
472.6312382052434
 21
1181.876505418785
 31
0.0
  0
LINE
  5
270
330
1B
100
AcDbEntity
  8
L-CENTER
 48
3.0
100
AcDbLine
 10
499.4512954893578
 20
1065.203886523004
 30
0.0
 11
472.6312382052433
 21
1038.383829238891
 31
0.0
  0
CIRCLE
  5
271
330
1B
100
AcDbEntity
  8
L-CENTER
 48
3.0
100
AcDbCircle
 10
544.3775762951909
 20
1110.130167328838
 30
0.0
 40
82.5
  0
CIRCLE
  5
272
330
1B
100
AcDbEntity
  8
4
100
AcDbCircle
 10
735.7907419865824
 20
1095.130167328838
 30
0.0
 40
45.0
  0
LINE
  5
273
330
1B
100
AcDbEntity
  8
L-CENTER
 48
3.0
100
AcDbLine
 10
703.2388298515136
 20
1062.578255193769
 30
0.0
 11
676.4187725673994
 21
1035.758197909655
 31
0.0
  0
LINE
  5
274
330
1B
100
AcDbEntity
  8
L-CENTER
 48
3.0
100
AcDbLine
 10
703.2388298515134
 20
1127.682079463906
 30
0.0
 11
676.4187725673996
 21
1154.502136748021
 31
0.0
  0
CIRCLE
  5
275
330
1B
100
AcDbEntity
  8
L-CENTER
 48
3.0
100
AcDbCircle
 10
735.7907419865824
 20
1095.130167328838
 30
0.0
 40
65.0
  0
LINE
  5
276
330
1B
100
AcDbEntity
  8
4
100
AcDbLine
 10
680.0138466332328
 20
395.6968064975314
 30
0.0
 11
680.0138466332328
 21
387.1003334433841
 31
0.0
  0
LINE
  5
277
330
1B
100
AcDbEntity
  8
4
100
AcDbLine
 10
699.6437557856802
 20
387.1003334433841
 30
0.0
 11
699.6437557856802
 21
395.6968064975314
 31
0.0
  0
LINE
  5
278
330
1B
100
AcDbEntity
  8
L-CENTER
 48
3.0
100
AcDbLine
 10
689.8288012094567
 20
365.4738109232406
 30
0.0
 11
689.8288012094567
 21
399.4683116979646
 31
0.0
  0
LINE
  5
279
330
1B
100
AcDbEntity
  8
4
100
AcDbLine
 10
680.0138466332328
 20
389.6003334433841
 30
0.0
 11
699.6437557856802
 21
389.6003334433841
 31
0.0
  0
ARC
  5
27A
330
1B
100
AcDbEntity
  8
4
100
AcDbCircle
 10
697.1900171416241
 20
392.8167195143249
 30
0.0
 40
3.783613929059507
100
AcDbArc
 50
49.57010315516856
 51
130.4298968448242
  0
ARC
  5
27B
330
1B
100
AcDbEntity
  8
4
100
AcDbCircle
 10
689.8288012094567
 20
382.821168145925
 30
0.0
 40
13.77916529745958
100
AcDbArc
 50
69.13593563608057
 51
110.8640643639194
  0
LINE
  5
27C
330
1B
100
AcDbEntity
  8
4
100
AcDbLine
 10
697.1900171416241
 20
396.6003334433841
 30
0.0
 11
682.4675852772889
 21
396.6003334433841
 31
0.0
  0
ARC
  5
27D
330
1B
100
AcDbEntity
  8
4
100
AcDbCircle
 10
682.4675852772889
 20
392.8167195143249
 30
0.0
 40
3.783613929059507
100
AcDbArc
 50
49.57010315516856
 51
130.4298968448242
  0
LINE
  5
27E
330
1B
100
AcDbEntity
  8
4
100
AcDbLine
 10
694.7362784975685
 20
395.6968064975314
 30
0.0
 11
694.7362784975685
 21
389.6003334433841
 31
0.0
  0
LINE
  5
27F
330
1B
100
AcDbEntity
  8
4
100
AcDbLine
 10
684.9213239213445
 20
395.6968064975314
 30
0.0
 11
684.9213239213445
 21
389.6003334433841
 31
0.0
  0
LINE
  5
280
330
1B
100
AcDbEntity
  8
4
100
AcDbLine
 10
680.0138466332328
 20
387.1003334433841
 30
0.0
 11
699.6437557856802
 21
387.1003334433841
 31
0.0
  0
LINE
  5
281
330
1B
100
AcDbEntity
  8
4
100
AcDbLine
 10
479.101045909415
 20
1161.526255838842
 30
0.0
 11
488.5815640184433
 21
1158.985958667699
 31
0.0
  0
LINE
  5
282
330
1B
100
AcDbEntity
  8
4
100
AcDbLine
 10
488.5815640184433
 20
1158.985958667699
 30
0.0
 11
495.5217849563292
 21
1165.926179605585
 31
0.0
  0
LINE
  5
283
330
1B
100
AcDbEntity
  8
4
100
AcDbLine
 10
492.9814877851859
 20
1175.406697714614
 30
0.0
 11
483.5009696761576
 21
1177.946994885756
 31
0.0
  0
CIRCLE
  5
284
330
1B
100
AcDbEntity
  8
4
100
AcDbCircle
 10
486.0412668473004
 20
1168.466476776728
 30
0.0
 40
8.5
  0
LINE
  5
285
330
1B
100
AcDbEntity
  8
4
100
AcDbLine
 10
476.5607487382722
 20
1171.006773947871
 30
0.0
 11
479.101045909415
 21
1161.526255838842
 31
0.0
  0
LINE
  5
286
330
1B
100
AcDbEntity
  8
4
100
AcDbLine
 10
483.5009696761576
 20
1177.946994885756
 30
0.0
 11
476.5607487382722
 21
1171.006773947871
 31
0.0
  0
LINE
  5
287
330
1B
100
AcDbEntity
  8
4
100
AcDbLine
 10
495.5217849563292
 20
1165.926179605585
 30
0.0
 11
492.9814877851859
 21
1175.406697714614
 31
0.0
  0
LINE
  5
288
330
1B
100
AcDbEntity
  8
4
100
AcDbLine
 10
682.8885802715713
 20
1134.151887168078
 30
0.0
 11
692.3690983805996
 21
1131.611589996935
 31
0.0
  0
LINE
  5
289
330
1B
100
AcDbEntity
  8
4
100
AcDbLine
 10
692.3690983805996
 20
1131.611589996935
 30
0.0
 11
699.309319318485
 21
1138.55181093482
 31
0.0
  0
LINE
  5
28A
330
1B
100
AcDbEntity
  8
4
100
AcDbLine
 10
696.7690221473422
 20
1148.032329043849
 30
0.0
 11
687.2885040383139
 21
1150.572626214992
 31
0.0
  0
CIRCLE
  5
28B
330
1B
100
AcDbEntity
  8
4
100
AcDbCircle
 10
689.8288012094567
 20
1141.092108105964
 30
0.0
 40
8.5
  0
LINE
  5
28C
330
1B
100
AcDbEntity
  8
4
100
AcDbLine
 10
680.348283100428
 20
1143.632405277106
 30
0.0
 11
682.8885802715713
 21
1134.151887168078
 31
0.0
  0
LINE
  5
28D
330
1B
100
AcDbEntity
  8
4
100
AcDbLine
 10
687.2885040383139
 20
1150.572626214992
 30
0.0
 11
680.348283100428
 21
1143.632405277106
 31
0.0
  0
LINE
  5
28E
330
1B
100
AcDbEntity
  8
4
100
AcDbLine
 10
699.309319318485
 20
1138.55181093482
 30
0.0
 11
696.7690221473422
 21
1148.032329043849
 31
0.0
  0
LINE
  5
28F
330
1B
100
AcDbEntity
  8
4
100
AcDbLine
 10
488.5815640184437
 20
1061.274375989976
 30
0.0
 11
479.1010459094146
 21
1058.734078818833
 31
0.0
  0
LINE
  5
290
330
1B
100
AcDbEntity
  8
4
100
AcDbLine
 10
476.5607487382717
 20
1049.253560709805
 30
0.0
 11
483.5009696761576
 21
1042.313339771919
 31
0.0
  0
LINE
  5
291
330
1B
100
AcDbEntity
  8
4
100
AcDbLine
 10
483.5009696761576
 20
1042.313339771919
 30
0.0
 11
492.9814877851863
 21
1044.853636943062
 31
0.0
  0
CIRCLE
  5
292
330
1B
100
AcDbEntity
  8
4
100
AcDbCircle
 10
486.0412668473004
 20
1051.793857880948
 30
0.0
 40
8.5
  0
LINE
  5
293
330
1B
100
AcDbEntity
  8
4
100
AcDbLine
 10
479.1010459094146
 20
1058.734078818833
 30
0.0
 11
476.5607487382717
 21
1049.253560709805
 31
0.0
  0
LINE
  5
294
330
1B
100
AcDbEntity
  8
4
100
AcDbLine
 10
495.5217849563292
 20
1054.33415505209
 30
0.0
 11
488.5815640184437
 21
1061.274375989976
 31
0.0
  0
LINE
  5
295
330
1B
100
AcDbEntity
  8
4
100
AcDbLine
 10
492.9814877851863
 20
1044.853636943062
 30
0.0
 11
495.5217849563292
 21
1054.33415505209
 31
0.0
  0
LINE
  5
296
330
1B
100
AcDbEntity
  8
4
100
AcDbLine
 10
692.3690983806
 20
1058.648744660741
 30
0.0
 11
682.8885802715704
 21
1056.108447489598
 31
0.0
  0
LINE
  5
297
330
1B
100
AcDbEntity
  8
4
100
AcDbLine
 10
680.348283100428
 20
1046.627929380569
 30
0.0
 11
687.2885040383135
 21
1039.687708442684
 31
0.0
  0
LINE
  5
298
330
1B
100
AcDbEntity
  8
4
100
AcDbLine
 10
687.2885040383135
 20
1039.687708442684
 30
0.0
 11
696.7690221473422
 21
1042.228005613827
 31
0.0
  0
CIRCLE
  5
299
330
1B
100
AcDbEntity
  8
4
100
AcDbCircle
 10
689.8288012094563
 20
1049.168226551712
 30
0.0
 40
8.5
  0
LINE
  5
29A
330
1B
100
AcDbEntity
  8
4
100
AcDbLine
 10
682.8885802715704
 20
1056.108447489598
 30
0.0
 11
680.348283100428
 21
1046.627929380569
 31
0.0
  0
LINE
  5
29B
330
1B
100
AcDbEntity
  8
4
100
AcDbLine
 10
699.309319318485
 20
1051.708523722855
 30
0.0
 11
692.3690983806
 21
1058.648744660741
 31
0.0
  0
LINE
  5
29C
330
1B
100
AcDbEntity
  8
4
100
AcDbLine
 10
696.7690221473422
 20
1042.228005613827
 30
0.0
 11
699.309319318485
 21
1051.708523722855
 31
0.0
  0
CIRCLE
  5
29D
330
1B
100
AcDbEntity
  8
4
100
AcDbCircle
 10
602.7138857430818
 20
1051.793857880948
 30
0.0
 40
8.5
  0
LINE
  5
29E
330
1B
100
AcDbEntity
  8
4
100
AcDbLine
 10
612.1944038521096
 20
1049.253560709805
 30
0.0
 11
605.2541829142242
 21
1042.313339771919
 31
0.0
  0
LINE
  5
29F
330
1B
100
AcDbEntity
  8
4
100
AcDbLine
 10
600.1735885719381
 20
1061.274375989976
 30
0.0
 11
609.6541066809673
 21
1058.734078818833
 31
0.0
  0
LINE
  5
2A0
330
1B
100
AcDbEntity
  8
L-CENTER
 48
3.0
100
AcDbLine
 10
589.3038571010243
 20
1065.203886523004
 30
0.0
 11
616.1239143851387
 21
1038.383829238891
 31
0.0
  0
LINE
  5
2A1
330
1B
100
AcDbEntity
  8
4
100
AcDbLine
 10
609.6541066809673
 20
1058.734078818833
 30
0.0
 11
612.1944038521096
 21
1049.253560709805
 31
0.0
  0
LINE
  5
2A2
330
1B
100
AcDbEntity
  8
4
100
AcDbLine
 10
595.7736648051955
 20
1044.853636943062
 30
0.0
 11
593.2333676340527
 21
1054.33415505209
 31
0.0
  0
LINE
  5
2A3
330
1B
100
AcDbEntity
  8
4
100
AcDbLine
 10
593.2333676340527
 20
1054.33415505209
 30
0.0
 11
600.1735885719381
 21
1061.274375989976
 31
0.0
  0
LINE
  5
2A4
330
1B
100
AcDbEntity
  8
4
100
AcDbLine
 10
605.2541829142242
 20
1042.313339771919
 30
0.0
 11
595.7736648051955
 21
1044.853636943062
 31
0.0
  0
LINE
  5
2A5
330
1B
100
AcDbEntity
  8
4
100
AcDbLine
 10
605.2541829142242
 20
1177.946994885756
 30
0.0
 11
612.1944038521096
 21
1171.006773947871
 31
0.0
  0
CIRCLE
  5
2A6
330
1B
100
AcDbEntity
  8
4
100
AcDbCircle
 10
602.7138857430814
 20
1168.466476776728
 30
0.0
 40
8.5
  0
LINE
  5
2A7
330
1B
100
AcDbEntity
  8
4
100
AcDbLine
 10
609.6541066809668
 20
1161.526255838842
 30
0.0
 11
600.1735885719386
 21
1158.985958667699
 31
0.0
  0
LINE
  5
2A8
330
1B
100
AcDbEntity
  8
L-CENTER
 48
3.0
100
AcDbLine
 10
589.3038571010245
 20
1155.056448134671
 30
0.0
 11
616.1239143851385
 21
1181.876505418785
 31
0.0
  0
LINE
  5
2A9
330
1B
100
AcDbEntity
  8
4
100
AcDbLine
 10
612.1944038521096
 20
1171.006773947871
 30
0.0
 11
609.6541066809668
 21
1161.526255838842
 31
0.0
  0
LINE
  5
2AA
330
1B
100
AcDbEntity
  8
4
100
AcDbLine
 10
593.2333676340527
 20
1165.926179605585
 30
0.0
 11
595.773664805196
 21
1175.406697714614
 31
0.0
  0
LINE
  5
2AB
330
1B
100
AcDbEntity
  8
4
100
AcDbLine
 10
595.773664805196
 20
1175.406697714614
 30
0.0
 11
605.2541829142242
 21
1177.946994885756
 31
0.0
  0
LINE
  5
2AC
330
1B
100
AcDbEntity
  8
4
100
AcDbLine
 10
600.1735885719386
 20
1158.985958667699
 30
0.0
 11
593.2333676340527
 21
1165.926179605585
 31
0.0
  0
CIRCLE
  5
2AD
330
1B
100
AcDbEntity
  8
4
100
AcDbCircle
 10
781.7526827637216
 20
1049.168226551718
 30
0.0
 40
8.5
  0
LINE
  5
2AE
330
1B
100
AcDbEntity
  8
4
100
AcDbLine
 10
791.2332008727503
 20
1046.627929380576
 30
0.0
 11
784.2929799348653
 21
1039.68770844269
 31
0.0
  0
LINE
  5
2AF
330
1B
100
AcDbEntity
  8
4
100
AcDbLine
 10
779.212385592577
 20
1058.648744660746
 30
0.0
 11
788.6929037016062
 21
1056.108447489604
 31
0.0
  0
LINE
  5
2B0
330
1B
100
AcDbEntity
  8
4
100
AcDbLine
 10
784.2929799348512
 20
1150.572626214998
 30
0.0
 11
791.2332008727376
 21
1143.632405277113
 31
0.0
  0
CIRCLE
  5
2B1
330
1B
100
AcDbEntity
  8
4
100
AcDbCircle
 10
781.7526827637093
 20
1141.092108105969
 30
0.0
 40
8.5
  0
LINE
  5
2B2
330
1B
100
AcDbEntity
  8
4
100
AcDbLine
 10
788.6929037015962
 20
1134.151887168084
 30
0.0
 11
779.2123855925679
 21
1131.61158999694
 31
0.0
  0
LINE
  5
2B3
330
1B
100
AcDbEntity
  8
L-CENTER
 48
3.0
100
AcDbLine
 10
768.3426541216545
 20
1127.68207946391
 30
0.0
 11
795.1627114057646
 21
1154.502136748028
 31
0.0
  0
LINE
  5
2B4
330
1B
100
AcDbEntity
  8
L-CENTER
 48
3.0
100
AcDbLine
 10
768.3426541216627
 20
1062.578255193773
 30
0.0
 11
795.1627114057801
 21
1035.758197909662
 31
0.0
  0
LINE
  5
2B5
330
1B
100
AcDbEntity
  8
4
100
AcDbLine
 10
788.6929037016062
 20
1056.108447489604
 30
0.0
 11
791.2332008727503
 21
1046.627929380576
 31
0.0
  0
LINE
  5
2B6
330
1B
100
AcDbEntity
  8
4
100
AcDbLine
 10
791.2332008727376
 20
1143.632405277113
 30
0.0
 11
788.6929037015962
 21
1134.151887168084
 31
0.0
  0
LINE
  5
2B7
330
1B
100
AcDbEntity
  8
4
100
AcDbLine
 10
774.8124618258362
 20
1042.228005613831
 30
0.0
 11
772.2721646546925
 21
1051.708523722859
 31
0.0
  0
LINE
  5
2B8
330
1B
100
AcDbEntity
  8
4
100
AcDbLine
 10
772.2721646546925
 20
1051.708523722859
 30
0.0
 11
779.212385592577
 21
1058.648744660746
 31
0.0
  0
LINE
  5
2B9
330
1B
100
AcDbEntity
  8
4
100
AcDbLine
 10
784.2929799348653
 20
1039.68770844269
 30
0.0
 11
774.8124618258362
 21
1042.228005613831
 31
0.0
  0
LINE
  5
2BA
330
1B
100
AcDbEntity
  8
4
100
AcDbLine
 10
772.2721646546815
 20
1138.551810934825
 30
0.0
 11
774.812461825823
 21
1148.032329043854
 31
0.0
  0
LINE
  5
2BB
330
1B
100
AcDbEntity
  8
4
100
AcDbLine
 10
774.812461825823
 20
1148.032329043854
 30
0.0
 11
784.2929799348512
 21
1150.572626214998
 31
0.0
  0
LINE
  5
2BC
330
1B
100
AcDbEntity
  8
4
100
AcDbLine
 10
779.2123855925679
 20
1131.61158999694
 30
0.0
 11
772.2721646546815
 21
1138.551810934825
 31
0.0
  0
LINE
  5
2BD
330
1B
100
AcDbEntity
  8
L-CENTER
 48
5.0
100
AcDbLine
 10
486.0412668473004
 20
365.5738109232407
 30
0.0
 11
486.0412668473004
 21
399.5683116979646
 31
0.0
  0
LINE
  5
2BE
330
1B
100
AcDbEntity
  8
4
100
AcDbLine
 10
495.8562214235239
 20
387.1003334433841
 30
0.0
 11
495.8562214235239
 21
395.6968064975314
 31
0.0
  0
LINE
  5
2BF
330
1B
100
AcDbEntity
  8
4
100
AcDbLine
 10
476.2263122710765
 20
395.6968064975314
 30
0.0
 11
476.2263122710765
 21
387.1003334433841
 31
0.0
  0
LINE
  5
2C0
330
1B
100
AcDbEntity
  8
4
100
AcDbLine
 10
481.1337895591882
 20
395.6968064975314
 30
0.0
 11
481.1337895591882
 21
389.6003334433841
 31
0.0
  0
LINE
  5
2C1
330
1B
100
AcDbEntity
  8
4
100
AcDbLine
 10
490.9487441354122
 20
395.6968064975314
 30
0.0
 11
490.9487441354122
 21
389.6003334433841
 31
0.0
  0
ARC
  5
2C2
330
1B
100
AcDbEntity
  8
4
100
AcDbCircle
 10
478.6800509151331
 20
392.8167195143249
 30
0.0
 40
3.783613929059507
100
AcDbArc
 50
49.5701031551765
 51
130.4298968448315
  0
LINE
  5
2C3
330
1B
100
AcDbEntity
  8
4
100
AcDbLine
 10
493.4024827794678
 20
396.6003334433841
 30
0.0
 11
478.6800509151326
 21
396.6003334433841
 31
0.0
  0
ARC
  5
2C4
330
1B
100
AcDbEntity
  8
4
100
AcDbCircle
 10
486.0412668473009
 20
382.821168145925
 30
0.0
 40
13.77916529745958
100
AcDbArc
 50
69.13593563608057
 51
110.8640643639214
  0
ARC
  5
2C5
330
1B
100
AcDbEntity
  8
4
100
AcDbCircle
 10
493.4024827794683
 20
392.8167195143249
 30
0.0
 40
3.783613929059507
100
AcDbArc
 50
49.5701031551765
 51
130.4298968448315
  0
LINE
  5
2C6
330
1B
100
AcDbEntity
  8
4
100
AcDbLine
 10
476.2263122710765
 20
389.6003334433841
 30
0.0
 11
495.8562214235239
 21
389.6003334433841
 31
0.0
  0
LINE
  5
2C7
330
1B
100
AcDbEntity
  8
4
100
AcDbLine
 10
476.2263122710765
 20
387.1003334433841
 30
0.0
 11
495.8562214235239
 21
387.1003334433841
 31
0.0
  0
LINE
  5
2C8
330
1B
100
AcDbEntity
  8
4
100
AcDbLine
 10
791.5676373399328
 20
387.1003334433841
 30
0.0
 11
771.9377281874849
 21
387.1003334433841
 31
0.0
  0
LINE
  5
2C9
330
1B
100
AcDbEntity
  8
4
100
AcDbLine
 10
791.5676373399328
 20
389.6003334433841
 30
0.0
 11
771.9377281874849
 21
389.6003334433841
 31
0.0
  0
LINE
  5
2CA
330
1B
100
AcDbEntity
  8
4
100
AcDbLine
 10
774.391466831541
 20
396.6003334433841
 30
0.0
 11
789.1138986958767
 21
396.6003334433841
 31
0.0
  0
ARC
  5
2CB
330
1B
100
AcDbEntity
  8
4
100
AcDbCircle
 10
789.1138986958763
 20
392.8167195143249
 30
0.0
 40
3.783613929059507
100
AcDbArc
 50
49.57010315516856
 51
130.4298968448242
  0
LINE
  5
2CC
330
1B
100
AcDbEntity
  8
4
100
AcDbLine
 10
791.5676373399328
 20
395.6968064975314
 30
0.0
 11
791.5676373399328
 21
387.1003334433841
 31
0.0
  0
ARC
  5
2CD
330
1B
100
AcDbEntity
  8
4
100
AcDbCircle
 10
774.391466831541
 20
392.8167195143249
 30
0.0
 40
3.783613929059507
100
AcDbArc
 50
49.57010315516856
 51
130.4298968448242
  0
ARC
  5
2CE
330
1B
100
AcDbEntity
  8
4
100
AcDbCircle
 10
781.7526827637084
 20
382.821168145925
 30
0.0
 40
13.77916529745958
100
AcDbArc
 50
69.13593563607864
 51
110.8640643639194
  0
LINE
  5
2CF
330
1B
100
AcDbEntity
  8
4
100
AcDbLine
 10
776.8452054755971
 20
395.6968064975314
 30
0.0
 11
776.8452054755971
 21
389.6003334433841
 31
0.0
  0
LINE
  5
2D0
330
1B
100
AcDbEntity
  8
4
100
AcDbLine
 10
786.6601600518206
 20
395.6968064975314
 30
0.0
 11
786.6601600518206
 21
389.6003334433841
 31
0.0
  0
LINE
  5
2D1
330
1B
100
AcDbEntity
  8
4
100
AcDbLine
 10
771.9377281874849
 20
387.1003334433841
 30
0.0
 11
771.9377281874849
 21
395.6968064975314
 31
0.0
  0
LINE
  5
2D2
330
1B
100
AcDbEntity
  8
L-CENTER
 48
3.0
100
AcDbLine
 10
781.7526827637084
 20
365.4738109232406
 30
0.0
 11
781.7526827637084
 21
399.4683116979646
 31
0.0
  0
LINE
  5
2D3
330
1B
100
AcDbEntity
  8
4
100
AcDbLine
 10
612.5353517020885
 20
387.1003334433841
 30
0.0
 11
592.9054425496415
 21
387.1003334433841
 31
0.0
  0
LINE
  5
2D4
330
1B
100
AcDbEntity
  8
4
100
AcDbLine
 10
612.5353517020885
 20
389.6003334433841
 30
0.0
 11
592.9054425496415
 21
389.6003334433841
 31
0.0
  0
ARC
  5
2D5
330
1B
100
AcDbEntity
  8
4
100
AcDbCircle
 10
602.720397125865
 20
382.821168145925
 30
0.0
 40
13.77916529745958
100
AcDbArc
 50
69.13593563608057
 51
110.8640643639214
  0
LINE
  5
2D6
330
1B
100
AcDbEntity
  8
4
100
AcDbLine
 10
595.3591811936976
 20
396.6003334433841
 30
0.0
 11
610.0816130580324
 21
396.6003334433841
 31
0.0
  0
ARC
  5
2D7
330
1B
100
AcDbEntity
  8
4
100
AcDbCircle
 10
610.0816130580324
 20
392.8167195143249
 30
0.0
 40
3.783613929059507
100
AcDbArc
 50
49.57010315516856
 51
130.4298968448242
  0
LINE
  5
2D8
330
1B
100
AcDbEntity
  8
4
100
AcDbLine
 10
607.6278744139772
 20
395.6968064975314
 30
0.0
 11
607.6278744139772
 21
389.6003334433841
 31
0.0
  0
LINE
  5
2D9
330
1B
100
AcDbEntity
  8
4
100
AcDbLine
 10
612.5353517020885
 20
395.6968064975314
 30
0.0
 11
612.5353517020885
 21
387.1003334433841
 31
0.0
  0
ARC
  5
2DA
330
1B
100
AcDbEntity
  8
4
100
AcDbCircle
 10
595.3591811936976
 20
392.8167195143249
 30
0.0
 40
3.783613929059507
100
AcDbArc
 50
49.57010315517584
 51
130.4298968448315
  0
LINE
  5
2DB
330
1B
100
AcDbEntity
  8
4
100
AcDbLine
 10
597.8129198377528
 20
395.6968064975314
 30
0.0
 11
597.8129198377528
 21
389.6003334433841
 31
0.0
  0
LINE
  5
2DC
330
1B
100
AcDbEntity
  8
4
100
AcDbLine
 10
592.9054425496415
 20
387.1003334433841
 30
0.0
 11
592.9054425496415
 21
395.6968064975314
 31
0.0
  0
LINE
  5
2DD
330
1B
100
AcDbEntity
  8
L-CENTER
 48
3.0
100
AcDbLine
 10
602.720397125865
 20
365.4738109232406
 30
0.0
 11
602.720397125865
 21
399.4683116979646
 31
0.0
  0
ARC
  5
2DE
330
1B
100
AcDbEntity
  8
4
100
AcDbCircle
 10
682.4675852772893
 20
127.2839473724434
 30
0.0
 40
3.783613929059507
100
AcDbArc
 50
229.5701031551686
 51
310.4298968448242
  0
ARC
  5
2DF
330
1B
100
AcDbEntity
  8
4
100
AcDbCircle
 10
689.8288012094567
 20
137.2794987408433
 30
0.0
 40
13.77916529745958
100
AcDbArc
 50
249.1359356360806
 51
290.8640643639195
  0
LINE
  5
2E0
330
1B
100
AcDbEntity
  8
4
100
AcDbLine
 10
684.921323921345
 20
124.4038603892369
 30
0.0
 11
684.921323921345
 21
130.5003334433842
 31
0.0
  0
LINE
  5
2E1
330
1B
100
AcDbEntity
  8
4
100
AcDbLine
 10
694.736278497569
 20
124.4038603892369
 30
0.0
 11
694.736278497569
 21
130.5003334433842
 31
0.0
  0
LINE
  5
2E2
330
1B
100
AcDbEntity
  8
4
100
AcDbLine
 10
680.0138466332332
 20
133.0003334433842
 30
0.0
 11
680.0138466332332
 21
124.4038603892369
 31
0.0
  0
LINE
  5
2E3
330
1B
100
AcDbEntity
  8
L-CENTER
 48
3.0
100
AcDbLine
 10
689.8288012094567
 20
165.785756558078
 30
0.0
 11
689.8288012094567
 21
118.3994935632802
 31
0.0
  0
LINE
  5
2E4
330
1B
100
AcDbEntity
  8
4
100
AcDbLine
 10
699.6437557856807
 20
124.4038603892369
 30
0.0
 11
699.6437557856807
 21
133.0003334433842
 31
0.0
  0
LINE
  5
2E5
330
1B
100
AcDbEntity
  8
4
100
AcDbLine
 10
699.6437557856807
 20
133.0003334433842
 30
0.0
 11
680.0138466332332
 21
133.0003334433842
 31
0.0
  0
LINE
  5
2E6
330
1B
100
AcDbEntity
  8
4
100
AcDbLine
 10
699.6437557856807
 20
130.5003334433842
 30
0.0
 11
680.0138466332332
 21
130.5003334433842
 31
0.0
  0
LINE
  5
2E7
330
1B
100
AcDbEntity
  8
4
100
AcDbLine
 10
682.4675852772893
 20
123.5003334433842
 30
0.0
 11
697.1900171416246
 21
123.5003334433842
 31
0.0
  0
ARC
  5
2E8
330
1B
100
AcDbEntity
  8
4
100
AcDbCircle
 10
697.1900171416246
 20
127.2839473724434
 30
0.0
 40
3.783613929059507
100
AcDbArc
 50
229.5701031551686
 51
310.4298968448242
  0
ARC
  5
2E9
330
1B
100
AcDbEntity
  8
4
100
AcDbCircle
 10
595.3591811936972
 20
127.2839473724434
 30
0.0
 40
3.783613929059507
100
AcDbArc
 50
229.5701031551758
 51
310.4298968448314
  0
ARC
  5
2EA
330
1B
100
AcDbEntity
  8
4
100
AcDbCircle
 10
602.7203971258646
 20
137.2794987408433
 30
0.0
 40
13.77916529745958
100
AcDbArc
 50
249.1359356360806
 51
290.8640643639195
  0
LINE
  5
2EB
330
1B
100
AcDbEntity
  8
4
100
AcDbLine
 10
597.8129198377528
 20
124.4038603892369
 30
0.0
 11
597.8129198377528
 21
130.5003334433842
 31
0.0
  0
LINE
  5
2EC
330
1B
100
AcDbEntity
  8
4
100
AcDbLine
 10
607.6278744139772
 20
124.4038603892369
 30
0.0
 11
607.6278744139772
 21
130.5003334433842
 31
0.0
  0
LINE
  5
2ED
330
1B
100
AcDbEntity
  8
4
100
AcDbLine
 10
592.9054425496415
 20
133.0003334433842
 30
0.0
 11
592.9054425496415
 21
124.4038603892369
 31
0.0
  0
LINE
  5
2EE
330
1B
100
AcDbEntity
  8
4
100
AcDbLine
 10
612.5353517020885
 20
124.4038603892369
 30
0.0
 11
612.5353517020885
 21
133.0003334433842
 31
0.0
  0
LINE
  5
2EF
330
1B
100
AcDbEntity
  8
4
100
AcDbLine
 10
612.5353517020885
 20
133.0003334433842
 30
0.0
 11
592.9054425496415
 21
133.0003334433842
 31
0.0
  0
LINE
  5
2F0
330
1B
100
AcDbEntity
  8
4
100
AcDbLine
 10
612.5353517020885
 20
130.5003334433842
 30
0.0
 11
592.9054425496415
 21
130.5003334433842
 31
0.0
  0
LINE
  5
2F1
330
1B
100
AcDbEntity
  8
4
100
AcDbLine
 10
595.3591811936976
 20
123.5003334433842
 30
0.0
 11
610.0816130580324
 21
123.5003334433842
 31
0.0
  0
ARC
  5
2F2
330
1B
100
AcDbEntity
  8
4
100
AcDbCircle
 10
610.0816130580324
 20
127.2839473724434
 30
0.0
 40
3.783613929059507
100
AcDbArc
 50
229.5701031551758
 51
310.4298968448314
  0
CIRCLE
  5
2F3
330
1B
100
AcDbEntity
  8
4
100
AcDbCircle
 10
755.7907419865819
 20
1334.296772312793
 30
0.0
 40
9.5
  0
LINE
  5
2F4
330
1B
100
AcDbEntity
  8
4
100
AcDbLine
 10
755.7907419865819
 20
1345.266427427395
 30
0.0
 11
746.2907419865819
 21
1339.781599870094
 31
0.0
  0
LINE
  5
2F5
330
1B
100
AcDbEntity
  8
4
100
AcDbLine
 10
746.2907419865819
 20
1339.781599870094
 30
0.0
 11
746.2907419865819
 21
1328.811944755491
 31
0.0
  0
LINE
  5
2F6
330
1B
100
AcDbEntity
  8
4
100
AcDbLine
 10
765.2907419865819
 20
1328.811944755491
 30
0.0
 11
765.2907419865819
 21
1339.781599870094
 31
0.0
  0
LINE
  5
2F7
330
1B
100
AcDbEntity
  8
4
100
AcDbLine
 10
765.2907419865819
 20
1339.781599870094
 30
0.0
 11
755.7907419865819
 21
1345.266427427395
 31
0.0
  0
LINE
  5
2F8
330
1B
100
AcDbEntity
  8
4
100
AcDbLine
 10
746.2907419865819
 20
1328.811944755491
 30
0.0
 11
755.7907419865819
 21
1323.327117198189
 31
0.0
  0
LINE
  5
2F9
330
1B
100
AcDbEntity
  8
4
100
AcDbLine
 10
755.7907419865819
 20
1323.327117198189
 30
0.0
 11
765.2907419865819
 21
1328.811944755491
 31
0.0
  0
CIRCLE
  5
2FA
330
1B
100
AcDbEntity
  8
4
100
AcDbCircle
 10
495.7907419865828
 20
1334.296772312792
 30
0.0
 40
9.5
  0
LINE
  5
2FB
330
1B
100
AcDbEntity
  8
4
100
AcDbLine
 10
495.7907419865828
 20
1345.266427427395
 30
0.0
 11
486.2907419865828
 21
1339.781599870093
 31
0.0
  0
LINE
  5
2FC
330
1B
100
AcDbEntity
  8
4
100
AcDbLine
 10
486.2907419865828
 20
1339.781599870093
 30
0.0
 11
486.2907419865828
 21
1328.811944755491
 31
0.0
  0
LINE
  5
2FD
330
1B
100
AcDbEntity
  8
4
100
AcDbLine
 10
505.2907419865828
 20
1328.811944755491
 30
0.0
 11
505.2907419865828
 21
1339.781599870093
 31
0.0
  0
LINE
  5
2FE
330
1B
100
AcDbEntity
  8
4
100
AcDbLine
 10
505.2907419865828
 20
1339.781599870093
 30
0.0
 11
495.7907419865828
 21
1345.266427427395
 31
0.0
  0
LINE
  5
2FF
330
1B
100
AcDbEntity
  8
4
100
AcDbLine
 10
486.2907419865828
 20
1328.811944755491
 30
0.0
 11
495.7907419865828
 21
1323.327117198189
 31
0.0
  0
LINE
  5
300
330
1B
100
AcDbEntity
  8
4
100
AcDbLine
 10
495.7907419865828
 20
1323.327117198189
 30
0.0
 11
505.2907419865828
 21
1328.811944755491
 31
0.0
  0
CIRCLE
  5
301
330
1B
100
AcDbEntity
  8
4
100
AcDbCircle
 10
885.7907419865828
 20
1109.130167328838
 30
0.0
 40
9.5
  0
LINE
  5
302
330
1B
100
AcDbEntity
  8
4
100
AcDbLine
 10
885.7907419865828
 20
1120.09982244344
 30
0.0
 11
876.2907419865828
 21
1114.614994886139
 31
0.0
  0
LINE
  5
303
330
1B
100
AcDbEntity
  8
4
100
AcDbLine
 10
876.2907419865828
 20
1114.614994886139
 30
0.0
 11
876.2907419865828
 21
1103.645339771536
 31
0.0
  0
LINE
  5
304
330
1B
100
AcDbEntity
  8
4
100
AcDbLine
 10
895.2907419865828
 20
1103.645339771536
 30
0.0
 11
895.2907419865828
 21
1114.614994886139
 31
0.0
  0
LINE
  5
305
330
1B
100
AcDbEntity
  8
4
100
AcDbLine
 10
895.2907419865828
 20
1114.614994886139
 30
0.0
 11
885.7907419865828
 21
1120.09982244344
 31
0.0
  0
LINE
  5
306
330
1B
100
AcDbEntity
  8
4
100
AcDbLine
 10
876.2907419865828
 20
1103.645339771536
 30
0.0
 11
885.7907419865828
 21
1098.160512214235
 31
0.0
  0
LINE
  5
307
330
1B
100
AcDbEntity
  8
4
100
AcDbLine
 10
885.7907419865828
 20
1098.160512214235
 30
0.0
 11
895.2907419865828
 21
1103.645339771536
 31
0.0
  0
CIRCLE
  5
308
330
1B
100
AcDbEntity
  8
4
100
AcDbCircle
 10
365.7907419865828
 20
1109.130167328838
 30
0.0
 40
9.5
  0
LINE
  5
309
330
1B
100
AcDbEntity
  8
4
100
AcDbLine
 10
365.7907419865828
 20
1120.09982244344
 30
0.0
 11
356.2907419865828
 21
1114.614994886139
 31
0.0
  0
LINE
  5
30A
330
1B
100
AcDbEntity
  8
4
100
AcDbLine
 10
356.2907419865828
 20
1114.614994886139
 30
0.0
 11
356.2907419865828
 21
1103.645339771536
 31
0.0
  0
LINE
  5
30B
330
1B
100
AcDbEntity
  8
4
100
AcDbLine
 10
375.2907419865828
 20
1103.645339771536
 30
0.0
 11
375.2907419865828
 21
1114.614994886139
 31
0.0
  0
LINE
  5
30C
330
1B
100
AcDbEntity
  8
4
100
AcDbLine
 10
375.2907419865828
 20
1114.614994886139
 30
0.0
 11
365.7907419865828
 21
1120.09982244344
 31
0.0
  0
LINE
  5
30D
330
1B
100
AcDbEntity
  8
4
100
AcDbLine
 10
356.2907419865828
 20
1103.645339771536
 30
0.0
 11
365.7907419865828
 21
1098.160512214235
 31
0.0
  0
LINE
  5
30E
330
1B
100
AcDbEntity
  8
4
100
AcDbLine
 10
365.7907419865828
 20
1098.160512214235
 30
0.0
 11
375.2907419865828
 21
1103.645339771536
 31
0.0
  0
CIRCLE
  5
30F
330
1B
100
AcDbEntity
  8
4
100
AcDbCircle
 10
755.7907419865815
 20
883.9635623448835
 30
0.0
 40
9.5
  0
LINE
  5
310
330
1B
100
AcDbEntity
  8
4
100
AcDbLine
 10
755.7907419865815
 20
894.9332174594861
 30
0.0
 11
746.2907419865815
 21
889.4483899021848
 31
0.0
  0
LINE
  5
311
330
1B
100
AcDbEntity
  8
4
100
AcDbLine
 10
746.2907419865815
 20
889.4483899021848
 30
0.0
 11
746.2907419865815
 21
878.4787347875817
 31
0.0
  0
LINE
  5
312
330
1B
100
AcDbEntity
  8
4
100
AcDbLine
 10
765.2907419865815
 20
878.4787347875817
 30
0.0
 11
765.2907419865815
 21
889.4483899021848
 31
0.0
  0
LINE
  5
313
330
1B
100
AcDbEntity
  8
4
100
AcDbLine
 10
765.2907419865815
 20
889.4483899021848
 30
0.0
 11
755.7907419865815
 21
894.9332174594861
 31
0.0
  0
LINE
  5
314
330
1B
100
AcDbEntity
  8
4
100
AcDbLine
 10
746.2907419865815
 20
878.4787347875817
 30
0.0
 11
755.7907419865815
 21
872.9939072302805
 31
0.0
  0
LINE
  5
315
330
1B
100
AcDbEntity
  8
4
100
AcDbLine
 10
755.7907419865815
 20
872.9939072302805
 30
0.0
 11
765.2907419865815
 21
878.4787347875817
 31
0.0
  0
CIRCLE
  5
316
330
1B
100
AcDbEntity
  8
4
100
AcDbCircle
 10
495.7907419865833
 20
883.9635623448839
 30
0.0
 40
9.5
  0
LINE
  5
317
330
1B
100
AcDbEntity
  8
4
100
AcDbLine
 10
495.7907419865833
 20
894.9332174594865
 30
0.0
 11
486.2907419865833
 21
889.4483899021852
 31
0.0
  0
LINE
  5
318
330
1B
100
AcDbEntity
  8
4
100
AcDbLine
 10
486.2907419865833
 20
889.4483899021852
 30
0.0
 11
486.2907419865833
 21
878.4787347875822
 31
0.0
  0
LINE
  5
319
330
1B
100
AcDbEntity
  8
4
100
AcDbLine
 10
505.2907419865833
 20
878.4787347875822
 30
0.0
 11
505.2907419865833
 21
889.4483899021852
 31
0.0
  0
LINE
  5
31A
330
1B
100
AcDbEntity
  8
4
100
AcDbLine
 10
505.2907419865833
 20
889.4483899021852
 30
0.0
 11
495.7907419865833
 21
894.9332174594865
 31
0.0
  0
LINE
  5
31B
330
1B
100
AcDbEntity
  8
4
100
AcDbLine
 10
486.2907419865833
 20
878.4787347875822
 30
0.0
 11
495.7907419865833
 21
872.9939072302809
 31
0.0
  0
LINE
  5
31C
330
1B
100
AcDbEntity
  8
4
100
AcDbLine
 10
495.7907419865833
 20
872.9939072302809
 30
0.0
 11
505.2907419865833
 21
878.4787347875822
 31
0.0
  0
LINE
  5
31D
330
1B
100
AcDbEntity
  8
L-CENTER
 48
3.0
100
AcDbLine
 10
365.7907419865828
 20
383.8011733234882
 30
0.0
 11
365.7907419865828
 21
323.0039747137821
 31
0.0
  0
LINE
  5
31E
330
1B
100
AcDbEntity
  8
4
100
AcDbLine
 10
374.0179833225347
 20
380.2003334433841
 30
0.0
 11
357.5635006506304
 21
380.2003334433841
 31
0.0
  0
ARC
  5
31F
330
1B
100
AcDbEntity
  8
4
100
AcDbCircle
 10
365.7907419865828
 20
366.4045893082068
 30
0.0
 40
13.7957441351769
100
AcDbArc
 50
66.57340249137269
 51
113.4265975086273
  0
LINE
  5
320
330
1B
100
AcDbEntity
  8
4
100
AcDbLine
 10
354.8210868719798
 20
372.2003334433841
 30
0.0
 11
376.7603971011854
 21
372.2003334433841
 31
0.0
  0
LINE
  5
321
330
1B
100
AcDbEntity
  8
4
100
AcDbLine
 10
354.8210868719798
 20
369.2003334433841
 30
0.0
 11
376.7603971011854
 21
369.2003334433841
 31
0.0
  0
LINE
  5
322
330
1B
100
AcDbEntity
  8
4
100
AcDbLine
 10
360.3059144292811
 20
379.0631525327574
 30
0.0
 11
360.3059144292811
 21
372.2003334433841
 31
0.0
  0
LINE
  5
323
330
1B
100
AcDbEntity
  8
4
100
AcDbLine
 10
354.8210868719798
 20
379.0631525327574
 30
0.0
 11
354.8210868719798
 21
369.2003334433841
 31
0.0
  0
ARC
  5
324
330
1B
100
AcDbEntity
  8
4
100
AcDbCircle
 10
357.5635006506304
 20
376.3249545681049
 30
0.0
 40
3.875378875279244
100
AcDbArc
 50
44.955926762744
 51
135.044073237256
  0
LINE
  5
325
330
1B
100
AcDbEntity
  8
4
100
AcDbLine
 10
376.7603971011854
 20
369.2003334433841
 30
0.0
 11
376.7603971011854
 21
379.0631525327574
 31
0.0
  0
LINE
  5
326
330
1B
100
AcDbEntity
  8
4
100
AcDbLine
 10
371.2755695438841
 20
379.0631525327574
 30
0.0
 11
371.2755695438841
 21
372.2003334433841
 31
0.0
  0
ARC
  5
327
330
1B
100
AcDbEntity
  8
4
100
AcDbCircle
 10
374.0179833225347
 20
376.3249545681049
 30
0.0
 40
3.875378875279264
100
AcDbArc
 50
44.95592676274638
 51
135.0440732372536
  0
LINE
  5
328
330
1B
100
AcDbEntity
  8
L-CENTER
 48
3.0
100
AcDbLine
 10
495.7907419865833
 20
383.8011733234882
 30
0.0
 11
495.7907419865833
 21
323.0039747137821
 31
0.0
  0
LINE
  5
329
330
1B
100
AcDbEntity
  8
4
100
AcDbLine
 10
504.0179833225352
 20
380.2003334433841
 30
0.0
 11
487.5635006506309
 21
380.2003334433841
 31
0.0
  0
ARC
  5
32A
330
1B
100
AcDbEntity
  8
4
100
AcDbCircle
 10
495.7907419865833
 20
366.4045893082068
 30
0.0
 40
13.7957441351769
100
AcDbArc
 50
66.57340249137269
 51
113.4265975086273
  0
LINE
  5
32B
330
1B
100
AcDbEntity
  8
4
100
AcDbLine
 10
484.8210868719802
 20
372.2003334433841
 30
0.0
 11
506.7603971011858
 21
372.2003334433841
 31
0.0
  0
LINE
  5
32C
330
1B
100
AcDbEntity
  8
4
100
AcDbLine
 10
484.8210868719802
 20
369.2003334433841
 30
0.0
 11
506.7603971011858
 21
369.2003334433841
 31
0.0
  0
LINE
  5
32D
330
1B
100
AcDbEntity
  8
4
100
AcDbLine
 10
490.3059144292815
 20
379.0631525327574
 30
0.0
 11
490.3059144292815
 21
372.2003334433841
 31
0.0
  0
LINE
  5
32E
330
1B
100
AcDbEntity
  8
4
100
AcDbLine
 10
484.8210868719802
 20
379.0631525327574
 30
0.0
 11
484.8210868719802
 21
369.2003334433841
 31
0.0
  0
ARC
  5
32F
330
1B
100
AcDbEntity
  8
L-CENTER
 48
3.0
100
AcDbCircle
 10
487.5635006506309
 20
376.3249545681049
 30
0.0
 40
3.875378875279244
100
AcDbArc
 50
44.955926762744
 51
135.044073237256
  0
LINE
  5
330
330
1B
100
AcDbEntity
  8
4
100
AcDbLine
 10
506.7603971011858
 20
369.2003334433841
 30
0.0
 11
506.7603971011858
 21
379.0631525327574
 31
0.0
  0
LINE
  5
331
330
1B
100
AcDbEntity
  8
4
100
AcDbLine
 10
501.2755695438846
 20
379.0631525327574
 30
0.0
 11
501.2755695438846
 21
372.2003334433841
 31
0.0
  0
ARC
  5
332
330
1B
100
AcDbEntity
  8
4
100
AcDbCircle
 10
504.0179833225352
 20
376.3249545681049
 30
0.0
 40
3.875378875279264
100
AcDbArc
 50
44.95592676274638
 51
135.0440732372536
  0
ARC
  5
333
330
1B
100
AcDbEntity
  8
4
100
AcDbCircle
 10
747.56350065063
 20
376.3249545681049
 30
0.0
 40
3.875378875279264
100
AcDbArc
 50
44.95592676273925
 51
135.0440732372536
  0
LINE
  5
334
330
1B
100
AcDbEntity
  8
4
100
AcDbLine
 10
750.3059144292811
 20
379.0631525327574
 30
0.0
 11
750.3059144292811
 21
372.2003334433841
 31
0.0
  0
LINE
  5
335
330
1B
100
AcDbEntity
  8
4
100
AcDbLine
 10
744.8210868719798
 20
369.2003334433841
 30
0.0
 11
744.8210868719798
 21
379.0631525327574
 31
0.0
  0
ARC
  5
336
330
1B
100
AcDbEntity
  8
4
100
AcDbCircle
 10
764.0179833225347
 20
376.3249545681049
 30
0.0
 40
3.875378875279244
100
AcDbArc
 50
44.955926762744
 51
135.0440732372607
  0
LINE
  5
337
330
1B
100
AcDbEntity
  8
4
100
AcDbLine
 10
766.7603971011849
 20
379.0631525327574
 30
0.0
 11
766.7603971011849
 21
369.2003334433841
 31
0.0
  0
LINE
  5
338
330
1B
100
AcDbEntity
  8
4
100
AcDbLine
 10
761.2755695438836
 20
379.0631525327574
 30
0.0
 11
761.2755695438836
 21
372.2003334433841
 31
0.0
  0
LINE
  5
339
330
1B
100
AcDbEntity
  8
4
100
AcDbLine
 10
766.7603971011849
 20
369.2003334433841
 30
0.0
 11
744.8210868719798
 21
369.2003334433841
 31
0.0
  0
LINE
  5
33A
330
1B
100
AcDbEntity
  8
4
100
AcDbLine
 10
766.7603971011849
 20
372.2003334433841
 30
0.0
 11
744.8210868719798
 21
372.2003334433841
 31
0.0
  0
ARC
  5
33B
330
1B
100
AcDbEntity
  8
4
100
AcDbCircle
 10
755.7907419865824
 20
366.4045893082068
 30
0.0
 40
13.7957441351769
100
AcDbArc
 50
66.57340249137269
 51
113.4265975086292
  0
LINE
  5
33C
330
1B
100
AcDbEntity
  8
4
100
AcDbLine
 10
747.56350065063
 20
380.2003334433841
 30
0.0
 11
764.0179833225347
 21
380.2003334433841
 31
0.0
  0
LINE
  5
33D
330
1B
100
AcDbEntity
  8
L-CENTER
 48
3.0
100
AcDbLine
 10
755.7907419865824
 20
383.8011733234882
 30
0.0
 11
755.7907419865824
 21
323.0039747137821
 31
0.0
  0
ARC
  5
33E
330
1B
100
AcDbEntity
  8
4
100
AcDbCircle
 10
877.5635006506309
 20
376.3249545681049
 30
0.0
 40
3.875378875279264
100
AcDbArc
 50
44.95592676274638
 51
135.0440732372607
  0
LINE
  5
33F
330
1B
100
AcDbEntity
  8
4
100
AcDbLine
 10
880.3059144292811
 20
379.0631525327574
 30
0.0
 11
880.3059144292811
 21
372.2003334433841
 31
0.0
  0
LINE
  5
340
330
1B
100
AcDbEntity
  8
4
100
AcDbLine
 10
874.8210868719798
 20
369.2003334433841
 30
0.0
 11
874.8210868719798
 21
379.0631525327574
 31
0.0
  0
ARC
  5
341
330
1B
100
AcDbEntity
  8
4
100
AcDbCircle
 10
894.0179833225347
 20
376.3249545681049
 30
0.0
 40
3.875378875279244
100
AcDbArc
 50
44.95592676273687
 51
135.044073237256
  0
LINE
  5
342
330
1B
100
AcDbEntity
  8
4
100
AcDbLine
 10
896.7603971011858
 20
379.0631525327574
 30
0.0
 11
896.7603971011858
 21
369.2003334433841
 31
0.0
  0
LINE
  5
343
330
1B
100
AcDbEntity
  8
4
100
AcDbLine
 10
891.2755695438846
 20
379.0631525327574
 30
0.0
 11
891.2755695438846
 21
372.2003334433841
 31
0.0
  0
LINE
  5
344
330
1B
100
AcDbEntity
  8
4
100
AcDbLine
 10
896.7603971011858
 20
369.2003334433841
 30
0.0
 11
874.8210868719798
 21
369.2003334433841
 31
0.0
  0
LINE
  5
345
330
1B
100
AcDbEntity
  8
4
100
AcDbLine
 10
896.7603971011858
 20
372.2003334433841
 30
0.0
 11
874.8210868719798
 21
372.2003334433841
 31
0.0
  0
ARC
  5
346
330
1B
100
AcDbEntity
  8
4
100
AcDbCircle
 10
885.7907419865824
 20
366.4045893082068
 30
0.0
 40
13.7957441351769
100
AcDbArc
 50
66.57340249137077
 51
113.4265975086273
  0
LINE
  5
347
330
1B
100
AcDbEntity
  8
4
100
AcDbLine
 10
877.5635006506309
 20
380.2003334433841
 30
0.0
 11
894.0179833225347
 21
380.2003334433841
 31
0.0
  0
LINE
  5
348
330
1B
100
AcDbEntity
  8
L-CENTER
 48
3.0
100
AcDbLine
 10
885.7907419865824
 20
383.8011733234882
 30
0.0
 11
885.7907419865824
 21
323.0039747137821
 31
0.0
  0
LINE
  5
349
330
1B
100
AcDbEntity
  8
4
100
AcDbLine
 10
1481.969118739422
 20
387.1003334433841
 30
0.0
 11
1481.969118739422
 21
395.6968064975314
 31
0.0
  0
LINE
  5
34A
330
1B
100
AcDbEntity
  8
4
100
AcDbLine
 10
1496.691550603758
 20
395.6968064975314
 30
0.0
 11
1496.691550603758
 21
389.6003334433841
 31
0.0
  0
LINE
  5
34B
330
1B
100
AcDbEntity
  8
4
100
AcDbLine
 10
1486.876596027534
 20
395.6968064975314
 30
0.0
 11
1486.876596027534
 21
389.6003334433841
 31
0.0
  0
ARC
  5
34C
330
1B
100
AcDbEntity
  8
4
100
AcDbCircle
 10
1491.784073315645
 20
382.821168145925
 30
0.0
 40
13.77916529745958
100
AcDbArc
 50
69.13593563608057
 51
110.8640643639194
  0
ARC
  5
34D
330
1B
100
AcDbEntity
  8
4
100
AcDbCircle
 10
1484.422857383478
 20
392.8167195143249
 30
0.0
 40
3.783613929059507
100
AcDbArc
 50
49.57010315516856
 51
130.4298968448315
  0
LINE
  5
34E
330
1B
100
AcDbEntity
  8
4
100
AcDbLine
 10
1501.59902789187
 20
395.6968064975314
 30
0.0
 11
1501.59902789187
 21
387.1003334433841
 31
0.0
  0
ARC
  5
34F
330
1B
100
AcDbEntity
  8
4
100
AcDbCircle
 10
1499.145289247813
 20
392.8167195143249
 30
0.0
 40
3.783613929059507
100
AcDbArc
 50
49.57010315517714
 51
130.4298968448228
  0
LINE
  5
350
330
1B
100
AcDbEntity
  8
4
100
AcDbLine
 10
1484.422857383478
 20
396.6003334433841
 30
0.0
 11
1499.145289247814
 21
396.6003334433841
 31
0.0
  0
LINE
  5
351
330
1B
100
AcDbEntity
  8
4
100
AcDbLine
 10
1501.59902789187
 20
389.6003334433841
 30
0.0
 11
1481.969118739422
 21
389.6003334433841
 31
0.0
  0
LINE
  5
352
330
1B
100
AcDbEntity
  8
4
100
AcDbLine
 10
1501.59902789187
 20
387.1003334433841
 30
0.0
 11
1481.969118739422
 21
387.1003334433841
 31
0.0
  0
LINE
  5
353
330
1B
100
AcDbEntity
  8
L-CENTER
 48
3.0
100
AcDbLine
 10
1491.784073315645
 20
365.4738109232406
 30
0.0
 11
1491.784073315645
 21
399.4683116979646
 31
0.0
  0
LINE
  5
354
330
1B
100
AcDbEntity
  8
4
100
AcDbLine
 10
1573.893000293654
 20
387.1003334433841
 30
0.0
 11
1593.522909446102
 21
387.1003334433841
 31
0.0
  0
LINE
  5
355
330
1B
100
AcDbEntity
  8
4
100
AcDbLine
 10
1573.893000293654
 20
389.6003334433841
 30
0.0
 11
1593.522909446102
 21
389.6003334433841
 31
0.0
  0
ARC
  5
356
330
1B
100
AcDbEntity
  8
4
100
AcDbCircle
 10
1576.346738937711
 20
392.8167195143249
 30
0.0
 40
3.783613929059507
100
AcDbArc
 50
49.57010315517714
 51
130.4298968448228
  0
LINE
  5
357
330
1B
100
AcDbEntity
  8
4
100
AcDbLine
 10
1591.069170802046
 20
396.6003334433841
 30
0.0
 11
1576.34673893771
 21
396.6003334433841
 31
0.0
  0
ARC
  5
358
330
1B
100
AcDbEntity
  8
4
100
AcDbCircle
 10
1591.069170802046
 20
392.8167195143249
 30
0.0
 40
3.783613929059507
100
AcDbArc
 50
49.57010315516856
 51
130.4298968448315
  0
ARC
  5
359
330
1B
100
AcDbEntity
  8
4
100
AcDbCircle
 10
1583.707954869878
 20
382.821168145925
 30
0.0
 40
13.77916529745958
100
AcDbArc
 50
69.13593563608057
 51
110.8640643639194
  0
LINE
  5
35A
330
1B
100
AcDbEntity
  8
4
100
AcDbLine
 10
1588.61543215799
 20
395.6968064975314
 30
0.0
 11
1588.61543215799
 21
389.6003334433841
 31
0.0
  0
LINE
  5
35B
330
1B
100
AcDbEntity
  8
4
100
AcDbLine
 10
1578.800477581766
 20
395.6968064975314
 30
0.0
 11
1578.800477581766
 21
389.6003334433841
 31
0.0
  0
LINE
  5
35C
330
1B
100
AcDbEntity
  8
4
100
AcDbLine
 10
1593.522909446102
 20
387.1003334433841
 30
0.0
 11
1593.522909446102
 21
395.6968064975314
 31
0.0
  0
LINE
  5
35D
330
1B
100
AcDbEntity
  8
4
100
AcDbLine
 10
1573.893000293654
 20
395.6968064975314
 30
0.0
 11
1573.893000293654
 21
387.1003334433841
 31
0.0
  0
LINE
  5
35E
330
1B
100
AcDbEntity
  8
L-CENTER
 48
3.0
100
AcDbLine
 10
1583.707954869878
 20
365.4738109232406
 30
0.0
 11
1583.707954869878
 21
399.4683116979646
 31
0.0
  0
LINE
  5
35F
330
1B
100
AcDbEntity
  8
L-CENTER
 48
3.0
100
AcDbLine
 10
1326.579409108807
 20
383.8011733234882
 30
0.0
 11
1326.579409108807
 21
323.0039747137821
 31
0.0
  0
LINE
  5
360
330
1B
100
AcDbEntity
  8
4
100
AcDbLine
 10
1334.80665044476
 20
380.2003334433841
 30
0.0
 11
1318.352167772855
 21
380.2003334433841
 31
0.0
  0
ARC
  5
361
330
1B
100
AcDbEntity
  8
4
100
AcDbCircle
 10
1326.579409108807
 20
366.4045893082068
 30
0.0
 40
13.7957441351769
100
AcDbArc
 50
66.57340249137069
 51
113.4265975086273
  0
LINE
  5
362
330
1B
100
AcDbEntity
  8
4
100
AcDbLine
 10
1315.609753994205
 20
372.2003334433841
 30
0.0
 11
1337.54906422341
 21
372.2003334433841
 31
0.0
  0
LINE
  5
363
330
1B
100
AcDbEntity
  8
4
100
AcDbLine
 10
1315.609753994205
 20
369.2003334433841
 30
0.0
 11
1337.54906422341
 21
369.2003334433841
 31
0.0
  0
LINE
  5
364
330
1B
100
AcDbEntity
  8
4
100
AcDbLine
 10
1321.094581551506
 20
379.0631525327574
 30
0.0
 11
1321.094581551506
 21
372.2003334433841
 31
0.0
  0
LINE
  5
365
330
1B
100
AcDbEntity
  8
4
100
AcDbLine
 10
1315.609753994205
 20
379.0631525327574
 30
0.0
 11
1315.609753994205
 21
369.2003334433841
 31
0.0
  0
ARC
  5
366
330
1B
100
AcDbEntity
  8
4
100
AcDbCircle
 10
1318.352167772855
 20
376.3249545681049
 30
0.0
 40
3.875378875279244
100
AcDbArc
 50
44.95592676273687
 51
135.044073237253
  0
LINE
  5
367
330
1B
100
AcDbEntity
  8
4
100
AcDbLine
 10
1337.54906422341
 20
369.2003334433841
 30
0.0
 11
1337.54906422341
 21
379.0631525327574
 31
0.0
  0
LINE
  5
368
330
1B
100
AcDbEntity
  8
4
100
AcDbLine
 10
1332.064236666109
 20
379.0631525327574
 30
0.0
 11
1332.064236666109
 21
372.2003334433841
 31
0.0
  0
ARC
  5
369
330
1B
100
AcDbEntity
  8
4
100
AcDbCircle
 10
1334.80665044476
 20
376.3249545681049
 30
0.0
 40
3.875378875279264
100
AcDbArc
 50
44.95592676274698
 51
135.0440732372625
  0
ARC
  5
36A
330
1B
100
AcDbEntity
  8
4
100
AcDbCircle
 10
1559.973255428714
 20
376.3249545681049
 30
0.0
 40
3.875378875279264
100
AcDbArc
 50
44.95592676274638
 51
135.0440732372536
  0
LINE
  5
36B
330
1B
100
AcDbEntity
  8
4
100
AcDbLine
 10
1557.230841650063
 20
379.0631525327574
 30
0.0
 11
1557.230841650063
 21
372.2003334433841
 31
0.0
  0
LINE
  5
36C
330
1B
100
AcDbEntity
  8
4
100
AcDbLine
 10
1562.715669207364
 20
369.2003334433841
 30
0.0
 11
1562.715669207364
 21
379.0631525327574
 31
0.0
  0
ARC
  5
36D
330
1B
100
AcDbEntity
  8
4
100
AcDbCircle
 10
1543.51877275681
 20
376.3249545681049
 30
0.0
 40
3.875378875279244
100
AcDbArc
 50
44.95592676274579
 51
135.0440732372542
  0
LINE
  5
36E
330
1B
100
AcDbEntity
  8
4
100
AcDbLine
 10
1540.776358978159
 20
379.0631525327574
 30
0.0
 11
1540.776358978159
 21
369.2003334433841
 31
0.0
  0
LINE
  5
36F
330
1B
100
AcDbEntity
  8
4
100
AcDbLine
 10
1546.26118653546
 20
379.0631525327574
 30
0.0
 11
1546.26118653546
 21
372.2003334433841
 31
0.0
  0
LINE
  5
370
330
1B
100
AcDbEntity
  8
4
100
AcDbLine
 10
1540.776358978159
 20
369.2003334433841
 30
0.0
 11
1562.715669207364
 21
369.2003334433841
 31
0.0
  0
LINE
  5
371
330
1B
100
AcDbEntity
  8
4
100
AcDbLine
 10
1540.776358978159
 20
372.2003334433841
 30
0.0
 11
1562.715669207364
 21
372.2003334433841
 31
0.0
  0
ARC
  5
372
330
1B
100
AcDbEntity
  8
4
100
AcDbCircle
 10
1551.746014092762
 20
366.4045893082068
 30
0.0
 40
13.7957441351769
100
AcDbArc
 50
66.57340249137069
 51
113.4265975086293
  0
LINE
  5
373
330
1B
100
AcDbEntity
  8
4
100
AcDbLine
 10
1559.973255428714
 20
380.2003334433841
 30
0.0
 11
1543.51877275681
 21
380.2003334433841
 31
0.0
  0
ARC
  5
374
330
1B
100
AcDbEntity
  8
4
100
AcDbCircle
 10
1768.685377740768
 20
376.3249545680437
 30
0.0
 40
3.875378875279264
100
AcDbArc
 50
44.95592676273687
 51
135.0440732372435
  0
LINE
  5
375
330
1B
100
AcDbEntity
  8
4
100
AcDbLine
 10
1771.427791519419
 20
379.0631525326954
 30
0.0
 11
1771.427791519417
 21
372.2003334433222
 31
0.0
  0
LINE
  5
376
330
1B
100
AcDbEntity
  8
4
100
AcDbLine
 10
1765.942963962115
 20
369.2003334433236
 30
0.0
 11
1765.942963962118
 21
379.0631525326969
 31
0.0
  0
LINE
  5
377
330
1B
100
AcDbEntity
  8
4
100
AcDbLine
 10
1782.397446634022
 20
379.0631525326924
 30
0.0
 11
1782.39744663402
 21
372.2003334433191
 31
0.0
  0
ARC
  5
378
330
1B
100
AcDbEntity
  8
4
100
AcDbCircle
 10
1776.912619076717
 20
366.4045893081433
 30
0.0
 40
13.7957441351769
100
AcDbArc
 50
66.57340249135629
 51
113.4265975086108
  0
LINE
  5
379
330
1B
100
AcDbEntity
  8
4
100
AcDbLine
 10
1768.685377740769
 20
380.200333443323
 30
0.0
 11
1785.139860412673
 21
380.2003334433183
 31
0.0
  0
ARC
  5
37A
330
1B
100
AcDbEntity
  8
4
100
AcDbCircle
 10
1785.139860412672
 20
376.3249545680391
 30
0.0
 40
3.875378875279244
100
AcDbArc
 50
44.95592676272677
 51
135.0440732372346
  0
LINE
  5
37B
330
1B
100
AcDbEntity
  8
4
100
AcDbLine
 10
1787.882274191323
 20
379.0631525326908
 30
0.0
 11
1787.88227419132
 21
369.2003334433175
 31
0.0
  0
LINE
  5
37C
330
1B
100
AcDbEntity
  8
4
100
AcDbLine
 10
1787.88227419132
 20
369.2003334433175
 30
0.0
 11
1765.942963962115
 21
369.2003334433236
 31
0.0
  0
LINE
  5
37D
330
1B
100
AcDbEntity
  8
L-CENTER
 48
3.0
100
AcDbLine
 10
1776.912619076722
 20
383.8011733234247
 30
0.0
 11
1776.912619076704
 21
323.0039747137821
 31
0.0
  0
LINE
  5
37E
330
1B
100
AcDbEntity
  8
4
100
AcDbLine
 10
312.2942689324351
 20
253.5118484450628
 30
0.0
 11
320.8907419865824
 21
253.5118484450628
 31
0.0
  0
LINE
  5
37F
330
1B
100
AcDbEntity
  8
4
100
AcDbLine
 10
320.8907419865824
 20
273.1417575975103
 30
0.0
 11
312.2942689324351
 21
273.1417575975103
 31
0.0
  0
LINE
  5
380
330
1B
100
AcDbEntity
  8
4
100
AcDbLine
 10
318.3907419865824
 20
253.5118484450628
 30
0.0
 11
318.3907419865824
 21
273.1417575975103
 31
0.0
  0
ARC
  5
381
330
1B
100
AcDbEntity
  8
4
100
AcDbCircle
 10
315.1743559156417
 20
270.6880189534542
 30
0.0
 40
3.783613929059507
100
AcDbArc
 50
139.5701031551704
 51
220.4298968448296
  0
ARC
  5
382
330
1B
100
AcDbEntity
  8
4
100
AcDbCircle
 10
325.1699072840416
 20
263.3268030212868
 30
0.0
 40
13.77916529745958
100
AcDbArc
 50
159.1359356360801
 51
200.8640643639199
  0
LINE
  5
383
330
1B
100
AcDbEntity
  8
4
100
AcDbLine
 10
311.3907419865824
 20
270.6880189534542
 30
0.0
 11
311.3907419865824
 21
255.9655870891189
 31
0.0
  0
ARC
  5
384
330
1B
100
AcDbEntity
  8
4
100
AcDbCircle
 10
315.1743559156417
 20
255.9655870891189
 30
0.0
 40
3.783613929059507
100
AcDbArc
 50
139.5701031551704
 51
220.4298968448296
  0
LINE
  5
385
330
1B
100
AcDbEntity
  8
4
100
AcDbLine
 10
312.2942689324351
 20
268.2342803093985
 30
0.0
 11
318.3907419865824
 21
268.2342803093985
 31
0.0
  0
LINE
  5
386
330
1B
100
AcDbEntity
  8
4
100
AcDbLine
 10
312.2942689324351
 20
258.4193257331746
 30
0.0
 11
318.3907419865824
 21
258.4193257331746
 31
0.0
  0
LINE
  5
387
330
1B
100
AcDbEntity
  8
4
100
AcDbLine
 10
320.8907419865824
 20
253.5118484450628
 30
0.0
 11
320.8907419865824
 21
273.1417575975103
 31
0.0
  0
CIRCLE
  5
388
330
1B
100
AcDbEntity
  8
4
100
AcDbCircle
 10
1670.319669928372
 20
263.3268030212867
 30
0.0
 40
8.5
  0
LINE
  5
389
330
1B
100
AcDbEntity
  8
4
100
AcDbLine
 10
1660.839151819343
 20
265.8671001924295
 30
0.0
 11
1663.379448990486
 21
256.3865820834008
 31
0.0
  0
LINE
  5
38A
330
1B
100
AcDbEntity
  8
4
100
AcDbLine
 10
1679.8001880374
 20
260.7865058501434
 30
0.0
 11
1677.259890866258
 21
270.2670239591723
 31
0.0
  0
LINE
  5
38B
330
1B
100
AcDbEntity
  8
4
100
AcDbLine
 10
1663.379448990486
 20
256.3865820834008
 30
0.0
 11
1672.859967099515
 21
253.8462849122579
 31
0.0
  0
LINE
  5
38C
330
1B
100
AcDbEntity
  8
4
100
AcDbLine
 10
1672.859967099515
 20
253.8462849122579
 30
0.0
 11
1679.8001880374
 21
260.7865058501434
 31
0.0
  0
LINE
  5
38D
330
1B
100
AcDbEntity
  8
4
100
AcDbLine
 10
1677.259890866258
 20
270.2670239591723
 30
0.0
 11
1667.779372757229
 21
272.8073211303149
 31
0.0
  0
LINE
  5
38E
330
1B
100
AcDbEntity
  8
4
100
AcDbLine
 10
1667.779372757229
 20
272.8073211303149
 30
0.0
 11
1660.839151819343
 21
265.8671001924295
 31
0.0
  0
CIRCLE
  5
38F
330
1B
100
AcDbEntity
  8
4
100
AcDbCircle
 10
1755.172420963955
 20
263.3267403145768
 30
0.0
 40
8.5
  0
LINE
  5
390
330
1B
100
AcDbEntity
  8
4
100
AcDbLine
 10
1745.691902854926
 20
265.8670374857196
 30
0.0
 11
1748.232200026069
 21
256.3865193766909
 31
0.0
  0
LINE
  5
391
330
1B
100
AcDbEntity
  8
4
100
AcDbLine
 10
1764.652939072984
 20
260.7864431434335
 30
0.0
 11
1762.112641901841
 21
270.2669612524625
 31
0.0
  0
LINE
  5
392
330
1B
100
AcDbEntity
  8
4
100
AcDbLine
 10
1748.232200026069
 20
256.3865193766909
 30
0.0
 11
1757.712718135098
 21
253.8462222055481
 31
0.0
  0
LINE
  5
393
330
1B
100
AcDbEntity
  8
4
100
AcDbLine
 10
1757.712718135098
 20
253.8462222055481
 30
0.0
 11
1764.652939072984
 21
260.7864431434335
 31
0.0
  0
LINE
  5
394
330
1B
100
AcDbEntity
  8
4
100
AcDbLine
 10
1762.112641901841
 20
270.2669612524625
 30
0.0
 11
1752.632123792812
 21
272.807258423605
 31
0.0
  0
LINE
  5
395
330
1B
100
AcDbEntity
  8
4
100
AcDbLine
 10
1752.632123792812
 20
272.807258423605
 30
0.0
 11
1745.691902854926
 21
265.8670374857196
 31
0.0
  0
CIRCLE
  5
396
330
1B
100
AcDbEntity
  8
4
100
AcDbCircle
 10
1670.319729721747
 20
178.4738040723679
 30
0.0
 40
8.5
  0
LINE
  5
397
330
1B
100
AcDbEntity
  8
4
100
AcDbLine
 10
1660.839211612718
 20
181.0141012435107
 30
0.0
 11
1663.379508783861
 21
171.533583134482
 31
0.0
  0
LINE
  5
398
330
1B
100
AcDbEntity
  8
4
100
AcDbLine
 10
1679.800247830775
 20
175.9335069012246
 30
0.0
 11
1677.259950659632
 21
185.4140250102536
 31
0.0
  0
LINE
  5
399
330
1B
100
AcDbEntity
  8
4
100
AcDbLine
 10
1663.379508783861
 20
171.533583134482
 30
0.0
 11
1672.860026892889
 21
168.9932859633392
 31
0.0
  0
LINE
  5
39A
330
1B
100
AcDbEntity
  8
4
100
AcDbLine
 10
1672.860026892889
 20
168.9932859633392
 30
0.0
 11
1679.800247830775
 21
175.9335069012246
 31
0.0
  0
LINE
  5
39B
330
1B
100
AcDbEntity
  8
4
100
AcDbLine
 10
1677.259950659632
 20
185.4140250102536
 30
0.0
 11
1667.779432550604
 21
187.9543221813962
 31
0.0
  0
LINE
  5
39C
330
1B
100
AcDbEntity
  8
4
100
AcDbLine
 10
1667.779432550604
 20
187.9543221813962
 30
0.0
 11
1660.839211612718
 21
181.0141012435107
 31
0.0
  0
CIRCLE
  5
39D
330
1B
100
AcDbEntity
  8
4
100
AcDbCircle
 10
1755.172366808165
 20
178.4738724164707
 30
0.0
 40
8.5
  0
LINE
  5
39E
330
1B
100
AcDbEntity
  8
4
100
AcDbLine
 10
1745.691848699137
 20
181.0141695876135
 30
0.0
 11
1748.23214587028
 21
171.5336514785848
 31
0.0
  0
LINE
  5
39F
330
1B
100
AcDbEntity
  8
4
100
AcDbLine
 10
1764.652884917194
 20
175.9335752453275
 30
0.0
 11
1762.112587746051
 21
185.4140933543564
 31
0.0
  0
LINE
  5
3A0
330
1B
100
AcDbEntity
  8
4
100
AcDbLine
 10
1748.23214587028
 20
171.5336514785848
 30
0.0
 11
1757.712663979308
 21
168.993354307442
 31
0.0
  0
LINE
  5
3A1
330
1B
100
AcDbEntity
  8
4
100
AcDbLine
 10
1757.712663979308
 20
168.993354307442
 30
0.0
 11
1764.652884917194
 21
175.9335752453275
 31
0.0
  0
LINE
  5
3A2
330
1B
100
AcDbEntity
  8
4
100
AcDbLine
 10
1762.112587746051
 20
185.4140933543564
 30
0.0
 11
1752.632069637023
 21
187.954390525499
 31
0.0
  0
LINE
  5
3A3
330
1B
100
AcDbEntity
  8
4
100
AcDbLine
 10
1752.632069637023
 20
187.954390525499
 30
0.0
 11
1745.691848699137
 21
181.0141695876135
 31
0.0
  0
LINE
  5
3A4
330
1B
100
AcDbEntity
  8
4
100
AcDbLine
 10
320.8907419865819
 20
168.6589092892584
 30
0.0
 11
312.2942689324346
 21
168.6589092892586
 31
0.0
  0
LINE
  5
3A5
330
1B
100
AcDbEntity
  8
4
100
AcDbLine
 10
312.2942689324346
 20
188.2888184417061
 30
0.0
 11
320.8907419865819
 21
188.2888184417059
 31
0.0
  0
LINE
  5
3A6
330
1B
100
AcDbEntity
  8
4
100
AcDbLine
 10
312.2942689324346
 20
183.3813411535943
 30
0.0
 11
318.3907419865819
 21
183.3813411535942
 31
0.0
  0
LINE
  5
3A7
330
1B
100
AcDbEntity
  8
4
100
AcDbLine
 10
312.2942689324346
 20
173.5663865773704
 30
0.0
 11
318.3907419865819
 21
173.5663865773703
 31
0.0
  0
ARC
  5
3A8
330
1B
100
AcDbEntity
  8
4
100
AcDbCircle
 10
315.1743559156413
 20
185.8350797976499
 30
0.0
 40
3.783613929059507
100
AcDbArc
 50
139.5701031551704
 51
220.4298968448296
  0
LINE
  5
3A9
330
1B
100
AcDbEntity
  8
4
100
AcDbLine
 10
311.3907419865819
 20
171.1126479333147
 30
0.0
 11
311.3907419865819
 21
185.83507979765
 31
0.0
  0
ARC
  5
3AA
330
1B
100
AcDbEntity
  8
4
100
AcDbCircle
 10
325.1699072840412
 20
178.4738638654819
 30
0.0
 40
13.77916529745958
100
AcDbArc
 50
159.1359356360786
 51
200.8640643639189
  0
ARC
  5
3AB
330
1B
100
AcDbEntity
  8
4
100
AcDbCircle
 10
315.1743559156413
 20
171.1126479333146
 30
0.0
 40
3.783613929059507
100
AcDbArc
 50
139.5701031551704
 51
220.4298968448228
  0
LINE
  5
3AC
330
1B
100
AcDbEntity
  8
4
100
AcDbLine
 10
318.3907419865819
 20
188.288818441706
 30
0.0
 11
318.3907419865819
 21
168.6589092892585
 31
0.0
  0
LINE
  5
3AD
330
1B
100
AcDbEntity
  8
4
100
AcDbLine
 10
320.8907419865819
 20
188.2888184417059
 30
0.0
 11
320.8907419865819
 21
168.6589092892584
 31
0.0
  0
LINE
  5
3AE
330
1B
100
AcDbEntity
  8
4
100
AcDbLine
 10
930.6907419865828
 20
273.1417575975074
 30
0.0
 11
939.2872150407301
 21
273.1417575975073
 31
0.0
  0
LINE
  5
3AF
330
1B
100
AcDbEntity
  8
4
100
AcDbLine
 10
939.2872150407296
 20
253.5118484450599
 30
0.0
 11
930.6907419865823
 21
253.51184844506
 31
0.0
  0
LINE
  5
3B0
330
1B
100
AcDbEntity
  8
4
100
AcDbLine
 10
939.2872150407296
 20
258.4193257331716
 30
0.0
 11
933.1907419865823
 21
258.4193257331716
 31
0.0
  0
LINE
  5
3B1
330
1B
100
AcDbEntity
  8
4
100
AcDbLine
 10
939.2872150407296
 20
268.2342803093956
 30
0.0
 11
933.1907419865823
 21
268.2342803093956
 31
0.0
  0
ARC
  5
3B2
330
1B
100
AcDbEntity
  8
4
100
AcDbCircle
 10
936.407128057523
 20
255.965587089116
 30
0.0
 40
3.783613929059507
100
AcDbArc
 50
319.5701031551772
 51
40.42989684482285
  0
LINE
  5
3B3
330
1B
100
AcDbEntity
  8
4
100
AcDbLine
 10
940.1907419865823
 20
270.6880189534512
 30
0.0
 11
940.1907419865823
 21
255.965587089116
 31
0.0
  0
ARC
  5
3B4
330
1B
100
AcDbEntity
  8
4
100
AcDbCircle
 10
926.4115766891231
 20
263.3268030212839
 30
0.0
 40
13.77916529745958
100
AcDbArc
 50
339.1359356360801
 51
20.86406436391942
  0
ARC
  5
3B5
330
1B
100
AcDbEntity
  8
4
100
AcDbCircle
 10
936.407128057523
 20
270.6880189534512
 30
0.0
 40
3.783613929059507
100
AcDbArc
 50
319.5701031551772
 51
40.42989684482285
  0
LINE
  5
3B6
330
1B
100
AcDbEntity
  8
4
100
AcDbLine
 10
933.1907419865823
 20
253.5118484450599
 30
0.0
 11
933.1907419865828
 21
273.1417575975073
 31
0.0
  0
LINE
  5
3B7
330
1B
100
AcDbEntity
  8
4
100
AcDbLine
 10
930.6907419865823
 20
188.288818441703
 30
0.0
 11
930.6907419865823
 21
168.6589092892556
 31
0.0
  0
LINE
  5
3B8
330
1B
100
AcDbEntity
  8
4
100
AcDbLine
 10
933.1907419865823
 20
188.288818441703
 30
0.0
 11
933.1907419865823
 21
168.6589092892556
 31
0.0
  0
ARC
  5
3B9
330
1B
100
AcDbEntity
  8
4
100
AcDbCircle
 10
936.407128057523
 20
171.1126479333117
 30
0.0
 40
3.783613929059507
100
AcDbArc
 50
319.5701031551772
 51
40.42989684482285
  0
ARC
  5
3BA
330
1B
100
AcDbEntity
  8
4
100
AcDbCircle
 10
926.4115766891231
 20
178.4738638654791
 30
0.0
 40
13.77916529745958
100
AcDbArc
 50
339.1359356360805
 51
20.86406436391987
  0
LINE
  5
3BB
330
1B
100
AcDbEntity
  8
4
100
AcDbLine
 10
940.1907419865823
 20
171.1126479333118
 30
0.0
 11
940.1907419865823
 21
185.835079797647
 31
0.0
  0
ARC
  5
3BC
330
1B
100
AcDbEntity
  8
4
100
AcDbCircle
 10
936.407128057523
 20
185.8350797976469
 30
0.0
 40
3.783613929059507
100
AcDbArc
 50
319.5701031551699
 51
40.42989684483014
  0
LINE
  5
3BD
330
1B
100
AcDbEntity
  8
4
100
AcDbLine
 10
939.2872150407296
 20
173.5663865773674
 30
0.0
 11
933.1907419865823
 21
173.5663865773673
 31
0.0
  0
LINE
  5
3BE
330
1B
100
AcDbEntity
  8
4
100
AcDbLine
 10
939.2872150407296
 20
183.3813411535914
 30
0.0
 11
933.1907419865823
 21
183.3813411535913
 31
0.0
  0
LINE
  5
3BF
330
1B
100
AcDbEntity
  8
4
100
AcDbLine
 10
939.2872150407296
 20
188.2888184417031
 30
0.0
 11
930.6907419865823
 21
188.288818441703
 31
0.0
  0
LINE
  5
3C0
330
1B
100
AcDbEntity
  8
4
100
AcDbLine
 10
930.6907419865823
 20
168.6589092892556
 30
0.0
 11
939.2872150407296
 21
168.6589092892557
 31
0.0
  0
LINE
  5
3C1
330
1B
100
AcDbEntity
  8
4
100
AcDbLine
 10
930.6907419865823
 20
1217.88874317471
 30
0.0
 11
939.2872150407296
 21
1217.88874317471
 31
0.0
  0
LINE
  5
3C2
330
1B
100
AcDbEntity
  8
4
100
AcDbLine
 10
939.2872150407292
 20
1237.518652327157
 30
0.0
 11
930.6907419865819
 21
1237.518652327157
 31
0.0
  0
LINE
  5
3C3
330
1B
100
AcDbEntity
  8
4
100
AcDbLine
 10
939.2872150407292
 20
1232.611175039045
 30
0.0
 11
933.1907419865819
 21
1232.611175039045
 31
0.0
  0
LINE
  5
3C4
330
1B
100
AcDbEntity
  8
4
100
AcDbLine
 10
939.2872150407296
 20
1222.796220462822
 30
0.0
 11
933.1907419865823
 21
1222.796220462822
 31
0.0
  0
ARC
  5
3C5
330
1B
100
AcDbEntity
  8
4
100
AcDbCircle
 10
936.4071280575225
 20
1235.064913683101
 30
0.0
 40
3.783613929059507
100
AcDbArc
 50
319.5701031551686
 51
40.42989684482285
  0
LINE
  5
3C6
330
1B
100
AcDbEntity
  8
4
100
AcDbLine
 10
940.1907419865823
 20
1220.342481818766
 30
0.0
 11
940.1907419865819
 21
1235.064913683101
 31
0.0
  0
ARC
  5
3C7
330
1B
100
AcDbEntity
  8
4
100
AcDbCircle
 10
926.4115766891226
 20
1227.703697750933
 30
0.0
 40
13.77916529745958
100
AcDbArc
 50
339.1359356360825
 51
20.86406436392153
  0
ARC
  5
3C8
330
1B
100
AcDbEntity
  8
4
100
AcDbCircle
 10
936.407128057523
 20
1220.342481818766
 30
0.0
 40
3.783613929059507
100
AcDbArc
 50
319.5701031551772
 51
40.42989684483145
  0
LINE
  5
3C9
330
1B
100
AcDbEntity
  8
4
100
AcDbLine
 10
933.1907419865819
 20
1237.518652327157
 30
0.0
 11
933.1907419865823
 21
1217.88874317471
 31
0.0
  0
LINE
  5
3CA
330
1B
100
AcDbEntity
  8
4
100
AcDbLine
 10
930.6907419865819
 20
1237.518652327157
 30
0.0
 11
930.6907419865823
 21
1217.88874317471
 31
0.0
  0
LINE
  5
3CB
330
1B
100
AcDbEntity
  8
4
100
AcDbLine
 10
930.6907419865823
 20
1239.130167328838
 30
0.0
 11
931.6907419865823
 21
1239.130167328838
 31
0.0
  0
LINE
  5
3CC
330
1B
100
AcDbEntity
  8
4
100
AcDbLine
 10
931.6907419865823
 20
1239.130167328838
 30
0.0
 11
931.6907419865823
 21
1301.130167328838
 31
0.0
  0
LINE
  5
3CD
330
1B
100
AcDbEntity
  8
4
100
AcDbLine
 10
930.6907419865823
 20
1301.130167328838
 30
0.0
 11
931.6907419865823
 21
1301.130167328838
 31
0.0
  0
LINE
  5
3CE
330
1B
100
AcDbEntity
  8
4
100
AcDbLine
 10
930.6907419865823
 20
1302.741682330514
 30
0.0
 11
930.6907419865823
 21
1322.371591482962
 31
0.0
  0
LINE
  5
3CF
330
1B
100
AcDbEntity
  8
4
100
AcDbLine
 10
933.1907419865823
 20
1302.741682330514
 30
0.0
 11
933.1907419865823
 21
1322.371591482962
 31
0.0
  0
ARC
  5
3D0
330
1B
100
AcDbEntity
  8
4
100
AcDbCircle
 10
936.407128057523
 20
1319.917852838905
 30
0.0
 40
3.783613929059507
100
AcDbArc
 50
319.5701031551686
 51
40.42989684483145
  0
ARC
  5
3D1
330
1B
100
AcDbEntity
  8
4
100
AcDbCircle
 10
926.4115766891231
 20
1312.556636906738
 30
0.0
 40
13.77916529745958
100
AcDbArc
 50
339.1359356360825
 51
20.86406436392153
  0
LINE
  5
3D2
330
1B
100
AcDbEntity
  8
4
100
AcDbLine
 10
940.1907419865823
 20
1319.917852838905
 30
0.0
 11
940.1907419865823
 21
1305.19542097457
 31
0.0
  0
ARC
  5
3D3
330
1B
100
AcDbEntity
  8
4
100
AcDbCircle
 10
936.407128057523
 20
1305.19542097457
 30
0.0
 40
3.783613929059507
100
AcDbArc
 50
319.5701031551686
 51
40.42989684483145
  0
LINE
  5
3D4
330
1B
100
AcDbEntity
  8
4
100
AcDbLine
 10
939.2872150407296
 20
1317.464114194849
 30
0.0
 11
933.1907419865823
 21
1317.464114194849
 31
0.0
  0
LINE
  5
3D5
330
1B
100
AcDbEntity
  8
4
100
AcDbLine
 10
939.2872150407296
 20
1307.649159618626
 30
0.0
 11
933.1907419865823
 21
1307.649159618626
 31
0.0
  0
LINE
  5
3D6
330
1B
100
AcDbEntity
  8
4
100
AcDbLine
 10
939.2872150407296
 20
1302.741682330514
 30
0.0
 11
930.6907419865823
 21
1302.741682330514
 31
0.0
  0
LINE
  5
3D7
330
1B
100
AcDbEntity
  8
4
100
AcDbLine
 10
930.6907419865823
 20
1322.371591482962
 30
0.0
 11
939.2872150407296
 21
1322.371591482962
 31
0.0
  0
LINE
  5
3D8
330
1B
100
AcDbEntity
  8
4
100
AcDbLine
 10
320.8907419865824
 20
1332.630167328839
 30
0.0
 11
320.8907419865824
 21
1207.630167328838
 31
0.0
  0
LINE
  5
3D9
330
1B
100
AcDbEntity
  8
4
100
AcDbLine
 10
320.8907419865819
 20
1237.51865232716
 30
0.0
 11
320.8907419865815
 21
1217.888743174712
 31
0.0
  0
LINE
  5
3DA
330
1B
100
AcDbEntity
  8
4
100
AcDbLine
 10
318.3907419865819
 20
1237.51865232716
 30
0.0
 11
318.3907419865815
 21
1217.888743174712
 31
0.0
  0
ARC
  5
3DB
330
1B
100
AcDbEntity
  8
4
100
AcDbCircle
 10
315.1743559156408
 20
1220.342481818768
 30
0.0
 40
3.783613929059507
100
AcDbArc
 50
139.5701031551685
 51
220.4298968448228
  0
ARC
  5
3DC
330
1B
100
AcDbEntity
  8
4
100
AcDbCircle
 10
325.1699072840407
 20
1227.703697750936
 30
0.0
 40
13.77916529745958
100
AcDbArc
 50
159.1359356360786
 51
200.8640643639174
  0
LINE
  5
3DD
330
1B
100
AcDbEntity
  8
4
100
AcDbLine
 10
311.3907419865815
 20
1220.342481818769
 30
0.0
 11
311.3907419865815
 21
1235.064913683104
 31
0.0
  0
ARC
  5
3DE
330
1B
100
AcDbEntity
  8
4
100
AcDbCircle
 10
315.1743559156408
 20
1235.064913683104
 30
0.0
 40
3.783613929059507
100
AcDbArc
 50
139.5701031551772
 51
220.4298968448315
  0
LINE
  5
3DF
330
1B
100
AcDbEntity
  8
4
100
AcDbLine
 10
312.2942689324342
 20
1222.796220462825
 30
0.0
 11
318.3907419865815
 21
1222.796220462825
 31
0.0
  0
LINE
  5
3E0
330
1B
100
AcDbEntity
  8
4
100
AcDbLine
 10
312.2942689324342
 20
1232.611175039048
 30
0.0
 11
318.3907419865815
 21
1232.611175039048
 31
0.0
  0
LINE
  5
3E1
330
1B
100
AcDbEntity
  8
4
100
AcDbLine
 10
312.2942689324346
 20
1237.51865232716
 30
0.0
 11
320.8907419865819
 21
1237.51865232716
 31
0.0
  0
LINE
  5
3E2
330
1B
100
AcDbEntity
  8
4
100
AcDbLine
 10
320.8907419865815
 20
1217.888743174712
 30
0.0
 11
312.2942689324342
 21
1217.888743174713
 31
0.0
  0
LINE
  5
3E3
330
1B
100
AcDbEntity
  8
4
100
AcDbLine
 10
312.2942689324351
 20
1302.741682330517
 30
0.0
 11
320.8907419865824
 21
1302.741682330517
 31
0.0
  0
LINE
  5
3E4
330
1B
100
AcDbEntity
  8
4
100
AcDbLine
 10
312.2942689324351
 20
1307.649159618629
 30
0.0
 11
318.3907419865824
 21
1307.649159618629
 31
0.0
  0
ARC
  5
3E5
330
1B
100
AcDbEntity
  8
4
100
AcDbCircle
 10
315.1743559156417
 20
1305.195420974573
 30
0.0
 40
3.783613929059507
100
AcDbArc
 50
139.5701031551772
 51
220.4298968448228
  0
LINE
  5
3E6
330
1B
100
AcDbEntity
  8
4
100
AcDbLine
 10
311.3907419865824
 20
1319.917852838908
 30
0.0
 11
311.3907419865824
 21
1305.195420974573
 31
0.0
  0
ARC
  5
3E7
330
1B
100
AcDbEntity
  8
4
100
AcDbCircle
 10
325.1699072840416
 20
1312.556636906741
 30
0.0
 40
13.77916529745958
100
AcDbArc
 50
159.1359356360786
 51
200.8640643639174
  0
LINE
  5
3E8
330
1B
100
AcDbEntity
  8
4
100
AcDbLine
 10
318.3907419865824
 20
1302.741682330517
 30
0.0
 11
318.3907419865824
 21
1322.371591482964
 31
0.0
  0
LINE
  5
3E9
330
1B
100
AcDbEntity
  8
4
100
AcDbLine
 10
320.8907419865824
 20
1302.741682330517
 30
0.0
 11
320.8907419865824
 21
1322.371591482964
 31
0.0
  0
LINE
  5
3EA
330
1B
100
AcDbEntity
  8
4
100
AcDbLine
 10
320.8907419865824
 20
1322.371591482964
 30
0.0
 11
312.2942689324351
 21
1322.371591482964
 31
0.0
  0
LINE
  5
3EB
330
1B
100
AcDbEntity
  8
4
100
AcDbLine
 10
312.2942689324351
 20
1317.464114194853
 30
0.0
 11
318.3907419865824
 21
1317.464114194853
 31
0.0
  0
ARC
  5
3EC
330
1B
100
AcDbEntity
  8
4
100
AcDbCircle
 10
315.1743559156417
 20
1319.917852838908
 30
0.0
 40
3.783613929059507
100
AcDbArc
 50
139.5701031551772
 51
220.4298968448228
  0
ARC
  5
3ED
330
1B
100
AcDbEntity
  8
4
100
AcDbCircle
 10
544.3775762951909
 20
1110.130167328838
 30
0.0
 40
38.000005
100
AcDbArc
 50
285.2575212340481
 51
254.7424800000002
  0
LINE
  5
3EE
330
1B
100
AcDbEntity
  8
4
100
AcDbLine
 10
534.3775762951909
 20
1079.130167328838
 30
0.0
 11
534.3775762951909
 21
1066.130367328838
 31
0.0
  0
LINE
  5
3EF
330
1B
100
AcDbEntity
  8
4
100
AcDbLine
 10
554.3775762951909
 20
1079.130167328838
 30
0.0
 11
554.3775762951909
 21
1066.130367328838
 31
0.0
  0
LINE
  5
3F0
330
1B
100
AcDbEntity
  8
4
100
AcDbLine
 10
534.3775762951909
 20
1066.130367328838
 30
0.0
 11
554.3775762951909
 21
1066.130367328838
 31
0.0
  0
LINE
  5
3F1
330
1B
100
AcDbEntity
  8
4
100
AcDbLine
 10
554.3775762951909
 20
1079.130167328838
 30
0.0
 11
534.3775762951909
 21
1079.130167328838
 31
0.0
  0
LINE
  5
3F2
330
1B
100
AcDbEntity
  8
4
100
AcDbLine
 10
945.7907419865824
 20
1252.130167328838
 30
0.0
 11
1023.790741986582
 21
1252.130167328838
 31
0.0
  0
LINE
  5
3F3
330
1B
100
AcDbEntity
  8
4
100
AcDbLine
 10
945.7907419865824
 20
1288.130167328838
 30
0.0
 11
1023.790741986582
 21
1288.130167328838
 31
0.0
  0
LINE
  5
3F4
330
1B
100
AcDbEntity
  8
4
100
AcDbLine
 10
954.7907419865824
 20
1275.130167328838
 30
0.0
 11
1024.790741986582
 21
1275.130167328838
 31
0.0
  0
LINE
  5
3F5
330
1B
100
AcDbEntity
  8
4
100
AcDbLine
 10
954.7907419865824
 20
1265.130167328838
 30
0.0
 11
1024.790741986582
 21
1265.130167328838
 31
0.0
  0
ARC
  5
3F6
330
1B
100
AcDbEntity
  8
4
100
AcDbCircle
 10
945.7907419865824
 20
1289.130167328838
 30
0.0
 40
1.0
100
AcDbArc
 50
180.0
 51
270.0
  0
ARC
  5
3F7
330
1B
100
AcDbEntity
  8
4
100
AcDbCircle
 10
954.7907419865824
 20
1270.130167328838
 30
0.0
 40
5.0
100
AcDbArc
 50
90.0
 51
270.0
  0
ARC
  5
3F8
330
1B
100
AcDbEntity
  8
4
100
AcDbCircle
 10
945.7907419865824
 20
1251.130167328838
 30
0.0
 40
1.0
100
AcDbArc
 50
90.0
 51
180.0
  0
LINE
  5
3F9
330
1B
100
AcDbEntity
  8
4
100
AcDbLine
 10
944.7907419865824
 20
1290.130167328838
 30
0.0
 11
944.7907419865824
 21
1250.130167328838
 31
0.0
  0
LINE
  5
3FA
330
1B
100
AcDbEntity
  8
4
100
AcDbLine
 10
1023.790741986582
 20
1288.130167328838
 30
0.0
 11
1023.790741986582
 21
1275.130167328838
 31
0.0
  0
LINE
  5
3FB
330
1B
100
AcDbEntity
  8
4
100
AcDbLine
 10
1023.790741986582
 20
1288.130167328838
 30
0.0
 11
1024.790741986582
 21
1287.130167328838
 31
0.0
  0
LINE
  5
3FC
330
1B
100
AcDbEntity
  8
4
100
AcDbLine
 10
1024.790741986582
 20
1253.130167328838
 30
0.0
 11
1023.790741986582
 21
1252.130167328838
 31
0.0
  0
LINE
  5
3FD
330
1B
100
AcDbEntity
  8
4
100
AcDbLine
 10
1024.790741986582
 20
1287.130167328838
 30
0.0
 11
1024.790741986582
 21
1253.130167328838
 31
0.0
  0
LINE
  5
3FE
330
1B
100
AcDbEntity
  8
4
100
AcDbLine
 10
1023.790741986582
 20
1265.130167328838
 30
0.0
 11
1023.790741986582
 21
1252.130167328837
 31
0.0
  0
LINE
  5
3FF
330
1B
100
AcDbEntity
  8
4
100
AcDbLine
 10
931.6907419865823
 20
1290.130167328838
 30
0.0
 11
944.7907419865824
 21
1290.130167328838
 31
0.0
  0
LINE
  5
400
330
1B
100
AcDbEntity
  8
4
100
AcDbLine
 10
931.6907419865823
 20
1250.130167328838
 30
0.0
 11
944.7907419865824
 21
1250.130167328838
 31
0.0
  0
ARC
  5
401
330
1B
100
AcDbEntity
  8
4
100
AcDbCircle
 10
625.7907419865824
 20
917.8801673288378
 30
0.0
 40
6.25
100
AcDbArc
 50
0.0
 51
180.0
  0
ARC
  5
402
330
1B
100
AcDbEntity
  8
4
100
AcDbCircle
 10
625.7907419865824
 20
894.1301673288378
 30
0.0
 40
15.0
100
AcDbArc
 50
294.6243183521641
 51
65.37568164783595
  0
ARC
  5
403
330
1B
100
AcDbEntity
  8
4
100
AcDbCircle
 10
625.7907419865824
 20
894.1301673288378
 30
0.0
 40
13.5
100
AcDbArc
 50
297.5784679781231
 51
62.42153202187692
  0
ARC
  5
404
330
1B
100
AcDbEntity
  8
4
100
AcDbCircle
 10
625.7907419865824
 20
894.1301673288378
 30
0.0
 40
13.5
100
AcDbArc
 50
117.5784679781231
 51
242.4215320218774
  0
ARC
  5
405
330
1B
100
AcDbEntity
  8
4
100
AcDbCircle
 10
625.7907419865824
 20
894.1301673288378
 30
0.0
 40
15.0
100
AcDbArc
 50
114.6243183521641
 51
245.3756816478359
  0
ARC
  5
406
330
1B
100
AcDbEntity
  8
4
100
AcDbCircle
 10
625.7907419865824
 20
870.3801673288378
 30
0.0
 40
6.25
100
AcDbArc
 50
180.0
 51
0.0
  0
LINE
  5
407
330
1B
100
AcDbEntity
  8
4
100
AcDbLine
 10
619.5407419865824
 20
870.3801673288378
 30
0.0
 11
619.5407419865824
 21
917.8801673288378
 31
0.0
  0
LINE
  5
408
330
1B
100
AcDbEntity
  8
4
100
AcDbLine
 10
632.0407419865824
 20
870.3801673288378
 30
0.0
 11
632.0407419865824
 21
917.8801673288378
 31
0.0
  0
ARC
  5
409
330
1B
100
AcDbEntity
  8
4
100
AcDbCircle
 10
625.7907419865824
 20
1347.880167328838
 30
0.0
 40
6.25
100
AcDbArc
 50
0.0
 51
180.0
  0
ARC
  5
40A
330
1B
100
AcDbEntity
  8
4
100
AcDbCircle
 10
625.7907419865824
 20
1324.130167328838
 30
0.0
 40
15.0
100
AcDbArc
 50
294.6243183521642
 51
65.37568164783578
  0
ARC
  5
40B
330
1B
100
AcDbEntity
  8
4
100
AcDbCircle
 10
625.7907419865824
 20
1324.130167328838
 30
0.0
 40
13.5
100
AcDbArc
 50
297.5784679781224
 51
62.42153202187886
  0
ARC
  5
40C
330
1B
100
AcDbEntity
  8
4
100
AcDbCircle
 10
625.7907419865824
 20
1324.130167328838
 30
0.0
 40
13.5
100
AcDbArc
 50
117.5784679781212
 51
242.4215320218776
  0
ARC
  5
40D
330
1B
100
AcDbEntity
  8
4
100
AcDbCircle
 10
625.7907419865824
 20
1300.380167328838
 30
0.0
 40
6.25
100
AcDbArc
 50
180.0
 51
0.0
  0
LINE
  5
40E
330
1B
100
AcDbEntity
  8
4
100
AcDbLine
 10
619.5407419865824
 20
1300.380167328838
 30
0.0
 11
619.5407419865824
 21
1347.880167328838
 31
0.0
  0
LINE
  5
40F
330
1B
100
AcDbEntity
  8
4
100
AcDbLine
 10
632.0407419865824
 20
1300.380167328838
 30
0.0
 11
632.0407419865824
 21
1347.880167328838
 31
0.0
  0
ARC
  5
410
330
1B
100
AcDbEntity
  8
4
100
AcDbCircle
 10
625.7907419865824
 20
1324.130167328838
 30
0.0
 40
15.0
100
AcDbArc
 50
114.6243183521642
 51
245.3756816478357
  0
ARC
  5
411
330
1B
100
AcDbEntity
  8
4
100
AcDbCircle
 10
625.7907419865828
 20
1324.130167328838
 30
0.0
 40
24.0
100
AcDbArc
 50
105.0947870995443
 51
254.9052129004557
  0
ARC
  5
412
330
1B
100
AcDbEntity
  8
4
100
AcDbCircle
 10
625.7907419865824
 20
894.1301673288383
 30
0.0
 40
24.0
100
AcDbArc
 50
285.0947870995432
 51
74.90521290045679
  0
LINE
  5
413
330
1B
100
AcDbEntity
  8
4
100
AcDbLine
 10
641.3787419865826
 20
1408.130167328838
 30
0.0
 11
641.3787419865821
 21
1413.130167328838
 31
0.0
  0
LINE
  5
414
330
1B
100
AcDbEntity
  8
4
100
AcDbLine
 10
610.2027419865826
 20
1408.130167328838
 30
0.0
 11
610.2027419865826
 21
1413.130167328838
 31
0.0
  0
LINE
  5
415
330
1B
100
AcDbEntity
  8
4
100
AcDbLine
 10
642.7907419865824
 20
1406.130167328838
 30
0.0
 11
642.7907419865824
 21
1404.130167328838
 31
0.0
  0
LINE
  5
416
330
1B
100
AcDbEntity
  8
4
100
AcDbLine
 10
643.7907419865824
 20
1406.130167328838
 30
0.0
 11
643.7907419865828
 21
1408.130167328838
 31
0.0
  0
LINE
  5
417
330
1B
100
AcDbEntity
  8
4
100
AcDbLine
 10
610.2027419865826
 20
1413.130167328838
 30
0.0
 11
641.3787419865821
 21
1413.130167328838
 31
0.0
  0
LINE
  5
418
330
1B
100
AcDbEntity
  8
4
100
AcDbLine
 10
607.7907419865824
 20
1406.130167328838
 30
0.0
 11
607.7907419865824
 21
1408.130167328838
 31
0.0
  0
LINE
  5
419
330
1B
100
AcDbEntity
  8
4
100
AcDbLine
 10
607.7907419865824
 20
1408.130167328838
 30
0.0
 11
643.7907419865824
 21
1408.130167328838
 31
0.0
  0
LINE
  5
41A
330
1B
100
AcDbEntity
  8
4
100
AcDbLine
 10
607.7907419865824
 20
1406.130167328838
 30
0.0
 11
643.7907419865824
 21
1406.130167328838
 31
0.0
  0
LINE
  5
41B
330
1B
100
AcDbEntity
  8
4
100
AcDbLine
 10
608.7907419865824
 20
1406.130167328838
 30
0.0
 11
608.7907419865824
 21
1404.130167328838
 31
0.0
  0
LINE
  5
41C
330
1B
100
AcDbEntity
  8
L-CENTER
 48
3.0
100
AcDbLine
 10
585.7907419865815
 20
975.1301673288378
 30
0.0
 11
665.7907419865824
 21
975.1301673288378
 31
0.0
  0
CIRCLE
  5
41D
330
1B
100
AcDbEntity
  8
4
100
AcDbCircle
 10
625.7907419865828
 20
975.1301673288383
 30
0.0
 40
25.0
  0
CIRCLE
  5
41E
330
1B
100
AcDbEntity
  8
4
100
AcDbCircle
 10
625.7907419865824
 20
975.1301673288378
 30
0.0
 40
23.0
  0
LWPOLYLINE
  5
41F
330
1B
100
AcDbEntity
  8
4
100
AcDbPolyline
 90
        6
 70
     1
 43
0.0
 10
625.7907419865824
 20
998.1301673288378
 10
605.8721576995404
 20
986.6301673288378
 10
605.8721576995404
 20
963.6301673288378
 10
625.7907419865824
 20
952.1301673288378
 10
645.7093262736244
 20
963.6301673288378
 10
645.7093262736244
 20
986.6301673288378
  0
LINE
  5
420
330
1B
100
AcDbEntity
  8
4
100
AcDbLine
 10
1395.746014092762
 20
375.2003334433841
 30
0.0
 11
1439.746014092762
 21
375.2003334433841
 31
0.0
  0
LINE
  5
421
330
1B
100
AcDbEntity
  8
4
100
AcDbLine
 10
1394.746014092762
 20
377.2003334433841
 30
0.0
 11
1440.746014092762
 21
377.2003334433841
 31
0.0
  0
LINE
  5
422
330
1B
100
AcDbEntity
  8
4
100
AcDbLine
 10
1442.746014092762
 20
375.2003334433841
 30
0.0
 11
1392.746014092762
 21
375.2003334433841
 31
0.0
  0
LINE
  5
423
330
1B
100
AcDbEntity
  8
4
100
AcDbLine
 10
1394.746014092762
 20
381.2003334433844
 30
0.0
 11
1440.746014092762
 21
381.2003334433844
 31
0.0
  0
LINE
  5
424
330
1B
100
AcDbEntity
  8
4
100
AcDbLine
 10
1394.746014092762
 20
386.2003334433844
 30
0.0
 11
1440.746014092762
 21
386.2003334433844
 31
0.0
  0
LINE
  5
425
330
1B
100
AcDbEntity
  8
4
100
AcDbLine
 10
1406.246014092762
 20
381.2003334433844
 30
0.0
 11
1406.246014092762
 21
386.2003334433844
 31
0.0
  0
LINE
  5
426
330
1B
100
AcDbEntity
  8
4
100
AcDbLine
 10
1395.746014092762
 20
377.2003334433841
 30
0.0
 11
1395.746014092762
 21
375.2003334433841
 31
0.0
  0
LINE
  5
427
330
1B
100
AcDbEntity
  8
4
100
AcDbLine
 10
1392.746014092762
 20
375.2003334433841
 30
0.0
 11
1392.746014092762
 21
369.2003334433841
 31
0.0
  0
LINE
  5
428
330
1B
100
AcDbEntity
  8
4
100
AcDbLine
 10
1394.746014092762
 20
377.2003334433841
 30
0.0
 11
1394.746014092762
 21
386.2003334433844
 31
0.0
  0
LINE
  5
429
330
1B
100
AcDbEntity
  8
L-CENTER
 48
3.0
100
AcDbLine
 10
1417.746014092762
 20
394.5492134433841
 30
0.0
 11
1417.746014092762
 21
353.7384184433843
 31
0.0
  0
LINE
  5
42A
330
1B
100
AcDbEntity
  8
4
100
AcDbLine
 10
1439.746014092762
 20
377.2003334433841
 30
0.0
 11
1439.746014092762
 21
375.2003334433841
 31
0.0
  0
LINE
  5
42B
330
1B
100
AcDbEntity
  8
4
100
AcDbLine
 10
1442.746014092762
 20
375.2003334433841
 30
0.0
 11
1442.746014092762
 21
369.2003334433841
 31
0.0
  0
LINE
  5
42C
330
1B
100
AcDbEntity
  8
4
100
AcDbLine
 10
1440.746014092762
 20
377.2003334433841
 30
0.0
 11
1440.746014092762
 21
386.2003334433844
 31
0.0
  0
LINE
  5
42D
330
1B
100
AcDbEntity
  8
4
100
AcDbLine
 10
1429.246014092762
 20
381.2003334433844
 30
0.0
 11
1429.246014092762
 21
386.2003334433844
 31
0.0
  0
LINE
  5
42E
330
1B
100
AcDbEntity
  8
4
100
AcDbLine
 10
603.7907419865828
 20
375.2003334433841
 30
0.0
 11
611.1499385203374
 21
375.2003334433841
 31
0.0
  0
LINE
  5
42F
330
1B
100
AcDbEntity
  8
4
100
AcDbLine
 10
640.431698061212
 20
375.2003334433841
 30
0.0
 11
647.7907419865828
 21
375.2003334433841
 31
0.0
  0
LINE
  5
430
330
1B
100
AcDbEntity
  8
4
100
AcDbLine
 10
602.7907419865828
 20
377.2003334433841
 30
0.0
 11
611.2547857930645
 21
377.2003334433841
 31
0.0
  0
LINE
  5
431
330
1B
100
AcDbEntity
  8
4
100
AcDbLine
 10
640.3268953339393
 20
377.2003334433841
 30
0.0
 11
648.7907419865828
 21
377.2003334433841
 31
0.0
  0
LINE
  5
432
330
1B
100
AcDbEntity
  8
4
100
AcDbLine
 10
650.7907419865828
 20
375.2003334433841
 30
0.0
 11
640.431698061212
 21
375.2003334433841
 31
0.0
  0
LINE
  5
433
330
1B
100
AcDbEntity
  8
4
100
AcDbLine
 10
611.1499385203374
 20
375.2003334433841
 30
0.0
 11
600.7907419865828
 21
375.2003334433841
 31
0.0
  0
LINE
  5
434
330
1B
100
AcDbEntity
  8
4
100
AcDbLine
 10
602.7907419865828
 20
381.2003334433844
 30
0.0
 11
619.5407419865828
 21
381.2003334433844
 31
0.0
  0
LINE
  5
435
330
1B
100
AcDbEntity
  8
4
100
AcDbLine
 10
632.0407419865828
 20
381.2003334433844
 30
0.0
 11
648.7907419865828
 21
381.2003334433844
 31
0.0
  0
LINE
  5
436
330
1B
100
AcDbEntity
  8
4
100
AcDbLine
 10
605.8721576995404
 20
386.2003334433844
 30
0.0
 11
619.5407419865828
 21
386.2003334433844
 31
0.0
  0
LINE
  5
437
330
1B
100
AcDbEntity
  8
4
100
AcDbLine
 10
632.0407419865828
 20
386.2003334433844
 30
0.0
 11
645.7093262736253
 21
386.2003334433844
 31
0.0
  0
LINE
  5
438
330
1B
100
AcDbEntity
  8
4
100
AcDbLine
 10
603.7907419865828
 20
377.2003334433841
 30
0.0
 11
603.7907419865828
 21
375.2003334433841
 31
0.0
  0
LINE
  5
439
330
1B
100
AcDbEntity
  8
4
100
AcDbLine
 10
600.7907419865828
 20
375.2003334433841
 30
0.0
 11
600.7907419865828
 21
369.2003334433841
 31
0.0
  0
LINE
  5
43A
330
1B
100
AcDbEntity
  8
4
100
AcDbLine
 10
602.7907419865828
 20
377.2003334433841
 30
0.0
 11
602.7907419865828
 21
381.2003334433844
 31
0.0
  0
LINE
  5
43B
330
1B
100
AcDbEntity
  8
4
100
AcDbLine
 10
647.7907419865828
 20
377.2003334433841
 30
0.0
 11
647.7907419865828
 21
375.2003334433841
 31
0.0
  0
LINE
  5
43C
330
1B
100
AcDbEntity
  8
4
100
AcDbLine
 10
650.7907419865828
 20
375.2003334433841
 30
0.0
 11
650.7907419865828
 21
369.2003334433841
 31
0.0
  0
LINE
  5
43D
330
1B
100
AcDbEntity
  8
4
100
AcDbLine
 10
648.7907419865828
 20
377.2003334433841
 30
0.0
 11
648.7907419865828
 21
381.2003334433844
 31
0.0
  0
LINE
  5
43E
330
1B
100
AcDbEntity
  8
4
100
AcDbLine
 10
605.8721576995404
 20
386.2003334433844
 30
0.0
 11
605.8721576995404
 21
381.2003334433844
 31
0.0
  0
LINE
  5
43F
330
1B
100
AcDbEntity
  8
4
100
AcDbLine
 10
645.7093262736253
 20
386.2003334433844
 30
0.0
 11
645.7093262736253
 21
381.2003334433844
 31
0.0
  0
LINE
  5
440
330
1B
100
AcDbEntity
  8
L-CENTER
 48
3.0
100
AcDbLine
 10
602.7203971258646
 20
118.3994935632802
 30
0.0
 11
602.7203971258646
 21
165.785756558078
 31
0.0
  0
LINE
  5
441
330
1B
100
AcDbEntity
  8
L-CENTER
 48
3.0
100
AcDbLine
 10
945.2915818666864
 20
263.3268030212838
 30
0.0
 11
897.9053188718889
 21
263.3268030212838
 31
0.0
  0
LINE
  5
442
330
1B
100
AcDbEntity
  8
L-CENTER
 48
3.0
100
AcDbLine
 10
945.2915818666864
 20
178.4738638654845
 30
0.0
 11
897.9053188718889
 21
178.4738638654845
 31
0.0
  0
LINE
  5
443
330
1B
100
AcDbEntity
  8
L-CENTER
 48
3.0
100
AcDbLine
 10
306.2899021064783
 20
263.3268030212829
 30
0.0
 11
353.6761651012763
 21
263.326803021283
 31
0.0
  0
LINE
  5
444
330
1B
100
AcDbEntity
  8
L-CENTER
 48
3.0
100
AcDbLine
 10
306.2899021064787
 20
178.4738638654836
 30
0.0
 11
353.6761651012763
 21
178.4738638654837
 31
0.0
  0
LINE
  5
445
330
1B
100
AcDbEntity
  8
L-CENTER
 48
3.0
100
AcDbLine
 10
945.2915818666869
 20
1312.556636906737
 30
0.0
 11
897.9053188718893
 21
1312.556636906737
 31
0.0
  0
LINE
  5
446
330
1B
100
AcDbEntity
  8
L-CENTER
 48
3.0
100
AcDbLine
 10
945.2915818666869
 20
1227.703697750939
 30
0.0
 11
897.9053188718893
 21
1227.703697750939
 31
0.0
  0
LINE
  5
447
330
1B
100
AcDbEntity
  8
L-CENTER
 48
3.0
100
AcDbLine
 10
306.2899021064783
 20
1312.556636906736
 30
0.0
 11
353.6761651012763
 21
1312.556636906736
 31
0.0
  0
LINE
  5
448
330
1B
100
AcDbEntity
  8
L-CENTER
 48
3.0
100
AcDbLine
 10
306.2899021064787
 20
1227.703697750938
 30
0.0
 11
353.6761651012768
 21
1227.703697750938
 31
0.0
  0
TEXT
  5
5DB
330
1B
100
AcDbEntity
  8
3
100
AcDbText
 10
987.671704111659
 20
48.88900012414388
 30
0.0
 40
15.0
  1
LDC7-00
  7
KANJI
 72
     1
 11
1035.171704111659
 21
48.88900012414388
 31
0.0
100
AcDbText
  0
ARC
  5
5F8
330
1B
100
AcDbEntity
  8
4
100
AcDbCircle
 10
337.7907419865824
 20
341.9003334433842
 30
0.0
 40
2.0
100
AcDbArc
 50
90.0
 51
180.0
  0
ARC
  5
5F9
330
1B
100
AcDbEntity
  8
4
100
AcDbCircle
 10
913.7907419865824
 20
341.9003334433842
 30
0.0
 40
2.0
100
AcDbArc
 50
0.0
 51
90.0
  0
ARC
  5
5FA
330
1B
100
AcDbEntity
  8
4
100
AcDbCircle
 10
1263.746014092762
 20
341.9003334433842
 30
0.0
 40
2.0
100
AcDbArc
 50
90.0
 51
180.0
  0
ARC
  5
5FB
330
1B
100
AcDbEntity
  8
4
100
AcDbCircle
 10
1839.746014092762
 20
341.9003334433842
 30
0.0
 40
2.0
100
AcDbArc
 50
0.0
 51
90.0
  0
ARC
  5
5FC
330
1B
100
AcDbEntity
  8
4
100
AcDbCircle
 10
898.7907419865824
 20
367.2003334433841
 30
0.0
 40
2.0
100
AcDbArc
 50
0.0
 51
90.0
  0
ARC
  5
5FD
330
1B
100
AcDbEntity
  8
4
100
AcDbCircle
 10
352.7907419865824
 20
367.2003334433841
 30
0.0
 40
2.0
100
AcDbArc
 50
90.0
 51
180.0
  0
ARC
  5
5FE
330
1B
100
AcDbEntity
  8
4
100
AcDbCircle
 10
450.380831986583
 20
386.1003334433841
 30
0.0
 40
1.0
100
AcDbArc
 50
90.0
 51
180.0
  0
ARC
  5
5FF
330
1B
100
AcDbEntity
  8
4
100
AcDbCircle
 10
638.380831986583
 20
386.1003334433841
 30
0.0
 40
1.0
100
AcDbArc
 50
5.739170477281093
 51
90.0
  0
ARC
  5
600
330
1B
100
AcDbEntity
  8
4
100
AcDbCircle
 10
656.7907419865828
 20
386.1003334433841
 30
0.0
 40
1.0
100
AcDbArc
 50
90.0
 51
180.0
  0
ARC
  5
601
330
1B
100
AcDbEntity
  8
4
100
AcDbCircle
 10
814.7907419865828
 20
386.1003334433841
 30
0.0
 40
1.0
100
AcDbArc
 50
0.0
 51
90.0
  0
ARC
  5
602
330
1B
100
AcDbEntity
  8
4
100
AcDbCircle
 10
1278.746014092762
 20
367.2003334433841
 30
0.0
 40
2.0
100
AcDbArc
 50
90.0
 51
180.0
  0
ARC
  5
603
330
1B
100
AcDbEntity
  8
4
100
AcDbCircle
 10
1824.746014092762
 20
367.2003334433841
 30
0.0
 40
2.0
100
AcDbArc
 50
0.0
 51
90.0
  0
LINE
  5
604
330
1B
100
AcDbEntity
  8
4
100
AcDbLine
 10
1765.942963962118
 20
372.2003334433207
 30
0.0
 11
1787.882274191323
 21
372.2003334433207
 31
0.0
  0
ARC
  5
605
330
1B
100
AcDbEntity
  8
4
100
AcDbCircle
 10
1458.746014092762
 20
386.1003334433841
 30
0.0
 40
1.0
100
AcDbArc
 50
90.0
 51
180.0
  0
ARC
  5
606
330
1B
100
AcDbEntity
  8
4
100
AcDbCircle
 10
1616.746014092762
 20
386.1003334433841
 30
0.0
 40
1.0
100
AcDbArc
 50
0.0
 51
90.0
  0
ARC
  5
607
330
1B
100
AcDbEntity
  8
4
100
AcDbCircle
 10
1646.746016621622
 20
386.1003334433841
 30
0.0
 40
1.0
100
AcDbArc
 50
0.0001448901923671
 51
90.0
  0
ARC
  5
608
330
1B
100
AcDbEntity
  8
4
100
AcDbCircle
 10
638.380831986583
 20
134.0003334433842
 30
0.0
 40
1.0
100
AcDbArc
 50
270.0
 51
0.0
  0
ARC
  5
609
330
1B
100
AcDbEntity
  8
4
100
AcDbCircle
 10
656.7907419865828
 20
134.0003334433842
 30
0.0
 40
1.0
100
AcDbArc
 50
180.0
 51
270.0
  0
ARC
  5
60A
330
1B
100
AcDbEntity
  8
4
100
AcDbCircle
 10
1457.746014092762
 20
134.0003334433842
 30
0.0
 40
1.0
100
AcDbArc
 50
180.0
 51
270.0
  0
ARC
  5
60B
330
1B
100
AcDbEntity
  8
4
100
AcDbCircle
 10
1616.746014092762
 20
134.0003334433842
 30
0.0
 40
1.0
100
AcDbArc
 50
270.0
 51
0.0
  0
ARC
  5
60C
330
1B
100
AcDbEntity
  8
4
100
AcDbCircle
 10
1645.746014092762
 20
134.0003334433842
 30
0.0
 40
1.0
100
AcDbArc
 50
270.0
 51
0.0
  0
LINE
  5
610
330
1B
100
AcDbEntity
  8
4
100
AcDbLine
 10
1601.267368964428
 20
387.1003334433841
 30
0.0
 11
1620.897278116875
 21
387.1003334433841
 31
0.0
  0
LINE
  5
611
330
1B
100
AcDbEntity
  8
4
100
AcDbLine
 10
1601.267368964428
 20
389.6003334433841
 30
0.0
 11
1620.897278116875
 21
389.6003334433841
 31
0.0
  0
ARC
  5
612
330
1B
100
AcDbEntity
  8
4
100
AcDbCircle
 10
1603.721107608484
 20
392.8167195143249
 30
0.0
 40
3.783613929059507
100
AcDbArc
 50
49.57010315517714
 51
130.4298968448228
  0
LINE
  5
613
330
1B
100
AcDbEntity
  8
4
100
AcDbLine
 10
1618.443539472819
 20
396.6003334433841
 30
0.0
 11
1603.721107608484
 21
396.6003334433841
 31
0.0
  0
ARC
  5
614
330
1B
100
AcDbEntity
  8
4
100
AcDbCircle
 10
1618.443539472819
 20
392.8167195143249
 30
0.0
 40
3.783613929059507
100
AcDbArc
 50
49.57010315516856
 51
130.4298968448315
  0
ARC
  5
615
330
1B
100
AcDbEntity
  8
4
100
AcDbCircle
 10
1611.082323540652
 20
382.821168145925
 30
0.0
 40
13.77916529745958
100
AcDbArc
 50
69.13593563608057
 51
110.8640643639194
  0
LINE
  5
616
330
1B
100
AcDbEntity
  8
4
100
AcDbLine
 10
1615.989800828763
 20
395.6968064975314
 30
0.0
 11
1615.989800828763
 21
389.6003334433841
 31
0.0
  0
LINE
  5
617
330
1B
100
AcDbEntity
  8
4
100
AcDbLine
 10
1606.17484625254
 20
395.6968064975314
 30
0.0
 11
1606.17484625254
 21
389.6003334433841
 31
0.0
  0
LINE
  5
618
330
1B
100
AcDbEntity
  8
4
100
AcDbLine
 10
1620.897278116875
 20
387.1003334433841
 30
0.0
 11
1620.897278116875
 21
395.6968064975314
 31
0.0
  0
LINE
  5
619
330
1B
100
AcDbEntity
  8
4
100
AcDbLine
 10
1601.267368964428
 20
395.6968064975314
 30
0.0
 11
1601.267368964428
 21
387.1003334433841
 31
0.0
  0
LINE
  5
61A
330
1B
100
AcDbEntity
  8
L-CENTER
 48
3.0
100
AcDbLine
 10
1611.082323540652
 20
365.4738109232406
 30
0.0
 11
1611.082323540652
 21
399.4683116979646
 31
0.0
  0
LINE
  5
63F
330
1B
100
AcDbEntity
  8
2
100
AcDbLine
 10
1646.746014092762
 20
144.6003334433842
 30
0.0
 11
1456.746014092762
 21
144.6003334433842
 31
0.0
  0
LINE
  5
640
330
1B
100
AcDbEntity
  8
2
100
AcDbLine
 10
510.7907419865828
 20
144.6003334433842
 30
0.0
 11
639.380831986583
 21
144.6003334433842
 31
0.0
  0
LINE
  5
641
330
1B
100
AcDbEntity
  8
2
100
AcDbLine
 10
655.7907419865828
 20
144.6003334433842
 30
0.0
 11
740.7907419865828
 21
144.6003334433842
 31
0.0
  0
ARC
  5
64B
330
1B
100
AcDbEntity
  8
4
100
AcDbCircle
 10
1484.423128160594
 20
127.2839473724434
 30
0.0
 40
3.783613929059507
100
AcDbArc
 50
229.5701031551773
 51
310.4298968448316
  0
ARC
  5
64C
330
1B
100
AcDbEntity
  8
4
100
AcDbCircle
 10
1491.784344092762
 20
137.2794987408433
 30
0.0
 40
13.77916529745958
100
AcDbArc
 50
249.1359356360806
 51
290.8640643639195
  0
LINE
  5
64D
330
1B
100
AcDbEntity
  8
4
100
AcDbLine
 10
1486.87686680465
 20
124.4038603892369
 30
0.0
 11
1486.87686680465
 21
130.5003334433842
 31
0.0
  0
LINE
  5
64E
330
1B
100
AcDbEntity
  8
4
100
AcDbLine
 10
1496.691821380874
 20
124.4038603892369
 30
0.0
 11
1496.691821380874
 21
130.5003334433842
 31
0.0
  0
LINE
  5
64F
330
1B
100
AcDbEntity
  8
4
100
AcDbLine
 10
1481.969389516539
 20
133.0003334433842
 30
0.0
 11
1481.969389516539
 21
124.4038603892369
 31
0.0
  0
LINE
  5
650
330
1B
100
AcDbEntity
  8
4
100
AcDbLine
 10
1501.599298668986
 20
124.4038603892369
 30
0.0
 11
1501.599298668986
 21
133.0003334433842
 31
0.0
  0
LINE
  5
651
330
1B
100
AcDbEntity
  8
4
100
AcDbLine
 10
1501.599298668986
 20
133.0003334433842
 30
0.0
 11
1481.969389516539
 21
133.0003334433842
 31
0.0
  0
LINE
  5
652
330
1B
100
AcDbEntity
  8
4
100
AcDbLine
 10
1501.599298668986
 20
130.5003334433842
 30
0.0
 11
1481.969389516539
 21
130.5003334433842
 31
0.0
  0
LINE
  5
653
330
1B
100
AcDbEntity
  8
4
100
AcDbLine
 10
1484.423128160595
 20
123.5003334433842
 30
0.0
 11
1499.14556002493
 21
123.5003334433842
 31
0.0
  0
ARC
  5
654
330
1B
100
AcDbEntity
  8
4
100
AcDbCircle
 10
1499.14556002493
 20
127.2839473724434
 30
0.0
 40
3.783613929059507
100
AcDbArc
 50
229.5701031551773
 51
310.4298968448316
  0
ARC
  5
655
330
1B
100
AcDbEntity
  8
4
100
AcDbCircle
 10
1576.346958160595
 20
127.2839473724434
 30
0.0
 40
3.783613929059507
100
AcDbArc
 50
229.5701031551773
 51
310.4298968448316
  0
ARC
  5
656
330
1B
100
AcDbEntity
  8
4
100
AcDbCircle
 10
1583.708174092762
 20
137.2794987408433
 30
0.0
 40
13.77916529745958
100
AcDbArc
 50
249.1359356360806
 51
290.8640643639195
  0
LINE
  5
657
330
1B
100
AcDbEntity
  8
4
100
AcDbLine
 10
1578.80069680465
 20
124.4038603892369
 30
0.0
 11
1578.80069680465
 21
130.5003334433842
 31
0.0
  0
LINE
  5
658
330
1B
100
AcDbEntity
  8
4
100
AcDbLine
 10
1588.615651380875
 20
124.4038603892369
 30
0.0
 11
1588.615651380875
 21
130.5003334433842
 31
0.0
  0
LINE
  5
659
330
1B
100
AcDbEntity
  8
4
100
AcDbLine
 10
1573.893219516539
 20
133.0003334433842
 30
0.0
 11
1573.893219516539
 21
124.4038603892369
 31
0.0
  0
LINE
  5
65A
330
1B
100
AcDbEntity
  8
4
100
AcDbLine
 10
1593.523128668986
 20
124.4038603892369
 30
0.0
 11
1593.523128668986
 21
133.0003334433842
 31
0.0
  0
LINE
  5
65B
330
1B
100
AcDbEntity
  8
4
100
AcDbLine
 10
1593.523128668986
 20
133.0003334433842
 30
0.0
 11
1573.893219516539
 21
133.0003334433842
 31
0.0
  0
LINE
  5
65C
330
1B
100
AcDbEntity
  8
4
100
AcDbLine
 10
1593.523128668986
 20
130.5003334433842
 30
0.0
 11
1573.893219516539
 21
130.5003334433842
 31
0.0
  0
LINE
  5
65D
330
1B
100
AcDbEntity
  8
4
100
AcDbLine
 10
1576.346958160595
 20
123.5003334433842
 30
0.0
 11
1591.06939002493
 21
123.5003334433842
 31
0.0
  0
ARC
  5
65E
330
1B
100
AcDbEntity
  8
4
100
AcDbCircle
 10
1591.06939002493
 20
127.2839473724434
 30
0.0
 40
3.783613929059507
100
AcDbArc
 50
229.5701031551773
 51
310.4298968448316
  0
ARC
  5
65F
330
1B
100
AcDbEntity
  8
4
100
AcDbCircle
 10
1603.721223160594
 20
127.2839473724434
 30
0.0
 40
3.783613929059507
100
AcDbArc
 50
229.5701031551773
 51
310.4298968448316
  0
ARC
  5
660
330
1B
100
AcDbEntity
  8
4
100
AcDbCircle
 10
1611.082439092762
 20
137.2794987408433
 30
0.0
 40
13.77916529745958
100
AcDbArc
 50
249.1359356360806
 51
290.8640643639195
  0
LINE
  5
661
330
1B
100
AcDbEntity
  8
4
100
AcDbLine
 10
1606.17496180465
 20
124.4038603892369
 30
0.0
 11
1606.17496180465
 21
130.5003334433842
 31
0.0
  0
LINE
  5
662
330
1B
100
AcDbEntity
  8
4
100
AcDbLine
 10
1615.989916380875
 20
124.4038603892369
 30
0.0
 11
1615.989916380875
 21
130.5003334433842
 31
0.0
  0
LINE
  5
663
330
1B
100
AcDbEntity
  8
4
100
AcDbLine
 10
1601.267484516539
 20
133.0003334433842
 30
0.0
 11
1601.267484516539
 21
124.4038603892369
 31
0.0
  0
LINE
  5
664
330
1B
100
AcDbEntity
  8
4
100
AcDbLine
 10
1620.897393668986
 20
124.4038603892369
 30
0.0
 11
1620.897393668986
 21
133.0003334433842
 31
0.0
  0
LINE
  5
665
330
1B
100
AcDbEntity
  8
4
100
AcDbLine
 10
1620.897393668986
 20
133.0003334433842
 30
0.0
 11
1601.267484516539
 21
133.0003334433842
 31
0.0
  0
LINE
  5
666
330
1B
100
AcDbEntity
  8
4
100
AcDbLine
 10
1620.897393668986
 20
130.5003334433842
 30
0.0
 11
1601.267484516539
 21
130.5003334433842
 31
0.0
  0
LINE
  5
667
330
1B
100
AcDbEntity
  8
4
100
AcDbLine
 10
1603.721223160595
 20
123.5003334433842
 30
0.0
 11
1618.44365502493
 21
123.5003334433842
 31
0.0
  0
ARC
  5
668
330
1B
100
AcDbEntity
  8
4
100
AcDbCircle
 10
1618.44365502493
 20
127.2839473724434
 30
0.0
 40
3.783613929059507
100
AcDbArc
 50
229.5701031551773
 51
310.4298968448316
  0
ENDSEC
  0
SECTION
  2
OBJECTS
  0
DICTIONARY
  5
9
330
0
100
AcDbDictionary
281
     1
  3
ACAD_COLOR
350
2F
  3
ACAD_GROUP
350
2D
  3
ACAD_LAYOUT
350
24
  3
ACAD_MATERIAL
350
B
  3
ACAD_MLEADERSTYLE
350
620
  3
ACAD_MLINESTYLE
350
19
  3
ACAD_PLOTSETTINGS
350
2E
  3
ACAD_PLOTSTYLENAME
350
8
  3
ACAD_SCALELIST
350
34
  3
ACAD_TABLESTYLE
350
61F
  3
ACAD_VISUALSTYLE
350
30
  3
ACDBHEADERROUNDTRIPXREC
350
66F
  3
AcDbVariableDictionary
350
61D
  3
DWGPROPS
350
672
  0
DICTIONARY
  5
673
330
2C
100
AcDbDictionary
280
     1
281
     1
  3
ACAD_XREC_ROUNDTRIP
360
674
  0
DICTIONARY
  5
3
330
2
100
AcDbDictionary
280
     1
281
     1
  3
ACAD_LAYERSTATES
360
4
  0
DICTIONARY
  5
20
330
1F
100
AcDbDictionary
280
     1
281
     1
  3
ADSK_XREC_LAYER_RECONCILED
360
21
  0
DICTIONARY
  5
51B
330
51A
100
AcDbDictionary
280
     1
281
     1
  3
ADSK_XREC_LAYER_RECONCILED
360
51C
  0
DICTIONARY
  5
5
330
1
100
AcDbDictionary
280
     1
281
     1
  3
ADSK_XREC_LAYER_RECONCILED
360
6
  0
DICTIONARY
  5
6F
330
6E
100
AcDbDictionary
280
     1
281
     1
  3
ADSK_XREC_LAYER_RECONCILED
360
70
  0
DICTIONARY
  5
6A
330
69
100
AcDbDictionary
280
     1
281
     1
  3
ADSK_XREC_LAYER_RECONCILED
360
6B
  0
DICTIONARY
  5
19C
330
19B
100
AcDbDictionary
280
     1
281
     1
  3
ADSK_XREC_LAYER_RECONCILED
360
19D
  0
DICTIONARY
  5
5CF
330
5CE
100
AcDbDictionary
280
     1
281
     1
  3
ADSK_XREC_LAYER_RECONCILED
360
5D0
  0
DICTIONARY
  5
1C
330
1B
100
AcDbDictionary
280
     1
281
     1
  3
ACAD_SORTENTS
360
1D
  0
DICTIONARY
  5
2F
102
{ACAD_REACTORS
330
9
102
}
330
9
100
AcDbDictionary
281
     1
  0
DICTIONARY
  5
2D
102
{ACAD_REACTORS
330
9
102
}
330
9
100
AcDbDictionary
281
     1
  0
DICTIONARY
  5
24
102
{ACAD_REACTORS
330
9
102
}
330
9
100
AcDbDictionary
281
     1
  3
Model
350
23
  3
ﾚｲｱｳﾄ1
350
29
  0
DICTIONARY
  5
B
102
{ACAD_REACTORS
330
9
102
}
330
9
100
AcDbDictionary
281
     1
  3
ByBlock
350
67
  3
ByLayer
350
14
  3
Global
350
A
  0
DICTIONARY
  5
620
102
{ACAD_REACTORS
330
9
102
}
330
9
100
AcDbDictionary
281
     1
  3
Standard
350
63B
  0
DICTIONARY
  5
19
102
{ACAD_REACTORS
330
9
102
}
330
9
100
AcDbDictionary
281
     1
  3
STANDARD
350
18
  0
DICTIONARY
  5
2E
102
{ACAD_REACTORS
330
9
102
}
330
9
100
AcDbDictionary
281
     1
  0
ACDBDICTIONARYWDFLT
  5
8
102
{ACAD_REACTORS
330
9
102
}
330
9
100
AcDbDictionary
281
     1
  3
Normal
350
7
100
AcDbDictionaryWithDefault
340
7
  0
DICTIONARY
  5
34
102
{ACAD_REACTORS
330
9
102
}
330
9
100
AcDbDictionary
281
     1
  3
*A1
350
56
  3
*A10
350
5F
  3
*A11
350
60
  3
*A12
350
61
  3
*A13
350
62
  3
*A14
350
63
  3
*A15
350
64
  3
*A16
350
65
  3
*A17
350
66
  3
*A2
350
57
  3
*A3
350
58
  3
*A4
350
59
  3
*A5
350
5A
  3
*A6
350
5B
  3
*A7
350
5C
  3
*A8
350
5D
  3
*A9
350
5E
  0
DICTIONARY
  5
61F
102
{ACAD_REACTORS
330
9
102
}
330
9
100
AcDbDictionary
281
     1
  3
Standard
350
66A
  0
DICTIONARY
  5
30
102
{ACAD_REACTORS
330
9
102
}
330
9
100
AcDbDictionary
281
     1
  3
2dWireframe
350
627
  3
Basic
350
62A
  3
Brighten
350
62E
  3
ColorChange
350
632
  3
Conceptual
350
62C
  3
Dim
350
62D
  3
EdgeColorOff
350
635
  3
Facepattern
350
631
  3
Flat
350
623
  3
FlatWithEdges
350
624
  3
Gouraud
350
625
  3
GouraudWithEdges
350
626
  3
Hidden
350
629
  3
JitterOff
350
633
  3
Linepattern
350
630
  3
OverhangOff
350
634
  3
Realistic
350
62B
  3
Shaded
350
63A
  3
Shaded with edges
350
639
  3
Shades of Gray
350
636
  3
Sketchy
350
637
  3
Thicken
350
62F
  3
Wireframe
350
628
  3
X-Ray
350
638
  0
DICTIONARY
  5
66F
102
{ACAD_REACTORS
330
9
102
}
330
9
100
AcDbDictionary
281
     1
  3
COLORDICT
350
670
  3
MATERIALDICT
350
671
  0
DICTIONARY
  5
61D
102
{ACAD_REACTORS
330
9
102
}
330
9
100
AcDbDictionary
281
     1
  3
CANNOSCALE
350
61E
  3
CMLEADERSTYLE
350
669
  3
CTABLESTYLE
350
66B
  3
DIMASSOC
350
66C
  3
HIDETEXT
350
66D
  3
MSLTSCALE
350
675
  3
XCLIPFRAME
350
66E
  0
XRECORD
  5
672
102
{ACAD_REACTORS
330
9
102
}
330
9
100
AcDbXrecord
280
     1
  1
DWGPROPS COOKIE
  2

  3

  4

  6

  7

  8
sg-d03
  9

300
=
301
=
302
=
303
=
304
=
305
=
306
=
307
=
308
=
309
=
 40
0.0
 41
2457407.211298704
 42
2458115.268363183
  1

 90
        0
  0
XRECORD
  5
674
102
{ACAD_REACTORS
330
673
102
}
330
673
100
AcDbXrecord
280
     1
102
VTR_0.000_0.000_1.000_1.000_GRIDDISPLAY
 70
     3
102
VTR_0.000_0.000_1.000_1.000_GRIDMAJOR
 70
     5
102
VTR_0.000_0.000_1.000_1.000_DEFAULTLIGHTING
280
     1
102
VTR_0.000_0.000_1.000_1.000_DEFAULTLIGHTINGTYPE
 70
     1
102
VTR_0.000_0.000_1.000_1.000_BRIGHTNESS
141
0.0
102
VTR_0.000_0.000_1.000_1.000_CONTRAST
142
0.0
  0
DICTIONARY
  5
4
102
{ACAD_REACTORS
330
3
102
}
330
3
100
AcDbDictionary
281
     1
  0
XRECORD
  5
21
102
{ACAD_REACTORS
330
20
102
}
330
20
100
AcDbXrecord
280
     1
290
     1
  0
XRECORD
  5
51C
102
{ACAD_REACTORS
330
51B
102
}
330
51B
100
AcDbXrecord
280
     1
290
     1
  0
XRECORD
  5
6
102
{ACAD_REACTORS
330
5
102
}
330
5
100
AcDbXrecord
280
     1
290
     1
  0
XRECORD
  5
70
102
{ACAD_REACTORS
330
6F
102
}
330
6F
100
AcDbXrecord
280
     1
290
     1
  0
XRECORD
  5
6B
102
{ACAD_REACTORS
330
6A
102
}
330
6A
100
AcDbXrecord
280
     1
290
     1
  0
XRECORD
  5
19D
102
{ACAD_REACTORS
330
19C
102
}
330
19C
100
AcDbXrecord
280
     1
290
     1
  0
XRECORD
  5
5D0
102
{ACAD_REACTORS
330
5CF
102
}
330
5CF
100
AcDbXrecord
280
     1
290
     1
  0
SORTENTSTABLE
  5
1D
102
{ACAD_REACTORS
330
1C
102
}
330
1C
100
AcDbSortentsTable
330
1B
331
0
  5
104
331
82
  5
83
331
83
  5
84
331
84
  5
85
331
85
  5
86
331
86
  5
87
331
87
  5
88
331
88
  5
89
331
89
  5
8A
331
8A
  5
8B
331
8B
  5
8C
331
8C
  5
8D
331
8D
  5
8E
331
8E
  5
8F
331
8F
  5
90
331
90
  5
91
331
91
  5
92
331
92
  5
93
331
93
  5
94
331
94
  5
95
331
95
  5
96
331
96
  5
97
331
97
  5
98
331
98
  5
99
331
99
  5
9A
331
9A
  5
9B
331
9B
  5
9C
331
9C
  5
9D
331
9D
  5
9E
331
9E
  5
9F
331
9F
  5
A0
331
A0
  5
A1
331
A1
  5
A2
331
A2
  5
A3
331
A3
  5
A4
331
A4
  5
A5
331
A5
  5
A6
331
A6
  5
A7
331
A7
  5
A8
331
A8
  5
A9
331
A9
  5
AA
331
AA
  5
AC
331
AB
  5
AD
331
AC
  5
AE
331
AD
  5
AF
331
AE
  5
B0
331
AF
  5
B1
331
B0
  5
B2
331
B1
  5
B3
331
B2
  5
B4
331
B3
  5
B5
331
B4
  5
B6
331
B5
  5
B7
331
B6
  5
B8
331
B7
  5
B9
331
B8
  5
BA
331
B9
  5
BB
331
BA
  5
BC
331
BB
  5
BD
331
BC
  5
BE
331
BD
  5
BF
331
BE
  5
C0
331
BF
  5
C1
331
C0
  5
C2
331
C1
  5
C3
331
C2
  5
C4
331
C3
  5
C5
331
C4
  5
C6
331
C5
  5
C7
331
C6
  5
C8
331
C7
  5
C9
331
C8
  5
CA
331
C9
  5
CB
331
CA
  5
CC
331
CB
  5
CD
331
CC
  5
CE
331
CD
  5
CF
331
CE
  5
D0
331
CF
  5
D1
331
D0
  5
D2
331
D1
  5
D3
331
D2
  5
D4
331
D3
  5
D5
331
D4
  5
D6
331
D5
  5
D7
331
D6
  5
D8
331
D7
  5
D9
331
D8
  5
DA
331
D9
  5
DB
331
DA
  5
DC
331
DB
  5
DD
331
DC
  5
DE
331
DD
  5
DF
331
DE
  5
E0
331
DF
  5
E1
331
E0
  5
E3
331
E1
  5
E4
331
E2
  5
E5
331
E3
  5
E6
331
E4
  5
E7
331
E5
  5
E8
331
E6
  5
E9
331
E7
  5
EA
331
E8
  5
EB
331
E9
  5
EC
331
EA
  5
ED
331
EB
  5
EE
331
EC
  5
EF
331
ED
  5
F0
331
EE
  5
F1
331
EF
  5
F2
331
F0
  5
F3
331
F1
  5
F4
331
F2
  5
F5
331
F3
  5
F6
331
F4
  5
F7
331
F5
  5
F8
331
F6
  5
F9
331
F7
  5
FA
331
F8
  5
FB
331
F9
  5
FC
331
FA
  5
FE
331
FB
  5
FF
331
FC
  5
100
331
FD
  5
101
331
FE
  5
102
331
FF
  5
103
331
105
  5
109
331
10D
  5
111
331
112
  5
116
331
113
  5
117
331
118
  5
11C
331
120
  5
124
331
121
  5
125
331
122
  5
126
331
123
  5
127
331
124
  5
128
331
125
  5
129
331
126
  5
12A
331
127
  5
12B
331
128
  5
12C
331
129
  5
12D
331
12A
  5
12E
331
12B
  5
12F
331
12C
  5
130
331
12D
  5
131
331
12E
  5
133
331
12F
  5
134
331
130
  5
135
331
131
  5
136
331
132
  5
137
331
133
  5
138
331
134
  5
139
331
135
  5
13A
331
136
  5
13B
331
137
  5
13C
331
138
  5
13D
331
139
  5
13E
331
13A
  5
13F
331
13B
  5
140
331
13C
  5
141
331
13D
  5
142
331
13E
  5
143
331
13F
  5
144
331
140
  5
145
331
141
  5
146
331
142
  5
147
331
143
  5
148
331
144
  5
149
331
145
  5
14A
331
146
  5
14B
331
147
  5
14C
331
148
  5
14D
331
149
  5
14E
331
14A
  5
14F
331
14B
  5
150
331
14C
  5
151
331
14D
  5
152
331
14E
  5
153
331
14F
  5
154
331
150
  5
155
331
151
  5
156
331
152
  5
157
331
153
  5
158
331
154
  5
159
331
155
  5
15A
331
156
  5
15B
331
157
  5
15C
331
158
  5
15D
331
159
  5
15E
331
15A
  5
15F
331
15B
  5
160
331
15C
  5
161
331
15D
  5
162
331
15E
  5
163
331
15F
  5
164
331
160
  5
165
331
161
  5
166
331
162
  5
167
331
163
  5
168
331
164
  5
169
331
165
  5
16A
331
166
  5
16B
331
167
  5
16C
331
168
  5
16D
331
169
  5
16E
331
16A
  5
16F
331
16B
  5
170
331
16C
  5
171
331
16D
  5
172
331
16E
  5
173
331
16F
  5
174
331
170
  5
175
331
171
  5
176
331
172
  5
177
331
173
  5
178
331
174
  5
179
331
175
  5
17A
331
176
  5
17B
331
177
  5
17C
331
178
  5
17D
331
179
  5
17E
331
17A
  5
17F
331
17B
  5
180
331
17C
  5
181
331
17D
  5
182
331
17E
  5
183
331
17F
  5
184
331
180
  5
185
331
181
  5
186
331
182
  5
187
331
183
  5
188
331
184
  5
189
331
185
  5
18A
331
186
  5
18B
331
187
  5
18C
331
188
  5
18D
331
189
  5
18E
331
18A
  5
18F
331
18B
  5
190
331
18C
  5
191
331
18D
  5
192
331
18E
  5
193
331
18F
  5
194
331
190
  5
195
331
191
  5
196
331
192
  5
197
331
193
  5
198
331
194
  5
199
331
0
  5
19A
331
0
  5
19E
331
0
  5
19F
331
0
  5
1A0
331
0
  5
1A1
331
0
  5
1A2
331
0
  5
1A3
331
0
  5
1A4
331
0
  5
1A5
331
0
  5
1A6
331
0
  5
1A7
331
0
  5
1A8
331
0
  5
1A9
331
0
  5
1AA
331
0
  5
1AB
331
0
  5
1AC
331
0
  5
1AD
331
0
  5
1AE
331
0
  5
1AF
331
0
  5
1B0
331
0
  5
1B1
331
0
  5
1B2
331
0
  5
1B3
331
0
  5
1B4
331
0
  5
1B5
331
0
  5
1B6
331
0
  5
1B7
331
0
  5
1B8
331
0
  5
1B9
331
0
  5
1BA
331
0
  5
1BB
331
0
  5
1BC
331
0
  5
1BD
331
0
  5
1BE
331
0
  5
1BF
331
0
  5
1C0
331
0
  5
1C1
331
0
  5
1C2
331
0
  5
1C3
331
0
  5
1C4
331
0
  5
1C5
331
0
  5
1C6
331
0
  5
1C7
331
0
  5
1C8
331
0
  5
1C9
331
0
  5
1CA
331
0
  5
1CB
331
0
  5
1CC
331
0
  5
1CD
331
0
  5
1CE
331
0
  5
1CF
331
0
  5
1D0
331
0
  5
1D1
331
0
  5
1D2
331
0
  5
1D3
331
0
  5
1D4
331
0
  5
1D5
331
0
  5
1D6
331
0
  5
1D7
331
0
  5
1D8
331
0
  5
1D9
331
0
  5
1DA
331
0
  5
1DB
331
0
  5
1DC
331
0
  5
1DD
331
0
  5
1DE
331
0
  5
1DF
331
0
  5
1E0
331
0
  5
1E1
331
0
  5
1E2
331
0
  5
1E3
331
0
  5
1E4
331
0
  5
1E5
331
0
  5
1E6
331
0
  5
1E7
331
0
  5
1E8
331
0
  5
1E9
331
0
  5
1EA
331
0
  5
1EB
331
0
  5
1EC
331
0
  5
1ED
331
0
  5
1EE
331
0
  5
1EF
331
0
  5
1F0
331
0
  5
1F1
331
0
  5
1F2
331
0
  5
1F3
331
0
  5
1F4
331
0
  5
1F5
331
0
  5
1F6
331
0
  5
1F7
331
0
  5
1F8
331
0
  5
1F9
331
0
  5
1FA
331
0
  5
1FB
331
0
  5
1FC
331
0
  5
1FD
331
0
  5
1FE
331
0
  5
1FF
331
0
  5
200
331
0
  5
201
331
0
  5
202
331
0
  5
203
331
0
  5
204
331
0
  5
205
331
0
  5
206
331
0
  5
207
331
0
  5
208
331
0
  5
209
331
0
  5
20A
331
0
  5
20B
331
0
  5
20C
331
0
  5
20D
331
0
  5
20E
331
0
  5
20F
331
0
  5
210
331
0
  5
211
331
0
  5
212
331
20E
  5
213
331
20F
  5
214
331
210
  5
215
331
211
  5
216
331
212
  5
217
331
213
  5
218
331
214
  5
219
331
215
  5
21A
331
216
  5
21B
331
217
  5
21C
331
218
  5
21D
331
219
  5
21E
331
21A
  5
21F
331
21B
  5
220
331
21C
  5
221
331
21D
  5
222
331
21E
  5
223
331
21F
  5
224
331
220
  5
225
331
221
  5
226
331
222
  5
227
331
223
  5
228
331
224
  5
229
331
225
  5
22A
331
226
  5
22B
331
227
  5
22C
331
228
  5
22D
331
229
  5
22E
331
22A
  5
22F
331
22B
  5
230
331
22C
  5
231
331
22D
  5
232
331
22E
  5
233
331
22F
  5
234
331
230
  5
235
331
231
  5
236
331
232
  5
237
331
233
  5
238
331
234
  5
239
331
235
  5
23A
331
236
  5
23B
331
237
  5
23C
331
238
  5
23D
331
239
  5
23E
331
23A
  5
23F
331
23B
  5
240
331
23C
  5
241
331
23D
  5
242
331
23E
  5
243
331
23F
  5
244
331
240
  5
245
331
241
  5
246
331
242
  5
247
331
243
  5
248
331
244
  5
249
331
245
  5
24A
331
246
  5
24B
331
247
  5
24C
331
248
  5
24D
331
249
  5
24E
331
24A
  5
24F
331
24B
  5
250
331
24C
  5
251
331
24D
  5
252
331
24E
  5
253
331
24F
  5
254
331
250
  5
255
331
251
  5
256
331
252
  5
257
331
253
  5
258
331
254
  5
259
331
255
  5
25A
331
256
  5
25B
331
257
  5
25C
331
258
  5
25D
331
259
  5
25E
331
25A
  5
25F
331
25B
  5
260
331
25C
  5
261
331
25D
  5
262
331
25E
  5
263
331
25F
  5
264
331
260
  5
265
331
261
  5
266
331
262
  5
267
331
263
  5
268
331
264
  5
269
331
265
  5
26A
331
266
  5
26B
331
267
  5
26C
331
268
  5
26D
331
269
  5
26E
331
26A
  5
26F
331
26B
  5
270
331
26C
  5
271
331
26D
  5
272
331
26E
  5
273
331
26F
  5
274
331
270
  5
275
331
271
  5
276
331
272
  5
277
331
273
  5
278
331
274
  5
279
331
275
  5
27A
331
276
  5
27B
331
277
  5
27C
331
278
  5
27D
331
279
  5
27E
331
27A
  5
27F
331
27B
  5
280
331
27C
  5
281
331
27D
  5
282
331
27E
  5
283
331
27F
  5
284
331
280
  5
285
331
281
  5
286
331
282
  5
287
331
283
  5
288
331
284
  5
289
331
285
  5
28A
331
286
  5
28B
331
287
  5
28C
331
288
  5
28D
331
289
  5
28E
331
28A
  5
28F
331
28B
  5
290
331
28C
  5
291
331
28D
  5
292
331
28E
  5
293
331
28F
  5
294
331
290
  5
295
331
291
  5
296
331
292
  5
297
331
293
  5
298
331
294
  5
299
331
295
  5
29A
331
296
  5
29B
331
297
  5
29C
331
298
  5
29D
331
299
  5
29E
331
29A
  5
29F
331
29B
  5
2A0
331
29C
  5
2A1
331
29D
  5
2A2
331
29E
  5
2A3
331
29F
  5
2A4
331
2A0
  5
2A5
331
2A1
  5
2A6
331
2A2
  5
2A7
331
2A3
  5
2A8
331
2A4
  5
2A9
331
2A5
  5
2AA
331
2A6
  5
2AB
331
2A7
  5
2AC
331
2A8
  5
2AD
331
2A9
  5
2AE
331
2AA
  5
2AF
331
2AB
  5
2B0
331
2AC
  5
2B1
331
2AD
  5
2B2
331
2AE
  5
2B3
331
2AF
  5
2B4
331
2B0
  5
2B5
331
2B1
  5
2B6
331
2B2
  5
2B7
331
2B3
  5
2B8
331
2B4
  5
2B9
331
2B5
  5
2BA
331
2B6
  5
2BB
331
2B7
  5
2BC
331
2B8
  5
2BD
331
2B9
  5
2BE
331
2BA
  5
2BF
331
2BB
  5
2C0
331
2BC
  5
2C1
331
2BD
  5
2C2
331
2BE
  5
2C3
331
2BF
  5
2C4
331
2C0
  5
2C5
331
2C1
  5
2C6
331
2C2
  5
2C7
331
2C3
  5
2C8
331
2C4
  5
2C9
331
2C5
  5
2CA
331
2C6
  5
2CB
331
2C7
  5
2CC
331
2C8
  5
2CD
331
2C9
  5
2CE
331
2CA
  5
2CF
331
2CB
  5
2D0
331
2CC
  5
2D1
331
2CD
  5
2D2
331
2CE
  5
2D3
331
2CF
  5
2D4
331
2D0
  5
2D5
331
2D1
  5
2D6
331
2D2
  5
2D7
331
2D3
  5
2D8
331
2D4
  5
2D9
331
2D5
  5
2DA
331
2D6
  5
2DB
331
2D7
  5
2DC
331
2D8
  5
2DD
331
2D9
  5
2DE
331
2DA
  5
2DF
331
2DB
  5
2E0
331
2DC
  5
2E1
331
2DD
  5
2E2
331
2DE
  5
2E3
331
2DF
  5
2E4
331
2E0
  5
2E5
331
2E1
  5
2E6
331
2E2
  5
2E7
331
2E3
  5
2E8
331
2E4
  5
2E9
331
2E5
  5
2EA
331
2E6
  5
2EB
331
2E7
  5
2EC
331
2E8
  5
2ED
331
2E9
  5
2EE
331
2EA
  5
2EF
331
2EB
  5
2F0
331
2EC
  5
2F1
331
2ED
  5
2F2
331
2EE
  5
2F3
331
2EF
  5
2F4
331
2F0
  5
2F5
331
2F1
  5
2F6
331
2F2
  5
2F7
331
2F3
  5
2F8
331
2F4
  5
2F9
331
2F5
  5
2FA
331
2F6
  5
2FB
331
2F7
  5
2FC
331
2F8
  5
2FD
331
2F9
  5
2FE
331
2FA
  5
2FF
331
2FB
  5
300
331
2FC
  5
301
331
2FD
  5
302
331
2FE
  5
303
331
2FF
  5
304
331
300
  5
305
331
301
  5
306
331
302
  5
307
331
303
  5
308
331
304
  5
309
331
305
  5
30A
331
306
  5
30B
331
307
  5
30C
331
308
  5
30D
331
309
  5
30E
331
30A
  5
30F
331
30B
  5
310
331
30C
  5
311
331
30D
  5
312
331
30E
  5
313
331
30F
  5
314
331
310
  5
315
331
311
  5
316
331
312
  5
317
331
313
  5
318
331
314
  5
319
331
315
  5
31A
331
316
  5
31B
331
317
  5
31C
331
318
  5
31D
331
319
  5
31E
331
31A
  5
31F
331
31B
  5
320
331
31C
  5
321
331
31D
  5
322
331
31E
  5
323
331
31F
  5
324
331
320
  5
325
331
321
  5
326
331
322
  5
327
331
323
  5
328
331
324
  5
329
331
325
  5
32A
331
326
  5
32B
331
327
  5
32C
331
328
  5
32D
331
329
  5
32E
331
32A
  5
32F
331
32B
  5
330
331
32C
  5
331
331
32D
  5
332
331
32E
  5
333
331
32F
  5
334
331
330
  5
335
331
331
  5
336
331
332
  5
337
331
333
  5
338
331
334
  5
339
331
335
  5
33A
331
336
  5
33B
331
337
  5
33C
331
338
  5
33D
331
339
  5
33E
331
33A
  5
33F
331
33B
  5
340
331
33C
  5
341
331
33D
  5
342
331
33E
  5
343
331
33F
  5
344
331
340
  5
345
331
341
  5
346
331
342
  5
347
331
343
  5
348
331
344
  5
349
331
345
  5
34A
331
346
  5
34B
331
347
  5
34C
331
348
  5
34D
331
349
  5
34E
331
34A
  5
34F
331
34B
  5
350
331
34C
  5
351
331
34D
  5
352
331
34E
  5
353
331
34F
  5
354
331
350
  5
355
331
351
  5
356
331
352
  5
357
331
353
  5
358
331
354
  5
359
331
355
  5
35A
331
356
  5
35B
331
357
  5
35C
331
358
  5
35D
331
359
  5
35E
331
35A
  5
35F
331
35B
  5
360
331
35C
  5
361
331
35D
  5
362
331
35E
  5
363
331
35F
  5
364
331
360
  5
365
331
361
  5
366
331
362
  5
367
331
363
  5
368
331
364
  5
369
331
365
  5
36A
331
366
  5
36B
331
367
  5
36C
331
368
  5
36D
331
369
  5
36E
331
36A
  5
36F
331
36B
  5
370
331
36C
  5
371
331
36D
  5
372
331
36E
  5
373
331
36F
  5
374
331
370
  5
375
331
371
  5
376
331
372
  5
377
331
373
  5
378
331
374
  5
379
331
375
  5
37A
331
376
  5
37B
331
377
  5
37C
331
378
  5
37D
331
379
  5
37E
331
37A
  5
37F
331
37B
  5
380
331
37C
  5
381
331
37D
  5
382
331
37E
  5
383
331
37F
  5
384
331
380
  5
385
331
381
  5
386
331
382
  5
387
331
383
  5
388
331
384
  5
389
331
385
  5
38A
331
386
  5
38B
331
387
  5
38C
331
388
  5
38D
331
389
  5
38E
331
38A
  5
38F
331
38B
  5
390
331
38C
  5
391
331
38D
  5
392
331
38E
  5
393
331
38F
  5
394
331
390
  5
395
331
391
  5
396
331
392
  5
397
331
393
  5
398
331
394
  5
399
331
395
  5
39A
331
396
  5
39B
331
397
  5
39C
331
398
  5
39D
331
399
  5
39E
331
39A
  5
39F
331
39B
  5
3A0
331
39C
  5
3A1
331
39D
  5
3A2
331
39E
  5
3A3
331
39F
  5
3A4
331
3A0
  5
3A5
331
3A1
  5
3A6
331
3A2
  5
3A7
331
3A3
  5
3A8
331
3A4
  5
3A9
331
3A5
  5
3AA
331
3A6
  5
3AB
331
3A7
  5
3AC
331
3A8
  5
3AD
331
3A9
  5
3AE
331
3AA
  5
3AF
331
3AB
  5
3B0
331
3AC
  5
3B1
331
3AD
  5
3B2
331
3AE
  5
3B3
331
3AF
  5
3B4
331
3B0
  5
3B5
331
3B1
  5
3B6
331
3B2
  5
3B7
331
3B3
  5
3B8
331
3B4
  5
3B9
331
3B5
  5
3BA
331
3B6
  5
3BB
331
3B7
  5
3BC
331
3B8
  5
3BD
331
3B9
  5
3BE
331
3BA
  5
3BF
331
3BB
  5
3C0
331
3BC
  5
3C1
331
3BD
  5
3C2
331
3BE
  5
3C3
331
3BF
  5
3C4
331
3C0
  5
3C5
331
3C1
  5
3C6
331
3C2
  5
3C7
331
3C3
  5
3C8
331
3C4
  5
3C9
331
3C5
  5
3CA
331
3C6
  5
3CB
331
3C7
  5
3CC
331
3C8
  5
3CD
331
3C9
  5
3CE
331
3CA
  5
3CF
331
3CB
  5
3D0
331
3CC
  5
3D1
331
3CD
  5
3D2
331
3CE
  5
3D3
331
3CF
  5
3D4
331
3D0
  5
3D5
331
3D1
  5
3D6
331
3D2
  5
3D7
331
3D3
  5
3D8
331
3D4
  5
3D9
331
3D5
  5
3DA
331
3D6
  5
3DB
331
3D7
  5
3DC
331
3D8
  5
3DD
331
3D9
  5
3DE
331
3DA
  5
3DF
331
3DB
  5
3E0
331
3DC
  5
3E1
331
3DD
  5
3E2
331
3DE
  5
3E3
331
3DF
  5
3E4
331
3E0
  5
3E5
331
3E1
  5
3E6
331
3E2
  5
3E7
331
3E3
  5
3E8
331
3E4
  5
3E9
331
3E5
  5
3EA
331
3E6
  5
3EB
331
3E7
  5
3EC
331
3E8
  5
3ED
331
3E9
  5
3EE
331
3EA
  5
3EF
331
3EB
  5
3F0
331
3EC
  5
3F1
331
3ED
  5
3F2
331
3EE
  5
3F3
331
3EF
  5
3F4
331
3F0
  5
3F5
331
3F1
  5
3F6
331
3F2
  5
3F7
331
3F3
  5
3F8
331
3F4
  5
3F9
331
3F5
  5
3FA
331
3F6
  5
3FB
331
3F7
  5
3FC
331
3F8
  5
3FD
331
3F9
  5
3FE
331
3FA
  5
3FF
331
3FB
  5
400
331
3FC
  5
401
331
3FD
  5
402
331
3FE
  5
403
331
3FF
  5
404
331
400
  5
405
331
401
  5
406
331
402
  5
407
331
403
  5
408
331
404
  5
409
331
405
  5
40A
331
406
  5
40B
331
407
  5
40C
331
408
  5
40D
331
409
  5
40E
331
40A
  5
40F
331
40B
  5
410
331
40C
  5
411
331
40D
  5
412
331
40E
  5
413
331
40F
  5
414
331
410
  5
415
331
411
  5
416
331
412
  5
417
331
413
  5
418
331
414
  5
419
331
415
  5
41A
331
416
  5
41B
331
417
  5
41C
331
418
  5
41D
331
419
  5
41E
331
41A
  5
41F
331
41B
  5
420
331
41C
  5
421
331
41D
  5
422
331
41E
  5
423
331
41F
  5
424
331
420
  5
425
331
421
  5
426
331
422
  5
427
331
423
  5
428
331
424
  5
429
331
425
  5
42A
331
426
  5
42B
331
427
  5
42C
331
428
  5
42D
331
429
  5
42E
331
42A
  5
42F
331
42B
  5
430
331
42C
  5
431
331
42D
  5
432
331
42E
  5
433
331
42F
  5
434
331
430
  5
435
331
431
  5
436
331
432
  5
437
331
433
  5
438
331
434
  5
439
331
435
  5
43A
331
436
  5
43B
331
437
  5
43C
331
438
  5
43D
331
439
  5
43E
331
43A
  5
43F
331
43B
  5
440
331
43C
  5
441
331
43D
  5
442
331
43E
  5
443
331
43F
  5
444
331
440
  5
445
331
441
  5
446
331
442
  5
447
331
443
  5
448
331
444
  5
449
331
445
  5
44A
331
446
  5
44B
331
447
  5
44C
331
448
  5
44D
331
0
  5
44E
331
0
  5
44F
331
0
  5
450
331
0
  5
451
331
0
  5
452
331
0
  5
453
331
0
  5
454
331
0
  5
455
331
0
  5
456
331
0
  5
457
331
0
  5
458
331
0
  5
459
331
0
  5
45A
331
0
  5
45B
331
0
  5
45C
331
0
  5
45D
331
0
  5
45E
331
0
  5
45F
331
0
  5
460
331
0
  5
461
331
0
  5
462
331
0
  5
463
331
0
  5
464
331
0
  5
465
331
0
  5
466
331
0
  5
467
331
0
  5
468
331
0
  5
469
331
0
  5
46A
331
0
  5
46B
331
0
  5
46C
331
0
  5
46D
331
0
  5
46E
331
0
  5
46F
331
0
  5
470
331
0
  5
471
331
0
  5
472
331
0
  5
473
331
0
  5
474
331
0
  5
475
331
0
  5
476
331
0
  5
477
331
0
  5
478
331
0
  5
479
331
0
  5
47A
331
0
  5
47B
331
0
  5
47C
331
0
  5
47D
331
0
  5
47E
331
0
  5
47F
331
0
  5
480
331
0
  5
481
331
0
  5
482
331
0
  5
483
331
0
  5
484
331
0
  5
485
331
0
  5
486
331
0
  5
487
331
0
  5
488
331
0
  5
489
331
0
  5
48A
331
0
  5
48B
331
0
  5
48C
331
0
  5
48D
331
0
  5
48E
331
0
  5
48F
331
0
  5
490
331
0
  5
491
331
0
  5
492
331
0
  5
493
331
0
  5
494
331
0
  5
495
331
0
  5
496
331
0
  5
497
331
0
  5
498
331
0
  5
499
331
0
  5
49A
331
0
  5
49B
331
0
  5
49C
331
0
  5
49D
331
0
  5
49E
331
0
  5
49F
331
0
  5
4A0
331
0
  5
4A1
331
0
  5
4A2
331
0
  5
4A3
331
0
  5
4A4
331
0
  5
4A5
331
0
  5
4A6
331
0
  5
4A7
331
0
  5
4A8
331
0
  5
4A9
331
0
  5
4AA
331
0
  5
4AB
331
0
  5
4AC
331
0
  5
4AD
331
0
  5
4AE
331
0
  5
4AF
331
0
  5
4B0
331
0
  5
4B1
331
0
  5
4B2
331
0
  5
4B3
331
0
  5
4B4
331
0
  5
4B5
331
0
  5
4B6
331
0
  5
4B7
331
0
  5
4B8
331
0
  5
4B9
331
0
  5
4BA
331
0
  5
4BB
331
0
  5
4BC
331
0
  5
4BD
331
0
  5
4BE
331
0
  5
4BF
331
0
  5
4C0
331
0
  5
4C1
331
0
  5
4C2
331
0
  5
4C3
331
0
  5
4C4
331
0
  5
4C5
331
0
  5
4C6
331
0
  5
4C7
331
0
  5
4C8
331
0
  5
4C9
331
0
  5
4CA
331
0
  5
4CB
331
0
  5
4CC
331
0
  5
4CD
331
0
  5
4CE
331
0
  5
4CF
331
0
  5
4D0
331
0
  5
4D1
331
0
  5
4D2
331
0
  5
4D3
331
0
  5
4D4
331
0
  5
4D5
331
0
  5
4D6
331
0
  5
4D7
331
0
  5
4D8
331
0
  5
4D9
331
0
  5
4DA
331
0
  5
4DB
331
0
  5
4DC
331
0
  5
4DD
331
0
  5
4DE
331
0
  5
4DF
331
0
  5
4E0
331
0
  5
4E1
331
0
  5
4E2
331
0
  5
4E3
331
0
  5
4E4
331
0
  5
4E5
331
0
  5
4E6
331
0
  5
4E7
331
0
  5
4E8
331
0
  5
4E9
331
0
  5
4EA
331
0
  5
4EB
331
0
  5
4EC
331
0
  5
4ED
331
0
  5
4EE
331
0
  5
4EF
331
0
  5
4F0
331
0
  5
4F1
331
0
  5
4F2
331
0
  5
4F3
331
0
  5
4F4
331
0
  5
4F5
331
0
  5
4F6
331
0
  5
4F7
331
0
  5
4F8
331
0
  5
4F9
331
0
  5
4FA
331
0
  5
4FB
331
0
  5
4FC
331
0
  5
4FD
331
0
  5
4FE
331
0
  5
4FF
331
0
  5
500
331
0
  5
501
331
0
  5
502
331
0
  5
503
331
0
  5
504
331
0
  5
505
331
0
  5
506
331
0
  5
507
331
0
  5
508
331
0
  5
509
331
0
  5
50A
331
0
  5
50B
331
0
  5
50C
331
0
  5
50D
331
0
  5
50E
331
0
  5
50F
331
0
  5
510
331
0
  5
511
331
0
  5
512
331
0
  5
513
331
0
  5
514
331
0
  5
515
331
0
  5
516
331
0
  5
517
331
0
  5
518
331
0
  5
519
331
0
  5
51D
331
0
  5
51E
331
0
  5
51F
331
0
  5
520
331
0
  5
521
331
0
  5
522
331
0
  5
523
331
0
  5
524
331
0
  5
525
331
0
  5
526
331
0
  5
527
331
0
  5
528
331
0
  5
529
331
0
  5
52A
331
0
  5
52B
331
0
  5
52C
331
0
  5
52D
331
0
  5
52E
331
0
  5
52F
331
0
  5
530
331
0
  5
531
331
0
  5
532
331
0
  5
533
331
0
  5
534
331
0
  5
535
331
0
  5
536
331
0
  5
537
331
0
  5
538
331
0
  5
539
331
0
  5
53A
331
0
  5
53B
331
0
  5
53C
331
0
  5
53D
331
0
  5
53E
331
0
  5
53F
331
0
  5
540
331
0
  5
541
331
0
  5
542
331
0
  5
543
331
0
  5
544
331
0
  5
545
331
0
  5
546
331
0
  5
547
331
0
  5
548
331
0
  5
549
331
0
  5
54A
331
0
  5
54B
331
0
  5
54C
331
0
  5
54D
331
0
  5
54E
331
0
  5
54F
331
0
  5
550
331
0
  5
551
331
0
  5
552
331
0
  5
553
331
0
  5
554
331
0
  5
555
331
0
  5
556
331
0
  5
557
331
0
  5
558
331
0
  5
559
331
0
  5
55A
331
0
  5
55B
331
0
  5
55C
331
0
  5
55D
331
0
  5
55E
331
0
  5
55F
331
0
  5
560
331
0
  5
561
331
0
  5
562
331
0
  5
563
331
0
  5
564
331
0
  5
565
331
0
  5
566
331
0
  5
567
331
0
  5
568
331
0
  5
569
331
0
  5
56A
331
0
  5
56B
331
0
  5
56C
331
0
  5
56D
331
0
  5
56E
331
0
  5
56F
331
0
  5
570
331
0
  5
571
331
0
  5
572
331
0
  5
573
331
0
  5
574
331
0
  5
575
331
0
  5
576
331
0
  5
577
331
0
  5
578
331
0
  5
579
331
0
  5
57A
331
0
  5
57B
331
0
  5
57C
331
0
  5
57D
331
0
  5
57E
331
0
  5
57F
331
0
  5
580
331
0
  5
581
331
0
  5
582
331
0
  5
583
331
0
  5
584
331
0
  5
585
331
0
  5
586
331
0
  5
587
331
0
  5
588
331
0
  5
589
331
0
  5
58A
331
0
  5
58B
331
0
  5
58C
331
0
  5
58D
331
0
  5
58E
331
0
  5
58F
331
0
  5
590
331
0
  5
591
331
0
  5
592
331
0
  5
593
331
0
  5
594
331
0
  5
595
331
0
  5
596
331
0
  5
597
331
0
  5
598
331
0
  5
599
331
0
  5
59A
331
0
  5
59B
331
0
  5
59C
331
0
  5
59D
331
0
  5
59E
331
0
  5
59F
331
0
  5
5A0
331
0
  5
5A1
331
0
  5
5A2
331
0
  5
5A3
331
0
  5
5A4
331
0
  5
5A5
331
0
  5
5A6
331
0
  5
5A7
331
0
  5
5A8
331
0
  5
5A9
331
0
  5
5AA
331
0
  5
5AB
331
0
  5
5AC
331
0
  5
5AD
331
0
  5
5AE
331
0
  5
5AF
331
0
  5
5B0
331
0
  5
5B1
331
0
  5
5B2
331
0
  5
5B3
331
0
  5
5B4
331
0
  5
5B5
331
0
  5
5B6
331
0
  5
5B7
331
0
  5
5B8
331
0
  5
5B9
331
0
  5
5BA
331
0
  5
5BB
331
0
  5
5BC
331
0
  5
5BD
331
0
  5
5BE
331
0
  5
5BF
331
0
  5
5C0
331
0
  5
5C1
331
0
  5
5C2
331
0
  5
5C3
331
0
  5
5C4
331
0
  5
5C5
331
0
  5
5C6
331
0
  5
5C7
331
0
  5
5C8
331
0
  5
5C9
331
0
  5
5CA
331
0
  5
5CB
331
0
  5
5CC
331
0
  5
5CD
331
0
  5
5D1
331
0
  5
5D2
331
0
  5
5D3
331
0
  5
5D4
331
0
  5
5D5
331
0
  5
5D6
331
0
  5
5D7
331
0
  5
5D8
331
0
  5
5D9
331
0
  5
5DA
331
0
  5
5DB
331
0
  5
5DC
331
0
  5
5DD
331
0
  5
5DE
331
0
  5
5DF
331
5DB
  5
5E0
331
0
  5
5E1
331
0
  5
5E2
331
0
  5
5E3
331
0
  5
5E4
331
0
  5
5E5
331
0
  5
5E6
331
0
  5
5E7
331
0
  5
5E8
331
0
  5
5E9
331
0
  5
5EA
331
0
  5
5EB
331
0
  5
5EC
331
0
  5
5ED
331
0
  5
5EE
331
0
  5
5EF
331
0
  5
5F0
331
0
  5
5F1
331
0
  5
5F2
331
0
  5
5F3
331
0
  5
5F4
331
0
  5
5F5
331
0
  5
5F6
331
0
  5
5F7
331
0
  5
5F8
331
0
  5
5F9
331
0
  5
5FA
331
0
  5
5FB
331
0
  5
5FC
331
5F8
  5
5FD
331
5F9
  5
5FE
331
5FA
  5
5FF
331
5FB
  5
600
331
5FC
  5
601
331
5FD
  5
602
331
5FE
  5
603
331
5FF
  5
604
331
600
  5
605
331
601
  5
606
331
602
  5
607
331
603
  5
608
331
604
  5
609
331
605
  5
60A
331
606
  5
60B
331
607
  5
60C
331
608
  5
60D
331
609
  5
60E
331
60A
  5
60F
331
60B
  5
610
331
60C
  5
611
331
0
  5
612
331
0
  5
613
331
0
  5
614
331
610
  5
615
331
611
  5
616
331
612
  5
617
331
613
  5
618
331
614
  5
619
331
615
  5
61A
331
616
  5
61B
331
617
  5
61C
331
618
  5
63D
331
619
  5
63E
331
61A
  5
63F
331
0
  5
640
331
0
  5
641
331
63F
  5
E2
331
640
  5
82
331
641
  5
AB
  0
LAYOUT
  5
23
102
{ACAD_REACTORS
330
24
102
}
330
24
100
AcDbPlotSettings
  1

  2
Bullzip PDF Printer.pc3
  4
A3
  6

 40
0.2
 41
0.0
 42
0.0
 43
0.0
 44
420.2
 45
297.1
 46
25.0
 47
12.0
 48
149.9999997666664
 49
10.0
140
2059.999995391666
141
1372.499996820832
142
1.0
143
5.0
 70
 11936
 72
     1
 73
     0
 74
     4
  7
monochrome.ctb
 75
     0
147
0.2
148
-149.9999997666664
149
-10.0
100
AcDbLayout
  1
Model
 70
     0
 71
     0
 10
0.0
 20
0.0
 11
12.0
 21
9.0
 12
0.0
 22
0.0
 32
0.0
 14
306.2899021064782
 24
48.88900012414388
 34
0.0
 15
1864.050949092762
 25
1420.130167328839
 35
0.0
146
0.0
 13
0.0
 23
0.0
 33
0.0
 16
1.0
 26
0.0
 36
0.0
 17
0.0
 27
1.0
 37
0.0
 76
     0
330
1B
331
31
1001
ACAD_PSEXT
1000
Bullzip PDF Printer.pc3
1000
Bullzip PDF Printer
1000
BULLZIP
1000
Bullzip PDF Printer 10.1.0.1871
1070
     0
  0
LAYOUT
  5
29
102
{ACAD_REACTORS
330
24
102
}
330
24
100
AcDbPlotSettings
  1

  2
SR-LP8300F
  4

  6

 40
0.0
 41
0.0
 42
0.0
 43
0.0
 44
0.0
 45
0.0
 46
0.0
 47
0.0
 48
0.0
 49
0.0
140
0.0
141
0.0
142
1.0
143
1.0
 70
   688
 72
     0
 73
     0
 74
     5
  7
monochrome.ctb
 75
    16
147
1.0
148
0.0
149
0.0
100
AcDbLayout
  1
ﾚｲｱｳﾄ1
 70
     0
 71
     1
 10
0.0
 20
0.0
 11
12.0
 21
9.0
 12
0.0
 22
0.0
 32
0.0
 14
1000000000000000E+20
 24
1000000000000000E+20
 34
1000000000000000E+20
 15
-1000000000000000E+20
 25
-1000000000000000E+20
 35
-1000000000000000E+20
146
0.0
 13
0.0
 23
0.0
 33
0.0
 16
1.0
 26
0.0
 36
0.0
 17
0.0
 27
1.0
 37
0.0
 76
     0
330
26
  0
MATERIAL
  5
67
102
{ACAD_REACTORS
330
B
102
}
102
{ACAD_XDICTIONARY
360
67A
102
}
330
B
100
AcDbMaterial
  1
ByBlock
 72
     0
 73
     2
 43
0.0208333333333333
 43
0.0
 43
0.0
 43
0.0
 43
0.0
 43
0.0208333333333333
 43
0.0
 43
0.0
 43
0.0
 43
0.0
 43
1.0
 43
0.0
 43
0.0
 43
0.0
 43
0.0
 43
1.0
 77
     0
 78
     2
 47
0.0208333333333333
 47
0.0
 47
0.0
 47
0.0
 47
0.0
 47
0.0208333333333333
 47
0.0
 47
0.0
 47
0.0
 47
0.0
 47
1.0
 47
0.0
 47
0.0
 47
0.0
 47
0.0
 47
1.0
171
     0
172
     2
 49
0.0208333333333333
 49
0.0
 49
0.0
 49
0.0
 49
0.0
 49
0.0208333333333333
 49
0.0
 49
0.0
 49
0.0
 49
0.0
 49
1.0
 49
0.0
 49
0.0
 49
0.0
 49
0.0
 49
1.0
175
     0
176
     2
142
0.0208333333333333
142
0.0
142
0.0
142
0.0
142
0.0
142
0.0208333333333333
142
0.0
142
0.0
142
0.0
142
0.0
142
1.0
142
0.0
142
0.0
142
0.0
142
0.0
142
1.0
179
     0
270
     2
144
0.0208333333333333
144
0.0
144
0.0
144
0.0
144
0.0
144
0.0208333333333333
144
0.0
144
0.0
144
0.0
144
0.0
144
1.0
144
0.0
144
0.0
144
0.0
144
0.0
144
1.0
274
     2
147
0.0208333333333333
147
0.0
147
0.0
147
0.0
147
0.0
147
0.0208333333333333
147
0.0
147
0.0
147
0.0
147
0.0
147
1.0
147
0.0
147
0.0
147
0.0
147
0.0
147
1.0
  0
MATERIAL
  5
14
102
{ACAD_REACTORS
330
B
102
}
102
{ACAD_XDICTIONARY
360
676
102
}
330
B
100
AcDbMaterial
  1
ByLayer
 72
     0
 73
     2
 43
0.0208333333333333
 43
0.0
 43
0.0
 43
0.0
 43
0.0
 43
0.0208333333333333
 43
0.0
 43
0.0
 43
0.0
 43
0.0
 43
1.0
 43
0.0
 43
0.0
 43
0.0
 43
0.0
 43
1.0
 77
     0
 78
     2
 47
0.0208333333333333
 47
0.0
 47
0.0
 47
0.0
 47
0.0
 47
0.0208333333333333
 47
0.0
 47
0.0
 47
0.0
 47
0.0
 47
1.0
 47
0.0
 47
0.0
 47
0.0
 47
0.0
 47
1.0
171
     0
172
     2
 49
0.0208333333333333
 49
0.0
 49
0.0
 49
0.0
 49
0.0
 49
0.0208333333333333
 49
0.0
 49
0.0
 49
0.0
 49
0.0
 49
1.0
 49
0.0
 49
0.0
 49
0.0
 49
0.0
 49
1.0
175
     0
176
     2
142
0.0208333333333333
142
0.0
142
0.0
142
0.0
142
0.0
142
0.0208333333333333
142
0.0
142
0.0
142
0.0
142
0.0
142
1.0
142
0.0
142
0.0
142
0.0
142
0.0
142
1.0
179
     0
270
     2
144
0.0208333333333333
144
0.0
144
0.0
144
0.0
144
0.0
144
0.0208333333333333
144
0.0
144
0.0
144
0.0
144
0.0
144
1.0
144
0.0
144
0.0
144
0.0
144
0.0
144
1.0
274
     2
147
0.0208333333333333
147
0.0
147
0.0
147
0.0
147
0.0
147
0.0208333333333333
147
0.0
147
0.0
147
0.0
147
0.0
147
1.0
147
0.0
147
0.0
147
0.0
147
0.0
147
1.0
  0
MATERIAL
  5
A
102
{ACAD_REACTORS
330
B
102
}
102
{ACAD_XDICTIONARY
360
678
102
}
330
B
100
AcDbMaterial
  1
Global
 72
     0
 73
     2
 43
0.0208333333333333
 43
0.0
 43
0.0
 43
0.0
 43
0.0
 43
0.0208333333333333
 43
0.0
 43
0.0
 43
0.0
 43
0.0
 43
1.0
 43
0.0
 43
0.0
 43
0.0
 43
0.0
 43
1.0
 77
     0
 78
     2
 47
0.0208333333333333
 47
0.0
 47
0.0
 47
0.0
 47
0.0
 47
0.0208333333333333
 47
0.0
 47
0.0
 47
0.0
 47
0.0
 47
1.0
 47
0.0
 47
0.0
 47
0.0
 47
0.0
 47
1.0
171
     0
172
     2
 49
0.0208333333333333
 49
0.0
 49
0.0
 49
0.0
 49
0.0
 49
0.0208333333333333
 49
0.0
 49
0.0
 49
0.0
 49
0.0
 49
1.0
 49
0.0
 49
0.0
 49
0.0
 49
0.0
 49
1.0
175
     0
176
     2
142
0.0208333333333333
142
0.0
142
0.0
142
0.0
142
0.0
142
0.0208333333333333
142
0.0
142
0.0
142
0.0
142
0.0
142
1.0
142
0.0
142
0.0
142
0.0
142
0.0
142
1.0
179
     0
270
     2
144
0.0208333333333333
144
0.0
144
0.0
144
0.0
144
0.0
144
0.0208333333333333
144
0.0
144
0.0
144
0.0
144
0.0
144
1.0
144
0.0
144
0.0
144
0.0
144
0.0
144
1.0
274
     2
147
0.0208333333333333
147
0.0
147
0.0
147
0.0
147
0.0
147
0.0208333333333333
147
0.0
147
0.0
147
0.0
147
0.0
147
1.0
147
0.0
147
0.0
147
0.0
147
0.0
147
1.0
1001
ACAD
1070
    -1
1070
     3
1070
     0
1000

1071
        0
  0
MLEADERSTYLE
  5
63B
102
{ACAD_REACTORS
330
620
102
}
102
{ACAD_XDICTIONARY
360
6AC
102
}
330
620
100
AcDbMLeaderStyle
170
     2
171
     1
172
     0
 90
        2
 40
0.0
 41
0.0
173
     1
 91
-1056964608
340
11
 92
       -2
290
     1
 42
0.09
291
     1
 43
0.36
  3
Standard
341
0
 44
0.18
300

342
12
174
     1
178
     6
175
     1
176
     0
 93
-1056964608
 45
0.18
292
     0
297
     0
 46
0.18
343
0
 94
-1056964608
 47
1.0
 49
1.0
140
1.0
293
     1
141
0.0
294
     1
177
     0
142
1.0
295
     0
296
     0
143
0.125
1001
ACAD_MLEADERVER
1070
     2
  0
MLINESTYLE
  5
18
102
{ACAD_REACTORS
330
19
102
}
330
19
100
AcDbMlineStyle
  2
STANDARD
 70
     0
  3

 62
     0
 51
90.0
 52
90.0
 71
     2
 49
0.5
 62
   256
  6
BYLAYER
 49
-0.5
 62
   256
  6
BYLAYER
  0
ACDBPLACEHOLDER
  5
7
102
{ACAD_REACTORS
330
8
102
}
330
8
  0
SCALE
  5
56
102
{ACAD_REACTORS
330
34
102
}
330
34
100
AcDbScale
 70
     0
300
1:1
140
1.0
141
1.0
290
     1
  0
SCALE
  5
5F
102
{ACAD_REACTORS
330
34
102
}
330
34
100
AcDbScale
 70
     0
300
3/8" = 1'-0"
140
0.375
141
12.0
290
     0
  0
SCALE
  5
60
102
{ACAD_REACTORS
330
34
102
}
330
34
100
AcDbScale
 70
     0
300
1/2" = 1'-0"
140
0.5
141
12.0
290
     0
  0
SCALE
  5
61
102
{ACAD_REACTORS
330
34
102
}
330
34
100
AcDbScale
 70
     0
300
3/4" = 1'-0"
140
0.75
141
12.0
290
     0
  0
SCALE
  5
62
102
{ACAD_REACTORS
330
34
102
}
330
34
100
AcDbScale
 70
     0
300
1" = 1'-0"
140
1.0
141
12.0
290
     0
  0
SCALE
  5
63
102
{ACAD_REACTORS
330
34
102
}
330
34
100
AcDbScale
 70
     0
300
1-1/2" = 1'-0"
140
1.5
141
12.0
290
     0
  0
SCALE
  5
64
102
{ACAD_REACTORS
330
34
102
}
330
34
100
AcDbScale
 70
     0
300
3" = 1'-0"
140
3.0
141
12.0
290
     0
  0
SCALE
  5
65
102
{ACAD_REACTORS
330
34
102
}
330
34
100
AcDbScale
 70
     0
300
6" = 1'-0"
140
6.0
141
12.0
290
     0
  0
SCALE
  5
66
102
{ACAD_REACTORS
330
34
102
}
330
34
100
AcDbScale
 70
     0
300
1'-0" = 1'-0"
140
12.0
141
12.0
290
     0
  0
SCALE
  5
57
102
{ACAD_REACTORS
330
34
102
}
330
34
100
AcDbScale
 70
     0
300
1/128" = 1'-0"
140
0.0078125
141
12.0
290
     0
  0
SCALE
  5
58
102
{ACAD_REACTORS
330
34
102
}
330
34
100
AcDbScale
 70
     0
300
1/64" = 1'-0"
140
0.015625
141
12.0
290
     0
  0
SCALE
  5
59
102
{ACAD_REACTORS
330
34
102
}
330
34
100
AcDbScale
 70
     0
300
1/32" = 1'-0"
140
0.03125
141
12.0
290
     0
  0
SCALE
  5
5A
102
{ACAD_REACTORS
330
34
102
}
330
34
100
AcDbScale
 70
     0
300
1/16" = 1'-0"
140
0.0625
141
12.0
290
     0
  0
SCALE
  5
5B
102
{ACAD_REACTORS
330
34
102
}
330
34
100
AcDbScale
 70
     0
300
3/32" = 1'-0"
140
0.09375
141
12.0
290
     0
  0
SCALE
  5
5C
102
{ACAD_REACTORS
330
34
102
}
330
34
100
AcDbScale
 70
     0
300
1/8" = 1'-0"
140
0.125
141
12.0
290
     0
  0
SCALE
  5
5D
102
{ACAD_REACTORS
330
34
102
}
330
34
100
AcDbScale
 70
     0
300
3/16" = 1'-0"
140
0.1875
141
12.0
290
     0
  0
SCALE
  5
5E
102
{ACAD_REACTORS
330
34
102
}
330
34
100
AcDbScale
 70
     0
300
1/4" = 1'-0"
140
0.25
141
12.0
290
     0
  0
TABLESTYLE
  5
66A
102
{ACAD_REACTORS
330
61F
102
}
330
61F
100
AcDbTableStyle
  3
Standard
 70
     0
 71
     0
 40
0.06
 41
0.06
280
     0
281
     0
  7
STANDARD
140
0.18
170
     2
 62
     0
 63
   257
283
     0
274
    -2
284
     1
 64
     0
275
    -2
285
     1
 65
     0
276
    -2
286
     1
 66
     0
277
    -2
287
     1
 67
     0
278
    -2
288
     1
 68
     0
279
    -2
289
     1
 69
     0
  7
STANDARD
140
0.25
170
     5
 62
     0
 63
   257
283
     0
274
    -2
284
     1
 64
     0
275
    -2
285
     1
 65
     0
276
    -2
286
     1
 66
     0
277
    -2
287
     1
 67
     0
278
    -2
288
     1
 68
     0
279
    -2
289
     1
 69
     0
  7
STANDARD
140
0.18
170
     5
 62
     0
 63
   257
283
     0
274
    -2
284
     1
 64
     0
275
    -2
285
     1
 65
     0
276
    -2
286
     1
 66
     0
277
    -2
287
     1
 67
     0
278
    -2
288
     1
 68
     0
279
    -2
289
     1
 69
     0
  0
VISUALSTYLE
  5
627
102
{ACAD_REACTORS
330
30
102
}
102
{ACAD_XDICTIONARY
360
684
102
}
330
30
100
AcDbVisualStyle
  2
2dWireframe
 70
     4
 71
     0
 72
     2
 73
     0
 90
        0
 40
0.6
 41
30.0
 62
     5
 63
     7
 74
     1
 91
        4
 64
     7
 65
   257
 75
     1
175
     1
 42
1.0
 92
        0
 66
   257
 43
1.0
 76
     1
 77
     6
 78
     2
 67
     7
 79
     5
170
     0
171
     0
290
     0
174
     0
 93
        1
 44
0.0
173
     0
291
     0
 45
0.0
1001
ACAD
1000
AcDbSavedByObjectVersion
1070
     0
  0
VISUALSTYLE
  5
62A
102
{ACAD_REACTORS
330
30
102
}
102
{ACAD_XDICTIONARY
360
68A
102
}
330
30
100
AcDbVisualStyle
  2
Basic
 70
     7
 71
     1
 72
     0
 73
     1
 90
        0
 40
0.6
 41
30.0
 62
     5
 63
     7
 74
     0
 91
        4
 64
     7
 65
   257
 75
     1
175
     1
 42
1.0
 92
        8
 66
     7
 43
1.0
 76
     1
 77
     6
 78
     2
 67
     7
 79
     5
170
     0
171
     0
290
     0
174
     0
 93
        1
 44
0.0
173
     0
291
     1
 45
0.0
1001
ACAD
1000
AcDbSavedByObjectVersion
1070
     0
  0
VISUALSTYLE
  5
62E
102
{ACAD_REACTORS
330
30
102
}
102
{ACAD_XDICTIONARY
360
692
102
}
330
30
100
AcDbVisualStyle
  2
Brighten
 70
    12
 71
     2
 72
     2
 73
     0
 90
        0
 40
0.6
 41
30.0
 62
     5
 63
     7
 74
     1
 91
        4
 64
     7
 65
   257
 75
     1
175
     1
 42
1.0
 92
        8
 66
     7
 43
1.0
 76
     1
 77
     6
 78
     2
 67
     7
 79
     5
170
     0
171
     0
290
     0
174
     0
 93
        1
 44
50.0
173
     0
291
     1
 45
0.0
1001
ACAD
1000
AcDbSavedByObjectVersion
1070
     0
  0
VISUALSTYLE
  5
632
102
{ACAD_REACTORS
330
30
102
}
102
{ACAD_XDICTIONARY
360
69A
102
}
330
30
100
AcDbVisualStyle
  2
ColorChange
 70
    16
 71
     2
 72
     2
 73
     3
 90
        0
 40
0.6
 41
30.0
 62
     5
 63
     8
 74
     1
 91
        4
 64
     7
 65
   257
 75
     1
175
     1
 42
1.0
 92
        8
 66
     8
 43
1.0
 76
     1
 77
     6
 78
     2
 67
     7
 79
     5
170
     0
171
     0
290
     0
174
     0
 93
        1
 44
0.0
173
     0
291
     1
 45
0.0
1001
ACAD
1000
AcDbSavedByObjectVersion
1070
     0
  0
VISUALSTYLE
  5
62C
102
{ACAD_REACTORS
330
30
102
}
102
{ACAD_XDICTIONARY
360
68E
102
}
330
30
100
AcDbVisualStyle
  2
Conceptual
 70
     9
 71
     3
 72
     2
 73
     0
 90
        0
 40
0.6
 41
30.0
 62
     5
 63
     7
 74
     2
 91
        2
 64
     7
 65
   257
 75
     1
175
     1
 42
40.0
 92
        8
 66
     7
 43
1.0
 76
     1
 77
     6
 78
     2
 67
     7
 79
     3
170
     0
171
     0
290
     0
174
     0
 93
        1
 44
0.0
173
     0
291
     0
 45
0.0
1001
ACAD
1000
AcDbSavedByObjectVersion
1070
     0
  0
VISUALSTYLE
  5
62D
102
{ACAD_REACTORS
330
30
102
}
102
{ACAD_XDICTIONARY
360
690
102
}
330
30
100
AcDbVisualStyle
  2
Dim
 70
    11
 71
     2
 72
     2
 73
     0
 90
        0
 40
0.6
 41
30.0
 62
     5
 63
     7
 74
     1
 91
        4
 64
     7
 65
   257
 75
     1
175
     1
 42
1.0
 92
        8
 66
     7
 43
1.0
 76
     1
 77
     6
 78
     2
 67
     7
 79
     5
170
     0
171
     0
290
     0
174
     0
 93
        1
 44
-50.0
173
     0
291
     1
 45
0.0
1001
ACAD
1000
AcDbSavedByObjectVersion
1070
     0
  0
VISUALSTYLE
  5
635
102
{ACAD_REACTORS
330
30
102
}
102
{ACAD_XDICTIONARY
360
6A0
102
}
330
30
100
AcDbVisualStyle
  2
EdgeColorOff
 70
    22
 71
     2
 72
     2
 73
     0
 90
        0
 40
0.6
 41
30.0
 62
     5
 63
     7
 74
     1
 91
        4
 64
     7
 65
   257
 75
     1
175
     1
 42
1.0
 92
        8
 66
     7
 43
1.0
 76
     1
 77
     6
 78
     2
 67
     7
 79
     5
170
     0
171
     0
290
     0
174
     0
 93
        1
 44
0.0
173
     0
291
     1
 45
0.0
1001
ACAD
1000
AcDbSavedByObjectVersion
1070
     0
  0
VISUALSTYLE
  5
631
102
{ACAD_REACTORS
330
30
102
}
102
{ACAD_XDICTIONARY
360
698
102
}
330
30
100
AcDbVisualStyle
  2
Facepattern
 70
    15
 71
     2
 72
     2
 73
     0
 90
        0
 40
0.6
 41
30.0
 62
     5
 63
     7
 74
     1
 91
        4
 64
     7
 65
   257
 75
     1
175
     1
 42
1.0
 92
        8
 66
     7
 43
1.0
 76
     1
 77
     6
 78
     2
 67
     7
 79
     5
170
     0
171
     0
290
     0
174
     0
 93
        1
 44
0.0
173
     0
291
     1
 45
0.0
1001
ACAD
1000
AcDbSavedByObjectVersion
1070
     0
  0
VISUALSTYLE
  5
623
102
{ACAD_REACTORS
330
30
102
}
102
{ACAD_XDICTIONARY
360
67C
102
}
330
30
100
AcDbVisualStyle
  2
Flat
 70
     0
 71
     2
 72
     1
 73
     1
 90
        2
 40
0.6
 41
30.0
 62
     5
 63
     7
 74
     0
 91
        4
 64
     7
 65
   257
 75
     1
175
     1
 42
1.0
 92
        8
 66
     7
 43
1.0
 76
     1
 77
     6
 78
     2
 67
     7
 79
     5
170
     0
171
     0
290
     0
174
     0
 93
       13
 44
0.0
173
     0
291
     1
 45
0.0
1001
ACAD
1000
AcDbSavedByObjectVersion
1070
     0
  0
VISUALSTYLE
  5
624
102
{ACAD_REACTORS
330
30
102
}
102
{ACAD_XDICTIONARY
360
67E
102
}
330
30
100
AcDbVisualStyle
  2
FlatWithEdges
 70
     1
 71
     2
 72
     1
 73
     1
 90
        2
 40
0.6
 41
30.0
 62
     5
 63
     7
 74
     1
 91
        4
 64
     7
 65
   257
 75
     1
175
     1
 42
1.0
 92
        0
 66
   257
 43
1.0
 76
     1
 77
     6
 78
     2
 67
     7
 79
     5
170
     0
171
     0
290
     0
174
     0
 93
       13
 44
0.0
173
     0
291
     1
 45
0.0
1001
ACAD
1000
AcDbSavedByObjectVersion
1070
     0
  0
VISUALSTYLE
  5
625
102
{ACAD_REACTORS
330
30
102
}
102
{ACAD_XDICTIONARY
360
680
102
}
330
30
100
AcDbVisualStyle
  2
Gouraud
 70
     2
 71
     2
 72
     2
 73
     1
 90
        2
 40
0.6
 41
30.0
 62
     5
 63
     7
 74
     0
 91
        4
 64
     7
 65
   257
 75
     1
175
     1
 42
1.0
 92
        0
 66
     7
 43
1.0
 76
     1
 77
     6
 78
     2
 67
     7
 79
     5
170
     0
171
     0
290
     0
174
     0
 93
       13
 44
0.0
173
     0
291
     1
 45
0.0
1001
ACAD
1000
AcDbSavedByObjectVersion
1070
     0
  0
VISUALSTYLE
  5
626
102
{ACAD_REACTORS
330
30
102
}
102
{ACAD_XDICTIONARY
360
682
102
}
330
30
100
AcDbVisualStyle
  2
GouraudWithEdges
 70
     3
 71
     2
 72
     2
 73
     1
 90
        2
 40
0.6
 41
30.0
 62
     5
 63
     7
 74
     1
 91
        4
 64
     7
 65
   257
 75
     1
175
     1
 42
1.0
 92
        0
 66
   257
 43
1.0
 76
     1
 77
     6
 78
     2
 67
     7
 79
     5
170
     0
171
     0
290
     0
174
     0
 93
       13
 44
0.0
173
     0
291
     1
 45
0.0
1001
ACAD
1000
AcDbSavedByObjectVersion
1070
     0
  0
VISUALSTYLE
  5
629
102
{ACAD_REACTORS
330
30
102
}
102
{ACAD_XDICTIONARY
360
688
102
}
330
30
100
AcDbVisualStyle
  2
Hidden
 70
     6
 71
     1
 72
     2
 73
     2
 90
        0
 40
0.6
 41
30.0
 62
     5
 63
     7
 74
     2
 91
        2
 64
     7
 65
   257
 75
     2
175
     1
 42
40.0
 92
        0
 66
   257
 43
1.0
 76
     1
 77
     6
 78
     2
 67
     7
 79
     3
170
     0
171
     0
290
     0
174
     0
 93
        1
 44
0.0
173
     0
291
     0
 45
0.0
1001
ACAD
1000
AcDbSavedByObjectVersion
1070
     0
  0
VISUALSTYLE
  5
633
102
{ACAD_REACTORS
330
30
102
}
102
{ACAD_XDICTIONARY
360
69C
102
}
330
30
100
AcDbVisualStyle
  2
JitterOff
 70
    20
 71
     2
 72
     2
 73
     0
 90
        0
 40
0.6
 41
30.0
 62
     5
 63
     7
 74
     1
 91
        4
 64
     7
 65
   257
 75
     1
175
     1
 42
1.0
 92
       10
 66
     7
 43
1.0
 76
     1
 77
     6
 78
     2
 67
     7
 79
     5
170
     0
171
     0
290
     0
174
     0
 93
        1
 44
0.0
173
     0
291
     1
 45
0.0
1001
ACAD
1000
AcDbSavedByObjectVersion
1070
     0
  0
VISUALSTYLE
  5
630
102
{ACAD_REACTORS
330
30
102
}
102
{ACAD_XDICTIONARY
360
696
102
}
330
30
100
AcDbVisualStyle
  2
Linepattern
 70
    14
 71
     2
 72
     2
 73
     0
 90
        0
 40
0.6
 41
30.0
 62
     5
 63
     7
 74
     1
 91
        4
 64
     7
 65
   257
 75
     7
175
     7
 42
1.0
 92
        8
 66
     7
 43
1.0
 76
     1
 77
     6
 78
     2
 67
     7
 79
     5
170
     0
171
     0
290
     0
174
     0
 93
        1
 44
0.0
173
     0
291
     1
 45
0.0
1001
ACAD
1000
AcDbSavedByObjectVersion
1070
     0
  0
VISUALSTYLE
  5
634
102
{ACAD_REACTORS
330
30
102
}
102
{ACAD_XDICTIONARY
360
69E
102
}
330
30
100
AcDbVisualStyle
  2
OverhangOff
 70
    21
 71
     2
 72
     2
 73
     0
 90
        0
 40
0.6
 41
30.0
 62
     5
 63
     7
 74
     1
 91
        4
 64
     7
 65
   257
 75
     1
175
     1
 42
1.0
 92
        9
 66
     7
 43
1.0
 76
     1
 77
     6
 78
     2
 67
     7
 79
     5
170
     0
171
     0
290
     0
174
     0
 93
        1
 44
0.0
173
     0
291
     1
 45
0.0
1001
ACAD
1000
AcDbSavedByObjectVersion
1070
     0
  0
VISUALSTYLE
  5
62B
102
{ACAD_REACTORS
330
30
102
}
102
{ACAD_XDICTIONARY
360
68C
102
}
330
30
100
AcDbVisualStyle
  2
Realistic
 70
     8
 71
     2
 72
     3
 73
     0
 90
        2
 40
0.6
 41
30.0
 62
     5
 63
     7
 74
     0
 91
        0
 64
     7
 65
   257
 75
     1
175
     1
 42
1.0
 92
        8
 66
   257
 43
1.0
 76
     1
 77
     6
 78
     2
 67
     7
 79
     3
170
     0
171
     0
290
     0
174
     0
 93
       13
 44
0.0
173
     0
291
     0
 45
0.0
1001
ACAD
1000
AcDbSavedByObjectVersion
1070
     0
  0
VISUALSTYLE
  5
63A
102
{ACAD_REACTORS
330
30
102
}
102
{ACAD_XDICTIONARY
360
6AA
102
}
330
30
100
AcDbVisualStyle
  2
Shaded
 70
    27
 71
     2
 72
     2
 73
     1
 90
        2
 40
0.6
 41
30.0
 62
     5
 63
     7
 74
     0
 91
        4
 64
     7
 65
   257
 75
     1
175
     1
 42
1.0
 92
        8
 66
   257
 43
1.0
 76
     1
 77
     6
 78
     2
 67
   251
 79
     3
170
     0
171
     0
290
     0
174
     0
 93
        5
 44
0.0
173
     0
291
     0
 45
0.0
1001
ACAD
1000
AcDbSavedByObjectVersion
1070
     0
  0
VISUALSTYLE
  5
639
102
{ACAD_REACTORS
330
30
102
}
102
{ACAD_XDICTIONARY
360
6A8
102
}
330
30
100
AcDbVisualStyle
  2
Shaded with edges
 70
    26
 71
     2
 72
     2
 73
     1
 90
        2
 40
0.6
 41
30.0
 62
     5
 63
     7
 74
     1
 91
       10
 64
     7
 65
   257
 75
     2
175
     1
 42
1.0
 92
        8
 66
   257
 43
1.0
 76
     1
 77
     6
 78
     2
 67
     7
 79
     3
170
     0
171
     0
290
     0
174
     0
 93
        5
 44
0.0
173
     0
291
     0
 45
0.0
1001
ACAD
1000
AcDbSavedByObjectVersion
1070
     0
  0
VISUALSTYLE
  5
636
102
{ACAD_REACTORS
330
30
102
}
102
{ACAD_XDICTIONARY
360
6A2
102
}
330
30
100
AcDbVisualStyle
  2
Shades of Gray
 70
    23
 71
     2
 72
     2
 73
     3
 90
        0
 40
0.6
 41
30.0
 62
     5
 63
     7
 74
     2
 91
        2
 64
     7
 65
     7
 75
     1
175
     1
 42
40.0
 92
        8
 66
     7
 43
1.0
 76
     1
 77
     6
 78
     2
 67
     7
 79
     3
170
     0
171
     0
290
     0
174
     0
 93
        1
 44
0.0
173
     0
291
     0
 45
0.0
1001
ACAD
1000
AcDbSavedByObjectVersion
1070
     0
  0
VISUALSTYLE
  5
637
102
{ACAD_REACTORS
330
30
102
}
102
{ACAD_XDICTIONARY
360
6A4
102
}
330
30
100
AcDbVisualStyle
  2
Sketchy
 70
    24
 71
     1
 72
     2
 73
     2
 90
        0
 40
0.6
 41
30.0
 62
     5
 63
     7
 74
     2
 91
        2
 64
     7
 65
     7
 75
     1
175
     1
 42
40.0
 92
       11
 66
     7
 43
1.0
 76
     1
 77
     6
 78
     2
 67
     7
 79
     6
170
     0
171
     0
290
     0
174
     0
 93
        1
 44
0.0
173
     0
291
     0
 45
0.0
1001
ACAD
1000
AcDbSavedByObjectVersion
1070
     0
  0
VISUALSTYLE
  5
62F
102
{ACAD_REACTORS
330
30
102
}
102
{ACAD_XDICTIONARY
360
694
102
}
330
30
100
AcDbVisualStyle
  2
Thicken
 70
    13
 71
     2
 72
     2
 73
     0
 90
        0
 40
0.6
 41
30.0
 62
     5
 63
     7
 74
     1
 91
        4
 64
     7
 65
   257
 75
     1
175
     1
 42
1.0
 92
       12
 66
     7
 43
1.0
 76
     1
 77
     6
 78
     2
 67
     7
 79
     5
170
     0
171
     0
290
     0
174
     0
 93
        1
 44
0.0
173
     0
291
     1
 45
0.0
1001
ACAD
1000
AcDbSavedByObjectVersion
1070
     0
  0
VISUALSTYLE
  5
628
102
{ACAD_REACTORS
330
30
102
}
102
{ACAD_XDICTIONARY
360
686
102
}
330
30
100
AcDbVisualStyle
  2
Wireframe
 70
     5
 71
     0
 72
     2
 73
     0
 90
        0
 40
0.6
 41
30.0
 62
     5
 63
     7
 74
     1
 91
        4
 64
     7
 65
   257
 75
     1
175
     1
 42
1.0
 92
        0
 66
   257
 43
1.0
 76
     1
 77
     6
 78
     2
 67
     7
 79
     5
170
     0
171
     0
290
     0
174
     0
 93
        1
 44
0.0
173
     0
291
     0
 45
0.0
1001
ACAD
1000
AcDbSavedByObjectVersion
1070
     0
  0
VISUALSTYLE
  5
638
102
{ACAD_REACTORS
330
30
102
}
102
{ACAD_XDICTIONARY
360
6A6
102
}
330
30
100
AcDbVisualStyle
  2
X-Ray
 70
    25
 71
     2
 72
     2
 73
     1
 90
        1
 40
0.5
 41
30.0
 62
     5
 63
     7
 74
     1
 91
        0
 64
     7
 65
   257
 75
     1
175
     1
 42
1.0
 92
        8
 66
     7
 43
1.0
 76
     1
 77
     6
 78
     2
 67
     7
 79
     3
170
     0
171
     0
290
     0
174
     0
 93
       13
 44
0.0
173
     0
291
     0
 45
0.0
1001
ACAD
1000
AcDbSavedByObjectVersion
1070
     0
  0
XRECORD
  5
670
102
{ACAD_REACTORS
330
66F
102
}
330
66F
100
AcDbXrecord
280
     1
340
2F
  0
XRECORD
  5
671
102
{ACAD_REACTORS
330
66F
102
}
330
66F
100
AcDbXrecord
280
     1
340
B
  0
DICTIONARYVAR
  5
61E
102
{ACAD_REACTORS
330
61D
102
}
330
61D
100
DictionaryVariables
280
     0
  1
1:1
  0
DICTIONARYVAR
  5
669
102
{ACAD_REACTORS
330
61D
102
}
330
61D
100
DictionaryVariables
280
     0
  1
Standard
  0
DICTIONARYVAR
  5
66B
102
{ACAD_REACTORS
330
61D
102
}
330
61D
100
DictionaryVariables
280
     0
  1
Standard
  0
DICTIONARYVAR
  5
66C
102
{ACAD_REACTORS
330
61D
102
}
330
61D
100
DictionaryVariables
280
     0
  1
0
  0
DICTIONARYVAR
  5
66D
102
{ACAD_REACTORS
330
61D
102
}
330
61D
100
DictionaryVariables
280
     0
  1
0
  0
DICTIONARYVAR
  5
675
102
{ACAD_REACTORS
330
61D
102
}
330
61D
100
DictionaryVariables
280
     0
  1
1
  0
DICTIONARYVAR
  5
66E
102
{ACAD_REACTORS
330
61D
102
}
330
61D
100
DictionaryVariables
280
     0
  1
0
  0
DICTIONARY
  5
67A
330
67
100
AcDbDictionary
280
     1
281
     1
  3
ACAD_XREC_ROUNDTRIP
360
67B
  0
DICTIONARY
  5
676
330
14
100
AcDbDictionary
280
     1
281
     1
  3
ACAD_XREC_ROUNDTRIP
360
677
  0
DICTIONARY
  5
678
330
A
100
AcDbDictionary
280
     1
281
     1
  3
ACAD_XREC_ROUNDTRIP
360
679
  0
DICTIONARY
  5
6AC
330
63B
100
AcDbDictionary
280
     1
281
     1
  3
ACAD_XREC_ROUNDTRIP
360
6AD
  0
DICTIONARY
  5
684
330
627
100
AcDbDictionary
280
     1
281
     1
  3
ACAD_XREC_ROUNDTRIP
360
685
  0
DICTIONARY
  5
68A
330
62A
100
AcDbDictionary
280
     1
281
     1
  3
ACAD_XREC_ROUNDTRIP
360
68B
  0
DICTIONARY
  5
692
330
62E
100
AcDbDictionary
280
     1
281
     1
  3
ACAD_XREC_ROUNDTRIP
360
693
  0
DICTIONARY
  5
69A
330
632
100
AcDbDictionary
280
     1
281
     1
  3
ACAD_XREC_ROUNDTRIP
360
69B
  0
DICTIONARY
  5
68E
330
62C
100
AcDbDictionary
280
     1
281
     1
  3
ACAD_XREC_ROUNDTRIP
360
68F
  0
DICTIONARY
  5
690
330
62D
100
AcDbDictionary
280
     1
281
     1
  3
ACAD_XREC_ROUNDTRIP
360
691
  0
DICTIONARY
  5
6A0
330
635
100
AcDbDictionary
280
     1
281
     1
  3
ACAD_XREC_ROUNDTRIP
360
6A1
  0
DICTIONARY
  5
698
330
631
100
AcDbDictionary
280
     1
281
     1
  3
ACAD_XREC_ROUNDTRIP
360
699
  0
DICTIONARY
  5
67C
330
623
100
AcDbDictionary
280
     1
281
     1
  3
ACAD_XREC_ROUNDTRIP
360
67D
  0
DICTIONARY
  5
67E
330
624
100
AcDbDictionary
280
     1
281
     1
  3
ACAD_XREC_ROUNDTRIP
360
67F
  0
DICTIONARY
  5
680
330
625
100
AcDbDictionary
280
     1
281
     1
  3
ACAD_XREC_ROUNDTRIP
360
681
  0
DICTIONARY
  5
682
330
626
100
AcDbDictionary
280
     1
281
     1
  3
ACAD_XREC_ROUNDTRIP
360
683
  0
DICTIONARY
  5
688
330
629
100
AcDbDictionary
280
     1
281
     1
  3
ACAD_XREC_ROUNDTRIP
360
689
  0
DICTIONARY
  5
69C
330
633
100
AcDbDictionary
280
     1
281
     1
  3
ACAD_XREC_ROUNDTRIP
360
69D
  0
DICTIONARY
  5
696
330
630
100
AcDbDictionary
280
     1
281
     1
  3
ACAD_XREC_ROUNDTRIP
360
697
  0
DICTIONARY
  5
69E
330
634
100
AcDbDictionary
280
     1
281
     1
  3
ACAD_XREC_ROUNDTRIP
360
69F
  0
DICTIONARY
  5
68C
330
62B
100
AcDbDictionary
280
     1
281
     1
  3
ACAD_XREC_ROUNDTRIP
360
68D
  0
DICTIONARY
  5
6AA
330
63A
100
AcDbDictionary
280
     1
281
     1
  3
ACAD_XREC_ROUNDTRIP
360
6AB
  0
DICTIONARY
  5
6A8
330
639
100
AcDbDictionary
280
     1
281
     1
  3
ACAD_XREC_ROUNDTRIP
360
6A9
  0
DICTIONARY
  5
6A2
330
636
100
AcDbDictionary
280
     1
281
     1
  3
ACAD_XREC_ROUNDTRIP
360
6A3
  0
DICTIONARY
  5
6A4
330
637
100
AcDbDictionary
280
     1
281
     1
  3
ACAD_XREC_ROUNDTRIP
360
6A5
  0
DICTIONARY
  5
694
330
62F
100
AcDbDictionary
280
     1
281
     1
  3
ACAD_XREC_ROUNDTRIP
360
695
  0
DICTIONARY
  5
686
330
628
100
AcDbDictionary
280
     1
281
     1
  3
ACAD_XREC_ROUNDTRIP
360
687
  0
DICTIONARY
  5
6A6
330
638
100
AcDbDictionary
280
     1
281
     1
  3
ACAD_XREC_ROUNDTRIP
360
6A7
  0
XRECORD
  5
67B
102
{ACAD_REACTORS
330
67A
102
}
330
67A
100
AcDbXrecord
280
     1
102
MATERIAL
148
0.0
149
0.0
149
0.0
 93
        0
 94
      127
282
     0
 72
     0
 77
     0
171
     0
175
     0
179
     0
273
     0
  0
XRECORD
  5
677
102
{ACAD_REACTORS
330
676
102
}
330
676
100
AcDbXrecord
280
     1
102
MATERIAL
148
0.0
149
0.0
149
0.0
 93
        0
 94
      127
282
     0
 72
     0
 77
     0
171
     0
175
     0
179
     0
273
     0
  0
XRECORD
  5
679
102
{ACAD_REACTORS
330
678
102
}
330
678
100
AcDbXrecord
280
     1
102
MATERIAL
148
0.0
149
0.0
149
0.0
 93
        0
 94
      127
282
     0
 72
     0
 77
     0
171
     0
175
     0
179
     0
273
     0
  0
XRECORD
  5
6AD
102
{ACAD_REACTORS
330
6AC
102
}
330
6AC
100
AcDbXrecord
280
     1
102
ACAD_ROUNDTRIP_2010_MLEADER_STYLE
  0
XRECORD
  5
685
102
{ACAD_REACTORS
330
684
102
}
330
684
100
AcDbXrecord
280
     1
102
RTVSPropertyOp0
 70
     1
102
RTVSPropertyOp1
 70
     1
102
RTVSPropertyOp2
 70
     1
102
RTVSPropertyOp3
 70
     1
102
RTVSPropertyOp4
 70
     1
102
RTVSPropertyOp5
 70
     1
102
RTVSPropertyOp6
 70
     1
102
RTVSPropertyOp7
 70
     1
102
RTVSPropertyOp8
 70
     1
102
RTVSPropertyOp9
 70
     1
102
RTVSPropertyOp10
 70
     1
102
RTVSPropertyOp11
 70
     1
102
RTVSPropertyOp12
 70
     1
102
RTVSPropertyOp13
 70
     1
102
RTVSPropertyOp14
 70
     1
102
RTVSPropertyOp15
 70
     1
102
RTVSPropertyOp16
 70
     1
102
RTVSPropertyOp17
 70
     1
102
RTVSPropertyOp18
 70
     1
102
RTVSPropertyOp19
 70
     1
102
RTVSPropertyOp20
 70
     1
102
RTVSPropertyOp21
 70
     1
102
RTVSPropertyOp22
 70
     1
102
RTVSPropertyOp23
 70
     1
102
RTVSPropertyOp24
 70
     1
102
RTVSPropertyOp25
 70
     1
102
RTVSPropertyOp26
 70
     1
102
RTVSPropertyOp27
 70
     1
102
RTVSPropertyOp28
 70
     1
102
RTVSPropertyOp29
 70
     1
102
RTVSPropertyOp30
 70
     1
102
RTVSPropertyOp31
 70
     1
102
RTVSPropertyOp32
 70
     1
102
RTVSPropertyOp33
 70
     1
102
RTVSPropertyOp34
 70
     1
102
RTVSPropertyOp35
 70
     1
102
RTVSPropertyOp36
 70
     1
102
RTVSPropertyOp37
 70
     1
102
RTVSPropertyOp38
 70
     1
102
RTVSPropertyOp39
 70
     1
102
RTVSPropertyOp40
 70
     1
102
RTVSPropertyOp41
 70
     1
102
RTVSPropertyOp42
 70
     1
102
RTVSPropertyOp43
 70
     1
102
RTVSPropertyOp44
 70
     1
102
RTVSPropertyOp45
 70
     1
102
RTVSPropertyOp46
 70
     1
102
RTVSPropertyOp47
 70
     1
102
RTVSPropertyOp48
 70
     1
102
RTVSPropertyOp49
 70
     1
102
RTVSPropertyOp50
 70
     1
102
RTVSPropertyOp51
 70
     0
102
RTVSPropertyOp52
 70
     0
102
RTVSPropertyOp53
 70
     1
102
RTVSPropertyOp54
 70
     1
102
RTVSPropertyOp55
 70
     1
102
RTVSPropertyOp56
 70
     1
102
RTVSPropertyOp57
 70
     1
102
RTVSPost2010Prop28
280
     1
102
RTVSPost2010PropOp28
 70
     1
102
RTVSPost2010Prop29
280
     1
102
RTVSPost2010PropOp29
 70
     1
102
RTVSPost2010Prop30
280
     0
102
RTVSPost2010PropOp30
 70
     1
102
RTVSPost2010Prop31
280
     0
102
RTVSPost2010PropOp31
 70
     1
102
RTVSPost2010Prop32
280
     0
102
RTVSPost2010PropOp32
 70
     1
102
RTVSPost2010Prop33
280
     0
102
RTVSPost2010PropOp33
 70
     1
102
RTVSPost2010Prop34
280
     0
102
RTVSPost2010PropOp34
 70
     1
102
RTVSPost2010Prop35
280
     0
102
RTVSPost2010PropOp35
 70
     1
102
RTVSPost2010Prop36
280
     0
102
RTVSPost2010PropOp36
 70
     1
102
RTVSPost2010Prop37
 90
       50
102
RTVSPost2010PropOp37
 70
     1
102
RTVSPost2010Prop38
140
0.0
102
RTVSPost2010PropOp38
 70
     1
102
RTVSPost2010Prop39
140
1.0
102
RTVSPost2010PropOp39
 70
     1
102
RTVSPost2010Prop40
 90
        0
102
RTVSPost2010PropOp40
 70
     1
102
RTVSPost2010Prop41ColorIndex
 90
       18
102
RTVSPost2010Prop41ColorRGB
 90
        0
102
RTVSPost2010PropOp41
 70
     1
102
RTVSPost2010Prop42
 90
       50
102
RTVSPost2010PropOp42
 70
     1
102
RTVSPost2010Prop43
 90
        3
102
RTVSPost2010PropOp43
 70
     1
102
RTVSPost2010Prop44ColorIndex
 90
        5
102
RTVSPost2010Prop44ColorRGB
 90
      255
102
RTVSPost2010PropOp44
 70
     1
102
RTVSPost2010Prop45
280
     0
102
RTVSPost2010PropOp45
 70
     1
102
RTVSPost2010Prop46
 90
       50
102
RTVSPost2010PropOp46
 70
     1
102
RTVSPost2010Prop47
 90
       50
102
RTVSPost2010PropOp47
 70
     1
102
RTVSPost2010Prop48
 90
       50
102
RTVSPost2010PropOp48
 70
     1
102
RTVSPost2010Prop49
280
     0
102
RTVSPost2010PropOp49
 70
     1
102
RTVSPost2010Prop50
 90
       50
102
RTVSPost2010PropOp50
 70
     1
102
RTVSPost2010Prop51ColorIndex
 90
      256
102
RTVSPost2010Prop51ColorRGB
 90
-16777216
102
RTVSPost2010PropOp51
 70
     0
102
RTVSPost2010Prop52
140
1.0
102
RTVSPost2010PropOp52
 70
     0
102
RTVSPost2010Prop53
 90
        2
102
RTVSPost2010PropOp53
 70
     1
102
RTVSPost2010Prop54
  1
strokes_ogs.tif
102
RTVSPost2010PropOp54
 70
     1
102
RTVSPost2010Prop55
280
     0
102
RTVSPost2010PropOp55
 70
     1
102
RTVSPost2010Prop56
140
1.0
102
RTVSPost2010PropOp56
 70
     1
102
RTVSPost2010Prop57
140
1.0
102
RTVSPost2010PropOp57
 70
     1
  0
XRECORD
  5
68B
102
{ACAD_REACTORS
330
68A
102
}
330
68A
100
AcDbXrecord
280
     1
102
RTVSPropertyOp0
 70
     1
102
RTVSPropertyOp1
 70
     1
102
RTVSPropertyOp2
 70
     1
102
RTVSPropertyOp3
 70
     1
102
RTVSPropertyOp4
 70
     1
102
RTVSPropertyOp5
 70
     1
102
RTVSPropertyOp6
 70
     1
102
RTVSPropertyOp7
 70
     1
102
RTVSPropertyOp8
 70
     1
102
RTVSPropertyOp9
 70
     1
102
RTVSPropertyOp10
 70
     1
102
RTVSPropertyOp11
 70
     1
102
RTVSPropertyOp12
 70
     1
102
RTVSPropertyOp13
 70
     1
102
RTVSPropertyOp14
 70
     1
102
RTVSPropertyOp15
 70
     1
102
RTVSPropertyOp16
 70
     1
102
RTVSPropertyOp17
 70
     1
102
RTVSPropertyOp18
 70
     1
102
RTVSPropertyOp19
 70
     1
102
RTVSPropertyOp20
 70
     1
102
RTVSPropertyOp21
 70
     1
102
RTVSPropertyOp22
 70
     1
102
RTVSPropertyOp23
 70
     1
102
RTVSPropertyOp24
 70
     1
102
RTVSPropertyOp25
 70
     1
102
RTVSPropertyOp26
 70
     1
102
RTVSPropertyOp27
 70
     1
102
RTVSPropertyOp28
 70
     1
102
RTVSPropertyOp29
 70
     1
102
RTVSPropertyOp30
 70
     1
102
RTVSPropertyOp31
 70
     1
102
RTVSPropertyOp32
 70
     1
102
RTVSPropertyOp33
 70
     1
102
RTVSPropertyOp34
 70
     1
102
RTVSPropertyOp35
 70
     1
102
RTVSPropertyOp36
 70
     1
102
RTVSPropertyOp37
 70
     1
102
RTVSPropertyOp38
 70
     1
102
RTVSPropertyOp39
 70
     1
102
RTVSPropertyOp40
 70
     1
102
RTVSPropertyOp41
 70
     1
102
RTVSPropertyOp42
 70
     1
102
RTVSPropertyOp43
 70
     1
102
RTVSPropertyOp44
 70
     1
102
RTVSPropertyOp45
 70
     1
102
RTVSPropertyOp46
 70
     1
102
RTVSPropertyOp47
 70
     1
102
RTVSPropertyOp48
 70
     1
102
RTVSPropertyOp49
 70
     1
102
RTVSPropertyOp50
 70
     1
102
RTVSPropertyOp51
 70
     0
102
RTVSPropertyOp52
 70
     0
102
RTVSPropertyOp53
 70
     1
102
RTVSPropertyOp54
 70
     1
102
RTVSPropertyOp55
 70
     1
102
RTVSPropertyOp56
 70
     1
102
RTVSPropertyOp57
 70
     1
102
RTVSPost2010Prop28
280
     0
102
RTVSPost2010PropOp28
 70
     1
102
RTVSPost2010Prop29
280
     1
102
RTVSPost2010PropOp29
 70
     1
102
RTVSPost2010Prop30
280
     1
102
RTVSPost2010PropOp30
 70
     1
102
RTVSPost2010Prop31
280
     0
102
RTVSPost2010PropOp31
 70
     1
102
RTVSPost2010Prop32
280
     0
102
RTVSPost2010PropOp32
 70
     1
102
RTVSPost2010Prop33
280
     0
102
RTVSPost2010PropOp33
 70
     1
102
RTVSPost2010Prop34
280
     0
102
RTVSPost2010PropOp34
 70
     1
102
RTVSPost2010Prop35
280
     0
102
RTVSPost2010PropOp35
 70
     1
102
RTVSPost2010Prop36
280
     0
102
RTVSPost2010PropOp36
 70
     1
102
RTVSPost2010Prop37
 90
       50
102
RTVSPost2010PropOp37
 70
     1
102
RTVSPost2010Prop38
140
0.0
102
RTVSPost2010PropOp38
 70
     1
102
RTVSPost2010Prop39
140
1.0
102
RTVSPost2010PropOp39
 70
     1
102
RTVSPost2010Prop40
 90
        0
102
RTVSPost2010PropOp40
 70
     1
102
RTVSPost2010Prop41ColorIndex
 90
       18
102
RTVSPost2010Prop41ColorRGB
 90
        0
102
RTVSPost2010PropOp41
 70
     1
102
RTVSPost2010Prop42
 90
       50
102
RTVSPost2010PropOp42
 70
     1
102
RTVSPost2010Prop43
 90
        3
102
RTVSPost2010PropOp43
 70
     1
102
RTVSPost2010Prop44ColorIndex
 90
        5
102
RTVSPost2010Prop44ColorRGB
 90
      255
102
RTVSPost2010PropOp44
 70
     1
102
RTVSPost2010Prop45
280
     0
102
RTVSPost2010PropOp45
 70
     1
102
RTVSPost2010Prop46
 90
       50
102
RTVSPost2010PropOp46
 70
     1
102
RTVSPost2010Prop47
 90
       50
102
RTVSPost2010PropOp47
 70
     1
102
RTVSPost2010Prop48
 90
       50
102
RTVSPost2010PropOp48
 70
     1
102
RTVSPost2010Prop49
280
     0
102
RTVSPost2010PropOp49
 70
     1
102
RTVSPost2010Prop50
 90
       50
102
RTVSPost2010PropOp50
 70
     1
102
RTVSPost2010Prop51ColorIndex
 90
      256
102
RTVSPost2010Prop51ColorRGB
 90
-16777216
102
RTVSPost2010PropOp51
 70
     0
102
RTVSPost2010Prop52
140
1.0
102
RTVSPost2010PropOp52
 70
     0
102
RTVSPost2010Prop53
 90
        2
102
RTVSPost2010PropOp53
 70
     1
102
RTVSPost2010Prop54
  1
strokes_ogs.tif
102
RTVSPost2010PropOp54
 70
     1
102
RTVSPost2010Prop55
280
     0
102
RTVSPost2010PropOp55
 70
     1
102
RTVSPost2010Prop56
140
1.0
102
RTVSPost2010PropOp56
 70
     1
102
RTVSPost2010Prop57
140
1.0
102
RTVSPost2010PropOp57
 70
     1
  0
XRECORD
  5
693
102
{ACAD_REACTORS
330
692
102
}
330
692
100
AcDbXrecord
280
     1
102
RTVSPropertyOp0
 70
     1
102
RTVSPropertyOp1
 70
     1
102
RTVSPropertyOp2
 70
     1
102
RTVSPropertyOp3
 70
     1
102
RTVSPropertyOp4
 70
     1
102
RTVSPropertyOp5
 70
     1
102
RTVSPropertyOp6
 70
     1
102
RTVSPropertyOp7
 70
     1
102
RTVSPropertyOp8
 70
     1
102
RTVSPropertyOp9
 70
     1
102
RTVSPropertyOp10
 70
     1
102
RTVSPropertyOp11
 70
     1
102
RTVSPropertyOp12
 70
     1
102
RTVSPropertyOp13
 70
     1
102
RTVSPropertyOp14
 70
     1
102
RTVSPropertyOp15
 70
     1
102
RTVSPropertyOp16
 70
     1
102
RTVSPropertyOp17
 70
     1
102
RTVSPropertyOp18
 70
     1
102
RTVSPropertyOp19
 70
     1
102
RTVSPropertyOp20
 70
     1
102
RTVSPropertyOp21
 70
     1
102
RTVSPropertyOp22
 70
     1
102
RTVSPropertyOp23
 70
     1
102
RTVSPropertyOp24
 70
     1
102
RTVSPropertyOp25
 70
     1
102
RTVSPropertyOp26
 70
     1
102
RTVSPropertyOp27
 70
     1
102
RTVSPropertyOp28
 70
     1
102
RTVSPropertyOp29
 70
     1
102
RTVSPropertyOp30
 70
     1
102
RTVSPropertyOp31
 70
     1
102
RTVSPropertyOp32
 70
     1
102
RTVSPropertyOp33
 70
     1
102
RTVSPropertyOp34
 70
     1
102
RTVSPropertyOp35
 70
     1
102
RTVSPropertyOp36
 70
     1
102
RTVSPropertyOp37
 70
     1
102
RTVSPropertyOp38
 70
     1
102
RTVSPropertyOp39
 70
     1
102
RTVSPropertyOp40
 70
     1
102
RTVSPropertyOp41
 70
     1
102
RTVSPropertyOp42
 70
     1
102
RTVSPropertyOp43
 70
     1
102
RTVSPropertyOp44
 70
     1
102
RTVSPropertyOp45
 70
     1
102
RTVSPropertyOp46
 70
     1
102
RTVSPropertyOp47
 70
     1
102
RTVSPropertyOp48
 70
     1
102
RTVSPropertyOp49
 70
     1
102
RTVSPropertyOp50
 70
     1
102
RTVSPropertyOp51
 70
     0
102
RTVSPropertyOp52
 70
     0
102
RTVSPropertyOp53
 70
     1
102
RTVSPropertyOp54
 70
     1
102
RTVSPropertyOp55
 70
     1
102
RTVSPropertyOp56
 70
     1
102
RTVSPropertyOp57
 70
     1
102
RTVSPost2010Prop28
280
     0
102
RTVSPost2010PropOp28
 70
     1
102
RTVSPost2010Prop29
280
     1
102
RTVSPost2010PropOp29
 70
     1
102
RTVSPost2010Prop30
280
     1
102
RTVSPost2010PropOp30
 70
     1
102
RTVSPost2010Prop31
280
     0
102
RTVSPost2010PropOp31
 70
     1
102
RTVSPost2010Prop32
280
     0
102
RTVSPost2010PropOp32
 70
     1
102
RTVSPost2010Prop33
280
     0
102
RTVSPost2010PropOp33
 70
     1
102
RTVSPost2010Prop34
280
     0
102
RTVSPost2010PropOp34
 70
     1
102
RTVSPost2010Prop35
280
     0
102
RTVSPost2010PropOp35
 70
     1
102
RTVSPost2010Prop36
280
     0
102
RTVSPost2010PropOp36
 70
     1
102
RTVSPost2010Prop37
 90
       50
102
RTVSPost2010PropOp37
 70
     1
102
RTVSPost2010Prop38
140
0.0
102
RTVSPost2010PropOp38
 70
     1
102
RTVSPost2010Prop39
140
1.0
102
RTVSPost2010PropOp39
 70
     1
102
RTVSPost2010Prop40
 90
        0
102
RTVSPost2010PropOp40
 70
     1
102
RTVSPost2010Prop41ColorIndex
 90
       18
102
RTVSPost2010Prop41ColorRGB
 90
        0
102
RTVSPost2010PropOp41
 70
     1
102
RTVSPost2010Prop42
 90
       50
102
RTVSPost2010PropOp42
 70
     1
102
RTVSPost2010Prop43
 90
        3
102
RTVSPost2010PropOp43
 70
     1
102
RTVSPost2010Prop44ColorIndex
 90
        5
102
RTVSPost2010Prop44ColorRGB
 90
      255
102
RTVSPost2010PropOp44
 70
     1
102
RTVSPost2010Prop45
280
     0
102
RTVSPost2010PropOp45
 70
     1
102
RTVSPost2010Prop46
 90
       50
102
RTVSPost2010PropOp46
 70
     1
102
RTVSPost2010Prop47
 90
       50
102
RTVSPost2010PropOp47
 70
     1
102
RTVSPost2010Prop48
 90
       50
102
RTVSPost2010PropOp48
 70
     1
102
RTVSPost2010Prop49
280
     0
102
RTVSPost2010PropOp49
 70
     1
102
RTVSPost2010Prop50
 90
       50
102
RTVSPost2010PropOp50
 70
     1
102
RTVSPost2010Prop51ColorIndex
 90
      256
102
RTVSPost2010Prop51ColorRGB
 90
-16777216
102
RTVSPost2010PropOp51
 70
     0
102
RTVSPost2010Prop52
140
1.0
102
RTVSPost2010PropOp52
 70
     0
102
RTVSPost2010Prop53
 90
        2
102
RTVSPost2010PropOp53
 70
     1
102
RTVSPost2010Prop54
  1
strokes_ogs.tif
102
RTVSPost2010PropOp54
 70
     1
102
RTVSPost2010Prop55
280
     0
102
RTVSPost2010PropOp55
 70
     1
102
RTVSPost2010Prop56
140
1.0
102
RTVSPost2010PropOp56
 70
     1
102
RTVSPost2010Prop57
140
1.0
102
RTVSPost2010PropOp57
 70
     1
  0
XRECORD
  5
69B
102
{ACAD_REACTORS
330
69A
102
}
330
69A
100
AcDbXrecord
280
     1
102
RTVSPropertyOp0
 70
     1
102
RTVSPropertyOp1
 70
     1
102
RTVSPropertyOp2
 70
     1
102
RTVSPropertyOp3
 70
     1
102
RTVSPropertyOp4
 70
     1
102
RTVSPropertyOp5
 70
     1
102
RTVSPropertyOp6
 70
     1
102
RTVSPropertyOp7
 70
     1
102
RTVSPropertyOp8
 70
     1
102
RTVSPropertyOp9
 70
     1
102
RTVSPropertyOp10
 70
     1
102
RTVSPropertyOp11
 70
     1
102
RTVSPropertyOp12
 70
     1
102
RTVSPropertyOp13
 70
     1
102
RTVSPropertyOp14
 70
     1
102
RTVSPropertyOp15
 70
     1
102
RTVSPropertyOp16
 70
     1
102
RTVSPropertyOp17
 70
     1
102
RTVSPropertyOp18
 70
     1
102
RTVSPropertyOp19
 70
     1
102
RTVSPropertyOp20
 70
     1
102
RTVSPropertyOp21
 70
     1
102
RTVSPropertyOp22
 70
     1
102
RTVSPropertyOp23
 70
     1
102
RTVSPropertyOp24
 70
     1
102
RTVSPropertyOp25
 70
     1
102
RTVSPropertyOp26
 70
     1
102
RTVSPropertyOp27
 70
     1
102
RTVSPropertyOp28
 70
     1
102
RTVSPropertyOp29
 70
     1
102
RTVSPropertyOp30
 70
     1
102
RTVSPropertyOp31
 70
     1
102
RTVSPropertyOp32
 70
     1
102
RTVSPropertyOp33
 70
     1
102
RTVSPropertyOp34
 70
     1
102
RTVSPropertyOp35
 70
     1
102
RTVSPropertyOp36
 70
     1
102
RTVSPropertyOp37
 70
     1
102
RTVSPropertyOp38
 70
     1
102
RTVSPropertyOp39
 70
     1
102
RTVSPropertyOp40
 70
     1
102
RTVSPropertyOp41
 70
     1
102
RTVSPropertyOp42
 70
     1
102
RTVSPropertyOp43
 70
     1
102
RTVSPropertyOp44
 70
     1
102
RTVSPropertyOp45
 70
     1
102
RTVSPropertyOp46
 70
     1
102
RTVSPropertyOp47
 70
     1
102
RTVSPropertyOp48
 70
     1
102
RTVSPropertyOp49
 70
     1
102
RTVSPropertyOp50
 70
     1
102
RTVSPropertyOp51
 70
     0
102
RTVSPropertyOp52
 70
     0
102
RTVSPropertyOp53
 70
     1
102
RTVSPropertyOp54
 70
     1
102
RTVSPropertyOp55
 70
     1
102
RTVSPropertyOp56
 70
     1
102
RTVSPropertyOp57
 70
     1
102
RTVSPost2010Prop28
280
     0
102
RTVSPost2010PropOp28
 70
     1
102
RTVSPost2010Prop29
280
     1
102
RTVSPost2010PropOp29
 70
     1
102
RTVSPost2010Prop30
280
     1
102
RTVSPost2010PropOp30
 70
     1
102
RTVSPost2010Prop31
280
     0
102
RTVSPost2010PropOp31
 70
     1
102
RTVSPost2010Prop32
280
     0
102
RTVSPost2010PropOp32
 70
     1
102
RTVSPost2010Prop33
280
     0
102
RTVSPost2010PropOp33
 70
     1
102
RTVSPost2010Prop34
280
     0
102
RTVSPost2010PropOp34
 70
     1
102
RTVSPost2010Prop35
280
     0
102
RTVSPost2010PropOp35
 70
     1
102
RTVSPost2010Prop36
280
     0
102
RTVSPost2010PropOp36
 70
     1
102
RTVSPost2010Prop37
 90
       50
102
RTVSPost2010PropOp37
 70
     1
102
RTVSPost2010Prop38
140
0.0
102
RTVSPost2010PropOp38
 70
     1
102
RTVSPost2010Prop39
140
1.0
102
RTVSPost2010PropOp39
 70
     1
102
RTVSPost2010Prop40
 90
        0
102
RTVSPost2010PropOp40
 70
     1
102
RTVSPost2010Prop41ColorIndex
 90
       18
102
RTVSPost2010Prop41ColorRGB
 90
        0
102
RTVSPost2010PropOp41
 70
     1
102
RTVSPost2010Prop42
 90
       50
102
RTVSPost2010PropOp42
 70
     1
102
RTVSPost2010Prop43
 90
        3
102
RTVSPost2010PropOp43
 70
     1
102
RTVSPost2010Prop44ColorIndex
 90
        5
102
RTVSPost2010Prop44ColorRGB
 90
      255
102
RTVSPost2010PropOp44
 70
     1
102
RTVSPost2010Prop45
280
     0
102
RTVSPost2010PropOp45
 70
     1
102
RTVSPost2010Prop46
 90
       50
102
RTVSPost2010PropOp46
 70
     1
102
RTVSPost2010Prop47
 90
       50
102
RTVSPost2010PropOp47
 70
     1
102
RTVSPost2010Prop48
 90
       50
102
RTVSPost2010PropOp48
 70
     1
102
RTVSPost2010Prop49
280
     0
102
RTVSPost2010PropOp49
 70
     1
102
RTVSPost2010Prop50
 90
       50
102
RTVSPost2010PropOp50
 70
     1
102
RTVSPost2010Prop51ColorIndex
 90
      256
102
RTVSPost2010Prop51ColorRGB
 90
-16777216
102
RTVSPost2010PropOp51
 70
     0
102
RTVSPost2010Prop52
140
1.0
102
RTVSPost2010PropOp52
 70
     0
102
RTVSPost2010Prop53
 90
        2
102
RTVSPost2010PropOp53
 70
     1
102
RTVSPost2010Prop54
  1
strokes_ogs.tif
102
RTVSPost2010PropOp54
 70
     1
102
RTVSPost2010Prop55
280
     0
102
RTVSPost2010PropOp55
 70
     1
102
RTVSPost2010Prop56
140
1.0
102
RTVSPost2010PropOp56
 70
     1
102
RTVSPost2010Prop57
140
1.0
102
RTVSPost2010PropOp57
 70
     1
  0
XRECORD
  5
68F
102
{ACAD_REACTORS
330
68E
102
}
330
68E
100
AcDbXrecord
280
     1
102
RTVSPropertyOp0
 70
     1
102
RTVSPropertyOp1
 70
     1
102
RTVSPropertyOp2
 70
     1
102
RTVSPropertyOp3
 70
     1
102
RTVSPropertyOp4
 70
     1
102
RTVSPropertyOp5
 70
     1
102
RTVSPropertyOp6
 70
     1
102
RTVSPropertyOp7
 70
     1
102
RTVSPropertyOp8
 70
     1
102
RTVSPropertyOp9
 70
     1
102
RTVSPropertyOp10
 70
     1
102
RTVSPropertyOp11
 70
     1
102
RTVSPropertyOp12
 70
     1
102
RTVSPropertyOp13
 70
     1
102
RTVSPropertyOp14
 70
     1
102
RTVSPropertyOp15
 70
     1
102
RTVSPropertyOp16
 70
     1
102
RTVSPropertyOp17
 70
     1
102
RTVSPropertyOp18
 70
     1
102
RTVSPropertyOp19
 70
     1
102
RTVSPropertyOp20
 70
     1
102
RTVSPropertyOp21
 70
     1
102
RTVSPropertyOp22
 70
     1
102
RTVSPropertyOp23
 70
     1
102
RTVSPropertyOp24
 70
     1
102
RTVSPropertyOp25
 70
     1
102
RTVSPropertyOp26
 70
     1
102
RTVSPropertyOp27
 70
     1
102
RTVSPropertyOp28
 70
     1
102
RTVSPropertyOp29
 70
     1
102
RTVSPropertyOp30
 70
     1
102
RTVSPropertyOp31
 70
     1
102
RTVSPropertyOp32
 70
     1
102
RTVSPropertyOp33
 70
     1
102
RTVSPropertyOp34
 70
     1
102
RTVSPropertyOp35
 70
     1
102
RTVSPropertyOp36
 70
     1
102
RTVSPropertyOp37
 70
     1
102
RTVSPropertyOp38
 70
     1
102
RTVSPropertyOp39
 70
     1
102
RTVSPropertyOp40
 70
     1
102
RTVSPropertyOp41
 70
     1
102
RTVSPropertyOp42
 70
     1
102
RTVSPropertyOp43
 70
     1
102
RTVSPropertyOp44
 70
     1
102
RTVSPropertyOp45
 70
     1
102
RTVSPropertyOp46
 70
     1
102
RTVSPropertyOp47
 70
     1
102
RTVSPropertyOp48
 70
     1
102
RTVSPropertyOp49
 70
     1
102
RTVSPropertyOp50
 70
     1
102
RTVSPropertyOp51
 70
     0
102
RTVSPropertyOp52
 70
     0
102
RTVSPropertyOp53
 70
     1
102
RTVSPropertyOp54
 70
     1
102
RTVSPropertyOp55
 70
     1
102
RTVSPropertyOp56
 70
     1
102
RTVSPropertyOp57
 70
     1
102
RTVSPost2010Prop28
280
     0
102
RTVSPost2010PropOp28
 70
     1
102
RTVSPost2010Prop29
280
     1
102
RTVSPost2010PropOp29
 70
     1
102
RTVSPost2010Prop30
280
     1
102
RTVSPost2010PropOp30
 70
     1
102
RTVSPost2010Prop31
280
     0
102
RTVSPost2010PropOp31
 70
     1
102
RTVSPost2010Prop32
280
     0
102
RTVSPost2010PropOp32
 70
     1
102
RTVSPost2010Prop33
280
     0
102
RTVSPost2010PropOp33
 70
     1
102
RTVSPost2010Prop34
280
     0
102
RTVSPost2010PropOp34
 70
     1
102
RTVSPost2010Prop35
280
     0
102
RTVSPost2010PropOp35
 70
     1
102
RTVSPost2010Prop36
280
     0
102
RTVSPost2010PropOp36
 70
     1
102
RTVSPost2010Prop37
 90
       50
102
RTVSPost2010PropOp37
 70
     1
102
RTVSPost2010Prop38
140
0.0
102
RTVSPost2010PropOp38
 70
     1
102
RTVSPost2010Prop39
140
1.0
102
RTVSPost2010PropOp39
 70
     1
102
RTVSPost2010Prop40
 90
        0
102
RTVSPost2010PropOp40
 70
     1
102
RTVSPost2010Prop41ColorIndex
 90
       18
102
RTVSPost2010Prop41ColorRGB
 90
        0
102
RTVSPost2010PropOp41
 70
     1
102
RTVSPost2010Prop42
 90
       50
102
RTVSPost2010PropOp42
 70
     1
102
RTVSPost2010Prop43
 90
        3
102
RTVSPost2010PropOp43
 70
     1
102
RTVSPost2010Prop44ColorIndex
 90
        5
102
RTVSPost2010Prop44ColorRGB
 90
      255
102
RTVSPost2010PropOp44
 70
     1
102
RTVSPost2010Prop45
280
     0
102
RTVSPost2010PropOp45
 70
     1
102
RTVSPost2010Prop46
 90
       50
102
RTVSPost2010PropOp46
 70
     1
102
RTVSPost2010Prop47
 90
       50
102
RTVSPost2010PropOp47
 70
     1
102
RTVSPost2010Prop48
 90
       50
102
RTVSPost2010PropOp48
 70
     1
102
RTVSPost2010Prop49
280
     0
102
RTVSPost2010PropOp49
 70
     1
102
RTVSPost2010Prop50
 90
       50
102
RTVSPost2010PropOp50
 70
     1
102
RTVSPost2010Prop51ColorIndex
 90
      256
102
RTVSPost2010Prop51ColorRGB
 90
-16777216
102
RTVSPost2010PropOp51
 70
     0
102
RTVSPost2010Prop52
140
1.0
102
RTVSPost2010PropOp52
 70
     0
102
RTVSPost2010Prop53
 90
        2
102
RTVSPost2010PropOp53
 70
     1
102
RTVSPost2010Prop54
  1
strokes_ogs.tif
102
RTVSPost2010PropOp54
 70
     1
102
RTVSPost2010Prop55
280
     0
102
RTVSPost2010PropOp55
 70
     1
102
RTVSPost2010Prop56
140
1.0
102
RTVSPost2010PropOp56
 70
     1
102
RTVSPost2010Prop57
140
1.0
102
RTVSPost2010PropOp57
 70
     1
  0
XRECORD
  5
691
102
{ACAD_REACTORS
330
690
102
}
330
690
100
AcDbXrecord
280
     1
102
RTVSPropertyOp0
 70
     1
102
RTVSPropertyOp1
 70
     1
102
RTVSPropertyOp2
 70
     1
102
RTVSPropertyOp3
 70
     1
102
RTVSPropertyOp4
 70
     1
102
RTVSPropertyOp5
 70
     1
102
RTVSPropertyOp6
 70
     1
102
RTVSPropertyOp7
 70
     1
102
RTVSPropertyOp8
 70
     1
102
RTVSPropertyOp9
 70
     1
102
RTVSPropertyOp10
 70
     1
102
RTVSPropertyOp11
 70
     1
102
RTVSPropertyOp12
 70
     1
102
RTVSPropertyOp13
 70
     1
102
RTVSPropertyOp14
 70
     1
102
RTVSPropertyOp15
 70
     1
102
RTVSPropertyOp16
 70
     1
102
RTVSPropertyOp17
 70
     1
102
RTVSPropertyOp18
 70
     1
102
RTVSPropertyOp19
 70
     1
102
RTVSPropertyOp20
 70
     1
102
RTVSPropertyOp21
 70
     1
102
RTVSPropertyOp22
 70
     1
102
RTVSPropertyOp23
 70
     1
102
RTVSPropertyOp24
 70
     1
102
RTVSPropertyOp25
 70
     1
102
RTVSPropertyOp26
 70
     1
102
RTVSPropertyOp27
 70
     1
102
RTVSPropertyOp28
 70
     1
102
RTVSPropertyOp29
 70
     1
102
RTVSPropertyOp30
 70
     1
102
RTVSPropertyOp31
 70
     1
102
RTVSPropertyOp32
 70
     1
102
RTVSPropertyOp33
 70
     1
102
RTVSPropertyOp34
 70
     1
102
RTVSPropertyOp35
 70
     1
102
RTVSPropertyOp36
 70
     1
102
RTVSPropertyOp37
 70
     1
102
RTVSPropertyOp38
 70
     1
102
RTVSPropertyOp39
 70
     1
102
RTVSPropertyOp40
 70
     1
102
RTVSPropertyOp41
 70
     1
102
RTVSPropertyOp42
 70
     1
102
RTVSPropertyOp43
 70
     1
102
RTVSPropertyOp44
 70
     1
102
RTVSPropertyOp45
 70
     1
102
RTVSPropertyOp46
 70
     1
102
RTVSPropertyOp47
 70
     1
102
RTVSPropertyOp48
 70
     1
102
RTVSPropertyOp49
 70
     1
102
RTVSPropertyOp50
 70
     1
102
RTVSPropertyOp51
 70
     0
102
RTVSPropertyOp52
 70
     0
102
RTVSPropertyOp53
 70
     1
102
RTVSPropertyOp54
 70
     1
102
RTVSPropertyOp55
 70
     1
102
RTVSPropertyOp56
 70
     1
102
RTVSPropertyOp57
 70
     1
102
RTVSPost2010Prop28
280
     0
102
RTVSPost2010PropOp28
 70
     1
102
RTVSPost2010Prop29
280
     1
102
RTVSPost2010PropOp29
 70
     1
102
RTVSPost2010Prop30
280
     1
102
RTVSPost2010PropOp30
 70
     1
102
RTVSPost2010Prop31
280
     0
102
RTVSPost2010PropOp31
 70
     1
102
RTVSPost2010Prop32
280
     0
102
RTVSPost2010PropOp32
 70
     1
102
RTVSPost2010Prop33
280
     0
102
RTVSPost2010PropOp33
 70
     1
102
RTVSPost2010Prop34
280
     0
102
RTVSPost2010PropOp34
 70
     1
102
RTVSPost2010Prop35
280
     0
102
RTVSPost2010PropOp35
 70
     1
102
RTVSPost2010Prop36
280
     0
102
RTVSPost2010PropOp36
 70
     1
102
RTVSPost2010Prop37
 90
       50
102
RTVSPost2010PropOp37
 70
     1
102
RTVSPost2010Prop38
140
0.0
102
RTVSPost2010PropOp38
 70
     1
102
RTVSPost2010Prop39
140
1.0
102
RTVSPost2010PropOp39
 70
     1
102
RTVSPost2010Prop40
 90
        0
102
RTVSPost2010PropOp40
 70
     1
102
RTVSPost2010Prop41ColorIndex
 90
       18
102
RTVSPost2010Prop41ColorRGB
 90
        0
102
RTVSPost2010PropOp41
 70
     1
102
RTVSPost2010Prop42
 90
       50
102
RTVSPost2010PropOp42
 70
     1
102
RTVSPost2010Prop43
 90
        3
102
RTVSPost2010PropOp43
 70
     1
102
RTVSPost2010Prop44ColorIndex
 90
        5
102
RTVSPost2010Prop44ColorRGB
 90
      255
102
RTVSPost2010PropOp44
 70
     1
102
RTVSPost2010Prop45
280
     0
102
RTVSPost2010PropOp45
 70
     1
102
RTVSPost2010Prop46
 90
       50
102
RTVSPost2010PropOp46
 70
     1
102
RTVSPost2010Prop47
 90
       50
102
RTVSPost2010PropOp47
 70
     1
102
RTVSPost2010Prop48
 90
       50
102
RTVSPost2010PropOp48
 70
     1
102
RTVSPost2010Prop49
280
     0
102
RTVSPost2010PropOp49
 70
     1
102
RTVSPost2010Prop50
 90
       50
102
RTVSPost2010PropOp50
 70
     1
102
RTVSPost2010Prop51ColorIndex
 90
      256
102
RTVSPost2010Prop51ColorRGB
 90
-16777216
102
RTVSPost2010PropOp51
 70
     0
102
RTVSPost2010Prop52
140
1.0
102
RTVSPost2010PropOp52
 70
     0
102
RTVSPost2010Prop53
 90
        2
102
RTVSPost2010PropOp53
 70
     1
102
RTVSPost2010Prop54
  1
strokes_ogs.tif
102
RTVSPost2010PropOp54
 70
     1
102
RTVSPost2010Prop55
280
     0
102
RTVSPost2010PropOp55
 70
     1
102
RTVSPost2010Prop56
140
1.0
102
RTVSPost2010PropOp56
 70
     1
102
RTVSPost2010Prop57
140
1.0
102
RTVSPost2010PropOp57
 70
     1
  0
XRECORD
  5
6A1
102
{ACAD_REACTORS
330
6A0
102
}
330
6A0
100
AcDbXrecord
280
     1
102
RTVSPropertyOp0
 70
     0
102
RTVSPropertyOp1
 70
     0
102
RTVSPropertyOp2
 70
     0
102
RTVSPropertyOp3
 70
     0
102
RTVSPropertyOp4
 70
     0
102
RTVSPropertyOp5
 70
     0
102
RTVSPropertyOp6
 70
     0
102
RTVSPropertyOp7
 70
     0
102
RTVSPropertyOp8
 70
     0
102
RTVSPropertyOp9
 70
     0
102
RTVSPropertyOp10
 70
     0
102
RTVSPropertyOp11
 70
     0
102
RTVSPropertyOp12
 70
     0
102
RTVSPropertyOp13
 70
     0
102
RTVSPropertyOp14
 70
     0
102
RTVSPropertyOp15
 70
     0
102
RTVSPropertyOp16
 70
     0
102
RTVSPropertyOp17
 70
     0
102
RTVSPropertyOp18
 70
     0
102
RTVSPropertyOp19
 70
     0
102
RTVSPropertyOp20
 70
     0
102
RTVSPropertyOp21
 70
     0
102
RTVSPropertyOp22
 70
     0
102
RTVSPropertyOp23
 70
     0
102
RTVSPropertyOp24
 70
     0
102
RTVSPropertyOp25
 70
     0
102
RTVSPropertyOp26
 70
     0
102
RTVSPropertyOp27
 70
     0
102
RTVSPropertyOp28
 70
     1
102
RTVSPropertyOp29
 70
     1
102
RTVSPropertyOp30
 70
     1
102
RTVSPropertyOp31
 70
     1
102
RTVSPropertyOp32
 70
     1
102
RTVSPropertyOp33
 70
     1
102
RTVSPropertyOp34
 70
     1
102
RTVSPropertyOp35
 70
     1
102
RTVSPropertyOp36
 70
     1
102
RTVSPropertyOp37
 70
     1
102
RTVSPropertyOp38
 70
     1
102
RTVSPropertyOp39
 70
     1
102
RTVSPropertyOp40
 70
     1
102
RTVSPropertyOp41
 70
     1
102
RTVSPropertyOp42
 70
     1
102
RTVSPropertyOp43
 70
     1
102
RTVSPropertyOp44
 70
     1
102
RTVSPropertyOp45
 70
     1
102
RTVSPropertyOp46
 70
     1
102
RTVSPropertyOp47
 70
     1
102
RTVSPropertyOp48
 70
     1
102
RTVSPropertyOp49
 70
     1
102
RTVSPropertyOp50
 70
     1
102
RTVSPropertyOp51
 70
     0
102
RTVSPropertyOp52
 70
     0
102
RTVSPropertyOp53
 70
     1
102
RTVSPropertyOp54
 70
     1
102
RTVSPropertyOp55
 70
     1
102
RTVSPropertyOp56
 70
     1
102
RTVSPropertyOp57
 70
     1
102
RTVSPost2010Prop28
280
     0
102
RTVSPost2010PropOp28
 70
     1
102
RTVSPost2010Prop29
280
     1
102
RTVSPost2010PropOp29
 70
     1
102
RTVSPost2010Prop30
280
     1
102
RTVSPost2010PropOp30
 70
     1
102
RTVSPost2010Prop31
280
     0
102
RTVSPost2010PropOp31
 70
     1
102
RTVSPost2010Prop32
280
     0
102
RTVSPost2010PropOp32
 70
     1
102
RTVSPost2010Prop33
280
     0
102
RTVSPost2010PropOp33
 70
     1
102
RTVSPost2010Prop34
280
     0
102
RTVSPost2010PropOp34
 70
     1
102
RTVSPost2010Prop35
280
     0
102
RTVSPost2010PropOp35
 70
     1
102
RTVSPost2010Prop36
280
     0
102
RTVSPost2010PropOp36
 70
     1
102
RTVSPost2010Prop37
 90
       50
102
RTVSPost2010PropOp37
 70
     1
102
RTVSPost2010Prop38
140
0.0
102
RTVSPost2010PropOp38
 70
     1
102
RTVSPost2010Prop39
140
1.0
102
RTVSPost2010PropOp39
 70
     1
102
RTVSPost2010Prop40
 90
        0
102
RTVSPost2010PropOp40
 70
     1
102
RTVSPost2010Prop41ColorIndex
 90
       18
102
RTVSPost2010Prop41ColorRGB
 90
        0
102
RTVSPost2010PropOp41
 70
     1
102
RTVSPost2010Prop42
 90
       50
102
RTVSPost2010PropOp42
 70
     1
102
RTVSPost2010Prop43
 90
        3
102
RTVSPost2010PropOp43
 70
     1
102
RTVSPost2010Prop44ColorIndex
 90
        5
102
RTVSPost2010Prop44ColorRGB
 90
      255
102
RTVSPost2010PropOp44
 70
     1
102
RTVSPost2010Prop45
280
     0
102
RTVSPost2010PropOp45
 70
     1
102
RTVSPost2010Prop46
 90
       50
102
RTVSPost2010PropOp46
 70
     1
102
RTVSPost2010Prop47
 90
       50
102
RTVSPost2010PropOp47
 70
     1
102
RTVSPost2010Prop48
 90
       50
102
RTVSPost2010PropOp48
 70
     1
102
RTVSPost2010Prop49
280
     0
102
RTVSPost2010PropOp49
 70
     1
102
RTVSPost2010Prop50
 90
       50
102
RTVSPost2010PropOp50
 70
     1
102
RTVSPost2010Prop51ColorIndex
 90
      256
102
RTVSPost2010Prop51ColorRGB
 90
-16777216
102
RTVSPost2010PropOp51
 70
     0
102
RTVSPost2010Prop52
140
1.0
102
RTVSPost2010PropOp52
 70
     0
102
RTVSPost2010Prop53
 90
        2
102
RTVSPost2010PropOp53
 70
     1
102
RTVSPost2010Prop54
  1
strokes_ogs.tif
102
RTVSPost2010PropOp54
 70
     1
102
RTVSPost2010Prop55
280
     0
102
RTVSPost2010PropOp55
 70
     1
102
RTVSPost2010Prop56
140
1.0
102
RTVSPost2010PropOp56
 70
     1
102
RTVSPost2010Prop57
140
1.0
102
RTVSPost2010PropOp57
 70
     1
  0
XRECORD
  5
699
102
{ACAD_REACTORS
330
698
102
}
330
698
100
AcDbXrecord
280
     1
102
RTVSPropertyOp0
 70
     1
102
RTVSPropertyOp1
 70
     1
102
RTVSPropertyOp2
 70
     1
102
RTVSPropertyOp3
 70
     1
102
RTVSPropertyOp4
 70
     1
102
RTVSPropertyOp5
 70
     1
102
RTVSPropertyOp6
 70
     1
102
RTVSPropertyOp7
 70
     1
102
RTVSPropertyOp8
 70
     1
102
RTVSPropertyOp9
 70
     1
102
RTVSPropertyOp10
 70
     1
102
RTVSPropertyOp11
 70
     1
102
RTVSPropertyOp12
 70
     1
102
RTVSPropertyOp13
 70
     1
102
RTVSPropertyOp14
 70
     1
102
RTVSPropertyOp15
 70
     1
102
RTVSPropertyOp16
 70
     1
102
RTVSPropertyOp17
 70
     1
102
RTVSPropertyOp18
 70
     1
102
RTVSPropertyOp19
 70
     1
102
RTVSPropertyOp20
 70
     1
102
RTVSPropertyOp21
 70
     1
102
RTVSPropertyOp22
 70
     1
102
RTVSPropertyOp23
 70
     1
102
RTVSPropertyOp24
 70
     1
102
RTVSPropertyOp25
 70
     1
102
RTVSPropertyOp26
 70
     1
102
RTVSPropertyOp27
 70
     1
102
RTVSPropertyOp28
 70
     1
102
RTVSPropertyOp29
 70
     1
102
RTVSPropertyOp30
 70
     1
102
RTVSPropertyOp31
 70
     1
102
RTVSPropertyOp32
 70
     1
102
RTVSPropertyOp33
 70
     1
102
RTVSPropertyOp34
 70
     1
102
RTVSPropertyOp35
 70
     1
102
RTVSPropertyOp36
 70
     1
102
RTVSPropertyOp37
 70
     1
102
RTVSPropertyOp38
 70
     1
102
RTVSPropertyOp39
 70
     1
102
RTVSPropertyOp40
 70
     1
102
RTVSPropertyOp41
 70
     1
102
RTVSPropertyOp42
 70
     1
102
RTVSPropertyOp43
 70
     1
102
RTVSPropertyOp44
 70
     1
102
RTVSPropertyOp45
 70
     1
102
RTVSPropertyOp46
 70
     1
102
RTVSPropertyOp47
 70
     1
102
RTVSPropertyOp48
 70
     1
102
RTVSPropertyOp49
 70
     1
102
RTVSPropertyOp50
 70
     1
102
RTVSPropertyOp51
 70
     0
102
RTVSPropertyOp52
 70
     0
102
RTVSPropertyOp53
 70
     1
102
RTVSPropertyOp54
 70
     1
102
RTVSPropertyOp55
 70
     1
102
RTVSPropertyOp56
 70
     1
102
RTVSPropertyOp57
 70
     1
102
RTVSPost2010Prop28
280
     0
102
RTVSPost2010PropOp28
 70
     1
102
RTVSPost2010Prop29
280
     1
102
RTVSPost2010PropOp29
 70
     1
102
RTVSPost2010Prop30
280
     1
102
RTVSPost2010PropOp30
 70
     1
102
RTVSPost2010Prop31
280
     0
102
RTVSPost2010PropOp31
 70
     1
102
RTVSPost2010Prop32
280
     0
102
RTVSPost2010PropOp32
 70
     1
102
RTVSPost2010Prop33
280
     0
102
RTVSPost2010PropOp33
 70
     1
102
RTVSPost2010Prop34
280
     0
102
RTVSPost2010PropOp34
 70
     1
102
RTVSPost2010Prop35
280
     0
102
RTVSPost2010PropOp35
 70
     1
102
RTVSPost2010Prop36
280
     0
102
RTVSPost2010PropOp36
 70
     1
102
RTVSPost2010Prop37
 90
       50
102
RTVSPost2010PropOp37
 70
     1
102
RTVSPost2010Prop38
140
0.0
102
RTVSPost2010PropOp38
 70
     1
102
RTVSPost2010Prop39
140
1.0
102
RTVSPost2010PropOp39
 70
     1
102
RTVSPost2010Prop40
 90
        0
102
RTVSPost2010PropOp40
 70
     1
102
RTVSPost2010Prop41ColorIndex
 90
       18
102
RTVSPost2010Prop41ColorRGB
 90
        0
102
RTVSPost2010PropOp41
 70
     1
102
RTVSPost2010Prop42
 90
       50
102
RTVSPost2010PropOp42
 70
     1
102
RTVSPost2010Prop43
 90
        3
102
RTVSPost2010PropOp43
 70
     1
102
RTVSPost2010Prop44ColorIndex
 90
        5
102
RTVSPost2010Prop44ColorRGB
 90
      255
102
RTVSPost2010PropOp44
 70
     1
102
RTVSPost2010Prop45
280
     0
102
RTVSPost2010PropOp45
 70
     1
102
RTVSPost2010Prop46
 90
       50
102
RTVSPost2010PropOp46
 70
     1
102
RTVSPost2010Prop47
 90
       50
102
RTVSPost2010PropOp47
 70
     1
102
RTVSPost2010Prop48
 90
       50
102
RTVSPost2010PropOp48
 70
     1
102
RTVSPost2010Prop49
280
     0
102
RTVSPost2010PropOp49
 70
     1
102
RTVSPost2010Prop50
 90
       50
102
RTVSPost2010PropOp50
 70
     1
102
RTVSPost2010Prop51ColorIndex
 90
      256
102
RTVSPost2010Prop51ColorRGB
 90
-16777216
102
RTVSPost2010PropOp51
 70
     0
102
RTVSPost2010Prop52
140
1.0
102
RTVSPost2010PropOp52
 70
     0
102
RTVSPost2010Prop53
 90
        2
102
RTVSPost2010PropOp53
 70
     1
102
RTVSPost2010Prop54
  1
strokes_ogs.tif
102
RTVSPost2010PropOp54
 70
     1
102
RTVSPost2010Prop55
280
     0
102
RTVSPost2010PropOp55
 70
     1
102
RTVSPost2010Prop56
140
1.0
102
RTVSPost2010PropOp56
 70
     1
102
RTVSPost2010Prop57
140
1.0
102
RTVSPost2010PropOp57
 70
     1
  0
XRECORD
  5
67D
102
{ACAD_REACTORS
330
67C
102
}
330
67C
100
AcDbXrecord
280
     1
102
RTVSPropertyOp0
 70
     1
102
RTVSPropertyOp1
 70
     1
102
RTVSPropertyOp2
 70
     1
102
RTVSPropertyOp3
 70
     1
102
RTVSPropertyOp4
 70
     1
102
RTVSPropertyOp5
 70
     1
102
RTVSPropertyOp6
 70
     1
102
RTVSPropertyOp7
 70
     1
102
RTVSPropertyOp8
 70
     1
102
RTVSPropertyOp9
 70
     1
102
RTVSPropertyOp10
 70
     1
102
RTVSPropertyOp11
 70
     1
102
RTVSPropertyOp12
 70
     1
102
RTVSPropertyOp13
 70
     1
102
RTVSPropertyOp14
 70
     1
102
RTVSPropertyOp15
 70
     1
102
RTVSPropertyOp16
 70
     1
102
RTVSPropertyOp17
 70
     1
102
RTVSPropertyOp18
 70
     1
102
RTVSPropertyOp19
 70
     1
102
RTVSPropertyOp20
 70
     1
102
RTVSPropertyOp21
 70
     1
102
RTVSPropertyOp22
 70
     1
102
RTVSPropertyOp23
 70
     1
102
RTVSPropertyOp24
 70
     1
102
RTVSPropertyOp25
 70
     1
102
RTVSPropertyOp26
 70
     1
102
RTVSPropertyOp27
 70
     1
102
RTVSPropertyOp28
 70
     1
102
RTVSPropertyOp29
 70
     1
102
RTVSPropertyOp30
 70
     1
102
RTVSPropertyOp31
 70
     1
102
RTVSPropertyOp32
 70
     1
102
RTVSPropertyOp33
 70
     1
102
RTVSPropertyOp34
 70
     1
102
RTVSPropertyOp35
 70
     1
102
RTVSPropertyOp36
 70
     1
102
RTVSPropertyOp37
 70
     1
102
RTVSPropertyOp38
 70
     1
102
RTVSPropertyOp39
 70
     1
102
RTVSPropertyOp40
 70
     1
102
RTVSPropertyOp41
 70
     1
102
RTVSPropertyOp42
 70
     1
102
RTVSPropertyOp43
 70
     1
102
RTVSPropertyOp44
 70
     1
102
RTVSPropertyOp45
 70
     1
102
RTVSPropertyOp46
 70
     1
102
RTVSPropertyOp47
 70
     1
102
RTVSPropertyOp48
 70
     1
102
RTVSPropertyOp49
 70
     1
102
RTVSPropertyOp50
 70
     1
102
RTVSPropertyOp51
 70
     0
102
RTVSPropertyOp52
 70
     0
102
RTVSPropertyOp53
 70
     1
102
RTVSPropertyOp54
 70
     1
102
RTVSPropertyOp55
 70
     1
102
RTVSPropertyOp56
 70
     1
102
RTVSPropertyOp57
 70
     1
102
RTVSPost2010Prop28
280
     0
102
RTVSPost2010PropOp28
 70
     1
102
RTVSPost2010Prop29
280
     1
102
RTVSPost2010PropOp29
 70
     1
102
RTVSPost2010Prop30
280
     1
102
RTVSPost2010PropOp30
 70
     1
102
RTVSPost2010Prop31
280
     0
102
RTVSPost2010PropOp31
 70
     1
102
RTVSPost2010Prop32
280
     0
102
RTVSPost2010PropOp32
 70
     1
102
RTVSPost2010Prop33
280
     0
102
RTVSPost2010PropOp33
 70
     1
102
RTVSPost2010Prop34
280
     0
102
RTVSPost2010PropOp34
 70
     1
102
RTVSPost2010Prop35
280
     0
102
RTVSPost2010PropOp35
 70
     1
102
RTVSPost2010Prop36
280
     0
102
RTVSPost2010PropOp36
 70
     1
102
RTVSPost2010Prop37
 90
       50
102
RTVSPost2010PropOp37
 70
     1
102
RTVSPost2010Prop38
140
0.0
102
RTVSPost2010PropOp38
 70
     1
102
RTVSPost2010Prop39
140
1.0
102
RTVSPost2010PropOp39
 70
     1
102
RTVSPost2010Prop40
 90
        0
102
RTVSPost2010PropOp40
 70
     1
102
RTVSPost2010Prop41ColorIndex
 90
       18
102
RTVSPost2010Prop41ColorRGB
 90
        0
102
RTVSPost2010PropOp41
 70
     1
102
RTVSPost2010Prop42
 90
       50
102
RTVSPost2010PropOp42
 70
     1
102
RTVSPost2010Prop43
 90
        3
102
RTVSPost2010PropOp43
 70
     1
102
RTVSPost2010Prop44ColorIndex
 90
        5
102
RTVSPost2010Prop44ColorRGB
 90
      255
102
RTVSPost2010PropOp44
 70
     1
102
RTVSPost2010Prop45
280
     0
102
RTVSPost2010PropOp45
 70
     1
102
RTVSPost2010Prop46
 90
       50
102
RTVSPost2010PropOp46
 70
     1
102
RTVSPost2010Prop47
 90
       50
102
RTVSPost2010PropOp47
 70
     1
102
RTVSPost2010Prop48
 90
       50
102
RTVSPost2010PropOp48
 70
     1
102
RTVSPost2010Prop49
280
     0
102
RTVSPost2010PropOp49
 70
     1
102
RTVSPost2010Prop50
 90
       50
102
RTVSPost2010PropOp50
 70
     1
102
RTVSPost2010Prop51ColorIndex
 90
      256
102
RTVSPost2010Prop51ColorRGB
 90
-16777216
102
RTVSPost2010PropOp51
 70
     0
102
RTVSPost2010Prop52
140
1.0
102
RTVSPost2010PropOp52
 70
     0
102
RTVSPost2010Prop53
 90
        2
102
RTVSPost2010PropOp53
 70
     1
102
RTVSPost2010Prop54
  1
strokes_ogs.tif
102
RTVSPost2010PropOp54
 70
     1
102
RTVSPost2010Prop55
280
     0
102
RTVSPost2010PropOp55
 70
     1
102
RTVSPost2010Prop56
140
1.0
102
RTVSPost2010PropOp56
 70
     1
102
RTVSPost2010Prop57
140
1.0
102
RTVSPost2010PropOp57
 70
     1
  0
XRECORD
  5
67F
102
{ACAD_REACTORS
330
67E
102
}
330
67E
100
AcDbXrecord
280
     1
102
RTVSPropertyOp0
 70
     1
102
RTVSPropertyOp1
 70
     1
102
RTVSPropertyOp2
 70
     1
102
RTVSPropertyOp3
 70
     1
102
RTVSPropertyOp4
 70
     1
102
RTVSPropertyOp5
 70
     1
102
RTVSPropertyOp6
 70
     1
102
RTVSPropertyOp7
 70
     1
102
RTVSPropertyOp8
 70
     1
102
RTVSPropertyOp9
 70
     1
102
RTVSPropertyOp10
 70
     1
102
RTVSPropertyOp11
 70
     1
102
RTVSPropertyOp12
 70
     1
102
RTVSPropertyOp13
 70
     1
102
RTVSPropertyOp14
 70
     1
102
RTVSPropertyOp15
 70
     1
102
RTVSPropertyOp16
 70
     1
102
RTVSPropertyOp17
 70
     1
102
RTVSPropertyOp18
 70
     1
102
RTVSPropertyOp19
 70
     1
102
RTVSPropertyOp20
 70
     1
102
RTVSPropertyOp21
 70
     1
102
RTVSPropertyOp22
 70
     1
102
RTVSPropertyOp23
 70
     1
102
RTVSPropertyOp24
 70
     1
102
RTVSPropertyOp25
 70
     1
102
RTVSPropertyOp26
 70
     1
102
RTVSPropertyOp27
 70
     1
102
RTVSPropertyOp28
 70
     1
102
RTVSPropertyOp29
 70
     1
102
RTVSPropertyOp30
 70
     1
102
RTVSPropertyOp31
 70
     1
102
RTVSPropertyOp32
 70
     1
102
RTVSPropertyOp33
 70
     1
102
RTVSPropertyOp34
 70
     1
102
RTVSPropertyOp35
 70
     1
102
RTVSPropertyOp36
 70
     1
102
RTVSPropertyOp37
 70
     1
102
RTVSPropertyOp38
 70
     1
102
RTVSPropertyOp39
 70
     1
102
RTVSPropertyOp40
 70
     1
102
RTVSPropertyOp41
 70
     1
102
RTVSPropertyOp42
 70
     1
102
RTVSPropertyOp43
 70
     1
102
RTVSPropertyOp44
 70
     1
102
RTVSPropertyOp45
 70
     1
102
RTVSPropertyOp46
 70
     1
102
RTVSPropertyOp47
 70
     1
102
RTVSPropertyOp48
 70
     1
102
RTVSPropertyOp49
 70
     1
102
RTVSPropertyOp50
 70
     1
102
RTVSPropertyOp51
 70
     0
102
RTVSPropertyOp52
 70
     0
102
RTVSPropertyOp53
 70
     1
102
RTVSPropertyOp54
 70
     1
102
RTVSPropertyOp55
 70
     1
102
RTVSPropertyOp56
 70
     1
102
RTVSPropertyOp57
 70
     1
102
RTVSPost2010Prop28
280
     0
102
RTVSPost2010PropOp28
 70
     1
102
RTVSPost2010Prop29
280
     1
102
RTVSPost2010PropOp29
 70
     1
102
RTVSPost2010Prop30
280
     1
102
RTVSPost2010PropOp30
 70
     1
102
RTVSPost2010Prop31
280
     0
102
RTVSPost2010PropOp31
 70
     1
102
RTVSPost2010Prop32
280
     0
102
RTVSPost2010PropOp32
 70
     1
102
RTVSPost2010Prop33
280
     0
102
RTVSPost2010PropOp33
 70
     1
102
RTVSPost2010Prop34
280
     0
102
RTVSPost2010PropOp34
 70
     1
102
RTVSPost2010Prop35
280
     0
102
RTVSPost2010PropOp35
 70
     1
102
RTVSPost2010Prop36
280
     0
102
RTVSPost2010PropOp36
 70
     1
102
RTVSPost2010Prop37
 90
       50
102
RTVSPost2010PropOp37
 70
     1
102
RTVSPost2010Prop38
140
0.0
102
RTVSPost2010PropOp38
 70
     1
102
RTVSPost2010Prop39
140
1.0
102
RTVSPost2010PropOp39
 70
     1
102
RTVSPost2010Prop40
 90
        0
102
RTVSPost2010PropOp40
 70
     1
102
RTVSPost2010Prop41ColorIndex
 90
       18
102
RTVSPost2010Prop41ColorRGB
 90
        0
102
RTVSPost2010PropOp41
 70
     1
102
RTVSPost2010Prop42
 90
       50
102
RTVSPost2010PropOp42
 70
     1
102
RTVSPost2010Prop43
 90
        3
102
RTVSPost2010PropOp43
 70
     1
102
RTVSPost2010Prop44ColorIndex
 90
        5
102
RTVSPost2010Prop44ColorRGB
 90
      255
102
RTVSPost2010PropOp44
 70
     1
102
RTVSPost2010Prop45
280
     0
102
RTVSPost2010PropOp45
 70
     1
102
RTVSPost2010Prop46
 90
       50
102
RTVSPost2010PropOp46
 70
     1
102
RTVSPost2010Prop47
 90
       50
102
RTVSPost2010PropOp47
 70
     1
102
RTVSPost2010Prop48
 90
       50
102
RTVSPost2010PropOp48
 70
     1
102
RTVSPost2010Prop49
280
     0
102
RTVSPost2010PropOp49
 70
     1
102
RTVSPost2010Prop50
 90
       50
102
RTVSPost2010PropOp50
 70
     1
102
RTVSPost2010Prop51ColorIndex
 90
      256
102
RTVSPost2010Prop51ColorRGB
 90
-16777216
102
RTVSPost2010PropOp51
 70
     0
102
RTVSPost2010Prop52
140
1.0
102
RTVSPost2010PropOp52
 70
     0
102
RTVSPost2010Prop53
 90
        2
102
RTVSPost2010PropOp53
 70
     1
102
RTVSPost2010Prop54
  1
strokes_ogs.tif
102
RTVSPost2010PropOp54
 70
     1
102
RTVSPost2010Prop55
280
     0
102
RTVSPost2010PropOp55
 70
     1
102
RTVSPost2010Prop56
140
1.0
102
RTVSPost2010PropOp56
 70
     1
102
RTVSPost2010Prop57
140
1.0
102
RTVSPost2010PropOp57
 70
     1
  0
XRECORD
  5
681
102
{ACAD_REACTORS
330
680
102
}
330
680
100
AcDbXrecord
280
     1
102
RTVSPropertyOp0
 70
     1
102
RTVSPropertyOp1
 70
     1
102
RTVSPropertyOp2
 70
     1
102
RTVSPropertyOp3
 70
     1
102
RTVSPropertyOp4
 70
     1
102
RTVSPropertyOp5
 70
     1
102
RTVSPropertyOp6
 70
     1
102
RTVSPropertyOp7
 70
     1
102
RTVSPropertyOp8
 70
     1
102
RTVSPropertyOp9
 70
     1
102
RTVSPropertyOp10
 70
     1
102
RTVSPropertyOp11
 70
     1
102
RTVSPropertyOp12
 70
     1
102
RTVSPropertyOp13
 70
     1
102
RTVSPropertyOp14
 70
     1
102
RTVSPropertyOp15
 70
     1
102
RTVSPropertyOp16
 70
     1
102
RTVSPropertyOp17
 70
     1
102
RTVSPropertyOp18
 70
     1
102
RTVSPropertyOp19
 70
     1
102
RTVSPropertyOp20
 70
     1
102
RTVSPropertyOp21
 70
     1
102
RTVSPropertyOp22
 70
     1
102
RTVSPropertyOp23
 70
     1
102
RTVSPropertyOp24
 70
     1
102
RTVSPropertyOp25
 70
     1
102
RTVSPropertyOp26
 70
     1
102
RTVSPropertyOp27
 70
     1
102
RTVSPropertyOp28
 70
     1
102
RTVSPropertyOp29
 70
     1
102
RTVSPropertyOp30
 70
     1
102
RTVSPropertyOp31
 70
     1
102
RTVSPropertyOp32
 70
     1
102
RTVSPropertyOp33
 70
     1
102
RTVSPropertyOp34
 70
     1
102
RTVSPropertyOp35
 70
     1
102
RTVSPropertyOp36
 70
     1
102
RTVSPropertyOp37
 70
     1
102
RTVSPropertyOp38
 70
     1
102
RTVSPropertyOp39
 70
     1
102
RTVSPropertyOp40
 70
     1
102
RTVSPropertyOp41
 70
     1
102
RTVSPropertyOp42
 70
     1
102
RTVSPropertyOp43
 70
     1
102
RTVSPropertyOp44
 70
     1
102
RTVSPropertyOp45
 70
     1
102
RTVSPropertyOp46
 70
     1
102
RTVSPropertyOp47
 70
     1
102
RTVSPropertyOp48
 70
     1
102
RTVSPropertyOp49
 70
     1
102
RTVSPropertyOp50
 70
     1
102
RTVSPropertyOp51
 70
     0
102
RTVSPropertyOp52
 70
     0
102
RTVSPropertyOp53
 70
     1
102
RTVSPropertyOp54
 70
     1
102
RTVSPropertyOp55
 70
     1
102
RTVSPropertyOp56
 70
     1
102
RTVSPropertyOp57
 70
     1
102
RTVSPost2010Prop28
280
     0
102
RTVSPost2010PropOp28
 70
     1
102
RTVSPost2010Prop29
280
     1
102
RTVSPost2010PropOp29
 70
     1
102
RTVSPost2010Prop30
280
     1
102
RTVSPost2010PropOp30
 70
     1
102
RTVSPost2010Prop31
280
     0
102
RTVSPost2010PropOp31
 70
     1
102
RTVSPost2010Prop32
280
     0
102
RTVSPost2010PropOp32
 70
     1
102
RTVSPost2010Prop33
280
     0
102
RTVSPost2010PropOp33
 70
     1
102
RTVSPost2010Prop34
280
     0
102
RTVSPost2010PropOp34
 70
     1
102
RTVSPost2010Prop35
280
     0
102
RTVSPost2010PropOp35
 70
     1
102
RTVSPost2010Prop36
280
     0
102
RTVSPost2010PropOp36
 70
     1
102
RTVSPost2010Prop37
 90
       50
102
RTVSPost2010PropOp37
 70
     1
102
RTVSPost2010Prop38
140
0.0
102
RTVSPost2010PropOp38
 70
     1
102
RTVSPost2010Prop39
140
1.0
102
RTVSPost2010PropOp39
 70
     1
102
RTVSPost2010Prop40
 90
        0
102
RTVSPost2010PropOp40
 70
     1
102
RTVSPost2010Prop41ColorIndex
 90
       18
102
RTVSPost2010Prop41ColorRGB
 90
        0
102
RTVSPost2010PropOp41
 70
     1
102
RTVSPost2010Prop42
 90
       50
102
RTVSPost2010PropOp42
 70
     1
102
RTVSPost2010Prop43
 90
        3
102
RTVSPost2010PropOp43
 70
     1
102
RTVSPost2010Prop44ColorIndex
 90
        5
102
RTVSPost2010Prop44ColorRGB
 90
      255
102
RTVSPost2010PropOp44
 70
     1
102
RTVSPost2010Prop45
280
     0
102
RTVSPost2010PropOp45
 70
     1
102
RTVSPost2010Prop46
 90
       50
102
RTVSPost2010PropOp46
 70
     1
102
RTVSPost2010Prop47
 90
       50
102
RTVSPost2010PropOp47
 70
     1
102
RTVSPost2010Prop48
 90
       50
102
RTVSPost2010PropOp48
 70
     1
102
RTVSPost2010Prop49
280
     0
102
RTVSPost2010PropOp49
 70
     1
102
RTVSPost2010Prop50
 90
       50
102
RTVSPost2010PropOp50
 70
     1
102
RTVSPost2010Prop51ColorIndex
 90
      256
102
RTVSPost2010Prop51ColorRGB
 90
-16777216
102
RTVSPost2010PropOp51
 70
     0
102
RTVSPost2010Prop52
140
1.0
102
RTVSPost2010PropOp52
 70
     0
102
RTVSPost2010Prop53
 90
        2
102
RTVSPost2010PropOp53
 70
     1
102
RTVSPost2010Prop54
  1
strokes_ogs.tif
102
RTVSPost2010PropOp54
 70
     1
102
RTVSPost2010Prop55
280
     0
102
RTVSPost2010PropOp55
 70
     1
102
RTVSPost2010Prop56
140
1.0
102
RTVSPost2010PropOp56
 70
     1
102
RTVSPost2010Prop57
140
1.0
102
RTVSPost2010PropOp57
 70
     1
  0
XRECORD
  5
683
102
{ACAD_REACTORS
330
682
102
}
330
682
100
AcDbXrecord
280
     1
102
RTVSPropertyOp0
 70
     1
102
RTVSPropertyOp1
 70
     1
102
RTVSPropertyOp2
 70
     1
102
RTVSPropertyOp3
 70
     1
102
RTVSPropertyOp4
 70
     1
102
RTVSPropertyOp5
 70
     1
102
RTVSPropertyOp6
 70
     1
102
RTVSPropertyOp7
 70
     1
102
RTVSPropertyOp8
 70
     1
102
RTVSPropertyOp9
 70
     1
102
RTVSPropertyOp10
 70
     1
102
RTVSPropertyOp11
 70
     1
102
RTVSPropertyOp12
 70
     1
102
RTVSPropertyOp13
 70
     1
102
RTVSPropertyOp14
 70
     1
102
RTVSPropertyOp15
 70
     1
102
RTVSPropertyOp16
 70
     1
102
RTVSPropertyOp17
 70
     1
102
RTVSPropertyOp18
 70
     1
102
RTVSPropertyOp19
 70
     1
102
RTVSPropertyOp20
 70
     1
102
RTVSPropertyOp21
 70
     1
102
RTVSPropertyOp22
 70
     1
102
RTVSPropertyOp23
 70
     1
102
RTVSPropertyOp24
 70
     1
102
RTVSPropertyOp25
 70
     1
102
RTVSPropertyOp26
 70
     1
102
RTVSPropertyOp27
 70
     1
102
RTVSPropertyOp28
 70
     1
102
RTVSPropertyOp29
 70
     1
102
RTVSPropertyOp30
 70
     1
102
RTVSPropertyOp31
 70
     1
102
RTVSPropertyOp32
 70
     1
102
RTVSPropertyOp33
 70
     1
102
RTVSPropertyOp34
 70
     1
102
RTVSPropertyOp35
 70
     1
102
RTVSPropertyOp36
 70
     1
102
RTVSPropertyOp37
 70
     1
102
RTVSPropertyOp38
 70
     1
102
RTVSPropertyOp39
 70
     1
102
RTVSPropertyOp40
 70
     1
102
RTVSPropertyOp41
 70
     1
102
RTVSPropertyOp42
 70
     1
102
RTVSPropertyOp43
 70
     1
102
RTVSPropertyOp44
 70
     1
102
RTVSPropertyOp45
 70
     1
102
RTVSPropertyOp46
 70
     1
102
RTVSPropertyOp47
 70
     1
102
RTVSPropertyOp48
 70
     1
102
RTVSPropertyOp49
 70
     1
102
RTVSPropertyOp50
 70
     1
102
RTVSPropertyOp51
 70
     0
102
RTVSPropertyOp52
 70
     0
102
RTVSPropertyOp53
 70
     1
102
RTVSPropertyOp54
 70
     1
102
RTVSPropertyOp55
 70
     1
102
RTVSPropertyOp56
 70
     1
102
RTVSPropertyOp57
 70
     1
102
RTVSPost2010Prop28
280
     0
102
RTVSPost2010PropOp28
 70
     1
102
RTVSPost2010Prop29
280
     1
102
RTVSPost2010PropOp29
 70
     1
102
RTVSPost2010Prop30
280
     1
102
RTVSPost2010PropOp30
 70
     1
102
RTVSPost2010Prop31
280
     0
102
RTVSPost2010PropOp31
 70
     1
102
RTVSPost2010Prop32
280
     0
102
RTVSPost2010PropOp32
 70
     1
102
RTVSPost2010Prop33
280
     0
102
RTVSPost2010PropOp33
 70
     1
102
RTVSPost2010Prop34
280
     0
102
RTVSPost2010PropOp34
 70
     1
102
RTVSPost2010Prop35
280
     0
102
RTVSPost2010PropOp35
 70
     1
102
RTVSPost2010Prop36
280
     0
102
RTVSPost2010PropOp36
 70
     1
102
RTVSPost2010Prop37
 90
       50
102
RTVSPost2010PropOp37
 70
     1
102
RTVSPost2010Prop38
140
0.0
102
RTVSPost2010PropOp38
 70
     1
102
RTVSPost2010Prop39
140
1.0
102
RTVSPost2010PropOp39
 70
     1
102
RTVSPost2010Prop40
 90
        0
102
RTVSPost2010PropOp40
 70
     1
102
RTVSPost2010Prop41ColorIndex
 90
       18
102
RTVSPost2010Prop41ColorRGB
 90
        0
102
RTVSPost2010PropOp41
 70
     1
102
RTVSPost2010Prop42
 90
       50
102
RTVSPost2010PropOp42
 70
     1
102
RTVSPost2010Prop43
 90
        3
102
RTVSPost2010PropOp43
 70
     1
102
RTVSPost2010Prop44ColorIndex
 90
        5
102
RTVSPost2010Prop44ColorRGB
 90
      255
102
RTVSPost2010PropOp44
 70
     1
102
RTVSPost2010Prop45
280
     0
102
RTVSPost2010PropOp45
 70
     1
102
RTVSPost2010Prop46
 90
       50
102
RTVSPost2010PropOp46
 70
     1
102
RTVSPost2010Prop47
 90
       50
102
RTVSPost2010PropOp47
 70
     1
102
RTVSPost2010Prop48
 90
       50
102
RTVSPost2010PropOp48
 70
     1
102
RTVSPost2010Prop49
280
     0
102
RTVSPost2010PropOp49
 70
     1
102
RTVSPost2010Prop50
 90
       50
102
RTVSPost2010PropOp50
 70
     1
102
RTVSPost2010Prop51ColorIndex
 90
      256
102
RTVSPost2010Prop51ColorRGB
 90
-16777216
102
RTVSPost2010PropOp51
 70
     0
102
RTVSPost2010Prop52
140
1.0
102
RTVSPost2010PropOp52
 70
     0
102
RTVSPost2010Prop53
 90
        2
102
RTVSPost2010PropOp53
 70
     1
102
RTVSPost2010Prop54
  1
strokes_ogs.tif
102
RTVSPost2010PropOp54
 70
     1
102
RTVSPost2010Prop55
280
     0
102
RTVSPost2010PropOp55
 70
     1
102
RTVSPost2010Prop56
140
1.0
102
RTVSPost2010PropOp56
 70
     1
102
RTVSPost2010Prop57
140
1.0
102
RTVSPost2010PropOp57
 70
     1
  0
XRECORD
  5
689
102
{ACAD_REACTORS
330
688
102
}
330
688
100
AcDbXrecord
280
     1
102
RTVSPropertyOp0
 70
     1
102
RTVSPropertyOp1
 70
     1
102
RTVSPropertyOp2
 70
     1
102
RTVSPropertyOp3
 70
     1
102
RTVSPropertyOp4
 70
     1
102
RTVSPropertyOp5
 70
     1
102
RTVSPropertyOp6
 70
     1
102
RTVSPropertyOp7
 70
     1
102
RTVSPropertyOp8
 70
     1
102
RTVSPropertyOp9
 70
     1
102
RTVSPropertyOp10
 70
     1
102
RTVSPropertyOp11
 70
     1
102
RTVSPropertyOp12
 70
     1
102
RTVSPropertyOp13
 70
     1
102
RTVSPropertyOp14
 70
     1
102
RTVSPropertyOp15
 70
     1
102
RTVSPropertyOp16
 70
     1
102
RTVSPropertyOp17
 70
     1
102
RTVSPropertyOp18
 70
     1
102
RTVSPropertyOp19
 70
     1
102
RTVSPropertyOp20
 70
     1
102
RTVSPropertyOp21
 70
     1
102
RTVSPropertyOp22
 70
     1
102
RTVSPropertyOp23
 70
     1
102
RTVSPropertyOp24
 70
     1
102
RTVSPropertyOp25
 70
     1
102
RTVSPropertyOp26
 70
     1
102
RTVSPropertyOp27
 70
     1
102
RTVSPropertyOp28
 70
     1
102
RTVSPropertyOp29
 70
     1
102
RTVSPropertyOp30
 70
     1
102
RTVSPropertyOp31
 70
     1
102
RTVSPropertyOp32
 70
     1
102
RTVSPropertyOp33
 70
     1
102
RTVSPropertyOp34
 70
     1
102
RTVSPropertyOp35
 70
     1
102
RTVSPropertyOp36
 70
     1
102
RTVSPropertyOp37
 70
     1
102
RTVSPropertyOp38
 70
     1
102
RTVSPropertyOp39
 70
     1
102
RTVSPropertyOp40
 70
     1
102
RTVSPropertyOp41
 70
     1
102
RTVSPropertyOp42
 70
     1
102
RTVSPropertyOp43
 70
     1
102
RTVSPropertyOp44
 70
     1
102
RTVSPropertyOp45
 70
     1
102
RTVSPropertyOp46
 70
     1
102
RTVSPropertyOp47
 70
     1
102
RTVSPropertyOp48
 70
     1
102
RTVSPropertyOp49
 70
     1
102
RTVSPropertyOp50
 70
     1
102
RTVSPropertyOp51
 70
     0
102
RTVSPropertyOp52
 70
     0
102
RTVSPropertyOp53
 70
     1
102
RTVSPropertyOp54
 70
     1
102
RTVSPropertyOp55
 70
     1
102
RTVSPropertyOp56
 70
     1
102
RTVSPropertyOp57
 70
     1
102
RTVSPost2010Prop28
280
     0
102
RTVSPost2010PropOp28
 70
     1
102
RTVSPost2010Prop29
280
     1
102
RTVSPost2010PropOp29
 70
     1
102
RTVSPost2010Prop30
280
     1
102
RTVSPost2010PropOp30
 70
     1
102
RTVSPost2010Prop31
280
     0
102
RTVSPost2010PropOp31
 70
     1
102
RTVSPost2010Prop32
280
     0
102
RTVSPost2010PropOp32
 70
     1
102
RTVSPost2010Prop33
280
     0
102
RTVSPost2010PropOp33
 70
     1
102
RTVSPost2010Prop34
280
     0
102
RTVSPost2010PropOp34
 70
     1
102
RTVSPost2010Prop35
280
     0
102
RTVSPost2010PropOp35
 70
     1
102
RTVSPost2010Prop36
280
     0
102
RTVSPost2010PropOp36
 70
     1
102
RTVSPost2010Prop37
 90
       50
102
RTVSPost2010PropOp37
 70
     1
102
RTVSPost2010Prop38
140
0.0
102
RTVSPost2010PropOp38
 70
     1
102
RTVSPost2010Prop39
140
1.0
102
RTVSPost2010PropOp39
 70
     1
102
RTVSPost2010Prop40
 90
        0
102
RTVSPost2010PropOp40
 70
     1
102
RTVSPost2010Prop41ColorIndex
 90
       18
102
RTVSPost2010Prop41ColorRGB
 90
        0
102
RTVSPost2010PropOp41
 70
     1
102
RTVSPost2010Prop42
 90
       50
102
RTVSPost2010PropOp42
 70
     1
102
RTVSPost2010Prop43
 90
        3
102
RTVSPost2010PropOp43
 70
     1
102
RTVSPost2010Prop44ColorIndex
 90
        5
102
RTVSPost2010Prop44ColorRGB
 90
      255
102
RTVSPost2010PropOp44
 70
     1
102
RTVSPost2010Prop45
280
     0
102
RTVSPost2010PropOp45
 70
     1
102
RTVSPost2010Prop46
 90
       50
102
RTVSPost2010PropOp46
 70
     1
102
RTVSPost2010Prop47
 90
       50
102
RTVSPost2010PropOp47
 70
     1
102
RTVSPost2010Prop48
 90
       50
102
RTVSPost2010PropOp48
 70
     1
102
RTVSPost2010Prop49
280
     0
102
RTVSPost2010PropOp49
 70
     1
102
RTVSPost2010Prop50
 90
       50
102
RTVSPost2010PropOp50
 70
     1
102
RTVSPost2010Prop51ColorIndex
 90
      256
102
RTVSPost2010Prop51ColorRGB
 90
-16777216
102
RTVSPost2010PropOp51
 70
     0
102
RTVSPost2010Prop52
140
1.0
102
RTVSPost2010PropOp52
 70
     0
102
RTVSPost2010Prop53
 90
        2
102
RTVSPost2010PropOp53
 70
     1
102
RTVSPost2010Prop54
  1
strokes_ogs.tif
102
RTVSPost2010PropOp54
 70
     1
102
RTVSPost2010Prop55
280
     0
102
RTVSPost2010PropOp55
 70
     1
102
RTVSPost2010Prop56
140
1.0
102
RTVSPost2010PropOp56
 70
     1
102
RTVSPost2010Prop57
140
1.0
102
RTVSPost2010PropOp57
 70
     1
  0
XRECORD
  5
69D
102
{ACAD_REACTORS
330
69C
102
}
330
69C
100
AcDbXrecord
280
     1
102
RTVSPropertyOp0
 70
     0
102
RTVSPropertyOp1
 70
     0
102
RTVSPropertyOp2
 70
     0
102
RTVSPropertyOp3
 70
     0
102
RTVSPropertyOp4
 70
     0
102
RTVSPropertyOp5
 70
     0
102
RTVSPropertyOp6
 70
     0
102
RTVSPropertyOp7
 70
     0
102
RTVSPropertyOp8
 70
     0
102
RTVSPropertyOp9
 70
     0
102
RTVSPropertyOp10
 70
     0
102
RTVSPropertyOp11
 70
     0
102
RTVSPropertyOp12
 70
     0
102
RTVSPropertyOp13
 70
     0
102
RTVSPropertyOp14
 70
     0
102
RTVSPropertyOp15
 70
     0
102
RTVSPropertyOp16
 70
     0
102
RTVSPropertyOp17
 70
     0
102
RTVSPropertyOp18
 70
     0
102
RTVSPropertyOp19
 70
     0
102
RTVSPropertyOp20
 70
     0
102
RTVSPropertyOp21
 70
     0
102
RTVSPropertyOp22
 70
     0
102
RTVSPropertyOp23
 70
     0
102
RTVSPropertyOp24
 70
     0
102
RTVSPropertyOp25
 70
     0
102
RTVSPropertyOp26
 70
     0
102
RTVSPropertyOp27
 70
     0
102
RTVSPropertyOp28
 70
     1
102
RTVSPropertyOp29
 70
     1
102
RTVSPropertyOp30
 70
     1
102
RTVSPropertyOp31
 70
     1
102
RTVSPropertyOp32
 70
     1
102
RTVSPropertyOp33
 70
     1
102
RTVSPropertyOp34
 70
     1
102
RTVSPropertyOp35
 70
     1
102
RTVSPropertyOp36
 70
     1
102
RTVSPropertyOp37
 70
     1
102
RTVSPropertyOp38
 70
     1
102
RTVSPropertyOp39
 70
     1
102
RTVSPropertyOp40
 70
     1
102
RTVSPropertyOp41
 70
     1
102
RTVSPropertyOp42
 70
     1
102
RTVSPropertyOp43
 70
     1
102
RTVSPropertyOp44
 70
     1
102
RTVSPropertyOp45
 70
     1
102
RTVSPropertyOp46
 70
     1
102
RTVSPropertyOp47
 70
     1
102
RTVSPropertyOp48
 70
     1
102
RTVSPropertyOp49
 70
     1
102
RTVSPropertyOp50
 70
     1
102
RTVSPropertyOp51
 70
     0
102
RTVSPropertyOp52
 70
     0
102
RTVSPropertyOp53
 70
     1
102
RTVSPropertyOp54
 70
     1
102
RTVSPropertyOp55
 70
     1
102
RTVSPropertyOp56
 70
     1
102
RTVSPropertyOp57
 70
     1
102
RTVSPost2010Prop28
280
     0
102
RTVSPost2010PropOp28
 70
     1
102
RTVSPost2010Prop29
280
     1
102
RTVSPost2010PropOp29
 70
     1
102
RTVSPost2010Prop30
280
     1
102
RTVSPost2010PropOp30
 70
     1
102
RTVSPost2010Prop31
280
     0
102
RTVSPost2010PropOp31
 70
     1
102
RTVSPost2010Prop32
280
     0
102
RTVSPost2010PropOp32
 70
     1
102
RTVSPost2010Prop33
280
     0
102
RTVSPost2010PropOp33
 70
     1
102
RTVSPost2010Prop34
280
     0
102
RTVSPost2010PropOp34
 70
     1
102
RTVSPost2010Prop35
280
     0
102
RTVSPost2010PropOp35
 70
     1
102
RTVSPost2010Prop36
280
     0
102
RTVSPost2010PropOp36
 70
     1
102
RTVSPost2010Prop37
 90
       50
102
RTVSPost2010PropOp37
 70
     1
102
RTVSPost2010Prop38
140
0.0
102
RTVSPost2010PropOp38
 70
     1
102
RTVSPost2010Prop39
140
1.0
102
RTVSPost2010PropOp39
 70
     1
102
RTVSPost2010Prop40
 90
        0
102
RTVSPost2010PropOp40
 70
     1
102
RTVSPost2010Prop41ColorIndex
 90
       18
102
RTVSPost2010Prop41ColorRGB
 90
        0
102
RTVSPost2010PropOp41
 70
     1
102
RTVSPost2010Prop42
 90
       50
102
RTVSPost2010PropOp42
 70
     1
102
RTVSPost2010Prop43
 90
        3
102
RTVSPost2010PropOp43
 70
     1
102
RTVSPost2010Prop44ColorIndex
 90
        5
102
RTVSPost2010Prop44ColorRGB
 90
      255
102
RTVSPost2010PropOp44
 70
     1
102
RTVSPost2010Prop45
280
     0
102
RTVSPost2010PropOp45
 70
     1
102
RTVSPost2010Prop46
 90
       50
102
RTVSPost2010PropOp46
 70
     1
102
RTVSPost2010Prop47
 90
       50
102
RTVSPost2010PropOp47
 70
     1
102
RTVSPost2010Prop48
 90
       50
102
RTVSPost2010PropOp48
 70
     1
102
RTVSPost2010Prop49
280
     0
102
RTVSPost2010PropOp49
 70
     1
102
RTVSPost2010Prop50
 90
       50
102
RTVSPost2010PropOp50
 70
     1
102
RTVSPost2010Prop51ColorIndex
 90
      256
102
RTVSPost2010Prop51ColorRGB
 90
-16777216
102
RTVSPost2010PropOp51
 70
     0
102
RTVSPost2010Prop52
140
1.0
102
RTVSPost2010PropOp52
 70
     0
102
RTVSPost2010Prop53
 90
        2
102
RTVSPost2010PropOp53
 70
     1
102
RTVSPost2010Prop54
  1
strokes_ogs.tif
102
RTVSPost2010PropOp54
 70
     1
102
RTVSPost2010Prop55
280
     0
102
RTVSPost2010PropOp55
 70
     1
102
RTVSPost2010Prop56
140
1.0
102
RTVSPost2010PropOp56
 70
     1
102
RTVSPost2010Prop57
140
1.0
102
RTVSPost2010PropOp57
 70
     1
  0
XRECORD
  5
697
102
{ACAD_REACTORS
330
696
102
}
330
696
100
AcDbXrecord
280
     1
102
RTVSPropertyOp0
 70
     1
102
RTVSPropertyOp1
 70
     1
102
RTVSPropertyOp2
 70
     1
102
RTVSPropertyOp3
 70
     1
102
RTVSPropertyOp4
 70
     1
102
RTVSPropertyOp5
 70
     1
102
RTVSPropertyOp6
 70
     1
102
RTVSPropertyOp7
 70
     1
102
RTVSPropertyOp8
 70
     1
102
RTVSPropertyOp9
 70
     1
102
RTVSPropertyOp10
 70
     1
102
RTVSPropertyOp11
 70
     1
102
RTVSPropertyOp12
 70
     1
102
RTVSPropertyOp13
 70
     1
102
RTVSPropertyOp14
 70
     1
102
RTVSPropertyOp15
 70
     1
102
RTVSPropertyOp16
 70
     1
102
RTVSPropertyOp17
 70
     1
102
RTVSPropertyOp18
 70
     1
102
RTVSPropertyOp19
 70
     1
102
RTVSPropertyOp20
 70
     1
102
RTVSPropertyOp21
 70
     1
102
RTVSPropertyOp22
 70
     1
102
RTVSPropertyOp23
 70
     1
102
RTVSPropertyOp24
 70
     1
102
RTVSPropertyOp25
 70
     1
102
RTVSPropertyOp26
 70
     1
102
RTVSPropertyOp27
 70
     1
102
RTVSPropertyOp28
 70
     1
102
RTVSPropertyOp29
 70
     1
102
RTVSPropertyOp30
 70
     1
102
RTVSPropertyOp31
 70
     1
102
RTVSPropertyOp32
 70
     1
102
RTVSPropertyOp33
 70
     1
102
RTVSPropertyOp34
 70
     1
102
RTVSPropertyOp35
 70
     1
102
RTVSPropertyOp36
 70
     1
102
RTVSPropertyOp37
 70
     1
102
RTVSPropertyOp38
 70
     1
102
RTVSPropertyOp39
 70
     1
102
RTVSPropertyOp40
 70
     1
102
RTVSPropertyOp41
 70
     1
102
RTVSPropertyOp42
 70
     1
102
RTVSPropertyOp43
 70
     1
102
RTVSPropertyOp44
 70
     1
102
RTVSPropertyOp45
 70
     1
102
RTVSPropertyOp46
 70
     1
102
RTVSPropertyOp47
 70
     1
102
RTVSPropertyOp48
 70
     1
102
RTVSPropertyOp49
 70
     1
102
RTVSPropertyOp50
 70
     1
102
RTVSPropertyOp51
 70
     0
102
RTVSPropertyOp52
 70
     0
102
RTVSPropertyOp53
 70
     1
102
RTVSPropertyOp54
 70
     1
102
RTVSPropertyOp55
 70
     1
102
RTVSPropertyOp56
 70
     1
102
RTVSPropertyOp57
 70
     1
102
RTVSPost2010Prop28
280
     0
102
RTVSPost2010PropOp28
 70
     1
102
RTVSPost2010Prop29
280
     1
102
RTVSPost2010PropOp29
 70
     1
102
RTVSPost2010Prop30
280
     1
102
RTVSPost2010PropOp30
 70
     1
102
RTVSPost2010Prop31
280
     0
102
RTVSPost2010PropOp31
 70
     1
102
RTVSPost2010Prop32
280
     0
102
RTVSPost2010PropOp32
 70
     1
102
RTVSPost2010Prop33
280
     0
102
RTVSPost2010PropOp33
 70
     1
102
RTVSPost2010Prop34
280
     0
102
RTVSPost2010PropOp34
 70
     1
102
RTVSPost2010Prop35
280
     0
102
RTVSPost2010PropOp35
 70
     1
102
RTVSPost2010Prop36
280
     0
102
RTVSPost2010PropOp36
 70
     1
102
RTVSPost2010Prop37
 90
       50
102
RTVSPost2010PropOp37
 70
     1
102
RTVSPost2010Prop38
140
0.0
102
RTVSPost2010PropOp38
 70
     1
102
RTVSPost2010Prop39
140
1.0
102
RTVSPost2010PropOp39
 70
     1
102
RTVSPost2010Prop40
 90
        0
102
RTVSPost2010PropOp40
 70
     1
102
RTVSPost2010Prop41ColorIndex
 90
       18
102
RTVSPost2010Prop41ColorRGB
 90
        0
102
RTVSPost2010PropOp41
 70
     1
102
RTVSPost2010Prop42
 90
       50
102
RTVSPost2010PropOp42
 70
     1
102
RTVSPost2010Prop43
 90
        3
102
RTVSPost2010PropOp43
 70
     1
102
RTVSPost2010Prop44ColorIndex
 90
        5
102
RTVSPost2010Prop44ColorRGB
 90
      255
102
RTVSPost2010PropOp44
 70
     1
102
RTVSPost2010Prop45
280
     0
102
RTVSPost2010PropOp45
 70
     1
102
RTVSPost2010Prop46
 90
       50
102
RTVSPost2010PropOp46
 70
     1
102
RTVSPost2010Prop47
 90
       50
102
RTVSPost2010PropOp47
 70
     1
102
RTVSPost2010Prop48
 90
       50
102
RTVSPost2010PropOp48
 70
     1
102
RTVSPost2010Prop49
280
     0
102
RTVSPost2010PropOp49
 70
     1
102
RTVSPost2010Prop50
 90
       50
102
RTVSPost2010PropOp50
 70
     1
102
RTVSPost2010Prop51ColorIndex
 90
      256
102
RTVSPost2010Prop51ColorRGB
 90
-16777216
102
RTVSPost2010PropOp51
 70
     0
102
RTVSPost2010Prop52
140
1.0
102
RTVSPost2010PropOp52
 70
     0
102
RTVSPost2010Prop53
 90
        2
102
RTVSPost2010PropOp53
 70
     1
102
RTVSPost2010Prop54
  1
strokes_ogs.tif
102
RTVSPost2010PropOp54
 70
     1
102
RTVSPost2010Prop55
280
     0
102
RTVSPost2010PropOp55
 70
     1
102
RTVSPost2010Prop56
140
1.0
102
RTVSPost2010PropOp56
 70
     1
102
RTVSPost2010Prop57
140
1.0
102
RTVSPost2010PropOp57
 70
     1
  0
XRECORD
  5
69F
102
{ACAD_REACTORS
330
69E
102
}
330
69E
100
AcDbXrecord
280
     1
102
RTVSPropertyOp0
 70
     0
102
RTVSPropertyOp1
 70
     0
102
RTVSPropertyOp2
 70
     0
102
RTVSPropertyOp3
 70
     0
102
RTVSPropertyOp4
 70
     0
102
RTVSPropertyOp5
 70
     0
102
RTVSPropertyOp6
 70
     0
102
RTVSPropertyOp7
 70
     0
102
RTVSPropertyOp8
 70
     0
102
RTVSPropertyOp9
 70
     0
102
RTVSPropertyOp10
 70
     0
102
RTVSPropertyOp11
 70
     0
102
RTVSPropertyOp12
 70
     0
102
RTVSPropertyOp13
 70
     0
102
RTVSPropertyOp14
 70
     0
102
RTVSPropertyOp15
 70
     0
102
RTVSPropertyOp16
 70
     0
102
RTVSPropertyOp17
 70
     0
102
RTVSPropertyOp18
 70
     0
102
RTVSPropertyOp19
 70
     0
102
RTVSPropertyOp20
 70
     0
102
RTVSPropertyOp21
 70
     0
102
RTVSPropertyOp22
 70
     0
102
RTVSPropertyOp23
 70
     0
102
RTVSPropertyOp24
 70
     0
102
RTVSPropertyOp25
 70
     0
102
RTVSPropertyOp26
 70
     0
102
RTVSPropertyOp27
 70
     0
102
RTVSPropertyOp28
 70
     1
102
RTVSPropertyOp29
 70
     1
102
RTVSPropertyOp30
 70
     1
102
RTVSPropertyOp31
 70
     1
102
RTVSPropertyOp32
 70
     1
102
RTVSPropertyOp33
 70
     1
102
RTVSPropertyOp34
 70
     1
102
RTVSPropertyOp35
 70
     1
102
RTVSPropertyOp36
 70
     1
102
RTVSPropertyOp37
 70
     1
102
RTVSPropertyOp38
 70
     1
102
RTVSPropertyOp39
 70
     1
102
RTVSPropertyOp40
 70
     1
102
RTVSPropertyOp41
 70
     1
102
RTVSPropertyOp42
 70
     1
102
RTVSPropertyOp43
 70
     1
102
RTVSPropertyOp44
 70
     1
102
RTVSPropertyOp45
 70
     1
102
RTVSPropertyOp46
 70
     1
102
RTVSPropertyOp47
 70
     1
102
RTVSPropertyOp48
 70
     1
102
RTVSPropertyOp49
 70
     1
102
RTVSPropertyOp50
 70
     1
102
RTVSPropertyOp51
 70
     0
102
RTVSPropertyOp52
 70
     0
102
RTVSPropertyOp53
 70
     1
102
RTVSPropertyOp54
 70
     1
102
RTVSPropertyOp55
 70
     1
102
RTVSPropertyOp56
 70
     1
102
RTVSPropertyOp57
 70
     1
102
RTVSPost2010Prop28
280
     0
102
RTVSPost2010PropOp28
 70
     1
102
RTVSPost2010Prop29
280
     1
102
RTVSPost2010PropOp29
 70
     1
102
RTVSPost2010Prop30
280
     1
102
RTVSPost2010PropOp30
 70
     1
102
RTVSPost2010Prop31
280
     0
102
RTVSPost2010PropOp31
 70
     1
102
RTVSPost2010Prop32
280
     0
102
RTVSPost2010PropOp32
 70
     1
102
RTVSPost2010Prop33
280
     0
102
RTVSPost2010PropOp33
 70
     1
102
RTVSPost2010Prop34
280
     0
102
RTVSPost2010PropOp34
 70
     1
102
RTVSPost2010Prop35
280
     0
102
RTVSPost2010PropOp35
 70
     1
102
RTVSPost2010Prop36
280
     0
102
RTVSPost2010PropOp36
 70
     1
102
RTVSPost2010Prop37
 90
       50
102
RTVSPost2010PropOp37
 70
     1
102
RTVSPost2010Prop38
140
0.0
102
RTVSPost2010PropOp38
 70
     1
102
RTVSPost2010Prop39
140
1.0
102
RTVSPost2010PropOp39
 70
     1
102
RTVSPost2010Prop40
 90
        0
102
RTVSPost2010PropOp40
 70
     1
102
RTVSPost2010Prop41ColorIndex
 90
       18
102
RTVSPost2010Prop41ColorRGB
 90
        0
102
RTVSPost2010PropOp41
 70
     1
102
RTVSPost2010Prop42
 90
       50
102
RTVSPost2010PropOp42
 70
     1
102
RTVSPost2010Prop43
 90
        3
102
RTVSPost2010PropOp43
 70
     1
102
RTVSPost2010Prop44ColorIndex
 90
        5
102
RTVSPost2010Prop44ColorRGB
 90
      255
102
RTVSPost2010PropOp44
 70
     1
102
RTVSPost2010Prop45
280
     0
102
RTVSPost2010PropOp45
 70
     1
102
RTVSPost2010Prop46
 90
       50
102
RTVSPost2010PropOp46
 70
     1
102
RTVSPost2010Prop47
 90
       50
102
RTVSPost2010PropOp47
 70
     1
102
RTVSPost2010Prop48
 90
       50
102
RTVSPost2010PropOp48
 70
     1
102
RTVSPost2010Prop49
280
     0
102
RTVSPost2010PropOp49
 70
     1
102
RTVSPost2010Prop50
 90
       50
102
RTVSPost2010PropOp50
 70
     1
102
RTVSPost2010Prop51ColorIndex
 90
      256
102
RTVSPost2010Prop51ColorRGB
 90
-16777216
102
RTVSPost2010PropOp51
 70
     0
102
RTVSPost2010Prop52
140
1.0
102
RTVSPost2010PropOp52
 70
     0
102
RTVSPost2010Prop53
 90
        2
102
RTVSPost2010PropOp53
 70
     1
102
RTVSPost2010Prop54
  1
strokes_ogs.tif
102
RTVSPost2010PropOp54
 70
     1
102
RTVSPost2010Prop55
280
     0
102
RTVSPost2010PropOp55
 70
     1
102
RTVSPost2010Prop56
140
1.0
102
RTVSPost2010PropOp56
 70
     1
102
RTVSPost2010Prop57
140
1.0
102
RTVSPost2010PropOp57
 70
     1
  0
XRECORD
  5
68D
102
{ACAD_REACTORS
330
68C
102
}
330
68C
100
AcDbXrecord
280
     1
102
RTVSPropertyOp0
 70
     1
102
RTVSPropertyOp1
 70
     1
102
RTVSPropertyOp2
 70
     1
102
RTVSPropertyOp3
 70
     1
102
RTVSPropertyOp4
 70
     1
102
RTVSPropertyOp5
 70
     1
102
RTVSPropertyOp6
 70
     1
102
RTVSPropertyOp7
 70
     1
102
RTVSPropertyOp8
 70
     1
102
RTVSPropertyOp9
 70
     1
102
RTVSPropertyOp10
 70
     1
102
RTVSPropertyOp11
 70
     1
102
RTVSPropertyOp12
 70
     1
102
RTVSPropertyOp13
 70
     1
102
RTVSPropertyOp14
 70
     1
102
RTVSPropertyOp15
 70
     1
102
RTVSPropertyOp16
 70
     1
102
RTVSPropertyOp17
 70
     1
102
RTVSPropertyOp18
 70
     1
102
RTVSPropertyOp19
 70
     1
102
RTVSPropertyOp20
 70
     1
102
RTVSPropertyOp21
 70
     1
102
RTVSPropertyOp22
 70
     1
102
RTVSPropertyOp23
 70
     1
102
RTVSPropertyOp24
 70
     1
102
RTVSPropertyOp25
 70
     1
102
RTVSPropertyOp26
 70
     1
102
RTVSPropertyOp27
 70
     1
102
RTVSPropertyOp28
 70
     1
102
RTVSPropertyOp29
 70
     1
102
RTVSPropertyOp30
 70
     1
102
RTVSPropertyOp31
 70
     1
102
RTVSPropertyOp32
 70
     1
102
RTVSPropertyOp33
 70
     1
102
RTVSPropertyOp34
 70
     1
102
RTVSPropertyOp35
 70
     1
102
RTVSPropertyOp36
 70
     1
102
RTVSPropertyOp37
 70
     1
102
RTVSPropertyOp38
 70
     1
102
RTVSPropertyOp39
 70
     1
102
RTVSPropertyOp40
 70
     1
102
RTVSPropertyOp41
 70
     1
102
RTVSPropertyOp42
 70
     1
102
RTVSPropertyOp43
 70
     1
102
RTVSPropertyOp44
 70
     1
102
RTVSPropertyOp45
 70
     1
102
RTVSPropertyOp46
 70
     1
102
RTVSPropertyOp47
 70
     1
102
RTVSPropertyOp48
 70
     1
102
RTVSPropertyOp49
 70
     1
102
RTVSPropertyOp50
 70
     1
102
RTVSPropertyOp51
 70
     0
102
RTVSPropertyOp52
 70
     0
102
RTVSPropertyOp53
 70
     1
102
RTVSPropertyOp54
 70
     1
102
RTVSPropertyOp55
 70
     1
102
RTVSPropertyOp56
 70
     1
102
RTVSPropertyOp57
 70
     1
102
RTVSPost2010Prop28
280
     0
102
RTVSPost2010PropOp28
 70
     1
102
RTVSPost2010Prop29
280
     1
102
RTVSPost2010PropOp29
 70
     1
102
RTVSPost2010Prop30
280
     1
102
RTVSPost2010PropOp30
 70
     1
102
RTVSPost2010Prop31
280
     0
102
RTVSPost2010PropOp31
 70
     1
102
RTVSPost2010Prop32
280
     0
102
RTVSPost2010PropOp32
 70
     1
102
RTVSPost2010Prop33
280
     0
102
RTVSPost2010PropOp33
 70
     1
102
RTVSPost2010Prop34
280
     0
102
RTVSPost2010PropOp34
 70
     1
102
RTVSPost2010Prop35
280
     0
102
RTVSPost2010PropOp35
 70
     1
102
RTVSPost2010Prop36
280
     0
102
RTVSPost2010PropOp36
 70
     1
102
RTVSPost2010Prop37
 90
       50
102
RTVSPost2010PropOp37
 70
     1
102
RTVSPost2010Prop38
140
0.0
102
RTVSPost2010PropOp38
 70
     1
102
RTVSPost2010Prop39
140
1.0
102
RTVSPost2010PropOp39
 70
     1
102
RTVSPost2010Prop40
 90
        0
102
RTVSPost2010PropOp40
 70
     1
102
RTVSPost2010Prop41ColorIndex
 90
       18
102
RTVSPost2010Prop41ColorRGB
 90
        0
102
RTVSPost2010PropOp41
 70
     1
102
RTVSPost2010Prop42
 90
       50
102
RTVSPost2010PropOp42
 70
     1
102
RTVSPost2010Prop43
 90
        3
102
RTVSPost2010PropOp43
 70
     1
102
RTVSPost2010Prop44ColorIndex
 90
        5
102
RTVSPost2010Prop44ColorRGB
 90
      255
102
RTVSPost2010PropOp44
 70
     1
102
RTVSPost2010Prop45
280
     0
102
RTVSPost2010PropOp45
 70
     1
102
RTVSPost2010Prop46
 90
       50
102
RTVSPost2010PropOp46
 70
     1
102
RTVSPost2010Prop47
 90
       50
102
RTVSPost2010PropOp47
 70
     1
102
RTVSPost2010Prop48
 90
       50
102
RTVSPost2010PropOp48
 70
     1
102
RTVSPost2010Prop49
280
     0
102
RTVSPost2010PropOp49
 70
     1
102
RTVSPost2010Prop50
 90
       50
102
RTVSPost2010PropOp50
 70
     1
102
RTVSPost2010Prop51ColorIndex
 90
      256
102
RTVSPost2010Prop51ColorRGB
 90
-16777216
102
RTVSPost2010PropOp51
 70
     0
102
RTVSPost2010Prop52
140
1.0
102
RTVSPost2010PropOp52
 70
     0
102
RTVSPost2010Prop53
 90
        2
102
RTVSPost2010PropOp53
 70
     1
102
RTVSPost2010Prop54
  1
strokes_ogs.tif
102
RTVSPost2010PropOp54
 70
     1
102
RTVSPost2010Prop55
280
     0
102
RTVSPost2010PropOp55
 70
     1
102
RTVSPost2010Prop56
140
1.0
102
RTVSPost2010PropOp56
 70
     1
102
RTVSPost2010Prop57
140
1.0
102
RTVSPost2010PropOp57
 70
     1
  0
XRECORD
  5
6AB
102
{ACAD_REACTORS
330
6AA
102
}
330
6AA
100
AcDbXrecord
280
     1
102
RTVSPropertyOp0
 70
     1
102
RTVSPropertyOp1
 70
     1
102
RTVSPropertyOp2
 70
     1
102
RTVSPropertyOp3
 70
     1
102
RTVSPropertyOp4
 70
     1
102
RTVSPropertyOp5
 70
     1
102
RTVSPropertyOp6
 70
     1
102
RTVSPropertyOp7
 70
     1
102
RTVSPropertyOp8
 70
     1
102
RTVSPropertyOp9
 70
     1
102
RTVSPropertyOp10
 70
     1
102
RTVSPropertyOp11
 70
     1
102
RTVSPropertyOp12
 70
     1
102
RTVSPropertyOp13
 70
     1
102
RTVSPropertyOp14
 70
     1
102
RTVSPropertyOp15
 70
     1
102
RTVSPropertyOp16
 70
     1
102
RTVSPropertyOp17
 70
     1
102
RTVSPropertyOp18
 70
     1
102
RTVSPropertyOp19
 70
     1
102
RTVSPropertyOp20
 70
     1
102
RTVSPropertyOp21
 70
     1
102
RTVSPropertyOp22
 70
     1
102
RTVSPropertyOp23
 70
     1
102
RTVSPropertyOp24
 70
     1
102
RTVSPropertyOp25
 70
     1
102
RTVSPropertyOp26
 70
     1
102
RTVSPropertyOp27
 70
     1
102
RTVSPropertyOp28
 70
     1
102
RTVSPropertyOp29
 70
     1
102
RTVSPropertyOp30
 70
     1
102
RTVSPropertyOp31
 70
     1
102
RTVSPropertyOp32
 70
     1
102
RTVSPropertyOp33
 70
     1
102
RTVSPropertyOp34
 70
     1
102
RTVSPropertyOp35
 70
     1
102
RTVSPropertyOp36
 70
     1
102
RTVSPropertyOp37
 70
     1
102
RTVSPropertyOp38
 70
     1
102
RTVSPropertyOp39
 70
     1
102
RTVSPropertyOp40
 70
     1
102
RTVSPropertyOp41
 70
     1
102
RTVSPropertyOp42
 70
     1
102
RTVSPropertyOp43
 70
     1
102
RTVSPropertyOp44
 70
     1
102
RTVSPropertyOp45
 70
     1
102
RTVSPropertyOp46
 70
     1
102
RTVSPropertyOp47
 70
     1
102
RTVSPropertyOp48
 70
     1
102
RTVSPropertyOp49
 70
     1
102
RTVSPropertyOp50
 70
     1
102
RTVSPropertyOp51
 70
     0
102
RTVSPropertyOp52
 70
     0
102
RTVSPropertyOp53
 70
     1
102
RTVSPropertyOp54
 70
     1
102
RTVSPropertyOp55
 70
     1
102
RTVSPropertyOp56
 70
     1
102
RTVSPropertyOp57
 70
     1
102
RTVSPost2010Prop28
280
     0
102
RTVSPost2010PropOp28
 70
     1
102
RTVSPost2010Prop29
280
     1
102
RTVSPost2010PropOp29
 70
     1
102
RTVSPost2010Prop30
280
     1
102
RTVSPost2010PropOp30
 70
     1
102
RTVSPost2010Prop31
280
     0
102
RTVSPost2010PropOp31
 70
     1
102
RTVSPost2010Prop32
280
     0
102
RTVSPost2010PropOp32
 70
     1
102
RTVSPost2010Prop33
280
     0
102
RTVSPost2010PropOp33
 70
     1
102
RTVSPost2010Prop34
280
     0
102
RTVSPost2010PropOp34
 70
     1
102
RTVSPost2010Prop35
280
     0
102
RTVSPost2010PropOp35
 70
     1
102
RTVSPost2010Prop36
280
     0
102
RTVSPost2010PropOp36
 70
     1
102
RTVSPost2010Prop37
 90
       50
102
RTVSPost2010PropOp37
 70
     1
102
RTVSPost2010Prop38
140
0.0
102
RTVSPost2010PropOp38
 70
     1
102
RTVSPost2010Prop39
140
1.0
102
RTVSPost2010PropOp39
 70
     1
102
RTVSPost2010Prop40
 90
        0
102
RTVSPost2010PropOp40
 70
     1
102
RTVSPost2010Prop41ColorIndex
 90
       18
102
RTVSPost2010Prop41ColorRGB
 90
        0
102
RTVSPost2010PropOp41
 70
     1
102
RTVSPost2010Prop42
 90
       50
102
RTVSPost2010PropOp42
 70
     1
102
RTVSPost2010Prop43
 90
        3
102
RTVSPost2010PropOp43
 70
     1
102
RTVSPost2010Prop44ColorIndex
 90
        5
102
RTVSPost2010Prop44ColorRGB
 90
      255
102
RTVSPost2010PropOp44
 70
     1
102
RTVSPost2010Prop45
280
     0
102
RTVSPost2010PropOp45
 70
     1
102
RTVSPost2010Prop46
 90
       50
102
RTVSPost2010PropOp46
 70
     1
102
RTVSPost2010Prop47
 90
       50
102
RTVSPost2010PropOp47
 70
     1
102
RTVSPost2010Prop48
 90
       50
102
RTVSPost2010PropOp48
 70
     1
102
RTVSPost2010Prop49
280
     0
102
RTVSPost2010PropOp49
 70
     1
102
RTVSPost2010Prop50
 90
       50
102
RTVSPost2010PropOp50
 70
     1
102
RTVSPost2010Prop51ColorIndex
 90
      256
102
RTVSPost2010Prop51ColorRGB
 90
-16777216
102
RTVSPost2010PropOp51
 70
     0
102
RTVSPost2010Prop52
140
1.0
102
RTVSPost2010PropOp52
 70
     0
102
RTVSPost2010Prop53
 90
        2
102
RTVSPost2010PropOp53
 70
     1
102
RTVSPost2010Prop54
  1
strokes_ogs.tif
102
RTVSPost2010PropOp54
 70
     1
102
RTVSPost2010Prop55
280
     0
102
RTVSPost2010PropOp55
 70
     1
102
RTVSPost2010Prop56
140
1.0
102
RTVSPost2010PropOp56
 70
     1
102
RTVSPost2010Prop57
140
1.0
102
RTVSPost2010PropOp57
 70
     1
  0
XRECORD
  5
6A9
102
{ACAD_REACTORS
330
6A8
102
}
330
6A8
100
AcDbXrecord
280
     1
102
RTVSPropertyOp0
 70
     1
102
RTVSPropertyOp1
 70
     1
102
RTVSPropertyOp2
 70
     1
102
RTVSPropertyOp3
 70
     1
102
RTVSPropertyOp4
 70
     1
102
RTVSPropertyOp5
 70
     1
102
RTVSPropertyOp6
 70
     1
102
RTVSPropertyOp7
 70
     1
102
RTVSPropertyOp8
 70
     1
102
RTVSPropertyOp9
 70
     1
102
RTVSPropertyOp10
 70
     1
102
RTVSPropertyOp11
 70
     1
102
RTVSPropertyOp12
 70
     1
102
RTVSPropertyOp13
 70
     1
102
RTVSPropertyOp14
 70
     1
102
RTVSPropertyOp15
 70
     1
102
RTVSPropertyOp16
 70
     1
102
RTVSPropertyOp17
 70
     1
102
RTVSPropertyOp18
 70
     1
102
RTVSPropertyOp19
 70
     1
102
RTVSPropertyOp20
 70
     1
102
RTVSPropertyOp21
 70
     1
102
RTVSPropertyOp22
 70
     1
102
RTVSPropertyOp23
 70
     1
102
RTVSPropertyOp24
 70
     1
102
RTVSPropertyOp25
 70
     1
102
RTVSPropertyOp26
 70
     1
102
RTVSPropertyOp27
 70
     1
102
RTVSPropertyOp28
 70
     1
102
RTVSPropertyOp29
 70
     1
102
RTVSPropertyOp30
 70
     1
102
RTVSPropertyOp31
 70
     1
102
RTVSPropertyOp32
 70
     1
102
RTVSPropertyOp33
 70
     1
102
RTVSPropertyOp34
 70
     1
102
RTVSPropertyOp35
 70
     1
102
RTVSPropertyOp36
 70
     1
102
RTVSPropertyOp37
 70
     1
102
RTVSPropertyOp38
 70
     1
102
RTVSPropertyOp39
 70
     1
102
RTVSPropertyOp40
 70
     1
102
RTVSPropertyOp41
 70
     1
102
RTVSPropertyOp42
 70
     1
102
RTVSPropertyOp43
 70
     1
102
RTVSPropertyOp44
 70
     1
102
RTVSPropertyOp45
 70
     1
102
RTVSPropertyOp46
 70
     1
102
RTVSPropertyOp47
 70
     1
102
RTVSPropertyOp48
 70
     1
102
RTVSPropertyOp49
 70
     1
102
RTVSPropertyOp50
 70
     1
102
RTVSPropertyOp51
 70
     0
102
RTVSPropertyOp52
 70
     0
102
RTVSPropertyOp53
 70
     1
102
RTVSPropertyOp54
 70
     1
102
RTVSPropertyOp55
 70
     1
102
RTVSPropertyOp56
 70
     1
102
RTVSPropertyOp57
 70
     1
102
RTVSPost2010Prop28
280
     0
102
RTVSPost2010PropOp28
 70
     1
102
RTVSPost2010Prop29
280
     1
102
RTVSPost2010PropOp29
 70
     1
102
RTVSPost2010Prop30
280
     1
102
RTVSPost2010PropOp30
 70
     1
102
RTVSPost2010Prop31
280
     0
102
RTVSPost2010PropOp31
 70
     1
102
RTVSPost2010Prop32
280
     0
102
RTVSPost2010PropOp32
 70
     1
102
RTVSPost2010Prop33
280
     0
102
RTVSPost2010PropOp33
 70
     1
102
RTVSPost2010Prop34
280
     0
102
RTVSPost2010PropOp34
 70
     1
102
RTVSPost2010Prop35
280
     0
102
RTVSPost2010PropOp35
 70
     1
102
RTVSPost2010Prop36
280
     0
102
RTVSPost2010PropOp36
 70
     1
102
RTVSPost2010Prop37
 90
       50
102
RTVSPost2010PropOp37
 70
     1
102
RTVSPost2010Prop38
140
0.0
102
RTVSPost2010PropOp38
 70
     1
102
RTVSPost2010Prop39
140
1.0
102
RTVSPost2010PropOp39
 70
     1
102
RTVSPost2010Prop40
 90
        0
102
RTVSPost2010PropOp40
 70
     1
102
RTVSPost2010Prop41ColorIndex
 90
       18
102
RTVSPost2010Prop41ColorRGB
 90
        0
102
RTVSPost2010PropOp41
 70
     1
102
RTVSPost2010Prop42
 90
       50
102
RTVSPost2010PropOp42
 70
     1
102
RTVSPost2010Prop43
 90
        3
102
RTVSPost2010PropOp43
 70
     1
102
RTVSPost2010Prop44ColorIndex
 90
        5
102
RTVSPost2010Prop44ColorRGB
 90
      255
102
RTVSPost2010PropOp44
 70
     1
102
RTVSPost2010Prop45
280
     0
102
RTVSPost2010PropOp45
 70
     1
102
RTVSPost2010Prop46
 90
       50
102
RTVSPost2010PropOp46
 70
     1
102
RTVSPost2010Prop47
 90
       50
102
RTVSPost2010PropOp47
 70
     1
102
RTVSPost2010Prop48
 90
       50
102
RTVSPost2010PropOp48
 70
     1
102
RTVSPost2010Prop49
280
     0
102
RTVSPost2010PropOp49
 70
     1
102
RTVSPost2010Prop50
 90
       50
102
RTVSPost2010PropOp50
 70
     1
102
RTVSPost2010Prop51ColorIndex
 90
      256
102
RTVSPost2010Prop51ColorRGB
 90
-16777216
102
RTVSPost2010PropOp51
 70
     0
102
RTVSPost2010Prop52
140
1.0
102
RTVSPost2010PropOp52
 70
     0
102
RTVSPost2010Prop53
 90
        2
102
RTVSPost2010PropOp53
 70
     1
102
RTVSPost2010Prop54
  1
strokes_ogs.tif
102
RTVSPost2010PropOp54
 70
     1
102
RTVSPost2010Prop55
280
     0
102
RTVSPost2010PropOp55
 70
     1
102
RTVSPost2010Prop56
140
1.0
102
RTVSPost2010PropOp56
 70
     1
102
RTVSPost2010Prop57
140
1.0
102
RTVSPost2010PropOp57
 70
     1
  0
XRECORD
  5
6A3
102
{ACAD_REACTORS
330
6A2
102
}
330
6A2
100
AcDbXrecord
280
     1
102
RTVSPropertyOp0
 70
     1
102
RTVSPropertyOp1
 70
     1
102
RTVSPropertyOp2
 70
     1
102
RTVSPropertyOp3
 70
     1
102
RTVSPropertyOp4
 70
     1
102
RTVSPropertyOp5
 70
     1
102
RTVSPropertyOp6
 70
     1
102
RTVSPropertyOp7
 70
     1
102
RTVSPropertyOp8
 70
     1
102
RTVSPropertyOp9
 70
     1
102
RTVSPropertyOp10
 70
     1
102
RTVSPropertyOp11
 70
     1
102
RTVSPropertyOp12
 70
     1
102
RTVSPropertyOp13
 70
     1
102
RTVSPropertyOp14
 70
     1
102
RTVSPropertyOp15
 70
     1
102
RTVSPropertyOp16
 70
     1
102
RTVSPropertyOp17
 70
     1
102
RTVSPropertyOp18
 70
     1
102
RTVSPropertyOp19
 70
     1
102
RTVSPropertyOp20
 70
     1
102
RTVSPropertyOp21
 70
     1
102
RTVSPropertyOp22
 70
     1
102
RTVSPropertyOp23
 70
     1
102
RTVSPropertyOp24
 70
     1
102
RTVSPropertyOp25
 70
     1
102
RTVSPropertyOp26
 70
     1
102
RTVSPropertyOp27
 70
     1
102
RTVSPropertyOp28
 70
     1
102
RTVSPropertyOp29
 70
     1
102
RTVSPropertyOp30
 70
     1
102
RTVSPropertyOp31
 70
     1
102
RTVSPropertyOp32
 70
     1
102
RTVSPropertyOp33
 70
     1
102
RTVSPropertyOp34
 70
     1
102
RTVSPropertyOp35
 70
     1
102
RTVSPropertyOp36
 70
     1
102
RTVSPropertyOp37
 70
     1
102
RTVSPropertyOp38
 70
     1
102
RTVSPropertyOp39
 70
     1
102
RTVSPropertyOp40
 70
     1
102
RTVSPropertyOp41
 70
     1
102
RTVSPropertyOp42
 70
     1
102
RTVSPropertyOp43
 70
     1
102
RTVSPropertyOp44
 70
     1
102
RTVSPropertyOp45
 70
     1
102
RTVSPropertyOp46
 70
     1
102
RTVSPropertyOp47
 70
     1
102
RTVSPropertyOp48
 70
     1
102
RTVSPropertyOp49
 70
     1
102
RTVSPropertyOp50
 70
     1
102
RTVSPropertyOp51
 70
     0
102
RTVSPropertyOp52
 70
     0
102
RTVSPropertyOp53
 70
     1
102
RTVSPropertyOp54
 70
     1
102
RTVSPropertyOp55
 70
     1
102
RTVSPropertyOp56
 70
     1
102
RTVSPropertyOp57
 70
     1
102
RTVSPost2010Prop28
280
     0
102
RTVSPost2010PropOp28
 70
     1
102
RTVSPost2010Prop29
280
     1
102
RTVSPost2010PropOp29
 70
     1
102
RTVSPost2010Prop30
280
     1
102
RTVSPost2010PropOp30
 70
     1
102
RTVSPost2010Prop31
280
     0
102
RTVSPost2010PropOp31
 70
     1
102
RTVSPost2010Prop32
280
     0
102
RTVSPost2010PropOp32
 70
     1
102
RTVSPost2010Prop33
280
     0
102
RTVSPost2010PropOp33
 70
     1
102
RTVSPost2010Prop34
280
     0
102
RTVSPost2010PropOp34
 70
     1
102
RTVSPost2010Prop35
280
     0
102
RTVSPost2010PropOp35
 70
     1
102
RTVSPost2010Prop36
280
     0
102
RTVSPost2010PropOp36
 70
     1
102
RTVSPost2010Prop37
 90
       50
102
RTVSPost2010PropOp37
 70
     1
102
RTVSPost2010Prop38
140
0.0
102
RTVSPost2010PropOp38
 70
     1
102
RTVSPost2010Prop39
140
1.0
102
RTVSPost2010PropOp39
 70
     1
102
RTVSPost2010Prop40
 90
        0
102
RTVSPost2010PropOp40
 70
     1
102
RTVSPost2010Prop41ColorIndex
 90
       18
102
RTVSPost2010Prop41ColorRGB
 90
        0
102
RTVSPost2010PropOp41
 70
     1
102
RTVSPost2010Prop42
 90
       50
102
RTVSPost2010PropOp42
 70
     1
102
RTVSPost2010Prop43
 90
        3
102
RTVSPost2010PropOp43
 70
     1
102
RTVSPost2010Prop44ColorIndex
 90
        5
102
RTVSPost2010Prop44ColorRGB
 90
      255
102
RTVSPost2010PropOp44
 70
     1
102
RTVSPost2010Prop45
280
     0
102
RTVSPost2010PropOp45
 70
     1
102
RTVSPost2010Prop46
 90
       50
102
RTVSPost2010PropOp46
 70
     1
102
RTVSPost2010Prop47
 90
       50
102
RTVSPost2010PropOp47
 70
     1
102
RTVSPost2010Prop48
 90
       50
102
RTVSPost2010PropOp48
 70
     1
102
RTVSPost2010Prop49
280
     0
102
RTVSPost2010PropOp49
 70
     1
102
RTVSPost2010Prop50
 90
       50
102
RTVSPost2010PropOp50
 70
     1
102
RTVSPost2010Prop51ColorIndex
 90
      256
102
RTVSPost2010Prop51ColorRGB
 90
-16777216
102
RTVSPost2010PropOp51
 70
     0
102
RTVSPost2010Prop52
140
1.0
102
RTVSPost2010PropOp52
 70
     0
102
RTVSPost2010Prop53
 90
        2
102
RTVSPost2010PropOp53
 70
     1
102
RTVSPost2010Prop54
  1
strokes_ogs.tif
102
RTVSPost2010PropOp54
 70
     1
102
RTVSPost2010Prop55
280
     0
102
RTVSPost2010PropOp55
 70
     1
102
RTVSPost2010Prop56
140
1.0
102
RTVSPost2010PropOp56
 70
     1
102
RTVSPost2010Prop57
140
1.0
102
RTVSPost2010PropOp57
 70
     1
  0
XRECORD
  5
6A5
102
{ACAD_REACTORS
330
6A4
102
}
330
6A4
100
AcDbXrecord
280
     1
102
RTVSPropertyOp0
 70
     1
102
RTVSPropertyOp1
 70
     1
102
RTVSPropertyOp2
 70
     1
102
RTVSPropertyOp3
 70
     1
102
RTVSPropertyOp4
 70
     1
102
RTVSPropertyOp5
 70
     1
102
RTVSPropertyOp6
 70
     1
102
RTVSPropertyOp7
 70
     1
102
RTVSPropertyOp8
 70
     1
102
RTVSPropertyOp9
 70
     1
102
RTVSPropertyOp10
 70
     1
102
RTVSPropertyOp11
 70
     1
102
RTVSPropertyOp12
 70
     1
102
RTVSPropertyOp13
 70
     1
102
RTVSPropertyOp14
 70
     1
102
RTVSPropertyOp15
 70
     1
102
RTVSPropertyOp16
 70
     1
102
RTVSPropertyOp17
 70
     1
102
RTVSPropertyOp18
 70
     1
102
RTVSPropertyOp19
 70
     1
102
RTVSPropertyOp20
 70
     1
102
RTVSPropertyOp21
 70
     1
102
RTVSPropertyOp22
 70
     1
102
RTVSPropertyOp23
 70
     1
102
RTVSPropertyOp24
 70
     1
102
RTVSPropertyOp25
 70
     1
102
RTVSPropertyOp26
 70
     1
102
RTVSPropertyOp27
 70
     1
102
RTVSPropertyOp28
 70
     1
102
RTVSPropertyOp29
 70
     1
102
RTVSPropertyOp30
 70
     1
102
RTVSPropertyOp31
 70
     1
102
RTVSPropertyOp32
 70
     1
102
RTVSPropertyOp33
 70
     1
102
RTVSPropertyOp34
 70
     1
102
RTVSPropertyOp35
 70
     1
102
RTVSPropertyOp36
 70
     1
102
RTVSPropertyOp37
 70
     1
102
RTVSPropertyOp38
 70
     1
102
RTVSPropertyOp39
 70
     1
102
RTVSPropertyOp40
 70
     1
102
RTVSPropertyOp41
 70
     1
102
RTVSPropertyOp42
 70
     1
102
RTVSPropertyOp43
 70
     1
102
RTVSPropertyOp44
 70
     1
102
RTVSPropertyOp45
 70
     1
102
RTVSPropertyOp46
 70
     1
102
RTVSPropertyOp47
 70
     1
102
RTVSPropertyOp48
 70
     1
102
RTVSPropertyOp49
 70
     1
102
RTVSPropertyOp50
 70
     1
102
RTVSPropertyOp51
 70
     0
102
RTVSPropertyOp52
 70
     0
102
RTVSPropertyOp53
 70
     1
102
RTVSPropertyOp54
 70
     1
102
RTVSPropertyOp55
 70
     1
102
RTVSPropertyOp56
 70
     1
102
RTVSPropertyOp57
 70
     1
102
RTVSPost2010Prop28
280
     0
102
RTVSPost2010PropOp28
 70
     1
102
RTVSPost2010Prop29
280
     1
102
RTVSPost2010PropOp29
 70
     1
102
RTVSPost2010Prop30
280
     1
102
RTVSPost2010PropOp30
 70
     1
102
RTVSPost2010Prop31
280
     0
102
RTVSPost2010PropOp31
 70
     1
102
RTVSPost2010Prop32
280
     0
102
RTVSPost2010PropOp32
 70
     1
102
RTVSPost2010Prop33
280
     0
102
RTVSPost2010PropOp33
 70
     1
102
RTVSPost2010Prop34
280
     0
102
RTVSPost2010PropOp34
 70
     1
102
RTVSPost2010Prop35
280
     0
102
RTVSPost2010PropOp35
 70
     1
102
RTVSPost2010Prop36
280
     0
102
RTVSPost2010PropOp36
 70
     1
102
RTVSPost2010Prop37
 90
       50
102
RTVSPost2010PropOp37
 70
     1
102
RTVSPost2010Prop38
140
0.0
102
RTVSPost2010PropOp38
 70
     1
102
RTVSPost2010Prop39
140
1.0
102
RTVSPost2010PropOp39
 70
     1
102
RTVSPost2010Prop40
 90
        0
102
RTVSPost2010PropOp40
 70
     1
102
RTVSPost2010Prop41ColorIndex
 90
       18
102
RTVSPost2010Prop41ColorRGB
 90
        0
102
RTVSPost2010PropOp41
 70
     1
102
RTVSPost2010Prop42
 90
       50
102
RTVSPost2010PropOp42
 70
     1
102
RTVSPost2010Prop43
 90
        3
102
RTVSPost2010PropOp43
 70
     1
102
RTVSPost2010Prop44ColorIndex
 90
        5
102
RTVSPost2010Prop44ColorRGB
 90
      255
102
RTVSPost2010PropOp44
 70
     1
102
RTVSPost2010Prop45
280
     0
102
RTVSPost2010PropOp45
 70
     1
102
RTVSPost2010Prop46
 90
       50
102
RTVSPost2010PropOp46
 70
     1
102
RTVSPost2010Prop47
 90
       50
102
RTVSPost2010PropOp47
 70
     1
102
RTVSPost2010Prop48
 90
       50
102
RTVSPost2010PropOp48
 70
     1
102
RTVSPost2010Prop49
280
     0
102
RTVSPost2010PropOp49
 70
     1
102
RTVSPost2010Prop50
 90
       50
102
RTVSPost2010PropOp50
 70
     1
102
RTVSPost2010Prop51ColorIndex
 90
      256
102
RTVSPost2010Prop51ColorRGB
 90
-16777216
102
RTVSPost2010PropOp51
 70
     0
102
RTVSPost2010Prop52
140
1.0
102
RTVSPost2010PropOp52
 70
     0
102
RTVSPost2010Prop53
 90
        2
102
RTVSPost2010PropOp53
 70
     1
102
RTVSPost2010Prop54
  1
strokes_ogs.tif
102
RTVSPost2010PropOp54
 70
     1
102
RTVSPost2010Prop55
280
     0
102
RTVSPost2010PropOp55
 70
     1
102
RTVSPost2010Prop56
140
1.0
102
RTVSPost2010PropOp56
 70
     1
102
RTVSPost2010Prop57
140
1.0
102
RTVSPost2010PropOp57
 70
     1
  0
XRECORD
  5
695
102
{ACAD_REACTORS
330
694
102
}
330
694
100
AcDbXrecord
280
     1
102
RTVSPropertyOp0
 70
     1
102
RTVSPropertyOp1
 70
     1
102
RTVSPropertyOp2
 70
     1
102
RTVSPropertyOp3
 70
     1
102
RTVSPropertyOp4
 70
     1
102
RTVSPropertyOp5
 70
     1
102
RTVSPropertyOp6
 70
     1
102
RTVSPropertyOp7
 70
     1
102
RTVSPropertyOp8
 70
     1
102
RTVSPropertyOp9
 70
     1
102
RTVSPropertyOp10
 70
     1
102
RTVSPropertyOp11
 70
     1
102
RTVSPropertyOp12
 70
     1
102
RTVSPropertyOp13
 70
     1
102
RTVSPropertyOp14
 70
     1
102
RTVSPropertyOp15
 70
     1
102
RTVSPropertyOp16
 70
     1
102
RTVSPropertyOp17
 70
     1
102
RTVSPropertyOp18
 70
     1
102
RTVSPropertyOp19
 70
     1
102
RTVSPropertyOp20
 70
     1
102
RTVSPropertyOp21
 70
     1
102
RTVSPropertyOp22
 70
     1
102
RTVSPropertyOp23
 70
     1
102
RTVSPropertyOp24
 70
     1
102
RTVSPropertyOp25
 70
     1
102
RTVSPropertyOp26
 70
     1
102
RTVSPropertyOp27
 70
     1
102
RTVSPropertyOp28
 70
     1
102
RTVSPropertyOp29
 70
     1
102
RTVSPropertyOp30
 70
     1
102
RTVSPropertyOp31
 70
     1
102
RTVSPropertyOp32
 70
     1
102
RTVSPropertyOp33
 70
     1
102
RTVSPropertyOp34
 70
     1
102
RTVSPropertyOp35
 70
     1
102
RTVSPropertyOp36
 70
     1
102
RTVSPropertyOp37
 70
     1
102
RTVSPropertyOp38
 70
     1
102
RTVSPropertyOp39
 70
     1
102
RTVSPropertyOp40
 70
     1
102
RTVSPropertyOp41
 70
     1
102
RTVSPropertyOp42
 70
     1
102
RTVSPropertyOp43
 70
     1
102
RTVSPropertyOp44
 70
     1
102
RTVSPropertyOp45
 70
     1
102
RTVSPropertyOp46
 70
     1
102
RTVSPropertyOp47
 70
     1
102
RTVSPropertyOp48
 70
     1
102
RTVSPropertyOp49
 70
     1
102
RTVSPropertyOp50
 70
     1
102
RTVSPropertyOp51
 70
     0
102
RTVSPropertyOp52
 70
     0
102
RTVSPropertyOp53
 70
     1
102
RTVSPropertyOp54
 70
     1
102
RTVSPropertyOp55
 70
     1
102
RTVSPropertyOp56
 70
     1
102
RTVSPropertyOp57
 70
     1
102
RTVSPost2010Prop28
280
     0
102
RTVSPost2010PropOp28
 70
     1
102
RTVSPost2010Prop29
280
     1
102
RTVSPost2010PropOp29
 70
     1
102
RTVSPost2010Prop30
280
     1
102
RTVSPost2010PropOp30
 70
     1
102
RTVSPost2010Prop31
280
     0
102
RTVSPost2010PropOp31
 70
     1
102
RTVSPost2010Prop32
280
     0
102
RTVSPost2010PropOp32
 70
     1
102
RTVSPost2010Prop33
280
     0
102
RTVSPost2010PropOp33
 70
     1
102
RTVSPost2010Prop34
280
     0
102
RTVSPost2010PropOp34
 70
     1
102
RTVSPost2010Prop35
280
     0
102
RTVSPost2010PropOp35
 70
     1
102
RTVSPost2010Prop36
280
     0
102
RTVSPost2010PropOp36
 70
     1
102
RTVSPost2010Prop37
 90
       50
102
RTVSPost2010PropOp37
 70
     1
102
RTVSPost2010Prop38
140
0.0
102
RTVSPost2010PropOp38
 70
     1
102
RTVSPost2010Prop39
140
1.0
102
RTVSPost2010PropOp39
 70
     1
102
RTVSPost2010Prop40
 90
        0
102
RTVSPost2010PropOp40
 70
     1
102
RTVSPost2010Prop41ColorIndex
 90
       18
102
RTVSPost2010Prop41ColorRGB
 90
        0
102
RTVSPost2010PropOp41
 70
     1
102
RTVSPost2010Prop42
 90
       50
102
RTVSPost2010PropOp42
 70
     1
102
RTVSPost2010Prop43
 90
        3
102
RTVSPost2010PropOp43
 70
     1
102
RTVSPost2010Prop44ColorIndex
 90
        5
102
RTVSPost2010Prop44ColorRGB
 90
      255
102
RTVSPost2010PropOp44
 70
     1
102
RTVSPost2010Prop45
280
     0
102
RTVSPost2010PropOp45
 70
     1
102
RTVSPost2010Prop46
 90
       50
102
RTVSPost2010PropOp46
 70
     1
102
RTVSPost2010Prop47
 90
       50
102
RTVSPost2010PropOp47
 70
     1
102
RTVSPost2010Prop48
 90
       50
102
RTVSPost2010PropOp48
 70
     1
102
RTVSPost2010Prop49
280
     0
102
RTVSPost2010PropOp49
 70
     1
102
RTVSPost2010Prop50
 90
       50
102
RTVSPost2010PropOp50
 70
     1
102
RTVSPost2010Prop51ColorIndex
 90
      256
102
RTVSPost2010Prop51ColorRGB
 90
-16777216
102
RTVSPost2010PropOp51
 70
     0
102
RTVSPost2010Prop52
140
1.0
102
RTVSPost2010PropOp52
 70
     0
102
RTVSPost2010Prop53
 90
        2
102
RTVSPost2010PropOp53
 70
     1
102
RTVSPost2010Prop54
  1
strokes_ogs.tif
102
RTVSPost2010PropOp54
 70
     1
102
RTVSPost2010Prop55
280
     0
102
RTVSPost2010PropOp55
 70
     1
102
RTVSPost2010Prop56
140
1.0
102
RTVSPost2010PropOp56
 70
     1
102
RTVSPost2010Prop57
140
1.0
102
RTVSPost2010PropOp57
 70
     1
  0
XRECORD
  5
687
102
{ACAD_REACTORS
330
686
102
}
330
686
100
AcDbXrecord
280
     1
102
RTVSPropertyOp0
 70
     1
102
RTVSPropertyOp1
 70
     1
102
RTVSPropertyOp2
 70
     1
102
RTVSPropertyOp3
 70
     1
102
RTVSPropertyOp4
 70
     1
102
RTVSPropertyOp5
 70
     1
102
RTVSPropertyOp6
 70
     1
102
RTVSPropertyOp7
 70
     1
102
RTVSPropertyOp8
 70
     1
102
RTVSPropertyOp9
 70
     1
102
RTVSPropertyOp10
 70
     1
102
RTVSPropertyOp11
 70
     1
102
RTVSPropertyOp12
 70
     1
102
RTVSPropertyOp13
 70
     1
102
RTVSPropertyOp14
 70
     1
102
RTVSPropertyOp15
 70
     1
102
RTVSPropertyOp16
 70
     1
102
RTVSPropertyOp17
 70
     1
102
RTVSPropertyOp18
 70
     1
102
RTVSPropertyOp19
 70
     1
102
RTVSPropertyOp20
 70
     1
102
RTVSPropertyOp21
 70
     1
102
RTVSPropertyOp22
 70
     1
102
RTVSPropertyOp23
 70
     1
102
RTVSPropertyOp24
 70
     1
102
RTVSPropertyOp25
 70
     1
102
RTVSPropertyOp26
 70
     1
102
RTVSPropertyOp27
 70
     1
102
RTVSPropertyOp28
 70
     1
102
RTVSPropertyOp29
 70
     1
102
RTVSPropertyOp30
 70
     1
102
RTVSPropertyOp31
 70
     1
102
RTVSPropertyOp32
 70
     1
102
RTVSPropertyOp33
 70
     1
102
RTVSPropertyOp34
 70
     1
102
RTVSPropertyOp35
 70
     1
102
RTVSPropertyOp36
 70
     1
102
RTVSPropertyOp37
 70
     1
102
RTVSPropertyOp38
 70
     1
102
RTVSPropertyOp39
 70
     1
102
RTVSPropertyOp40
 70
     1
102
RTVSPropertyOp41
 70
     1
102
RTVSPropertyOp42
 70
     1
102
RTVSPropertyOp43
 70
     1
102
RTVSPropertyOp44
 70
     1
102
RTVSPropertyOp45
 70
     1
102
RTVSPropertyOp46
 70
     1
102
RTVSPropertyOp47
 70
     1
102
RTVSPropertyOp48
 70
     1
102
RTVSPropertyOp49
 70
     1
102
RTVSPropertyOp50
 70
     1
102
RTVSPropertyOp51
 70
     0
102
RTVSPropertyOp52
 70
     0
102
RTVSPropertyOp53
 70
     1
102
RTVSPropertyOp54
 70
     1
102
RTVSPropertyOp55
 70
     1
102
RTVSPropertyOp56
 70
     1
102
RTVSPropertyOp57
 70
     1
102
RTVSPost2010Prop28
280
     0
102
RTVSPost2010PropOp28
 70
     1
102
RTVSPost2010Prop29
280
     1
102
RTVSPost2010PropOp29
 70
     1
102
RTVSPost2010Prop30
280
     1
102
RTVSPost2010PropOp30
 70
     1
102
RTVSPost2010Prop31
280
     0
102
RTVSPost2010PropOp31
 70
     1
102
RTVSPost2010Prop32
280
     0
102
RTVSPost2010PropOp32
 70
     1
102
RTVSPost2010Prop33
280
     0
102
RTVSPost2010PropOp33
 70
     1
102
RTVSPost2010Prop34
280
     0
102
RTVSPost2010PropOp34
 70
     1
102
RTVSPost2010Prop35
280
     0
102
RTVSPost2010PropOp35
 70
     1
102
RTVSPost2010Prop36
280
     0
102
RTVSPost2010PropOp36
 70
     1
102
RTVSPost2010Prop37
 90
       50
102
RTVSPost2010PropOp37
 70
     1
102
RTVSPost2010Prop38
140
0.0
102
RTVSPost2010PropOp38
 70
     1
102
RTVSPost2010Prop39
140
1.0
102
RTVSPost2010PropOp39
 70
     1
102
RTVSPost2010Prop40
 90
        0
102
RTVSPost2010PropOp40
 70
     1
102
RTVSPost2010Prop41ColorIndex
 90
       18
102
RTVSPost2010Prop41ColorRGB
 90
        0
102
RTVSPost2010PropOp41
 70
     1
102
RTVSPost2010Prop42
 90
       50
102
RTVSPost2010PropOp42
 70
     1
102
RTVSPost2010Prop43
 90
        3
102
RTVSPost2010PropOp43
 70
     1
102
RTVSPost2010Prop44ColorIndex
 90
        5
102
RTVSPost2010Prop44ColorRGB
 90
      255
102
RTVSPost2010PropOp44
 70
     1
102
RTVSPost2010Prop45
280
     0
102
RTVSPost2010PropOp45
 70
     1
102
RTVSPost2010Prop46
 90
       50
102
RTVSPost2010PropOp46
 70
     1
102
RTVSPost2010Prop47
 90
       50
102
RTVSPost2010PropOp47
 70
     1
102
RTVSPost2010Prop48
 90
       50
102
RTVSPost2010PropOp48
 70
     1
102
RTVSPost2010Prop49
280
     0
102
RTVSPost2010PropOp49
 70
     1
102
RTVSPost2010Prop50
 90
       50
102
RTVSPost2010PropOp50
 70
     1
102
RTVSPost2010Prop51ColorIndex
 90
      256
102
RTVSPost2010Prop51ColorRGB
 90
-16777216
102
RTVSPost2010PropOp51
 70
     0
102
RTVSPost2010Prop52
140
1.0
102
RTVSPost2010PropOp52
 70
     0
102
RTVSPost2010Prop53
 90
        2
102
RTVSPost2010PropOp53
 70
     1
102
RTVSPost2010Prop54
  1
strokes_ogs.tif
102
RTVSPost2010PropOp54
 70
     1
102
RTVSPost2010Prop55
280
     0
102
RTVSPost2010PropOp55
 70
     1
102
RTVSPost2010Prop56
140
1.0
102
RTVSPost2010PropOp56
 70
     1
102
RTVSPost2010Prop57
140
1.0
102
RTVSPost2010PropOp57
 70
     1
  0
XRECORD
  5
6A7
102
{ACAD_REACTORS
330
6A6
102
}
330
6A6
100
AcDbXrecord
280
     1
102
RTVSPropertyOp0
 70
     1
102
RTVSPropertyOp1
 70
     1
102
RTVSPropertyOp2
 70
     1
102
RTVSPropertyOp3
 70
     1
102
RTVSPropertyOp4
 70
     1
102
RTVSPropertyOp5
 70
     1
102
RTVSPropertyOp6
 70
     1
102
RTVSPropertyOp7
 70
     1
102
RTVSPropertyOp8
 70
     1
102
RTVSPropertyOp9
 70
     1
102
RTVSPropertyOp10
 70
     1
102
RTVSPropertyOp11
 70
     1
102
RTVSPropertyOp12
 70
     1
102
RTVSPropertyOp13
 70
     1
102
RTVSPropertyOp14
 70
     1
102
RTVSPropertyOp15
 70
     1
102
RTVSPropertyOp16
 70
     1
102
RTVSPropertyOp17
 70
     1
102
RTVSPropertyOp18
 70
     1
102
RTVSPropertyOp19
 70
     1
102
RTVSPropertyOp20
 70
     1
102
RTVSPropertyOp21
 70
     1
102
RTVSPropertyOp22
 70
     1
102
RTVSPropertyOp23
 70
     1
102
RTVSPropertyOp24
 70
     1
102
RTVSPropertyOp25
 70
     1
102
RTVSPropertyOp26
 70
     1
102
RTVSPropertyOp27
 70
     1
102
RTVSPropertyOp28
 70
     1
102
RTVSPropertyOp29
 70
     1
102
RTVSPropertyOp30
 70
     1
102
RTVSPropertyOp31
 70
     1
102
RTVSPropertyOp32
 70
     1
102
RTVSPropertyOp33
 70
     1
102
RTVSPropertyOp34
 70
     1
102
RTVSPropertyOp35
 70
     1
102
RTVSPropertyOp36
 70
     1
102
RTVSPropertyOp37
 70
     1
102
RTVSPropertyOp38
 70
     1
102
RTVSPropertyOp39
 70
     1
102
RTVSPropertyOp40
 70
     1
102
RTVSPropertyOp41
 70
     1
102
RTVSPropertyOp42
 70
     1
102
RTVSPropertyOp43
 70
     1
102
RTVSPropertyOp44
 70
     1
102
RTVSPropertyOp45
 70
     1
102
RTVSPropertyOp46
 70
     1
102
RTVSPropertyOp47
 70
     1
102
RTVSPropertyOp48
 70
     1
102
RTVSPropertyOp49
 70
     1
102
RTVSPropertyOp50
 70
     1
102
RTVSPropertyOp51
 70
     0
102
RTVSPropertyOp52
 70
     0
102
RTVSPropertyOp53
 70
     1
102
RTVSPropertyOp54
 70
     1
102
RTVSPropertyOp55
 70
     1
102
RTVSPropertyOp56
 70
     1
102
RTVSPropertyOp57
 70
     1
102
RTVSPost2010Prop28
280
     0
102
RTVSPost2010PropOp28
 70
     1
102
RTVSPost2010Prop29
280
     1
102
RTVSPost2010PropOp29
 70
     1
102
RTVSPost2010Prop30
280
     1
102
RTVSPost2010PropOp30
 70
     1
102
RTVSPost2010Prop31
280
     0
102
RTVSPost2010PropOp31
 70
     1
102
RTVSPost2010Prop32
280
     0
102
RTVSPost2010PropOp32
 70
     1
102
RTVSPost2010Prop33
280
     0
102
RTVSPost2010PropOp33
 70
     1
102
RTVSPost2010Prop34
280
     0
102
RTVSPost2010PropOp34
 70
     1
102
RTVSPost2010Prop35
280
     0
102
RTVSPost2010PropOp35
 70
     1
102
RTVSPost2010Prop36
280
     0
102
RTVSPost2010PropOp36
 70
     1
102
RTVSPost2010Prop37
 90
       50
102
RTVSPost2010PropOp37
 70
     1
102
RTVSPost2010Prop38
140
0.0
102
RTVSPost2010PropOp38
 70
     1
102
RTVSPost2010Prop39
140
1.0
102
RTVSPost2010PropOp39
 70
     1
102
RTVSPost2010Prop40
 90
        0
102
RTVSPost2010PropOp40
 70
     1
102
RTVSPost2010Prop41ColorIndex
 90
       18
102
RTVSPost2010Prop41ColorRGB
 90
        0
102
RTVSPost2010PropOp41
 70
     1
102
RTVSPost2010Prop42
 90
       50
102
RTVSPost2010PropOp42
 70
     1
102
RTVSPost2010Prop43
 90
        3
102
RTVSPost2010PropOp43
 70
     1
102
RTVSPost2010Prop44ColorIndex
 90
        5
102
RTVSPost2010Prop44ColorRGB
 90
      255
102
RTVSPost2010PropOp44
 70
     1
102
RTVSPost2010Prop45
280
     0
102
RTVSPost2010PropOp45
 70
     1
102
RTVSPost2010Prop46
 90
       50
102
RTVSPost2010PropOp46
 70
     1
102
RTVSPost2010Prop47
 90
       50
102
RTVSPost2010PropOp47
 70
     1
102
RTVSPost2010Prop48
 90
       50
102
RTVSPost2010PropOp48
 70
     1
102
RTVSPost2010Prop49
280
     0
102
RTVSPost2010PropOp49
 70
     1
102
RTVSPost2010Prop50
 90
       50
102
RTVSPost2010PropOp50
 70
     1
102
RTVSPost2010Prop51ColorIndex
 90
      256
102
RTVSPost2010Prop51ColorRGB
 90
-16777216
102
RTVSPost2010PropOp51
 70
     0
102
RTVSPost2010Prop52
140
1.0
102
RTVSPost2010PropOp52
 70
     0
102
RTVSPost2010Prop53
 90
        2
102
RTVSPost2010PropOp53
 70
     1
102
RTVSPost2010Prop54
  1
strokes_ogs.tif
102
RTVSPost2010PropOp54
 70
     1
102
RTVSPost2010Prop55
280
     0
102
RTVSPost2010PropOp55
 70
     1
102
RTVSPost2010Prop56
140
1.0
102
RTVSPost2010PropOp56
 70
     1
102
RTVSPost2010Prop57
140
1.0
102
RTVSPost2010PropOp57
 70
     1
  0
ENDSEC
  0
SECTION
  2
THUMBNAILIMAGE
 90
    16364
310
28000000B4000000550000000100080000000000C43B000000000000000000000001000000010000FFFFFF000000FF0000FFFF0000FF0000FFFF0000FF000000FF00FF000000000080808000C0C0C0000000FF007F7FFF000000A5005252A50000007F003F3F7F0000004C0026264C000000260013132600003FFF007F9FFF
310
000029A5005267A500001F7F003F4F7F0000134C00262F4C000009260013172600007FFF007FBFFF000052A500527CA500003F7F003F5F7F0000264C0026394C0000132600131C260000BFFF007FDFFF00007CA5005291A500005F7F003F6F7F0000394C0026424C00001C26001321260000FFFF007FFFFF0000A5A50052A5
310
A500007F7F003F7F7F00004C4C00264C4C00002626001326260000FFBF007FFFDF0000A57C0052A59100007F5F003F7F6F00004C3900264C420000261C001326210000FF7F007FFFBF0000A5520052A57C00007F3F003F7F5F00004C2600264C39000026130013261C0000FF3F007FFF9F0000A5290052A56700007F1F003F
310
7F4F00004C1300264C2F00002609001326170000FF00007FFF7F0000A5000052A55200007F00003F7F3F00004C0000264C260000260000132613003FFF00009FFF7F0029A5000067A552001F7F00004F7F3F00134C00002F4C260009260000172613007FFF0000BFFF7F0052A500007CA552003F7F00005F7F3F00264C0000
310
394C2600132600001C261300BFFF0000DFFF7F007CA5000091A552005F7F00006F7F3F00394C0000424C26001C26000021261300FFFF0000FFFF7F00A5A50000A5A552007F7F00007F7F3F004C4C00004C4C26002626000026261300FFBF0000FFDF7F00A57C0000A59152007F5F00007F6F3F004C3900004C422600261C00
310
0026211300FF7F0000FFBF7F00A5520000A57C52007F3F00007F5F3F004C2600004C39260026130000261C1300FF3F0000FF9F7F00A5290000A56752007F1F00007F4F3F004C1300004C2F26002609000026171300FF000000FF7F7F00A5000000A55252007F0000007F3F3F004C0000004C2626002600000026131300FF00
310
3F00FF7F9F00A5002900A55267007F001F007F3F4F004C0013004C262F002600090026131700FF007F00FF7FBF00A5005200A5527C007F003F007F3F5F004C0026004C2639002600130026131C00FF00BF00FF7FDF00A5007C00A55291007F005F007F3F6F004C0039004C26420026001C0026132100FF00FF00FF7FFF00A5
310
00A500A552A5007F007F007F3F7F004C004C004C264C002600260026132600BF00FF00DF7FFF007C00A5009152A5005F007F006F3F7F0039004C0042264C001C002600211326007F00FF00BF7FFF005200A5007C52A5003F007F005F3F7F0026004C0039264C00130026001C1326003F00FF009F7FFF002900A5006752A500
310
1F007F004F3F7F0013004C002F264C000900260017132600000000002D2D2D005B5B5B0089898900B7B7B700B3B3B30000000000000000000000000000000000000000000000000000000000000000000000000000000000000000000000000000000000000000000000000000000000000000000000000000000000000000
310
00000000000000000000000000000000000000000000000000000000000000000000000000000000000000000000000000000000000000000000000000000000000000000000000000000000000000000000000000000000000000000000000000000000000000000000000000000000000000000000000000000000000000
310
00000000000000000000000000000000000000000000000000000000000000000000000000000000000000000000000000000000000000000000000000000000000000000000000000000000000000000000000000000000000000000000000000000000000000000000000000000000000000000000000000000000000000
310
00000000000000000000000000000000000000000000000000000000000000000000000000000000000000000000000000000000000000000000000000000000000000000000000000000000000000000000000000000000000000000000000000000000000000000000000000000000000000000000000000000000000000
310
00000000000000000000000000000000000000000000000000000000000000000000000000000000000000000000000000000000000000000000000000000000000000000000000000000000000000000000000000000000000000000000000000000000000000000000000000000000000000000000000000000000000000
310
00000000000000000000000000000000000000000000000000000000000000000000000000000000000000000000000000000000000000000000000000000000000000000000000000000000000000000000000000000000000000000000000000000000000000000000000000000000000000000000000000000000000000
310
00000000000000000000000000000000000000000000000000000000000000000000000000000000000000000000000000000000000000000000000000000000000000000000000000000000000000000000000000000000000000000000000000000000000000000000000000000000000000000000000000000000000000
310
00000000000000000000000000000000000000000000000000000000000000000000000000000000000000000000000000000000000000000000000000000000000000000000000000000000000000000000000000000000000000000000000000000000000000000000000000000000000000000000000000000000000000
310
00000000000000000000000000000000000000000000000000000000000000000000000000000000000000000000000000000000000000000000000000000000000000000000000000000000000000000000000000000000000000000000000000000000000000000000000000000000000000000000000000000000000000
310
00000000000000000000000000000000000000000000000000000000000000000000000000000000000000000000000000000000000000000000000000000000000000000000000000000000000000000000000000000000000000000000000000000000000000000000000000000000000000000000000000000000000000
310
00000000000000000000000000000000000000000000000000000000000000000000000000000000000000000000000000000000000000000000000000000000000000000000000000000000000000000000000000000000000000000000000000000000000000000000000000000000000000000000000000000000000000
310
00000000000000000000000000000000000000000000000000000000000000000000000000000000000000000000000000000000000000000000000000000000000000000000000000000000000000000000000000000000000000000000000000000000000000000000000000000000000000000000000000000000000000
310
00000000000000000000000000000000000000000000000000000000000000000000000000000000000000000000000000000000000000000000000000000000000000000000000000000000000000000000000000000000000000000000000000000000000000000000000000000000000000000000000000000000000000
310
00000000000000000000000000000000000000000000000000000000000000000000000000000000000000000000000000000000000000000000000000000000000000000000000000000000000000000000000000000000000000000000000000000000000000000000000000000000000000000000000000000000000000
310
00000000000000000000000000000000000000000000000000000000000000000000000000000000000000000000000000000000000000000000000000000000000000000000000000000000000000000000000000000000000000000000000000000000000000000000000000000000000000000000000000000000000000
310
00000000000000000000000000000000000000000000000000000000000000000000000000000000000000000000000000000000000000000000000000000000000000000000000000000000000000000000000000000000000000000000000000000000000000000000000000000000000000000000000000000000000000
310
00000000000000000000000000000000000000000000000000000000000000000000000000000000000000000000000000000000000000000000000000000000000000000000000000000000000000000000000000000000000000000000000000000000000000000000000000000000000000000000000000000000000000
310
00000000000000000000000000000000000000000000000000000000000000000000000000000000000000000000000000000000000000000000000000000000000000000000000000000000000000000000000000000000000000000000000000000000000000000000000000000000000000000000000000000000000000
310
00000000000000000000000000000000000000000000000000000000000000000000000000000000000000000000000000000000000000000000000000000000000000000000000000000000000000000000000000000000000000000000000000000000000000000000000000000000000000000000000000000000000000
310
00000000000000000000000000000000000000000000000000000000000000000000000000000000000000000000000000000000000000000000000000000000000000000000000000000000000000000000000000000000000000000000000000000000000000000000000000000000000000000000000000000000000000
310
00000000000000000000000000000000000000000000000000000000000000000000000000000000000000000000000000000000000000000000000000000000000000000000000000000000000000000000000000000000000000000000000000000000000000000000000000000000000000000000000000000000000000
310
00000000000000000000000000000000000000000000000000000000000000000000000000000000000000000000000000000000000000000000000000000000000000000000000000000000000000000000000000000000000000000000000000000000000000000000000000000000000000000000000000000000000000
310
00000000000000000000000000000000000000000000000000000000000000000000000000000000000000000000000000000000000000000000000000000000000000000000000000000000000000000000000000000000000000000000000000000000000000000000000000000000000000000000000000000000000000
310
00000000000000000000000000000000000000000000000000000000000000000000000000000000000000000000000000000000000000000000000000000000000000000202020202000000000000000000000000000000000000000000000000000000000000000000000000000000000000000000000000000000000000
310
00000000000000000000000000000000000000000000000000000000000000000000000000000000000000000000000000000000000000000000000000000000000000000000000000000000000000000000000000000000000000000000000100000000000000000000000000000000000001000000000000000000000000
310
00000000000000000100000000000000000000000000000000000000000000000100000000000000000000000000000000000000000000000000000000000000000000000000000000000000000000000000000000000000000000000000000000000000000000000000000000000000000000000000000000000000000000
310
00000000000000000000000000000000000000030301030303030000000000000000000003030303010303000000000000000000000000000000000303010303030303000000000000000000000000000303030303030303000000000000000000000000000000000000000000000000000000000000000000000000000000
310
00000000000000000000000000000000000000000000000000000000000000000000000000000000000000000000000000000000000000000000000000000000000000000000000003030103030303000100010300000303010303030301030300000000000000000000000000000000030301030303030300000003030101
310
03030300000003030303030303030000000000000000000000000000000000000000000000000000000000000000000000000000000000000000000000000000000000000000000000000000000000000000000000000000000000000000000000000000000000000000000000000000000000000000000000000003030303
310
01000003030301030103030303030403030000010303030300000000000000000000000000000303010000000003030303030301030303030303030303030000010003000000000000000000000000000000000000000000000000000000000000000000000000000000000000000000000000000000000000000000000000
310
00000000000000000000000000000000000000000000000000000000000000000000000000000000000000000000000003030000000000000303000100010100000100010303000000000000030300000000000000000000000000000300000000000000000001000103010301030303030303030000030300000000000000
310
00000000000000000000000000000000000000000000000000000000000000000000000000000000000000000000000000000000000000000000000000000000000000000000000000000000000000000000000000000000000000000000000000000000000101010000000000030300010000010000000001030300000000
310
00010101000000000000000000000000000003000000000000000000000001010000000303030301030300000303000000000000000000000000000000000000000000000000000000000000000000000000000000000000000000000000000000000000000000000000000000000000000000000000000000000000000000
310
00000000000000000000000000000000000000000000000000000003040000000000000303000100000100000000010303000000000000030303030303000000000000000000000303000000000000000000000101000000030103030303030003030000000000000000000000000000000000000000000000000000000000
310
00000000000000000000000000000000000000000000000000000000000000000000000000000000000000000000000000000000000000000000000000000000000000000000000000000000000000000304010101010101030301010101010101010103030301010101010103030303030300000000000000000000030300
310
00000000000000000001010000000301030303030301030300000000000000000000000000000000000000000000000000000000000000000000000000000000000000000000000000000000000000000000000000000000000000000000000000000000000000000000000000000000000000000000000000000000000000
310
00000000000001010100000000000000000100000100000000010000000000000001010103030303000000000000000000000300000000000000000000000101000000030303030103030000030000000000000000000000000000000000000000000000000000000000000000000000000000000000000000000000000000
310
00000000000000000000000000000000000000000000000000000000000000000000000000000000000000000000000000000000000000000000000303000000000000000000010000010000000001000000000000000003030000000000000000000000000000030000000000000000000000010303030303030303030303
310
00000303000000000000000000000000000000000000000000000000000000000000000000000000000000000000000000000000000000000000000000000000000000000000000000000000000000000000000000000000000000000000000000000000000000000000000000000000000300000000000000000001000001
310
00000000010000000000000000030000000000000000000000000000000300000000000000000000000103000000000003030303000001030300000000000000000000000000000000000000000000000000000000000000000000000000000000000000000000000000000000000000000000000000000000000000000000
310
00000000000000000000000000000000000000000000000000000000000000000000000000000003000100000000010000010000010000000001010000000000010003000000000000000000000000000000030000010000000000000000010100000000000000000001000003030000000000000000000000000000000000
310
00000000000000000000000000000000000000000000000000000000000000000000000000000000000000000000000000000000000000000000000000000000000000000000000000000000000000000000000000000000000000000303010404040401040401040401040404040101040404040401030300000000000000
310
00000000000000000303030103030303030303030101030303030303030303010303030000000000000000000000000000000000000000000000000000000000000000000000000000000000000000000000000000000000000000000000000000000000000000000000000000000000000000000000000000000000000000
310
00000000000000000000000000000000000000030303030303030303010303030303010301010301030303010300000000000000000000000000000000030303030303030103030103030301030103030303030303030300000000000000000000000000000000000000000000000000000000000000000000000000000000
310
00000000000000000000000000000000000000000000000000000000000000000000000000000000000000000000000000000000000000000000000000000000000000000000000003030000030301030301030303030303030301030103000001030000000000000000000000000000000000000303030003030303010303
310
03010301030303030303010300000000000000000000000000000000000000000000000000000000000000000000000000000000000000000000000000000000000000000000000000000000000000000000000000000000000000000000000000000000000000000000000000000000000000000000000000000000000000
310
00000000030303030301030100030301000301000000000000000000000000000000000000000000000103030301000000000103030301030100000000010101010100000000000000000000000000000000000000000000000000000000000000000000000000000000000000000000000000000000000000000000000000
310
00000000000000000000000000000000000000000000000000000000000000000000000000000000000000000000000000000000000000000000030303030003030000000000000000000000000000000000000000000000000000000000000303030000000000000300010003000000000000030303000000000000000000
310
00000000000000000000000000000000000000000000000000000000000000000000000000000000000000000000000000000000000000000000000000000000000000000000000000000000000000000000000000000000000000000000000000000000000000000000000000000003030303000100000000000000000000
310
00000000000000000000000000000000000000000000010000000000000003000100030000000000000001000000000000000000000000000000000000000000000000000000000000000000000000000000000000000000000000000000000000000000000000000000000000000000000000000000000000000000000000
310
00000000000000000000000000000000000000000000000000000000000000000000000000030303030000000000000000000000000000000000000000000000000000000000000000000000000000000000000300010003000000000000000000000000000000000000000000000000000000000000000000000000000000
310
00000000000000000000000000000000000000000000000000000000000000000000000000000000000000000000000000000000000000000000000000000000000000000000000000000000000000000000000000000000000003030303000000000000000000000000000000000000000000000000000000000000000000
310
00000000000000000003000100030000000000000000000000000000000000000000000000000000000000000000000000000000000000000000000000000000000000000000000000000000000000000000000000000000000000000000000000000000000000000000000000000000000000000000000000000000000000
310
00000000000000000000000000000000030303030000000000000000000000000000000000000000000000000000000000000000000000000000000000000303030303000000000000000000000000000000000000000000000000000000000000000000000000000000000000000000000000000000000000000000000000
310
00000000000000000000000000000000000000000000000000000000000000000000000000000000000000000000000000000000000000000000000000000000000000000000000100000000000000000000000000000000000000000000000000000000000000000000000000000000000000000001000000000000000000
310
00000000000000000000000000000000000000000000000000000000000000000000000000000000000000000000000000000000000000000000000000000000000000000000000000000000000000000000000000000000000000000000000000000000000000000000000000000000000000000000000000000000000000
310
00000000000000000000000000000000000000000000000000000000000000000000000000000000000000000000000000000000000000000000000000000000000000000000000000000000000000000000000000000000000000000000000000000000000000000000000000000000000000000000000000000000000000
310
00000000000000000000000000000000000000000000000000000000000000000000000000000000000000000000000000000000000000000000000000000000000000000000000000000000000000000000000000000000000000000000000000000000000000000000000000000000000000000000000000000000000000
310
00000000000000000000000000000000000000000000000000000000000000000000000000000000000000000000000000000000000000000000000000000000000000000000000000000000000000000000000000000000000000000000000000000000000000000000000000000000000000000000000000000000000000
310
00000000000000000000000000000000000000000000000000000000000000000000000000000000000000000000000000000000000000000000000000000000000000000000000000000000000000000000000000000000000000000000000000000000000000000000000000000000000000000000000000000000000000
310
00000000000000000000000000000000000000000000000000000000000000000000000000000000000000000000000000000000000000000000000000000000000000000000000000000000000000000000000000000000000000000000000000000000000000000000000000000000000000000000000000000000000000
310
00000000000000000000000000000000000000000000000000000000000000000000000000000000000000000000000000000000000000000000000000000000000000000000000000000000000000000000000000000000000000000000000000000000000000000000000000000000000000000000000000000000000000
310
00000000000000000000000000000000000000000000000000000000000000000000000000000000000000000000000000000000000000000000000000000000000000000000000000000000000000000000000000000000000000000000000000000000000000000000000000000000000000000000000000000000000000
310
00000000000000000000000000000000000000000000000000000000000000000000000000000000000000000000000000000000000000000000000000000000000000000000000000000000000000000000000000000000000000000000000000000000000000000000000000000000000000000000000000000000000000
310
00000000000000000000000000000000000000000000000000000000000000000000000000000000000000000000000000000000000000000000000000000000000000000000000000000000000000000000000000000000000000000000000000000000000000000000000000000000000000000000000000000000000000
310
00000000000000000000000000000000000000000000000000000000000000000000000000000000000000000000000000000000000000000000000000000000000000000000000000000000000000000000000000000000000000000000000000000000000000000000000000000000000000000000000000000000000000
310
00000000000000000000000000000000000000000000000000000000000000000000000000000000000000000000000000000000000000000000000000000000000000000000000000000000000000000000000000000000000000000000000000000000000000000000000000000000000000000000000000000000000000
310
00000000000000000000000000000000000000000000000000000000000000000000000000000000000000000000000000000000000000000000000000000000000000000000000000000000000000000000000000000000000000000000000000000000000000000000000000000000000000000000000000000000000000
310
00000000000000000000000000000000000000000000000000000000000000000000000000000000000000000000000000000000000000000000000000000000000000000000000000000000000000000000000000000000000000000000000000000000000000000000000000000000000000000000000000000000000000
310
00000000000000000000000000000000000000000000000000000000000000000000000000000000000000000000000000000000000000000000000000000000000000000000000000000000000000000000000000000000000000000000000000000000000000000000000000000000000000000000000000000000000000
310
00000000000000000000000000000000000000000000000000000000000000000000000000000000000000000000000000000000000000000000000000000000000000000000000000000000000000000000000000000000000000000000000000000000000000000000000000000000000000000000000000000000000000
310
00000000000000000000000000000000000000000000000000000000000000000000000000000000000000000000000000000000000000000000000000000000000000000000000000000001000000000000000000000000000000000000000000000000000000000000000000000000000000000000000000000000000000
310
00000000000000000000000000000000000000000000000000000000000000000000000000000000000000000000000000000000000000000000000000000000000000000000000000000000000000000000000000000000000000000000000000000000000000000000000000000000000000000003030303030303000303
310
03030303030300030303030103030000000000000000000000000000000000000000000000000000000000000000000000000000000000000000000000000000000000000000000000000000000000000000000000000000000000000000000000000000000000000000000000000000000000000000000000000000000000
310
00000000000000000000000000000000000000000000000000000000000000000000000000000000000000030303010003030303030303030303030303030001010103000000000000000000000000000000000000000000000000000000000000000000000000000000000000000000000000000000000000000000000000
310
00000000000000000000000000000000000000000000000000000000000000000000000000000000000000000000000000000000000000000000000000000000000000000000000000000000000000000000000000000000000000000000000003030300030303010101030303030101010301030003000300000000000000
310
00000000000000000000000000000000000000000000000000000000000000000000000000000000000000000000000000000000000000000000000000000000000000000000000000000000000000000000000000000000000000000000000000000000000000000000000000000000000000000000000000000000000000
310
00000000000000000000000000000000000000000000030001030303030303000103030300030303030303010003000000000000000000000000000000000000000000000000000000000000000000000000000000000000000000000000000000000000000000000000000000000000000000000000000000000000000000
310
00000000000000000000000000000000000000000000000000000000000000000000000000000000000000000000000000000000000000000000000000000000000000000000000000000003000303010301000000030303000000000101010303000300000000000000000000000000000000000000000000000000000000
310
00000000000000000000000000000000000000000000000000000000000000000000000000000000000000000000000000000000000000000000000000000000000000000000000000000000000000000000000000000000000000000000000000000000000000000000000000000000000000000000000000000000000000
310
00030303010300000000000003030000000000000301030303000000000000000000000000000000000000000000000000000000000000000000000000000000000000000000000000000000000000000000000000000000000000000000000000000000000000000000000000000000000000000000000000000000000000
310
00000000000000000000000000000000000000000000000000000000000000000000000000000000000000000000000000000000000003030103000000000000000303000000000000000301030300000000000000000000000000000000000000000000000000000000000000000000000000000000000000000000000000
310
00000000000000000000000000000000000000000000000000000000000000000000000000000000000000000000000000000000000000000000000000000000000000000000000000000000000000000000000000000000000000000000000000000000000000000000000303030000000003030303030303030303000000
310
00010303000000000000000000000000000000000000000000000000000000000000000000000000000000000000000000000000000000000000000000000000000000000000000000000000000000000000000000000000000000000000000000000000000000000000000000000000000000000000000000000000000000
310
00000000000000000000000000000000000000000000000000000000000000000303010003030303000100000303000000010303030300010303000000000000000000000000000000000000000000000000000000000000000000000000000000000000000000000000000000000000000000000000000000000000000000
310
00000000000000000000000000000000000000000000000000000000000000000000000000000000000000000000000000000000000000000000000000000000000000000000000000000000000000000000000000030303030000000301010303010000030303030303000301030300000000000000000000000000000000
310
00000000000000000000000000000000000000000000000000000000000000000000000000000000000000000000000000000000000000000000000000000000000000000000000000000000000000000000000000000000000000000000000000000000000000000000000000000000000000000000000000000000000000
310
00000000000000000000030301030000010301010101030300030303010103030300030103000000000000000000000000000000000000000000000000000000000000000000000000000000000000000000000000000000000000000000000000000000000000000000000000000000000000000000000000000000000000
310
00000000000000000000000000000000000000000000000000000000000000000000000000000000000000000000000000000000000000000000000000000003030103000001030103030303030003030303030303030003010300000000000000000000000000000000000000000000000000000000000000000000000000
310
00000000000000000000000000000000000000000000000000000000000000000000000000000000000000000000000000000000000000000000000000000000000000000000000000000000000000000000000000000000000000000000000000000000000000000000000000000000000000000303010000030100030303
310
03030103030100010003010300000103030000000000000000000000000000000000000000000000000000000000000000000000000000000000000000000000000000000000000000000000000000000000000000000000000000000000000000000000000000000000000000000000000000000000000000000000000000
310
00000000000000000000000000000000000000000000000000000000000000000000000000000000000003030301010301030301010303010303010101010301030101030303000000000000000000000000000000000000000000000000000000000000000000000000000000000000000000000000000000000000000000
310
00000000000000000000000000000000000000000000000000000000000000000000000000000000000000000000000000000000000000000000000000000000000000000000000000000000000000000000000000000000000000000000000303030000030100030001030301030303010100030303000003030300000000
310
00000000000000000000000000000000000000000000000000000000000000000000000000000000000000000000000000000000000000000000000000000000000000000000000000000000000000000000000000000000000000000000000000000000000000000000000000000000000000000000000000000000000000
310
00000000000000000000000000000000000000000003030100000001030103030303010303030301010303030000010303000000000000000000000000000000000000000000000000000000000000000000000000000000000000000000000000000000000000000000000000000000000000000000000000000000000000
310
00000000000000000000000000000000000000000000000000000000000000000000000000000000000000000000000000000000000000000000000000000000000000000000000000000303010300000103010003000303000003030103030300000301030300000000000000000000000000000000000000000000000000
310
00000000000000000000000000000000000000000000000000000000000000000000000000000000000000000000000000000000000000000000000000000000000000000000000000000000000000000000000000000000000000000000000000000000000000000000000000000000000000000000000000000000000000
310
03030303000000030101010101030000000001000000000003030303000000000000000000000000000000000000000000000000000000000000000000000000000000000000000000000000000000000000000000000000000000000000000000000000000000000000000000000000000000000000000000000000000000
310
00000000000000000000000000000000000000000000000000000000000000000000000000000000000000000000000000000000030403030103030303000003000003030000000000030303030103030303000000000000000000000000000000000000000000000000000000000000000000000000000000000000000000
310
00000000000000000000000000000000000000000000000000000000000000000000000000000000000000000000000000000000000000000000000000000000000000000000000000000000000000000000000000000000000000000000000000000000000000000001010103010300000003030303030303030303030300
310
00000301030101010000000000000000000000000000000000000000000000000000000000000000000000000000000000000000000000000000000000000000000000000000000000000000000000000000000000000000000000000000000000000000000000000000000000000000000000000000000000000000000000
310
00000000000000000000000000000000000000000000000000000000000000030400030301030000000000000303030300000000000003010303000303030303030000000000000000000000000000000000000000000000000000000000000000000000000000000000000000000000000000000000000000000000000000
310
00000000000000000000000000000000000000000000000000000000000000000000000000000000000000000000000000000000000000000000000000000000000000000000000000000000000000000000000003040101010301030101010101010301010101010101030103010101030303030303000000000000000000
310
00000000000000000000000000000000000000000000000000000000000000000000000000000000000000000000000000000000000000000000000000000000000000000000000000000000000000000000000000000000000000000000000000000000000000000000000000000000000000000000000000000000000000
310
00000000000000000000010101000003030100000000000003030000000000030103030000010101000000000000000000000000000000000000000000000000000000000000000000000000000000000000000000000000000000000000000000000000000000000000000000000000000000000000000000000000000000
310
00000000000000000000000000000000000000000000000000000000000000000000000000000000000000000000000000000000000000000000000000000003040000000003030303030000030303010000030303030300000000030300000000000000000000000000000000000000000000000000000000000000000000
310
00000000000000000000000000000000000000000000000000000000000000000000000000000000000000000000000000000000000000000000000000000000000000000000000000000000000000000000000000000000000000000000000000000000000000000000000000000000000000000003030303030003030301
310
03030303030303010103030300030303030300000000000000000000000000000000000000000000000000000000000000000000000000000000000000000000000000000000000000000000000000000000000000000000000000000000000000000000000000000000000000000000000000000000000000000000000000
310
00000000000000000000000000000000000000000000000000000000000000000000000000000000000000000003000303030303030303010101010303030303030303000300000000000000000000000000000000000000000000000000000000000000000000000000000000000000000000000000000000000000000000
310
00000000000000000000000000000000000000000000000000000000000000000000000000000000000000000000000000000000000000000000000000000000000000000000000000000000000000000000000000000000000000000000000000000303030100030303030303030303030303030300010303030000000000
310
00000000000000000000000000000000000000000000000000000000000000000000000000000000000000000000000000000000000000000000000000000000000000000000000000000000000000000000000000000000000000000000000000000000000000000000000000000000000000000000000000000000000000
310
00000000000000000000000000000000000000000000000003030303030303000000000303000000000303030303030300000000000000000000000000000000000000000000000000000000000000000000000000000000000000000000000000000000000000000000000000000000000000000000000000000000000000
310
00000000000000000000000000000000000000000000000000000000000000000000000000000000000000000000000000000000000000000000000000000000000000000000000000000000000000000000000000000000000000000000000000000000000000000000000000000000000000000000000000000000000000
310
00000000000000000000000000000000000000000000000000000000000000000000000000000000000000000000000000000000000000000000000000000000000000000000000000000000000000000000000000000000000000000000000000000000000000000000000000000000000000000000000000000000000000
310
00000000000000000000000000000000000000000000000000000000000000000000000000000000000000000000000000000000000000000000000000000000000000000000000000000000000000000000000000000000000000000000000000000000000000000000000000000000000000000000000000000000000000
310
00000000000000000000000000000000000000000000000000000000000000000000000000000000000000000000000000000000000000000000000000000000000000000000000000000000000000000000000000000000000000000000000000000000000000000000000000000000000000000000000000000000000000
310
00000000000000000000000000000000000000000000000000000000000000000000000000000000000000000000000000000000000000000000000000000000000000000000000000000000000000000000000000000000000000000000000000000000000000000000000000000000000000000000000000000000000000
310
00000000000000000000000000000000000000000000000000000000000000000000000000000000000000000000000000000000000000000000000000000000000000000000000000000000000000000000000000000000000000000000000000000000000000000000000000000000000000000000000000000000000000
310
00000000000000000000000000000000000000000000000000000000000000000000000000000000000000000000000000000000000000000000000000000000000000000000000000000000000000000000000000000000000000000000000000000000000000000000000000000000000000000000000000000000000000
310
00000000000000000000000000000000000000000000000000000000000000000000000000000000000000000000000000000000000000000000000000000000000000000000000000000000000000000000000000000000000000000000000000000000000000000000000000000000000000000000000000000000000000
310
000000000000000000000000000000000000000000000000000000000000000000000000000000000000000000000000000000000000000000000000000000000000000000000000000000000000000000000000000000000000000000000000000000000000000000000000
  0
ENDSEC
  0
EOF
