  0
SECTION
  2
HEADER
  9
$ACADVER
  1
AC1015
  9
$ACADMAINTVER
 70
     6
  9
$DWGCODEPAGE
  3
ANSI_932
  9
$INSBASE
 10
2009.999995391667
 20
1362.499996820833
 30
0.0
  9
$EXTMIN
 10
168.3047417163621
 20
30.36657324659564
 30
0.0
  9
$EXTMAX
 10
1716.577064743997
 20
1323.573346143332
 30
0.0
  9
$LIMMIN
 10
0.0
 20
0.0
  9
$LIMMAX
 10
816.5000000000001
 20
565.0
  9
$ORTHOMODE
 70
     1
  9
$REGENMODE
 70
     1
  9
$FILLMODE
 70
     1
  9
$QTEXTMODE
 70
     0
  9
$MIRRTEXT
 70
     1
  9
$LTSCALE
 40
8.0
  9
$ATTMODE
 70
     1
  9
$TEXTSIZE
 40
15.0
  9
$TRACEWID
 40
0.05
  9
$TEXTSTYLE
  7
KANJI
  9
$CLAYER
  8
2
  9
$CELTYPE
  6
BYLAYER
  9
$CECOLOR
 62
   256
  9
$CELTSCALE
 40
1.0
  9
$DISPSILH
 70
     0
  9
$DIMSCALE
 40
5.0
  9
$DIMASZ
 40
2.0
  9
$DIMEXO
 40
0.5
  9
$DIMDLI
 40
0.0
  9
$DIMRND
 40
0.0
  9
$DIMDLE
 40
0.0
  9
$DIMEXE
 40
1.0
  9
$DIMTP
 40
0.0
  9
$DIMTM
 40
0.0
  9
$DIMTXT
 40
3.0
  9
$DIMCEN
 40
0.09
  9
$DIMTSZ
 40
0.0
  9
$DIMTOL
 70
     0
  9
$DIMLIM
 70
     0
  9
$DIMTIH
 70
     0
  9
$DIMTOH
 70
     0
  9
$DIMSE1
 70
     0
  9
$DIMSE2
 70
     0
  9
$DIMTAD
 70
     0
  9
$DIMZIN
 70
     8
  9
$DIMBLK
  1

  9
$DIMASO
 70
     0
  9
$DIMSHO
 70
     0
  9
$DIMPOST
  1

  9
$DIMAPOST
  1

  9
$DIMALT
 70
     0
  9
$DIMALTD
 70
     2
  9
$DIMALTF
 40
25.4
  9
$DIMLFAC
 40
1.0
  9
$DIMTOFL
 70
     1
  9
$DIMTVP
 40
1.0
  9
$DIMTIX
 70
     1
  9
$DIMSOXD
 70
     1
  9
$DIMSAH
 70
     0
  9
$DIMBLK1
  1

  9
$DIMBLK2
  1

  9
$DIMSTYLE
  2
STANDARD
  9
$DIMCLRD
 70
   256
  9
$DIMCLRE
 70
   256
  9
$DIMCLRT
 70
   256
  9
$DIMTFAC
 40
1.0
  9
$DIMGAP
 40
0.09
  9
$DIMJUST
 70
     0
  9
$DIMSD1
 70
     0
  9
$DIMSD2
 70
     0
  9
$DIMTOLJ
 70
     1
  9
$DIMTZIN
 70
     0
  9
$DIMALTZ
 70
     0
  9
$DIMALTTZ
 70
     0
  9
$DIMUPT
 70
     0
  9
$DIMDEC
 70
     1
  9
$DIMTDEC
 70
     4
  9
$DIMALTU
 70
     2
  9
$DIMALTTD
 70
     2
  9
$DIMTXSTY
  7
STANDARD
  9
$DIMAUNIT
 70
     0
  9
$DIMADEC
 70
     0
  9
$DIMALTRND
 40
0.0
  9
$DIMAZIN
 70
     0
  9
$DIMDSEP
 70
    46
  9
$DIMATFIT
 70
     3
  9
$DIMFRAC
 70
     0
  9
$DIMLDRBLK
  1

  9
$DIMLUNIT
 70
     2
  9
$DIMLWD
 70
    -2
  9
$DIMLWE
 70
    -2
  9
$DIMTMOVE
 70
     0
  9
$LUNITS
 70
     2
  9
$LUPREC
 70
     3
  9
$SKETCHINC
 40
0.1
  9
$FILLETRAD
 40
3.0
  9
$AUNITS
 70
     0
  9
$AUPREC
 70
     3
  9
$MENU
  1
C:\R13\WIN\SUPPORT\ACADFULL
  9
$ELEVATION
 40
0.0
  9
$PELEVATION
 40
0.0
  9
$THICKNESS
 40
0.0
  9
$LIMCHECK
 70
     0
  9
$CHAMFERA
 40
0.0
  9
$CHAMFERB
 40
0.0
  9
$CHAMFERC
 40
0.0
  9
$CHAMFERD
 40
0.0
  9
$SKPOLY
 70
     0
  9
$TDCREATE
 40
2449812.756805555
  9
$TDUCREATE
 40
2449812.381805555
  9
$TDUPDATE
 40
2458115.638578426
  9
$TDUUPDATE
 40
2458115.263578426
  9
$TDINDWG
 40
1.3506688426
  9
$TDUSRTIMER
 40
1.3506685185
  9
$USRTIMER
 70
     1
  9
$ANGBASE
 50
0.0
  9
$ANGDIR
 70
     0
  9
$PDMODE
 70
     0
  9
$PDSIZE
 40
0.0
  9
$PLINEWID
 40
0.0
  9
$SPLFRAME
 70
     0
  9
$SPLINETYPE
 70
     6
  9
$SPLINESEGS
 70
     8
  9
$HANDSEED
  5
665
  9
$SURFTAB1
 70
     6
  9
$SURFTAB2
 70
     6
  9
$SURFTYPE
 70
     6
  9
$SURFU
 70
     6
  9
$SURFV
 70
     6
  9
$UCSBASE
  2

  9
$UCSNAME
  2

  9
$UCSORG
 10
0.0
 20
0.0
 30
0.0
  9
$UCSXDIR
 10
1.0
 20
0.0
 30
0.0
  9
$UCSYDIR
 10
0.0
 20
1.0
 30
0.0
  9
$UCSORTHOREF
  2

  9
$UCSORTHOVIEW
 70
     0
  9
$UCSORGTOP
 10
0.0
 20
0.0
 30
0.0
  9
$UCSORGBOTTOM
 10
0.0
 20
0.0
 30
0.0
  9
$UCSORGLEFT
 10
0.0
 20
0.0
 30
0.0
  9
$UCSORGRIGHT
 10
0.0
 20
0.0
 30
0.0
  9
$UCSORGFRONT
 10
0.0
 20
0.0
 30
0.0
  9
$UCSORGBACK
 10
0.0
 20
0.0
 30
0.0
  9
$PUCSBASE
  2

  9
$PUCSNAME
  2

  9
$PUCSORG
 10
0.0
 20
0.0
 30
0.0
  9
$PUCSXDIR
 10
1.0
 20
0.0
 30
0.0
  9
$PUCSYDIR
 10
0.0
 20
1.0
 30
0.0
  9
$PUCSORTHOREF
  2

  9
$PUCSORTHOVIEW
 70
     0
  9
$PUCSORGTOP
 10
0.0
 20
0.0
 30
0.0
  9
$PUCSORGBOTTOM
 10
0.0
 20
0.0
 30
0.0
  9
$PUCSORGLEFT
 10
0.0
 20
0.0
 30
0.0
  9
$PUCSORGRIGHT
 10
0.0
 20
0.0
 30
0.0
  9
$PUCSORGFRONT
 10
0.0
 20
0.0
 30
0.0
  9
$PUCSORGBACK
 10
0.0
 20
0.0
 30
0.0
  9
$USERI1
 70
     0
  9
$USERI2
 70
     0
  9
$USERI3
 70
     0
  9
$USERI4
 70
     0
  9
$USERI5
 70
     0
  9
$USERR1
 40
0.0
  9
$USERR2
 40
0.0
  9
$USERR3
 40
0.0
  9
$USERR4
 40
2448925.372986111
  9
$USERR5
 40
0.04166667
  9
$WORLDVIEW
 70
     1
  9
$SHADEDGE
 70
     3
  9
$SHADEDIF
 70
    70
  9
$TILEMODE
 70
     1
  9
$MAXACTVP
 70
    16
  9
$PINSBASE
 10
0.0
 20
0.0
 30
0.0
  9
$PLIMCHECK
 70
     0
  9
$PEXTMIN
 10
1000000000000000E+20
 20
1000000000000000E+20
 30
1000000000000000E+20
  9
$PEXTMAX
 10
-1000000000000000E+20
 20
-1000000000000000E+20
 30
-1000000000000000E+20
  9
$PLIMMIN
 10
0.0
 20
0.0
  9
$PLIMMAX
 10
12.0
 20
9.0
  9
$UNITMODE
 70
     0
  9
$VISRETAIN
 70
     0
  9
$PLINEGEN
 70
     0
  9
$PSLTSCALE
 70
     0
  9
$TREEDEPTH
 70
  3020
  9
$CMLSTYLE
  2
STANDARD
  9
$CMLJUST
 70
     0
  9
$CMLSCALE
 40
1.0
  9
$PROXYGRAPHICS
 70
     1
  9
$MEASUREMENT
 70
     0
  9
$CELWEIGHT
370
    -1
  9
$ENDCAPS
280
     0
  9
$JOINSTYLE
280
     0
  9
$LWDISPLAY
290
     0
  9
$INSUNITS
 70
     0
  9
$HYPERLINKBASE
  1

  9
$STYLESHEET
  1
monochrome.ctb
  9
$XEDIT
290
     1
  9
$CEPSNTYPE
380
     0
  9
$PSTYLEMODE
290
     1
  9
$FINGERPRINTGUID
  2
{E450C090-53B1-4595-A258-441EF603B90A}
  9
$VERSIONGUID
  2
{2F574718-BD4A-4461-8DDA-5718352B0E49}
  9
$EXTNAMES
290
     1
  9
$PSVPSCALE
 40
0.0
  9
$OLESTARTUP
290
     0
  0
ENDSEC
  0
SECTION
  2
CLASSES
  0
CLASS
  1
ACDBDICTIONARYWDFLT
  2
AcDbDictionaryWithDefault
  3
ObjectDBX Classes
 90
        0
280
     0
281
     0
  0
CLASS
  1
MATERIAL
  2
AcDbMaterial
  3
ObjectDBX Classes
 90
     1153
280
     0
281
     0
  0
CLASS
  1
SORTENTSTABLE
  2
AcDbSortentsTable
  3
ObjectDBX Classes
 90
        0
280
     0
281
     0
  0
CLASS
  1
VISUALSTYLE
  2
AcDbVisualStyle
  3
ObjectDBX Classes
 90
     4095
280
     0
281
     0
  0
CLASS
  1
SCALE
  2
AcDbScale
  3
ObjectDBX Classes
 90
     1153
280
     0
281
     0
  0
CLASS
  1
DICTIONARYVAR
  2
AcDbDictionaryVar
  3
ObjectDBX Classes
 90
        0
280
     0
281
     0
  0
CLASS
  1
MLEADERSTYLE
  2
AcDbMLeaderStyle
  3
ACDB_MLEADERSTYLE_CLASS
 90
     4095
280
     0
281
     0
  0
CLASS
  1
TABLESTYLE
  2
AcDbTableStyle
  3
ObjectDBX Classes
 90
     4095
280
     0
281
     0
  0
CLASS
  1
ACDBPLACEHOLDER
  2
AcDbPlaceHolder
  3
ObjectDBX Classes
 90
        0
280
     0
281
     0
  0
CLASS
  1
LAYOUT
  2
AcDbLayout
  3
ObjectDBX Classes
 90
        0
280
     0
281
     0
  0
ENDSEC
  0
SECTION
  2
TABLES
  0
TABLE
  2
VPORT
  5
2C
102
{ACAD_XDICTIONARY
360
62A
102
}
330
0
100
AcDbSymbolTable
 70
     1
  0
VPORT
  5
32
330
2C
100
AcDbSymbolTableRecord
100
AcDbViewportTableRecord
  2
*ACTIVE
 70
     0
 10
0.0
 20
0.0
 11
1.0
 21
1.0
 12
1503.194850467577
 22
550.0444825734726
 13
0.0
 23
0.0
 14
1.0
 24
1.0
 15
50.0
 25
50.0
 16
0.0
 26
0.0
 36
1.0
 17
0.0
 27
0.0
 37
0.0
 40
1878.495112370966
 41
1.82716049382716
 42
50.0
 43
0.0
 44
0.0
 50
0.0
 51
0.0
 71
     0
 72
  5000
 73
     1
 74
     0
 75
     0
 76
     0
 77
     0
 78
     0
281
     0
 65
     1
110
0.0
120
0.0
130
0.0
111
1.0
121
0.0
131
0.0
112
0.0
122
1.0
132
0.0
 79
     0
146
0.0
1001
ACAD_NAV_VCDISPLAY
1070
     3
  0
ENDTAB
  0
TABLE
  2
LTYPE
  5
D
330
0
100
AcDbSymbolTable
 70
     2
  0
LTYPE
  5
E
330
D
100
AcDbSymbolTableRecord
100
AcDbLinetypeTableRecord
  2
BYBLOCK
 70
     0
  3

 72
    65
 73
     0
 40
0.0
  0
LTYPE
  5
F
330
D
100
AcDbSymbolTableRecord
100
AcDbLinetypeTableRecord
  2
BYLAYER
 70
     0
  3

 72
    65
 73
     0
 40
0.0
  0
LTYPE
  5
C
330
D
100
AcDbSymbolTableRecord
100
AcDbLinetypeTableRecord
  2
CONTINUOUS
 70
     0
  3
Solid line
 72
    65
 73
     0
 40
0.0
  0
LTYPE
  5
147
330
D
100
AcDbSymbolTableRecord
100
AcDbLinetypeTableRecord
  2
CENTER
 70
     0
  3
____ _ ____ _ ____ _ ____ _ ____ _ ____ _ ____
 72
    65
 73
     4
 40
2.0
 49
1.25
 74
     0
 49
-0.25
 74
     0
 49
0.25
 74
     0
 49
-0.25
 74
     0
  0
ENDTAB
  0
TABLE
  2
LAYER
  5
2
102
{ACAD_XDICTIONARY
360
3
102
}
330
0
100
AcDbSymbolTable
 70
     9
  0
LAYER
  5
1D
102
{ACAD_XDICTIONARY
360
1E
102
}
330
2
100
AcDbSymbolTableRecord
100
AcDbLayerTableRecord
  2
0
 70
     0
 62
     7
  6
CONTINUOUS
370
    -3
390
7
  0
LAYER
  5
458
102
{ACAD_XDICTIONARY
360
459
102
}
330
2
100
AcDbSymbolTableRecord
100
AcDbLayerTableRecord
  2
1
 70
     0
 62
     9
  6
CONTINUOUS
370
    -3
390
7
  0
LAYER
  5
1
102
{ACAD_XDICTIONARY
360
5
102
}
330
2
100
AcDbSymbolTableRecord
100
AcDbLayerTableRecord
  2
2
 70
     0
 62
     4
  6
CONTINUOUS
370
    -3
390
7
  0
LAYER
  5
6B
102
{ACAD_XDICTIONARY
360
6C
102
}
330
2
100
AcDbSymbolTableRecord
100
AcDbLayerTableRecord
  2
4
 70
     0
 62
     3
  6
CONTINUOUS
370
    -3
390
7
  0
LAYER
  5
144
102
{ACAD_XDICTIONARY
360
145
102
}
330
2
100
AcDbSymbolTableRecord
100
AcDbLayerTableRecord
  2
L-CENTER
 70
     0
 62
     1
  6
CENTER
370
    -3
390
7
  0
LAYER
  5
1A0
102
{ACAD_XDICTIONARY
360
1A1
102
}
330
2
100
AcDbSymbolTableRecord
100
AcDbLayerTableRecord
  2
3
 70
     0
 62
     2
  6
CONTINUOUS
370
    -3
390
7
  0
LAYER
  5
452
330
2
100
AcDbSymbolTableRecord
100
AcDbLayerTableRecord
  2
5
 70
     0
 62
     6
  6
CONTINUOUS
370
    -3
390
7
  0
LAYER
  5
5B6
330
2
100
AcDbSymbolTableRecord
100
AcDbLayerTableRecord
  2
Defpoints
 70
     0
 62
     7
  6
CONTINUOUS
290
     0
370
    -3
390
7
  0
ENDTAB
  0
TABLE
  2
STYLE
  5
11
330
0
100
AcDbSymbolTable
 70
     2
  0
STYLE
  5
15
330
11
100
AcDbSymbolTableRecord
100
AcDbTextStyleTableRecord
  2
STANDARD
 70
     0
 40
0.0
 41
1.0
 50
0.0
 71
     0
 42
9.0
  3
TXT
  4

  0
STYLE
  5
10
330
11
100
AcDbSymbolTableRecord
100
AcDbTextStyleTableRecord
  2
KANJI
 70
     0
 40
0.0
 41
1.0
 50
0.0
 71
     0
 42
15.0
  3
TXT
  4
BIGFONT
  0
ENDTAB
  0
TABLE
  2
VIEW
  5
2A
330
0
100
AcDbSymbolTable
 70
     0
  0
ENDTAB
  0
TABLE
  2
UCS
  5
2B
330
0
100
AcDbSymbolTable
 70
     0
  0
ENDTAB
  0
TABLE
  2
APPID
  5
25
330
0
100
AcDbSymbolTable
 70
     4
  0
APPID
  5
31
330
25
100
AcDbSymbolTableRecord
100
AcDbRegAppTableRecord
  2
ACAD
 70
     0
  0
APPID
  5
24
330
25
100
AcDbSymbolTableRecord
100
AcDbRegAppTableRecord
  2
ACAD_PSEXT
 70
     0
  0
APPID
  5
34
330
25
100
AcDbSymbolTableRecord
100
AcDbRegAppTableRecord
  2
ACAD_NAV_VCDISPLAY
 70
     0
  0
APPID
  5
58B
330
25
100
AcDbSymbolTableRecord
100
AcDbRegAppTableRecord
  2
ACAD_MLEADERVER
 70
     0
  0
ENDTAB
  0
TABLE
  2
DIMSTYLE
  5
14
330
0
100
AcDbSymbolTable
 70
     1
100
AcDbDimStyleTable
  0
DIMSTYLE
105
13
330
14
100
AcDbSymbolTableRecord
100
AcDbDimStyleTableRecord
  2
STANDARD
 70
     0
178
     0
340
15
  0
ENDTAB
  0
TABLE
  2
BLOCK_RECORD
  5
18
330
0
100
AcDbSymbolTable
 70
     0
  0
BLOCK_RECORD
  5
19
102
{ACAD_XDICTIONARY
360
1A
102
}
330
18
100
AcDbSymbolTableRecord
100
AcDbBlockTableRecord
  2
*MODEL_SPACE
340
21
  0
BLOCK_RECORD
  5
26
330
18
100
AcDbSymbolTableRecord
100
AcDbBlockTableRecord
  2
*PAPER_SPACE
340
29
  0
ENDTAB
  0
ENDSEC
  0
SECTION
  2
BLOCKS
  0
BLOCK
  5
1C
330
19
100
AcDbEntity
  8
0
100
AcDbBlockBegin
  2
*MODEL_SPACE
 70
     0
 10
0.0
 20
0.0
 30
0.0
  3
*MODEL_SPACE
  1

  0
ENDBLK
  5
20
330
19
100
AcDbEntity
  8
0
100
AcDbBlockEnd
  0
BLOCK
  5
27
330
26
100
AcDbEntity
 67
     1
  8
0
100
AcDbBlockBegin
  2
*PAPER_SPACE
 70
     0
 10
0.0
 20
0.0
 30
0.0
  3
*PAPER_SPACE
  1

  0
ENDBLK
  5
28
330
26
100
AcDbEntity
 67
     1
  8
0
100
AcDbBlockEnd
  0
ENDSEC
  0
SECTION
  2
ENTITIES
  0
LINE
  5
6A
330
19
100
AcDbEntity
  8
4
100
AcDbLine
 10
369.3673797439974
 20
304.366573246596
 30
0.0
 11
369.3673797439974
 21
200.3665732465951
 31
0.0
  0
LINE
  5
6E
330
19
100
AcDbEntity
  8
4
100
AcDbLine
 10
903.3673797439974
 20
304.366573246596
 30
0.0
 11
903.3673797439974
 21
200.3665732465951
 31
0.0
  0
LINE
  5
6F
330
19
100
AcDbEntity
  8
4
100
AcDbLine
 10
745.7835797439975
 20
182.3665732465955
 30
0.0
 11
673.3673797439978
 21
182.3665732465955
 31
0.0
  0
LINE
  5
70
330
19
100
AcDbEntity
  8
4
100
AcDbLine
 10
673.3673797439978
 20
182.3665732465955
 30
0.0
 11
673.3673797439978
 21
187.3665732465955
 31
0.0
  0
LINE
  5
71
330
19
100
AcDbEntity
  8
4
100
AcDbLine
 10
526.3673797439974
 20
172.966573246595
 30
0.0
 11
646.8624997439974
 21
172.966573246595
 31
0.0
  0
LINE
  5
72
330
19
100
AcDbEntity
  8
4
100
AcDbLine
 10
647.8624997439974
 20
173.966573246595
 30
0.0
 11
647.8624997439974
 21
187.3665732465955
 31
0.0
  0
LINE
  5
73
330
19
100
AcDbEntity
  8
4
100
AcDbLine
 10
606.8777447439975
 20
400.3665732465952
 30
0.0
 11
518.8472547439974
 21
400.3665732465947
 31
0.0
  0
LINE
  5
74
330
19
100
AcDbEntity
  8
4
100
AcDbLine
 10
619.3673797439975
 20
388.3665732465956
 30
0.0
 11
529.8370348586004
 21
388.3665732465956
 31
0.0
  0
LINE
  5
75
330
19
100
AcDbEntity
  8
4
100
AcDbLine
 10
647.8624997439974
 20
393.3565632465961
 30
0.0
 11
647.8624997439974
 21
399.3665732465961
 31
0.0
  0
LINE
  5
76
330
19
100
AcDbEntity
  8
4
100
AcDbLine
 10
641.3673797439974
 20
399.3665732465961
 30
0.0
 11
647.8624997439974
 21
399.3665732465961
 31
0.0
  0
LINE
  5
77
330
19
100
AcDbEntity
  8
4
100
AcDbLine
 10
477.8624997439974
 20
399.3665732465961
 30
0.0
 11
631.3673797439974
 21
399.3665732465961
 31
0.0
  0
LINE
  5
78
330
19
100
AcDbEntity
  8
4
100
AcDbLine
 10
477.8624997439974
 20
399.3665732465961
 30
0.0
 11
477.8624997439974
 21
383.3665732465956
 31
0.0
  0
LINE
  5
79
330
19
100
AcDbEntity
  8
4
100
AcDbLine
 10
673.3673797439978
 20
390.3665732465952
 30
0.0
 11
742.8977246293944
 21
390.3665732465952
 31
0.0
  0
LINE
  5
7A
330
19
100
AcDbEntity
  8
4
100
AcDbLine
 10
386.3673797439974
 20
363.3665732465955
 30
0.0
 11
386.3673797439974
 21
381.3665732465956
 31
0.0
  0
LINE
  5
7B
330
19
100
AcDbEntity
  8
4
100
AcDbLine
 10
884.3673797439974
 20
383.3665732465956
 30
0.0
 11
388.3673797439978
 21
383.3665732465956
 31
0.0
  0
LINE
  5
7C
330
19
100
AcDbEntity
  8
4
100
AcDbLine
 10
886.3673797439974
 20
363.3665732465955
 30
0.0
 11
386.3673797439974
 21
363.3665732465955
 31
0.0
  0
LINE
  5
7D
330
19
100
AcDbEntity
  8
4
100
AcDbLine
 10
886.3673797439974
 20
363.3665732465955
 30
0.0
 11
886.3673797439974
 21
381.3665732465956
 31
0.0
  0
LINE
  5
7E
330
19
100
AcDbEntity
  8
4
100
AcDbLine
 10
673.3673797439978
 20
390.3665732465952
 30
0.0
 11
673.3673797439978
 21
383.1763882465957
 31
0.0
  0
LINE
  5
7F
330
19
100
AcDbEntity
  8
4
100
AcDbLine
 10
793.3673797439974
 20
390.3665732465952
 30
0.0
 11
764.8370348586004
 21
390.3665732465952
 31
0.0
  0
LINE
  5
80
330
19
100
AcDbEntity
  8
4
100
AcDbLine
 10
793.3673797439974
 20
383.3665732465956
 30
0.0
 11
793.3673797439974
 21
390.3665732465952
 31
0.0
  0
LINE
  5
81
330
19
100
AcDbEntity
  8
4
100
AcDbLine
 10
653.8673797439974
 20
384.1956732465956
 30
0.0
 11
618.8673797439974
 21
384.1956732465956
 31
0.0
  0
LINE
  5
82
330
19
100
AcDbEntity
  8
4
100
AcDbLine
 10
653.8673797439974
 20
383.3665732465956
 30
0.0
 11
653.8673797439974
 21
384.1956732465956
 31
0.0
  0
LINE
  5
83
330
19
100
AcDbEntity
  8
4
100
AcDbLine
 10
618.8673797439974
 20
383.3665732465956
 30
0.0
 11
618.8673797439974
 21
384.1956732465956
 31
0.0
  0
LINE
  5
84
330
19
100
AcDbEntity
  8
4
100
AcDbLine
 10
641.3673797439974
 20
394.3956282465961
 30
0.0
 11
648.8673797439974
 21
393.1956732465956
 31
0.0
  0
LINE
  5
85
330
19
100
AcDbEntity
  8
4
100
AcDbLine
 10
631.3673797439974
 20
394.3956282465961
 30
0.0
 11
623.8673797439974
 21
393.1956732465956
 31
0.0
  0
LINE
  5
86
330
19
100
AcDbEntity
  8
4
100
AcDbLine
 10
641.3673797439974
 20
393.1956732465956
 30
0.0
 11
648.8673797439974
 21
393.1956732465956
 31
0.0
  0
LINE
  5
87
330
19
100
AcDbEntity
  8
4
100
AcDbLine
 10
623.8673797439974
 20
393.1956732465956
 30
0.0
 11
631.3673797439974
 21
393.1956732465956
 31
0.0
  0
ARC
  5
88
330
19
100
AcDbEntity
  8
4
100
AcDbCircle
 10
636.3673797439974
 20
430.1956732465956
 30
0.0
 40
5.0
100
AcDbArc
 50
0.0
 51
180.0
  0
LINE
  5
89
330
19
100
AcDbEntity
  8
4
100
AcDbLine
 10
641.3673797439974
 20
387.7518282465958
 30
0.0
 11
641.3673797439974
 21
430.1956732465956
 31
0.0
  0
LINE
  5
8A
330
19
100
AcDbEntity
  8
4
100
AcDbLine
 10
631.3673797439974
 20
387.7518282465958
 30
0.0
 11
631.3673797439974
 21
430.1956732465956
 31
0.0
  0
LINE
  5
8B
330
19
100
AcDbEntity
  8
4
100
AcDbLine
 10
623.8673797439974
 20
384.1956732465956
 30
0.0
 11
623.8673797439974
 21
393.1956732465956
 31
0.0
  0
LINE
  5
8C
330
19
100
AcDbEntity
  8
4
100
AcDbLine
 10
623.8673797439974
 20
384.1956732465956
 30
0.0
 11
648.8673797439974
 21
384.1956732465956
 31
0.0
  0
LINE
  5
8D
330
19
100
AcDbEntity
  8
4
100
AcDbLine
 10
648.8673797439974
 20
384.1956732465956
 30
0.0
 11
648.8673797439974
 21
393.1956732465956
 31
0.0
  0
LINE
  5
8E
330
19
100
AcDbEntity
  8
4
100
AcDbLine
 10
619.3673797439975
 20
388.3665732465956
 30
0.0
 11
529.8370348586004
 21
388.3665732465956
 31
0.0
  0
ARC
  5
8F
330
19
100
AcDbEntity
  8
4
100
AcDbCircle
 10
794.4979947439974
 20
169.9503132465956
 30
0.0
 40
4.15458
100
AcDbArc
 50
300.3909439999998
 51
35.56271599999915
  0
ARC
  5
90
330
19
100
AcDbEntity
  8
4
100
AcDbCircle
 10
798.7016097439973
 20
162.782833246595
 30
0.0
 40
4.15458
100
AcDbArc
 50
120.390950999996
 51
215.5627279999995
  0
ARC
  5
91
330
19
100
AcDbEntity
  8
4
100
AcDbCircle
 10
791.9425747439973
 20
157.9503132465951
 30
0.0
 40
4.15458
100
AcDbArc
 50
300.3909440000068
 51
35.56271599999915
  0
ARC
  5
92
330
19
100
AcDbEntity
  8
4
100
AcDbCircle
 10
796.1461897439976
 20
150.7828332465955
 30
0.0
 40
4.15458
100
AcDbArc
 50
120.390950999996
 51
215.5627279999995
  0
ARC
  5
93
330
19
100
AcDbEntity
  8
4
100
AcDbCircle
 10
789.3869097439974
 20
145.9503132465956
 30
0.0
 40
4.15458
100
AcDbArc
 50
300.3909440000068
 51
35.56271599999915
  0
ARC
  5
94
330
19
100
AcDbEntity
  8
4
100
AcDbCircle
 10
789.3869097439974
 20
145.9503132465956
 30
0.0
 40
4.15458
100
AcDbArc
 50
300.3909440000068
 51
35.56271599999915
  0
ARC
  5
95
330
19
100
AcDbEntity
  8
4
100
AcDbCircle
 10
796.1461897439976
 20
150.7828332465955
 30
0.0
 40
4.15458
100
AcDbArc
 50
120.390950999996
 51
215.5627279999995
  0
ARC
  5
96
330
19
100
AcDbEntity
  8
4
100
AcDbCircle
 10
791.9425747439973
 20
157.9503132465951
 30
0.0
 40
4.15458
100
AcDbArc
 50
300.3909440000068
 51
35.56271599999915
  0
ARC
  5
97
330
19
100
AcDbEntity
  8
4
100
AcDbCircle
 10
798.7016097439973
 20
162.782833246595
 30
0.0
 40
4.15458
100
AcDbArc
 50
120.390950999996
 51
215.5627279999995
  0
ARC
  5
98
330
19
100
AcDbEntity
  8
4
100
AcDbCircle
 10
794.4979947439974
 20
169.9503132465956
 30
0.0
 40
4.15458
100
AcDbArc
 50
300.3909439999998
 51
35.56271599999915
  0
LINE
  5
99
330
19
100
AcDbEntity
  8
4
100
AcDbLine
 10
837.3673797439978
 20
142.3665732465955
 30
0.0
 11
837.3673797439978
 21
172.3665732465955
 31
0.0
  0
LINE
  5
9A
330
19
100
AcDbEntity
  8
4
100
AcDbLine
 10
815.3673797439974
 20
142.3665732465955
 30
0.0
 11
815.3673797439974
 21
172.3665732465955
 31
0.0
  0
LINE
  5
9B
330
19
100
AcDbEntity
  8
4
100
AcDbLine
 10
892.3673797439978
 20
360.3665732465951
 30
0.0
 11
892.3673797439978
 21
197.3665732465955
 31
0.0
  0
LINE
  5
9C
330
19
100
AcDbEntity
  8
4
100
AcDbLine
 10
886.3673797439974
 20
360.3665732465951
 30
0.0
 11
886.3673797439974
 21
363.3665732465955
 31
0.0
  0
LINE
  5
9D
330
19
100
AcDbEntity
  8
4
100
AcDbLine
 10
892.3673797439978
 20
360.3665732465951
 30
0.0
 11
380.3673797439974
 21
360.3665732465951
 31
0.0
  0
LINE
  5
9E
330
19
100
AcDbEntity
  8
4
100
AcDbLine
 10
886.3673797439974
 20
363.3665732465955
 30
0.0
 11
386.3673797439974
 21
363.3665732465955
 31
0.0
  0
LINE
  5
9F
330
19
100
AcDbEntity
  8
4
100
AcDbLine
 10
386.3673797439974
 20
360.3665732465951
 30
0.0
 11
386.3673797439974
 21
363.3665732465955
 31
0.0
  0
LINE
  5
A0
330
19
100
AcDbEntity
  8
4
100
AcDbLine
 10
380.3673797439974
 20
360.3665732465951
 30
0.0
 11
380.3673797439974
 21
197.3665732465955
 31
0.0
  0
LINE
  5
A1
330
19
100
AcDbEntity
  8
4
100
AcDbLine
 10
894.3673797439974
 20
306.3665732465955
 30
0.0
 11
898.3673797439974
 21
306.3665732465955
 31
0.0
  0
LINE
  5
A2
330
19
100
AcDbEntity
  8
4
100
AcDbLine
 10
374.3673797439974
 20
306.3665732465955
 30
0.0
 11
378.3673797439978
 21
306.3665732465955
 31
0.0
  0
LINE
  5
A3
330
19
100
AcDbEntity
  8
4
100
AcDbLine
 10
894.3256397439973
 20
198.3665732465955
 30
0.0
 11
898.3673797439974
 21
198.3665732465955
 31
0.0
  0
LINE
  5
A4
330
19
100
AcDbEntity
  8
4
100
AcDbLine
 10
374.3673797439974
 20
198.3665732465955
 30
0.0
 11
378.4091197439975
 21
198.3665732465955
 31
0.0
  0
LINE
  5
A5
330
19
100
AcDbEntity
  8
4
100
AcDbLine
 10
506.3673797439974
 20
172.3665732465955
 30
0.0
 11
506.3673797439974
 21
142.3665732465955
 31
0.0
  0
LINE
  5
A6
330
19
100
AcDbEntity
  8
4
100
AcDbLine
 10
766.3673797439974
 20
172.3665732465955
 30
0.0
 11
766.3673797439974
 21
142.3665732465955
 31
0.0
  0
LINE
  5
A7
330
19
100
AcDbEntity
  8
4
100
AcDbLine
 10
876.3673797439974
 20
187.3665732465955
 30
0.0
 11
882.3673797439978
 21
187.3665732465955
 31
0.0
  0
LINE
  5
A8
330
19
100
AcDbEntity
  8
4
100
AcDbLine
 10
390.3673797439974
 20
187.3665732465955
 30
0.0
 11
396.3673797439974
 21
187.3665732465955
 31
0.0
  0
LINE
  5
A9
330
19
100
AcDbEntity
  8
4
100
AcDbLine
 10
871.3673797439974
 20
182.3665732465955
 30
0.0
 11
871.3673797439974
 21
177.3665732465955
 31
0.0
  0
ARC
  5
AA
330
19
100
AcDbEntity
  8
4
100
AcDbCircle
 10
876.3673797439974
 20
182.3665732465955
 30
0.0
 40
5.0
100
AcDbArc
 50
90.0
 51
180.0
  0
LINE
  5
AB
330
19
100
AcDbEntity
  8
4
100
AcDbLine
 10
401.3673797439974
 20
182.3665732465955
 30
0.0
 11
401.3673797439974
 21
177.3665732465955
 31
0.0
  0
LINE
  5
AC
330
19
100
AcDbEntity
  8
4
100
AcDbLine
 10
374.3673797439974
 20
198.3665732465955
 30
0.0
 11
374.3673797439974
 21
306.3665732465955
 31
0.0
  0
LINE
  5
AD
330
19
100
AcDbEntity
  8
4
100
AcDbLine
 10
373.3673797439978
 20
200.3665732465951
 30
0.0
 11
369.3673797439974
 21
200.3665732465951
 31
0.0
  0
LINE
  5
AE
330
19
100
AcDbEntity
  8
4
100
AcDbLine
 10
373.3673797439978
 20
304.366573246596
 30
0.0
 11
369.3673797439974
 21
304.366573246596
 31
0.0
  0
LINE
  5
AF
330
19
100
AcDbEntity
  8
4
100
AcDbLine
 10
898.3673797439974
 20
198.3665732465955
 30
0.0
 11
898.3673797439974
 21
306.3665732465955
 31
0.0
  0
LINE
  5
B0
330
19
100
AcDbEntity
  8
4
100
AcDbLine
 10
903.3673797439974
 20
200.3665732465951
 30
0.0
 11
903.3673797439974
 21
304.366573246596
 31
0.0
  0
LINE
  5
B1
330
19
100
AcDbEntity
  8
4
100
AcDbLine
 10
903.3673797439974
 20
200.3665732465951
 30
0.0
 11
899.3673797439974
 21
200.3665732465951
 31
0.0
  0
LINE
  5
B2
330
19
100
AcDbEntity
  8
4
100
AcDbLine
 10
903.3673797439974
 20
304.366573246596
 30
0.0
 11
899.3673797439974
 21
304.366573246596
 31
0.0
  0
LINE
  5
B3
330
19
100
AcDbEntity
  8
4
100
AcDbLine
 10
528.1223847439974
 20
184.366573246596
 30
0.0
 11
647.8624997439974
 21
184.366573246596
 31
0.0
  0
LINE
  5
B4
330
19
100
AcDbEntity
  8
4
100
AcDbLine
 10
746.3673797439974
 20
179.366573246596
 30
0.0
 11
746.3673797439974
 21
142.3665732465955
 31
0.0
  0
LINE
  5
B5
330
19
100
AcDbEntity
  8
4
100
AcDbLine
 10
526.3673797439974
 20
179.366573246596
 30
0.0
 11
526.3673797439974
 21
142.3665732465955
 31
0.0
  0
LINE
  5
B6
330
19
100
AcDbEntity
  8
4
100
AcDbLine
 10
738.3673797439974
 20
187.3665732465955
 30
0.0
 11
534.3673797439974
 21
187.3665732465955
 31
0.0
  0
LINE
  5
B7
330
19
100
AcDbEntity
  8
4
100
AcDbLine
 10
886.3673797439974
 20
142.3665732465955
 30
0.0
 11
746.3673797439974
 21
142.3665732465955
 31
0.0
  0
LINE
  5
B8
330
19
100
AcDbEntity
  8
4
100
AcDbLine
 10
386.3673797439974
 20
142.3665732465955
 30
0.0
 11
526.3673797439974
 21
142.3665732465955
 31
0.0
  0
LINE
  5
B9
330
19
100
AcDbEntity
  8
4
100
AcDbLine
 10
886.3673797439974
 20
167.3665732465955
 30
0.0
 11
886.3673797439974
 21
142.3665732465955
 31
0.0
  0
LINE
  5
BA
330
19
100
AcDbEntity
  8
4
100
AcDbLine
 10
881.3673797439974
 20
172.3665732465955
 30
0.0
 11
746.3673797439974
 21
172.3665732465955
 31
0.0
  0
ARC
  5
BB
330
19
100
AcDbEntity
  8
4
100
AcDbCircle
 10
881.3673797439974
 20
167.3665732465955
 30
0.0
 40
5.0
100
AcDbArc
 50
0.0
 51
90.0
  0
LINE
  5
BC
330
19
100
AcDbEntity
  8
4
100
AcDbLine
 10
386.3673797439974
 20
167.3665732465955
 30
0.0
 11
386.3673797439974
 21
142.3665732465955
 31
0.0
  0
LINE
  5
BD
330
19
100
AcDbEntity
  8
4
100
AcDbLine
 10
391.3673797439974
 20
172.3665732465955
 30
0.0
 11
526.3673797439974
 21
172.3665732465955
 31
0.0
  0
ARC
  5
BE
330
19
100
AcDbEntity
  8
4
100
AcDbCircle
 10
391.3673797439974
 20
167.3665732465955
 30
0.0
 40
5.0
100
AcDbArc
 50
90.0
 51
180.0
  0
ARC
  5
BF
330
19
100
AcDbEntity
  8
4
100
AcDbCircle
 10
1202.802194743997
 20
167.3665732465955
 30
0.0
 40
5.0
100
AcDbArc
 50
90.0
 51
180.0
  0
LINE
  5
C0
330
19
100
AcDbEntity
  8
4
100
AcDbLine
 10
1202.802194743997
 20
172.3665732465955
 30
0.0
 11
1347.802194743997
 21
172.3665732465955
 31
0.0
  0
ARC
  5
C1
330
19
100
AcDbEntity
  8
4
100
AcDbCircle
 10
1707.802194743997
 20
167.3665732465955
 30
0.0
 40
5.0
100
AcDbArc
 50
0.0
 51
90.0
  0
LINE
  5
C2
330
19
100
AcDbEntity
  8
4
100
AcDbLine
 10
1707.802194743997
 20
172.3665732465955
 30
0.0
 11
1562.802194743997
 21
172.3665732465955
 31
0.0
  0
LINE
  5
C3
330
19
100
AcDbEntity
  8
4
100
AcDbLine
 10
1197.802194743997
 20
142.3665732465955
 30
0.0
 11
1197.802194743997
 21
167.3665732465955
 31
0.0
  0
LINE
  5
C4
330
19
100
AcDbEntity
  8
4
100
AcDbLine
 10
1712.802194743997
 20
142.3665732465955
 30
0.0
 11
1712.802194743997
 21
167.3665732465955
 31
0.0
  0
LINE
  5
C5
330
19
100
AcDbEntity
  8
4
100
AcDbLine
 10
1712.802194743997
 20
142.3665732465955
 30
0.0
 11
1562.802194743997
 21
142.3665732465955
 31
0.0
  0
LINE
  5
C6
330
19
100
AcDbEntity
  8
4
100
AcDbLine
 10
1197.802194743997
 20
142.3665732465955
 30
0.0
 11
1347.802194743997
 21
142.3665732465955
 31
0.0
  0
LINE
  5
C7
330
19
100
AcDbEntity
  8
4
100
AcDbLine
 10
1514.802194743997
 20
182.3665732465955
 30
0.0
 11
1394.802194743997
 21
182.3665732465955
 31
0.0
  0
LINE
  5
C8
330
19
100
AcDbEntity
  8
4
100
AcDbLine
 10
1382.802194743997
 20
187.3665732465955
 30
0.0
 11
1382.802194743997
 21
172.966573246595
 31
0.0
  0
LINE
  5
C9
330
19
100
AcDbEntity
  8
4
100
AcDbLine
 10
1552.802194743997
 20
187.3665732465955
 30
0.0
 11
1552.802194743997
 21
172.966573246595
 31
0.0
  0
LINE
  5
CA
330
19
100
AcDbEntity
  8
4
100
AcDbLine
 10
1197.802194743997
 20
363.3665732465955
 30
0.0
 11
1197.802194743997
 21
360.3665732465951
 31
0.0
  0
LINE
  5
CB
330
19
100
AcDbEntity
  8
4
100
AcDbLine
 10
1703.802194743997
 20
360.3665732465951
 30
0.0
 11
1191.802194743997
 21
360.3665732465951
 31
0.0
  0
LINE
  5
CC
330
19
100
AcDbEntity
  8
4
100
AcDbLine
 10
1697.802194743997
 20
363.3665732465955
 30
0.0
 11
1197.802194743997
 21
363.3665732465955
 31
0.0
  0
LINE
  5
CD
330
19
100
AcDbEntity
  8
4
100
AcDbLine
 10
1697.802194743997
 20
360.3665732465951
 30
0.0
 11
1697.802194743997
 21
363.3665732465955
 31
0.0
  0
LINE
  5
CE
330
19
100
AcDbEntity
  8
4
100
AcDbLine
 10
1347.802194743997
 20
179.366573246596
 30
0.0
 11
1347.802194743997
 21
142.3665732465955
 31
0.0
  0
LINE
  5
CF
330
19
100
AcDbEntity
  8
4
100
AcDbLine
 10
1554.802194743997
 20
187.3665732465955
 30
0.0
 11
1355.802194743997
 21
187.3665732465955
 31
0.0
  0
LINE
  5
D0
330
19
100
AcDbEntity
  8
4
100
AcDbLine
 10
1217.802194743997
 20
182.3665732465955
 30
0.0
 11
1217.802194743997
 21
177.3665732465955
 31
0.0
  0
LINE
  5
D1
330
19
100
AcDbEntity
  8
4
100
AcDbLine
 10
1677.802194743997
 20
182.3665732465955
 30
0.0
 11
1677.802194743997
 21
177.3665732465955
 31
0.0
  0
ARC
  5
D2
330
19
100
AcDbEntity
  8
4
100
AcDbCircle
 10
1693.802194743997
 20
197.3665732465955
 30
0.0
 40
10.0
100
AcDbArc
 50
270.0014040000008
 51
0.0
  0
LINE
  5
D3
330
19
100
AcDbEntity
  8
4
100
AcDbLine
 10
1703.802194743997
 20
197.3665732465955
 30
0.0
 11
1703.802194743997
 21
360.3665732465951
 31
0.0
  0
ARC
  5
D4
330
19
100
AcDbEntity
  8
4
100
AcDbCircle
 10
1201.802194743997
 20
197.3665732465955
 30
0.0
 40
10.0
100
AcDbArc
 50
180.0
 51
270.0014039999981
  0
LINE
  5
D5
330
19
100
AcDbEntity
  8
4
100
AcDbLine
 10
1201.802194743997
 20
187.3665732465955
 30
0.0
 11
1212.802194743997
 21
187.3665732465955
 31
0.0
  0
LINE
  5
D6
330
19
100
AcDbEntity
  8
4
100
AcDbLine
 10
1191.802194743997
 20
197.3665732465955
 30
0.0
 11
1191.802194743997
 21
360.3665732465951
 31
0.0
  0
LINE
  5
D7
330
19
100
AcDbEntity
  8
4
100
AcDbLine
 10
1562.802194743997
 20
200.187373246595
 30
0.0
 11
1562.802194743997
 21
142.3665732465955
 31
0.0
  0
LINE
  5
D8
330
19
100
AcDbEntity
  8
4
100
AcDbLine
 10
1642.047069743997
 20
201.952513246595
 30
0.0
 11
1642.047069743997
 21
172.3665732465955
 31
0.0
  0
LINE
  5
D9
330
19
100
AcDbEntity
  8
4
100
AcDbLine
 10
1704.802194743997
 20
187.3665732465955
 30
0.0
 11
1682.802194743997
 21
187.3665732465955
 31
0.0
  0
LINE
  5
DA
330
19
100
AcDbEntity
  8
4
100
AcDbLine
 10
1705.802194743997
 20
188.3665732465955
 30
0.0
 11
1705.802194743997
 21
252.3665732465955
 31
0.0
  0
LINE
  5
DB
330
19
100
AcDbEntity
  8
4
100
AcDbLine
 10
1704.802194743997
 20
342.3665732465955
 30
0.0
 11
1703.802194743997
 21
342.3665732465955
 31
0.0
  0
LINE
  5
DC
330
19
100
AcDbEntity
  8
4
100
AcDbLine
 10
1704.802194743997
 20
303.3665732465955
 30
0.0
 11
1704.802194743997
 21
342.3665732465955
 31
0.0
  0
LINE
  5
DD
330
19
100
AcDbEntity
  8
4
100
AcDbLine
 10
1707.802194743997
 20
303.3665732465955
 30
0.0
 11
1707.802194743997
 21
252.3665732465955
 31
0.0
  0
LINE
  5
DE
330
19
100
AcDbEntity
  8
4
100
AcDbLine
 10
1707.802194743997
 20
303.3665732465955
 30
0.0
 11
1704.802194743997
 21
303.3665732465955
 31
0.0
  0
LINE
  5
DF
330
19
100
AcDbEntity
  8
4
100
AcDbLine
 10
1705.802194743997
 20
252.3665732465955
 30
0.0
 11
1707.802194743997
 21
252.3665732465955
 31
0.0
  0
LINE
  5
E0
330
19
100
AcDbEntity
  8
4
100
AcDbLine
 10
1708.301974743998
 20
315.8665732465955
 30
0.0
 11
1713.301974743998
 21
315.8665732465955
 31
0.0
  0
LINE
  5
E1
330
19
100
AcDbEntity
  8
4
100
AcDbLine
 10
1708.301974743998
 20
330.8665732465955
 30
0.0
 11
1713.301974743998
 21
330.8665732465955
 31
0.0
  0
LINE
  5
E2
330
19
100
AcDbEntity
  8
4
100
AcDbLine
 10
1704.800974743997
 20
337.3665732465955
 30
0.0
 11
1704.800974743997
 21
309.366573246596
 31
0.0
  0
LINE
  5
E3
330
19
100
AcDbEntity
  8
4
100
AcDbLine
 10
1706.301974743998
 20
338.3665732465955
 30
0.0
 11
1706.301974743998
 21
308.3665732465955
 31
0.0
  0
LINE
  5
E4
330
19
100
AcDbEntity
  8
4
100
AcDbLine
 10
1708.301974743998
 20
338.3665732465955
 30
0.0
 11
1708.301974743998
 21
308.3665732465955
 31
0.0
  0
LINE
  5
E5
330
19
100
AcDbEntity
  8
4
100
AcDbLine
 10
1713.301974743998
 20
338.3665732465955
 30
0.0
 11
1713.301974743998
 21
308.3665732465955
 31
0.0
  0
LINE
  5
E6
330
19
100
AcDbEntity
  8
4
100
AcDbLine
 10
1713.301974743998
 20
308.3665732465955
 30
0.0
 11
1706.301974743998
 21
308.3665732465955
 31
0.0
  0
LINE
  5
E7
330
19
100
AcDbEntity
  8
4
100
AcDbLine
 10
1706.301974743998
 20
309.366573246596
 30
0.0
 11
1704.800974743997
 21
309.366573246596
 31
0.0
  0
LINE
  5
E8
330
19
100
AcDbEntity
  8
4
100
AcDbLine
 10
1706.301974743998
 20
338.3665732465955
 30
0.0
 11
1713.301974743998
 21
338.3665732465955
 31
0.0
  0
LINE
  5
E9
330
19
100
AcDbEntity
  8
4
100
AcDbLine
 10
1706.301974743998
 20
337.3665732465955
 30
0.0
 11
1704.800974743997
 21
337.3665732465955
 31
0.0
  0
LINE
  5
EA
330
19
100
AcDbEntity
  8
4
100
AcDbLine
 10
1707.802099743998
 20
215.1046082465954
 30
0.0
 11
1707.802099743998
 21
208.3665732465955
 31
0.0
  0
LINE
  5
EB
330
19
100
AcDbEntity
  8
4
100
AcDbLine
 10
1705.802194743997
 20
214.9422582465962
 30
0.0
 11
1707.802099743998
 21
215.1046082465954
 31
0.0
  0
LINE
  5
EC
330
19
100
AcDbEntity
  8
4
100
AcDbLine
 10
1705.802194743997
 20
201.7908882465957
 30
0.0
 11
1707.802099743998
 21
201.6285382465952
 31
0.0
  0
LINE
  5
ED
330
19
100
AcDbEntity
  8
4
100
AcDbLine
 10
1707.802099743998
 20
201.6285382465952
 30
0.0
 11
1707.802099743998
 21
208.3665732465955
 31
0.0
  0
LINE
  5
EE
330
19
100
AcDbEntity
  8
4
100
AcDbLine
 10
1645.802194743997
 20
395.1956732465956
 30
0.0
 11
1650.984069743997
 21
394.3665732465956
 31
0.0
  0
LINE
  5
EF
330
19
100
AcDbEntity
  8
4
100
AcDbLine
 10
1633.302194743997
 20
393.1956732465956
 30
0.0
 11
1645.802194743997
 21
395.1956732465956
 31
0.0
  0
ARC
  5
F0
330
19
100
AcDbEntity
  8
4
100
AcDbCircle
 10
1645.802194743997
 20
410.1956732465956
 30
0.0
 40
25.00002
100
AcDbArc
 50
311.2559945623341
 51
238.2460640000007
  0
ARC
  5
F1
330
19
100
AcDbEntity
  8
4
100
AcDbCircle
 10
1631.902294743998
 20
387.7513382465954
 30
0.0
 40
1.399915
100
AcDbArc
 50
0.0
 51
58.23080399999287
  0
LINE
  5
F2
330
19
100
AcDbEntity
  8
4
100
AcDbLine
 10
1633.302194743997
 20
384.1956732465956
 30
0.0
 11
1640.348509518738
 21
384.1956732465956
 31
0.0
  0
LINE
  5
F3
330
19
100
AcDbEntity
  8
4
100
AcDbLine
 10
1633.302194743997
 20
384.1956732465956
 30
0.0
 11
1633.302194743997
 21
393.1956732465956
 31
0.0
  0
LINE
  5
F4
330
19
100
AcDbEntity
  8
4
100
AcDbLine
 10
1640.348509518738
 20
393.1956732465956
 30
0.0
 11
1633.302194743997
 21
393.1956732465956
 31
0.0
  0
CIRCLE
  5
F5
330
19
100
AcDbEntity
  8
4
100
AcDbCircle
 10
1645.802194743997
 20
410.1956732465956
 30
0.0
 40
15.0
  0
LINE
  5
F6
330
19
100
AcDbEntity
  8
4
100
AcDbLine
 10
1249.802194743997
 20
395.1956732465956
 30
0.0
 11
1262.302194743997
 21
393.1956732465956
 31
0.0
  0
LINE
  5
F7
330
19
100
AcDbEntity
  8
4
100
AcDbLine
 10
1244.620319743998
 20
394.3665732465956
 30
0.0
 11
1249.802194743997
 21
395.1956732465956
 31
0.0
  0
ARC
  5
F8
330
19
100
AcDbEntity
  8
4
100
AcDbCircle
 10
1249.802194743997
 20
410.1956732465956
 30
0.0
 40
25.00002
100
AcDbArc
 50
301.7714660000001
 51
228.744005437666
  0
ARC
  5
F9
330
19
100
AcDbEntity
  8
4
100
AcDbCircle
 10
1263.702339743998
 20
387.7513382465954
 30
0.0
 40
1.399915
100
AcDbArc
 50
121.7691960000071
 51
180.0
  0
LINE
  5
FA
330
19
100
AcDbEntity
  8
4
100
AcDbLine
 10
1255.255879969257
 20
384.1956732465956
 30
0.0
 11
1262.302194743997
 21
384.1956732465956
 31
0.0
  0
LINE
  5
FB
330
19
100
AcDbEntity
  8
4
100
AcDbLine
 10
1262.302194743997
 20
384.1956732465956
 30
0.0
 11
1262.302194743997
 21
393.1956732465956
 31
0.0
  0
LINE
  5
FC
330
19
100
AcDbEntity
  8
4
100
AcDbLine
 10
1262.302194743997
 20
393.1956732465956
 30
0.0
 11
1255.255879969257
 21
393.1956732465956
 31
0.0
  0
CIRCLE
  5
FD
330
19
100
AcDbEntity
  8
4
100
AcDbCircle
 10
1249.802194743997
 20
410.1956732465956
 30
0.0
 40
15.0
  0
LINE
  5
FE
330
19
100
AcDbEntity
  8
4
100
AcDbLine
 10
1267.302194743997
 20
384.1956732465956
 30
0.0
 11
1255.255879969257
 21
384.1956732465956
 31
0.0
  0
LINE
  5
FF
330
19
100
AcDbEntity
  8
4
100
AcDbLine
 10
1267.302194743997
 20
384.1956732465956
 30
0.0
 11
1267.302194743997
 21
383.3665732465956
 31
0.0
  0
LINE
  5
100
330
19
100
AcDbEntity
  8
4
100
AcDbLine
 10
1232.302194743997
 20
383.3665732465956
 30
0.0
 11
1232.302194743997
 21
384.1956732465956
 31
0.0
  0
LINE
  5
101
330
19
100
AcDbEntity
  8
4
100
AcDbLine
 10
1663.302194743997
 20
384.1956732465956
 30
0.0
 11
1662.287819747943
 21
384.1956732465956
 31
0.0
  0
LINE
  5
102
330
19
100
AcDbEntity
  8
4
100
AcDbLine
 10
1663.302194743997
 20
383.3665732465956
 30
0.0
 11
1663.302194743997
 21
384.1956732465956
 31
0.0
  0
LINE
  5
103
330
19
100
AcDbEntity
  8
4
100
AcDbLine
 10
1628.302194743997
 20
383.3665732465956
 30
0.0
 11
1628.302194743997
 21
384.1956732465956
 31
0.0
  0
LINE
  5
104
330
19
100
AcDbEntity
  8
4
100
AcDbLine
 10
1612.802194743997
 20
383.3665732465956
 30
0.0
 11
1612.802194743997
 21
385.1956732465956
 31
0.0
  0
LINE
  5
105
330
19
100
AcDbEntity
  8
4
100
AcDbLine
 10
1572.802194743997
 20
383.3665732465956
 30
0.0
 11
1572.802194743997
 21
385.1956732465956
 31
0.0
  0
LINE
  5
106
330
19
100
AcDbEntity
  8
4
100
AcDbLine
 10
1572.802194743997
 20
385.1956732465956
 30
0.0
 11
1612.802194743997
 21
385.1956732465956
 31
0.0
  0
LINE
  5
107
330
19
100
AcDbEntity
  8
4
100
AcDbLine
 10
1197.802194743997
 20
363.3665732465955
 30
0.0
 11
1197.802194743997
 21
381.3665732465956
 31
0.0
  0
LINE
  5
108
330
19
100
AcDbEntity
  8
4
100
AcDbLine
 10
1695.802194743997
 20
383.3665732465956
 30
0.0
 11
1199.802194743997
 21
383.3665732465956
 31
0.0
  0
LINE
  5
109
330
19
100
AcDbEntity
  8
4
100
AcDbLine
 10
1697.802194743997
 20
363.3665732465955
 30
0.0
 11
1197.802194743997
 21
363.3665732465955
 31
0.0
  0
LINE
  5
10A
330
19
100
AcDbEntity
  8
4
100
AcDbLine
 10
1697.802194743997
 20
363.3665732465955
 30
0.0
 11
1697.802194743997
 21
381.3665732465956
 31
0.0
  0
LINE
  5
10B
330
19
100
AcDbEntity
  8
4
100
AcDbLine
 10
1552.802194743997
 20
172.966573246595
 30
0.0
 11
1382.802194743997
 21
172.966573246595
 31
0.0
  0
ARC
  5
10C
330
19
100
AcDbEntity
  8
4
100
AcDbCircle
 10
1602.802194743997
 20
4.366328246596254
 30
0.0
 40
299.99997
100
AcDbArc
 50
81.47332399999996
 51
98.52691300000001
  0
ARC
  5
10D
330
19
100
AcDbEntity
  8
4
100
AcDbCircle
 10
1850.802194743997
 20
252.3665732465955
 30
0.0
 40
299.99995
100
AcDbArc
 50
171.474267
 51
188.5268669999998
  0
ARC
  5
10E
330
19
100
AcDbEntity
  8
4
100
AcDbCircle
 10
1559.062694743997
 20
296.1055882465956
 30
0.0
 40
5.000084999999999
100
AcDbArc
 50
98.52495700000094
 51
171.4722800000001
  0
ARC
  5
10F
330
19
100
AcDbEntity
  8
4
100
AcDbCircle
 10
1848.802194743997
 20
252.3665732465955
 30
0.0
 40
300.00001
100
AcDbArc
 50
171.133374
 51
188.867622
  0
ARC
  5
110
330
19
100
AcDbEntity
  8
4
100
AcDbCircle
 10
1602.802194743997
 20
6.366328246595344
 30
0.0
 40
300.000005
100
AcDbArc
 50
81.13252299999999
 51
98.86766800000004
  0
ARC
  5
111
330
19
100
AcDbEntity
  8
4
100
AcDbCircle
 10
1557.328074743998
 20
297.8404482465957
 30
0.0
 40
4.99995
100
AcDbArc
 50
98.86761599999633
 51
171.1323830000003
  0
ARC
  5
112
330
19
100
AcDbEntity
  8
4
100
AcDbCircle
 10
1356.802194743997
 20
252.3665732465955
 30
0.0
 40
299.999955
100
AcDbArc
 50
351.134126
 51
8.867337999999943
  0
ARC
  5
113
330
19
100
AcDbEntity
  8
4
100
AcDbCircle
 10
1648.276314743997
 20
297.8404482465957
 30
0.0
 40
4.99995
100
AcDbArc
 50
8.86761699999971
 51
81.13238400000368
  0
ARC
  5
114
330
19
100
AcDbEntity
  8
4
100
AcDbCircle
 10
1354.802194743997
 20
252.3665732465955
 30
0.0
 40
299.99995
100
AcDbArc
 50
351.474927
 51
8.526583000000004
  0
ARC
  5
115
330
19
100
AcDbEntity
  8
4
100
AcDbCircle
 10
1646.541694743997
 20
296.1055882465956
 30
0.0
 40
5.000084999999999
100
AcDbArc
 50
8.527719999999922
 51
81.47504299999909
  0
ARC
  5
116
330
19
100
AcDbEntity
  8
4
100
AcDbCircle
 10
1602.802194743997
 20
498.3668182465958
 30
0.0
 40
299.99992
100
AcDbArc
 50
261.133275
 51
278.8685189999999
  0
ARC
  5
117
330
19
100
AcDbEntity
  8
4
100
AcDbCircle
 10
1648.276314743997
 20
206.8926982465954
 30
0.0
 40
4.99993
100
AcDbArc
 50
278.8676169999979
 51
351.1351570000003
  0
ARC
  5
118
330
19
100
AcDbEntity
  8
4
100
AcDbCircle
 10
1602.802194743997
 20
500.3668182465949
 30
0.0
 40
300.000005
100
AcDbArc
 50
261.474221
 51
278.527902
  0
ARC
  5
119
330
19
100
AcDbEntity
  8
4
100
AcDbCircle
 10
1646.541694743997
 20
208.6275582465954
 30
0.0
 40
5.000084999999999
100
AcDbArc
 50
278.5249550000004
 51
351.4722800000001
  0
ARC
  5
11A
330
19
100
AcDbEntity
  8
4
100
AcDbCircle
 10
1557.328074743998
 20
206.8926982465954
 30
0.0
 40
4.99995
100
AcDbArc
 50
188.8676169999997
 51
261.1323830000001
  0
ARC
  5
11B
330
19
100
AcDbEntity
  8
4
100
AcDbCircle
 10
1559.062694743997
 20
208.6275582465954
 30
0.0
 40
5.000084999999999
100
AcDbArc
 50
188.5277199999999
 51
261.4750449999996
  0
LINE
  5
11C
330
19
100
AcDbEntity
  8
4
100
AcDbLine
 10
1447.802194743997
 20
206.1219432465954
 30
0.0
 11
1552.387889743998
 21
206.1219432465954
 31
0.0
  0
LINE
  5
11D
330
19
100
AcDbEntity
  8
4
100
AcDbLine
 10
1447.802194743997
 20
298.6112032465957
 30
0.0
 11
1552.387889743998
 21
298.6112032465957
 31
0.0
  0
LINE
  5
11E
330
19
100
AcDbEntity
  8
4
100
AcDbLine
 10
595.3624997439974
 20
412.3665732465956
 30
0.0
 11
530.3624997439974
 21
412.3665732465956
 31
0.0
  0
LINE
  5
11F
330
19
100
AcDbEntity
  8
4
100
AcDbLine
 10
530.3624997439974
 20
400.3665732465952
 30
0.0
 11
530.3624997439974
 21
412.3665732465956
 31
0.0
  0
LINE
  5
120
330
19
100
AcDbEntity
  8
4
100
AcDbLine
 10
595.3624997439974
 20
400.3665732465952
 30
0.0
 11
595.3624997439974
 21
412.3665732465956
 31
0.0
  0
LINE
  5
121
330
19
100
AcDbEntity
  8
4
100
AcDbLine
 10
1423.786949743998
 20
399.9665732465955
 30
0.0
 11
1511.817439743998
 21
399.9665732465951
 31
0.0
  0
LINE
  5
122
330
19
100
AcDbEntity
  8
4
100
AcDbLine
 10
1435.302194743997
 20
399.9665732465955
 30
0.0
 11
1435.302194743997
 21
412.3665732465956
 31
0.0
  0
LINE
  5
123
330
19
100
AcDbEntity
  8
4
100
AcDbLine
 10
1500.302194743997
 20
399.9665732465955
 30
0.0
 11
1500.302194743997
 21
412.3665732465956
 31
0.0
  0
LINE
  5
124
330
19
100
AcDbEntity
  8
4
100
AcDbLine
 10
1500.302194743997
 20
412.3665732465956
 30
0.0
 11
1435.302194743997
 21
412.3665732465956
 31
0.0
  0
ARC
  5
125
330
19
100
AcDbEntity
  8
4
100
AcDbCircle
 10
562.8624997439974
 20
431.3665732465956
 30
0.0
 40
9.0
100
AcDbArc
 50
180.0
 51
0.0
  0
LINE
  5
126
330
19
100
AcDbEntity
  8
4
100
AcDbLine
 10
553.8624997439974
 20
532.3665732465956
 30
0.0
 11
553.8624997439974
 21
431.3665732465956
 31
0.0
  0
LINE
  5
127
330
19
100
AcDbEntity
  8
4
100
AcDbLine
 10
571.8624997439974
 20
532.3665732465956
 30
0.0
 11
571.8624997439974
 21
431.3665732465956
 31
0.0
  0
LINE
  5
128
330
19
100
AcDbEntity
  8
4
100
AcDbLine
 10
532.8624997439974
 20
532.3665732465956
 30
0.0
 11
531.8624997439974
 21
531.3665732465956
 31
0.0
  0
LINE
  5
129
330
19
100
AcDbEntity
  8
4
100
AcDbLine
 10
531.8624997439974
 20
531.3665732465956
 30
0.0
 11
531.8624997439974
 21
412.3665732465956
 31
0.0
  0
LINE
  5
12A
330
19
100
AcDbEntity
  8
4
100
AcDbLine
 10
592.8624997439974
 20
532.3665732465956
 30
0.0
 11
593.8624997439974
 21
531.3665732465956
 31
0.0
  0
LINE
  5
12B
330
19
100
AcDbEntity
  8
4
100
AcDbLine
 10
592.8624997439974
 20
532.3665732465956
 30
0.0
 11
532.8624997439974
 21
532.3665732465956
 31
0.0
  0
LINE
  5
12C
330
19
100
AcDbEntity
  8
4
100
AcDbLine
 10
593.8624997439974
 20
531.3665732465956
 30
0.0
 11
593.8624997439974
 21
412.3665732465956
 31
0.0
  0
LINE
  5
12D
330
19
100
AcDbEntity
  8
4
100
AcDbLine
 10
531.8624997439974
 20
531.3665732465956
 30
0.0
 11
553.8624997439974
 21
531.3665732465956
 31
0.0
  0
LINE
  5
12E
330
19
100
AcDbEntity
  8
4
100
AcDbLine
 10
593.8624997439974
 20
531.3665732465956
 30
0.0
 11
571.8624997439974
 21
531.3665732465956
 31
0.0
  0
LINE
  5
12F
330
19
100
AcDbEntity
  8
4
100
AcDbLine
 10
1437.802194743997
 20
532.3665732465956
 30
0.0
 11
1436.802194743997
 21
531.3665732465956
 31
0.0
  0
LINE
  5
130
330
19
100
AcDbEntity
  8
4
100
AcDbLine
 10
1436.802194743997
 20
531.3665732465956
 30
0.0
 11
1436.802194743997
 21
412.3665732465956
 31
0.0
  0
LINE
  5
131
330
19
100
AcDbEntity
  8
4
100
AcDbLine
 10
1497.802194743997
 20
532.3665732465956
 30
0.0
 11
1498.802194743997
 21
531.3665732465956
 31
0.0
  0
LINE
  5
132
330
19
100
AcDbEntity
  8
4
100
AcDbLine
 10
1498.802194743997
 20
531.3665732465956
 30
0.0
 11
1498.802194743997
 21
412.3665732465956
 31
0.0
  0
LINE
  5
133
330
19
100
AcDbEntity
  8
4
100
AcDbLine
 10
1436.802194743997
 20
531.3665732465956
 30
0.0
 11
1498.802194743997
 21
531.3665732465956
 31
0.0
  0
LINE
  5
140
330
19
100
AcDbEntity
  8
4
100
AcDbLine
 10
1436.802194743997
 20
421.3665732465956
 30
0.0
 11
1430.802194743997
 21
421.3665732465956
 31
0.0
  0
LINE
  5
141
330
19
100
AcDbEntity
  8
4
100
AcDbLine
 10
1430.802194743997
 20
421.3665732465956
 30
0.0
 11
1430.802194743997
 21
532.3665732465956
 31
0.0
  0
LINE
  5
142
330
19
100
AcDbEntity
  8
4
100
AcDbLine
 10
1430.802194743997
 20
532.3665732465956
 30
0.0
 11
1497.802194743997
 21
532.3665732465956
 31
0.0
  0
LINE
  5
143
330
19
100
AcDbEntity
  8
L-CENTER
 48
3.0
100
AcDbLine
 10
733.3673797439974
 20
171.3665732465955
 30
0.0
 11
733.3673797439974
 21
401.3665732465956
 31
0.0
  0
LINE
  5
148
330
19
100
AcDbEntity
  8
L-CENTER
 48
3.0
100
AcDbLine
 10
636.3673797439974
 20
162.966573246595
 30
0.0
 11
636.3673797439974
 21
441.0799201851928
 31
0.0
  0
LINE
  5
149
330
19
100
AcDbEntity
  8
L-CENTER
 48
3.0
100
AcDbLine
 10
646.9142683497228
 20
410.1956732465956
 30
0.0
 11
625.820491138272
 21
410.1956732465956
 31
0.0
  0
LINE
  5
14A
330
19
100
AcDbEntity
  8
L-CENTER
 48
3.0
100
AcDbLine
 10
826.3673797439974
 20
182.3665732465955
 30
0.0
 11
826.3673797439974
 21
132.3665732465955
 31
0.0
  0
LINE
  5
14B
330
19
100
AcDbEntity
  8
L-CENTER
 48
3.0
100
AcDbLine
 10
446.3673797439974
 20
132.3665732465955
 30
0.0
 11
446.3673797439974
 21
182.3665732465955
 31
0.0
  0
LINE
  5
14C
330
19
100
AcDbEntity
  8
L-CENTER
 48
3.0
100
AcDbLine
 10
1682.802194743997
 20
182.3665732465955
 30
0.0
 11
1682.802194743997
 21
132.3665732465955
 31
0.0
  0
LINE
  5
14D
330
19
100
AcDbEntity
  8
L-CENTER
 48
3.0
100
AcDbLine
 10
1227.802194743997
 20
182.3665732465955
 30
0.0
 11
1227.802194743997
 21
132.3665732465955
 31
0.0
  0
LINE
  5
14E
330
19
100
AcDbEntity
  8
L-CENTER
 48
3.0
100
AcDbLine
 10
1538.489526831434
 20
252.3665732465955
 30
0.0
 11
1667.11486265656
 21
252.3665732465955
 31
0.0
  0
LINE
  5
14F
330
19
100
AcDbEntity
  8
L-CENTER
 48
3.0
100
AcDbLine
 10
1716.577064743997
 20
323.3665732465955
 30
0.0
 11
1694.019479743998
 21
323.3665732465955
 31
0.0
  0
LINE
  5
150
330
19
100
AcDbEntity
  8
L-CENTER
 48
3.0
100
AcDbLine
 10
1710.953904743997
 20
208.3665732465955
 30
0.0
 11
1693.079049743998
 21
208.3665732465955
 31
0.0
  0
LINE
  5
151
330
19
100
AcDbEntity
  8
L-CENTER
 48
3.0
100
AcDbLine
 10
1678.828319743998
 20
410.1956732465956
 30
0.0
 11
1612.776069743997
 21
410.1956732465956
 31
0.0
  0
LINE
  5
152
330
19
100
AcDbEntity
  8
L-CENTER
 48
3.0
100
AcDbLine
 10
1282.828319743997
 20
410.1956732465956
 30
0.0
 11
1216.776069743997
 21
410.1956732465956
 31
0.0
  0
LINE
  5
153
330
19
100
AcDbEntity
  8
L-CENTER
 48
3.0
100
AcDbLine
 10
1249.802194743997
 20
443.2217982465959
 30
0.0
 11
1249.802194743997
 21
377.1695482465951
 31
0.0
  0
LINE
  5
154
330
19
100
AcDbEntity
  8
L-CENTER
 48
3.0
100
AcDbLine
 10
1645.802194743997
 20
443.2217982465959
 30
0.0
 11
1645.802194743997
 21
377.1695482465951
 31
0.0
  0
LINE
  5
155
330
19
100
AcDbEntity
  8
L-CENTER
 48
3.0
100
AcDbLine
 10
1602.802194743997
 20
316.6792411591587
 30
0.0
 11
1602.802194743997
 21
188.0539053340324
 31
0.0
  0
LINE
  5
156
330
19
100
AcDbEntity
  8
L-CENTER
 48
3.0
100
AcDbLine
 10
562.8624997439974
 20
542.3665732465956
 30
0.0
 11
562.8624997439974
 21
30.36657324659564
 31
0.0
  0
LINE
  5
157
330
19
100
AcDbEntity
  8
L-CENTER
 48
3.0
100
AcDbLine
 10
1467.802194743997
 20
542.3665732465956
 30
0.0
 11
1467.802194743997
 21
30.36657324659564
 31
0.0
  0
LINE
  5
15A
330
19
100
AcDbEntity
  8
L-CENTER
 48
3.0
100
AcDbLine
 10
263.9264818477097
 20
252.3665732465955
 30
0.0
 11
909.7411558039485
 21
252.3665732465955
 31
0.0
  0
LINE
  5
15D
330
19
100
AcDbEntity
  8
4
100
AcDbLine
 10
903.3673797439974
 20
212.3665732465955
 30
0.0
 11
904.3673797439974
 21
212.3665732465955
 31
0.0
  0
LINE
  5
15E
330
19
100
AcDbEntity
  8
4
100
AcDbLine
 10
903.3673797439974
 20
292.3665732465955
 30
0.0
 11
904.3673797439974
 21
292.3665732465955
 31
0.0
  0
LINE
  5
15F
330
19
100
AcDbEntity
  8
4
100
AcDbLine
 10
904.3673797439974
 20
292.3665732465955
 30
0.0
 11
904.3673797439974
 21
212.3665732465955
 31
0.0
  0
LINE
  5
160
330
19
100
AcDbEntity
  8
4
100
AcDbLine
 10
369.3673797439974
 20
212.3665732465955
 30
0.0
 11
368.3673797439978
 21
212.3665732465955
 31
0.0
  0
LINE
  5
161
330
19
100
AcDbEntity
  8
4
100
AcDbLine
 10
369.3673797439974
 20
292.3665732465955
 30
0.0
 11
368.3673797439978
 21
292.3665732465955
 31
0.0
  0
LINE
  5
162
330
19
100
AcDbEntity
  8
4
100
AcDbLine
 10
368.3673797439978
 20
292.3665732465955
 30
0.0
 11
368.3673797439978
 21
212.3665732465955
 31
0.0
  0
CIRCLE
  5
163
330
19
100
AcDbEntity
  8
4
100
AcDbCircle
 10
1602.802194743997
 20
252.3665732465955
 30
0.0
 40
40.0
  0
LINE
  5
166
330
19
100
AcDbEntity
  8
4
100
AcDbLine
 10
693.3673797439978
 20
391.3665732465956
 30
0.0
 11
742.8977246293944
 21
391.3665732465956
 31
0.0
  0
LINE
  5
167
330
19
100
AcDbEntity
  8
4
100
AcDbLine
 10
773.3673797439974
 20
390.3665732465952
 30
0.0
 11
773.3673797439974
 21
391.3665732465956
 31
0.0
  0
LINE
  5
168
330
19
100
AcDbEntity
  8
4
100
AcDbLine
 10
693.3673797439978
 20
390.3665732465952
 30
0.0
 11
693.3673797439978
 21
391.3665732465956
 31
0.0
  0
ARC
  5
169
330
19
100
AcDbEntity
  8
4
100
AcDbCircle
 10
396.3673797439974
 20
182.3665732465955
 30
0.0
 40
5.0
100
AcDbArc
 50
0.0
 51
90.0
  0
ARC
  5
16A
330
19
100
AcDbEntity
  8
4
100
AcDbCircle
 10
396.3673797439974
 20
177.3665732465955
 30
0.0
 40
5.0
100
AcDbArc
 50
270.0
 51
0.0
  0
ARC
  5
16B
330
19
100
AcDbEntity
  8
4
100
AcDbCircle
 10
876.3673797439974
 20
177.3665732465955
 30
0.0
 40
5.0
100
AcDbArc
 50
180.0
 51
270.0
  0
ARC
  5
16C
330
19
100
AcDbEntity
  8
4
100
AcDbCircle
 10
882.3673797439978
 20
197.3665732465955
 30
0.0
 40
10.0
100
AcDbArc
 50
270.0
 51
0.0
  0
ARC
  5
16D
330
19
100
AcDbEntity
  8
4
100
AcDbCircle
 10
390.3673797439974
 20
197.3665732465955
 30
0.0
 40
10.0
100
AcDbArc
 50
180.0
 51
270.0
  0
ARC
  5
16E
330
19
100
AcDbEntity
  8
4
100
AcDbCircle
 10
378.3673797439978
 20
308.3665732465955
 30
0.0
 40
2.0
100
AcDbArc
 50
270.0
 51
0.0
  0
ARC
  5
16F
330
19
100
AcDbEntity
  8
4
100
AcDbCircle
 10
378.4091197439975
 20
196.3665732465955
 30
0.0
 40
2.0
100
AcDbArc
 50
4.780191999998789
 51
90.0
  0
ARC
  5
170
330
19
100
AcDbEntity
  8
4
100
AcDbCircle
 10
894.3256397439973
 20
196.3665732465955
 30
0.0
 40
2.0
100
AcDbArc
 50
90.0
 51
175.2198080000012
  0
ARC
  5
171
330
19
100
AcDbEntity
  8
4
100
AcDbCircle
 10
894.3673797439974
 20
308.3665732465955
 30
0.0
 40
2.0
100
AcDbArc
 50
180.0
 51
270.0
  0
ARC
  5
172
330
19
100
AcDbEntity
  8
4
100
AcDbCircle
 10
899.3673797439974
 20
305.3665732465951
 30
0.0
 40
1.0
100
AcDbArc
 50
180.0
 51
270.0
  0
ARC
  5
173
330
19
100
AcDbEntity
  8
4
100
AcDbCircle
 10
899.3673797439974
 20
199.366573246596
 30
0.0
 40
1.0
100
AcDbArc
 50
90.0
 51
180.0
  0
ARC
  5
174
330
19
100
AcDbEntity
  8
4
100
AcDbCircle
 10
373.3673797439978
 20
305.3665732465951
 30
0.0
 40
1.0
100
AcDbArc
 50
270.0
 51
0.0
  0
ARC
  5
175
330
19
100
AcDbEntity
  8
4
100
AcDbCircle
 10
373.3673797439978
 20
199.366573246596
 30
0.0
 40
1.0
100
AcDbArc
 50
0.0
 51
90.0
  0
ARC
  5
176
330
19
100
AcDbEntity
  8
4
100
AcDbCircle
 10
534.3673797439974
 20
179.366573246596
 30
0.0
 40
8.0
100
AcDbArc
 50
90.0
 51
180.0
  0
ARC
  5
177
330
19
100
AcDbEntity
  8
4
100
AcDbCircle
 10
738.3673797439974
 20
179.366573246596
 30
0.0
 40
8.0
100
AcDbArc
 50
0.0
 51
90.0
  0
LINE
  5
178
330
19
100
AcDbEntity
  8
4
100
AcDbLine
 10
745.7835797439975
 20
181.3665732465955
 30
0.0
 11
693.3673797439978
 21
181.3665732465955
 31
0.0
  0
LINE
  5
179
330
19
100
AcDbEntity
  8
4
100
AcDbLine
 10
693.3673797439978
 20
181.3665732465955
 30
0.0
 11
693.3673797439978
 21
182.3665732465955
 31
0.0
  0
ARC
  5
17A
330
19
100
AcDbEntity
  8
4
100
AcDbCircle
 10
646.8624997439974
 20
173.966573246595
 30
0.0
 40
1.0
100
AcDbArc
 50
270.0
 51
0.0
  0
ARC
  5
17B
330
19
100
AcDbEntity
  8
4
100
AcDbCircle
 10
1212.802194743997
 20
182.3665732465955
 30
0.0
 40
5.0
100
AcDbArc
 50
0.0
 51
90.0
  0
ARC
  5
17C
330
19
100
AcDbEntity
  8
4
100
AcDbCircle
 10
1212.802194743997
 20
177.3665732465955
 30
0.0
 40
5.0
100
AcDbArc
 50
270.0
 51
0.0
  0
ARC
  5
17D
330
19
100
AcDbEntity
  8
4
100
AcDbCircle
 10
1682.802194743997
 20
177.3665732465955
 30
0.0
 40
5.0
100
AcDbArc
 50
180.0
 51
270.0
  0
ARC
  5
17E
330
19
100
AcDbEntity
  8
4
100
AcDbCircle
 10
1682.802194743997
 20
182.3665732465955
 30
0.0
 40
5.0
100
AcDbArc
 50
90.0
 51
180.0
  0
LINE
  5
17F
330
19
100
AcDbEntity
  8
4
100
AcDbLine
 10
1514.802194743997
 20
187.3665732465955
 30
0.0
 11
1514.802194743997
 21
182.3665732465955
 31
0.0
  0
LINE
  5
180
330
19
100
AcDbEntity
  8
4
100
AcDbLine
 10
1394.802194743997
 20
187.3665732465955
 30
0.0
 11
1394.802194743997
 21
182.3665732465955
 31
0.0
  0
LINE
  5
181
330
19
100
AcDbEntity
  8
4
100
AcDbLine
 10
1494.802194743997
 20
182.3665732465955
 30
0.0
 11
1494.802194743997
 21
181.3665732465955
 31
0.0
  0
LINE
  5
182
330
19
100
AcDbEntity
  8
4
100
AcDbLine
 10
1414.802194743997
 20
182.3665732465955
 30
0.0
 11
1414.802194743997
 21
181.3665732465955
 31
0.0
  0
LINE
  5
183
330
19
100
AcDbEntity
  8
4
100
AcDbLine
 10
1494.802194743997
 20
181.3665732465955
 30
0.0
 11
1414.802194743997
 21
181.3665732465955
 31
0.0
  0
LINE
  5
184
330
19
100
AcDbEntity
  8
4
100
AcDbLine
 10
1382.802194743997
 20
184.366573246596
 30
0.0
 11
1394.802194743997
 21
184.366573246596
 31
0.0
  0
LINE
  5
185
330
19
100
AcDbEntity
  8
4
100
AcDbLine
 10
1514.802194743997
 20
184.366573246596
 30
0.0
 11
1552.802194743997
 21
184.366573246596
 31
0.0
  0
LINE
  5
186
330
19
100
AcDbEntity
  8
L-CENTER
 48
3.0
100
AcDbLine
 10
511.5972547439974
 20
412.6789432465962
 30
0.0
 11
511.5972547439974
 21
371.8935058299479
 31
0.0
  0
LINE
  5
187
330
19
100
AcDbEntity
  8
4
100
AcDbLine
 10
1514.802194743997
 20
390.3665732465952
 30
0.0
 11
1458.7718498586
 21
390.3665732465952
 31
0.0
  0
LINE
  5
188
330
19
100
AcDbEntity
  8
4
100
AcDbLine
 10
1382.802194743997
 20
383.3665732465956
 30
0.0
 11
1382.802194743997
 21
399.3665732465961
 31
0.0
  0
LINE
  5
189
330
19
100
AcDbEntity
  8
4
100
AcDbLine
 10
1552.802194743997
 20
383.3665732465956
 30
0.0
 11
1552.802194743997
 21
399.3665732465961
 31
0.0
  0
LINE
  5
18A
330
19
100
AcDbEntity
  8
4
100
AcDbLine
 10
1552.802194743997
 20
399.3665732465961
 30
0.0
 11
1382.802194743997
 21
399.3665732465961
 31
0.0
  0
LINE
  5
18B
330
19
100
AcDbEntity
  8
L-CENTER
 48
3.0
100
AcDbLine
 10
1454.802194743997
 20
171.3665732465955
 30
0.0
 11
1454.802194743997
 21
401.3665732465956
 31
0.0
  0
LINE
  5
18C
330
19
100
AcDbEntity
  8
4
100
AcDbLine
 10
1514.802194743997
 20
383.3665732465956
 30
0.0
 11
1514.802194743997
 21
390.3665732465952
 31
0.0
  0
LINE
  5
18D
330
19
100
AcDbEntity
  8
4
100
AcDbLine
 10
1394.802194743997
 20
383.3665732465956
 30
0.0
 11
1394.802194743997
 21
390.3665732465952
 31
0.0
  0
LINE
  5
18E
330
19
100
AcDbEntity
  8
4
100
AcDbLine
 10
1494.802194743997
 20
390.3665732465952
 30
0.0
 11
1494.802194743997
 21
391.3665732465956
 31
0.0
  0
LINE
  5
18F
330
19
100
AcDbEntity
  8
4
100
AcDbLine
 10
1414.802194743997
 20
390.3665732465952
 30
0.0
 11
1414.802194743997
 21
391.3665732465956
 31
0.0
  0
LINE
  5
190
330
19
100
AcDbEntity
  8
4
100
AcDbLine
 10
1494.802194743997
 20
391.3665732465956
 30
0.0
 11
1458.7718498586
 21
391.3665732465956
 31
0.0
  0
LINE
  5
191
330
19
100
AcDbEntity
  8
4
100
AcDbLine
 10
1382.802194743997
 20
388.3665732465956
 30
0.0
 11
1394.802194743997
 21
388.3665732465956
 31
0.0
  0
LINE
  5
192
330
19
100
AcDbEntity
  8
4
100
AcDbLine
 10
1514.802194743997
 20
388.3665732465956
 30
0.0
 11
1552.802194743997
 21
388.3665732465956
 31
0.0
  0
ARC
  5
193
330
19
100
AcDbEntity
  8
4
100
AcDbCircle
 10
1554.802194743997
 20
179.366573246596
 30
0.0
 40
8.0
100
AcDbArc
 50
0.0
 51
90.0
  0
ARC
  5
194
330
19
100
AcDbEntity
  8
4
100
AcDbCircle
 10
1355.802194743997
 20
179.366573246596
 30
0.0
 40
8.0
100
AcDbArc
 50
90.0
 51
180.0
  0
ARC
  5
195
330
19
100
AcDbEntity
  8
4
100
AcDbCircle
 10
1704.802194743997
 20
188.3665732465955
 30
0.0
 40
1.0
100
AcDbArc
 50
270.0
 51
0.0
  0
ARC
  5
196
330
19
100
AcDbEntity
  8
4
100
AcDbCircle
 10
388.3673797439978
 20
381.3665732465956
 30
0.0
 40
2.0
100
AcDbArc
 50
90.0
 51
180.0
  0
ARC
  5
197
330
19
100
AcDbEntity
  8
4
100
AcDbCircle
 10
884.3673797439974
 20
381.3665732465956
 30
0.0
 40
2.0
100
AcDbArc
 50
0.0
 51
90.0
  0
ARC
  5
198
330
19
100
AcDbEntity
  8
4
100
AcDbCircle
 10
1199.802194743997
 20
381.3665732465956
 30
0.0
 40
2.0
100
AcDbArc
 50
90.0
 51
180.0
  0
ARC
  5
199
330
19
100
AcDbEntity
  8
4
100
AcDbCircle
 10
1695.802194743997
 20
381.3665732465956
 30
0.0
 40
2.0
100
AcDbArc
 50
0.0
 51
90.0
  0
LINE
  5
227
330
19
100
AcDbEntity
  8
4
 48
3.0
100
AcDbLine
 10
374.3673797439969
 20
1253.293755753886
 30
0.0
 11
456.3673797439969
 21
1253.293755753886
 31
0.0
  0
LINE
  5
228
330
19
100
AcDbEntity
  8
4
 48
3.0
100
AcDbLine
 10
374.3673797439969
 20
1145.293755753886
 30
0.0
 11
396.6237666903853
 21
1145.293755753886
 31
0.0
  0
LINE
  5
229
330
19
100
AcDbEntity
  8
L-CENTER
 48
3.0
100
AcDbLine
 10
263.9264818477095
 20
1199.293755753886
 30
0.0
 11
909.7411558039486
 21
1199.293755753886
 31
0.0
  0
LINE
  5
22A
330
19
100
AcDbEntity
  8
L-CENTER
 48
3.0
100
AcDbLine
 10
369.24188639227
 20
1044.293755753886
 30
0.0
 11
903.4928730957248
 21
1044.293755753886
 31
0.0
  0
CIRCLE
  5
22B
330
19
100
AcDbEntity
  8
4
100
AcDbCircle
 10
636.3673797439974
 20
1044.293755753886
 30
0.0
 40
256.0
  0
LINE
  5
22C
330
19
100
AcDbEntity
  8
4
 48
3.0
100
AcDbLine
 10
374.3673797439969
 20
1253.293755753886
 30
0.0
 11
374.3673797439969
 21
1145.293755753886
 31
0.0
  0
LINE
  5
22D
330
19
100
AcDbEntity
  8
4
 48
3.0
100
AcDbLine
 10
380.3673797439969
 20
1145.293755753886
 30
0.0
 11
380.3673797439969
 21
1044.293755753886
 31
0.0
  0
LINE
  5
22E
330
19
100
AcDbEntity
  8
4
 48
3.0
100
AcDbLine
 10
369.3673797439969
 20
1251.293755753886
 30
0.0
 11
369.3673797439969
 21
1147.293755753886
 31
0.0
  0
LINE
  5
22F
330
19
100
AcDbEntity
  8
4
 48
3.0
100
AcDbLine
 10
369.3673797439969
 20
1147.293755753886
 30
0.0
 11
374.3673797439969
 21
1147.293755753886
 31
0.0
  0
LINE
  5
230
330
19
100
AcDbEntity
  8
4
 48
3.0
100
AcDbLine
 10
369.3673797439969
 20
1251.293755753886
 30
0.0
 11
374.3673797439969
 21
1251.293755753886
 31
0.0
  0
LINE
  5
231
330
19
100
AcDbEntity
  8
L-CENTER
 48
3.0
100
AcDbLine
 10
636.3673797439969
 20
1323.573346143332
 30
0.0
 11
636.3673797439978
 21
777.1682624021589
 31
0.0
  0
CIRCLE
  5
232
330
19
100
AcDbEntity
  8
4
100
AcDbCircle
 10
446.3673797439978
 20
824.2937557538864
 30
0.0
 40
11.0
  0
LINE
  5
233
330
19
100
AcDbEntity
  8
L-CENTER
 48
3.0
100
AcDbLine
 10
446.3673797439978
 20
845.6117582423328
 30
0.0
 11
446.3673797439978
 21
802.9757532654401
 31
0.0
  0
LINE
  5
234
330
19
100
AcDbEntity
  8
4
 48
3.0
100
AcDbLine
 10
386.3673797439969
 20
939.2937557538864
 30
0.0
 11
386.3673797439983
 21
799.2937557538864
 31
0.0
  0
LINE
  5
235
330
19
100
AcDbEntity
  8
4
100
AcDbLine
 10
504.3834055942029
 20
794.2937557538864
 30
0.0
 11
391.3673797439983
 21
794.2937557538864
 31
0.0
  0
ARC
  5
236
330
19
100
AcDbEntity
  8
4
100
AcDbCircle
 10
391.3673797439983
 20
799.2937557538864
 30
0.0
 40
5.0
100
AcDbArc
 50
180.0
 51
270.0
  0
LINE
  5
237
330
19
100
AcDbEntity
  8
4
100
AcDbLine
 10
507.8115982093618
 20
795.654044859685
 30
0.0
 11
522.4295228599176
 21
809.4224629546009
 31
0.0
  0
ARC
  5
238
330
19
100
AcDbEntity
  8
4
100
AcDbCircle
 10
504.3834055942029
 20
799.2937557538864
 30
0.0
 40
5.0
100
AcDbArc
 50
270.0
 51
313.2858440773871
  0
ARC
  5
239
330
19
100
AcDbEntity
  8
4
100
AcDbCircle
 10
527.9146310441724
 20
803.598925523878
 30
0.0
 40
8.0
100
AcDbArc
 50
65.7445318809049
 51
133.2858440773849
  0
LINE
  5
23A
330
19
100
AcDbEntity
  8
L-CENTER
 48
3.0
100
AcDbLine
 10
467.6853822324442
 20
824.2937557538864
 30
0.0
 11
425.0493772555515
 21
824.2937557538864
 31
0.0
  0
LINE
  5
23B
330
19
100
AcDbEntity
  8
4
100
AcDbLine
 10
391.3673797439969
 20
944.2937557538864
 30
0.0
 11
400.7066065975105
 21
944.2937557538864
 31
0.0
  0
ARC
  5
23C
330
19
100
AcDbEntity
  8
4
100
AcDbCircle
 10
391.3673797439969
 20
939.2937557538864
 30
0.0
 40
5.0
100
AcDbArc
 50
90.0
 51
180.0
  0
LINE
  5
23D
330
19
100
AcDbEntity
  8
4
100
AcDbLine
 10
553.5317736494444
 20
1286.521463423649
 30
0.0
 11
456.3673797439969
 21
1253.293755753886
 31
0.0
  0
LINE
  5
23E
330
19
100
AcDbEntity
  8
L-CENTER
 48
3.0
100
AcDbLine
 10
446.3673797439974
 20
1253.293755753886
 30
0.0
 11
446.3673797439974
 21
1300.024515448497
 31
0.0
  0
LINE
  5
23F
330
19
100
AcDbEntity
  8
4
100
AcDbLine
 10
386.3673797439974
 20
1253.293755753886
 30
0.0
 11
386.3673797439974
 21
1304.293755753886
 31
0.0
  0
ARC
  5
240
330
19
100
AcDbEntity
  8
4
100
AcDbCircle
 10
396.6237666903853
 20
1142.293755753886
 30
0.0
 40
3.0
100
AcDbArc
 50
337.7667282017033
 51
90.0
  0
LINE
  5
241
330
19
100
AcDbEntity
  8
4
100
AcDbLine
 10
503.5145904474143
 20
1309.293755753886
 30
0.0
 11
391.3673797439974
 21
1309.293755753886
 31
0.0
  0
LINE
  5
242
330
19
100
AcDbEntity
  8
L-CENTER
 48
3.0
100
AcDbLine
 10
467.0981394386076
 20
1279.293755753886
 30
0.0
 11
425.6366200493871
 21
1279.293755753886
 31
0.0
  0
ARC
  5
243
330
19
100
AcDbEntity
  8
4
100
AcDbCircle
 10
391.3673797439974
 20
1304.293755753886
 30
0.0
 40
5.0
100
AcDbArc
 50
90.0
 51
180.0
  0
CIRCLE
  5
244
330
19
100
AcDbEntity
  8
4
100
AcDbCircle
 10
446.3673797439974
 20
1279.293755753886
 30
0.0
 40
11.0
  0
LINE
  5
245
330
19
100
AcDbEntity
  8
4
100
AcDbLine
 10
507.8189453856617
 20
1306.837872214583
 30
0.0
 11
522.6982511656852
 21
1281.663783566767
 31
0.0
  0
ARC
  5
246
330
19
100
AcDbEntity
  8
4
100
AcDbCircle
 10
503.5145904474143
 20
1304.293755753886
 30
0.0
 40
5.0
100
AcDbArc
 50
30.58548156623509
 51
90.0
  0
ARC
  5
247
330
19
100
AcDbEntity
  8
4
100
AcDbCircle
 10
529.5852190668811
 20
1285.734369903881
 30
0.0
 40
8.0
100
AcDbArc
 50
210.5854815662338
 51
259.9805267995794
  0
LINE
  5
248
330
19
100
AcDbEntity
  8
4
100
AcDbLine
 10
621.3673797439969
 20
1307.793755753885
 30
0.0
 11
651.3673797439969
 21
1307.793755753885
 31
0.0
  0
LINE
  5
249
330
19
100
AcDbEntity
  8
4
100
AcDbLine
 10
621.3673797439969
 20
1309.293755753885
 30
0.0
 11
651.3673797439969
 21
1309.293755753885
 31
0.0
  0
ARC
  5
24A
330
19
100
AcDbEntity
  8
4
100
AcDbCircle
 10
618.3673797439969
 20
1302.667516031512
 30
0.0
 40
3.0
100
AcDbArc
 50
273.9851585080801
 51
0.0
  0
LINE
  5
24B
330
19
100
AcDbEntity
  8
4
 48
3.0
100
AcDbLine
 10
621.3673797439969
 20
1309.293755753885
 30
0.0
 11
621.3673797439969
 21
1302.667516031512
 31
0.0
  0
LINE
  5
24C
330
19
100
AcDbEntity
  8
4
 48
3.0
100
AcDbLine
 10
651.3673797439969
 20
1309.293755753885
 30
0.0
 11
651.3673797439969
 21
1302.667516031512
 31
0.0
  0
ARC
  5
24D
330
19
100
AcDbEntity
  8
4
100
AcDbCircle
 10
654.3673797439969
 20
1302.667516031512
 30
0.0
 40
3.0
100
AcDbArc
 50
180.0
 51
266.0148414919199
  0
LINE
  5
24E
330
19
100
AcDbEntity
  8
4
100
AcDbLine
 10
768.3513538937923
 20
794.2937557538864
 30
0.0
 11
881.3673797439978
 21
794.2937557538864
 31
0.0
  0
LINE
  5
24F
330
19
100
AcDbEntity
  8
L-CENTER
 48
3.0
100
AcDbLine
 10
805.0493772555515
 20
824.2937557538864
 30
0.0
 11
847.6853822324442
 21
824.2937557538864
 31
0.0
  0
CIRCLE
  5
250
330
19
100
AcDbEntity
  8
4
100
AcDbCircle
 10
826.3673797439978
 20
824.2937557538864
 30
0.0
 40
11.0
  0
LINE
  5
251
330
19
100
AcDbEntity
  8
L-CENTER
 48
3.0
100
AcDbLine
 10
826.3673797439978
 20
845.6117582423328
 30
0.0
 11
826.3673797439978
 21
802.9757532654401
 31
0.0
  0
ARC
  5
252
330
19
100
AcDbEntity
  8
4
100
AcDbCircle
 10
768.3513538937923
 20
799.2937557538864
 30
0.0
 40
5.0
100
AcDbArc
 50
226.7141559226161
 51
270.0
  0
ARC
  5
253
330
19
100
AcDbEntity
  8
4
100
AcDbCircle
 10
744.8201284438223
 20
803.598925523878
 30
0.0
 40
8.0
100
AcDbArc
 50
46.71415592261798
 51
114.2554681190951
  0
LINE
  5
254
330
19
100
AcDbEntity
  8
4
100
AcDbLine
 10
764.9231612786334
 20
795.6540448596847
 30
0.0
 11
750.3052366280763
 21
809.4224629546004
 31
0.0
  0
LINE
  5
255
330
19
100
AcDbEntity
  8
4
 48
3.0
100
AcDbLine
 10
886.3673797439978
 20
939.2937557538864
 30
0.0
 11
886.3673797439978
 21
799.2937557538864
 31
0.0
  0
ARC
  5
256
330
19
100
AcDbEntity
  8
4
 48
3.0
100
AcDbCircle
 10
881.3673797439978
 20
799.2937557538864
 30
0.0
 40
5.0
100
AcDbArc
 50
270.0
 51
0.0
  0
ARC
  5
257
330
19
100
AcDbEntity
  8
4
 48
3.0
100
AcDbCircle
 10
881.3673797439978
 20
939.2937557538864
 30
0.0
 40
5.0
100
AcDbArc
 50
0.0
 51
90.0
  0
LINE
  5
258
330
19
100
AcDbEntity
  8
4
100
AcDbLine
 10
872.0281528904843
 20
944.2937557538864
 30
0.0
 11
881.3673797439978
 21
944.2937557538864
 31
0.0
  0
LINE
  5
259
330
19
100
AcDbEntity
  8
4
 48
3.0
100
AcDbLine
 10
821.3673797439965
 20
1253.293755753886
 30
0.0
 11
898.3673797439965
 21
1253.293755753886
 31
0.0
  0
LINE
  5
25A
330
19
100
AcDbEntity
  8
4
100
AcDbLine
 10
769.2201690405777
 20
1309.293755753886
 30
0.0
 11
881.3673797439978
 21
1309.293755753886
 31
0.0
  0
LINE
  5
25B
330
19
100
AcDbEntity
  8
L-CENTER
 48
3.0
100
AcDbLine
 10
805.6366200493871
 20
1279.293755753886
 30
0.0
 11
847.0981394386076
 21
1279.293755753886
 31
0.0
  0
LINE
  5
25C
330
19
100
AcDbEntity
  8
4
100
AcDbLine
 10
715.6092645366748
 20
1287.720795530703
 30
0.0
 11
821.3673797439965
 21
1253.293755753886
 31
0.0
  0
ARC
  5
25D
330
19
100
AcDbEntity
  8
4
100
AcDbCircle
 10
769.2201690405777
 20
1304.293755753886
 30
0.0
 40
5.0
100
AcDbArc
 50
90.0
 51
149.4145184337652
  0
ARC
  5
25E
330
19
100
AcDbEntity
  8
4
100
AcDbCircle
 10
743.1495404211114
 20
1285.734369903882
 30
0.0
 40
8.0
100
AcDbArc
 50
285.9222816233575
 51
329.4145184337626
  0
LINE
  5
25F
330
19
100
AcDbEntity
  8
4
100
AcDbLine
 10
764.9158141023304
 20
1306.837872214583
 30
0.0
 11
750.0365083223069
 21
1281.663783566768
 31
0.0
  0
CIRCLE
  5
260
330
19
100
AcDbEntity
  8
4
100
AcDbCircle
 10
826.3673797439974
 20
1279.293755753886
 30
0.0
 40
11.0
  0
LINE
  5
261
330
19
100
AcDbEntity
  8
L-CENTER
 48
3.0
100
AcDbLine
 10
826.3673797439974
 20
1258.562996059276
 30
0.0
 11
826.3673797439974
 21
1300.024515448497
 31
0.0
  0
LINE
  5
262
330
19
100
AcDbEntity
  8
4
100
AcDbLine
 10
886.3673797439974
 20
1253.293755753886
 30
0.0
 11
886.3673797439978
 21
1304.293755753886
 31
0.0
  0
LINE
  5
263
330
19
100
AcDbEntity
  8
4
 48
3.0
100
AcDbLine
 10
898.3673797439965
 20
1253.293755753886
 30
0.0
 11
898.3673797439974
 21
1145.293755753886
 31
0.0
  0
LINE
  5
264
330
19
100
AcDbEntity
  8
4
 48
3.0
100
AcDbLine
 10
876.1109927976095
 20
1145.293755753886
 30
0.0
 11
898.3673797439974
 21
1145.293755753886
 31
0.0
  0
ARC
  5
265
330
19
100
AcDbEntity
  8
4
100
AcDbCircle
 10
876.1109927976095
 20
1142.293755753886
 30
0.0
 40
3.0
100
AcDbArc
 50
90.0
 51
202.2332717983011
  0
LINE
  5
266
330
19
100
AcDbEntity
  8
4
 48
3.0
100
AcDbLine
 10
892.3673797439974
 20
1145.293755753886
 30
0.0
 11
892.3673797439974
 21
1044.293755753886
 31
0.0
  0
LINE
  5
267
330
19
100
AcDbEntity
  8
4
 48
3.0
100
AcDbLine
 10
903.3673797439969
 20
1251.293755753886
 30
0.0
 11
903.3673797439969
 21
1147.293755753886
 31
0.0
  0
LINE
  5
268
330
19
100
AcDbEntity
  8
4
 48
3.0
100
AcDbLine
 10
898.3673797439978
 20
1147.293755753886
 30
0.0
 11
903.3673797439969
 21
1147.293755753886
 31
0.0
  0
LINE
  5
269
330
19
100
AcDbEntity
  8
4
 48
3.0
100
AcDbLine
 10
898.3673797439965
 20
1251.293755753886
 30
0.0
 11
903.3673797439969
 21
1251.293755753886
 31
0.0
  0
ARC
  5
26A
330
19
100
AcDbEntity
  8
4
100
AcDbCircle
 10
881.3673797439978
 20
1304.293755753886
 30
0.0
 40
5.0
100
AcDbArc
 50
0.0
 51
90.0
  0
LINE
  5
26B
330
19
100
AcDbEntity
  8
L-CENTER
 48
3.0
100
AcDbLine
 10
508.8673797439978
 20
823.457277788855
 30
0.0
 11
528.8673797439978
 21
858.0982939402322
 31
0.0
  0
LINE
  5
26C
330
19
100
AcDbEntity
  8
L-CENTER
 48
3.0
100
AcDbLine
 10
763.8673797439969
 20
823.457277788855
 30
0.0
 11
743.8673797439969
 21
858.0982939402322
 31
0.0
  0
CIRCLE
  5
26D
330
19
100
AcDbEntity
  8
L-CENTER
 48
3.0
100
AcDbCircle
 10
636.3673797439974
 20
1044.293755753887
 30
0.0
 40
235.0
  0
ARC
  5
26E
330
19
100
AcDbEntity
  8
4
100
AcDbCircle
 10
636.3673797439974
 20
1044.293755753887
 30
0.0
 40
220.0
100
AcDbArc
 50
271.1989487419143
 51
88.80105125808588
  0
LINE
  5
26F
330
19
100
AcDbEntity
  8
L-CENTER
 48
3.0
100
AcDbLine
 10
662.3049715366978
 20
1051.293755753887
 30
0.0
 11
804.429787951296
 21
1051.293755753887
 31
0.0
  0
CIRCLE
  5
270
330
19
100
AcDbEntity
  8
4
100
AcDbCircle
 10
733.3673797439978
 20
1051.293755753886
 30
0.0
 40
60.0
  0
CIRCLE
  5
271
330
19
100
AcDbEntity
  8
4
100
AcDbCircle
 10
733.3673797439978
 20
1051.293755753886
 30
0.0
 40
40.0
  0
ARC
  5
272
330
19
100
AcDbEntity
  8
4
100
AcDbCircle
 10
636.3673797439978
 20
1449.293755753886
 30
0.0
 40
500.0
100
AcDbArc
 50
244.5256305487904
 51
268.0346746282652
  0
ARC
  5
273
330
19
100
AcDbEntity
  8
4
100
AcDbCircle
 10
636.3673797439978
 20
1449.293755753886
 30
0.0
 40
500.0
100
AcDbArc
 50
271.9653253717347
 51
295.4743694512095
  0
ARC
  5
274
330
19
100
AcDbEntity
  8
4
100
AcDbCircle
 10
636.3673797439978
 20
679.2937557538864
 30
0.0
 40
500.0
100
AcDbArc
 50
66.53863810537607
 51
88.0346746282654
  0
LINE
  5
275
330
19
100
AcDbEntity
  8
L-CENTER
 48
3.0
100
AcDbLine
 10
508.8673797439978
 20
1265.130233718918
 30
0.0
 11
528.8673797439978
 21
1230.489217567541
 31
0.0
  0
LINE
  5
276
330
19
100
AcDbEntity
  8
L-CENTER
 48
3.0
100
AcDbLine
 10
463.2487668675167
 20
1064.293755753886
 30
0.0
 11
662.4757288453238
 21
1064.293755753886
 31
0.0
  0
ARC
  5
277
330
19
100
AcDbEntity
  8
4
100
AcDbCircle
 10
636.3673797439978
 20
679.2937557538864
 30
0.0
 40
500.0
100
AcDbArc
 50
91.96532537173466
 51
113.4613618946239
  0
CIRCLE
  5
278
330
19
100
AcDbEntity
  8
4
100
AcDbCircle
 10
562.8622478564207
 20
1064.293755753886
 30
0.0
 40
85.0
  0
LINE
  5
279
330
19
100
AcDbEntity
  8
L-CENTER
 48
3.0
100
AcDbLine
 10
562.8622478564203
 20
1163.90723674279
 30
0.0
 11
562.8622478564203
 21
964.6802747649829
 31
0.0
  0
LINE
  5
27A
330
19
100
AcDbEntity
  8
L-CENTER
 48
3.0
100
AcDbLine
 10
606.3673797439978
 20
846.2937557538864
 30
0.0
 11
666.3673797439978
 21
846.2937557538864
 31
0.0
  0
ARC
  5
27B
330
19
100
AcDbEntity
  8
4
100
AcDbCircle
 10
636.3673797439978
 20
846.2937557538864
 30
0.0
 40
17.5
100
AcDbArc
 50
106.6015495990202
 51
253.3984504009798
  0
LINE
  5
27C
330
19
100
AcDbEntity
  8
L-CENTER
 48
3.0
100
AcDbLine
 10
606.3673797439978
 20
1242.293755753886
 30
0.0
 11
666.3673797439978
 21
1242.293755753886
 31
0.0
  0
CIRCLE
  5
27D
330
19
100
AcDbEntity
  8
4
100
AcDbCircle
 10
636.3673797439978
 20
1189.293755753887
 30
0.0
 40
20.0
  0
ARC
  5
27E
330
19
100
AcDbEntity
  8
4
100
AcDbCircle
 10
636.3673797439978
 20
1242.293755753886
 30
0.0
 40
17.5
100
AcDbArc
 50
106.6015495990234
 51
253.3984504009766
  0
LINE
  5
27F
330
19
100
AcDbEntity
  8
L-CENTER
 48
3.0
100
AcDbLine
 10
763.8673797439969
 20
1265.130233718918
 30
0.0
 11
743.8673797439969
 21
1230.489217567541
 31
0.0
  0
LINE
  5
280
330
19
100
AcDbEntity
  8
L-CENTER
 48
3.0
100
AcDbLine
 10
733.3673797439969
 20
1122.356163961186
 30
0.0
 11
733.3673797439969
 21
980.2313475465878
 31
0.0
  0
CIRCLE
  5
281
330
19
100
AcDbEntity
  8
4
100
AcDbCircle
 10
636.3673797439974
 20
1044.293755753886
 30
0.0
 40
250.0
  0
CIRCLE
  5
282
330
19
100
AcDbEntity
  8
4
100
AcDbCircle
 10
562.8622478564203
 20
1064.293755753886
 30
0.0
 40
45.0
  0
LINE
  5
283
330
19
100
AcDbEntity
  8
L-CENTER
 48
3.0
100
AcDbLine
 10
501.7238368674271
 20
1125.43216674288
 30
0.0
 11
521.470175573364
 21
1105.685828036942
 31
0.0
  0
CIRCLE
  5
284
330
19
100
AcDbEntity
  8
L-CENTER
 48
3.0
100
AcDbCircle
 10
562.8622478564203
 20
1064.293755753886
 30
0.0
 40
72.5
  0
LINE
  5
285
330
19
100
AcDbEntity
  8
L-CENTER
 48
3.0
100
AcDbLine
 10
614.1277447439975
 20
159.6542032465949
 30
0.0
 11
614.1277447439975
 21
198.1336136835938
 31
0.0
  0
LINE
  5
286
330
19
100
AcDbEntity
  8
4
100
AcDbLine
 10
509.3673797439974
 20
1242.324898085928
 30
0.0
 11
518.8673797439974
 21
1236.840070528627
 31
0.0
  0
LINE
  5
287
330
19
100
AcDbEntity
  8
4
100
AcDbLine
 10
518.8673797439974
 20
1236.840070528627
 30
0.0
 11
528.3673797439974
 21
1242.324898085928
 31
0.0
  0
CIRCLE
  5
288
330
19
100
AcDbEntity
  8
4
100
AcDbCircle
 10
518.8673797439974
 20
1247.80972564323
 30
0.0
 40
9.5
  0
LINE
  5
289
330
19
100
AcDbEntity
  8
4
100
AcDbLine
 10
528.3673797439974
 20
1253.294553200531
 30
0.0
 11
518.8673797439974
 21
1258.779380757833
 31
0.0
  0
LINE
  5
28A
330
19
100
AcDbEntity
  8
4
100
AcDbLine
 10
509.3673797439974
 20
1253.294553200531
 30
0.0
 11
509.3673797439974
 21
1242.324898085928
 31
0.0
  0
LINE
  5
28B
330
19
100
AcDbEntity
  8
4
100
AcDbLine
 10
518.8673797439974
 20
1258.779380757833
 30
0.0
 11
509.3673797439974
 21
1253.294553200531
 31
0.0
  0
LINE
  5
28C
330
19
100
AcDbEntity
  8
4
100
AcDbLine
 10
528.3673797439974
 20
1242.324898085928
 30
0.0
 11
528.3673797439974
 21
1253.294553200531
 31
0.0
  0
LINE
  5
28D
330
19
100
AcDbEntity
  8
4
100
AcDbLine
 10
744.3673797439969
 20
1242.324898085928
 30
0.0
 11
753.8673797439969
 21
1236.840070528627
 31
0.0
  0
LINE
  5
28E
330
19
100
AcDbEntity
  8
4
100
AcDbLine
 10
753.8673797439969
 20
1236.840070528627
 30
0.0
 11
763.3673797439969
 21
1242.324898085928
 31
0.0
  0
CIRCLE
  5
28F
330
19
100
AcDbEntity
  8
4
100
AcDbCircle
 10
753.8673797439969
 20
1247.80972564323
 30
0.0
 40
9.5
  0
LINE
  5
290
330
19
100
AcDbEntity
  8
4
100
AcDbLine
 10
763.3673797439969
 20
1253.294553200532
 30
0.0
 11
753.8673797439969
 21
1258.779380757833
 31
0.0
  0
LINE
  5
291
330
19
100
AcDbEntity
  8
4
100
AcDbLine
 10
744.3673797439969
 20
1253.294553200532
 30
0.0
 11
744.3673797439969
 21
1242.324898085928
 31
0.0
  0
LINE
  5
292
330
19
100
AcDbEntity
  8
4
100
AcDbLine
 10
753.8673797439969
 20
1258.779380757833
 30
0.0
 11
744.3673797439969
 21
1253.294553200532
 31
0.0
  0
LINE
  5
293
330
19
100
AcDbEntity
  8
4
100
AcDbLine
 10
763.3673797439969
 20
1242.324898085928
 30
0.0
 11
763.3673797439969
 21
1253.294553200532
 31
0.0
  0
LINE
  5
294
330
19
100
AcDbEntity
  8
4
100
AcDbLine
 10
861.8673797439974
 20
1038.808928196585
 30
0.0
 11
871.3673797439974
 21
1033.324100639283
 31
0.0
  0
LINE
  5
295
330
19
100
AcDbEntity
  8
4
100
AcDbLine
 10
871.3673797439974
 20
1033.324100639283
 30
0.0
 11
880.8673797439974
 21
1038.808928196585
 31
0.0
  0
CIRCLE
  5
296
330
19
100
AcDbEntity
  8
4
100
AcDbCircle
 10
871.3673797439974
 20
1044.293755753886
 30
0.0
 40
9.5
  0
LINE
  5
297
330
19
100
AcDbEntity
  8
4
100
AcDbLine
 10
880.8673797439974
 20
1049.778583311188
 30
0.0
 11
871.3673797439974
 21
1055.263410868489
 31
0.0
  0
LINE
  5
298
330
19
100
AcDbEntity
  8
4
100
AcDbLine
 10
861.8673797439974
 20
1049.778583311188
 30
0.0
 11
861.8673797439974
 21
1038.808928196585
 31
0.0
  0
LINE
  5
299
330
19
100
AcDbEntity
  8
4
100
AcDbLine
 10
871.3673797439974
 20
1055.263410868489
 30
0.0
 11
861.8673797439974
 21
1049.778583311188
 31
0.0
  0
LINE
  5
29A
330
19
100
AcDbEntity
  8
4
100
AcDbLine
 10
880.8673797439974
 20
1038.808928196585
 30
0.0
 11
880.8673797439974
 21
1049.778583311188
 31
0.0
  0
LINE
  5
29B
330
19
100
AcDbEntity
  8
4
100
AcDbLine
 10
391.8673797439974
 20
1038.808928196585
 30
0.0
 11
401.3673797439974
 21
1033.324100639284
 31
0.0
  0
LINE
  5
29C
330
19
100
AcDbEntity
  8
4
100
AcDbLine
 10
401.3673797439974
 20
1033.324100639284
 30
0.0
 11
410.8673797439974
 21
1038.808928196585
 31
0.0
  0
CIRCLE
  5
29D
330
19
100
AcDbEntity
  8
4
100
AcDbCircle
 10
401.3673797439974
 20
1044.293755753887
 30
0.0
 40
9.5
  0
LINE
  5
29E
330
19
100
AcDbEntity
  8
4
100
AcDbLine
 10
410.8673797439974
 20
1049.778583311188
 30
0.0
 11
401.3673797439974
 21
1055.263410868489
 31
0.0
  0
LINE
  5
29F
330
19
100
AcDbEntity
  8
4
100
AcDbLine
 10
391.8673797439974
 20
1049.778583311188
 30
0.0
 11
391.8673797439974
 21
1038.808928196585
 31
0.0
  0
LINE
  5
2A0
330
19
100
AcDbEntity
  8
4
100
AcDbLine
 10
401.3673797439974
 20
1055.263410868489
 30
0.0
 11
391.8673797439974
 21
1049.778583311188
 31
0.0
  0
LINE
  5
2A1
330
19
100
AcDbEntity
  8
4
100
AcDbLine
 10
410.8673797439974
 20
1038.808928196585
 30
0.0
 11
410.8673797439974
 21
1049.778583311188
 31
0.0
  0
LINE
  5
2A2
330
19
100
AcDbEntity
  8
4
100
AcDbLine
 10
744.3673797439969
 20
835.2929583072416
 30
0.0
 11
753.8673797439969
 21
829.8081307499403
 31
0.0
  0
LINE
  5
2A3
330
19
100
AcDbEntity
  8
4
100
AcDbLine
 10
753.8673797439969
 20
829.8081307499403
 30
0.0
 11
763.3673797439969
 21
835.2929583072416
 31
0.0
  0
CIRCLE
  5
2A4
330
19
100
AcDbEntity
  8
4
100
AcDbCircle
 10
753.8673797439969
 20
840.7777858645434
 30
0.0
 40
9.5
  0
LINE
  5
2A5
330
19
100
AcDbEntity
  8
4
100
AcDbLine
 10
763.3673797439969
 20
846.2626134218447
 30
0.0
 11
753.8673797439969
 21
851.747440979146
 31
0.0
  0
LINE
  5
2A6
330
19
100
AcDbEntity
  8
4
100
AcDbLine
 10
744.3673797439969
 20
846.2626134218447
 30
0.0
 11
744.3673797439969
 21
835.2929583072416
 31
0.0
  0
LINE
  5
2A7
330
19
100
AcDbEntity
  8
4
100
AcDbLine
 10
753.8673797439969
 20
851.747440979146
 30
0.0
 11
744.3673797439969
 21
846.2626134218447
 31
0.0
  0
LINE
  5
2A8
330
19
100
AcDbEntity
  8
4
100
AcDbLine
 10
763.3673797439969
 20
835.2929583072416
 30
0.0
 11
763.3673797439969
 21
846.2626134218447
 31
0.0
  0
LINE
  5
2A9
330
19
100
AcDbEntity
  8
4
100
AcDbLine
 10
509.3673797439974
 20
835.2929583072421
 30
0.0
 11
518.8673797439974
 21
829.8081307499408
 31
0.0
  0
LINE
  5
2AA
330
19
100
AcDbEntity
  8
4
100
AcDbLine
 10
518.8673797439974
 20
829.8081307499408
 30
0.0
 11
528.3673797439974
 21
835.2929583072421
 31
0.0
  0
CIRCLE
  5
2AB
330
19
100
AcDbEntity
  8
4
100
AcDbCircle
 10
518.8673797439974
 20
840.7777858645438
 30
0.0
 40
9.5
  0
LINE
  5
2AC
330
19
100
AcDbEntity
  8
4
100
AcDbLine
 10
528.3673797439974
 20
846.2626134218451
 30
0.0
 11
518.8673797439974
 21
851.7474409791464
 31
0.0
  0
LINE
  5
2AD
330
19
100
AcDbEntity
  8
4
100
AcDbLine
 10
509.3673797439974
 20
846.2626134218451
 30
0.0
 11
509.3673797439974
 21
835.2929583072421
 31
0.0
  0
LINE
  5
2AE
330
19
100
AcDbEntity
  8
4
100
AcDbLine
 10
518.8673797439974
 20
851.7474409791464
 30
0.0
 11
509.3673797439974
 21
846.2626134218451
 31
0.0
  0
LINE
  5
2AF
330
19
100
AcDbEntity
  8
4
100
AcDbLine
 10
528.3673797439974
 20
835.2929583072421
 30
0.0
 11
528.3673797439974
 21
846.2626134218451
 31
0.0
  0
LINE
  5
2B0
330
19
100
AcDbEntity
  8
L-CENTER
 48
3.0
100
AcDbLine
 10
401.3673797439974
 20
397.9674131266997
 30
0.0
 11
401.3673797439974
 21
352.7556442439494
 31
0.0
  0
LINE
  5
2B1
330
19
100
AcDbEntity
  8
4
100
AcDbLine
 10
390.3977246293944
 20
383.3665732465956
 30
0.0
 11
412.3370348586
 21
383.3665732465956
 31
0.0
  0
ARC
  5
2B2
330
19
100
AcDbEntity
  8
4
100
AcDbCircle
 10
409.5946210799493
 20
390.4911943713164
 30
0.0
 40
3.875378875279264
100
AcDbArc
 50
44.955926762744
 51
135.044073237256
  0
LINE
  5
2B3
330
19
100
AcDbEntity
  8
4
100
AcDbLine
 10
409.5946210799493
 20
394.3665732465956
 30
0.0
 11
393.140138408045
 21
394.3665732465956
 31
0.0
  0
LINE
  5
2B4
330
19
100
AcDbEntity
  8
4
100
AcDbLine
 10
390.3977246293944
 20
386.3665732465956
 30
0.0
 11
412.3370348586
 21
386.3665732465956
 31
0.0
  0
LINE
  5
2B5
330
19
100
AcDbEntity
  8
4
100
AcDbLine
 10
406.8522073012987
 20
393.2293923359689
 30
0.0
 11
406.8522073012987
 21
386.3665732465956
 31
0.0
  0
LINE
  5
2B6
330
19
100
AcDbEntity
  8
4
100
AcDbLine
 10
395.8825521866956
 20
393.2293923359689
 30
0.0
 11
395.8825521866956
 21
386.3665732465956
 31
0.0
  0
LINE
  5
2B7
330
19
100
AcDbEntity
  8
4
100
AcDbLine
 10
390.3977246293944
 20
393.2293923359689
 30
0.0
 11
390.3977246293944
 21
383.3665732465956
 31
0.0
  0
ARC
  5
2B8
330
19
100
AcDbEntity
  8
4
100
AcDbCircle
 10
401.3673797439974
 20
380.5708291114188
 30
0.0
 40
13.7957441351769
100
AcDbArc
 50
66.57340249137292
 51
113.4265975086292
  0
ARC
  5
2B9
330
19
100
AcDbEntity
  8
4
100
AcDbCircle
 10
393.140138408045
 20
390.4911943713164
 30
0.0
 40
3.875378875279244
100
AcDbArc
 50
44.955926762744
 51
135.044073237256
  0
LINE
  5
2BA
330
19
100
AcDbEntity
  8
4
100
AcDbLine
 10
412.3370348586
 20
383.3665732465956
 30
0.0
 11
412.3370348586
 21
393.2293923359689
 31
0.0
  0
LINE
  5
2BB
330
19
100
AcDbEntity
  8
L-CENTER
 48
3.0
100
AcDbLine
 10
518.8673797439974
 20
397.9674131266997
 30
0.0
 11
518.8673797439974
 21
352.7556442439494
 31
0.0
  0
LINE
  5
2BC
330
19
100
AcDbEntity
  8
4
100
AcDbLine
 10
507.8977246293944
 20
383.3665732465956
 30
0.0
 11
529.8370348586
 21
383.3665732465956
 31
0.0
  0
ARC
  5
2BD
330
19
100
AcDbEntity
  8
4
100
AcDbCircle
 10
527.0946210799493
 20
390.4911943713164
 30
0.0
 40
3.875378875279264
100
AcDbArc
 50
44.955926762744
 51
135.044073237256
  0
LINE
  5
2BE
330
19
100
AcDbEntity
  8
4
100
AcDbLine
 10
527.0946210799493
 20
394.3665732465956
 30
0.0
 11
510.640138408045
 21
394.3665732465956
 31
0.0
  0
LINE
  5
2BF
330
19
100
AcDbEntity
  8
4
100
AcDbLine
 10
507.8977246293944
 20
386.3665732465956
 30
0.0
 11
529.8370348586
 21
386.3665732465956
 31
0.0
  0
LINE
  5
2C0
330
19
100
AcDbEntity
  8
4
100
AcDbLine
 10
524.3522073012987
 20
393.2293923359689
 30
0.0
 11
524.3522073012987
 21
386.3665732465956
 31
0.0
  0
LINE
  5
2C1
330
19
100
AcDbEntity
  8
4
100
AcDbLine
 10
513.3825521866956
 20
393.2293923359689
 30
0.0
 11
513.3825521866956
 21
386.3665732465956
 31
0.0
  0
LINE
  5
2C2
330
19
100
AcDbEntity
  8
4
100
AcDbLine
 10
507.8977246293944
 20
393.2293923359689
 30
0.0
 11
507.8977246293944
 21
383.3665732465956
 31
0.0
  0
ARC
  5
2C3
330
19
100
AcDbEntity
  8
4
100
AcDbCircle
 10
518.8673797439974
 20
380.5708291114188
 30
0.0
 40
13.7957441351769
100
AcDbArc
 50
66.57340249137077
 51
113.4265975086273
  0
ARC
  5
2C4
330
19
100
AcDbEntity
  8
4
100
AcDbCircle
 10
510.640138408045
 20
390.4911943713164
 30
0.0
 40
3.875378875279244
100
AcDbArc
 50
44.955926762744
 51
135.044073237256
  0
LINE
  5
2C5
330
19
100
AcDbEntity
  8
4
100
AcDbLine
 10
529.8370348586
 20
383.3665732465956
 30
0.0
 11
529.8370348586
 21
393.2293923359689
 31
0.0
  0
LINE
  5
2C6
330
19
100
AcDbEntity
  8
4
100
AcDbLine
 10
507.8977246293944
 20
388.3665732465956
 30
0.0
 11
477.8624997439974
 21
388.3665732465956
 31
0.0
  0
LINE
  5
2C7
330
19
100
AcDbEntity
  8
4
100
AcDbLine
 10
507.8977246293944
 20
388.3665732465956
 30
0.0
 11
477.8624997439974
 21
388.3665732465956
 31
0.0
  0
ARC
  5
2C8
330
19
100
AcDbEntity
  8
4
100
AcDbCircle
 10
879.5946210799498
 20
390.4911943713164
 30
0.0
 40
3.875378875279244
100
AcDbArc
 50
44.955926762744
 51
135.044073237256
  0
LINE
  5
2C9
330
19
100
AcDbEntity
  8
4
100
AcDbLine
 10
882.3370348586004
 20
386.3665732465956
 30
0.0
 11
860.3977246293948
 21
386.3665732465956
 31
0.0
  0
LINE
  5
2CA
330
19
100
AcDbEntity
  8
4
100
AcDbLine
 10
863.1401384080455
 20
394.3665732465956
 30
0.0
 11
879.5946210799498
 21
394.3665732465956
 31
0.0
  0
LINE
  5
2CB
330
19
100
AcDbEntity
  8
4
100
AcDbLine
 10
882.3370348586004
 20
383.3665732465956
 30
0.0
 11
860.3977246293948
 21
383.3665732465956
 31
0.0
  0
LINE
  5
2CC
330
19
100
AcDbEntity
  8
4
100
AcDbLine
 10
882.3370348586004
 20
393.2293923359689
 30
0.0
 11
882.3370348586004
 21
383.3665732465956
 31
0.0
  0
LINE
  5
2CD
330
19
100
AcDbEntity
  8
4
100
AcDbLine
 10
860.3977246293948
 20
383.3665732465956
 30
0.0
 11
860.3977246293948
 21
393.2293923359689
 31
0.0
  0
ARC
  5
2CE
330
19
100
AcDbEntity
  8
4
100
AcDbCircle
 10
871.3673797439974
 20
380.5708291114188
 30
0.0
 40
13.7957441351769
100
AcDbArc
 50
66.57340249137269
 51
113.4265975086273
  0
LINE
  5
2CF
330
19
100
AcDbEntity
  8
4
100
AcDbLine
 10
876.8522073012991
 20
393.2293923359689
 30
0.0
 11
876.8522073012991
 21
386.3665732465956
 31
0.0
  0
LINE
  5
2D0
330
19
100
AcDbEntity
  8
4
100
AcDbLine
 10
865.8825521866961
 20
393.2293923359689
 30
0.0
 11
865.8825521866961
 21
386.3665732465956
 31
0.0
  0
ARC
  5
2D1
330
19
100
AcDbEntity
  8
4
100
AcDbCircle
 10
863.1401384080455
 20
390.4911943713164
 30
0.0
 40
3.875378875279264
100
AcDbArc
 50
44.955926762744
 51
135.044073237256
  0
LINE
  5
2D2
330
19
100
AcDbEntity
  8
L-CENTER
 48
3.0
100
AcDbLine
 10
871.3673797439974
 20
397.9674131266997
 30
0.0
 11
871.3673797439974
 21
352.7556442439494
 31
0.0
  0
LINE
  5
2D3
330
19
100
AcDbEntity
  8
4
100
AcDbLine
 10
764.8370348586004
 20
386.3665732465956
 30
0.0
 11
742.8977246293944
 21
386.3665732465956
 31
0.0
  0
ARC
  5
2D4
330
19
100
AcDbEntity
  8
4
100
AcDbCircle
 10
745.6401384080455
 20
390.4911943713164
 30
0.0
 40
3.875378875279264
100
AcDbArc
 50
44.955926762744
 51
135.0440732372655
  0
LINE
  5
2D5
330
19
100
AcDbEntity
  8
4
100
AcDbLine
 10
764.8370348586004
 20
383.3665732465956
 30
0.0
 11
742.8977246293944
 21
383.3665732465956
 31
0.0
  0
ARC
  5
2D6
330
19
100
AcDbEntity
  8
4
100
AcDbCircle
 10
762.0946210799498
 20
390.4911943713164
 30
0.0
 40
3.875378875279244
100
AcDbArc
 50
44.955926762744
 51
135.044073237256
  0
LINE
  5
2D7
330
19
100
AcDbEntity
  8
4
100
AcDbLine
 10
764.8370348586004
 20
393.2293923359689
 30
0.0
 11
764.8370348586004
 21
383.3665732465956
 31
0.0
  0
ARC
  5
2D8
330
19
100
AcDbEntity
  8
4
100
AcDbCircle
 10
753.8673797439974
 20
380.5708291114188
 30
0.0
 40
13.7957441351769
100
AcDbArc
 50
66.57340249137269
 51
113.4265975086292
  0
LINE
  5
2D9
330
19
100
AcDbEntity
  8
4
100
AcDbLine
 10
759.3522073012991
 20
393.2293923359689
 30
0.0
 11
759.3522073012991
 21
386.3665732465956
 31
0.0
  0
LINE
  5
2DA
330
19
100
AcDbEntity
  8
4
100
AcDbLine
 10
748.3825521866956
 20
393.2293923359689
 30
0.0
 11
748.3825521866956
 21
386.3665732465956
 31
0.0
  0
LINE
  5
2DB
330
19
100
AcDbEntity
  8
4
100
AcDbLine
 10
745.6401384080455
 20
394.3665732465956
 30
0.0
 11
762.0946210799493
 21
394.3665732465956
 31
0.0
  0
LINE
  5
2DC
330
19
100
AcDbEntity
  8
4
100
AcDbLine
 10
742.8977246293944
 20
383.3665732465956
 30
0.0
 11
742.8977246293944
 21
393.2293923359689
 31
0.0
  0
LINE
  5
2DD
330
19
100
AcDbEntity
  8
L-CENTER
 48
3.0
100
AcDbLine
 10
753.8673797439969
 20
397.9674131266997
 30
0.0
 11
753.8673797439969
 21
352.7556442439494
 31
0.0
  0
LINE
  5
2DE
330
19
100
AcDbEntity
  8
4
100
AcDbLine
 10
742.8977246293944
 20
390.3665732465952
 30
0.0
 11
673.3673797439978
 21
390.3665732465952
 31
0.0
  0
LINE
  5
2DF
330
19
100
AcDbEntity
  8
4
100
AcDbLine
 10
764.8370348586
 20
391.3665732465956
 30
0.0
 11
773.3673797439974
 21
391.3665732465956
 31
0.0
  0
LINE
  5
2E0
330
19
100
AcDbEntity
  8
4
100
AcDbLine
 10
764.8370348586004
 20
390.3665732465952
 30
0.0
 11
793.3673797439974
 21
390.3665732465952
 31
0.0
  0
LINE
  5
2E1
330
19
100
AcDbEntity
  8
L-CENTER
 48
3.0
100
AcDbLine
 10
1447.802194743997
 20
397.1653677759291
 30
0.0
 11
1447.802194743997
 21
162.966573246595
 31
0.0
  0
ARC
  5
2E2
330
19
100
AcDbEntity
  8
4
100
AcDbCircle
 10
1244.286224854654
 20
380.5708291114188
 30
0.0
 40
13.7957441351769
100
AcDbArc
 50
66.57340249137269
 51
113.4265975086273
  0
LINE
  5
2E3
330
19
100
AcDbEntity
  8
4
100
AcDbLine
 10
1255.255879969257
 20
383.3665732465956
 30
0.0
 11
1233.316569740052
 21
383.3665732465956
 31
0.0
  0
LINE
  5
2E4
330
19
100
AcDbEntity
  8
4
100
AcDbLine
 10
1236.058983518702
 20
394.3665732465956
 30
0.0
 11
1252.513466190607
 21
394.3665732465956
 31
0.0
  0
LINE
  5
2E5
330
19
100
AcDbEntity
  8
4
100
AcDbLine
 10
1255.255879969257
 20
386.3665732465956
 30
0.0
 11
1233.316569740052
 21
386.3665732465956
 31
0.0
  0
ARC
  5
2E6
330
19
100
AcDbEntity
  8
4
100
AcDbCircle
 10
1236.058983518702
 20
390.4911943713164
 30
0.0
 40
3.875378875279264
100
AcDbArc
 50
44.95592676274638
 51
135.0440732372536
  0
LINE
  5
2E7
330
19
100
AcDbEntity
  8
4
100
AcDbLine
 10
1238.801397297353
 20
393.2293923359689
 30
0.0
 11
1238.801397297353
 21
386.3665732465956
 31
0.0
  0
LINE
  5
2E8
330
19
100
AcDbEntity
  8
4
100
AcDbLine
 10
1233.316569740052
 20
383.3665732465956
 30
0.0
 11
1233.316569740052
 21
393.2293923359689
 31
0.0
  0
LINE
  5
2E9
330
19
100
AcDbEntity
  8
4
100
AcDbLine
 10
1249.771052411956
 20
393.2293923359689
 30
0.0
 11
1249.771052411956
 21
386.3665732465956
 31
0.0
  0
LINE
  5
2EA
330
19
100
AcDbEntity
  8
4
100
AcDbLine
 10
1255.255879969257
 20
393.2293923359689
 30
0.0
 11
1255.255879969257
 21
383.3665732465956
 31
0.0
  0
ARC
  5
2EB
330
19
100
AcDbEntity
  8
4
100
AcDbCircle
 10
1252.513466190607
 20
390.4911943713164
 30
0.0
 40
3.875378875279244
100
AcDbArc
 50
44.95592676274519
 51
135.0440732372548
  0
LINE
  5
2EC
330
19
100
AcDbEntity
  8
L-CENTER
 48
3.0
100
AcDbLine
 10
1244.286224854654
 20
397.9674131266997
 30
0.0
 11
1244.286224854654
 21
352.7556442439494
 31
0.0
  0
LINE
  5
2ED
330
19
100
AcDbEntity
  8
4
100
AcDbLine
 10
1233.316569740052
 20
384.1956732465956
 30
0.0
 11
1232.302194743997
 21
384.1956732465956
 31
0.0
  0
LINE
  5
2EE
330
19
100
AcDbEntity
  8
4
100
AcDbLine
 10
1640.348509518738
 20
386.3665732465956
 30
0.0
 11
1662.287819747943
 21
386.3665732465956
 31
0.0
  0
LINE
  5
2EF
330
19
100
AcDbEntity
  8
4
100
AcDbLine
 10
1659.545405969292
 20
394.3665732465956
 30
0.0
 11
1643.090923297388
 21
394.3665732465956
 31
0.0
  0
LINE
  5
2F0
330
19
100
AcDbEntity
  8
4
100
AcDbLine
 10
1640.348509518738
 20
383.3665732465956
 30
0.0
 11
1662.287819747943
 21
383.3665732465956
 31
0.0
  0
ARC
  5
2F1
330
19
100
AcDbEntity
  8
4
100
AcDbCircle
 10
1651.318164633341
 20
380.5708291114188
 30
0.0
 40
13.7957441351769
100
AcDbArc
 50
66.57340249137269
 51
113.4265975086273
  0
LINE
  5
2F2
330
19
100
AcDbEntity
  8
4
100
AcDbLine
 10
1662.287819747943
 20
383.3665732465956
 30
0.0
 11
1662.287819747943
 21
393.2293923359689
 31
0.0
  0
LINE
  5
2F3
330
19
100
AcDbEntity
  8
4
100
AcDbLine
 10
1656.802992190642
 20
393.2293923359689
 30
0.0
 11
1656.802992190642
 21
386.3665732465956
 31
0.0
  0
ARC
  5
2F4
330
19
100
AcDbEntity
  8
4
100
AcDbCircle
 10
1659.545405969292
 20
390.4911943713164
 30
0.0
 40
3.875378875279264
100
AcDbArc
 50
44.95592676274638
 51
135.0440732372536
  0
ARC
  5
2F5
330
19
100
AcDbEntity
  8
4
100
AcDbCircle
 10
1643.090923297388
 20
390.4911943713164
 30
0.0
 40
3.875378875279244
100
AcDbArc
 50
44.95592676274519
 51
135.0440732372548
  0
LINE
  5
2F6
330
19
100
AcDbEntity
  8
4
100
AcDbLine
 10
1640.348509518738
 20
393.2293923359689
 30
0.0
 11
1640.348509518738
 21
383.3665732465956
 31
0.0
  0
LINE
  5
2F7
330
19
100
AcDbEntity
  8
4
100
AcDbLine
 10
1645.833337076039
 20
393.2293923359689
 30
0.0
 11
1645.833337076039
 21
386.3665732465956
 31
0.0
  0
LINE
  5
2F8
330
19
100
AcDbEntity
  8
L-CENTER
 48
3.0
100
AcDbLine
 10
1651.318164633341
 20
397.9674131266997
 30
0.0
 11
1651.318164633341
 21
352.7556442439494
 31
0.0
  0
LINE
  5
2F9
330
19
100
AcDbEntity
  8
4
100
AcDbLine
 10
1640.348509518737
 20
384.1956732465956
 30
0.0
 11
1628.302194743997
 21
384.1956732465956
 31
0.0
  0
LINE
  5
2FA
330
19
100
AcDbEntity
  8
4
100
AcDbLine
 10
1439.574953408046
 20
394.3665732465956
 30
0.0
 11
1456.02943607995
 21
394.3665732465956
 31
0.0
  0
ARC
  5
2FB
330
19
100
AcDbEntity
  8
4
100
AcDbCircle
 10
1456.02943607995
 20
390.4911943713164
 30
0.0
 40
3.875378875279244
100
AcDbArc
 50
44.95592676274519
 51
135.0440732372548
  0
LINE
  5
2FC
330
19
100
AcDbEntity
  8
4
100
AcDbLine
 10
1458.7718498586
 20
383.3665732465956
 30
0.0
 11
1436.832539629395
 21
383.3665732465956
 31
0.0
  0
LINE
  5
2FD
330
19
100
AcDbEntity
  8
4
100
AcDbLine
 10
1458.7718498586
 20
386.3665732465956
 30
0.0
 11
1436.832539629395
 21
386.3665732465956
 31
0.0
  0
LINE
  5
2FE
330
19
100
AcDbEntity
  8
4
100
AcDbLine
 10
1436.832539629395
 20
383.3665732465956
 30
0.0
 11
1436.832539629395
 21
393.2293923359689
 31
0.0
  0
LINE
  5
2FF
330
19
100
AcDbEntity
  8
4
100
AcDbLine
 10
1442.317367186696
 20
393.2293923359689
 30
0.0
 11
1442.317367186696
 21
386.3665732465956
 31
0.0
  0
LINE
  5
300
330
19
100
AcDbEntity
  8
4
100
AcDbLine
 10
1453.287022301299
 20
393.2293923359689
 30
0.0
 11
1453.287022301299
 21
386.3665732465956
 31
0.0
  0
ARC
  5
301
330
19
100
AcDbEntity
  8
4
100
AcDbCircle
 10
1447.802194743997
 20
380.5708291114188
 30
0.0
 40
13.7957441351769
100
AcDbArc
 50
66.57340249137269
 51
113.4265975086273
  0
ARC
  5
302
330
19
100
AcDbEntity
  8
4
100
AcDbCircle
 10
1439.574953408046
 20
390.4911943713164
 30
0.0
 40
3.875378875279264
100
AcDbArc
 50
44.95592676274638
 51
135.0440732372536
  0
LINE
  5
303
330
19
100
AcDbEntity
  8
4
100
AcDbLine
 10
1458.7718498586
 20
393.2293923359689
 30
0.0
 11
1458.7718498586
 21
383.3665732465956
 31
0.0
  0
LINE
  5
304
330
19
100
AcDbEntity
  8
4
100
AcDbLine
 10
1436.832539629395
 20
390.3665732465952
 30
0.0
 11
1394.802194743997
 21
390.3665732465952
 31
0.0
  0
LINE
  5
305
330
19
100
AcDbEntity
  8
4
100
AcDbLine
 10
1436.832539629395
 20
391.3665732465956
 30
0.0
 11
1414.802194743997
 21
391.3665732465956
 31
0.0
  0
ARC
  5
306
330
19
100
AcDbEntity
  8
4
100
AcDbCircle
 10
636.3673797439978
 20
866.2937557538864
 30
0.0
 40
5.0
100
AcDbArc
 50
0.0
 51
180.0
  0
ARC
  5
307
330
19
100
AcDbEntity
  8
4
100
AcDbCircle
 10
636.3673797439978
 20
846.2937557538864
 30
0.0
 40
11.0
100
AcDbArc
 50
297.0356917894122
 51
62.96430821058779
  0
ARC
  5
308
330
19
100
AcDbEntity
  8
4
100
AcDbCircle
 10
636.3673797439978
 20
846.2937557538864
 30
0.0
 40
12.5
100
AcDbArc
 50
293.5781784782019
 51
66.42182152179805
  0
ARC
  5
309
330
19
100
AcDbEntity
  8
4
100
AcDbCircle
 10
636.3673797439978
 20
846.2937557538864
 30
0.0
 40
12.5
100
AcDbArc
 50
113.578178478202
 51
246.421821521798
  0
ARC
  5
30A
330
19
100
AcDbEntity
  8
4
100
AcDbCircle
 10
636.3673797439978
 20
846.2937557538864
 30
0.0
 40
11.0
100
AcDbArc
 50
117.0356917894122
 51
242.9643082105877
  0
ARC
  5
30B
330
19
100
AcDbEntity
  8
4
100
AcDbCircle
 10
636.3673797439978
 20
826.2937557538864
 30
0.0
 40
5.0
100
AcDbArc
 50
180.0
 51
0.0
  0
LINE
  5
30C
330
19
100
AcDbEntity
  8
4
100
AcDbLine
 10
631.3673797439978
 20
826.2937557538864
 30
0.0
 11
631.3673797439978
 21
866.2937557538864
 31
0.0
  0
LINE
  5
30D
330
19
100
AcDbEntity
  8
4
100
AcDbLine
 10
641.3673797439978
 20
826.2937557538864
 30
0.0
 11
641.3673797439978
 21
866.2937557538864
 31
0.0
  0
ARC
  5
30E
330
19
100
AcDbEntity
  8
4
100
AcDbCircle
 10
636.3673797439969
 20
1262.293755753886
 30
0.0
 40
5.0
100
AcDbArc
 50
0.0
 51
180.0
  0
ARC
  5
30F
330
19
100
AcDbEntity
  8
4
100
AcDbCircle
 10
636.3673797439969
 20
1242.293755753886
 30
0.0
 40
11.0
100
AcDbArc
 50
297.035691789414
 51
62.96430821058594
  0
ARC
  5
310
330
19
100
AcDbEntity
  8
4
100
AcDbCircle
 10
636.3673797439969
 20
1242.293755753886
 30
0.0
 40
12.5
100
AcDbArc
 50
293.5781784782038
 51
66.42182152179615
  0
ARC
  5
311
330
19
100
AcDbEntity
  8
4
100
AcDbCircle
 10
636.3673797439969
 20
1242.293755753886
 30
0.0
 40
12.5
100
AcDbArc
 50
113.578178478202
 51
246.421821521798
  0
ARC
  5
312
330
19
100
AcDbEntity
  8
4
100
AcDbCircle
 10
636.3673797439969
 20
1242.293755753886
 30
0.0
 40
11.0
100
AcDbArc
 50
117.0356917894125
 51
242.9643082105875
  0
ARC
  5
313
330
19
100
AcDbEntity
  8
4
100
AcDbCircle
 10
636.3673797439969
 20
1222.293755753886
 30
0.0
 40
5.0
100
AcDbArc
 50
180.0
 51
0.0
  0
LINE
  5
314
330
19
100
AcDbEntity
  8
4
100
AcDbLine
 10
631.3673797439969
 20
1222.293755753886
 30
0.0
 11
631.3673797439969
 21
1262.293755753886
 31
0.0
  0
LINE
  5
315
330
19
100
AcDbEntity
  8
4
100
AcDbLine
 10
641.3673797439969
 20
1222.293755753886
 30
0.0
 11
641.3673797439969
 21
1262.293755753886
 31
0.0
  0
ARC
  5
316
330
19
100
AcDbEntity
  8
4
100
AcDbCircle
 10
636.3673797439978
 20
846.2937557538864
 30
0.0
 40
17.5
100
AcDbArc
 50
286.6015495990202
 51
73.39845040097977
  0
ARC
  5
317
330
19
100
AcDbEntity
  8
4
100
AcDbCircle
 10
636.3673797439974
 20
1044.293755753887
 30
0.0
 40
220.0
100
AcDbArc
 50
91.19894874191412
 51
268.8010512580859
  0
ARC
  5
318
330
19
100
AcDbEntity
  8
4
100
AcDbCircle
 10
636.3673797439978
 20
1242.293755753886
 30
0.0
 40
17.5
100
AcDbArc
 50
286.6015495990171
 51
73.39845040098295
  0
LINE
  5
319
330
19
100
AcDbEntity
  8
4
100
AcDbLine
 10
904.3673797439969
 20
1239.293755753886
 30
0.0
 11
904.3673797439969
 21
1159.293755753886
 31
0.0
  0
LINE
  5
31A
330
19
100
AcDbEntity
  8
4
100
AcDbLine
 10
903.3673797439969
 20
1159.293755753886
 30
0.0
 11
904.3673797439969
 21
1159.293755753886
 31
0.0
  0
LINE
  5
31B
330
19
100
AcDbEntity
  8
4
100
AcDbLine
 10
903.3673797439969
 20
1239.293755753886
 30
0.0
 11
904.3673797439969
 21
1239.293755753886
 31
0.0
  0
LINE
  5
31C
330
19
100
AcDbEntity
  8
4
100
AcDbLine
 10
368.3673797439974
 20
1239.293755753886
 30
0.0
 11
368.3673797439974
 21
1159.293755753886
 31
0.0
  0
LINE
  5
31D
330
19
100
AcDbEntity
  8
4
100
AcDbLine
 10
369.3673797439969
 20
1159.293755753886
 30
0.0
 11
368.3673797439974
 21
1159.293755753886
 31
0.0
  0
LINE
  5
31E
330
19
100
AcDbEntity
  8
4
100
AcDbLine
 10
369.3673797439969
 20
1239.293755753886
 30
0.0
 11
368.3673797439974
 21
1239.293755753886
 31
0.0
  0
LINE
  5
330
330
19
100
AcDbEntity
  8
4
100
AcDbLine
 10
649.3577608007636
 20
1317.793755753885
 30
0.0
 11
623.3769986872303
 21
1317.793755753885
 31
0.0
  0
LINE
  5
331
330
19
100
AcDbEntity
  8
4
100
AcDbLine
 10
650.3673797439969
 20
1309.293755753885
 30
0.0
 11
622.3673797439969
 21
1309.293755753885
 31
0.0
  0
LINE
  5
332
330
19
100
AcDbEntity
  8
4
100
AcDbLine
 10
651.3673797439969
 20
1312.793755753885
 30
0.0
 11
621.3673797439969
 21
1312.793755753885
 31
0.0
  0
LINE
  5
333
330
19
100
AcDbEntity
  8
4
100
AcDbLine
 10
651.3673797439969
 20
1310.793755753885
 30
0.0
 11
621.3673797439969
 21
1310.793755753885
 31
0.0
  0
LINE
  5
334
330
19
100
AcDbEntity
  8
4
100
AcDbLine
 10
651.3673797439969
 20
1310.793755753885
 30
0.0
 11
651.3673797439969
 21
1312.793755753885
 31
0.0
  0
LINE
  5
335
330
19
100
AcDbEntity
  8
4
100
AcDbLine
 10
650.3673797439969
 20
1310.793755753885
 30
0.0
 11
650.3673797439969
 21
1309.293755753885
 31
0.0
  0
LINE
  5
336
330
19
100
AcDbEntity
  8
4
100
AcDbLine
 10
649.3577608007636
 20
1317.793755753885
 30
0.0
 11
649.3577608007636
 21
1312.793755753885
 31
0.0
  0
LINE
  5
337
330
19
100
AcDbEntity
  8
4
100
AcDbLine
 10
621.3673797439969
 20
1312.793755753885
 30
0.0
 11
621.3673797439969
 21
1310.793755753885
 31
0.0
  0
LINE
  5
338
330
19
100
AcDbEntity
  8
4
100
AcDbLine
 10
622.3673797439969
 20
1310.793755753885
 30
0.0
 11
622.3673797439969
 21
1309.293755753885
 31
0.0
  0
LINE
  5
339
330
19
100
AcDbEntity
  8
4
100
AcDbLine
 10
623.3769986872303
 20
1317.793755753885
 30
0.0
 11
623.3769986872303
 21
1312.793755753885
 31
0.0
  0
ARC
  5
33A
330
19
100
AcDbEntity
  8
4
100
AcDbCircle
 10
562.8622478564203
 20
1064.293755753886
 30
0.0
 40
31.0
100
AcDbArc
 50
286.8772694386292
 51
253.1227310000007
  0
LINE
  5
33B
330
19
100
AcDbEntity
  8
4
100
AcDbLine
 10
571.8622478564203
 20
1039.293755753886
 30
0.0
 11
553.8622478564203
 21
1039.293755753886
 31
0.0
  0
LINE
  5
33C
330
19
100
AcDbEntity
  8
4
100
AcDbLine
 10
571.8622478564203
 20
1027.293755753887
 30
0.0
 11
553.8622478564203
 21
1027.293755753887
 31
0.0
  0
LINE
  5
33D
330
19
100
AcDbEntity
  8
4
100
AcDbLine
 10
571.8622478564203
 20
1027.293755753887
 30
0.0
 11
571.8622478564203
 21
1039.293755753886
 31
0.0
  0
LINE
  5
33E
330
19
100
AcDbEntity
  8
4
100
AcDbLine
 10
553.8622478564203
 20
1027.293755753887
 30
0.0
 11
553.8622478564203
 21
1039.293755753886
 31
0.0
  0
LINE
  5
33F
330
19
100
AcDbEntity
  8
4
100
AcDbLine
 10
504.3472547439974
 20
401.3665732465961
 30
0.0
 11
518.8673797439974
 21
401.3665732465961
 31
0.0
  0
LINE
  5
340
330
19
100
AcDbEntity
  8
4
100
AcDbLine
 10
505.0972547439974
 20
409.3665732465961
 30
0.0
 11
518.0972547439974
 21
409.3665732465961
 31
0.0
  0
LINE
  5
341
330
19
100
AcDbEntity
  8
4
100
AcDbLine
 10
518.8472547439974
 20
401.3665732465961
 30
0.0
 11
518.8472547439974
 21
399.3665732465961
 31
0.0
  0
LINE
  5
342
330
19
100
AcDbEntity
  8
4
100
AcDbLine
 10
504.3472547439974
 20
401.3665732465961
 30
0.0
 11
504.3472547439974
 21
399.3665732465961
 31
0.0
  0
LINE
  5
343
330
19
100
AcDbEntity
  8
4
100
AcDbLine
 10
518.0972547439974
 20
409.3665732465961
 30
0.0
 11
518.0972547439974
 21
401.3665732465961
 31
0.0
  0
LINE
  5
344
330
19
100
AcDbEntity
  8
4
100
AcDbLine
 10
505.0972547439974
 20
409.3665732465961
 30
0.0
 11
505.0972547439974
 21
401.3665732465961
 31
0.0
  0
LINE
  5
345
330
19
100
AcDbEntity
  8
2
100
AcDbLine
 10
511.5972547439974
 20
399.3665732465961
 30
0.0
 11
513.5972547439974
 21
401.3665732465961
 31
0.0
  0
LINE
  5
346
330
19
100
AcDbEntity
  8
2
100
AcDbLine
 10
508.7688276192512
 20
399.3665732465961
 30
0.0
 11
510.7688276192512
 21
401.3665732465961
 31
0.0
  0
LINE
  5
347
330
19
100
AcDbEntity
  8
2
100
AcDbLine
 10
616.9561718687437
 20
399.3665732465961
 30
0.0
 11
614.9561718687437
 21
401.3665732465961
 31
0.0
  0
LINE
  5
348
330
19
100
AcDbEntity
  8
4
100
AcDbLine
 10
621.3777447439975
 20
401.3665732465961
 30
0.0
 11
606.857619743997
 21
401.3665732465961
 31
0.0
  0
LINE
  5
349
330
19
100
AcDbEntity
  8
4
100
AcDbLine
 10
620.6277447439975
 20
409.3665732465961
 30
0.0
 11
607.6277447439975
 21
409.3665732465961
 31
0.0
  0
LINE
  5
34A
330
19
100
AcDbEntity
  8
4
100
AcDbLine
 10
621.3777447439975
 20
401.3665732465961
 30
0.0
 11
621.3777447439975
 21
399.3665732465961
 31
0.0
  0
LINE
  5
34B
330
19
100
AcDbEntity
  8
4
100
AcDbLine
 10
620.6277447439975
 20
409.3665732465961
 30
0.0
 11
620.6277447439975
 21
401.3665732465961
 31
0.0
  0
LINE
  5
34C
330
19
100
AcDbEntity
  8
2
100
AcDbLine
 10
614.1277447439975
 20
399.3665732465961
 30
0.0
 11
612.1277447439975
 21
401.3665732465961
 31
0.0
  0
LINE
  5
34D
330
19
100
AcDbEntity
  8
4
100
AcDbLine
 10
606.8777447439975
 20
401.3665732465961
 30
0.0
 11
606.8777447439975
 21
399.3665732465961
 31
0.0
  0
LINE
  5
34E
330
19
100
AcDbEntity
  8
4
100
AcDbLine
 10
607.6277447439975
 20
409.3665732465961
 30
0.0
 11
607.6277447439975
 21
401.3665732465961
 31
0.0
  0
LINE
  5
34F
330
19
100
AcDbEntity
  8
L-CENTER
 48
3.0
100
AcDbLine
 10
614.1277447439975
 20
412.6789432465962
 30
0.0
 11
614.1277447439975
 21
371.8935058299479
 31
0.0
  0
LINE
  5
350
330
19
100
AcDbEntity
  8
4
100
AcDbLine
 10
620.6277447439975
 20
162.966573246595
 30
0.0
 11
620.6277447439975
 21
170.9665732465951
 31
0.0
  0
LINE
  5
351
330
19
100
AcDbEntity
  8
4
100
AcDbLine
 10
621.3777447439975
 20
170.966573246595
 30
0.0
 11
621.3777447439975
 21
172.9665732465952
 31
0.0
  0
LINE
  5
352
330
19
100
AcDbEntity
  8
2
100
AcDbLine
 10
614.1277447439975
 20
172.9665732465951
 30
0.0
 11
616.1277447439975
 21
170.9665732465951
 31
0.0
  0
LINE
  5
353
330
19
100
AcDbEntity
  8
4
100
AcDbLine
 10
607.6277447439975
 20
162.966573246595
 30
0.0
 11
607.6277447439975
 21
170.9665732465951
 31
0.0
  0
LINE
  5
354
330
19
100
AcDbEntity
  8
4
100
AcDbLine
 10
606.8777447439975
 20
170.9665732465951
 30
0.0
 11
606.8777447439975
 21
172.9665732465951
 31
0.0
  0
LINE
  5
355
330
19
100
AcDbEntity
  8
4
100
AcDbLine
 10
607.6277447439975
 20
162.966573246595
 30
0.0
 11
620.6277447439975
 21
162.966573246595
 31
0.0
  0
LINE
  5
356
330
19
100
AcDbEntity
  8
4
100
AcDbLine
 10
606.8777447439975
 20
170.9665732465951
 30
0.0
 11
621.3978697439975
 21
170.9665732465951
 31
0.0
  0
LINE
  5
357
330
19
100
AcDbEntity
  8
2
100
AcDbLine
 10
611.2993176192513
 20
172.9665732465951
 30
0.0
 11
613.2993176192513
 21
170.9665732465951
 31
0.0
  0
LINE
  5
358
330
19
100
AcDbEntity
  8
4
100
AcDbLine
 10
1409.286949743997
 20
401.3665732465961
 30
0.0
 11
1423.807074743998
 21
401.3665732465961
 31
0.0
  0
LINE
  5
359
330
19
100
AcDbEntity
  8
4
100
AcDbLine
 10
1410.036949743997
 20
409.3665732465961
 30
0.0
 11
1423.036949743997
 21
409.3665732465961
 31
0.0
  0
LINE
  5
35A
330
19
100
AcDbEntity
  8
4
100
AcDbLine
 10
1423.786949743997
 20
401.3665732465961
 30
0.0
 11
1423.786949743997
 21
399.3665732465961
 31
0.0
  0
LINE
  5
35B
330
19
100
AcDbEntity
  8
4
100
AcDbLine
 10
1423.036949743997
 20
409.3665732465961
 30
0.0
 11
1423.036949743997
 21
401.3665732465961
 31
0.0
  0
LINE
  5
35C
330
19
100
AcDbEntity
  8
4
100
AcDbLine
 10
1410.036949743997
 20
409.3665732465961
 30
0.0
 11
1410.036949743997
 21
401.3665732465961
 31
0.0
  0
LINE
  5
35D
330
19
100
AcDbEntity
  8
2
100
AcDbLine
 10
1413.708522619251
 20
399.3665732465961
 30
0.0
 11
1415.708522619251
 21
401.3665732465961
 31
0.0
  0
LINE
  5
35E
330
19
100
AcDbEntity
  8
4
100
AcDbLine
 10
1409.286949743997
 20
401.3665732465961
 30
0.0
 11
1409.286949743997
 21
399.3665732465961
 31
0.0
  0
LINE
  5
35F
330
19
100
AcDbEntity
  8
2
100
AcDbLine
 10
1416.536949743997
 20
399.3665732465961
 30
0.0
 11
1418.536949743997
 21
401.3665732465961
 31
0.0
  0
LINE
  5
360
330
19
100
AcDbEntity
  8
L-CENTER
 48
3.0
100
AcDbLine
 10
1416.536949743997
 20
412.6789432465962
 30
0.0
 11
1416.536949743997
 21
371.8935058299479
 31
0.0
  0
LINE
  5
361
330
19
100
AcDbEntity
  8
2
100
AcDbLine
 10
1519.067439743998
 20
399.3665732465961
 30
0.0
 11
1517.067439743998
 21
401.3665732465961
 31
0.0
  0
LINE
  5
362
330
19
100
AcDbEntity
  8
4
100
AcDbLine
 10
1525.567439743998
 20
409.3665732465961
 30
0.0
 11
1512.567439743998
 21
409.3665732465961
 31
0.0
  0
LINE
  5
363
330
19
100
AcDbEntity
  8
4
100
AcDbLine
 10
1526.317439743998
 20
401.3665732465961
 30
0.0
 11
1511.797314743997
 21
401.3665732465961
 31
0.0
  0
LINE
  5
364
330
19
100
AcDbEntity
  8
4
100
AcDbLine
 10
1526.317439743998
 20
401.3665732465961
 30
0.0
 11
1526.317439743998
 21
399.3665732465961
 31
0.0
  0
LINE
  5
365
330
19
100
AcDbEntity
  8
2
100
AcDbLine
 10
1521.895866868744
 20
399.3665732465961
 30
0.0
 11
1519.895866868744
 21
401.3665732465961
 31
0.0
  0
LINE
  5
366
330
19
100
AcDbEntity
  8
4
100
AcDbLine
 10
1525.567439743998
 20
409.3665732465961
 30
0.0
 11
1525.567439743998
 21
401.3665732465961
 31
0.0
  0
LINE
  5
367
330
19
100
AcDbEntity
  8
4
100
AcDbLine
 10
1512.567439743998
 20
409.3665732465961
 30
0.0
 11
1512.567439743998
 21
401.3665732465961
 31
0.0
  0
LINE
  5
368
330
19
100
AcDbEntity
  8
4
100
AcDbLine
 10
1511.817439743998
 20
401.3665732465961
 30
0.0
 11
1511.817439743998
 21
399.3665732465961
 31
0.0
  0
LINE
  5
369
330
19
100
AcDbEntity
  8
L-CENTER
 48
3.0
100
AcDbLine
 10
1519.067439743998
 20
412.6789432465962
 30
0.0
 11
1519.067439743998
 21
371.8935058299479
 31
0.0
  0
LINE
  5
36A
330
19
100
AcDbEntity
  8
4
100
AcDbLine
 10
1512.567439743998
 20
162.966573246595
 30
0.0
 11
1512.567439743998
 21
170.9665732465951
 31
0.0
  0
LINE
  5
36B
330
19
100
AcDbEntity
  8
4
100
AcDbLine
 10
1511.817439743998
 20
170.9665732465951
 30
0.0
 11
1511.817439743998
 21
172.9665732465951
 31
0.0
  0
LINE
  5
36C
330
19
100
AcDbEntity
  8
4
100
AcDbLine
 10
1512.567439743998
 20
162.966573246595
 30
0.0
 11
1525.567439743998
 21
162.966573246595
 31
0.0
  0
LINE
  5
36D
330
19
100
AcDbEntity
  8
4
100
AcDbLine
 10
1511.817439743998
 20
170.9665732465951
 30
0.0
 11
1526.337564743998
 21
170.9665732465951
 31
0.0
  0
LINE
  5
36E
330
19
100
AcDbEntity
  8
4
100
AcDbLine
 10
1525.567439743998
 20
162.966573246595
 30
0.0
 11
1525.567439743998
 21
170.9665732465951
 31
0.0
  0
LINE
  5
36F
330
19
100
AcDbEntity
  8
4
100
AcDbLine
 10
1526.317439743998
 20
170.966573246595
 30
0.0
 11
1526.317439743998
 21
172.9665732465952
 31
0.0
  0
LINE
  5
370
330
19
100
AcDbEntity
  8
L-CENTER
 48
3.0
100
AcDbLine
 10
1519.067439743998
 20
159.6542032465949
 30
0.0
 11
1519.067439743998
 21
198.1336136835938
 31
0.0
  0
LINE
  5
371
330
19
100
AcDbEntity
  8
4
100
AcDbLine
 10
1423.786949743997
 20
170.9665732465951
 30
0.0
 11
1409.266824743997
 21
170.9665732465951
 31
0.0
  0
LINE
  5
372
330
19
100
AcDbEntity
  8
4
100
AcDbLine
 10
1423.036949743997
 20
162.966573246595
 30
0.0
 11
1410.036949743997
 21
162.966573246595
 31
0.0
  0
LINE
  5
373
330
19
100
AcDbEntity
  8
4
100
AcDbLine
 10
1423.786949743997
 20
170.9665732465951
 30
0.0
 11
1423.786949743997
 21
172.9665732465951
 31
0.0
  0
LINE
  5
374
330
19
100
AcDbEntity
  8
4
100
AcDbLine
 10
1423.036949743997
 20
162.966573246595
 30
0.0
 11
1423.036949743997
 21
170.9665732465951
 31
0.0
  0
LINE
  5
375
330
19
100
AcDbEntity
  8
4
100
AcDbLine
 10
1409.286949743997
 20
170.966573246595
 30
0.0
 11
1409.286949743997
 21
172.9665732465952
 31
0.0
  0
LINE
  5
376
330
19
100
AcDbEntity
  8
4
100
AcDbLine
 10
1410.036949743997
 20
162.966573246595
 30
0.0
 11
1410.036949743997
 21
170.9665732465951
 31
0.0
  0
LINE
  5
377
330
19
100
AcDbEntity
  8
L-CENTER
 48
3.0
100
AcDbLine
 10
1416.536949743997
 20
159.6542032465949
 30
0.0
 11
1416.536949743997
 21
198.1336136835938
 31
0.0
  0
CIRCLE
  5
378
330
19
100
AcDbEntity
  8
4
100
AcDbCircle
 10
511.5970062203955
 20
1115.558997389911
 30
0.0
 40
7.25
  0
CIRCLE
  5
379
330
19
100
AcDbEntity
  8
4
100
AcDbCircle
 10
511.5970062203955
 20
1115.558997389911
 30
0.0
 40
6.5
  0
LINE
  5
37A
330
19
100
AcDbEntity
  8
2
100
AcDbLine
 10
509.147516477612
 20
1118.008487132695
 30
0.0
 11
512.4935816925636
 21
1118.905062604863
 31
0.0
  0
LINE
  5
37B
330
19
100
AcDbEntity
  8
2
100
AcDbLine
 10
510.7004307482271
 20
1112.21293217496
 30
0.0
 11
514.0464959631781
 21
1113.109507647128
 31
0.0
  0
LINE
  5
37C
330
19
100
AcDbEntity
  8
2
100
AcDbLine
 10
512.4935816925636
 20
1118.905062604863
 30
0.0
 11
514.9430714353466
 21
1116.45557286208
 31
0.0
  0
LINE
  5
37D
330
19
100
AcDbEntity
  8
2
100
AcDbLine
 10
508.250941005444
 20
1114.662421917743
 30
0.0
 11
510.7004307482271
 21
1112.21293217496
 31
0.0
  0
LINE
  5
37E
330
19
100
AcDbEntity
  8
2
100
AcDbLine
 10
509.147516477612
 20
1118.008487132695
 30
0.0
 11
508.250941005444
 21
1114.662421917743
 31
0.0
  0
LINE
  5
37F
330
19
100
AcDbEntity
  8
2
100
AcDbLine
 10
514.9430714353466
 20
1116.45557286208
 30
0.0
 11
514.0464959631781
 21
1113.109507647128
 31
0.0
  0
LINE
  5
380
330
19
100
AcDbEntity
  8
L-CENTER
 48
3.0
100
AcDbLine
 10
624.0006588454135
 20
1125.43216674288
 30
0.0
 11
604.2543201394769
 21
1105.685828036942
 31
0.0
  0
CIRCLE
  5
381
330
19
100
AcDbEntity
  8
4
100
AcDbCircle
 10
614.1274894924454
 20
1115.558997389911
 30
0.0
 40
6.5
  0
CIRCLE
  5
382
330
19
100
AcDbEntity
  8
4
100
AcDbCircle
 10
614.1274894924454
 20
1115.558997389911
 30
0.0
 40
7.25
  0
LINE
  5
383
330
19
100
AcDbEntity
  8
2
100
AcDbLine
 10
616.5769792352285
 20
1118.008487132695
 30
0.0
 11
617.4735547073969
 21
1114.662421917743
 31
0.0
  0
LINE
  5
384
330
19
100
AcDbEntity
  8
2
100
AcDbLine
 10
617.4735547073969
 20
1114.662421917743
 30
0.0
 11
615.0240649646134
 21
1112.21293217496
 31
0.0
  0
LINE
  5
385
330
19
100
AcDbEntity
  8
2
100
AcDbLine
 10
616.5769792352285
 20
1118.008487132695
 30
0.0
 11
613.2309140202769
 21
1118.905062604863
 31
0.0
  0
LINE
  5
386
330
19
100
AcDbEntity
  8
2
100
AcDbLine
 10
615.0240649646134
 20
1112.21293217496
 30
0.0
 11
611.6779997496624
 21
1113.109507647128
 31
0.0
  0
LINE
  5
387
330
19
100
AcDbEntity
  8
2
100
AcDbLine
 10
610.7814242774939
 20
1116.45557286208
 30
0.0
 11
611.6779997496624
 21
1113.109507647128
 31
0.0
  0
LINE
  5
388
330
19
100
AcDbEntity
  8
2
100
AcDbLine
 10
613.2309140202769
 20
1118.905062604863
 30
0.0
 11
610.7814242774939
 21
1116.45557286208
 31
0.0
  0
CIRCLE
  5
389
330
19
100
AcDbEntity
  8
4
100
AcDbCircle
 10
511.5970062203955
 20
1013.028514117862
 30
0.0
 40
6.5
  0
CIRCLE
  5
38A
330
19
100
AcDbEntity
  8
4
100
AcDbCircle
 10
511.5970062203955
 20
1013.028514117862
 30
0.0
 40
7.25
  0
LINE
  5
38B
330
19
100
AcDbEntity
  8
2
100
AcDbLine
 10
509.147516477612
 20
1010.579024375078
 30
0.0
 11
508.250941005444
 21
1013.92508959003
 31
0.0
  0
LINE
  5
38C
330
19
100
AcDbEntity
  8
2
100
AcDbLine
 10
508.250941005444
 20
1013.92508959003
 30
0.0
 11
510.7004307482271
 21
1016.374579332813
 31
0.0
  0
LINE
  5
38D
330
19
100
AcDbEntity
  8
2
100
AcDbLine
 10
509.147516477612
 20
1010.579024375078
 30
0.0
 11
512.4935816925636
 21
1009.68244890291
 31
0.0
  0
LINE
  5
38E
330
19
100
AcDbEntity
  8
2
100
AcDbLine
 10
510.7004307482271
 20
1016.374579332813
 30
0.0
 11
514.0464959631781
 21
1015.478003860645
 31
0.0
  0
LINE
  5
38F
330
19
100
AcDbEntity
  8
2
100
AcDbLine
 10
514.9430714353466
 20
1012.131938645693
 30
0.0
 11
514.0464959631781
 21
1015.478003860645
 31
0.0
  0
LINE
  5
390
330
19
100
AcDbEntity
  8
2
100
AcDbLine
 10
512.4935816925636
 20
1009.68244890291
 30
0.0
 11
514.9430714353466
 21
1012.131938645693
 31
0.0
  0
LINE
  5
391
330
19
100
AcDbEntity
  8
L-CENTER
 48
3.0
100
AcDbLine
 10
501.7238368674271
 20
1003.155344764893
 30
0.0
 11
521.470175573364
 21
1022.901683470831
 31
0.0
  0
LINE
  5
392
330
19
100
AcDbEntity
  8
L-CENTER
 48
3.0
100
AcDbLine
 10
624.0006588454135
 20
1003.155344764893
 30
0.0
 11
604.2543201394769
 21
1022.901683470831
 31
0.0
  0
CIRCLE
  5
393
330
19
100
AcDbEntity
  8
4
100
AcDbCircle
 10
614.1274894924454
 20
1013.028514117862
 30
0.0
 40
7.25
  0
CIRCLE
  5
394
330
19
100
AcDbEntity
  8
4
100
AcDbCircle
 10
614.1274894924454
 20
1013.028514117862
 30
0.0
 40
6.5
  0
LINE
  5
395
330
19
100
AcDbEntity
  8
2
100
AcDbLine
 10
613.2309140202769
 20
1009.68244890291
 30
0.0
 11
610.7814242774939
 21
1012.131938645693
 31
0.0
  0
LINE
  5
396
330
19
100
AcDbEntity
  8
2
100
AcDbLine
 10
610.7814242774939
 20
1012.131938645693
 30
0.0
 11
611.6779997496624
 21
1015.478003860645
 31
0.0
  0
LINE
  5
397
330
19
100
AcDbEntity
  8
2
100
AcDbLine
 10
615.0240649646134
 20
1016.374579332813
 30
0.0
 11
611.6779997496624
 21
1015.478003860645
 31
0.0
  0
LINE
  5
398
330
19
100
AcDbEntity
  8
2
100
AcDbLine
 10
616.5769792352285
 20
1010.579024375078
 30
0.0
 11
613.2309140202769
 21
1009.68244890291
 31
0.0
  0
LINE
  5
399
330
19
100
AcDbEntity
  8
2
100
AcDbLine
 10
617.4735547073969
 20
1013.92508959003
 30
0.0
 11
615.0240649646134
 21
1016.374579332813
 31
0.0
  0
LINE
  5
39A
330
19
100
AcDbEntity
  8
2
100
AcDbLine
 10
616.5769792352285
 20
1010.579024375078
 30
0.0
 11
617.4735547073969
 21
1013.92508959003
 31
0.0
  0
TEXT
  5
447
330
19
100
AcDbEntity
  8
3
100
AcDbText
 10
1010.456516042767
 20
36.74042233457885
 30
0.0
 40
15.0
  1
LDC6-07
  7
KANJI
 72
     1
 11
1059.206516042767
 21
36.74042233457885
 31
0.0
100
AcDbText
  0
LINE
  5
545
330
19
100
AcDbEntity
  8
4
100
AcDbLine
 10
1358.802194743997
 20
384.1956732465956
 30
0.0
 11
1358.802194743997
 21
385.6956732465956
 31
0.0
  0
LINE
  5
546
330
19
100
AcDbEntity
  8
4
100
AcDbLine
 10
1359.802194743997
 20
392.6956732465956
 30
0.0
 11
1359.802194743997
 21
385.6956732465956
 31
0.0
  0
LINE
  5
547
330
19
100
AcDbEntity
  8
4
100
AcDbLine
 10
1326.802194743997
 20
384.1956732465956
 30
0.0
 11
1326.802194743997
 21
385.6956732465956
 31
0.0
  0
LINE
  5
548
330
19
100
AcDbEntity
  8
4
100
AcDbLine
 10
1325.802194743997
 20
392.6956732465956
 30
0.0
 11
1359.802194743997
 21
392.6956732465956
 31
0.0
  0
LINE
  5
549
330
19
100
AcDbEntity
  8
4
100
AcDbLine
 10
1325.802194743997
 20
388.695673246596
 30
0.0
 11
1359.802194743997
 21
388.695673246596
 31
0.0
  0
LINE
  5
54A
330
19
100
AcDbEntity
  8
4
100
AcDbLine
 10
1325.802194743997
 20
385.6956732465956
 30
0.0
 11
1359.802194743997
 21
385.6956732465956
 31
0.0
  0
LINE
  5
54B
330
19
100
AcDbEntity
  8
4
100
AcDbLine
 10
1325.802194743997
 20
385.6956732465956
 30
0.0
 11
1325.802194743997
 21
392.6956732465956
 31
0.0
  0
LINE
  5
54C
330
19
100
AcDbEntity
  8
4
100
AcDbLine
 10
1334.302194743997
 20
388.695673246596
 30
0.0
 11
1334.302194743997
 21
392.6956732465956
 31
0.0
  0
LINE
  5
54D
330
19
100
AcDbEntity
  8
4
100
AcDbLine
 10
1351.302194743997
 20
388.695673246596
 30
0.0
 11
1351.302194743997
 21
392.6956732465956
 31
0.0
  0
LINE
  5
54E
330
19
100
AcDbEntity
  8
4
100
AcDbLine
 10
1362.802194743997
 20
383.3665732465956
 30
0.0
 11
1362.802194743997
 21
384.1956732465956
 31
0.0
  0
LINE
  5
54F
330
19
100
AcDbEntity
  8
4
100
AcDbLine
 10
1322.802194743997
 20
383.3665732465956
 30
0.0
 11
1322.802194743997
 21
384.1956732465956
 31
0.0
  0
LINE
  5
550
330
19
100
AcDbEntity
  8
4
100
AcDbLine
 10
1322.802194743997
 20
384.1956732465956
 30
0.0
 11
1362.802194743997
 21
384.1956732465956
 31
0.0
  0
LINE
  5
551
330
19
100
AcDbEntity
  8
L-CENTER
 48
3.0
100
AcDbLine
 10
1342.802194743997
 20
397.1659032465955
 30
0.0
 11
1342.802194743997
 21
373.5702232465954
 31
0.0
  0
LINE
  5
552
330
19
100
AcDbEntity
  8
L-CENTER
 48
3.0
100
AcDbLine
 10
606.3673797439988
 20
939.2937557538864
 30
0.0
 11
666.3673797439988
 21
939.2937557538864
 31
0.0
  0
CIRCLE
  5
553
330
19
100
AcDbEntity
  8
4
100
AcDbCircle
 10
636.3673797439983
 20
939.2937557538864
 30
0.0
 40
20.0
  0
CIRCLE
  5
554
330
19
100
AcDbEntity
  8
4
100
AcDbCircle
 10
636.3673797439978
 20
939.2937557538864
 30
0.0
 40
17.0
  0
LWPOLYLINE
  5
555
330
19
100
AcDbEntity
  8
4
100
AcDbPolyline
 90
        6
 70
     1
 43
0.0
 10
636.3673797439978
 20
956.2937557538864
 10
621.6449478796621
 20
947.7937557538864
 10
621.6449478796621
 20
930.7937557538864
 10
636.3673797439978
 20
922.2937557538864
 10
651.0898116083331
 20
930.7937557538864
 10
651.0898116083331
 20
947.7937557538864
  0
LINE
  5
556
330
19
100
AcDbEntity
  8
4
100
AcDbLine
 10
652.3673797439975
 20
384.1956732465956
 30
0.0
 11
652.3673797439975
 21
385.6956732465956
 31
0.0
  0
LINE
  5
557
330
19
100
AcDbEntity
  8
4
100
AcDbLine
 10
653.3673797439975
 20
388.695673246596
 30
0.0
 11
653.3673797439975
 21
385.6956732465956
 31
0.0
  0
LINE
  5
558
330
19
100
AcDbEntity
  8
4
100
AcDbLine
 10
620.3673797439975
 20
384.1956732465956
 30
0.0
 11
620.3673797439975
 21
385.6956732465956
 31
0.0
  0
LINE
  5
559
330
19
100
AcDbEntity
  8
4
100
AcDbLine
 10
621.6449478796621
 20
392.6956732465956
 30
0.0
 11
623.8673797439974
 21
392.6956732465956
 31
0.0
  0
LINE
  5
55A
330
19
100
AcDbEntity
  8
4
100
AcDbLine
 10
648.8673797439974
 20
392.6956732465956
 30
0.0
 11
651.0898116083331
 21
392.6956732465956
 31
0.0
  0
LINE
  5
55B
330
19
100
AcDbEntity
  8
4
100
AcDbLine
 10
619.3673797439975
 20
388.695673246596
 30
0.0
 11
623.8673797439974
 21
388.695673246596
 31
0.0
  0
LINE
  5
55C
330
19
100
AcDbEntity
  8
4
100
AcDbLine
 10
648.8673797439974
 20
388.695673246596
 30
0.0
 11
653.3673797439975
 21
388.695673246596
 31
0.0
  0
LINE
  5
55D
330
19
100
AcDbEntity
  8
4
100
AcDbLine
 10
619.3673797439975
 20
385.6956732465956
 30
0.0
 11
623.8673797439974
 21
385.6956732465956
 31
0.0
  0
LINE
  5
55E
330
19
100
AcDbEntity
  8
4
100
AcDbLine
 10
648.8673797439974
 20
385.6956732465956
 30
0.0
 11
653.3673797439975
 21
385.6956732465956
 31
0.0
  0
LINE
  5
55F
330
19
100
AcDbEntity
  8
4
100
AcDbLine
 10
619.3673797439975
 20
385.6956732465956
 30
0.0
 11
619.3673797439975
 21
388.695673246596
 31
0.0
  0
LINE
  5
560
330
19
100
AcDbEntity
  8
4
100
AcDbLine
 10
656.3673797439975
 20
383.3665732465956
 30
0.0
 11
656.3673797439975
 21
384.1956732465956
 31
0.0
  0
LINE
  5
561
330
19
100
AcDbEntity
  8
4
100
AcDbLine
 10
616.3673797439975
 20
383.3665732465956
 30
0.0
 11
616.3673797439975
 21
384.1956732465956
 31
0.0
  0
LINE
  5
562
330
19
100
AcDbEntity
  8
4
100
AcDbLine
 10
616.3673797439975
 20
384.1956732465956
 30
0.0
 11
656.3673797439975
 21
384.1956732465956
 31
0.0
  0
LINE
  5
563
330
19
100
AcDbEntity
  8
4
100
AcDbLine
 10
621.6449478796621
 20
392.6956732465956
 30
0.0
 11
621.6449478796621
 21
388.695673246596
 31
0.0
  0
LINE
  5
564
330
19
100
AcDbEntity
  8
4
100
AcDbLine
 10
651.0898116083331
 20
388.695673246596
 30
0.0
 11
651.0898116083331
 21
392.6956732465956
 31
0.0
  0
LINE
  5
598
330
19
100
AcDbEntity
  8
4
100
AcDbLine
 10
348.3673797439974
 20
232.3665732465955
 30
0.0
 11
348.3673797439974
 21
272.3665732465955
 31
0.0
  0
LINE
  5
599
330
19
100
AcDbEntity
  8
4
100
AcDbLine
 10
269.3673797439974
 20
268.3665732465955
 30
0.0
 11
268.3673797439974
 21
267.3665732465955
 31
0.0
  0
LINE
  5
59A
330
19
100
AcDbEntity
  8
4
100
AcDbLine
 10
269.3673797439974
 20
268.3665732465955
 30
0.0
 11
348.3673797439974
 21
268.3665732465955
 31
0.0
  0
LINE
  5
59B
330
19
100
AcDbEntity
  8
4
100
AcDbLine
 10
268.3673797439974
 20
237.3665732465955
 30
0.0
 11
269.3673797439974
 21
236.3665732465955
 31
0.0
  0
LINE
  5
59C
330
19
100
AcDbEntity
  8
4
100
AcDbLine
 10
268.3673797439974
 20
237.3665732465955
 30
0.0
 11
268.3673797439974
 21
271.866573246596
 31
0.0
  0
LINE
  5
59D
330
19
100
AcDbEntity
  8
4
100
AcDbLine
 10
269.3673797439974
 20
236.3665732465955
 30
0.0
 11
348.3673797439974
 21
236.3665732465955
 31
0.0
  0
LINE
  5
59E
330
19
100
AcDbEntity
  8
4
100
AcDbLine
 10
269.3673797439974
 20
236.3665732465955
 30
0.0
 11
269.3673797439974
 21
268.3665732465955
 31
0.0
  0
LINE
  5
59F
330
19
100
AcDbEntity
  8
4
100
AcDbLine
 10
343.3673797439974
 20
268.3665732465955
 30
0.0
 11
343.3673797439974
 21
271.866573246596
 31
0.0
  0
LINE
  5
5A0
330
19
100
AcDbEntity
  8
4
100
AcDbLine
 10
268.3673797439974
 20
271.866573246596
 30
0.0
 11
343.3673797439974
 21
271.866573246596
 31
0.0
  0
LINE
  5
5A1
330
19
100
AcDbEntity
  8
4
100
AcDbLine
 10
348.3673797439974
 20
272.3665732465955
 30
0.0
 11
368.3673797439974
 21
272.3665732465955
 31
0.0
  0
LINE
  5
5A2
330
19
100
AcDbEntity
  8
4
100
AcDbLine
 10
348.3673797439974
 20
232.3665732465955
 30
0.0
 11
368.3673797439974
 21
232.3665732465955
 31
0.0
  0
LINE
  5
5A5
330
19
100
AcDbEntity
  8
4
100
AcDbLine
 10
338.3673797439974
 20
1194.293755753886
 30
0.0
 11
268.3673797439974
 21
1194.293755753886
 31
0.0
  0
LINE
  5
5A6
330
19
100
AcDbEntity
  8
4
100
AcDbLine
 10
338.3673797439974
 20
1204.293755753886
 30
0.0
 11
268.3673797439974
 21
1204.293755753886
 31
0.0
  0
LINE
  5
5A7
330
19
100
AcDbEntity
  8
4
100
AcDbLine
 10
346.3673797439974
 20
1183.293755753886
 30
0.0
 11
269.3673797439974
 21
1183.293755753886
 31
0.0
  0
LINE
  5
5A8
330
19
100
AcDbEntity
  8
4
100
AcDbLine
 10
346.3673797439965
 20
1215.293755753886
 30
0.0
 11
269.3673797439974
 21
1215.293755753886
 31
0.0
  0
LINE
  5
5A9
330
19
100
AcDbEntity
  8
4
100
AcDbLine
 10
348.3673797439974
 20
1179.293755753886
 30
0.0
 11
348.3673797439974
 21
1219.293755753886
 31
0.0
  0
ARC
  5
5AA
330
19
100
AcDbEntity
  8
4
100
AcDbCircle
 10
338.3673797439974
 20
1199.293755753886
 30
0.0
 40
5.0
100
AcDbArc
 50
270.0
 51
0.0
  0
ARC
  5
5AB
330
19
100
AcDbEntity
  8
4
100
AcDbCircle
 10
346.3673797439974
 20
1181.293755753886
 30
0.0
 40
2.0
100
AcDbArc
 50
0.0
 51
90.0
  0
LINE
  5
5AC
330
19
100
AcDbEntity
  8
4
100
AcDbLine
 10
343.3673797439974
 20
1199.293755753886
 30
0.0
 11
343.3673797439974
 21
1199.293755753886
 31
0.0
  0
ARC
  5
5AD
330
19
100
AcDbEntity
  8
4
100
AcDbCircle
 10
346.3673797439965
 20
1217.293755753886
 30
0.0
 40
2.0
100
AcDbArc
 50
270.0
 51
0.0
  0
ARC
  5
5AE
330
19
100
AcDbEntity
  8
4
100
AcDbCircle
 10
338.3673797439974
 20
1199.293755753886
 30
0.0
 40
5.0
100
AcDbArc
 50
0.0
 51
90.0
  0
LINE
  5
5AF
330
19
100
AcDbEntity
  8
4
100
AcDbLine
 10
268.3673797439974
 20
1184.293755753886
 30
0.0
 11
268.3673797439974
 21
1214.293755753886
 31
0.0
  0
LINE
  5
5B0
330
19
100
AcDbEntity
  8
4
100
AcDbLine
 10
269.3673797439974
 20
1183.293755753886
 30
0.0
 11
269.3673797439974
 21
1194.293755753886
 31
0.0
  0
LINE
  5
5B1
330
19
100
AcDbEntity
  8
4
100
AcDbLine
 10
269.3673797439974
 20
1183.293755753886
 30
0.0
 11
268.3673797439974
 21
1184.293755753886
 31
0.0
  0
LINE
  5
5B2
330
19
100
AcDbEntity
  8
4
100
AcDbLine
 10
268.3673797439974
 20
1214.293755753886
 30
0.0
 11
269.3673797439974
 21
1215.293755753886
 31
0.0
  0
LINE
  5
5B3
330
19
100
AcDbEntity
  8
4
100
AcDbLine
 10
269.3673797439974
 20
1204.293755753886
 30
0.0
 11
269.3673797439974
 21
1215.293755753886
 31
0.0
  0
LINE
  5
5B4
330
19
100
AcDbEntity
  8
4
100
AcDbLine
 10
368.3673797439974
 20
1219.293755753886
 30
0.0
 11
348.3673797439974
 21
1219.293755753886
 31
0.0
  0
LINE
  5
5B5
330
19
100
AcDbEntity
  8
4
100
AcDbLine
 10
368.3673797439974
 20
1179.293755753886
 30
0.0
 11
348.3673797439974
 21
1179.293755753886
 31
0.0
  0
LINE
  5
5CF
330
19
100
AcDbEntity
  8
4
100
AcDbLine
 10
606.8777447439975
 20
172.3665732465961
 30
0.0
 11
526.3673797439974
 21
172.3665732465955
 31
0.0
  0
LINE
  5
5D0
330
19
100
AcDbEntity
  8
4
100
AcDbLine
 10
595.3624997439974
 20
160.3665732465956
 30
0.0
 11
530.3624997439974
 21
160.3665732465956
 31
0.0
  0
LINE
  5
5D1
330
19
100
AcDbEntity
  8
4
100
AcDbLine
 10
530.3624997439974
 20
172.3665732465961
 30
0.0
 11
530.3624997439974
 21
160.3665732465956
 31
0.0
  0
LINE
  5
5D2
330
19
100
AcDbEntity
  8
4
100
AcDbLine
 10
595.3624997439974
 20
172.3665732465961
 30
0.0
 11
595.3624997439974
 21
160.3665732465956
 31
0.0
  0
LINE
  5
5D3
330
19
100
AcDbEntity
  8
4
100
AcDbLine
 10
1423.786949743998
 20
172.7665732465957
 30
0.0
 11
1511.817439743998
 21
172.7665732465962
 31
0.0
  0
LINE
  5
5D4
330
19
100
AcDbEntity
  8
4
100
AcDbLine
 10
1435.302194743997
 20
172.7665732465957
 30
0.0
 11
1435.302194743997
 21
160.3665732465956
 31
0.0
  0
LINE
  5
5D5
330
19
100
AcDbEntity
  8
4
100
AcDbLine
 10
1500.302194743997
 20
172.7665732465957
 30
0.0
 11
1500.302194743997
 21
160.3665732465956
 31
0.0
  0
LINE
  5
5D6
330
19
100
AcDbEntity
  8
4
100
AcDbLine
 10
1500.302194743997
 20
160.3665732465956
 30
0.0
 11
1435.302194743997
 21
160.3665732465956
 31
0.0
  0
ARC
  5
5D7
330
19
100
AcDbEntity
  8
4
100
AcDbCircle
 10
562.8624997439974
 20
141.3665732465956
 30
0.0
 40
9.0
100
AcDbArc
 50
0.0
 51
180.0
  0
LINE
  5
5D8
330
19
100
AcDbEntity
  8
4
100
AcDbLine
 10
553.8624997439974
 20
40.36657324659564
 30
0.0
 11
553.8624997439974
 21
141.3665732465956
 31
0.0
  0
LINE
  5
5D9
330
19
100
AcDbEntity
  8
4
100
AcDbLine
 10
571.8624997439974
 20
40.36657324659564
 30
0.0
 11
571.8624997439974
 21
141.3665732465956
 31
0.0
  0
LINE
  5
5DA
330
19
100
AcDbEntity
  8
4
100
AcDbLine
 10
532.8624997439974
 20
40.36657324659564
 30
0.0
 11
531.8624997439974
 21
41.36657324659564
 31
0.0
  0
LINE
  5
5DB
330
19
100
AcDbEntity
  8
4
100
AcDbLine
 10
531.8624997439974
 20
41.36657324659564
 30
0.0
 11
531.8624997439974
 21
160.3665732465956
 31
0.0
  0
LINE
  5
5DC
330
19
100
AcDbEntity
  8
4
100
AcDbLine
 10
592.8624997439974
 20
40.36657324659564
 30
0.0
 11
593.8624997439974
 21
41.36657324659564
 31
0.0
  0
LINE
  5
5DD
330
19
100
AcDbEntity
  8
4
100
AcDbLine
 10
592.8624997439974
 20
40.36657324659564
 30
0.0
 11
532.8624997439974
 21
40.36657324659564
 31
0.0
  0
LINE
  5
5DE
330
19
100
AcDbEntity
  8
4
100
AcDbLine
 10
593.8624997439974
 20
41.36657324659564
 30
0.0
 11
593.8624997439974
 21
160.3665732465956
 31
0.0
  0
LINE
  5
5DF
330
19
100
AcDbEntity
  8
4
100
AcDbLine
 10
531.8624997439974
 20
41.36657324659564
 30
0.0
 11
553.8624997439974
 21
41.36657324659564
 31
0.0
  0
LINE
  5
5E0
330
19
100
AcDbEntity
  8
4
100
AcDbLine
 10
593.8624997439974
 20
41.36657324659564
 30
0.0
 11
571.8624997439974
 21
41.36657324659564
 31
0.0
  0
LINE
  5
5E1
330
19
100
AcDbEntity
  8
4
100
AcDbLine
 10
1437.802194743997
 20
40.36657324659564
 30
0.0
 11
1436.802194743997
 21
41.36657324659564
 31
0.0
  0
LINE
  5
5E2
330
19
100
AcDbEntity
  8
4
100
AcDbLine
 10
1436.802194743997
 20
41.36657324659564
 30
0.0
 11
1436.802194743997
 21
160.3665732465956
 31
0.0
  0
LINE
  5
5E3
330
19
100
AcDbEntity
  8
4
100
AcDbLine
 10
1497.802194743997
 20
40.36657324659564
 30
0.0
 11
1498.802194743997
 21
41.36657324659564
 31
0.0
  0
LINE
  5
5E4
330
19
100
AcDbEntity
  8
4
100
AcDbLine
 10
1498.802194743997
 20
41.36657324659564
 30
0.0
 11
1498.802194743997
 21
160.3665732465956
 31
0.0
  0
LINE
  5
5E5
330
19
100
AcDbEntity
  8
4
100
AcDbLine
 10
1436.802194743997
 20
41.36657324659564
 30
0.0
 11
1498.802194743997
 21
41.36657324659564
 31
0.0
  0
LINE
  5
5E6
330
19
100
AcDbEntity
  8
4
100
AcDbLine
 10
1436.802194743997
 20
151.3665732465956
 30
0.0
 11
1430.802194743997
 21
151.3665732465956
 31
0.0
  0
LINE
  5
5E7
330
19
100
AcDbEntity
  8
4
100
AcDbLine
 10
1430.802194743997
 20
151.3665732465956
 30
0.0
 11
1430.802194743997
 21
40.36657324659564
 31
0.0
  0
LINE
  5
5E8
330
19
100
AcDbEntity
  8
4
100
AcDbLine
 10
1430.802194743997
 20
40.36657324659564
 30
0.0
 11
1497.802194743997
 21
40.36657324659564
 31
0.0
  0
LINE
  5
61B
330
19
100
AcDbEntity
  8
4
100
AcDbLine
 10
199.4410057163617
 20
263.8665732465955
 30
0.0
 11
199.4410057163617
 21
271.8665732465955
 31
0.0
  0
LINE
  5
61C
330
19
100
AcDbEntity
  8
L-CENTER
 48
3.0
100
AcDbLine
 10
194.4410057163617
 20
226.2303092465955
 30
0.0
 11
194.4410057163617
 21
278.5028372465955
 31
0.0
  0
LINE
  5
61D
330
19
100
AcDbEntity
  8
4
100
AcDbLine
 10
189.4410057163617
 20
271.8665732465955
 30
0.0
 11
189.4410057163617
 21
263.8665732465955
 31
0.0
  0
LINE
  5
620
330
19
100
AcDbEntity
  8
4
100
AcDbLine
 10
199.4410057163617
 20
271.8665732465955
 30
0.0
 11
189.4410057163617
 21
271.8665732465955
 31
0.0
  0
LINE
  5
621
330
19
100
AcDbEntity
  8
4
100
AcDbLine
 10
199.4410057163617
 20
263.8665732465955
 30
0.0
 11
189.4410057163617
 21
263.8665732465955
 31
0.0
  0
ARC
  5
622
330
19
100
AcDbEntity
  8
4
100
AcDbCircle
 10
194.4410057163617
 20
252.3665732465955
 30
0.0
 40
16.0
100
AcDbArc
 50
108.209956864283
 51
71.79004400000014
  0
LINE
  5
623
330
19
100
AcDbEntity
  8
L-CENTER
 48
3.0
100
AcDbLine
 10
168.3047417163619
 20
252.3665732465955
 30
0.0
 11
220.5772697163615
 21
252.3665732465955
 31
0.0
  0
ENDSEC
  0
SECTION
  2
OBJECTS
  0
DICTIONARY
  5
9
330
0
100
AcDbDictionary
281
     1
  3
ACAD_COLOR
350
2F
  3
ACAD_GROUP
350
2D
  3
ACAD_LAYOUT
350
22
  3
ACAD_MATERIAL
350
B
  3
ACAD_MLEADERSTYLE
350
570
  3
ACAD_MLINESTYLE
350
17
  3
ACAD_PLOTSETTINGS
350
2E
  3
ACAD_PLOTSTYLENAME
350
8
  3
ACAD_SCALELIST
350
36
  3
ACAD_TABLESTYLE
350
56F
  3
ACAD_VISUALSTYLE
350
30
  3
ACDBHEADERROUNDTRIPXREC
350
626
  3
AcDbVariableDictionary
350
56D
  3
DWGPROPS
350
629
  0
DICTIONARY
  5
62A
330
2C
100
AcDbDictionary
280
     1
281
     1
  3
ACAD_XREC_ROUNDTRIP
360
62B
  0
DICTIONARY
  5
3
330
2
100
AcDbDictionary
280
     1
281
     1
  3
ACAD_LAYERSTATES
360
4
  0
DICTIONARY
  5
1E
330
1D
100
AcDbDictionary
280
     1
281
     1
  3
ADSK_XREC_LAYER_RECONCILED
360
1F
  0
DICTIONARY
  5
459
330
458
100
AcDbDictionary
280
     1
281
     1
  3
ADSK_XREC_LAYER_RECONCILED
360
45A
  0
DICTIONARY
  5
5
330
1
100
AcDbDictionary
280
     1
281
     1
  3
ADSK_XREC_LAYER_RECONCILED
360
6
  0
DICTIONARY
  5
6C
330
6B
100
AcDbDictionary
280
     1
281
     1
  3
ADSK_XREC_LAYER_RECONCILED
360
6D
  0
DICTIONARY
  5
145
330
144
100
AcDbDictionary
280
     1
281
     1
  3
ADSK_XREC_LAYER_RECONCILED
360
146
  0
DICTIONARY
  5
1A1
330
1A0
100
AcDbDictionary
280
     1
281
     1
  3
ADSK_XREC_LAYER_RECONCILED
360
1A2
  0
DICTIONARY
  5
1A
330
19
100
AcDbDictionary
280
     1
281
     1
  3
ACAD_SORTENTS
360
1B
  0
DICTIONARY
  5
2F
102
{ACAD_REACTORS
330
9
102
}
330
9
100
AcDbDictionary
281
     1
  0
DICTIONARY
  5
2D
102
{ACAD_REACTORS
330
9
102
}
330
9
100
AcDbDictionary
281
     1
  0
DICTIONARY
  5
22
102
{ACAD_REACTORS
330
9
102
}
330
9
100
AcDbDictionary
281
     1
  3
Model
350
21
  3
ﾚｲｱｳﾄ1
350
29
  0
DICTIONARY
  5
B
102
{ACAD_REACTORS
330
9
102
}
330
9
100
AcDbDictionary
281
     1
  3
ByBlock
350
69
  3
ByLayer
350
12
  3
Global
350
A
  0
DICTIONARY
  5
570
102
{ACAD_REACTORS
330
9
102
}
330
9
100
AcDbDictionary
281
     1
  3
Standard
350
58A
  0
DICTIONARY
  5
17
102
{ACAD_REACTORS
330
9
102
}
330
9
100
AcDbDictionary
281
     1
  3
STANDARD
350
16
  0
DICTIONARY
  5
2E
102
{ACAD_REACTORS
330
9
102
}
330
9
100
AcDbDictionary
281
     1
  0
ACDBDICTIONARYWDFLT
  5
8
102
{ACAD_REACTORS
330
9
102
}
330
9
100
AcDbDictionary
281
     1
  3
Normal
350
7
100
AcDbDictionaryWithDefault
340
7
  0
DICTIONARY
  5
36
102
{ACAD_REACTORS
330
9
102
}
330
9
100
AcDbDictionary
281
     1
  3
*A1
350
58
  3
*A10
350
61
  3
*A11
350
62
  3
*A12
350
63
  3
*A13
350
64
  3
*A14
350
65
  3
*A15
350
66
  3
*A16
350
67
  3
*A17
350
68
  3
*A2
350
59
  3
*A3
350
5A
  3
*A4
350
5B
  3
*A5
350
5C
  3
*A6
350
5D
  3
*A7
350
5E
  3
*A8
350
5F
  3
*A9
350
60
  0
DICTIONARY
  5
56F
102
{ACAD_REACTORS
330
9
102
}
330
9
100
AcDbDictionary
281
     1
  3
Standard
350
594
  0
DICTIONARY
  5
30
102
{ACAD_REACTORS
330
9
102
}
330
9
100
AcDbDictionary
281
     1
  3
2dWireframe
350
33
  3
Basic
350
579
  3
Brighten
350
57D
  3
ColorChange
350
581
  3
Conceptual
350
57B
  3
Dim
350
57C
  3
EdgeColorOff
350
584
  3
Facepattern
350
580
  3
Flat
350
573
  3
FlatWithEdges
350
574
  3
Gouraud
350
575
  3
GouraudWithEdges
350
576
  3
Hidden
350
578
  3
JitterOff
350
582
  3
Linepattern
350
57F
  3
OverhangOff
350
583
  3
Realistic
350
57A
  3
Shaded
350
589
  3
Shaded with edges
350
588
  3
Shades of Gray
350
585
  3
Sketchy
350
586
  3
Thicken
350
57E
  3
Wireframe
350
577
  3
X-Ray
350
587
  0
DICTIONARY
  5
626
102
{ACAD_REACTORS
330
9
102
}
330
9
100
AcDbDictionary
281
     1
  3
COLORDICT
350
627
  3
MATERIALDICT
350
628
  0
DICTIONARY
  5
56D
102
{ACAD_REACTORS
330
9
102
}
330
9
100
AcDbDictionary
281
     1
  3
CANNOSCALE
350
56E
  3
CMLEADERSTYLE
350
58C
  3
CTABLESTYLE
350
595
  3
DIMASSOC
350
624
  3
HIDETEXT
350
625
  3
MSLTSCALE
350
62C
  0
XRECORD
  5
629
102
{ACAD_REACTORS
330
9
102
}
330
9
100
AcDbXrecord
280
     1
  1
DWGPROPS COOKIE
  2

  3

  4

  6

  7

  8
sg-d03
  9

300
=
301
=
302
=
303
=
304
=
305
=
306
=
307
=
308
=
309
=
 40
0.0
 41
2449812.381805555
 42
2458115.263578426
  1

 90
        0
  0
XRECORD
  5
62B
102
{ACAD_REACTORS
330
62A
102
}
330
62A
100
AcDbXrecord
280
     1
102
VTR_0.000_0.000_1.000_1.000_GRIDDISPLAY
 70
     3
102
VTR_0.000_0.000_1.000_1.000_GRIDMAJOR
 70
     5
102
VTR_0.000_0.000_1.000_1.000_DEFAULTLIGHTING
280
     1
102
VTR_0.000_0.000_1.000_1.000_DEFAULTLIGHTINGTYPE
 70
     1
102
VTR_0.000_0.000_1.000_1.000_BRIGHTNESS
141
0.0
102
VTR_0.000_0.000_1.000_1.000_CONTRAST
142
0.0
  0
DICTIONARY
  5
4
102
{ACAD_REACTORS
330
3
102
}
330
3
100
AcDbDictionary
281
     1
  0
XRECORD
  5
1F
102
{ACAD_REACTORS
330
1E
102
}
330
1E
100
AcDbXrecord
280
     1
290
     1
  0
XRECORD
  5
45A
102
{ACAD_REACTORS
330
459
102
}
330
459
100
AcDbXrecord
280
     1
290
     1
  0
XRECORD
  5
6
102
{ACAD_REACTORS
330
5
102
}
330
5
100
AcDbXrecord
280
     1
290
     1
  0
XRECORD
  5
6D
102
{ACAD_REACTORS
330
6C
102
}
330
6C
100
AcDbXrecord
280
     1
290
     1
  0
XRECORD
  5
146
102
{ACAD_REACTORS
330
145
102
}
330
145
100
AcDbXrecord
280
     1
290
     1
  0
XRECORD
  5
1A2
102
{ACAD_REACTORS
330
1A1
102
}
330
1A1
100
AcDbXrecord
280
     1
290
     1
  0
SORTENTSTABLE
  5
1B
102
{ACAD_REACTORS
330
1A
102
}
330
1A
100
AcDbSortentsTable
330
19
331
0
  5
135
331
12C
  5
12D
331
12D
  5
12E
331
12E
  5
12F
331
12F
  5
130
331
130
  5
131
331
131
  5
132
331
132
  5
133
331
133
  5
134
331
140
  5
141
331
141
  5
142
331
142
  5
143
331
143
  5
148
331
148
  5
149
331
149
  5
14A
331
14A
  5
14B
331
14B
  5
14C
331
14C
  5
14D
331
14D
  5
14E
331
14E
  5
14F
331
14F
  5
150
331
150
  5
151
331
151
  5
152
331
152
  5
153
331
153
  5
154
331
154
  5
155
331
155
  5
156
331
156
  5
157
331
157
  5
158
331
15A
  5
15B
331
15D
  5
15F
331
15E
  5
160
331
15F
  5
161
331
160
  5
162
331
161
  5
163
331
162
  5
164
331
163
  5
165
331
166
  5
168
331
167
  5
169
331
168
  5
16A
331
169
  5
16B
331
16A
  5
16C
331
16B
  5
16D
331
16C
  5
16E
331
16D
  5
16F
331
16E
  5
170
331
16F
  5
171
331
170
  5
172
331
171
  5
173
331
172
  5
174
331
173
  5
175
331
174
  5
176
331
175
  5
177
331
176
  5
178
331
177
  5
179
331
178
  5
17A
331
179
  5
17B
331
17A
  5
17C
331
17B
  5
17D
331
17C
  5
17E
331
17D
  5
17F
331
17E
  5
180
331
17F
  5
181
331
180
  5
182
331
181
  5
183
331
182
  5
184
331
183
  5
185
331
184
  5
186
331
185
  5
187
331
186
  5
188
331
187
  5
189
331
188
  5
18A
331
189
  5
18B
331
18A
  5
18C
331
18B
  5
18D
331
18C
  5
18E
331
18D
  5
18F
331
18E
  5
190
331
18F
  5
191
331
190
  5
192
331
191
  5
193
331
192
  5
194
331
193
  5
195
331
194
  5
196
331
195
  5
197
331
196
  5
198
331
197
  5
199
331
198
  5
19A
331
199
  5
19B
331
0
  5
19C
331
0
  5
19D
331
0
  5
19E
331
0
  5
19F
331
0
  5
1A3
331
0
  5
1A4
331
0
  5
1A5
331
0
  5
1A6
331
0
  5
1A7
331
0
  5
1A8
331
0
  5
1A9
331
0
  5
1AA
331
0
  5
1AB
331
0
  5
1AC
331
0
  5
1AD
331
0
  5
1AE
331
0
  5
1B0
331
0
  5
1B5
331
0
  5
1B6
331
0
  5
1B7
331
0
  5
1B8
331
0
  5
1B9
331
0
  5
1BA
331
0
  5
1BB
331
0
  5
1BC
331
0
  5
1BD
331
0
  5
1C9
331
0
  5
1CA
331
0
  5
1CB
331
0
  5
1CC
331
0
  5
1CD
331
0
  5
1CE
331
0
  5
1CF
331
0
  5
1D0
331
0
  5
1D1
331
0
  5
1D2
331
0
  5
1D3
331
0
  5
1D4
331
0
  5
1D5
331
0
  5
1D6
331
0
  5
1D7
331
0
  5
1D8
331
0
  5
1D9
331
0
  5
1DA
331
0
  5
1DB
331
0
  5
1DC
331
0
  5
1DD
331
0
  5
1DE
331
0
  5
1DF
331
0
  5
1E0
331
0
  5
1E1
331
0
  5
1E2
331
0
  5
1E3
331
0
  5
1E4
331
0
  5
1E5
331
0
  5
1E6
331
0
  5
1E7
331
0
  5
1E8
331
0
  5
1E9
331
0
  5
1EA
331
0
  5
1EB
331
0
  5
1EC
331
0
  5
1ED
331
0
  5
1EE
331
0
  5
1EF
331
0
  5
1F0
331
0
  5
1F1
331
0
  5
1F2
331
0
  5
1F3
331
0
  5
1F4
331
0
  5
1F5
331
0
  5
1F6
331
0
  5
1F7
331
0
  5
1F8
331
0
  5
1F9
331
0
  5
1FA
331
0
  5
1FB
331
0
  5
1FC
331
0
  5
1FD
331
0
  5
1FE
331
0
  5
1FF
331
0
  5
200
331
0
  5
201
331
0
  5
202
331
0
  5
203
331
0
  5
204
331
0
  5
205
331
0
  5
206
331
0
  5
207
331
0
  5
208
331
0
  5
209
331
0
  5
20A
331
0
  5
20B
331
0
  5
20C
331
0
  5
213
331
0
  5
214
331
0
  5
215
331
0
  5
216
331
0
  5
217
331
0
  5
218
331
0
  5
219
331
0
  5
21A
331
0
  5
21B
331
0
  5
21C
331
0
  5
21D
331
0
  5
21E
331
0
  5
220
331
0
  5
224
331
0
  5
227
331
227
  5
229
331
228
  5
22A
331
229
  5
22B
331
22A
  5
22C
331
22B
  5
22D
331
22C
  5
22E
331
22D
  5
22F
331
22E
  5
230
331
22F
  5
231
331
230
  5
232
331
231
  5
233
331
232
  5
234
331
233
  5
235
331
234
  5
236
331
235
  5
237
331
236
  5
238
331
237
  5
239
331
238
  5
23A
331
239
  5
23B
331
23A
  5
23C
331
23B
  5
23D
331
23C
  5
23E
331
23D
  5
23F
331
23E
  5
240
331
23F
  5
241
331
240
  5
242
331
241
  5
243
331
242
  5
244
331
243
  5
245
331
244
  5
246
331
245
  5
247
331
246
  5
248
331
247
  5
249
331
248
  5
24A
331
249
  5
24B
331
24A
  5
24C
331
24B
  5
24D
331
24C
  5
24E
331
24D
  5
24F
331
24E
  5
250
331
24F
  5
251
331
250
  5
252
331
251
  5
253
331
252
  5
254
331
253
  5
255
331
254
  5
256
331
255
  5
257
331
256
  5
258
331
257
  5
259
331
258
  5
25A
331
259
  5
25B
331
25A
  5
25C
331
25B
  5
25D
331
25C
  5
25E
331
25D
  5
25F
331
25E
  5
260
331
25F
  5
261
331
260
  5
262
331
261
  5
263
331
262
  5
264
331
263
  5
265
331
264
  5
266
331
265
  5
267
331
266
  5
268
331
267
  5
269
331
268
  5
26A
331
269
  5
26B
331
26A
  5
26C
331
26B
  5
26D
331
26C
  5
26E
331
26D
  5
26F
331
26E
  5
270
331
26F
  5
271
331
270
  5
272
331
271
  5
273
331
272
  5
274
331
273
  5
275
331
274
  5
276
331
275
  5
277
331
276
  5
278
331
277
  5
279
331
278
  5
27A
331
279
  5
27B
331
27A
  5
27C
331
27B
  5
27D
331
27C
  5
27E
331
27D
  5
27F
331
27E
  5
280
331
27F
  5
281
331
280
  5
282
331
281
  5
283
331
282
  5
284
331
283
  5
285
331
284
  5
286
331
285
  5
287
331
286
  5
288
331
287
  5
289
331
288
  5
28A
331
289
  5
28B
331
28A
  5
28C
331
28B
  5
28D
331
28C
  5
28E
331
28D
  5
28F
331
28E
  5
290
331
28F
  5
291
331
290
  5
292
331
291
  5
293
331
292
  5
294
331
293
  5
295
331
294
  5
296
331
295
  5
297
331
296
  5
298
331
297
  5
299
331
298
  5
29A
331
299
  5
29B
331
29A
  5
29C
331
29B
  5
29D
331
29C
  5
29E
331
29D
  5
29F
331
29E
  5
2A0
331
29F
  5
2A1
331
2A0
  5
2A2
331
2A1
  5
2A3
331
2A2
  5
2A4
331
2A3
  5
2A5
331
2A4
  5
2A6
331
2A5
  5
2A7
331
2A6
  5
2A8
331
2A7
  5
2A9
331
2A8
  5
2AA
331
2A9
  5
2AB
331
2AA
  5
2AC
331
2AB
  5
2AD
331
2AC
  5
2AE
331
2AD
  5
2AF
331
2AE
  5
2B0
331
2AF
  5
2B1
331
2B0
  5
2B2
331
2B1
  5
2B3
331
2B2
  5
2B4
331
2B3
  5
2B5
331
2B4
  5
2B6
331
2B5
  5
2B7
331
2B6
  5
2B8
331
2B7
  5
2B9
331
2B8
  5
2BA
331
2B9
  5
2BB
331
2BA
  5
2BC
331
2BB
  5
2BD
331
2BC
  5
2BE
331
2BD
  5
2BF
331
2BE
  5
2C0
331
2BF
  5
2C1
331
2C0
  5
2C2
331
2C1
  5
2C3
331
2C2
  5
2C4
331
2C3
  5
2C5
331
2C4
  5
2C6
331
2C5
  5
2C7
331
2C6
  5
2C8
331
2C7
  5
2C9
331
2C8
  5
2CA
331
2C9
  5
2CB
331
2CA
  5
2CC
331
2CB
  5
2CD
331
2CC
  5
2CE
331
2CD
  5
2CF
331
2CE
  5
2D0
331
2CF
  5
2D1
331
2D0
  5
2D2
331
2D1
  5
2D3
331
2D2
  5
2D4
331
2D3
  5
2D5
331
2D4
  5
2D6
331
2D5
  5
2D7
331
2D6
  5
2D8
331
2D7
  5
2D9
331
2D8
  5
2DA
331
2D9
  5
2DB
331
2DA
  5
2DC
331
2DB
  5
2DD
331
2DC
  5
2DE
331
2DD
  5
2DF
331
2DE
  5
2E0
331
2DF
  5
2E1
331
2E0
  5
2E2
331
2E1
  5
2E3
331
2E2
  5
2E4
331
2E3
  5
2E5
331
2E4
  5
2E6
331
2E5
  5
2E7
331
2E6
  5
2E8
331
2E7
  5
2E9
331
2E8
  5
2EA
331
2E9
  5
2EB
331
2EA
  5
2EC
331
2EB
  5
2ED
331
2EC
  5
2EE
331
2ED
  5
2EF
331
2EE
  5
2F0
331
2EF
  5
2F1
331
2F0
  5
2F2
331
2F1
  5
2F3
331
2F2
  5
2F4
331
2F3
  5
2F5
331
2F4
  5
2F6
331
2F5
  5
2F7
331
2F6
  5
2F8
331
2F7
  5
2F9
331
2F8
  5
2FA
331
2F9
  5
2FB
331
2FA
  5
2FC
331
2FB
  5
2FD
331
2FC
  5
2FE
331
2FD
  5
2FF
331
2FE
  5
300
331
2FF
  5
301
331
300
  5
302
331
301
  5
303
331
302
  5
304
331
303
  5
305
331
304
  5
306
331
305
  5
307
331
306
  5
308
331
307
  5
309
331
308
  5
30A
331
309
  5
30B
331
30A
  5
30C
331
30B
  5
30D
331
30C
  5
30E
331
30D
  5
30F
331
30E
  5
310
331
30F
  5
311
331
310
  5
312
331
311
  5
313
331
312
  5
314
331
313
  5
315
331
314
  5
316
331
315
  5
317
331
316
  5
318
331
317
  5
319
331
318
  5
31A
331
319
  5
31B
331
31A
  5
31C
331
31B
  5
31D
331
31C
  5
31E
331
31D
  5
31F
331
31E
  5
320
331
330
  5
332
331
331
  5
333
331
332
  5
334
331
333
  5
335
331
334
  5
336
331
335
  5
337
331
336
  5
338
331
337
  5
339
331
338
  5
33A
331
339
  5
33B
331
33A
  5
33C
331
33B
  5
33D
331
33C
  5
33E
331
33D
  5
33F
331
33E
  5
340
331
33F
  5
341
331
340
  5
342
331
341
  5
343
331
342
  5
344
331
343
  5
345
331
344
  5
346
331
345
  5
347
331
346
  5
348
331
347
  5
349
331
348
  5
34A
331
349
  5
34B
331
34A
  5
34C
331
34B
  5
34D
331
34C
  5
34E
331
34D
  5
34F
331
34E
  5
350
331
34F
  5
351
331
350
  5
352
331
351
  5
353
331
352
  5
354
331
353
  5
355
331
354
  5
356
331
355
  5
357
331
356
  5
358
331
357
  5
359
331
358
  5
35A
331
359
  5
35B
331
35A
  5
35C
331
35B
  5
35D
331
35C
  5
35E
331
35D
  5
35F
331
35E
  5
360
331
35F
  5
361
331
360
  5
362
331
361
  5
363
331
362
  5
364
331
363
  5
365
331
364
  5
366
331
365
  5
367
331
366
  5
368
331
367
  5
369
331
368
  5
36A
331
369
  5
36B
331
36A
  5
36C
331
36B
  5
36D
331
36C
  5
36E
331
36D
  5
36F
331
36E
  5
370
331
36F
  5
371
331
370
  5
372
331
371
  5
373
331
372
  5
374
331
373
  5
375
331
374
  5
376
331
375
  5
377
331
376
  5
378
331
377
  5
379
331
378
  5
37A
331
379
  5
37B
331
37A
  5
37C
331
37B
  5
37D
331
37C
  5
37E
331
37D
  5
37F
331
37E
  5
380
331
37F
  5
381
331
380
  5
382
331
381
  5
383
331
382
  5
384
331
383
  5
385
331
384
  5
386
331
385
  5
387
331
386
  5
388
331
387
  5
389
331
388
  5
38A
331
389
  5
38B
331
38A
  5
38C
331
38B
  5
38D
331
38C
  5
38E
331
38D
  5
38F
331
38E
  5
390
331
38F
  5
391
331
390
  5
392
331
391
  5
393
331
392
  5
394
331
393
  5
395
331
394
  5
396
331
395
  5
397
331
396
  5
398
331
397
  5
399
331
398
  5
39A
331
399
  5
39B
331
39A
  5
39C
331
0
  5
39D
331
0
  5
39E
331
0
  5
39F
331
0
  5
3A0
331
0
  5
3A1
331
0
  5
3A2
331
0
  5
3A3
331
0
  5
3A4
331
0
  5
3A5
331
0
  5
3A6
331
0
  5
3A7
331
0
  5
3A8
331
0
  5
3A9
331
0
  5
3AA
331
0
  5
3AB
331
0
  5
3AC
331
0
  5
3AD
331
0
  5
3AE
331
0
  5
3AF
331
0
  5
3B0
331
0
  5
3B1
331
0
  5
3B2
331
0
  5
3B3
331
0
  5
3B4
331
0
  5
3B5
331
0
  5
3B6
331
0
  5
3B7
331
0
  5
3B8
331
0
  5
3B9
331
0
  5
3BA
331
0
  5
3BB
331
0
  5
3BC
331
0
  5
3BD
331
0
  5
3BE
331
0
  5
3BF
331
0
  5
3C0
331
0
  5
3C1
331
0
  5
3C2
331
0
  5
3C3
331
0
  5
3C4
331
0
  5
3C5
331
0
  5
3C6
331
0
  5
3C7
331
0
  5
3C8
331
0
  5
3C9
331
0
  5
3CA
331
0
  5
3CB
331
0
  5
3CC
331
0
  5
3CD
331
0
  5
3CE
331
0
  5
3CF
331
0
  5
3D0
331
0
  5
3D1
331
0
  5
3D2
331
0
  5
3D3
331
0
  5
3D4
331
0
  5
3D5
331
0
  5
3D6
331
0
  5
3D7
331
0
  5
3D8
331
0
  5
3D9
331
0
  5
3DA
331
0
  5
3DB
331
0
  5
3DC
331
0
  5
3DD
331
0
  5
3DE
331
0
  5
3DF
331
0
  5
3E0
331
0
  5
3E1
331
0
  5
3E2
331
0
  5
3E3
331
0
  5
3E4
331
0
  5
3E5
331
0
  5
3E6
331
0
  5
3E7
331
0
  5
3E8
331
0
  5
3E9
331
0
  5
3EA
331
0
  5
3EB
331
0
  5
3EC
331
0
  5
3ED
331
0
  5
3EE
331
0
  5
3EF
331
0
  5
3F0
331
0
  5
3F1
331
0
  5
3F2
331
0
  5
3F3
331
0
  5
3F4
331
0
  5
3F5
331
0
  5
3F6
331
0
  5
3F7
331
0
  5
3F8
331
0
  5
3F9
331
0
  5
3FA
331
0
  5
3FB
331
0
  5
3FC
331
0
  5
3FD
331
0
  5
3FE
331
0
  5
3FF
331
0
  5
400
331
0
  5
401
331
0
  5
402
331
0
  5
403
331
0
  5
404
331
0
  5
405
331
0
  5
406
331
0
  5
407
331
0
  5
408
331
0
  5
409
331
0
  5
40A
331
0
  5
40B
331
0
  5
40C
331
0
  5
40D
331
0
  5
40E
331
0
  5
40F
331
0
  5
410
331
0
  5
411
331
0
  5
412
331
0
  5
413
331
0
  5
414
331
0
  5
415
331
0
  5
416
331
0
  5
417
331
0
  5
418
331
0
  5
419
331
0
  5
41A
331
0
  5
41B
331
0
  5
41C
331
0
  5
41D
331
0
  5
41E
331
0
  5
41F
331
0
  5
420
331
0
  5
421
331
0
  5
422
331
0
  5
423
331
0
  5
424
331
0
  5
425
331
0
  5
426
331
0
  5
427
331
0
  5
428
331
0
  5
429
331
0
  5
42A
331
0
  5
42B
331
0
  5
42C
331
0
  5
42D
331
0
  5
42E
331
0
  5
42F
331
0
  5
430
331
0
  5
431
331
0
  5
432
331
0
  5
433
331
0
  5
434
331
0
  5
435
331
0
  5
436
331
0
  5
437
331
0
  5
438
331
0
  5
439
331
0
  5
43A
331
0
  5
43B
331
0
  5
43C
331
0
  5
43D
331
0
  5
43E
331
0
  5
43F
331
0
  5
440
331
0
  5
441
331
0
  5
442
331
0
  5
443
331
0
  5
444
331
0
  5
445
331
0
  5
446
331
0
  5
447
331
0
  5
448
331
447
  5
449
331
0
  5
44A
331
0
  5
44B
331
0
  5
44C
331
0
  5
44D
331
0
  5
44E
331
0
  5
44F
331
0
  5
450
331
0
  5
451
331
0
  5
453
331
0
  5
454
331
0
  5
455
331
0
  5
456
331
0
  5
457
331
0
  5
45B
331
0
  5
45C
331
0
  5
45D
331
0
  5
45E
331
0
  5
45F
331
0
  5
460
331
0
  5
461
331
0
  5
462
331
0
  5
463
331
0
  5
464
331
0
  5
465
331
0
  5
466
331
0
  5
467
331
0
  5
468
331
0
  5
469
331
0
  5
46A
331
0
  5
46B
331
0
  5
46C
331
0
  5
46D
331
0
  5
46E
331
0
  5
46F
331
0
  5
470
331
0
  5
471
331
0
  5
472
331
0
  5
473
331
0
  5
474
331
0
  5
475
331
0
  5
476
331
0
  5
477
331
0
  5
478
331
0
  5
479
331
0
  5
47A
331
0
  5
47B
331
0
  5
47C
331
0
  5
47D
331
0
  5
47E
331
0
  5
47F
331
0
  5
480
331
0
  5
481
331
0
  5
482
331
0
  5
483
331
0
  5
484
331
0
  5
485
331
0
  5
486
331
0
  5
487
331
0
  5
488
331
0
  5
489
331
0
  5
48A
331
0
  5
48B
331
0
  5
48C
331
0
  5
48D
331
0
  5
48E
331
0
  5
48F
331
0
  5
490
331
0
  5
491
331
0
  5
492
331
0
  5
493
331
0
  5
494
331
0
  5
495
331
0
  5
496
331
0
  5
497
331
0
  5
498
331
0
  5
499
331
0
  5
49A
331
0
  5
49B
331
0
  5
49C
331
0
  5
49D
331
0
  5
49E
331
0
  5
49F
331
0
  5
4A0
331
0
  5
4A1
331
0
  5
4A2
331
0
  5
4A3
331
0
  5
4A4
331
0
  5
4A5
331
0
  5
4A6
331
0
  5
4A7
331
0
  5
4A8
331
0
  5
4A9
331
0
  5
4AA
331
0
  5
4AB
331
0
  5
4AC
331
0
  5
4AD
331
0
  5
4AE
331
0
  5
4AF
331
0
  5
4B0
331
0
  5
4B1
331
0
  5
4B2
331
0
  5
4B3
331
0
  5
4B4
331
0
  5
4B5
331
0
  5
4B6
331
0
  5
4B7
331
0
  5
4B8
331
0
  5
4B9
331
0
  5
4BA
331
0
  5
4BB
331
0
  5
4BC
331
0
  5
4BD
331
0
  5
4BE
331
0
  5
4BF
331
0
  5
4C0
331
0
  5
4C1
331
0
  5
4C2
331
0
  5
4C3
331
0
  5
4C4
331
0
  5
4C5
331
0
  5
4C6
331
0
  5
4C7
331
0
  5
4C8
331
0
  5
4C9
331
0
  5
4CA
331
0
  5
4CB
331
0
  5
4CC
331
0
  5
4CD
331
0
  5
4CE
331
0
  5
4CF
331
0
  5
4D0
331
0
  5
4D1
331
0
  5
4D2
331
0
  5
4D3
331
0
  5
4D4
331
0
  5
4D5
331
0
  5
4D6
331
0
  5
4D7
331
0
  5
4D8
331
0
  5
4D9
331
0
  5
4DA
331
0
  5
4DB
331
0
  5
4DC
331
0
  5
4DD
331
0
  5
4DE
331
0
  5
4DF
331
0
  5
4E0
331
0
  5
4E1
331
0
  5
4E2
331
0
  5
4E3
331
0
  5
4E4
331
0
  5
4E5
331
0
  5
4E6
331
0
  5
4E7
331
0
  5
4E8
331
0
  5
4E9
331
0
  5
4EA
331
0
  5
4EB
331
0
  5
4EC
331
0
  5
4ED
331
0
  5
4EE
331
0
  5
4EF
331
0
  5
4F0
331
0
  5
4F1
331
0
  5
4F2
331
0
  5
4F3
331
0
  5
4F4
331
0
  5
4F5
331
0
  5
4F6
331
0
  5
4F7
331
0
  5
4F8
331
0
  5
4F9
331
0
  5
4FA
331
0
  5
4FB
331
0
  5
4FC
331
0
  5
4FD
331
0
  5
4FE
331
0
  5
4FF
331
0
  5
500
331
0
  5
501
331
0
  5
502
331
0
  5
503
331
0
  5
504
331
0
  5
505
331
0
  5
506
331
0
  5
507
331
0
  5
508
331
0
  5
509
331
0
  5
50A
331
0
  5
50B
331
0
  5
50C
331
0
  5
50D
331
0
  5
50E
331
0
  5
50F
331
0
  5
510
331
0
  5
511
331
0
  5
512
331
0
  5
513
331
0
  5
514
331
0
  5
515
331
0
  5
516
331
0
  5
517
331
0
  5
518
331
0
  5
519
331
0
  5
51A
331
0
  5
51B
331
0
  5
51C
331
0
  5
51D
331
0
  5
51E
331
0
  5
51F
331
0
  5
520
331
0
  5
521
331
0
  5
522
331
0
  5
523
331
0
  5
524
331
0
  5
525
331
0
  5
526
331
0
  5
527
331
0
  5
528
331
0
  5
529
331
0
  5
52A
331
0
  5
52B
331
0
  5
52C
331
0
  5
52D
331
0
  5
52E
331
0
  5
52F
331
0
  5
530
331
0
  5
531
331
0
  5
532
331
0
  5
533
331
0
  5
534
331
0
  5
535
331
0
  5
536
331
0
  5
537
331
0
  5
538
331
0
  5
539
331
0
  5
53A
331
0
  5
53B
331
0
  5
53C
331
0
  5
53D
331
0
  5
53E
331
0
  5
53F
331
0
  5
540
331
0
  5
541
331
0
  5
542
331
0
  5
543
331
0
  5
544
331
0
  5
545
331
0
  5
546
331
545
  5
547
331
546
  5
548
331
547
  5
549
331
548
  5
54A
331
549
  5
54B
331
54A
  5
54C
331
54B
  5
54D
331
54C
  5
54E
331
54D
  5
54F
331
54E
  5
550
331
54F
  5
551
331
550
  5
552
331
551
  5
553
331
552
  5
554
331
553
  5
555
331
554
  5
556
331
555
  5
557
331
556
  5
558
331
557
  5
559
331
558
  5
55A
331
559
  5
55B
331
55A
  5
55C
331
55B
  5
55D
331
55C
  5
55E
331
55D
  5
55F
331
55E
  5
560
331
55F
  5
561
331
560
  5
562
331
561
  5
563
331
562
  5
564
331
563
  5
565
331
564
  5
566
331
0
  5
568
331
0
  5
569
331
0
  5
56A
331
0
  5
56B
331
0
  5
56C
331
0
  5
58F
331
0
  5
590
331
0
  5
596
331
0
  5
597
331
598
  5
59A
331
599
  5
59D
331
59A
  5
59E
331
59B
  5
59F
331
59C
  5
5A0
331
59D
  5
5A1
331
59E
  5
5A2
331
59F
  5
5A5
331
5A0
  5
5A6
331
5A1
  5
5A7
331
5A2
  5
5A8
331
5A5
  5
5A9
331
5A6
  5
5AA
331
5A7
  5
5AB
331
5A8
  5
5AC
331
5A9
  5
5AD
331
5AA
  5
5AE
331
5AB
  5
5AF
331
5AC
  5
5B0
331
5AD
  5
5B1
331
5AE
  5
5B2
331
5AF
  5
5B3
331
5B0
  5
5B4
331
5B1
  5
5B5
331
5B2
  5
5B7
331
5B3
  5
5B8
331
5B4
  5
5B9
331
5B5
  5
5BA
331
0
  5
5BB
331
0
  5
5BC
331
0
  5
5BD
331
0
  5
5BE
331
0
  5
5BF
331
0
  5
5C0
331
0
  5
5C1
331
0
  5
5C2
331
0
  5
5C3
331
0
  5
5C4
331
0
  5
5C5
331
0
  5
5C6
331
0
  5
5CD
331
0
  5
5CE
331
0
  5
5CF
331
0
  5
5D0
331
0
  5
5D1
331
5CF
  5
5D2
331
5D0
  5
5D3
331
5D1
  5
5D4
331
5D2
  5
5D5
331
5D3
  5
5D6
331
5D4
  5
5D7
331
5D5
  5
5D8
331
5D6
  5
5D9
331
5D7
  5
5DA
331
5D8
  5
5DB
331
5D9
  5
5DC
331
5DA
  5
5DD
331
5DB
  5
5DE
331
5DC
  5
5DF
331
5DD
  5
5E0
331
5DE
  5
5E1
331
5DF
  5
5E2
331
5E0
  5
5E3
331
5E1
  5
5E4
331
5E2
  5
5E5
331
5E3
  5
5E6
331
5E4
  5
5E7
331
5E5
  5
5E8
331
5E6
  5
5EB
331
5E7
  5
5EC
331
5E8
  5
5ED
331
0
  5
5EE
331
0
  5
5EF
331
0
  5
5F0
331
0
  5
5F1
331
0
  5
5F2
331
0
  5
5F3
331
0
  5
5F4
331
0
  5
5F5
331
0
  5
5F6
331
0
  5
5FD
331
0
  5
5FE
331
0
  5
5FF
331
0
  5
600
331
0
  5
601
331
0
  5
602
331
0
  5
603
331
0
  5
604
331
0
  5
605
331
0
  5
606
331
0
  5
607
331
0
  5
608
331
0
  5
609
331
0
  5
60A
  0
LAYOUT
  5
21
102
{ACAD_REACTORS
330
22
102
}
102
{ACAD_XDICTIONARY
360
23
102
}
330
22
100
AcDbPlotSettings
  1

  2
Bullzip PDF Printer.pc3
  4
A3
  6

 40
0.2
 41
0.0
 42
0.0
 43
0.0
 44
420.2
 45
297.1
 46
25.0
 47
12.0
 48
99.9999997666664
 49
0.0
140
2009.999995391667
141
1362.499996820833
142
1.0
143
5.0
 70
 11936
 72
     1
 73
     0
 74
     4
  7
monochrome.ctb
 75
     0
147
0.2
148
-99.9999997666664
149
0.0
100
AcDbLayout
  1
Model
 70
     0
 71
     0
 10
0.0
 20
0.0
 11
12.0
 21
9.0
 12
0.0
 22
0.0
 32
0.0
 14
168.3047417163621
 24
30.36657324659564
 34
0.0
 15
1716.577064743997
 25
1323.573346143332
 35
0.0
146
0.0
 13
0.0
 23
0.0
 33
0.0
 16
1.0
 26
0.0
 36
0.0
 17
0.0
 27
1.0
 37
0.0
 76
     0
330
19
331
32
1001
ACAD_PSEXT
1000
Bullzip PDF Printer.pc3
1000
Bullzip PDF Printer
1000
BULLZIP
1000
Bullzip PDF Printer 10.1.0.1871
1070
     0
  0
LAYOUT
  5
29
102
{ACAD_REACTORS
330
22
102
}
330
22
100
AcDbPlotSettings
  1

  2
SR-LP8300F
  4

  6

 40
0.0
 41
0.0
 42
0.0
 43
0.0
 44
0.0
 45
0.0
 46
0.0
 47
0.0
 48
0.0
 49
0.0
140
0.0
141
0.0
142
1.0
143
1.0
 70
   688
 72
     0
 73
     0
 74
     5
  7
monochrome.ctb
 75
    16
147
1.0
148
0.0
149
0.0
100
AcDbLayout
  1
ﾚｲｱｳﾄ1
 70
     0
 71
     1
 10
0.0
 20
0.0
 11
12.0
 21
9.0
 12
0.0
 22
0.0
 32
0.0
 14
1000000000000000E+20
 24
1000000000000000E+20
 34
1000000000000000E+20
 15
-1000000000000000E+20
 25
-1000000000000000E+20
 35
-1000000000000000E+20
146
0.0
 13
0.0
 23
0.0
 33
0.0
 16
1.0
 26
0.0
 36
0.0
 17
0.0
 27
1.0
 37
0.0
 76
     0
330
26
  0
MATERIAL
  5
69
102
{ACAD_REACTORS
330
B
102
}
102
{ACAD_XDICTIONARY
360
631
102
}
330
B
100
AcDbMaterial
  1
ByBlock
 72
     0
 73
     2
 43
0.0208333333333333
 43
0.0
 43
0.0
 43
0.0
 43
0.0
 43
0.0208333333333333
 43
0.0
 43
0.0
 43
0.0
 43
0.0
 43
1.0
 43
0.0
 43
0.0
 43
0.0
 43
0.0
 43
1.0
 77
     0
 78
     2
 47
0.0208333333333333
 47
0.0
 47
0.0
 47
0.0
 47
0.0
 47
0.0208333333333333
 47
0.0
 47
0.0
 47
0.0
 47
0.0
 47
1.0
 47
0.0
 47
0.0
 47
0.0
 47
0.0
 47
1.0
171
     0
172
     2
 49
0.0208333333333333
 49
0.0
 49
0.0
 49
0.0
 49
0.0
 49
0.0208333333333333
 49
0.0
 49
0.0
 49
0.0
 49
0.0
 49
1.0
 49
0.0
 49
0.0
 49
0.0
 49
0.0
 49
1.0
175
     0
176
     2
142
0.0208333333333333
142
0.0
142
0.0
142
0.0
142
0.0
142
0.0208333333333333
142
0.0
142
0.0
142
0.0
142
0.0
142
1.0
142
0.0
142
0.0
142
0.0
142
0.0
142
1.0
179
     0
270
     2
144
0.0208333333333333
144
0.0
144
0.0
144
0.0
144
0.0
144
0.0208333333333333
144
0.0
144
0.0
144
0.0
144
0.0
144
1.0
144
0.0
144
0.0
144
0.0
144
0.0
144
1.0
274
     2
147
0.0208333333333333
147
0.0
147
0.0
147
0.0
147
0.0
147
0.0208333333333333
147
0.0
147
0.0
147
0.0
147
0.0
147
1.0
147
0.0
147
0.0
147
0.0
147
0.0
147
1.0
  0
MATERIAL
  5
12
102
{ACAD_REACTORS
330
B
102
}
102
{ACAD_XDICTIONARY
360
62D
102
}
330
B
100
AcDbMaterial
  1
ByLayer
 72
     0
 73
     2
 43
0.0208333333333333
 43
0.0
 43
0.0
 43
0.0
 43
0.0
 43
0.0208333333333333
 43
0.0
 43
0.0
 43
0.0
 43
0.0
 43
1.0
 43
0.0
 43
0.0
 43
0.0
 43
0.0
 43
1.0
 77
     0
 78
     2
 47
0.0208333333333333
 47
0.0
 47
0.0
 47
0.0
 47
0.0
 47
0.0208333333333333
 47
0.0
 47
0.0
 47
0.0
 47
0.0
 47
1.0
 47
0.0
 47
0.0
 47
0.0
 47
0.0
 47
1.0
171
     0
172
     2
 49
0.0208333333333333
 49
0.0
 49
0.0
 49
0.0
 49
0.0
 49
0.0208333333333333
 49
0.0
 49
0.0
 49
0.0
 49
0.0
 49
1.0
 49
0.0
 49
0.0
 49
0.0
 49
0.0
 49
1.0
175
     0
176
     2
142
0.0208333333333333
142
0.0
142
0.0
142
0.0
142
0.0
142
0.0208333333333333
142
0.0
142
0.0
142
0.0
142
0.0
142
1.0
142
0.0
142
0.0
142
0.0
142
0.0
142
1.0
179
     0
270
     2
144
0.0208333333333333
144
0.0
144
0.0
144
0.0
144
0.0
144
0.0208333333333333
144
0.0
144
0.0
144
0.0
144
0.0
144
1.0
144
0.0
144
0.0
144
0.0
144
0.0
144
1.0
274
     2
147
0.0208333333333333
147
0.0
147
0.0
147
0.0
147
0.0
147
0.0208333333333333
147
0.0
147
0.0
147
0.0
147
0.0
147
1.0
147
0.0
147
0.0
147
0.0
147
0.0
147
1.0
  0
MATERIAL
  5
A
102
{ACAD_REACTORS
330
B
102
}
102
{ACAD_XDICTIONARY
360
62F
102
}
330
B
100
AcDbMaterial
  1
Global
 72
     0
 73
     2
 43
0.0208333333333333
 43
0.0
 43
0.0
 43
0.0
 43
0.0
 43
0.0208333333333333
 43
0.0
 43
0.0
 43
0.0
 43
0.0
 43
1.0
 43
0.0
 43
0.0
 43
0.0
 43
0.0
 43
1.0
 77
     0
 78
     2
 47
0.0208333333333333
 47
0.0
 47
0.0
 47
0.0
 47
0.0
 47
0.0208333333333333
 47
0.0
 47
0.0
 47
0.0
 47
0.0
 47
1.0
 47
0.0
 47
0.0
 47
0.0
 47
0.0
 47
1.0
171
     0
172
     2
 49
0.0208333333333333
 49
0.0
 49
0.0
 49
0.0
 49
0.0
 49
0.0208333333333333
 49
0.0
 49
0.0
 49
0.0
 49
0.0
 49
1.0
 49
0.0
 49
0.0
 49
0.0
 49
0.0
 49
1.0
175
     0
176
     2
142
0.0208333333333333
142
0.0
142
0.0
142
0.0
142
0.0
142
0.0208333333333333
142
0.0
142
0.0
142
0.0
142
0.0
142
1.0
142
0.0
142
0.0
142
0.0
142
0.0
142
1.0
179
     0
270
     2
144
0.0208333333333333
144
0.0
144
0.0
144
0.0
144
0.0
144
0.0208333333333333
144
0.0
144
0.0
144
0.0
144
0.0
144
1.0
144
0.0
144
0.0
144
0.0
144
0.0
144
1.0
274
     2
147
0.0208333333333333
147
0.0
147
0.0
147
0.0
147
0.0
147
0.0208333333333333
147
0.0
147
0.0
147
0.0
147
0.0
147
1.0
147
0.0
147
0.0
147
0.0
147
0.0
147
1.0
  0
MLEADERSTYLE
  5
58A
102
{ACAD_REACTORS
330
570
102
}
102
{ACAD_XDICTIONARY
360
663
102
}
330
570
100
AcDbMLeaderStyle
170
     2
171
     1
172
     0
 90
        2
 40
0.0
 41
0.0
173
     1
 91
-1056964608
340
F
 92
       -2
290
     1
 42
0.09
291
     1
 43
0.36
  3
Standard
341
0
 44
0.18
300

342
10
174
     1
178
     6
175
     1
176
     0
 93
-1056964608
 45
0.18
292
     0
297
     0
 46
0.18
343
0
 94
-1056964608
 47
1.0
 49
1.0
140
1.0
293
     1
141
0.0
294
     1
177
     0
142
1.0
295
     0
296
     0
143
0.125
1001
ACAD_MLEADERVER
1070
     2
  0
MLINESTYLE
  5
16
102
{ACAD_REACTORS
330
17
102
}
330
17
100
AcDbMlineStyle
  2
STANDARD
 70
     0
  3

 62
     0
 51
90.0
 52
90.0
 71
     2
 49
0.5
 62
   256
  6
BYLAYER
 49
-0.5
 62
   256
  6
BYLAYER
  0
ACDBPLACEHOLDER
  5
7
102
{ACAD_REACTORS
330
8
102
}
330
8
  0
SCALE
  5
58
102
{ACAD_REACTORS
330
36
102
}
330
36
100
AcDbScale
 70
     0
300
1:1
140
1.0
141
1.0
290
     1
  0
SCALE
  5
61
102
{ACAD_REACTORS
330
36
102
}
330
36
100
AcDbScale
 70
     0
300
3/8" = 1'-0"
140
0.375
141
12.0
290
     0
  0
SCALE
  5
62
102
{ACAD_REACTORS
330
36
102
}
330
36
100
AcDbScale
 70
     0
300
1/2" = 1'-0"
140
0.5
141
12.0
290
     0
  0
SCALE
  5
63
102
{ACAD_REACTORS
330
36
102
}
330
36
100
AcDbScale
 70
     0
300
3/4" = 1'-0"
140
0.75
141
12.0
290
     0
  0
SCALE
  5
64
102
{ACAD_REACTORS
330
36
102
}
330
36
100
AcDbScale
 70
     0
300
1" = 1'-0"
140
1.0
141
12.0
290
     0
  0
SCALE
  5
65
102
{ACAD_REACTORS
330
36
102
}
330
36
100
AcDbScale
 70
     0
300
1-1/2" = 1'-0"
140
1.5
141
12.0
290
     0
  0
SCALE
  5
66
102
{ACAD_REACTORS
330
36
102
}
330
36
100
AcDbScale
 70
     0
300
3" = 1'-0"
140
3.0
141
12.0
290
     0
  0
SCALE
  5
67
102
{ACAD_REACTORS
330
36
102
}
330
36
100
AcDbScale
 70
     0
300
6" = 1'-0"
140
6.0
141
12.0
290
     0
  0
SCALE
  5
68
102
{ACAD_REACTORS
330
36
102
}
330
36
100
AcDbScale
 70
     0
300
1'-0" = 1'-0"
140
12.0
141
12.0
290
     0
  0
SCALE
  5
59
102
{ACAD_REACTORS
330
36
102
}
330
36
100
AcDbScale
 70
     0
300
1/128" = 1'-0"
140
0.0078125
141
12.0
290
     0
  0
SCALE
  5
5A
102
{ACAD_REACTORS
330
36
102
}
330
36
100
AcDbScale
 70
     0
300
1/64" = 1'-0"
140
0.015625
141
12.0
290
     0
  0
SCALE
  5
5B
102
{ACAD_REACTORS
330
36
102
}
330
36
100
AcDbScale
 70
     0
300
1/32" = 1'-0"
140
0.03125
141
12.0
290
     0
  0
SCALE
  5
5C
102
{ACAD_REACTORS
330
36
102
}
330
36
100
AcDbScale
 70
     0
300
1/16" = 1'-0"
140
0.0625
141
12.0
290
     0
  0
SCALE
  5
5D
102
{ACAD_REACTORS
330
36
102
}
330
36
100
AcDbScale
 70
     0
300
3/32" = 1'-0"
140
0.09375
141
12.0
290
     0
  0
SCALE
  5
5E
102
{ACAD_REACTORS
330
36
102
}
330
36
100
AcDbScale
 70
     0
300
1/8" = 1'-0"
140
0.125
141
12.0
290
     0
  0
SCALE
  5
5F
102
{ACAD_REACTORS
330
36
102
}
330
36
100
AcDbScale
 70
     0
300
3/16" = 1'-0"
140
0.1875
141
12.0
290
     0
  0
SCALE
  5
60
102
{ACAD_REACTORS
330
36
102
}
330
36
100
AcDbScale
 70
     0
300
1/4" = 1'-0"
140
0.25
141
12.0
290
     0
  0
TABLESTYLE
  5
594
102
{ACAD_REACTORS
330
56F
102
}
330
56F
100
AcDbTableStyle
  3
Standard
 70
     0
 71
     0
 40
0.06
 41
0.06
280
     0
281
     0
  7
STANDARD
140
0.18
170
     2
 62
     0
 63
   257
283
     0
274
    -2
284
     1
 64
     0
275
    -2
285
     1
 65
     0
276
    -2
286
     1
 66
     0
277
    -2
287
     1
 67
     0
278
    -2
288
     1
 68
     0
279
    -2
289
     1
 69
     0
  7
STANDARD
140
0.25
170
     5
 62
     0
 63
   257
283
     0
274
    -2
284
     1
 64
     0
275
    -2
285
     1
 65
     0
276
    -2
286
     1
 66
     0
277
    -2
287
     1
 67
     0
278
    -2
288
     1
 68
     0
279
    -2
289
     1
 69
     0
  7
STANDARD
140
0.18
170
     5
 62
     0
 63
   257
283
     0
274
    -2
284
     1
 64
     0
275
    -2
285
     1
 65
     0
276
    -2
286
     1
 66
     0
277
    -2
287
     1
 67
     0
278
    -2
288
     1
 68
     0
279
    -2
289
     1
 69
     0
  0
VISUALSTYLE
  5
33
102
{ACAD_REACTORS
330
30
102
}
102
{ACAD_XDICTIONARY
360
633
102
}
330
30
100
AcDbVisualStyle
  2
2dWireframe
 70
     4
 71
     0
 72
     2
 73
     0
 90
        0
 40
0.6
 41
30.0
 62
     5
 63
     7
 74
     1
 91
        4
 64
     7
 65
   257
 75
     1
175
     1
 42
1.0
 92
        0
 66
   257
 43
1.0
 76
     1
 77
     6
 78
     2
 67
     7
 79
     5
170
     0
171
     0
290
     0
174
     0
 93
        1
 44
0.0
173
     0
291
     0
 45
0.0
1001
ACAD
1000
AcDbSavedByObjectVersion
1070
     0
  0
VISUALSTYLE
  5
579
102
{ACAD_REACTORS
330
30
102
}
102
{ACAD_XDICTIONARY
360
641
102
}
330
30
100
AcDbVisualStyle
  2
Basic
 70
     7
 71
     1
 72
     0
 73
     1
 90
        0
 40
0.6
 41
30.0
 62
     5
 63
     7
 74
     0
 91
        4
 64
     7
 65
   257
 75
     1
175
     1
 42
1.0
 92
        8
 66
     7
 43
1.0
 76
     1
 77
     6
 78
     2
 67
     7
 79
     5
170
     0
171
     0
290
     0
174
     0
 93
        1
 44
0.0
173
     0
291
     1
 45
0.0
1001
ACAD
1000
AcDbSavedByObjectVersion
1070
     0
  0
VISUALSTYLE
  5
57D
102
{ACAD_REACTORS
330
30
102
}
102
{ACAD_XDICTIONARY
360
649
102
}
330
30
100
AcDbVisualStyle
  2
Brighten
 70
    12
 71
     2
 72
     2
 73
     0
 90
        0
 40
0.6
 41
30.0
 62
     5
 63
     7
 74
     1
 91
        4
 64
     7
 65
   257
 75
     1
175
     1
 42
1.0
 92
        8
 66
     7
 43
1.0
 76
     1
 77
     6
 78
     2
 67
     7
 79
     5
170
     0
171
     0
290
     0
174
     0
 93
        1
 44
50.0
173
     0
291
     1
 45
0.0
1001
ACAD
1000
AcDbSavedByObjectVersion
1070
     0
  0
VISUALSTYLE
  5
581
102
{ACAD_REACTORS
330
30
102
}
102
{ACAD_XDICTIONARY
360
651
102
}
330
30
100
AcDbVisualStyle
  2
ColorChange
 70
    16
 71
     2
 72
     2
 73
     3
 90
        0
 40
0.6
 41
30.0
 62
     5
 63
     8
 74
     1
 91
        4
 64
     7
 65
   257
 75
     1
175
     1
 42
1.0
 92
        8
 66
     8
 43
1.0
 76
     1
 77
     6
 78
     2
 67
     7
 79
     5
170
     0
171
     0
290
     0
174
     0
 93
        1
 44
0.0
173
     0
291
     1
 45
0.0
1001
ACAD
1000
AcDbSavedByObjectVersion
1070
     0
  0
VISUALSTYLE
  5
57B
102
{ACAD_REACTORS
330
30
102
}
102
{ACAD_XDICTIONARY
360
645
102
}
330
30
100
AcDbVisualStyle
  2
Conceptual
 70
     9
 71
     3
 72
     2
 73
     0
 90
        0
 40
0.6
 41
30.0
 62
     5
 63
     7
 74
     2
 91
        2
 64
     7
 65
   257
 75
     1
175
     1
 42
40.0
 92
        8
 66
     7
 43
1.0
 76
     1
 77
     6
 78
     2
 67
     7
 79
     3
170
     0
171
     0
290
     0
174
     0
 93
        1
 44
0.0
173
     0
291
     0
 45
0.0
1001
ACAD
1000
AcDbSavedByObjectVersion
1070
     0
  0
VISUALSTYLE
  5
57C
102
{ACAD_REACTORS
330
30
102
}
102
{ACAD_XDICTIONARY
360
647
102
}
330
30
100
AcDbVisualStyle
  2
Dim
 70
    11
 71
     2
 72
     2
 73
     0
 90
        0
 40
0.6
 41
30.0
 62
     5
 63
     7
 74
     1
 91
        4
 64
     7
 65
   257
 75
     1
175
     1
 42
1.0
 92
        8
 66
     7
 43
1.0
 76
     1
 77
     6
 78
     2
 67
     7
 79
     5
170
     0
171
     0
290
     0
174
     0
 93
        1
 44
-50.0
173
     0
291
     1
 45
0.0
1001
ACAD
1000
AcDbSavedByObjectVersion
1070
     0
  0
VISUALSTYLE
  5
584
102
{ACAD_REACTORS
330
30
102
}
102
{ACAD_XDICTIONARY
360
657
102
}
330
30
100
AcDbVisualStyle
  2
EdgeColorOff
 70
    22
 71
     2
 72
     2
 73
     0
 90
        0
 40
0.6
 41
30.0
 62
     5
 63
     7
 74
     1
 91
        4
 64
     7
 65
   257
 75
     1
175
     1
 42
1.0
 92
        8
 66
     7
 43
1.0
 76
     1
 77
     6
 78
     2
 67
     7
 79
     5
170
     0
171
     0
290
     0
174
     0
 93
        1
 44
0.0
173
     0
291
     1
 45
0.0
1001
ACAD
1000
AcDbSavedByObjectVersion
1070
     0
  0
VISUALSTYLE
  5
580
102
{ACAD_REACTORS
330
30
102
}
102
{ACAD_XDICTIONARY
360
64F
102
}
330
30
100
AcDbVisualStyle
  2
Facepattern
 70
    15
 71
     2
 72
     2
 73
     0
 90
        0
 40
0.6
 41
30.0
 62
     5
 63
     7
 74
     1
 91
        4
 64
     7
 65
   257
 75
     1
175
     1
 42
1.0
 92
        8
 66
     7
 43
1.0
 76
     1
 77
     6
 78
     2
 67
     7
 79
     5
170
     0
171
     0
290
     0
174
     0
 93
        1
 44
0.0
173
     0
291
     1
 45
0.0
1001
ACAD
1000
AcDbSavedByObjectVersion
1070
     0
  0
VISUALSTYLE
  5
573
102
{ACAD_REACTORS
330
30
102
}
102
{ACAD_XDICTIONARY
360
635
102
}
330
30
100
AcDbVisualStyle
  2
Flat
 70
     0
 71
     2
 72
     1
 73
     1
 90
        2
 40
0.6
 41
30.0
 62
     5
 63
     7
 74
     0
 91
        4
 64
     7
 65
   257
 75
     1
175
     1
 42
1.0
 92
        8
 66
     7
 43
1.0
 76
     1
 77
     6
 78
     2
 67
     7
 79
     5
170
     0
171
     0
290
     0
174
     0
 93
       13
 44
0.0
173
     0
291
     1
 45
0.0
1001
ACAD
1000
AcDbSavedByObjectVersion
1070
     0
  0
VISUALSTYLE
  5
574
102
{ACAD_REACTORS
330
30
102
}
102
{ACAD_XDICTIONARY
360
637
102
}
330
30
100
AcDbVisualStyle
  2
FlatWithEdges
 70
     1
 71
     2
 72
     1
 73
     1
 90
        2
 40
0.6
 41
30.0
 62
     5
 63
     7
 74
     1
 91
        4
 64
     7
 65
   257
 75
     1
175
     1
 42
1.0
 92
        0
 66
   257
 43
1.0
 76
     1
 77
     6
 78
     2
 67
     7
 79
     5
170
     0
171
     0
290
     0
174
     0
 93
       13
 44
0.0
173
     0
291
     1
 45
0.0
1001
ACAD
1000
AcDbSavedByObjectVersion
1070
     0
  0
VISUALSTYLE
  5
575
102
{ACAD_REACTORS
330
30
102
}
102
{ACAD_XDICTIONARY
360
639
102
}
330
30
100
AcDbVisualStyle
  2
Gouraud
 70
     2
 71
     2
 72
     2
 73
     1
 90
        2
 40
0.6
 41
30.0
 62
     5
 63
     7
 74
     0
 91
        4
 64
     7
 65
   257
 75
     1
175
     1
 42
1.0
 92
        0
 66
     7
 43
1.0
 76
     1
 77
     6
 78
     2
 67
     7
 79
     5
170
     0
171
     0
290
     0
174
     0
 93
       13
 44
0.0
173
     0
291
     1
 45
0.0
1001
ACAD
1000
AcDbSavedByObjectVersion
1070
     0
  0
VISUALSTYLE
  5
576
102
{ACAD_REACTORS
330
30
102
}
102
{ACAD_XDICTIONARY
360
63B
102
}
330
30
100
AcDbVisualStyle
  2
GouraudWithEdges
 70
     3
 71
     2
 72
     2
 73
     1
 90
        2
 40
0.6
 41
30.0
 62
     5
 63
     7
 74
     1
 91
        4
 64
     7
 65
   257
 75
     1
175
     1
 42
1.0
 92
        0
 66
   257
 43
1.0
 76
     1
 77
     6
 78
     2
 67
     7
 79
     5
170
     0
171
     0
290
     0
174
     0
 93
       13
 44
0.0
173
     0
291
     1
 45
0.0
1001
ACAD
1000
AcDbSavedByObjectVersion
1070
     0
  0
VISUALSTYLE
  5
578
102
{ACAD_REACTORS
330
30
102
}
102
{ACAD_XDICTIONARY
360
63F
102
}
330
30
100
AcDbVisualStyle
  2
Hidden
 70
     6
 71
     1
 72
     2
 73
     2
 90
        0
 40
0.6
 41
30.0
 62
     5
 63
     7
 74
     2
 91
        2
 64
     7
 65
   257
 75
     2
175
     1
 42
40.0
 92
        0
 66
   257
 43
1.0
 76
     1
 77
     6
 78
     2
 67
     7
 79
     3
170
     0
171
     0
290
     0
174
     0
 93
        1
 44
0.0
173
     0
291
     0
 45
0.0
1001
ACAD
1000
AcDbSavedByObjectVersion
1070
     0
  0
VISUALSTYLE
  5
582
102
{ACAD_REACTORS
330
30
102
}
102
{ACAD_XDICTIONARY
360
653
102
}
330
30
100
AcDbVisualStyle
  2
JitterOff
 70
    20
 71
     2
 72
     2
 73
     0
 90
        0
 40
0.6
 41
30.0
 62
     5
 63
     7
 74
     1
 91
        4
 64
     7
 65
   257
 75
     1
175
     1
 42
1.0
 92
       10
 66
     7
 43
1.0
 76
     1
 77
     6
 78
     2
 67
     7
 79
     5
170
     0
171
     0
290
     0
174
     0
 93
        1
 44
0.0
173
     0
291
     1
 45
0.0
1001
ACAD
1000
AcDbSavedByObjectVersion
1070
     0
  0
VISUALSTYLE
  5
57F
102
{ACAD_REACTORS
330
30
102
}
102
{ACAD_XDICTIONARY
360
64D
102
}
330
30
100
AcDbVisualStyle
  2
Linepattern
 70
    14
 71
     2
 72
     2
 73
     0
 90
        0
 40
0.6
 41
30.0
 62
     5
 63
     7
 74
     1
 91
        4
 64
     7
 65
   257
 75
     7
175
     7
 42
1.0
 92
        8
 66
     7
 43
1.0
 76
     1
 77
     6
 78
     2
 67
     7
 79
     5
170
     0
171
     0
290
     0
174
     0
 93
        1
 44
0.0
173
     0
291
     1
 45
0.0
1001
ACAD
1000
AcDbSavedByObjectVersion
1070
     0
  0
VISUALSTYLE
  5
583
102
{ACAD_REACTORS
330
30
102
}
102
{ACAD_XDICTIONARY
360
655
102
}
330
30
100
AcDbVisualStyle
  2
OverhangOff
 70
    21
 71
     2
 72
     2
 73
     0
 90
        0
 40
0.6
 41
30.0
 62
     5
 63
     7
 74
     1
 91
        4
 64
     7
 65
   257
 75
     1
175
     1
 42
1.0
 92
        9
 66
     7
 43
1.0
 76
     1
 77
     6
 78
     2
 67
     7
 79
     5
170
     0
171
     0
290
     0
174
     0
 93
        1
 44
0.0
173
     0
291
     1
 45
0.0
1001
ACAD
1000
AcDbSavedByObjectVersion
1070
     0
  0
VISUALSTYLE
  5
57A
102
{ACAD_REACTORS
330
30
102
}
102
{ACAD_XDICTIONARY
360
643
102
}
330
30
100
AcDbVisualStyle
  2
Realistic
 70
     8
 71
     2
 72
     3
 73
     0
 90
        2
 40
0.6
 41
30.0
 62
     5
 63
     7
 74
     0
 91
        0
 64
     7
 65
   257
 75
     1
175
     1
 42
1.0
 92
        8
 66
   257
 43
1.0
 76
     1
 77
     6
 78
     2
 67
     7
 79
     3
170
     0
171
     0
290
     0
174
     0
 93
       13
 44
0.0
173
     0
291
     0
 45
0.0
1001
ACAD
1000
AcDbSavedByObjectVersion
1070
     0
  0
VISUALSTYLE
  5
589
102
{ACAD_REACTORS
330
30
102
}
102
{ACAD_XDICTIONARY
360
661
102
}
330
30
100
AcDbVisualStyle
  2
Shaded
 70
    27
 71
     2
 72
     2
 73
     1
 90
        2
 40
0.6
 41
30.0
 62
     5
 63
     7
 74
     0
 91
        4
 64
     7
 65
   257
 75
     1
175
     1
 42
1.0
 92
        8
 66
   257
 43
1.0
 76
     1
 77
     6
 78
     2
 67
   251
 79
     3
170
     0
171
     0
290
     0
174
     0
 93
        5
 44
0.0
173
     0
291
     0
 45
0.0
1001
ACAD
1000
AcDbSavedByObjectVersion
1070
     0
  0
VISUALSTYLE
  5
588
102
{ACAD_REACTORS
330
30
102
}
102
{ACAD_XDICTIONARY
360
65F
102
}
330
30
100
AcDbVisualStyle
  2
Shaded with edges
 70
    26
 71
     2
 72
     2
 73
     1
 90
        2
 40
0.6
 41
30.0
 62
     5
 63
     7
 74
     1
 91
       10
 64
     7
 65
   257
 75
     2
175
     1
 42
1.0
 92
        8
 66
   257
 43
1.0
 76
     1
 77
     6
 78
     2
 67
     7
 79
     3
170
     0
171
     0
290
     0
174
     0
 93
        5
 44
0.0
173
     0
291
     0
 45
0.0
1001
ACAD
1000
AcDbSavedByObjectVersion
1070
     0
  0
VISUALSTYLE
  5
585
102
{ACAD_REACTORS
330
30
102
}
102
{ACAD_XDICTIONARY
360
659
102
}
330
30
100
AcDbVisualStyle
  2
Shades of Gray
 70
    23
 71
     2
 72
     2
 73
     3
 90
        0
 40
0.6
 41
30.0
 62
     5
 63
     7
 74
     2
 91
        2
 64
     7
 65
     7
 75
     1
175
     1
 42
40.0
 92
        8
 66
     7
 43
1.0
 76
     1
 77
     6
 78
     2
 67
     7
 79
     3
170
     0
171
     0
290
     0
174
     0
 93
        1
 44
0.0
173
     0
291
     0
 45
0.0
1001
ACAD
1000
AcDbSavedByObjectVersion
1070
     0
  0
VISUALSTYLE
  5
586
102
{ACAD_REACTORS
330
30
102
}
102
{ACAD_XDICTIONARY
360
65B
102
}
330
30
100
AcDbVisualStyle
  2
Sketchy
 70
    24
 71
     1
 72
     2
 73
     2
 90
        0
 40
0.6
 41
30.0
 62
     5
 63
     7
 74
     2
 91
        2
 64
     7
 65
     7
 75
     1
175
     1
 42
40.0
 92
       11
 66
     7
 43
1.0
 76
     1
 77
     6
 78
     2
 67
     7
 79
     6
170
     0
171
     0
290
     0
174
     0
 93
        1
 44
0.0
173
     0
291
     0
 45
0.0
1001
ACAD
1000
AcDbSavedByObjectVersion
1070
     0
  0
VISUALSTYLE
  5
57E
102
{ACAD_REACTORS
330
30
102
}
102
{ACAD_XDICTIONARY
360
64B
102
}
330
30
100
AcDbVisualStyle
  2
Thicken
 70
    13
 71
     2
 72
     2
 73
     0
 90
        0
 40
0.6
 41
30.0
 62
     5
 63
     7
 74
     1
 91
        4
 64
     7
 65
   257
 75
     1
175
     1
 42
1.0
 92
       12
 66
     7
 43
1.0
 76
     1
 77
     6
 78
     2
 67
     7
 79
     5
170
     0
171
     0
290
     0
174
     0
 93
        1
 44
0.0
173
     0
291
     1
 45
0.0
1001
ACAD
1000
AcDbSavedByObjectVersion
1070
     0
  0
VISUALSTYLE
  5
577
102
{ACAD_REACTORS
330
30
102
}
102
{ACAD_XDICTIONARY
360
63D
102
}
330
30
100
AcDbVisualStyle
  2
Wireframe
 70
     5
 71
     0
 72
     2
 73
     0
 90
        0
 40
0.6
 41
30.0
 62
     5
 63
     7
 74
     1
 91
        4
 64
     7
 65
   257
 75
     1
175
     1
 42
1.0
 92
        0
 66
   257
 43
1.0
 76
     1
 77
     6
 78
     2
 67
     7
 79
     5
170
     0
171
     0
290
     0
174
     0
 93
        1
 44
0.0
173
     0
291
     0
 45
0.0
1001
ACAD
1000
AcDbSavedByObjectVersion
1070
     0
  0
VISUALSTYLE
  5
587
102
{ACAD_REACTORS
330
30
102
}
102
{ACAD_XDICTIONARY
360
65D
102
}
330
30
100
AcDbVisualStyle
  2
X-Ray
 70
    25
 71
     2
 72
     2
 73
     1
 90
        1
 40
0.5
 41
30.0
 62
     5
 63
     7
 74
     1
 91
        0
 64
     7
 65
   257
 75
     1
175
     1
 42
1.0
 92
        8
 66
     7
 43
1.0
 76
     1
 77
     6
 78
     2
 67
     7
 79
     3
170
     0
171
     0
290
     0
174
     0
 93
       13
 44
0.0
173
     0
291
     0
 45
0.0
1001
ACAD
1000
AcDbSavedByObjectVersion
1070
     0
  0
XRECORD
  5
627
102
{ACAD_REACTORS
330
626
102
}
330
626
100
AcDbXrecord
280
     1
340
2F
  0
XRECORD
  5
628
102
{ACAD_REACTORS
330
626
102
}
330
626
100
AcDbXrecord
280
     1
340
B
  0
DICTIONARYVAR
  5
56E
102
{ACAD_REACTORS
330
56D
102
}
330
56D
100
DictionaryVariables
280
     0
  1
1:1
  0
DICTIONARYVAR
  5
58C
102
{ACAD_REACTORS
330
56D
102
}
330
56D
100
DictionaryVariables
280
     0
  1
Standard
  0
DICTIONARYVAR
  5
595
102
{ACAD_REACTORS
330
56D
102
}
330
56D
100
DictionaryVariables
280
     0
  1
Standard
  0
DICTIONARYVAR
  5
624
102
{ACAD_REACTORS
330
56D
102
}
330
56D
100
DictionaryVariables
280
     0
  1
0
  0
DICTIONARYVAR
  5
625
102
{ACAD_REACTORS
330
56D
102
}
330
56D
100
DictionaryVariables
280
     0
  1
0
  0
DICTIONARYVAR
  5
62C
102
{ACAD_REACTORS
330
56D
102
}
330
56D
100
DictionaryVariables
280
     0
  1
1
  0
DICTIONARY
  5
23
330
21
100
AcDbDictionary
280
     1
281
     1
  0
DICTIONARY
  5
631
330
69
100
AcDbDictionary
280
     1
281
     1
  3
ACAD_XREC_ROUNDTRIP
360
632
  0
DICTIONARY
  5
62D
330
12
100
AcDbDictionary
280
     1
281
     1
  3
ACAD_XREC_ROUNDTRIP
360
62E
  0
DICTIONARY
  5
62F
330
A
100
AcDbDictionary
280
     1
281
     1
  3
ACAD_XREC_ROUNDTRIP
360
630
  0
DICTIONARY
  5
663
330
58A
100
AcDbDictionary
280
     1
281
     1
  3
ACAD_XREC_ROUNDTRIP
360
664
  0
DICTIONARY
  5
633
330
33
100
AcDbDictionary
280
     1
281
     1
  3
ACAD_XREC_ROUNDTRIP
360
634
  0
DICTIONARY
  5
641
330
579
100
AcDbDictionary
280
     1
281
     1
  3
ACAD_XREC_ROUNDTRIP
360
642
  0
DICTIONARY
  5
649
330
57D
100
AcDbDictionary
280
     1
281
     1
  3
ACAD_XREC_ROUNDTRIP
360
64A
  0
DICTIONARY
  5
651
330
581
100
AcDbDictionary
280
     1
281
     1
  3
ACAD_XREC_ROUNDTRIP
360
652
  0
DICTIONARY
  5
645
330
57B
100
AcDbDictionary
280
     1
281
     1
  3
ACAD_XREC_ROUNDTRIP
360
646
  0
DICTIONARY
  5
647
330
57C
100
AcDbDictionary
280
     1
281
     1
  3
ACAD_XREC_ROUNDTRIP
360
648
  0
DICTIONARY
  5
657
330
584
100
AcDbDictionary
280
     1
281
     1
  3
ACAD_XREC_ROUNDTRIP
360
658
  0
DICTIONARY
  5
64F
330
580
100
AcDbDictionary
280
     1
281
     1
  3
ACAD_XREC_ROUNDTRIP
360
650
  0
DICTIONARY
  5
635
330
573
100
AcDbDictionary
280
     1
281
     1
  3
ACAD_XREC_ROUNDTRIP
360
636
  0
DICTIONARY
  5
637
330
574
100
AcDbDictionary
280
     1
281
     1
  3
ACAD_XREC_ROUNDTRIP
360
638
  0
DICTIONARY
  5
639
330
575
100
AcDbDictionary
280
     1
281
     1
  3
ACAD_XREC_ROUNDTRIP
360
63A
  0
DICTIONARY
  5
63B
330
576
100
AcDbDictionary
280
     1
281
     1
  3
ACAD_XREC_ROUNDTRIP
360
63C
  0
DICTIONARY
  5
63F
330
578
100
AcDbDictionary
280
     1
281
     1
  3
ACAD_XREC_ROUNDTRIP
360
640
  0
DICTIONARY
  5
653
330
582
100
AcDbDictionary
280
     1
281
     1
  3
ACAD_XREC_ROUNDTRIP
360
654
  0
DICTIONARY
  5
64D
330
57F
100
AcDbDictionary
280
     1
281
     1
  3
ACAD_XREC_ROUNDTRIP
360
64E
  0
DICTIONARY
  5
655
330
583
100
AcDbDictionary
280
     1
281
     1
  3
ACAD_XREC_ROUNDTRIP
360
656
  0
DICTIONARY
  5
643
330
57A
100
AcDbDictionary
280
     1
281
     1
  3
ACAD_XREC_ROUNDTRIP
360
644
  0
DICTIONARY
  5
661
330
589
100
AcDbDictionary
280
     1
281
     1
  3
ACAD_XREC_ROUNDTRIP
360
662
  0
DICTIONARY
  5
65F
330
588
100
AcDbDictionary
280
     1
281
     1
  3
ACAD_XREC_ROUNDTRIP
360
660
  0
DICTIONARY
  5
659
330
585
100
AcDbDictionary
280
     1
281
     1
  3
ACAD_XREC_ROUNDTRIP
360
65A
  0
DICTIONARY
  5
65B
330
586
100
AcDbDictionary
280
     1
281
     1
  3
ACAD_XREC_ROUNDTRIP
360
65C
  0
DICTIONARY
  5
64B
330
57E
100
AcDbDictionary
280
     1
281
     1
  3
ACAD_XREC_ROUNDTRIP
360
64C
  0
DICTIONARY
  5
63D
330
577
100
AcDbDictionary
280
     1
281
     1
  3
ACAD_XREC_ROUNDTRIP
360
63E
  0
DICTIONARY
  5
65D
330
587
100
AcDbDictionary
280
     1
281
     1
  3
ACAD_XREC_ROUNDTRIP
360
65E
  0
XRECORD
  5
632
102
{ACAD_REACTORS
330
631
102
}
330
631
100
AcDbXrecord
280
     1
102
MATERIAL
148
0.0
149
0.0
149
0.0
 93
        0
 94
      127
282
     0
 72
     0
 77
     0
171
     0
175
     0
179
     0
273
     0
  0
XRECORD
  5
62E
102
{ACAD_REACTORS
330
62D
102
}
330
62D
100
AcDbXrecord
280
     1
102
MATERIAL
148
0.0
149
0.0
149
0.0
 93
        0
 94
      127
282
     0
 72
     0
 77
     0
171
     0
175
     0
179
     0
273
     0
  0
XRECORD
  5
630
102
{ACAD_REACTORS
330
62F
102
}
330
62F
100
AcDbXrecord
280
     1
102
MATERIAL
148
0.0
149
0.0
149
0.0
 93
        0
 94
      127
282
     0
 72
     0
 77
     0
171
     0
175
     0
179
     0
273
     0
  0
XRECORD
  5
664
102
{ACAD_REACTORS
330
663
102
}
330
663
100
AcDbXrecord
280
     1
102
ACAD_ROUNDTRIP_2010_MLEADER_STYLE
  0
XRECORD
  5
634
102
{ACAD_REACTORS
330
633
102
}
330
633
100
AcDbXrecord
280
     1
102
RTVSPropertyOp0
 70
     1
102
RTVSPropertyOp1
 70
     1
102
RTVSPropertyOp2
 70
     1
102
RTVSPropertyOp3
 70
     1
102
RTVSPropertyOp4
 70
     1
102
RTVSPropertyOp5
 70
     1
102
RTVSPropertyOp6
 70
     1
102
RTVSPropertyOp7
 70
     1
102
RTVSPropertyOp8
 70
     1
102
RTVSPropertyOp9
 70
     1
102
RTVSPropertyOp10
 70
     1
102
RTVSPropertyOp11
 70
     1
102
RTVSPropertyOp12
 70
     1
102
RTVSPropertyOp13
 70
     1
102
RTVSPropertyOp14
 70
     1
102
RTVSPropertyOp15
 70
     1
102
RTVSPropertyOp16
 70
     1
102
RTVSPropertyOp17
 70
     1
102
RTVSPropertyOp18
 70
     1
102
RTVSPropertyOp19
 70
     1
102
RTVSPropertyOp20
 70
     1
102
RTVSPropertyOp21
 70
     1
102
RTVSPropertyOp22
 70
     1
102
RTVSPropertyOp23
 70
     1
102
RTVSPropertyOp24
 70
     1
102
RTVSPropertyOp25
 70
     1
102
RTVSPropertyOp26
 70
     1
102
RTVSPropertyOp27
 70
     1
102
RTVSPropertyOp28
 70
     1
102
RTVSPropertyOp29
 70
     1
102
RTVSPropertyOp30
 70
     1
102
RTVSPropertyOp31
 70
     1
102
RTVSPropertyOp32
 70
     1
102
RTVSPropertyOp33
 70
     1
102
RTVSPropertyOp34
 70
     1
102
RTVSPropertyOp35
 70
     1
102
RTVSPropertyOp36
 70
     1
102
RTVSPropertyOp37
 70
     1
102
RTVSPropertyOp38
 70
     1
102
RTVSPropertyOp39
 70
     1
102
RTVSPropertyOp40
 70
     1
102
RTVSPropertyOp41
 70
     1
102
RTVSPropertyOp42
 70
     1
102
RTVSPropertyOp43
 70
     1
102
RTVSPropertyOp44
 70
     1
102
RTVSPropertyOp45
 70
     1
102
RTVSPropertyOp46
 70
     1
102
RTVSPropertyOp47
 70
     1
102
RTVSPropertyOp48
 70
     1
102
RTVSPropertyOp49
 70
     1
102
RTVSPropertyOp50
 70
     1
102
RTVSPropertyOp51
 70
     0
102
RTVSPropertyOp52
 70
     0
102
RTVSPropertyOp53
 70
     1
102
RTVSPropertyOp54
 70
     1
102
RTVSPropertyOp55
 70
     1
102
RTVSPropertyOp56
 70
     1
102
RTVSPropertyOp57
 70
     1
102
RTVSPost2010Prop28
280
     1
102
RTVSPost2010PropOp28
 70
     1
102
RTVSPost2010Prop29
280
     1
102
RTVSPost2010PropOp29
 70
     1
102
RTVSPost2010Prop30
280
     0
102
RTVSPost2010PropOp30
 70
     1
102
RTVSPost2010Prop31
280
     0
102
RTVSPost2010PropOp31
 70
     1
102
RTVSPost2010Prop32
280
     0
102
RTVSPost2010PropOp32
 70
     1
102
RTVSPost2010Prop33
280
     0
102
RTVSPost2010PropOp33
 70
     1
102
RTVSPost2010Prop34
280
     0
102
RTVSPost2010PropOp34
 70
     1
102
RTVSPost2010Prop35
280
     0
102
RTVSPost2010PropOp35
 70
     1
102
RTVSPost2010Prop36
280
     0
102
RTVSPost2010PropOp36
 70
     1
102
RTVSPost2010Prop37
 90
       50
102
RTVSPost2010PropOp37
 70
     1
102
RTVSPost2010Prop38
140
0.0
102
RTVSPost2010PropOp38
 70
     1
102
RTVSPost2010Prop39
140
1.0
102
RTVSPost2010PropOp39
 70
     1
102
RTVSPost2010Prop40
 90
        0
102
RTVSPost2010PropOp40
 70
     1
102
RTVSPost2010Prop41ColorIndex
 90
       18
102
RTVSPost2010Prop41ColorRGB
 90
        0
102
RTVSPost2010PropOp41
 70
     1
102
RTVSPost2010Prop42
 90
       50
102
RTVSPost2010PropOp42
 70
     1
102
RTVSPost2010Prop43
 90
        3
102
RTVSPost2010PropOp43
 70
     1
102
RTVSPost2010Prop44ColorIndex
 90
        5
102
RTVSPost2010Prop44ColorRGB
 90
      255
102
RTVSPost2010PropOp44
 70
     1
102
RTVSPost2010Prop45
280
     0
102
RTVSPost2010PropOp45
 70
     1
102
RTVSPost2010Prop46
 90
       50
102
RTVSPost2010PropOp46
 70
     1
102
RTVSPost2010Prop47
 90
       50
102
RTVSPost2010PropOp47
 70
     1
102
RTVSPost2010Prop48
 90
       50
102
RTVSPost2010PropOp48
 70
     1
102
RTVSPost2010Prop49
280
     0
102
RTVSPost2010PropOp49
 70
     1
102
RTVSPost2010Prop50
 90
       50
102
RTVSPost2010PropOp50
 70
     1
102
RTVSPost2010Prop51ColorIndex
 90
      256
102
RTVSPost2010Prop51ColorRGB
 90
-16777216
102
RTVSPost2010PropOp51
 70
     0
102
RTVSPost2010Prop52
140
1.0
102
RTVSPost2010PropOp52
 70
     0
102
RTVSPost2010Prop53
 90
        2
102
RTVSPost2010PropOp53
 70
     1
102
RTVSPost2010Prop54
  1
strokes_ogs.tif
102
RTVSPost2010PropOp54
 70
     1
102
RTVSPost2010Prop55
280
     0
102
RTVSPost2010PropOp55
 70
     1
102
RTVSPost2010Prop56
140
1.0
102
RTVSPost2010PropOp56
 70
     1
102
RTVSPost2010Prop57
140
1.0
102
RTVSPost2010PropOp57
 70
     1
  0
XRECORD
  5
642
102
{ACAD_REACTORS
330
641
102
}
330
641
100
AcDbXrecord
280
     1
102
RTVSPropertyOp0
 70
     1
102
RTVSPropertyOp1
 70
     1
102
RTVSPropertyOp2
 70
     1
102
RTVSPropertyOp3
 70
     1
102
RTVSPropertyOp4
 70
     1
102
RTVSPropertyOp5
 70
     1
102
RTVSPropertyOp6
 70
     1
102
RTVSPropertyOp7
 70
     1
102
RTVSPropertyOp8
 70
     1
102
RTVSPropertyOp9
 70
     1
102
RTVSPropertyOp10
 70
     1
102
RTVSPropertyOp11
 70
     1
102
RTVSPropertyOp12
 70
     1
102
RTVSPropertyOp13
 70
     1
102
RTVSPropertyOp14
 70
     1
102
RTVSPropertyOp15
 70
     1
102
RTVSPropertyOp16
 70
     1
102
RTVSPropertyOp17
 70
     1
102
RTVSPropertyOp18
 70
     1
102
RTVSPropertyOp19
 70
     1
102
RTVSPropertyOp20
 70
     1
102
RTVSPropertyOp21
 70
     1
102
RTVSPropertyOp22
 70
     1
102
RTVSPropertyOp23
 70
     1
102
RTVSPropertyOp24
 70
     1
102
RTVSPropertyOp25
 70
     1
102
RTVSPropertyOp26
 70
     1
102
RTVSPropertyOp27
 70
     1
102
RTVSPropertyOp28
 70
     1
102
RTVSPropertyOp29
 70
     1
102
RTVSPropertyOp30
 70
     1
102
RTVSPropertyOp31
 70
     1
102
RTVSPropertyOp32
 70
     1
102
RTVSPropertyOp33
 70
     1
102
RTVSPropertyOp34
 70
     1
102
RTVSPropertyOp35
 70
     1
102
RTVSPropertyOp36
 70
     1
102
RTVSPropertyOp37
 70
     1
102
RTVSPropertyOp38
 70
     1
102
RTVSPropertyOp39
 70
     1
102
RTVSPropertyOp40
 70
     1
102
RTVSPropertyOp41
 70
     1
102
RTVSPropertyOp42
 70
     1
102
RTVSPropertyOp43
 70
     1
102
RTVSPropertyOp44
 70
     1
102
RTVSPropertyOp45
 70
     1
102
RTVSPropertyOp46
 70
     1
102
RTVSPropertyOp47
 70
     1
102
RTVSPropertyOp48
 70
     1
102
RTVSPropertyOp49
 70
     1
102
RTVSPropertyOp50
 70
     1
102
RTVSPropertyOp51
 70
     0
102
RTVSPropertyOp52
 70
     0
102
RTVSPropertyOp53
 70
     1
102
RTVSPropertyOp54
 70
     1
102
RTVSPropertyOp55
 70
     1
102
RTVSPropertyOp56
 70
     1
102
RTVSPropertyOp57
 70
     1
102
RTVSPost2010Prop28
280
     0
102
RTVSPost2010PropOp28
 70
     1
102
RTVSPost2010Prop29
280
     1
102
RTVSPost2010PropOp29
 70
     1
102
RTVSPost2010Prop30
280
     1
102
RTVSPost2010PropOp30
 70
     1
102
RTVSPost2010Prop31
280
     0
102
RTVSPost2010PropOp31
 70
     1
102
RTVSPost2010Prop32
280
     0
102
RTVSPost2010PropOp32
 70
     1
102
RTVSPost2010Prop33
280
     0
102
RTVSPost2010PropOp33
 70
     1
102
RTVSPost2010Prop34
280
     0
102
RTVSPost2010PropOp34
 70
     1
102
RTVSPost2010Prop35
280
     0
102
RTVSPost2010PropOp35
 70
     1
102
RTVSPost2010Prop36
280
     0
102
RTVSPost2010PropOp36
 70
     1
102
RTVSPost2010Prop37
 90
       50
102
RTVSPost2010PropOp37
 70
     1
102
RTVSPost2010Prop38
140
0.0
102
RTVSPost2010PropOp38
 70
     1
102
RTVSPost2010Prop39
140
1.0
102
RTVSPost2010PropOp39
 70
     1
102
RTVSPost2010Prop40
 90
        0
102
RTVSPost2010PropOp40
 70
     1
102
RTVSPost2010Prop41ColorIndex
 90
       18
102
RTVSPost2010Prop41ColorRGB
 90
        0
102
RTVSPost2010PropOp41
 70
     1
102
RTVSPost2010Prop42
 90
       50
102
RTVSPost2010PropOp42
 70
     1
102
RTVSPost2010Prop43
 90
        3
102
RTVSPost2010PropOp43
 70
     1
102
RTVSPost2010Prop44ColorIndex
 90
        5
102
RTVSPost2010Prop44ColorRGB
 90
      255
102
RTVSPost2010PropOp44
 70
     1
102
RTVSPost2010Prop45
280
     0
102
RTVSPost2010PropOp45
 70
     1
102
RTVSPost2010Prop46
 90
       50
102
RTVSPost2010PropOp46
 70
     1
102
RTVSPost2010Prop47
 90
       50
102
RTVSPost2010PropOp47
 70
     1
102
RTVSPost2010Prop48
 90
       50
102
RTVSPost2010PropOp48
 70
     1
102
RTVSPost2010Prop49
280
     0
102
RTVSPost2010PropOp49
 70
     1
102
RTVSPost2010Prop50
 90
       50
102
RTVSPost2010PropOp50
 70
     1
102
RTVSPost2010Prop51ColorIndex
 90
      256
102
RTVSPost2010Prop51ColorRGB
 90
-16777216
102
RTVSPost2010PropOp51
 70
     0
102
RTVSPost2010Prop52
140
1.0
102
RTVSPost2010PropOp52
 70
     0
102
RTVSPost2010Prop53
 90
        2
102
RTVSPost2010PropOp53
 70
     1
102
RTVSPost2010Prop54
  1
strokes_ogs.tif
102
RTVSPost2010PropOp54
 70
     1
102
RTVSPost2010Prop55
280
     0
102
RTVSPost2010PropOp55
 70
     1
102
RTVSPost2010Prop56
140
1.0
102
RTVSPost2010PropOp56
 70
     1
102
RTVSPost2010Prop57
140
1.0
102
RTVSPost2010PropOp57
 70
     1
  0
XRECORD
  5
64A
102
{ACAD_REACTORS
330
649
102
}
330
649
100
AcDbXrecord
280
     1
102
RTVSPropertyOp0
 70
     1
102
RTVSPropertyOp1
 70
     1
102
RTVSPropertyOp2
 70
     1
102
RTVSPropertyOp3
 70
     1
102
RTVSPropertyOp4
 70
     1
102
RTVSPropertyOp5
 70
     1
102
RTVSPropertyOp6
 70
     1
102
RTVSPropertyOp7
 70
     1
102
RTVSPropertyOp8
 70
     1
102
RTVSPropertyOp9
 70
     1
102
RTVSPropertyOp10
 70
     1
102
RTVSPropertyOp11
 70
     1
102
RTVSPropertyOp12
 70
     1
102
RTVSPropertyOp13
 70
     1
102
RTVSPropertyOp14
 70
     1
102
RTVSPropertyOp15
 70
     1
102
RTVSPropertyOp16
 70
     1
102
RTVSPropertyOp17
 70
     1
102
RTVSPropertyOp18
 70
     1
102
RTVSPropertyOp19
 70
     1
102
RTVSPropertyOp20
 70
     1
102
RTVSPropertyOp21
 70
     1
102
RTVSPropertyOp22
 70
     1
102
RTVSPropertyOp23
 70
     1
102
RTVSPropertyOp24
 70
     1
102
RTVSPropertyOp25
 70
     1
102
RTVSPropertyOp26
 70
     1
102
RTVSPropertyOp27
 70
     1
102
RTVSPropertyOp28
 70
     1
102
RTVSPropertyOp29
 70
     1
102
RTVSPropertyOp30
 70
     1
102
RTVSPropertyOp31
 70
     1
102
RTVSPropertyOp32
 70
     1
102
RTVSPropertyOp33
 70
     1
102
RTVSPropertyOp34
 70
     1
102
RTVSPropertyOp35
 70
     1
102
RTVSPropertyOp36
 70
     1
102
RTVSPropertyOp37
 70
     1
102
RTVSPropertyOp38
 70
     1
102
RTVSPropertyOp39
 70
     1
102
RTVSPropertyOp40
 70
     1
102
RTVSPropertyOp41
 70
     1
102
RTVSPropertyOp42
 70
     1
102
RTVSPropertyOp43
 70
     1
102
RTVSPropertyOp44
 70
     1
102
RTVSPropertyOp45
 70
     1
102
RTVSPropertyOp46
 70
     1
102
RTVSPropertyOp47
 70
     1
102
RTVSPropertyOp48
 70
     1
102
RTVSPropertyOp49
 70
     1
102
RTVSPropertyOp50
 70
     1
102
RTVSPropertyOp51
 70
     0
102
RTVSPropertyOp52
 70
     0
102
RTVSPropertyOp53
 70
     1
102
RTVSPropertyOp54
 70
     1
102
RTVSPropertyOp55
 70
     1
102
RTVSPropertyOp56
 70
     1
102
RTVSPropertyOp57
 70
     1
102
RTVSPost2010Prop28
280
     0
102
RTVSPost2010PropOp28
 70
     1
102
RTVSPost2010Prop29
280
     1
102
RTVSPost2010PropOp29
 70
     1
102
RTVSPost2010Prop30
280
     1
102
RTVSPost2010PropOp30
 70
     1
102
RTVSPost2010Prop31
280
     0
102
RTVSPost2010PropOp31
 70
     1
102
RTVSPost2010Prop32
280
     0
102
RTVSPost2010PropOp32
 70
     1
102
RTVSPost2010Prop33
280
     0
102
RTVSPost2010PropOp33
 70
     1
102
RTVSPost2010Prop34
280
     0
102
RTVSPost2010PropOp34
 70
     1
102
RTVSPost2010Prop35
280
     0
102
RTVSPost2010PropOp35
 70
     1
102
RTVSPost2010Prop36
280
     0
102
RTVSPost2010PropOp36
 70
     1
102
RTVSPost2010Prop37
 90
       50
102
RTVSPost2010PropOp37
 70
     1
102
RTVSPost2010Prop38
140
0.0
102
RTVSPost2010PropOp38
 70
     1
102
RTVSPost2010Prop39
140
1.0
102
RTVSPost2010PropOp39
 70
     1
102
RTVSPost2010Prop40
 90
        0
102
RTVSPost2010PropOp40
 70
     1
102
RTVSPost2010Prop41ColorIndex
 90
       18
102
RTVSPost2010Prop41ColorRGB
 90
        0
102
RTVSPost2010PropOp41
 70
     1
102
RTVSPost2010Prop42
 90
       50
102
RTVSPost2010PropOp42
 70
     1
102
RTVSPost2010Prop43
 90
        3
102
RTVSPost2010PropOp43
 70
     1
102
RTVSPost2010Prop44ColorIndex
 90
        5
102
RTVSPost2010Prop44ColorRGB
 90
      255
102
RTVSPost2010PropOp44
 70
     1
102
RTVSPost2010Prop45
280
     0
102
RTVSPost2010PropOp45
 70
     1
102
RTVSPost2010Prop46
 90
       50
102
RTVSPost2010PropOp46
 70
     1
102
RTVSPost2010Prop47
 90
       50
102
RTVSPost2010PropOp47
 70
     1
102
RTVSPost2010Prop48
 90
       50
102
RTVSPost2010PropOp48
 70
     1
102
RTVSPost2010Prop49
280
     0
102
RTVSPost2010PropOp49
 70
     1
102
RTVSPost2010Prop50
 90
       50
102
RTVSPost2010PropOp50
 70
     1
102
RTVSPost2010Prop51ColorIndex
 90
      256
102
RTVSPost2010Prop51ColorRGB
 90
-16777216
102
RTVSPost2010PropOp51
 70
     0
102
RTVSPost2010Prop52
140
1.0
102
RTVSPost2010PropOp52
 70
     0
102
RTVSPost2010Prop53
 90
        2
102
RTVSPost2010PropOp53
 70
     1
102
RTVSPost2010Prop54
  1
strokes_ogs.tif
102
RTVSPost2010PropOp54
 70
     1
102
RTVSPost2010Prop55
280
     0
102
RTVSPost2010PropOp55
 70
     1
102
RTVSPost2010Prop56
140
1.0
102
RTVSPost2010PropOp56
 70
     1
102
RTVSPost2010Prop57
140
1.0
102
RTVSPost2010PropOp57
 70
     1
  0
XRECORD
  5
652
102
{ACAD_REACTORS
330
651
102
}
330
651
100
AcDbXrecord
280
     1
102
RTVSPropertyOp0
 70
     1
102
RTVSPropertyOp1
 70
     1
102
RTVSPropertyOp2
 70
     1
102
RTVSPropertyOp3
 70
     1
102
RTVSPropertyOp4
 70
     1
102
RTVSPropertyOp5
 70
     1
102
RTVSPropertyOp6
 70
     1
102
RTVSPropertyOp7
 70
     1
102
RTVSPropertyOp8
 70
     1
102
RTVSPropertyOp9
 70
     1
102
RTVSPropertyOp10
 70
     1
102
RTVSPropertyOp11
 70
     1
102
RTVSPropertyOp12
 70
     1
102
RTVSPropertyOp13
 70
     1
102
RTVSPropertyOp14
 70
     1
102
RTVSPropertyOp15
 70
     1
102
RTVSPropertyOp16
 70
     1
102
RTVSPropertyOp17
 70
     1
102
RTVSPropertyOp18
 70
     1
102
RTVSPropertyOp19
 70
     1
102
RTVSPropertyOp20
 70
     1
102
RTVSPropertyOp21
 70
     1
102
RTVSPropertyOp22
 70
     1
102
RTVSPropertyOp23
 70
     1
102
RTVSPropertyOp24
 70
     1
102
RTVSPropertyOp25
 70
     1
102
RTVSPropertyOp26
 70
     1
102
RTVSPropertyOp27
 70
     1
102
RTVSPropertyOp28
 70
     1
102
RTVSPropertyOp29
 70
     1
102
RTVSPropertyOp30
 70
     1
102
RTVSPropertyOp31
 70
     1
102
RTVSPropertyOp32
 70
     1
102
RTVSPropertyOp33
 70
     1
102
RTVSPropertyOp34
 70
     1
102
RTVSPropertyOp35
 70
     1
102
RTVSPropertyOp36
 70
     1
102
RTVSPropertyOp37
 70
     1
102
RTVSPropertyOp38
 70
     1
102
RTVSPropertyOp39
 70
     1
102
RTVSPropertyOp40
 70
     1
102
RTVSPropertyOp41
 70
     1
102
RTVSPropertyOp42
 70
     1
102
RTVSPropertyOp43
 70
     1
102
RTVSPropertyOp44
 70
     1
102
RTVSPropertyOp45
 70
     1
102
RTVSPropertyOp46
 70
     1
102
RTVSPropertyOp47
 70
     1
102
RTVSPropertyOp48
 70
     1
102
RTVSPropertyOp49
 70
     1
102
RTVSPropertyOp50
 70
     1
102
RTVSPropertyOp51
 70
     0
102
RTVSPropertyOp52
 70
     0
102
RTVSPropertyOp53
 70
     1
102
RTVSPropertyOp54
 70
     1
102
RTVSPropertyOp55
 70
     1
102
RTVSPropertyOp56
 70
     1
102
RTVSPropertyOp57
 70
     1
102
RTVSPost2010Prop28
280
     0
102
RTVSPost2010PropOp28
 70
     1
102
RTVSPost2010Prop29
280
     1
102
RTVSPost2010PropOp29
 70
     1
102
RTVSPost2010Prop30
280
     1
102
RTVSPost2010PropOp30
 70
     1
102
RTVSPost2010Prop31
280
     0
102
RTVSPost2010PropOp31
 70
     1
102
RTVSPost2010Prop32
280
     0
102
RTVSPost2010PropOp32
 70
     1
102
RTVSPost2010Prop33
280
     0
102
RTVSPost2010PropOp33
 70
     1
102
RTVSPost2010Prop34
280
     0
102
RTVSPost2010PropOp34
 70
     1
102
RTVSPost2010Prop35
280
     0
102
RTVSPost2010PropOp35
 70
     1
102
RTVSPost2010Prop36
280
     0
102
RTVSPost2010PropOp36
 70
     1
102
RTVSPost2010Prop37
 90
       50
102
RTVSPost2010PropOp37
 70
     1
102
RTVSPost2010Prop38
140
0.0
102
RTVSPost2010PropOp38
 70
     1
102
RTVSPost2010Prop39
140
1.0
102
RTVSPost2010PropOp39
 70
     1
102
RTVSPost2010Prop40
 90
        0
102
RTVSPost2010PropOp40
 70
     1
102
RTVSPost2010Prop41ColorIndex
 90
       18
102
RTVSPost2010Prop41ColorRGB
 90
        0
102
RTVSPost2010PropOp41
 70
     1
102
RTVSPost2010Prop42
 90
       50
102
RTVSPost2010PropOp42
 70
     1
102
RTVSPost2010Prop43
 90
        3
102
RTVSPost2010PropOp43
 70
     1
102
RTVSPost2010Prop44ColorIndex
 90
        5
102
RTVSPost2010Prop44ColorRGB
 90
      255
102
RTVSPost2010PropOp44
 70
     1
102
RTVSPost2010Prop45
280
     0
102
RTVSPost2010PropOp45
 70
     1
102
RTVSPost2010Prop46
 90
       50
102
RTVSPost2010PropOp46
 70
     1
102
RTVSPost2010Prop47
 90
       50
102
RTVSPost2010PropOp47
 70
     1
102
RTVSPost2010Prop48
 90
       50
102
RTVSPost2010PropOp48
 70
     1
102
RTVSPost2010Prop49
280
     0
102
RTVSPost2010PropOp49
 70
     1
102
RTVSPost2010Prop50
 90
       50
102
RTVSPost2010PropOp50
 70
     1
102
RTVSPost2010Prop51ColorIndex
 90
      256
102
RTVSPost2010Prop51ColorRGB
 90
-16777216
102
RTVSPost2010PropOp51
 70
     0
102
RTVSPost2010Prop52
140
1.0
102
RTVSPost2010PropOp52
 70
     0
102
RTVSPost2010Prop53
 90
        2
102
RTVSPost2010PropOp53
 70
     1
102
RTVSPost2010Prop54
  1
strokes_ogs.tif
102
RTVSPost2010PropOp54
 70
     1
102
RTVSPost2010Prop55
280
     0
102
RTVSPost2010PropOp55
 70
     1
102
RTVSPost2010Prop56
140
1.0
102
RTVSPost2010PropOp56
 70
     1
102
RTVSPost2010Prop57
140
1.0
102
RTVSPost2010PropOp57
 70
     1
  0
XRECORD
  5
646
102
{ACAD_REACTORS
330
645
102
}
330
645
100
AcDbXrecord
280
     1
102
RTVSPropertyOp0
 70
     1
102
RTVSPropertyOp1
 70
     1
102
RTVSPropertyOp2
 70
     1
102
RTVSPropertyOp3
 70
     1
102
RTVSPropertyOp4
 70
     1
102
RTVSPropertyOp5
 70
     1
102
RTVSPropertyOp6
 70
     1
102
RTVSPropertyOp7
 70
     1
102
RTVSPropertyOp8
 70
     1
102
RTVSPropertyOp9
 70
     1
102
RTVSPropertyOp10
 70
     1
102
RTVSPropertyOp11
 70
     1
102
RTVSPropertyOp12
 70
     1
102
RTVSPropertyOp13
 70
     1
102
RTVSPropertyOp14
 70
     1
102
RTVSPropertyOp15
 70
     1
102
RTVSPropertyOp16
 70
     1
102
RTVSPropertyOp17
 70
     1
102
RTVSPropertyOp18
 70
     1
102
RTVSPropertyOp19
 70
     1
102
RTVSPropertyOp20
 70
     1
102
RTVSPropertyOp21
 70
     1
102
RTVSPropertyOp22
 70
     1
102
RTVSPropertyOp23
 70
     1
102
RTVSPropertyOp24
 70
     1
102
RTVSPropertyOp25
 70
     1
102
RTVSPropertyOp26
 70
     1
102
RTVSPropertyOp27
 70
     1
102
RTVSPropertyOp28
 70
     1
102
RTVSPropertyOp29
 70
     1
102
RTVSPropertyOp30
 70
     1
102
RTVSPropertyOp31
 70
     1
102
RTVSPropertyOp32
 70
     1
102
RTVSPropertyOp33
 70
     1
102
RTVSPropertyOp34
 70
     1
102
RTVSPropertyOp35
 70
     1
102
RTVSPropertyOp36
 70
     1
102
RTVSPropertyOp37
 70
     1
102
RTVSPropertyOp38
 70
     1
102
RTVSPropertyOp39
 70
     1
102
RTVSPropertyOp40
 70
     1
102
RTVSPropertyOp41
 70
     1
102
RTVSPropertyOp42
 70
     1
102
RTVSPropertyOp43
 70
     1
102
RTVSPropertyOp44
 70
     1
102
RTVSPropertyOp45
 70
     1
102
RTVSPropertyOp46
 70
     1
102
RTVSPropertyOp47
 70
     1
102
RTVSPropertyOp48
 70
     1
102
RTVSPropertyOp49
 70
     1
102
RTVSPropertyOp50
 70
     1
102
RTVSPropertyOp51
 70
     0
102
RTVSPropertyOp52
 70
     0
102
RTVSPropertyOp53
 70
     1
102
RTVSPropertyOp54
 70
     1
102
RTVSPropertyOp55
 70
     1
102
RTVSPropertyOp56
 70
     1
102
RTVSPropertyOp57
 70
     1
102
RTVSPost2010Prop28
280
     0
102
RTVSPost2010PropOp28
 70
     1
102
RTVSPost2010Prop29
280
     1
102
RTVSPost2010PropOp29
 70
     1
102
RTVSPost2010Prop30
280
     1
102
RTVSPost2010PropOp30
 70
     1
102
RTVSPost2010Prop31
280
     0
102
RTVSPost2010PropOp31
 70
     1
102
RTVSPost2010Prop32
280
     0
102
RTVSPost2010PropOp32
 70
     1
102
RTVSPost2010Prop33
280
     0
102
RTVSPost2010PropOp33
 70
     1
102
RTVSPost2010Prop34
280
     0
102
RTVSPost2010PropOp34
 70
     1
102
RTVSPost2010Prop35
280
     0
102
RTVSPost2010PropOp35
 70
     1
102
RTVSPost2010Prop36
280
     0
102
RTVSPost2010PropOp36
 70
     1
102
RTVSPost2010Prop37
 90
       50
102
RTVSPost2010PropOp37
 70
     1
102
RTVSPost2010Prop38
140
0.0
102
RTVSPost2010PropOp38
 70
     1
102
RTVSPost2010Prop39
140
1.0
102
RTVSPost2010PropOp39
 70
     1
102
RTVSPost2010Prop40
 90
        0
102
RTVSPost2010PropOp40
 70
     1
102
RTVSPost2010Prop41ColorIndex
 90
       18
102
RTVSPost2010Prop41ColorRGB
 90
        0
102
RTVSPost2010PropOp41
 70
     1
102
RTVSPost2010Prop42
 90
       50
102
RTVSPost2010PropOp42
 70
     1
102
RTVSPost2010Prop43
 90
        3
102
RTVSPost2010PropOp43
 70
     1
102
RTVSPost2010Prop44ColorIndex
 90
        5
102
RTVSPost2010Prop44ColorRGB
 90
      255
102
RTVSPost2010PropOp44
 70
     1
102
RTVSPost2010Prop45
280
     0
102
RTVSPost2010PropOp45
 70
     1
102
RTVSPost2010Prop46
 90
       50
102
RTVSPost2010PropOp46
 70
     1
102
RTVSPost2010Prop47
 90
       50
102
RTVSPost2010PropOp47
 70
     1
102
RTVSPost2010Prop48
 90
       50
102
RTVSPost2010PropOp48
 70
     1
102
RTVSPost2010Prop49
280
     0
102
RTVSPost2010PropOp49
 70
     1
102
RTVSPost2010Prop50
 90
       50
102
RTVSPost2010PropOp50
 70
     1
102
RTVSPost2010Prop51ColorIndex
 90
      256
102
RTVSPost2010Prop51ColorRGB
 90
-16777216
102
RTVSPost2010PropOp51
 70
     0
102
RTVSPost2010Prop52
140
1.0
102
RTVSPost2010PropOp52
 70
     0
102
RTVSPost2010Prop53
 90
        2
102
RTVSPost2010PropOp53
 70
     1
102
RTVSPost2010Prop54
  1
strokes_ogs.tif
102
RTVSPost2010PropOp54
 70
     1
102
RTVSPost2010Prop55
280
     0
102
RTVSPost2010PropOp55
 70
     1
102
RTVSPost2010Prop56
140
1.0
102
RTVSPost2010PropOp56
 70
     1
102
RTVSPost2010Prop57
140
1.0
102
RTVSPost2010PropOp57
 70
     1
  0
XRECORD
  5
648
102
{ACAD_REACTORS
330
647
102
}
330
647
100
AcDbXrecord
280
     1
102
RTVSPropertyOp0
 70
     1
102
RTVSPropertyOp1
 70
     1
102
RTVSPropertyOp2
 70
     1
102
RTVSPropertyOp3
 70
     1
102
RTVSPropertyOp4
 70
     1
102
RTVSPropertyOp5
 70
     1
102
RTVSPropertyOp6
 70
     1
102
RTVSPropertyOp7
 70
     1
102
RTVSPropertyOp8
 70
     1
102
RTVSPropertyOp9
 70
     1
102
RTVSPropertyOp10
 70
     1
102
RTVSPropertyOp11
 70
     1
102
RTVSPropertyOp12
 70
     1
102
RTVSPropertyOp13
 70
     1
102
RTVSPropertyOp14
 70
     1
102
RTVSPropertyOp15
 70
     1
102
RTVSPropertyOp16
 70
     1
102
RTVSPropertyOp17
 70
     1
102
RTVSPropertyOp18
 70
     1
102
RTVSPropertyOp19
 70
     1
102
RTVSPropertyOp20
 70
     1
102
RTVSPropertyOp21
 70
     1
102
RTVSPropertyOp22
 70
     1
102
RTVSPropertyOp23
 70
     1
102
RTVSPropertyOp24
 70
     1
102
RTVSPropertyOp25
 70
     1
102
RTVSPropertyOp26
 70
     1
102
RTVSPropertyOp27
 70
     1
102
RTVSPropertyOp28
 70
     1
102
RTVSPropertyOp29
 70
     1
102
RTVSPropertyOp30
 70
     1
102
RTVSPropertyOp31
 70
     1
102
RTVSPropertyOp32
 70
     1
102
RTVSPropertyOp33
 70
     1
102
RTVSPropertyOp34
 70
     1
102
RTVSPropertyOp35
 70
     1
102
RTVSPropertyOp36
 70
     1
102
RTVSPropertyOp37
 70
     1
102
RTVSPropertyOp38
 70
     1
102
RTVSPropertyOp39
 70
     1
102
RTVSPropertyOp40
 70
     1
102
RTVSPropertyOp41
 70
     1
102
RTVSPropertyOp42
 70
     1
102
RTVSPropertyOp43
 70
     1
102
RTVSPropertyOp44
 70
     1
102
RTVSPropertyOp45
 70
     1
102
RTVSPropertyOp46
 70
     1
102
RTVSPropertyOp47
 70
     1
102
RTVSPropertyOp48
 70
     1
102
RTVSPropertyOp49
 70
     1
102
RTVSPropertyOp50
 70
     1
102
RTVSPropertyOp51
 70
     0
102
RTVSPropertyOp52
 70
     0
102
RTVSPropertyOp53
 70
     1
102
RTVSPropertyOp54
 70
     1
102
RTVSPropertyOp55
 70
     1
102
RTVSPropertyOp56
 70
     1
102
RTVSPropertyOp57
 70
     1
102
RTVSPost2010Prop28
280
     0
102
RTVSPost2010PropOp28
 70
     1
102
RTVSPost2010Prop29
280
     1
102
RTVSPost2010PropOp29
 70
     1
102
RTVSPost2010Prop30
280
     1
102
RTVSPost2010PropOp30
 70
     1
102
RTVSPost2010Prop31
280
     0
102
RTVSPost2010PropOp31
 70
     1
102
RTVSPost2010Prop32
280
     0
102
RTVSPost2010PropOp32
 70
     1
102
RTVSPost2010Prop33
280
     0
102
RTVSPost2010PropOp33
 70
     1
102
RTVSPost2010Prop34
280
     0
102
RTVSPost2010PropOp34
 70
     1
102
RTVSPost2010Prop35
280
     0
102
RTVSPost2010PropOp35
 70
     1
102
RTVSPost2010Prop36
280
     0
102
RTVSPost2010PropOp36
 70
     1
102
RTVSPost2010Prop37
 90
       50
102
RTVSPost2010PropOp37
 70
     1
102
RTVSPost2010Prop38
140
0.0
102
RTVSPost2010PropOp38
 70
     1
102
RTVSPost2010Prop39
140
1.0
102
RTVSPost2010PropOp39
 70
     1
102
RTVSPost2010Prop40
 90
        0
102
RTVSPost2010PropOp40
 70
     1
102
RTVSPost2010Prop41ColorIndex
 90
       18
102
RTVSPost2010Prop41ColorRGB
 90
        0
102
RTVSPost2010PropOp41
 70
     1
102
RTVSPost2010Prop42
 90
       50
102
RTVSPost2010PropOp42
 70
     1
102
RTVSPost2010Prop43
 90
        3
102
RTVSPost2010PropOp43
 70
     1
102
RTVSPost2010Prop44ColorIndex
 90
        5
102
RTVSPost2010Prop44ColorRGB
 90
      255
102
RTVSPost2010PropOp44
 70
     1
102
RTVSPost2010Prop45
280
     0
102
RTVSPost2010PropOp45
 70
     1
102
RTVSPost2010Prop46
 90
       50
102
RTVSPost2010PropOp46
 70
     1
102
RTVSPost2010Prop47
 90
       50
102
RTVSPost2010PropOp47
 70
     1
102
RTVSPost2010Prop48
 90
       50
102
RTVSPost2010PropOp48
 70
     1
102
RTVSPost2010Prop49
280
     0
102
RTVSPost2010PropOp49
 70
     1
102
RTVSPost2010Prop50
 90
       50
102
RTVSPost2010PropOp50
 70
     1
102
RTVSPost2010Prop51ColorIndex
 90
      256
102
RTVSPost2010Prop51ColorRGB
 90
-16777216
102
RTVSPost2010PropOp51
 70
     0
102
RTVSPost2010Prop52
140
1.0
102
RTVSPost2010PropOp52
 70
     0
102
RTVSPost2010Prop53
 90
        2
102
RTVSPost2010PropOp53
 70
     1
102
RTVSPost2010Prop54
  1
strokes_ogs.tif
102
RTVSPost2010PropOp54
 70
     1
102
RTVSPost2010Prop55
280
     0
102
RTVSPost2010PropOp55
 70
     1
102
RTVSPost2010Prop56
140
1.0
102
RTVSPost2010PropOp56
 70
     1
102
RTVSPost2010Prop57
140
1.0
102
RTVSPost2010PropOp57
 70
     1
  0
XRECORD
  5
658
102
{ACAD_REACTORS
330
657
102
}
330
657
100
AcDbXrecord
280
     1
102
RTVSPropertyOp0
 70
     0
102
RTVSPropertyOp1
 70
     0
102
RTVSPropertyOp2
 70
     0
102
RTVSPropertyOp3
 70
     0
102
RTVSPropertyOp4
 70
     0
102
RTVSPropertyOp5
 70
     0
102
RTVSPropertyOp6
 70
     0
102
RTVSPropertyOp7
 70
     0
102
RTVSPropertyOp8
 70
     0
102
RTVSPropertyOp9
 70
     0
102
RTVSPropertyOp10
 70
     0
102
RTVSPropertyOp11
 70
     0
102
RTVSPropertyOp12
 70
     0
102
RTVSPropertyOp13
 70
     0
102
RTVSPropertyOp14
 70
     0
102
RTVSPropertyOp15
 70
     0
102
RTVSPropertyOp16
 70
     0
102
RTVSPropertyOp17
 70
     0
102
RTVSPropertyOp18
 70
     0
102
RTVSPropertyOp19
 70
     0
102
RTVSPropertyOp20
 70
     0
102
RTVSPropertyOp21
 70
     0
102
RTVSPropertyOp22
 70
     0
102
RTVSPropertyOp23
 70
     0
102
RTVSPropertyOp24
 70
     0
102
RTVSPropertyOp25
 70
     0
102
RTVSPropertyOp26
 70
     0
102
RTVSPropertyOp27
 70
     0
102
RTVSPropertyOp28
 70
     1
102
RTVSPropertyOp29
 70
     1
102
RTVSPropertyOp30
 70
     1
102
RTVSPropertyOp31
 70
     1
102
RTVSPropertyOp32
 70
     1
102
RTVSPropertyOp33
 70
     1
102
RTVSPropertyOp34
 70
     1
102
RTVSPropertyOp35
 70
     1
102
RTVSPropertyOp36
 70
     1
102
RTVSPropertyOp37
 70
     1
102
RTVSPropertyOp38
 70
     1
102
RTVSPropertyOp39
 70
     1
102
RTVSPropertyOp40
 70
     1
102
RTVSPropertyOp41
 70
     1
102
RTVSPropertyOp42
 70
     1
102
RTVSPropertyOp43
 70
     1
102
RTVSPropertyOp44
 70
     1
102
RTVSPropertyOp45
 70
     1
102
RTVSPropertyOp46
 70
     1
102
RTVSPropertyOp47
 70
     1
102
RTVSPropertyOp48
 70
     1
102
RTVSPropertyOp49
 70
     1
102
RTVSPropertyOp50
 70
     1
102
RTVSPropertyOp51
 70
     0
102
RTVSPropertyOp52
 70
     0
102
RTVSPropertyOp53
 70
     1
102
RTVSPropertyOp54
 70
     1
102
RTVSPropertyOp55
 70
     1
102
RTVSPropertyOp56
 70
     1
102
RTVSPropertyOp57
 70
     1
102
RTVSPost2010Prop28
280
     0
102
RTVSPost2010PropOp28
 70
     1
102
RTVSPost2010Prop29
280
     1
102
RTVSPost2010PropOp29
 70
     1
102
RTVSPost2010Prop30
280
     1
102
RTVSPost2010PropOp30
 70
     1
102
RTVSPost2010Prop31
280
     0
102
RTVSPost2010PropOp31
 70
     1
102
RTVSPost2010Prop32
280
     0
102
RTVSPost2010PropOp32
 70
     1
102
RTVSPost2010Prop33
280
     0
102
RTVSPost2010PropOp33
 70
     1
102
RTVSPost2010Prop34
280
     0
102
RTVSPost2010PropOp34
 70
     1
102
RTVSPost2010Prop35
280
     0
102
RTVSPost2010PropOp35
 70
     1
102
RTVSPost2010Prop36
280
     0
102
RTVSPost2010PropOp36
 70
     1
102
RTVSPost2010Prop37
 90
       50
102
RTVSPost2010PropOp37
 70
     1
102
RTVSPost2010Prop38
140
0.0
102
RTVSPost2010PropOp38
 70
     1
102
RTVSPost2010Prop39
140
1.0
102
RTVSPost2010PropOp39
 70
     1
102
RTVSPost2010Prop40
 90
        0
102
RTVSPost2010PropOp40
 70
     1
102
RTVSPost2010Prop41ColorIndex
 90
       18
102
RTVSPost2010Prop41ColorRGB
 90
        0
102
RTVSPost2010PropOp41
 70
     1
102
RTVSPost2010Prop42
 90
       50
102
RTVSPost2010PropOp42
 70
     1
102
RTVSPost2010Prop43
 90
        3
102
RTVSPost2010PropOp43
 70
     1
102
RTVSPost2010Prop44ColorIndex
 90
        5
102
RTVSPost2010Prop44ColorRGB
 90
      255
102
RTVSPost2010PropOp44
 70
     1
102
RTVSPost2010Prop45
280
     0
102
RTVSPost2010PropOp45
 70
     1
102
RTVSPost2010Prop46
 90
       50
102
RTVSPost2010PropOp46
 70
     1
102
RTVSPost2010Prop47
 90
       50
102
RTVSPost2010PropOp47
 70
     1
102
RTVSPost2010Prop48
 90
       50
102
RTVSPost2010PropOp48
 70
     1
102
RTVSPost2010Prop49
280
     0
102
RTVSPost2010PropOp49
 70
     1
102
RTVSPost2010Prop50
 90
       50
102
RTVSPost2010PropOp50
 70
     1
102
RTVSPost2010Prop51ColorIndex
 90
      256
102
RTVSPost2010Prop51ColorRGB
 90
-16777216
102
RTVSPost2010PropOp51
 70
     0
102
RTVSPost2010Prop52
140
1.0
102
RTVSPost2010PropOp52
 70
     0
102
RTVSPost2010Prop53
 90
        2
102
RTVSPost2010PropOp53
 70
     1
102
RTVSPost2010Prop54
  1
strokes_ogs.tif
102
RTVSPost2010PropOp54
 70
     1
102
RTVSPost2010Prop55
280
     0
102
RTVSPost2010PropOp55
 70
     1
102
RTVSPost2010Prop56
140
1.0
102
RTVSPost2010PropOp56
 70
     1
102
RTVSPost2010Prop57
140
1.0
102
RTVSPost2010PropOp57
 70
     1
  0
XRECORD
  5
650
102
{ACAD_REACTORS
330
64F
102
}
330
64F
100
AcDbXrecord
280
     1
102
RTVSPropertyOp0
 70
     1
102
RTVSPropertyOp1
 70
     1
102
RTVSPropertyOp2
 70
     1
102
RTVSPropertyOp3
 70
     1
102
RTVSPropertyOp4
 70
     1
102
RTVSPropertyOp5
 70
     1
102
RTVSPropertyOp6
 70
     1
102
RTVSPropertyOp7
 70
     1
102
RTVSPropertyOp8
 70
     1
102
RTVSPropertyOp9
 70
     1
102
RTVSPropertyOp10
 70
     1
102
RTVSPropertyOp11
 70
     1
102
RTVSPropertyOp12
 70
     1
102
RTVSPropertyOp13
 70
     1
102
RTVSPropertyOp14
 70
     1
102
RTVSPropertyOp15
 70
     1
102
RTVSPropertyOp16
 70
     1
102
RTVSPropertyOp17
 70
     1
102
RTVSPropertyOp18
 70
     1
102
RTVSPropertyOp19
 70
     1
102
RTVSPropertyOp20
 70
     1
102
RTVSPropertyOp21
 70
     1
102
RTVSPropertyOp22
 70
     1
102
RTVSPropertyOp23
 70
     1
102
RTVSPropertyOp24
 70
     1
102
RTVSPropertyOp25
 70
     1
102
RTVSPropertyOp26
 70
     1
102
RTVSPropertyOp27
 70
     1
102
RTVSPropertyOp28
 70
     1
102
RTVSPropertyOp29
 70
     1
102
RTVSPropertyOp30
 70
     1
102
RTVSPropertyOp31
 70
     1
102
RTVSPropertyOp32
 70
     1
102
RTVSPropertyOp33
 70
     1
102
RTVSPropertyOp34
 70
     1
102
RTVSPropertyOp35
 70
     1
102
RTVSPropertyOp36
 70
     1
102
RTVSPropertyOp37
 70
     1
102
RTVSPropertyOp38
 70
     1
102
RTVSPropertyOp39
 70
     1
102
RTVSPropertyOp40
 70
     1
102
RTVSPropertyOp41
 70
     1
102
RTVSPropertyOp42
 70
     1
102
RTVSPropertyOp43
 70
     1
102
RTVSPropertyOp44
 70
     1
102
RTVSPropertyOp45
 70
     1
102
RTVSPropertyOp46
 70
     1
102
RTVSPropertyOp47
 70
     1
102
RTVSPropertyOp48
 70
     1
102
RTVSPropertyOp49
 70
     1
102
RTVSPropertyOp50
 70
     1
102
RTVSPropertyOp51
 70
     0
102
RTVSPropertyOp52
 70
     0
102
RTVSPropertyOp53
 70
     1
102
RTVSPropertyOp54
 70
     1
102
RTVSPropertyOp55
 70
     1
102
RTVSPropertyOp56
 70
     1
102
RTVSPropertyOp57
 70
     1
102
RTVSPost2010Prop28
280
     0
102
RTVSPost2010PropOp28
 70
     1
102
RTVSPost2010Prop29
280
     1
102
RTVSPost2010PropOp29
 70
     1
102
RTVSPost2010Prop30
280
     1
102
RTVSPost2010PropOp30
 70
     1
102
RTVSPost2010Prop31
280
     0
102
RTVSPost2010PropOp31
 70
     1
102
RTVSPost2010Prop32
280
     0
102
RTVSPost2010PropOp32
 70
     1
102
RTVSPost2010Prop33
280
     0
102
RTVSPost2010PropOp33
 70
     1
102
RTVSPost2010Prop34
280
     0
102
RTVSPost2010PropOp34
 70
     1
102
RTVSPost2010Prop35
280
     0
102
RTVSPost2010PropOp35
 70
     1
102
RTVSPost2010Prop36
280
     0
102
RTVSPost2010PropOp36
 70
     1
102
RTVSPost2010Prop37
 90
       50
102
RTVSPost2010PropOp37
 70
     1
102
RTVSPost2010Prop38
140
0.0
102
RTVSPost2010PropOp38
 70
     1
102
RTVSPost2010Prop39
140
1.0
102
RTVSPost2010PropOp39
 70
     1
102
RTVSPost2010Prop40
 90
        0
102
RTVSPost2010PropOp40
 70
     1
102
RTVSPost2010Prop41ColorIndex
 90
       18
102
RTVSPost2010Prop41ColorRGB
 90
        0
102
RTVSPost2010PropOp41
 70
     1
102
RTVSPost2010Prop42
 90
       50
102
RTVSPost2010PropOp42
 70
     1
102
RTVSPost2010Prop43
 90
        3
102
RTVSPost2010PropOp43
 70
     1
102
RTVSPost2010Prop44ColorIndex
 90
        5
102
RTVSPost2010Prop44ColorRGB
 90
      255
102
RTVSPost2010PropOp44
 70
     1
102
RTVSPost2010Prop45
280
     0
102
RTVSPost2010PropOp45
 70
     1
102
RTVSPost2010Prop46
 90
       50
102
RTVSPost2010PropOp46
 70
     1
102
RTVSPost2010Prop47
 90
       50
102
RTVSPost2010PropOp47
 70
     1
102
RTVSPost2010Prop48
 90
       50
102
RTVSPost2010PropOp48
 70
     1
102
RTVSPost2010Prop49
280
     0
102
RTVSPost2010PropOp49
 70
     1
102
RTVSPost2010Prop50
 90
       50
102
RTVSPost2010PropOp50
 70
     1
102
RTVSPost2010Prop51ColorIndex
 90
      256
102
RTVSPost2010Prop51ColorRGB
 90
-16777216
102
RTVSPost2010PropOp51
 70
     0
102
RTVSPost2010Prop52
140
1.0
102
RTVSPost2010PropOp52
 70
     0
102
RTVSPost2010Prop53
 90
        2
102
RTVSPost2010PropOp53
 70
     1
102
RTVSPost2010Prop54
  1
strokes_ogs.tif
102
RTVSPost2010PropOp54
 70
     1
102
RTVSPost2010Prop55
280
     0
102
RTVSPost2010PropOp55
 70
     1
102
RTVSPost2010Prop56
140
1.0
102
RTVSPost2010PropOp56
 70
     1
102
RTVSPost2010Prop57
140
1.0
102
RTVSPost2010PropOp57
 70
     1
  0
XRECORD
  5
636
102
{ACAD_REACTORS
330
635
102
}
330
635
100
AcDbXrecord
280
     1
102
RTVSPropertyOp0
 70
     1
102
RTVSPropertyOp1
 70
     1
102
RTVSPropertyOp2
 70
     1
102
RTVSPropertyOp3
 70
     1
102
RTVSPropertyOp4
 70
     1
102
RTVSPropertyOp5
 70
     1
102
RTVSPropertyOp6
 70
     1
102
RTVSPropertyOp7
 70
     1
102
RTVSPropertyOp8
 70
     1
102
RTVSPropertyOp9
 70
     1
102
RTVSPropertyOp10
 70
     1
102
RTVSPropertyOp11
 70
     1
102
RTVSPropertyOp12
 70
     1
102
RTVSPropertyOp13
 70
     1
102
RTVSPropertyOp14
 70
     1
102
RTVSPropertyOp15
 70
     1
102
RTVSPropertyOp16
 70
     1
102
RTVSPropertyOp17
 70
     1
102
RTVSPropertyOp18
 70
     1
102
RTVSPropertyOp19
 70
     1
102
RTVSPropertyOp20
 70
     1
102
RTVSPropertyOp21
 70
     1
102
RTVSPropertyOp22
 70
     1
102
RTVSPropertyOp23
 70
     1
102
RTVSPropertyOp24
 70
     1
102
RTVSPropertyOp25
 70
     1
102
RTVSPropertyOp26
 70
     1
102
RTVSPropertyOp27
 70
     1
102
RTVSPropertyOp28
 70
     1
102
RTVSPropertyOp29
 70
     1
102
RTVSPropertyOp30
 70
     1
102
RTVSPropertyOp31
 70
     1
102
RTVSPropertyOp32
 70
     1
102
RTVSPropertyOp33
 70
     1
102
RTVSPropertyOp34
 70
     1
102
RTVSPropertyOp35
 70
     1
102
RTVSPropertyOp36
 70
     1
102
RTVSPropertyOp37
 70
     1
102
RTVSPropertyOp38
 70
     1
102
RTVSPropertyOp39
 70
     1
102
RTVSPropertyOp40
 70
     1
102
RTVSPropertyOp41
 70
     1
102
RTVSPropertyOp42
 70
     1
102
RTVSPropertyOp43
 70
     1
102
RTVSPropertyOp44
 70
     1
102
RTVSPropertyOp45
 70
     1
102
RTVSPropertyOp46
 70
     1
102
RTVSPropertyOp47
 70
     1
102
RTVSPropertyOp48
 70
     1
102
RTVSPropertyOp49
 70
     1
102
RTVSPropertyOp50
 70
     1
102
RTVSPropertyOp51
 70
     0
102
RTVSPropertyOp52
 70
     0
102
RTVSPropertyOp53
 70
     1
102
RTVSPropertyOp54
 70
     1
102
RTVSPropertyOp55
 70
     1
102
RTVSPropertyOp56
 70
     1
102
RTVSPropertyOp57
 70
     1
102
RTVSPost2010Prop28
280
     0
102
RTVSPost2010PropOp28
 70
     1
102
RTVSPost2010Prop29
280
     1
102
RTVSPost2010PropOp29
 70
     1
102
RTVSPost2010Prop30
280
     1
102
RTVSPost2010PropOp30
 70
     1
102
RTVSPost2010Prop31
280
     0
102
RTVSPost2010PropOp31
 70
     1
102
RTVSPost2010Prop32
280
     0
102
RTVSPost2010PropOp32
 70
     1
102
RTVSPost2010Prop33
280
     0
102
RTVSPost2010PropOp33
 70
     1
102
RTVSPost2010Prop34
280
     0
102
RTVSPost2010PropOp34
 70
     1
102
RTVSPost2010Prop35
280
     0
102
RTVSPost2010PropOp35
 70
     1
102
RTVSPost2010Prop36
280
     0
102
RTVSPost2010PropOp36
 70
     1
102
RTVSPost2010Prop37
 90
       50
102
RTVSPost2010PropOp37
 70
     1
102
RTVSPost2010Prop38
140
0.0
102
RTVSPost2010PropOp38
 70
     1
102
RTVSPost2010Prop39
140
1.0
102
RTVSPost2010PropOp39
 70
     1
102
RTVSPost2010Prop40
 90
        0
102
RTVSPost2010PropOp40
 70
     1
102
RTVSPost2010Prop41ColorIndex
 90
       18
102
RTVSPost2010Prop41ColorRGB
 90
        0
102
RTVSPost2010PropOp41
 70
     1
102
RTVSPost2010Prop42
 90
       50
102
RTVSPost2010PropOp42
 70
     1
102
RTVSPost2010Prop43
 90
        3
102
RTVSPost2010PropOp43
 70
     1
102
RTVSPost2010Prop44ColorIndex
 90
        5
102
RTVSPost2010Prop44ColorRGB
 90
      255
102
RTVSPost2010PropOp44
 70
     1
102
RTVSPost2010Prop45
280
     0
102
RTVSPost2010PropOp45
 70
     1
102
RTVSPost2010Prop46
 90
       50
102
RTVSPost2010PropOp46
 70
     1
102
RTVSPost2010Prop47
 90
       50
102
RTVSPost2010PropOp47
 70
     1
102
RTVSPost2010Prop48
 90
       50
102
RTVSPost2010PropOp48
 70
     1
102
RTVSPost2010Prop49
280
     0
102
RTVSPost2010PropOp49
 70
     1
102
RTVSPost2010Prop50
 90
       50
102
RTVSPost2010PropOp50
 70
     1
102
RTVSPost2010Prop51ColorIndex
 90
      256
102
RTVSPost2010Prop51ColorRGB
 90
-16777216
102
RTVSPost2010PropOp51
 70
     0
102
RTVSPost2010Prop52
140
1.0
102
RTVSPost2010PropOp52
 70
     0
102
RTVSPost2010Prop53
 90
        2
102
RTVSPost2010PropOp53
 70
     1
102
RTVSPost2010Prop54
  1
strokes_ogs.tif
102
RTVSPost2010PropOp54
 70
     1
102
RTVSPost2010Prop55
280
     0
102
RTVSPost2010PropOp55
 70
     1
102
RTVSPost2010Prop56
140
1.0
102
RTVSPost2010PropOp56
 70
     1
102
RTVSPost2010Prop57
140
1.0
102
RTVSPost2010PropOp57
 70
     1
  0
XRECORD
  5
638
102
{ACAD_REACTORS
330
637
102
}
330
637
100
AcDbXrecord
280
     1
102
RTVSPropertyOp0
 70
     1
102
RTVSPropertyOp1
 70
     1
102
RTVSPropertyOp2
 70
     1
102
RTVSPropertyOp3
 70
     1
102
RTVSPropertyOp4
 70
     1
102
RTVSPropertyOp5
 70
     1
102
RTVSPropertyOp6
 70
     1
102
RTVSPropertyOp7
 70
     1
102
RTVSPropertyOp8
 70
     1
102
RTVSPropertyOp9
 70
     1
102
RTVSPropertyOp10
 70
     1
102
RTVSPropertyOp11
 70
     1
102
RTVSPropertyOp12
 70
     1
102
RTVSPropertyOp13
 70
     1
102
RTVSPropertyOp14
 70
     1
102
RTVSPropertyOp15
 70
     1
102
RTVSPropertyOp16
 70
     1
102
RTVSPropertyOp17
 70
     1
102
RTVSPropertyOp18
 70
     1
102
RTVSPropertyOp19
 70
     1
102
RTVSPropertyOp20
 70
     1
102
RTVSPropertyOp21
 70
     1
102
RTVSPropertyOp22
 70
     1
102
RTVSPropertyOp23
 70
     1
102
RTVSPropertyOp24
 70
     1
102
RTVSPropertyOp25
 70
     1
102
RTVSPropertyOp26
 70
     1
102
RTVSPropertyOp27
 70
     1
102
RTVSPropertyOp28
 70
     1
102
RTVSPropertyOp29
 70
     1
102
RTVSPropertyOp30
 70
     1
102
RTVSPropertyOp31
 70
     1
102
RTVSPropertyOp32
 70
     1
102
RTVSPropertyOp33
 70
     1
102
RTVSPropertyOp34
 70
     1
102
RTVSPropertyOp35
 70
     1
102
RTVSPropertyOp36
 70
     1
102
RTVSPropertyOp37
 70
     1
102
RTVSPropertyOp38
 70
     1
102
RTVSPropertyOp39
 70
     1
102
RTVSPropertyOp40
 70
     1
102
RTVSPropertyOp41
 70
     1
102
RTVSPropertyOp42
 70
     1
102
RTVSPropertyOp43
 70
     1
102
RTVSPropertyOp44
 70
     1
102
RTVSPropertyOp45
 70
     1
102
RTVSPropertyOp46
 70
     1
102
RTVSPropertyOp47
 70
     1
102
RTVSPropertyOp48
 70
     1
102
RTVSPropertyOp49
 70
     1
102
RTVSPropertyOp50
 70
     1
102
RTVSPropertyOp51
 70
     0
102
RTVSPropertyOp52
 70
     0
102
RTVSPropertyOp53
 70
     1
102
RTVSPropertyOp54
 70
     1
102
RTVSPropertyOp55
 70
     1
102
RTVSPropertyOp56
 70
     1
102
RTVSPropertyOp57
 70
     1
102
RTVSPost2010Prop28
280
     0
102
RTVSPost2010PropOp28
 70
     1
102
RTVSPost2010Prop29
280
     1
102
RTVSPost2010PropOp29
 70
     1
102
RTVSPost2010Prop30
280
     1
102
RTVSPost2010PropOp30
 70
     1
102
RTVSPost2010Prop31
280
     0
102
RTVSPost2010PropOp31
 70
     1
102
RTVSPost2010Prop32
280
     0
102
RTVSPost2010PropOp32
 70
     1
102
RTVSPost2010Prop33
280
     0
102
RTVSPost2010PropOp33
 70
     1
102
RTVSPost2010Prop34
280
     0
102
RTVSPost2010PropOp34
 70
     1
102
RTVSPost2010Prop35
280
     0
102
RTVSPost2010PropOp35
 70
     1
102
RTVSPost2010Prop36
280
     0
102
RTVSPost2010PropOp36
 70
     1
102
RTVSPost2010Prop37
 90
       50
102
RTVSPost2010PropOp37
 70
     1
102
RTVSPost2010Prop38
140
0.0
102
RTVSPost2010PropOp38
 70
     1
102
RTVSPost2010Prop39
140
1.0
102
RTVSPost2010PropOp39
 70
     1
102
RTVSPost2010Prop40
 90
        0
102
RTVSPost2010PropOp40
 70
     1
102
RTVSPost2010Prop41ColorIndex
 90
       18
102
RTVSPost2010Prop41ColorRGB
 90
        0
102
RTVSPost2010PropOp41
 70
     1
102
RTVSPost2010Prop42
 90
       50
102
RTVSPost2010PropOp42
 70
     1
102
RTVSPost2010Prop43
 90
        3
102
RTVSPost2010PropOp43
 70
     1
102
RTVSPost2010Prop44ColorIndex
 90
        5
102
RTVSPost2010Prop44ColorRGB
 90
      255
102
RTVSPost2010PropOp44
 70
     1
102
RTVSPost2010Prop45
280
     0
102
RTVSPost2010PropOp45
 70
     1
102
RTVSPost2010Prop46
 90
       50
102
RTVSPost2010PropOp46
 70
     1
102
RTVSPost2010Prop47
 90
       50
102
RTVSPost2010PropOp47
 70
     1
102
RTVSPost2010Prop48
 90
       50
102
RTVSPost2010PropOp48
 70
     1
102
RTVSPost2010Prop49
280
     0
102
RTVSPost2010PropOp49
 70
     1
102
RTVSPost2010Prop50
 90
       50
102
RTVSPost2010PropOp50
 70
     1
102
RTVSPost2010Prop51ColorIndex
 90
      256
102
RTVSPost2010Prop51ColorRGB
 90
-16777216
102
RTVSPost2010PropOp51
 70
     0
102
RTVSPost2010Prop52
140
1.0
102
RTVSPost2010PropOp52
 70
     0
102
RTVSPost2010Prop53
 90
        2
102
RTVSPost2010PropOp53
 70
     1
102
RTVSPost2010Prop54
  1
strokes_ogs.tif
102
RTVSPost2010PropOp54
 70
     1
102
RTVSPost2010Prop55
280
     0
102
RTVSPost2010PropOp55
 70
     1
102
RTVSPost2010Prop56
140
1.0
102
RTVSPost2010PropOp56
 70
     1
102
RTVSPost2010Prop57
140
1.0
102
RTVSPost2010PropOp57
 70
     1
  0
XRECORD
  5
63A
102
{ACAD_REACTORS
330
639
102
}
330
639
100
AcDbXrecord
280
     1
102
RTVSPropertyOp0
 70
     1
102
RTVSPropertyOp1
 70
     1
102
RTVSPropertyOp2
 70
     1
102
RTVSPropertyOp3
 70
     1
102
RTVSPropertyOp4
 70
     1
102
RTVSPropertyOp5
 70
     1
102
RTVSPropertyOp6
 70
     1
102
RTVSPropertyOp7
 70
     1
102
RTVSPropertyOp8
 70
     1
102
RTVSPropertyOp9
 70
     1
102
RTVSPropertyOp10
 70
     1
102
RTVSPropertyOp11
 70
     1
102
RTVSPropertyOp12
 70
     1
102
RTVSPropertyOp13
 70
     1
102
RTVSPropertyOp14
 70
     1
102
RTVSPropertyOp15
 70
     1
102
RTVSPropertyOp16
 70
     1
102
RTVSPropertyOp17
 70
     1
102
RTVSPropertyOp18
 70
     1
102
RTVSPropertyOp19
 70
     1
102
RTVSPropertyOp20
 70
     1
102
RTVSPropertyOp21
 70
     1
102
RTVSPropertyOp22
 70
     1
102
RTVSPropertyOp23
 70
     1
102
RTVSPropertyOp24
 70
     1
102
RTVSPropertyOp25
 70
     1
102
RTVSPropertyOp26
 70
     1
102
RTVSPropertyOp27
 70
     1
102
RTVSPropertyOp28
 70
     1
102
RTVSPropertyOp29
 70
     1
102
RTVSPropertyOp30
 70
     1
102
RTVSPropertyOp31
 70
     1
102
RTVSPropertyOp32
 70
     1
102
RTVSPropertyOp33
 70
     1
102
RTVSPropertyOp34
 70
     1
102
RTVSPropertyOp35
 70
     1
102
RTVSPropertyOp36
 70
     1
102
RTVSPropertyOp37
 70
     1
102
RTVSPropertyOp38
 70
     1
102
RTVSPropertyOp39
 70
     1
102
RTVSPropertyOp40
 70
     1
102
RTVSPropertyOp41
 70
     1
102
RTVSPropertyOp42
 70
     1
102
RTVSPropertyOp43
 70
     1
102
RTVSPropertyOp44
 70
     1
102
RTVSPropertyOp45
 70
     1
102
RTVSPropertyOp46
 70
     1
102
RTVSPropertyOp47
 70
     1
102
RTVSPropertyOp48
 70
     1
102
RTVSPropertyOp49
 70
     1
102
RTVSPropertyOp50
 70
     1
102
RTVSPropertyOp51
 70
     0
102
RTVSPropertyOp52
 70
     0
102
RTVSPropertyOp53
 70
     1
102
RTVSPropertyOp54
 70
     1
102
RTVSPropertyOp55
 70
     1
102
RTVSPropertyOp56
 70
     1
102
RTVSPropertyOp57
 70
     1
102
RTVSPost2010Prop28
280
     0
102
RTVSPost2010PropOp28
 70
     1
102
RTVSPost2010Prop29
280
     1
102
RTVSPost2010PropOp29
 70
     1
102
RTVSPost2010Prop30
280
     1
102
RTVSPost2010PropOp30
 70
     1
102
RTVSPost2010Prop31
280
     0
102
RTVSPost2010PropOp31
 70
     1
102
RTVSPost2010Prop32
280
     0
102
RTVSPost2010PropOp32
 70
     1
102
RTVSPost2010Prop33
280
     0
102
RTVSPost2010PropOp33
 70
     1
102
RTVSPost2010Prop34
280
     0
102
RTVSPost2010PropOp34
 70
     1
102
RTVSPost2010Prop35
280
     0
102
RTVSPost2010PropOp35
 70
     1
102
RTVSPost2010Prop36
280
     0
102
RTVSPost2010PropOp36
 70
     1
102
RTVSPost2010Prop37
 90
       50
102
RTVSPost2010PropOp37
 70
     1
102
RTVSPost2010Prop38
140
0.0
102
RTVSPost2010PropOp38
 70
     1
102
RTVSPost2010Prop39
140
1.0
102
RTVSPost2010PropOp39
 70
     1
102
RTVSPost2010Prop40
 90
        0
102
RTVSPost2010PropOp40
 70
     1
102
RTVSPost2010Prop41ColorIndex
 90
       18
102
RTVSPost2010Prop41ColorRGB
 90
        0
102
RTVSPost2010PropOp41
 70
     1
102
RTVSPost2010Prop42
 90
       50
102
RTVSPost2010PropOp42
 70
     1
102
RTVSPost2010Prop43
 90
        3
102
RTVSPost2010PropOp43
 70
     1
102
RTVSPost2010Prop44ColorIndex
 90
        5
102
RTVSPost2010Prop44ColorRGB
 90
      255
102
RTVSPost2010PropOp44
 70
     1
102
RTVSPost2010Prop45
280
     0
102
RTVSPost2010PropOp45
 70
     1
102
RTVSPost2010Prop46
 90
       50
102
RTVSPost2010PropOp46
 70
     1
102
RTVSPost2010Prop47
 90
       50
102
RTVSPost2010PropOp47
 70
     1
102
RTVSPost2010Prop48
 90
       50
102
RTVSPost2010PropOp48
 70
     1
102
RTVSPost2010Prop49
280
     0
102
RTVSPost2010PropOp49
 70
     1
102
RTVSPost2010Prop50
 90
       50
102
RTVSPost2010PropOp50
 70
     1
102
RTVSPost2010Prop51ColorIndex
 90
      256
102
RTVSPost2010Prop51ColorRGB
 90
-16777216
102
RTVSPost2010PropOp51
 70
     0
102
RTVSPost2010Prop52
140
1.0
102
RTVSPost2010PropOp52
 70
     0
102
RTVSPost2010Prop53
 90
        2
102
RTVSPost2010PropOp53
 70
     1
102
RTVSPost2010Prop54
  1
strokes_ogs.tif
102
RTVSPost2010PropOp54
 70
     1
102
RTVSPost2010Prop55
280
     0
102
RTVSPost2010PropOp55
 70
     1
102
RTVSPost2010Prop56
140
1.0
102
RTVSPost2010PropOp56
 70
     1
102
RTVSPost2010Prop57
140
1.0
102
RTVSPost2010PropOp57
 70
     1
  0
XRECORD
  5
63C
102
{ACAD_REACTORS
330
63B
102
}
330
63B
100
AcDbXrecord
280
     1
102
RTVSPropertyOp0
 70
     1
102
RTVSPropertyOp1
 70
     1
102
RTVSPropertyOp2
 70
     1
102
RTVSPropertyOp3
 70
     1
102
RTVSPropertyOp4
 70
     1
102
RTVSPropertyOp5
 70
     1
102
RTVSPropertyOp6
 70
     1
102
RTVSPropertyOp7
 70
     1
102
RTVSPropertyOp8
 70
     1
102
RTVSPropertyOp9
 70
     1
102
RTVSPropertyOp10
 70
     1
102
RTVSPropertyOp11
 70
     1
102
RTVSPropertyOp12
 70
     1
102
RTVSPropertyOp13
 70
     1
102
RTVSPropertyOp14
 70
     1
102
RTVSPropertyOp15
 70
     1
102
RTVSPropertyOp16
 70
     1
102
RTVSPropertyOp17
 70
     1
102
RTVSPropertyOp18
 70
     1
102
RTVSPropertyOp19
 70
     1
102
RTVSPropertyOp20
 70
     1
102
RTVSPropertyOp21
 70
     1
102
RTVSPropertyOp22
 70
     1
102
RTVSPropertyOp23
 70
     1
102
RTVSPropertyOp24
 70
     1
102
RTVSPropertyOp25
 70
     1
102
RTVSPropertyOp26
 70
     1
102
RTVSPropertyOp27
 70
     1
102
RTVSPropertyOp28
 70
     1
102
RTVSPropertyOp29
 70
     1
102
RTVSPropertyOp30
 70
     1
102
RTVSPropertyOp31
 70
     1
102
RTVSPropertyOp32
 70
     1
102
RTVSPropertyOp33
 70
     1
102
RTVSPropertyOp34
 70
     1
102
RTVSPropertyOp35
 70
     1
102
RTVSPropertyOp36
 70
     1
102
RTVSPropertyOp37
 70
     1
102
RTVSPropertyOp38
 70
     1
102
RTVSPropertyOp39
 70
     1
102
RTVSPropertyOp40
 70
     1
102
RTVSPropertyOp41
 70
     1
102
RTVSPropertyOp42
 70
     1
102
RTVSPropertyOp43
 70
     1
102
RTVSPropertyOp44
 70
     1
102
RTVSPropertyOp45
 70
     1
102
RTVSPropertyOp46
 70
     1
102
RTVSPropertyOp47
 70
     1
102
RTVSPropertyOp48
 70
     1
102
RTVSPropertyOp49
 70
     1
102
RTVSPropertyOp50
 70
     1
102
RTVSPropertyOp51
 70
     0
102
RTVSPropertyOp52
 70
     0
102
RTVSPropertyOp53
 70
     1
102
RTVSPropertyOp54
 70
     1
102
RTVSPropertyOp55
 70
     1
102
RTVSPropertyOp56
 70
     1
102
RTVSPropertyOp57
 70
     1
102
RTVSPost2010Prop28
280
     0
102
RTVSPost2010PropOp28
 70
     1
102
RTVSPost2010Prop29
280
     1
102
RTVSPost2010PropOp29
 70
     1
102
RTVSPost2010Prop30
280
     1
102
RTVSPost2010PropOp30
 70
     1
102
RTVSPost2010Prop31
280
     0
102
RTVSPost2010PropOp31
 70
     1
102
RTVSPost2010Prop32
280
     0
102
RTVSPost2010PropOp32
 70
     1
102
RTVSPost2010Prop33
280
     0
102
RTVSPost2010PropOp33
 70
     1
102
RTVSPost2010Prop34
280
     0
102
RTVSPost2010PropOp34
 70
     1
102
RTVSPost2010Prop35
280
     0
102
RTVSPost2010PropOp35
 70
     1
102
RTVSPost2010Prop36
280
     0
102
RTVSPost2010PropOp36
 70
     1
102
RTVSPost2010Prop37
 90
       50
102
RTVSPost2010PropOp37
 70
     1
102
RTVSPost2010Prop38
140
0.0
102
RTVSPost2010PropOp38
 70
     1
102
RTVSPost2010Prop39
140
1.0
102
RTVSPost2010PropOp39
 70
     1
102
RTVSPost2010Prop40
 90
        0
102
RTVSPost2010PropOp40
 70
     1
102
RTVSPost2010Prop41ColorIndex
 90
       18
102
RTVSPost2010Prop41ColorRGB
 90
        0
102
RTVSPost2010PropOp41
 70
     1
102
RTVSPost2010Prop42
 90
       50
102
RTVSPost2010PropOp42
 70
     1
102
RTVSPost2010Prop43
 90
        3
102
RTVSPost2010PropOp43
 70
     1
102
RTVSPost2010Prop44ColorIndex
 90
        5
102
RTVSPost2010Prop44ColorRGB
 90
      255
102
RTVSPost2010PropOp44
 70
     1
102
RTVSPost2010Prop45
280
     0
102
RTVSPost2010PropOp45
 70
     1
102
RTVSPost2010Prop46
 90
       50
102
RTVSPost2010PropOp46
 70
     1
102
RTVSPost2010Prop47
 90
       50
102
RTVSPost2010PropOp47
 70
     1
102
RTVSPost2010Prop48
 90
       50
102
RTVSPost2010PropOp48
 70
     1
102
RTVSPost2010Prop49
280
     0
102
RTVSPost2010PropOp49
 70
     1
102
RTVSPost2010Prop50
 90
       50
102
RTVSPost2010PropOp50
 70
     1
102
RTVSPost2010Prop51ColorIndex
 90
      256
102
RTVSPost2010Prop51ColorRGB
 90
-16777216
102
RTVSPost2010PropOp51
 70
     0
102
RTVSPost2010Prop52
140
1.0
102
RTVSPost2010PropOp52
 70
     0
102
RTVSPost2010Prop53
 90
        2
102
RTVSPost2010PropOp53
 70
     1
102
RTVSPost2010Prop54
  1
strokes_ogs.tif
102
RTVSPost2010PropOp54
 70
     1
102
RTVSPost2010Prop55
280
     0
102
RTVSPost2010PropOp55
 70
     1
102
RTVSPost2010Prop56
140
1.0
102
RTVSPost2010PropOp56
 70
     1
102
RTVSPost2010Prop57
140
1.0
102
RTVSPost2010PropOp57
 70
     1
  0
XRECORD
  5
640
102
{ACAD_REACTORS
330
63F
102
}
330
63F
100
AcDbXrecord
280
     1
102
RTVSPropertyOp0
 70
     1
102
RTVSPropertyOp1
 70
     1
102
RTVSPropertyOp2
 70
     1
102
RTVSPropertyOp3
 70
     1
102
RTVSPropertyOp4
 70
     1
102
RTVSPropertyOp5
 70
     1
102
RTVSPropertyOp6
 70
     1
102
RTVSPropertyOp7
 70
     1
102
RTVSPropertyOp8
 70
     1
102
RTVSPropertyOp9
 70
     1
102
RTVSPropertyOp10
 70
     1
102
RTVSPropertyOp11
 70
     1
102
RTVSPropertyOp12
 70
     1
102
RTVSPropertyOp13
 70
     1
102
RTVSPropertyOp14
 70
     1
102
RTVSPropertyOp15
 70
     1
102
RTVSPropertyOp16
 70
     1
102
RTVSPropertyOp17
 70
     1
102
RTVSPropertyOp18
 70
     1
102
RTVSPropertyOp19
 70
     1
102
RTVSPropertyOp20
 70
     1
102
RTVSPropertyOp21
 70
     1
102
RTVSPropertyOp22
 70
     1
102
RTVSPropertyOp23
 70
     1
102
RTVSPropertyOp24
 70
     1
102
RTVSPropertyOp25
 70
     1
102
RTVSPropertyOp26
 70
     1
102
RTVSPropertyOp27
 70
     1
102
RTVSPropertyOp28
 70
     1
102
RTVSPropertyOp29
 70
     1
102
RTVSPropertyOp30
 70
     1
102
RTVSPropertyOp31
 70
     1
102
RTVSPropertyOp32
 70
     1
102
RTVSPropertyOp33
 70
     1
102
RTVSPropertyOp34
 70
     1
102
RTVSPropertyOp35
 70
     1
102
RTVSPropertyOp36
 70
     1
102
RTVSPropertyOp37
 70
     1
102
RTVSPropertyOp38
 70
     1
102
RTVSPropertyOp39
 70
     1
102
RTVSPropertyOp40
 70
     1
102
RTVSPropertyOp41
 70
     1
102
RTVSPropertyOp42
 70
     1
102
RTVSPropertyOp43
 70
     1
102
RTVSPropertyOp44
 70
     1
102
RTVSPropertyOp45
 70
     1
102
RTVSPropertyOp46
 70
     1
102
RTVSPropertyOp47
 70
     1
102
RTVSPropertyOp48
 70
     1
102
RTVSPropertyOp49
 70
     1
102
RTVSPropertyOp50
 70
     1
102
RTVSPropertyOp51
 70
     0
102
RTVSPropertyOp52
 70
     0
102
RTVSPropertyOp53
 70
     1
102
RTVSPropertyOp54
 70
     1
102
RTVSPropertyOp55
 70
     1
102
RTVSPropertyOp56
 70
     1
102
RTVSPropertyOp57
 70
     1
102
RTVSPost2010Prop28
280
     0
102
RTVSPost2010PropOp28
 70
     1
102
RTVSPost2010Prop29
280
     1
102
RTVSPost2010PropOp29
 70
     1
102
RTVSPost2010Prop30
280
     1
102
RTVSPost2010PropOp30
 70
     1
102
RTVSPost2010Prop31
280
     0
102
RTVSPost2010PropOp31
 70
     1
102
RTVSPost2010Prop32
280
     0
102
RTVSPost2010PropOp32
 70
     1
102
RTVSPost2010Prop33
280
     0
102
RTVSPost2010PropOp33
 70
     1
102
RTVSPost2010Prop34
280
     0
102
RTVSPost2010PropOp34
 70
     1
102
RTVSPost2010Prop35
280
     0
102
RTVSPost2010PropOp35
 70
     1
102
RTVSPost2010Prop36
280
     0
102
RTVSPost2010PropOp36
 70
     1
102
RTVSPost2010Prop37
 90
       50
102
RTVSPost2010PropOp37
 70
     1
102
RTVSPost2010Prop38
140
0.0
102
RTVSPost2010PropOp38
 70
     1
102
RTVSPost2010Prop39
140
1.0
102
RTVSPost2010PropOp39
 70
     1
102
RTVSPost2010Prop40
 90
        0
102
RTVSPost2010PropOp40
 70
     1
102
RTVSPost2010Prop41ColorIndex
 90
       18
102
RTVSPost2010Prop41ColorRGB
 90
        0
102
RTVSPost2010PropOp41
 70
     1
102
RTVSPost2010Prop42
 90
       50
102
RTVSPost2010PropOp42
 70
     1
102
RTVSPost2010Prop43
 90
        3
102
RTVSPost2010PropOp43
 70
     1
102
RTVSPost2010Prop44ColorIndex
 90
        5
102
RTVSPost2010Prop44ColorRGB
 90
      255
102
RTVSPost2010PropOp44
 70
     1
102
RTVSPost2010Prop45
280
     0
102
RTVSPost2010PropOp45
 70
     1
102
RTVSPost2010Prop46
 90
       50
102
RTVSPost2010PropOp46
 70
     1
102
RTVSPost2010Prop47
 90
       50
102
RTVSPost2010PropOp47
 70
     1
102
RTVSPost2010Prop48
 90
       50
102
RTVSPost2010PropOp48
 70
     1
102
RTVSPost2010Prop49
280
     0
102
RTVSPost2010PropOp49
 70
     1
102
RTVSPost2010Prop50
 90
       50
102
RTVSPost2010PropOp50
 70
     1
102
RTVSPost2010Prop51ColorIndex
 90
      256
102
RTVSPost2010Prop51ColorRGB
 90
-16777216
102
RTVSPost2010PropOp51
 70
     0
102
RTVSPost2010Prop52
140
1.0
102
RTVSPost2010PropOp52
 70
     0
102
RTVSPost2010Prop53
 90
        2
102
RTVSPost2010PropOp53
 70
     1
102
RTVSPost2010Prop54
  1
strokes_ogs.tif
102
RTVSPost2010PropOp54
 70
     1
102
RTVSPost2010Prop55
280
     0
102
RTVSPost2010PropOp55
 70
     1
102
RTVSPost2010Prop56
140
1.0
102
RTVSPost2010PropOp56
 70
     1
102
RTVSPost2010Prop57
140
1.0
102
RTVSPost2010PropOp57
 70
     1
  0
XRECORD
  5
654
102
{ACAD_REACTORS
330
653
102
}
330
653
100
AcDbXrecord
280
     1
102
RTVSPropertyOp0
 70
     0
102
RTVSPropertyOp1
 70
     0
102
RTVSPropertyOp2
 70
     0
102
RTVSPropertyOp3
 70
     0
102
RTVSPropertyOp4
 70
     0
102
RTVSPropertyOp5
 70
     0
102
RTVSPropertyOp6
 70
     0
102
RTVSPropertyOp7
 70
     0
102
RTVSPropertyOp8
 70
     0
102
RTVSPropertyOp9
 70
     0
102
RTVSPropertyOp10
 70
     0
102
RTVSPropertyOp11
 70
     0
102
RTVSPropertyOp12
 70
     0
102
RTVSPropertyOp13
 70
     0
102
RTVSPropertyOp14
 70
     0
102
RTVSPropertyOp15
 70
     0
102
RTVSPropertyOp16
 70
     0
102
RTVSPropertyOp17
 70
     0
102
RTVSPropertyOp18
 70
     0
102
RTVSPropertyOp19
 70
     0
102
RTVSPropertyOp20
 70
     0
102
RTVSPropertyOp21
 70
     0
102
RTVSPropertyOp22
 70
     0
102
RTVSPropertyOp23
 70
     0
102
RTVSPropertyOp24
 70
     0
102
RTVSPropertyOp25
 70
     0
102
RTVSPropertyOp26
 70
     0
102
RTVSPropertyOp27
 70
     0
102
RTVSPropertyOp28
 70
     1
102
RTVSPropertyOp29
 70
     1
102
RTVSPropertyOp30
 70
     1
102
RTVSPropertyOp31
 70
     1
102
RTVSPropertyOp32
 70
     1
102
RTVSPropertyOp33
 70
     1
102
RTVSPropertyOp34
 70
     1
102
RTVSPropertyOp35
 70
     1
102
RTVSPropertyOp36
 70
     1
102
RTVSPropertyOp37
 70
     1
102
RTVSPropertyOp38
 70
     1
102
RTVSPropertyOp39
 70
     1
102
RTVSPropertyOp40
 70
     1
102
RTVSPropertyOp41
 70
     1
102
RTVSPropertyOp42
 70
     1
102
RTVSPropertyOp43
 70
     1
102
RTVSPropertyOp44
 70
     1
102
RTVSPropertyOp45
 70
     1
102
RTVSPropertyOp46
 70
     1
102
RTVSPropertyOp47
 70
     1
102
RTVSPropertyOp48
 70
     1
102
RTVSPropertyOp49
 70
     1
102
RTVSPropertyOp50
 70
     1
102
RTVSPropertyOp51
 70
     0
102
RTVSPropertyOp52
 70
     0
102
RTVSPropertyOp53
 70
     1
102
RTVSPropertyOp54
 70
     1
102
RTVSPropertyOp55
 70
     1
102
RTVSPropertyOp56
 70
     1
102
RTVSPropertyOp57
 70
     1
102
RTVSPost2010Prop28
280
     0
102
RTVSPost2010PropOp28
 70
     1
102
RTVSPost2010Prop29
280
     1
102
RTVSPost2010PropOp29
 70
     1
102
RTVSPost2010Prop30
280
     1
102
RTVSPost2010PropOp30
 70
     1
102
RTVSPost2010Prop31
280
     0
102
RTVSPost2010PropOp31
 70
     1
102
RTVSPost2010Prop32
280
     0
102
RTVSPost2010PropOp32
 70
     1
102
RTVSPost2010Prop33
280
     0
102
RTVSPost2010PropOp33
 70
     1
102
RTVSPost2010Prop34
280
     0
102
RTVSPost2010PropOp34
 70
     1
102
RTVSPost2010Prop35
280
     0
102
RTVSPost2010PropOp35
 70
     1
102
RTVSPost2010Prop36
280
     0
102
RTVSPost2010PropOp36
 70
     1
102
RTVSPost2010Prop37
 90
       50
102
RTVSPost2010PropOp37
 70
     1
102
RTVSPost2010Prop38
140
0.0
102
RTVSPost2010PropOp38
 70
     1
102
RTVSPost2010Prop39
140
1.0
102
RTVSPost2010PropOp39
 70
     1
102
RTVSPost2010Prop40
 90
        0
102
RTVSPost2010PropOp40
 70
     1
102
RTVSPost2010Prop41ColorIndex
 90
       18
102
RTVSPost2010Prop41ColorRGB
 90
        0
102
RTVSPost2010PropOp41
 70
     1
102
RTVSPost2010Prop42
 90
       50
102
RTVSPost2010PropOp42
 70
     1
102
RTVSPost2010Prop43
 90
        3
102
RTVSPost2010PropOp43
 70
     1
102
RTVSPost2010Prop44ColorIndex
 90
        5
102
RTVSPost2010Prop44ColorRGB
 90
      255
102
RTVSPost2010PropOp44
 70
     1
102
RTVSPost2010Prop45
280
     0
102
RTVSPost2010PropOp45
 70
     1
102
RTVSPost2010Prop46
 90
       50
102
RTVSPost2010PropOp46
 70
     1
102
RTVSPost2010Prop47
 90
       50
102
RTVSPost2010PropOp47
 70
     1
102
RTVSPost2010Prop48
 90
       50
102
RTVSPost2010PropOp48
 70
     1
102
RTVSPost2010Prop49
280
     0
102
RTVSPost2010PropOp49
 70
     1
102
RTVSPost2010Prop50
 90
       50
102
RTVSPost2010PropOp50
 70
     1
102
RTVSPost2010Prop51ColorIndex
 90
      256
102
RTVSPost2010Prop51ColorRGB
 90
-16777216
102
RTVSPost2010PropOp51
 70
     0
102
RTVSPost2010Prop52
140
1.0
102
RTVSPost2010PropOp52
 70
     0
102
RTVSPost2010Prop53
 90
        2
102
RTVSPost2010PropOp53
 70
     1
102
RTVSPost2010Prop54
  1
strokes_ogs.tif
102
RTVSPost2010PropOp54
 70
     1
102
RTVSPost2010Prop55
280
     0
102
RTVSPost2010PropOp55
 70
     1
102
RTVSPost2010Prop56
140
1.0
102
RTVSPost2010PropOp56
 70
     1
102
RTVSPost2010Prop57
140
1.0
102
RTVSPost2010PropOp57
 70
     1
  0
XRECORD
  5
64E
102
{ACAD_REACTORS
330
64D
102
}
330
64D
100
AcDbXrecord
280
     1
102
RTVSPropertyOp0
 70
     1
102
RTVSPropertyOp1
 70
     1
102
RTVSPropertyOp2
 70
     1
102
RTVSPropertyOp3
 70
     1
102
RTVSPropertyOp4
 70
     1
102
RTVSPropertyOp5
 70
     1
102
RTVSPropertyOp6
 70
     1
102
RTVSPropertyOp7
 70
     1
102
RTVSPropertyOp8
 70
     1
102
RTVSPropertyOp9
 70
     1
102
RTVSPropertyOp10
 70
     1
102
RTVSPropertyOp11
 70
     1
102
RTVSPropertyOp12
 70
     1
102
RTVSPropertyOp13
 70
     1
102
RTVSPropertyOp14
 70
     1
102
RTVSPropertyOp15
 70
     1
102
RTVSPropertyOp16
 70
     1
102
RTVSPropertyOp17
 70
     1
102
RTVSPropertyOp18
 70
     1
102
RTVSPropertyOp19
 70
     1
102
RTVSPropertyOp20
 70
     1
102
RTVSPropertyOp21
 70
     1
102
RTVSPropertyOp22
 70
     1
102
RTVSPropertyOp23
 70
     1
102
RTVSPropertyOp24
 70
     1
102
RTVSPropertyOp25
 70
     1
102
RTVSPropertyOp26
 70
     1
102
RTVSPropertyOp27
 70
     1
102
RTVSPropertyOp28
 70
     1
102
RTVSPropertyOp29
 70
     1
102
RTVSPropertyOp30
 70
     1
102
RTVSPropertyOp31
 70
     1
102
RTVSPropertyOp32
 70
     1
102
RTVSPropertyOp33
 70
     1
102
RTVSPropertyOp34
 70
     1
102
RTVSPropertyOp35
 70
     1
102
RTVSPropertyOp36
 70
     1
102
RTVSPropertyOp37
 70
     1
102
RTVSPropertyOp38
 70
     1
102
RTVSPropertyOp39
 70
     1
102
RTVSPropertyOp40
 70
     1
102
RTVSPropertyOp41
 70
     1
102
RTVSPropertyOp42
 70
     1
102
RTVSPropertyOp43
 70
     1
102
RTVSPropertyOp44
 70
     1
102
RTVSPropertyOp45
 70
     1
102
RTVSPropertyOp46
 70
     1
102
RTVSPropertyOp47
 70
     1
102
RTVSPropertyOp48
 70
     1
102
RTVSPropertyOp49
 70
     1
102
RTVSPropertyOp50
 70
     1
102
RTVSPropertyOp51
 70
     0
102
RTVSPropertyOp52
 70
     0
102
RTVSPropertyOp53
 70
     1
102
RTVSPropertyOp54
 70
     1
102
RTVSPropertyOp55
 70
     1
102
RTVSPropertyOp56
 70
     1
102
RTVSPropertyOp57
 70
     1
102
RTVSPost2010Prop28
280
     0
102
RTVSPost2010PropOp28
 70
     1
102
RTVSPost2010Prop29
280
     1
102
RTVSPost2010PropOp29
 70
     1
102
RTVSPost2010Prop30
280
     1
102
RTVSPost2010PropOp30
 70
     1
102
RTVSPost2010Prop31
280
     0
102
RTVSPost2010PropOp31
 70
     1
102
RTVSPost2010Prop32
280
     0
102
RTVSPost2010PropOp32
 70
     1
102
RTVSPost2010Prop33
280
     0
102
RTVSPost2010PropOp33
 70
     1
102
RTVSPost2010Prop34
280
     0
102
RTVSPost2010PropOp34
 70
     1
102
RTVSPost2010Prop35
280
     0
102
RTVSPost2010PropOp35
 70
     1
102
RTVSPost2010Prop36
280
     0
102
RTVSPost2010PropOp36
 70
     1
102
RTVSPost2010Prop37
 90
       50
102
RTVSPost2010PropOp37
 70
     1
102
RTVSPost2010Prop38
140
0.0
102
RTVSPost2010PropOp38
 70
     1
102
RTVSPost2010Prop39
140
1.0
102
RTVSPost2010PropOp39
 70
     1
102
RTVSPost2010Prop40
 90
        0
102
RTVSPost2010PropOp40
 70
     1
102
RTVSPost2010Prop41ColorIndex
 90
       18
102
RTVSPost2010Prop41ColorRGB
 90
        0
102
RTVSPost2010PropOp41
 70
     1
102
RTVSPost2010Prop42
 90
       50
102
RTVSPost2010PropOp42
 70
     1
102
RTVSPost2010Prop43
 90
        3
102
RTVSPost2010PropOp43
 70
     1
102
RTVSPost2010Prop44ColorIndex
 90
        5
102
RTVSPost2010Prop44ColorRGB
 90
      255
102
RTVSPost2010PropOp44
 70
     1
102
RTVSPost2010Prop45
280
     0
102
RTVSPost2010PropOp45
 70
     1
102
RTVSPost2010Prop46
 90
       50
102
RTVSPost2010PropOp46
 70
     1
102
RTVSPost2010Prop47
 90
       50
102
RTVSPost2010PropOp47
 70
     1
102
RTVSPost2010Prop48
 90
       50
102
RTVSPost2010PropOp48
 70
     1
102
RTVSPost2010Prop49
280
     0
102
RTVSPost2010PropOp49
 70
     1
102
RTVSPost2010Prop50
 90
       50
102
RTVSPost2010PropOp50
 70
     1
102
RTVSPost2010Prop51ColorIndex
 90
      256
102
RTVSPost2010Prop51ColorRGB
 90
-16777216
102
RTVSPost2010PropOp51
 70
     0
102
RTVSPost2010Prop52
140
1.0
102
RTVSPost2010PropOp52
 70
     0
102
RTVSPost2010Prop53
 90
        2
102
RTVSPost2010PropOp53
 70
     1
102
RTVSPost2010Prop54
  1
strokes_ogs.tif
102
RTVSPost2010PropOp54
 70
     1
102
RTVSPost2010Prop55
280
     0
102
RTVSPost2010PropOp55
 70
     1
102
RTVSPost2010Prop56
140
1.0
102
RTVSPost2010PropOp56
 70
     1
102
RTVSPost2010Prop57
140
1.0
102
RTVSPost2010PropOp57
 70
     1
  0
XRECORD
  5
656
102
{ACAD_REACTORS
330
655
102
}
330
655
100
AcDbXrecord
280
     1
102
RTVSPropertyOp0
 70
     0
102
RTVSPropertyOp1
 70
     0
102
RTVSPropertyOp2
 70
     0
102
RTVSPropertyOp3
 70
     0
102
RTVSPropertyOp4
 70
     0
102
RTVSPropertyOp5
 70
     0
102
RTVSPropertyOp6
 70
     0
102
RTVSPropertyOp7
 70
     0
102
RTVSPropertyOp8
 70
     0
102
RTVSPropertyOp9
 70
     0
102
RTVSPropertyOp10
 70
     0
102
RTVSPropertyOp11
 70
     0
102
RTVSPropertyOp12
 70
     0
102
RTVSPropertyOp13
 70
     0
102
RTVSPropertyOp14
 70
     0
102
RTVSPropertyOp15
 70
     0
102
RTVSPropertyOp16
 70
     0
102
RTVSPropertyOp17
 70
     0
102
RTVSPropertyOp18
 70
     0
102
RTVSPropertyOp19
 70
     0
102
RTVSPropertyOp20
 70
     0
102
RTVSPropertyOp21
 70
     0
102
RTVSPropertyOp22
 70
     0
102
RTVSPropertyOp23
 70
     0
102
RTVSPropertyOp24
 70
     0
102
RTVSPropertyOp25
 70
     0
102
RTVSPropertyOp26
 70
     0
102
RTVSPropertyOp27
 70
     0
102
RTVSPropertyOp28
 70
     1
102
RTVSPropertyOp29
 70
     1
102
RTVSPropertyOp30
 70
     1
102
RTVSPropertyOp31
 70
     1
102
RTVSPropertyOp32
 70
     1
102
RTVSPropertyOp33
 70
     1
102
RTVSPropertyOp34
 70
     1
102
RTVSPropertyOp35
 70
     1
102
RTVSPropertyOp36
 70
     1
102
RTVSPropertyOp37
 70
     1
102
RTVSPropertyOp38
 70
     1
102
RTVSPropertyOp39
 70
     1
102
RTVSPropertyOp40
 70
     1
102
RTVSPropertyOp41
 70
     1
102
RTVSPropertyOp42
 70
     1
102
RTVSPropertyOp43
 70
     1
102
RTVSPropertyOp44
 70
     1
102
RTVSPropertyOp45
 70
     1
102
RTVSPropertyOp46
 70
     1
102
RTVSPropertyOp47
 70
     1
102
RTVSPropertyOp48
 70
     1
102
RTVSPropertyOp49
 70
     1
102
RTVSPropertyOp50
 70
     1
102
RTVSPropertyOp51
 70
     0
102
RTVSPropertyOp52
 70
     0
102
RTVSPropertyOp53
 70
     1
102
RTVSPropertyOp54
 70
     1
102
RTVSPropertyOp55
 70
     1
102
RTVSPropertyOp56
 70
     1
102
RTVSPropertyOp57
 70
     1
102
RTVSPost2010Prop28
280
     0
102
RTVSPost2010PropOp28
 70
     1
102
RTVSPost2010Prop29
280
     1
102
RTVSPost2010PropOp29
 70
     1
102
RTVSPost2010Prop30
280
     1
102
RTVSPost2010PropOp30
 70
     1
102
RTVSPost2010Prop31
280
     0
102
RTVSPost2010PropOp31
 70
     1
102
RTVSPost2010Prop32
280
     0
102
RTVSPost2010PropOp32
 70
     1
102
RTVSPost2010Prop33
280
     0
102
RTVSPost2010PropOp33
 70
     1
102
RTVSPost2010Prop34
280
     0
102
RTVSPost2010PropOp34
 70
     1
102
RTVSPost2010Prop35
280
     0
102
RTVSPost2010PropOp35
 70
     1
102
RTVSPost2010Prop36
280
     0
102
RTVSPost2010PropOp36
 70
     1
102
RTVSPost2010Prop37
 90
       50
102
RTVSPost2010PropOp37
 70
     1
102
RTVSPost2010Prop38
140
0.0
102
RTVSPost2010PropOp38
 70
     1
102
RTVSPost2010Prop39
140
1.0
102
RTVSPost2010PropOp39
 70
     1
102
RTVSPost2010Prop40
 90
        0
102
RTVSPost2010PropOp40
 70
     1
102
RTVSPost2010Prop41ColorIndex
 90
       18
102
RTVSPost2010Prop41ColorRGB
 90
        0
102
RTVSPost2010PropOp41
 70
     1
102
RTVSPost2010Prop42
 90
       50
102
RTVSPost2010PropOp42
 70
     1
102
RTVSPost2010Prop43
 90
        3
102
RTVSPost2010PropOp43
 70
     1
102
RTVSPost2010Prop44ColorIndex
 90
        5
102
RTVSPost2010Prop44ColorRGB
 90
      255
102
RTVSPost2010PropOp44
 70
     1
102
RTVSPost2010Prop45
280
     0
102
RTVSPost2010PropOp45
 70
     1
102
RTVSPost2010Prop46
 90
       50
102
RTVSPost2010PropOp46
 70
     1
102
RTVSPost2010Prop47
 90
       50
102
RTVSPost2010PropOp47
 70
     1
102
RTVSPost2010Prop48
 90
       50
102
RTVSPost2010PropOp48
 70
     1
102
RTVSPost2010Prop49
280
     0
102
RTVSPost2010PropOp49
 70
     1
102
RTVSPost2010Prop50
 90
       50
102
RTVSPost2010PropOp50
 70
     1
102
RTVSPost2010Prop51ColorIndex
 90
      256
102
RTVSPost2010Prop51ColorRGB
 90
-16777216
102
RTVSPost2010PropOp51
 70
     0
102
RTVSPost2010Prop52
140
1.0
102
RTVSPost2010PropOp52
 70
     0
102
RTVSPost2010Prop53
 90
        2
102
RTVSPost2010PropOp53
 70
     1
102
RTVSPost2010Prop54
  1
strokes_ogs.tif
102
RTVSPost2010PropOp54
 70
     1
102
RTVSPost2010Prop55
280
     0
102
RTVSPost2010PropOp55
 70
     1
102
RTVSPost2010Prop56
140
1.0
102
RTVSPost2010PropOp56
 70
     1
102
RTVSPost2010Prop57
140
1.0
102
RTVSPost2010PropOp57
 70
     1
  0
XRECORD
  5
644
102
{ACAD_REACTORS
330
643
102
}
330
643
100
AcDbXrecord
280
     1
102
RTVSPropertyOp0
 70
     1
102
RTVSPropertyOp1
 70
     1
102
RTVSPropertyOp2
 70
     1
102
RTVSPropertyOp3
 70
     1
102
RTVSPropertyOp4
 70
     1
102
RTVSPropertyOp5
 70
     1
102
RTVSPropertyOp6
 70
     1
102
RTVSPropertyOp7
 70
     1
102
RTVSPropertyOp8
 70
     1
102
RTVSPropertyOp9
 70
     1
102
RTVSPropertyOp10
 70
     1
102
RTVSPropertyOp11
 70
     1
102
RTVSPropertyOp12
 70
     1
102
RTVSPropertyOp13
 70
     1
102
RTVSPropertyOp14
 70
     1
102
RTVSPropertyOp15
 70
     1
102
RTVSPropertyOp16
 70
     1
102
RTVSPropertyOp17
 70
     1
102
RTVSPropertyOp18
 70
     1
102
RTVSPropertyOp19
 70
     1
102
RTVSPropertyOp20
 70
     1
102
RTVSPropertyOp21
 70
     1
102
RTVSPropertyOp22
 70
     1
102
RTVSPropertyOp23
 70
     1
102
RTVSPropertyOp24
 70
     1
102
RTVSPropertyOp25
 70
     1
102
RTVSPropertyOp26
 70
     1
102
RTVSPropertyOp27
 70
     1
102
RTVSPropertyOp28
 70
     1
102
RTVSPropertyOp29
 70
     1
102
RTVSPropertyOp30
 70
     1
102
RTVSPropertyOp31
 70
     1
102
RTVSPropertyOp32
 70
     1
102
RTVSPropertyOp33
 70
     1
102
RTVSPropertyOp34
 70
     1
102
RTVSPropertyOp35
 70
     1
102
RTVSPropertyOp36
 70
     1
102
RTVSPropertyOp37
 70
     1
102
RTVSPropertyOp38
 70
     1
102
RTVSPropertyOp39
 70
     1
102
RTVSPropertyOp40
 70
     1
102
RTVSPropertyOp41
 70
     1
102
RTVSPropertyOp42
 70
     1
102
RTVSPropertyOp43
 70
     1
102
RTVSPropertyOp44
 70
     1
102
RTVSPropertyOp45
 70
     1
102
RTVSPropertyOp46
 70
     1
102
RTVSPropertyOp47
 70
     1
102
RTVSPropertyOp48
 70
     1
102
RTVSPropertyOp49
 70
     1
102
RTVSPropertyOp50
 70
     1
102
RTVSPropertyOp51
 70
     0
102
RTVSPropertyOp52
 70
     0
102
RTVSPropertyOp53
 70
     1
102
RTVSPropertyOp54
 70
     1
102
RTVSPropertyOp55
 70
     1
102
RTVSPropertyOp56
 70
     1
102
RTVSPropertyOp57
 70
     1
102
RTVSPost2010Prop28
280
     0
102
RTVSPost2010PropOp28
 70
     1
102
RTVSPost2010Prop29
280
     1
102
RTVSPost2010PropOp29
 70
     1
102
RTVSPost2010Prop30
280
     1
102
RTVSPost2010PropOp30
 70
     1
102
RTVSPost2010Prop31
280
     0
102
RTVSPost2010PropOp31
 70
     1
102
RTVSPost2010Prop32
280
     0
102
RTVSPost2010PropOp32
 70
     1
102
RTVSPost2010Prop33
280
     0
102
RTVSPost2010PropOp33
 70
     1
102
RTVSPost2010Prop34
280
     0
102
RTVSPost2010PropOp34
 70
     1
102
RTVSPost2010Prop35
280
     0
102
RTVSPost2010PropOp35
 70
     1
102
RTVSPost2010Prop36
280
     0
102
RTVSPost2010PropOp36
 70
     1
102
RTVSPost2010Prop37
 90
       50
102
RTVSPost2010PropOp37
 70
     1
102
RTVSPost2010Prop38
140
0.0
102
RTVSPost2010PropOp38
 70
     1
102
RTVSPost2010Prop39
140
1.0
102
RTVSPost2010PropOp39
 70
     1
102
RTVSPost2010Prop40
 90
        0
102
RTVSPost2010PropOp40
 70
     1
102
RTVSPost2010Prop41ColorIndex
 90
       18
102
RTVSPost2010Prop41ColorRGB
 90
        0
102
RTVSPost2010PropOp41
 70
     1
102
RTVSPost2010Prop42
 90
       50
102
RTVSPost2010PropOp42
 70
     1
102
RTVSPost2010Prop43
 90
        3
102
RTVSPost2010PropOp43
 70
     1
102
RTVSPost2010Prop44ColorIndex
 90
        5
102
RTVSPost2010Prop44ColorRGB
 90
      255
102
RTVSPost2010PropOp44
 70
     1
102
RTVSPost2010Prop45
280
     0
102
RTVSPost2010PropOp45
 70
     1
102
RTVSPost2010Prop46
 90
       50
102
RTVSPost2010PropOp46
 70
     1
102
RTVSPost2010Prop47
 90
       50
102
RTVSPost2010PropOp47
 70
     1
102
RTVSPost2010Prop48
 90
       50
102
RTVSPost2010PropOp48
 70
     1
102
RTVSPost2010Prop49
280
     0
102
RTVSPost2010PropOp49
 70
     1
102
RTVSPost2010Prop50
 90
       50
102
RTVSPost2010PropOp50
 70
     1
102
RTVSPost2010Prop51ColorIndex
 90
      256
102
RTVSPost2010Prop51ColorRGB
 90
-16777216
102
RTVSPost2010PropOp51
 70
     0
102
RTVSPost2010Prop52
140
1.0
102
RTVSPost2010PropOp52
 70
     0
102
RTVSPost2010Prop53
 90
        2
102
RTVSPost2010PropOp53
 70
     1
102
RTVSPost2010Prop54
  1
strokes_ogs.tif
102
RTVSPost2010PropOp54
 70
     1
102
RTVSPost2010Prop55
280
     0
102
RTVSPost2010PropOp55
 70
     1
102
RTVSPost2010Prop56
140
1.0
102
RTVSPost2010PropOp56
 70
     1
102
RTVSPost2010Prop57
140
1.0
102
RTVSPost2010PropOp57
 70
     1
  0
XRECORD
  5
662
102
{ACAD_REACTORS
330
661
102
}
330
661
100
AcDbXrecord
280
     1
102
RTVSPropertyOp0
 70
     1
102
RTVSPropertyOp1
 70
     1
102
RTVSPropertyOp2
 70
     1
102
RTVSPropertyOp3
 70
     1
102
RTVSPropertyOp4
 70
     1
102
RTVSPropertyOp5
 70
     1
102
RTVSPropertyOp6
 70
     1
102
RTVSPropertyOp7
 70
     1
102
RTVSPropertyOp8
 70
     1
102
RTVSPropertyOp9
 70
     1
102
RTVSPropertyOp10
 70
     1
102
RTVSPropertyOp11
 70
     1
102
RTVSPropertyOp12
 70
     1
102
RTVSPropertyOp13
 70
     1
102
RTVSPropertyOp14
 70
     1
102
RTVSPropertyOp15
 70
     1
102
RTVSPropertyOp16
 70
     1
102
RTVSPropertyOp17
 70
     1
102
RTVSPropertyOp18
 70
     1
102
RTVSPropertyOp19
 70
     1
102
RTVSPropertyOp20
 70
     1
102
RTVSPropertyOp21
 70
     1
102
RTVSPropertyOp22
 70
     1
102
RTVSPropertyOp23
 70
     1
102
RTVSPropertyOp24
 70
     1
102
RTVSPropertyOp25
 70
     1
102
RTVSPropertyOp26
 70
     1
102
RTVSPropertyOp27
 70
     1
102
RTVSPropertyOp28
 70
     1
102
RTVSPropertyOp29
 70
     1
102
RTVSPropertyOp30
 70
     1
102
RTVSPropertyOp31
 70
     1
102
RTVSPropertyOp32
 70
     1
102
RTVSPropertyOp33
 70
     1
102
RTVSPropertyOp34
 70
     1
102
RTVSPropertyOp35
 70
     1
102
RTVSPropertyOp36
 70
     1
102
RTVSPropertyOp37
 70
     1
102
RTVSPropertyOp38
 70
     1
102
RTVSPropertyOp39
 70
     1
102
RTVSPropertyOp40
 70
     1
102
RTVSPropertyOp41
 70
     1
102
RTVSPropertyOp42
 70
     1
102
RTVSPropertyOp43
 70
     1
102
RTVSPropertyOp44
 70
     1
102
RTVSPropertyOp45
 70
     1
102
RTVSPropertyOp46
 70
     1
102
RTVSPropertyOp47
 70
     1
102
RTVSPropertyOp48
 70
     1
102
RTVSPropertyOp49
 70
     1
102
RTVSPropertyOp50
 70
     1
102
RTVSPropertyOp51
 70
     0
102
RTVSPropertyOp52
 70
     0
102
RTVSPropertyOp53
 70
     1
102
RTVSPropertyOp54
 70
     1
102
RTVSPropertyOp55
 70
     1
102
RTVSPropertyOp56
 70
     1
102
RTVSPropertyOp57
 70
     1
102
RTVSPost2010Prop28
280
     0
102
RTVSPost2010PropOp28
 70
     1
102
RTVSPost2010Prop29
280
     1
102
RTVSPost2010PropOp29
 70
     1
102
RTVSPost2010Prop30
280
     1
102
RTVSPost2010PropOp30
 70
     1
102
RTVSPost2010Prop31
280
     0
102
RTVSPost2010PropOp31
 70
     1
102
RTVSPost2010Prop32
280
     0
102
RTVSPost2010PropOp32
 70
     1
102
RTVSPost2010Prop33
280
     0
102
RTVSPost2010PropOp33
 70
     1
102
RTVSPost2010Prop34
280
     0
102
RTVSPost2010PropOp34
 70
     1
102
RTVSPost2010Prop35
280
     0
102
RTVSPost2010PropOp35
 70
     1
102
RTVSPost2010Prop36
280
     0
102
RTVSPost2010PropOp36
 70
     1
102
RTVSPost2010Prop37
 90
       50
102
RTVSPost2010PropOp37
 70
     1
102
RTVSPost2010Prop38
140
0.0
102
RTVSPost2010PropOp38
 70
     1
102
RTVSPost2010Prop39
140
1.0
102
RTVSPost2010PropOp39
 70
     1
102
RTVSPost2010Prop40
 90
        0
102
RTVSPost2010PropOp40
 70
     1
102
RTVSPost2010Prop41ColorIndex
 90
       18
102
RTVSPost2010Prop41ColorRGB
 90
        0
102
RTVSPost2010PropOp41
 70
     1
102
RTVSPost2010Prop42
 90
       50
102
RTVSPost2010PropOp42
 70
     1
102
RTVSPost2010Prop43
 90
        3
102
RTVSPost2010PropOp43
 70
     1
102
RTVSPost2010Prop44ColorIndex
 90
        5
102
RTVSPost2010Prop44ColorRGB
 90
      255
102
RTVSPost2010PropOp44
 70
     1
102
RTVSPost2010Prop45
280
     0
102
RTVSPost2010PropOp45
 70
     1
102
RTVSPost2010Prop46
 90
       50
102
RTVSPost2010PropOp46
 70
     1
102
RTVSPost2010Prop47
 90
       50
102
RTVSPost2010PropOp47
 70
     1
102
RTVSPost2010Prop48
 90
       50
102
RTVSPost2010PropOp48
 70
     1
102
RTVSPost2010Prop49
280
     0
102
RTVSPost2010PropOp49
 70
     1
102
RTVSPost2010Prop50
 90
       50
102
RTVSPost2010PropOp50
 70
     1
102
RTVSPost2010Prop51ColorIndex
 90
      256
102
RTVSPost2010Prop51ColorRGB
 90
-16777216
102
RTVSPost2010PropOp51
 70
     0
102
RTVSPost2010Prop52
140
1.0
102
RTVSPost2010PropOp52
 70
     0
102
RTVSPost2010Prop53
 90
        2
102
RTVSPost2010PropOp53
 70
     1
102
RTVSPost2010Prop54
  1
strokes_ogs.tif
102
RTVSPost2010PropOp54
 70
     1
102
RTVSPost2010Prop55
280
     0
102
RTVSPost2010PropOp55
 70
     1
102
RTVSPost2010Prop56
140
1.0
102
RTVSPost2010PropOp56
 70
     1
102
RTVSPost2010Prop57
140
1.0
102
RTVSPost2010PropOp57
 70
     1
  0
XRECORD
  5
660
102
{ACAD_REACTORS
330
65F
102
}
330
65F
100
AcDbXrecord
280
     1
102
RTVSPropertyOp0
 70
     1
102
RTVSPropertyOp1
 70
     1
102
RTVSPropertyOp2
 70
     1
102
RTVSPropertyOp3
 70
     1
102
RTVSPropertyOp4
 70
     1
102
RTVSPropertyOp5
 70
     1
102
RTVSPropertyOp6
 70
     1
102
RTVSPropertyOp7
 70
     1
102
RTVSPropertyOp8
 70
     1
102
RTVSPropertyOp9
 70
     1
102
RTVSPropertyOp10
 70
     1
102
RTVSPropertyOp11
 70
     1
102
RTVSPropertyOp12
 70
     1
102
RTVSPropertyOp13
 70
     1
102
RTVSPropertyOp14
 70
     1
102
RTVSPropertyOp15
 70
     1
102
RTVSPropertyOp16
 70
     1
102
RTVSPropertyOp17
 70
     1
102
RTVSPropertyOp18
 70
     1
102
RTVSPropertyOp19
 70
     1
102
RTVSPropertyOp20
 70
     1
102
RTVSPropertyOp21
 70
     1
102
RTVSPropertyOp22
 70
     1
102
RTVSPropertyOp23
 70
     1
102
RTVSPropertyOp24
 70
     1
102
RTVSPropertyOp25
 70
     1
102
RTVSPropertyOp26
 70
     1
102
RTVSPropertyOp27
 70
     1
102
RTVSPropertyOp28
 70
     1
102
RTVSPropertyOp29
 70
     1
102
RTVSPropertyOp30
 70
     1
102
RTVSPropertyOp31
 70
     1
102
RTVSPropertyOp32
 70
     1
102
RTVSPropertyOp33
 70
     1
102
RTVSPropertyOp34
 70
     1
102
RTVSPropertyOp35
 70
     1
102
RTVSPropertyOp36
 70
     1
102
RTVSPropertyOp37
 70
     1
102
RTVSPropertyOp38
 70
     1
102
RTVSPropertyOp39
 70
     1
102
RTVSPropertyOp40
 70
     1
102
RTVSPropertyOp41
 70
     1
102
RTVSPropertyOp42
 70
     1
102
RTVSPropertyOp43
 70
     1
102
RTVSPropertyOp44
 70
     1
102
RTVSPropertyOp45
 70
     1
102
RTVSPropertyOp46
 70
     1
102
RTVSPropertyOp47
 70
     1
102
RTVSPropertyOp48
 70
     1
102
RTVSPropertyOp49
 70
     1
102
RTVSPropertyOp50
 70
     1
102
RTVSPropertyOp51
 70
     0
102
RTVSPropertyOp52
 70
     0
102
RTVSPropertyOp53
 70
     1
102
RTVSPropertyOp54
 70
     1
102
RTVSPropertyOp55
 70
     1
102
RTVSPropertyOp56
 70
     1
102
RTVSPropertyOp57
 70
     1
102
RTVSPost2010Prop28
280
     0
102
RTVSPost2010PropOp28
 70
     1
102
RTVSPost2010Prop29
280
     1
102
RTVSPost2010PropOp29
 70
     1
102
RTVSPost2010Prop30
280
     1
102
RTVSPost2010PropOp30
 70
     1
102
RTVSPost2010Prop31
280
     0
102
RTVSPost2010PropOp31
 70
     1
102
RTVSPost2010Prop32
280
     0
102
RTVSPost2010PropOp32
 70
     1
102
RTVSPost2010Prop33
280
     0
102
RTVSPost2010PropOp33
 70
     1
102
RTVSPost2010Prop34
280
     0
102
RTVSPost2010PropOp34
 70
     1
102
RTVSPost2010Prop35
280
     0
102
RTVSPost2010PropOp35
 70
     1
102
RTVSPost2010Prop36
280
     0
102
RTVSPost2010PropOp36
 70
     1
102
RTVSPost2010Prop37
 90
       50
102
RTVSPost2010PropOp37
 70
     1
102
RTVSPost2010Prop38
140
0.0
102
RTVSPost2010PropOp38
 70
     1
102
RTVSPost2010Prop39
140
1.0
102
RTVSPost2010PropOp39
 70
     1
102
RTVSPost2010Prop40
 90
        0
102
RTVSPost2010PropOp40
 70
     1
102
RTVSPost2010Prop41ColorIndex
 90
       18
102
RTVSPost2010Prop41ColorRGB
 90
        0
102
RTVSPost2010PropOp41
 70
     1
102
RTVSPost2010Prop42
 90
       50
102
RTVSPost2010PropOp42
 70
     1
102
RTVSPost2010Prop43
 90
        3
102
RTVSPost2010PropOp43
 70
     1
102
RTVSPost2010Prop44ColorIndex
 90
        5
102
RTVSPost2010Prop44ColorRGB
 90
      255
102
RTVSPost2010PropOp44
 70
     1
102
RTVSPost2010Prop45
280
     0
102
RTVSPost2010PropOp45
 70
     1
102
RTVSPost2010Prop46
 90
       50
102
RTVSPost2010PropOp46
 70
     1
102
RTVSPost2010Prop47
 90
       50
102
RTVSPost2010PropOp47
 70
     1
102
RTVSPost2010Prop48
 90
       50
102
RTVSPost2010PropOp48
 70
     1
102
RTVSPost2010Prop49
280
     0
102
RTVSPost2010PropOp49
 70
     1
102
RTVSPost2010Prop50
 90
       50
102
RTVSPost2010PropOp50
 70
     1
102
RTVSPost2010Prop51ColorIndex
 90
      256
102
RTVSPost2010Prop51ColorRGB
 90
-16777216
102
RTVSPost2010PropOp51
 70
     0
102
RTVSPost2010Prop52
140
1.0
102
RTVSPost2010PropOp52
 70
     0
102
RTVSPost2010Prop53
 90
        2
102
RTVSPost2010PropOp53
 70
     1
102
RTVSPost2010Prop54
  1
strokes_ogs.tif
102
RTVSPost2010PropOp54
 70
     1
102
RTVSPost2010Prop55
280
     0
102
RTVSPost2010PropOp55
 70
     1
102
RTVSPost2010Prop56
140
1.0
102
RTVSPost2010PropOp56
 70
     1
102
RTVSPost2010Prop57
140
1.0
102
RTVSPost2010PropOp57
 70
     1
  0
XRECORD
  5
65A
102
{ACAD_REACTORS
330
659
102
}
330
659
100
AcDbXrecord
280
     1
102
RTVSPropertyOp0
 70
     1
102
RTVSPropertyOp1
 70
     1
102
RTVSPropertyOp2
 70
     1
102
RTVSPropertyOp3
 70
     1
102
RTVSPropertyOp4
 70
     1
102
RTVSPropertyOp5
 70
     1
102
RTVSPropertyOp6
 70
     1
102
RTVSPropertyOp7
 70
     1
102
RTVSPropertyOp8
 70
     1
102
RTVSPropertyOp9
 70
     1
102
RTVSPropertyOp10
 70
     1
102
RTVSPropertyOp11
 70
     1
102
RTVSPropertyOp12
 70
     1
102
RTVSPropertyOp13
 70
     1
102
RTVSPropertyOp14
 70
     1
102
RTVSPropertyOp15
 70
     1
102
RTVSPropertyOp16
 70
     1
102
RTVSPropertyOp17
 70
     1
102
RTVSPropertyOp18
 70
     1
102
RTVSPropertyOp19
 70
     1
102
RTVSPropertyOp20
 70
     1
102
RTVSPropertyOp21
 70
     1
102
RTVSPropertyOp22
 70
     1
102
RTVSPropertyOp23
 70
     1
102
RTVSPropertyOp24
 70
     1
102
RTVSPropertyOp25
 70
     1
102
RTVSPropertyOp26
 70
     1
102
RTVSPropertyOp27
 70
     1
102
RTVSPropertyOp28
 70
     1
102
RTVSPropertyOp29
 70
     1
102
RTVSPropertyOp30
 70
     1
102
RTVSPropertyOp31
 70
     1
102
RTVSPropertyOp32
 70
     1
102
RTVSPropertyOp33
 70
     1
102
RTVSPropertyOp34
 70
     1
102
RTVSPropertyOp35
 70
     1
102
RTVSPropertyOp36
 70
     1
102
RTVSPropertyOp37
 70
     1
102
RTVSPropertyOp38
 70
     1
102
RTVSPropertyOp39
 70
     1
102
RTVSPropertyOp40
 70
     1
102
RTVSPropertyOp41
 70
     1
102
RTVSPropertyOp42
 70
     1
102
RTVSPropertyOp43
 70
     1
102
RTVSPropertyOp44
 70
     1
102
RTVSPropertyOp45
 70
     1
102
RTVSPropertyOp46
 70
     1
102
RTVSPropertyOp47
 70
     1
102
RTVSPropertyOp48
 70
     1
102
RTVSPropertyOp49
 70
     1
102
RTVSPropertyOp50
 70
     1
102
RTVSPropertyOp51
 70
     0
102
RTVSPropertyOp52
 70
     0
102
RTVSPropertyOp53
 70
     1
102
RTVSPropertyOp54
 70
     1
102
RTVSPropertyOp55
 70
     1
102
RTVSPropertyOp56
 70
     1
102
RTVSPropertyOp57
 70
     1
102
RTVSPost2010Prop28
280
     0
102
RTVSPost2010PropOp28
 70
     1
102
RTVSPost2010Prop29
280
     1
102
RTVSPost2010PropOp29
 70
     1
102
RTVSPost2010Prop30
280
     1
102
RTVSPost2010PropOp30
 70
     1
102
RTVSPost2010Prop31
280
     0
102
RTVSPost2010PropOp31
 70
     1
102
RTVSPost2010Prop32
280
     0
102
RTVSPost2010PropOp32
 70
     1
102
RTVSPost2010Prop33
280
     0
102
RTVSPost2010PropOp33
 70
     1
102
RTVSPost2010Prop34
280
     0
102
RTVSPost2010PropOp34
 70
     1
102
RTVSPost2010Prop35
280
     0
102
RTVSPost2010PropOp35
 70
     1
102
RTVSPost2010Prop36
280
     0
102
RTVSPost2010PropOp36
 70
     1
102
RTVSPost2010Prop37
 90
       50
102
RTVSPost2010PropOp37
 70
     1
102
RTVSPost2010Prop38
140
0.0
102
RTVSPost2010PropOp38
 70
     1
102
RTVSPost2010Prop39
140
1.0
102
RTVSPost2010PropOp39
 70
     1
102
RTVSPost2010Prop40
 90
        0
102
RTVSPost2010PropOp40
 70
     1
102
RTVSPost2010Prop41ColorIndex
 90
       18
102
RTVSPost2010Prop41ColorRGB
 90
        0
102
RTVSPost2010PropOp41
 70
     1
102
RTVSPost2010Prop42
 90
       50
102
RTVSPost2010PropOp42
 70
     1
102
RTVSPost2010Prop43
 90
        3
102
RTVSPost2010PropOp43
 70
     1
102
RTVSPost2010Prop44ColorIndex
 90
        5
102
RTVSPost2010Prop44ColorRGB
 90
      255
102
RTVSPost2010PropOp44
 70
     1
102
RTVSPost2010Prop45
280
     0
102
RTVSPost2010PropOp45
 70
     1
102
RTVSPost2010Prop46
 90
       50
102
RTVSPost2010PropOp46
 70
     1
102
RTVSPost2010Prop47
 90
       50
102
RTVSPost2010PropOp47
 70
     1
102
RTVSPost2010Prop48
 90
       50
102
RTVSPost2010PropOp48
 70
     1
102
RTVSPost2010Prop49
280
     0
102
RTVSPost2010PropOp49
 70
     1
102
RTVSPost2010Prop50
 90
       50
102
RTVSPost2010PropOp50
 70
     1
102
RTVSPost2010Prop51ColorIndex
 90
      256
102
RTVSPost2010Prop51ColorRGB
 90
-16777216
102
RTVSPost2010PropOp51
 70
     0
102
RTVSPost2010Prop52
140
1.0
102
RTVSPost2010PropOp52
 70
     0
102
RTVSPost2010Prop53
 90
        2
102
RTVSPost2010PropOp53
 70
     1
102
RTVSPost2010Prop54
  1
strokes_ogs.tif
102
RTVSPost2010PropOp54
 70
     1
102
RTVSPost2010Prop55
280
     0
102
RTVSPost2010PropOp55
 70
     1
102
RTVSPost2010Prop56
140
1.0
102
RTVSPost2010PropOp56
 70
     1
102
RTVSPost2010Prop57
140
1.0
102
RTVSPost2010PropOp57
 70
     1
  0
XRECORD
  5
65C
102
{ACAD_REACTORS
330
65B
102
}
330
65B
100
AcDbXrecord
280
     1
102
RTVSPropertyOp0
 70
     1
102
RTVSPropertyOp1
 70
     1
102
RTVSPropertyOp2
 70
     1
102
RTVSPropertyOp3
 70
     1
102
RTVSPropertyOp4
 70
     1
102
RTVSPropertyOp5
 70
     1
102
RTVSPropertyOp6
 70
     1
102
RTVSPropertyOp7
 70
     1
102
RTVSPropertyOp8
 70
     1
102
RTVSPropertyOp9
 70
     1
102
RTVSPropertyOp10
 70
     1
102
RTVSPropertyOp11
 70
     1
102
RTVSPropertyOp12
 70
     1
102
RTVSPropertyOp13
 70
     1
102
RTVSPropertyOp14
 70
     1
102
RTVSPropertyOp15
 70
     1
102
RTVSPropertyOp16
 70
     1
102
RTVSPropertyOp17
 70
     1
102
RTVSPropertyOp18
 70
     1
102
RTVSPropertyOp19
 70
     1
102
RTVSPropertyOp20
 70
     1
102
RTVSPropertyOp21
 70
     1
102
RTVSPropertyOp22
 70
     1
102
RTVSPropertyOp23
 70
     1
102
RTVSPropertyOp24
 70
     1
102
RTVSPropertyOp25
 70
     1
102
RTVSPropertyOp26
 70
     1
102
RTVSPropertyOp27
 70
     1
102
RTVSPropertyOp28
 70
     1
102
RTVSPropertyOp29
 70
     1
102
RTVSPropertyOp30
 70
     1
102
RTVSPropertyOp31
 70
     1
102
RTVSPropertyOp32
 70
     1
102
RTVSPropertyOp33
 70
     1
102
RTVSPropertyOp34
 70
     1
102
RTVSPropertyOp35
 70
     1
102
RTVSPropertyOp36
 70
     1
102
RTVSPropertyOp37
 70
     1
102
RTVSPropertyOp38
 70
     1
102
RTVSPropertyOp39
 70
     1
102
RTVSPropertyOp40
 70
     1
102
RTVSPropertyOp41
 70
     1
102
RTVSPropertyOp42
 70
     1
102
RTVSPropertyOp43
 70
     1
102
RTVSPropertyOp44
 70
     1
102
RTVSPropertyOp45
 70
     1
102
RTVSPropertyOp46
 70
     1
102
RTVSPropertyOp47
 70
     1
102
RTVSPropertyOp48
 70
     1
102
RTVSPropertyOp49
 70
     1
102
RTVSPropertyOp50
 70
     1
102
RTVSPropertyOp51
 70
     0
102
RTVSPropertyOp52
 70
     0
102
RTVSPropertyOp53
 70
     1
102
RTVSPropertyOp54
 70
     1
102
RTVSPropertyOp55
 70
     1
102
RTVSPropertyOp56
 70
     1
102
RTVSPropertyOp57
 70
     1
102
RTVSPost2010Prop28
280
     0
102
RTVSPost2010PropOp28
 70
     1
102
RTVSPost2010Prop29
280
     1
102
RTVSPost2010PropOp29
 70
     1
102
RTVSPost2010Prop30
280
     1
102
RTVSPost2010PropOp30
 70
     1
102
RTVSPost2010Prop31
280
     0
102
RTVSPost2010PropOp31
 70
     1
102
RTVSPost2010Prop32
280
     0
102
RTVSPost2010PropOp32
 70
     1
102
RTVSPost2010Prop33
280
     0
102
RTVSPost2010PropOp33
 70
     1
102
RTVSPost2010Prop34
280
     0
102
RTVSPost2010PropOp34
 70
     1
102
RTVSPost2010Prop35
280
     0
102
RTVSPost2010PropOp35
 70
     1
102
RTVSPost2010Prop36
280
     0
102
RTVSPost2010PropOp36
 70
     1
102
RTVSPost2010Prop37
 90
       50
102
RTVSPost2010PropOp37
 70
     1
102
RTVSPost2010Prop38
140
0.0
102
RTVSPost2010PropOp38
 70
     1
102
RTVSPost2010Prop39
140
1.0
102
RTVSPost2010PropOp39
 70
     1
102
RTVSPost2010Prop40
 90
        0
102
RTVSPost2010PropOp40
 70
     1
102
RTVSPost2010Prop41ColorIndex
 90
       18
102
RTVSPost2010Prop41ColorRGB
 90
        0
102
RTVSPost2010PropOp41
 70
     1
102
RTVSPost2010Prop42
 90
       50
102
RTVSPost2010PropOp42
 70
     1
102
RTVSPost2010Prop43
 90
        3
102
RTVSPost2010PropOp43
 70
     1
102
RTVSPost2010Prop44ColorIndex
 90
        5
102
RTVSPost2010Prop44ColorRGB
 90
      255
102
RTVSPost2010PropOp44
 70
     1
102
RTVSPost2010Prop45
280
     0
102
RTVSPost2010PropOp45
 70
     1
102
RTVSPost2010Prop46
 90
       50
102
RTVSPost2010PropOp46
 70
     1
102
RTVSPost2010Prop47
 90
       50
102
RTVSPost2010PropOp47
 70
     1
102
RTVSPost2010Prop48
 90
       50
102
RTVSPost2010PropOp48
 70
     1
102
RTVSPost2010Prop49
280
     0
102
RTVSPost2010PropOp49
 70
     1
102
RTVSPost2010Prop50
 90
       50
102
RTVSPost2010PropOp50
 70
     1
102
RTVSPost2010Prop51ColorIndex
 90
      256
102
RTVSPost2010Prop51ColorRGB
 90
-16777216
102
RTVSPost2010PropOp51
 70
     0
102
RTVSPost2010Prop52
140
1.0
102
RTVSPost2010PropOp52
 70
     0
102
RTVSPost2010Prop53
 90
        2
102
RTVSPost2010PropOp53
 70
     1
102
RTVSPost2010Prop54
  1
strokes_ogs.tif
102
RTVSPost2010PropOp54
 70
     1
102
RTVSPost2010Prop55
280
     0
102
RTVSPost2010PropOp55
 70
     1
102
RTVSPost2010Prop56
140
1.0
102
RTVSPost2010PropOp56
 70
     1
102
RTVSPost2010Prop57
140
1.0
102
RTVSPost2010PropOp57
 70
     1
  0
XRECORD
  5
64C
102
{ACAD_REACTORS
330
64B
102
}
330
64B
100
AcDbXrecord
280
     1
102
RTVSPropertyOp0
 70
     1
102
RTVSPropertyOp1
 70
     1
102
RTVSPropertyOp2
 70
     1
102
RTVSPropertyOp3
 70
     1
102
RTVSPropertyOp4
 70
     1
102
RTVSPropertyOp5
 70
     1
102
RTVSPropertyOp6
 70
     1
102
RTVSPropertyOp7
 70
     1
102
RTVSPropertyOp8
 70
     1
102
RTVSPropertyOp9
 70
     1
102
RTVSPropertyOp10
 70
     1
102
RTVSPropertyOp11
 70
     1
102
RTVSPropertyOp12
 70
     1
102
RTVSPropertyOp13
 70
     1
102
RTVSPropertyOp14
 70
     1
102
RTVSPropertyOp15
 70
     1
102
RTVSPropertyOp16
 70
     1
102
RTVSPropertyOp17
 70
     1
102
RTVSPropertyOp18
 70
     1
102
RTVSPropertyOp19
 70
     1
102
RTVSPropertyOp20
 70
     1
102
RTVSPropertyOp21
 70
     1
102
RTVSPropertyOp22
 70
     1
102
RTVSPropertyOp23
 70
     1
102
RTVSPropertyOp24
 70
     1
102
RTVSPropertyOp25
 70
     1
102
RTVSPropertyOp26
 70
     1
102
RTVSPropertyOp27
 70
     1
102
RTVSPropertyOp28
 70
     1
102
RTVSPropertyOp29
 70
     1
102
RTVSPropertyOp30
 70
     1
102
RTVSPropertyOp31
 70
     1
102
RTVSPropertyOp32
 70
     1
102
RTVSPropertyOp33
 70
     1
102
RTVSPropertyOp34
 70
     1
102
RTVSPropertyOp35
 70
     1
102
RTVSPropertyOp36
 70
     1
102
RTVSPropertyOp37
 70
     1
102
RTVSPropertyOp38
 70
     1
102
RTVSPropertyOp39
 70
     1
102
RTVSPropertyOp40
 70
     1
102
RTVSPropertyOp41
 70
     1
102
RTVSPropertyOp42
 70
     1
102
RTVSPropertyOp43
 70
     1
102
RTVSPropertyOp44
 70
     1
102
RTVSPropertyOp45
 70
     1
102
RTVSPropertyOp46
 70
     1
102
RTVSPropertyOp47
 70
     1
102
RTVSPropertyOp48
 70
     1
102
RTVSPropertyOp49
 70
     1
102
RTVSPropertyOp50
 70
     1
102
RTVSPropertyOp51
 70
     0
102
RTVSPropertyOp52
 70
     0
102
RTVSPropertyOp53
 70
     1
102
RTVSPropertyOp54
 70
     1
102
RTVSPropertyOp55
 70
     1
102
RTVSPropertyOp56
 70
     1
102
RTVSPropertyOp57
 70
     1
102
RTVSPost2010Prop28
280
     0
102
RTVSPost2010PropOp28
 70
     1
102
RTVSPost2010Prop29
280
     1
102
RTVSPost2010PropOp29
 70
     1
102
RTVSPost2010Prop30
280
     1
102
RTVSPost2010PropOp30
 70
     1
102
RTVSPost2010Prop31
280
     0
102
RTVSPost2010PropOp31
 70
     1
102
RTVSPost2010Prop32
280
     0
102
RTVSPost2010PropOp32
 70
     1
102
RTVSPost2010Prop33
280
     0
102
RTVSPost2010PropOp33
 70
     1
102
RTVSPost2010Prop34
280
     0
102
RTVSPost2010PropOp34
 70
     1
102
RTVSPost2010Prop35
280
     0
102
RTVSPost2010PropOp35
 70
     1
102
RTVSPost2010Prop36
280
     0
102
RTVSPost2010PropOp36
 70
     1
102
RTVSPost2010Prop37
 90
       50
102
RTVSPost2010PropOp37
 70
     1
102
RTVSPost2010Prop38
140
0.0
102
RTVSPost2010PropOp38
 70
     1
102
RTVSPost2010Prop39
140
1.0
102
RTVSPost2010PropOp39
 70
     1
102
RTVSPost2010Prop40
 90
        0
102
RTVSPost2010PropOp40
 70
     1
102
RTVSPost2010Prop41ColorIndex
 90
       18
102
RTVSPost2010Prop41ColorRGB
 90
        0
102
RTVSPost2010PropOp41
 70
     1
102
RTVSPost2010Prop42
 90
       50
102
RTVSPost2010PropOp42
 70
     1
102
RTVSPost2010Prop43
 90
        3
102
RTVSPost2010PropOp43
 70
     1
102
RTVSPost2010Prop44ColorIndex
 90
        5
102
RTVSPost2010Prop44ColorRGB
 90
      255
102
RTVSPost2010PropOp44
 70
     1
102
RTVSPost2010Prop45
280
     0
102
RTVSPost2010PropOp45
 70
     1
102
RTVSPost2010Prop46
 90
       50
102
RTVSPost2010PropOp46
 70
     1
102
RTVSPost2010Prop47
 90
       50
102
RTVSPost2010PropOp47
 70
     1
102
RTVSPost2010Prop48
 90
       50
102
RTVSPost2010PropOp48
 70
     1
102
RTVSPost2010Prop49
280
     0
102
RTVSPost2010PropOp49
 70
     1
102
RTVSPost2010Prop50
 90
       50
102
RTVSPost2010PropOp50
 70
     1
102
RTVSPost2010Prop51ColorIndex
 90
      256
102
RTVSPost2010Prop51ColorRGB
 90
-16777216
102
RTVSPost2010PropOp51
 70
     0
102
RTVSPost2010Prop52
140
1.0
102
RTVSPost2010PropOp52
 70
     0
102
RTVSPost2010Prop53
 90
        2
102
RTVSPost2010PropOp53
 70
     1
102
RTVSPost2010Prop54
  1
strokes_ogs.tif
102
RTVSPost2010PropOp54
 70
     1
102
RTVSPost2010Prop55
280
     0
102
RTVSPost2010PropOp55
 70
     1
102
RTVSPost2010Prop56
140
1.0
102
RTVSPost2010PropOp56
 70
     1
102
RTVSPost2010Prop57
140
1.0
102
RTVSPost2010PropOp57
 70
     1
  0
XRECORD
  5
63E
102
{ACAD_REACTORS
330
63D
102
}
330
63D
100
AcDbXrecord
280
     1
102
RTVSPropertyOp0
 70
     1
102
RTVSPropertyOp1
 70
     1
102
RTVSPropertyOp2
 70
     1
102
RTVSPropertyOp3
 70
     1
102
RTVSPropertyOp4
 70
     1
102
RTVSPropertyOp5
 70
     1
102
RTVSPropertyOp6
 70
     1
102
RTVSPropertyOp7
 70
     1
102
RTVSPropertyOp8
 70
     1
102
RTVSPropertyOp9
 70
     1
102
RTVSPropertyOp10
 70
     1
102
RTVSPropertyOp11
 70
     1
102
RTVSPropertyOp12
 70
     1
102
RTVSPropertyOp13
 70
     1
102
RTVSPropertyOp14
 70
     1
102
RTVSPropertyOp15
 70
     1
102
RTVSPropertyOp16
 70
     1
102
RTVSPropertyOp17
 70
     1
102
RTVSPropertyOp18
 70
     1
102
RTVSPropertyOp19
 70
     1
102
RTVSPropertyOp20
 70
     1
102
RTVSPropertyOp21
 70
     1
102
RTVSPropertyOp22
 70
     1
102
RTVSPropertyOp23
 70
     1
102
RTVSPropertyOp24
 70
     1
102
RTVSPropertyOp25
 70
     1
102
RTVSPropertyOp26
 70
     1
102
RTVSPropertyOp27
 70
     1
102
RTVSPropertyOp28
 70
     1
102
RTVSPropertyOp29
 70
     1
102
RTVSPropertyOp30
 70
     1
102
RTVSPropertyOp31
 70
     1
102
RTVSPropertyOp32
 70
     1
102
RTVSPropertyOp33
 70
     1
102
RTVSPropertyOp34
 70
     1
102
RTVSPropertyOp35
 70
     1
102
RTVSPropertyOp36
 70
     1
102
RTVSPropertyOp37
 70
     1
102
RTVSPropertyOp38
 70
     1
102
RTVSPropertyOp39
 70
     1
102
RTVSPropertyOp40
 70
     1
102
RTVSPropertyOp41
 70
     1
102
RTVSPropertyOp42
 70
     1
102
RTVSPropertyOp43
 70
     1
102
RTVSPropertyOp44
 70
     1
102
RTVSPropertyOp45
 70
     1
102
RTVSPropertyOp46
 70
     1
102
RTVSPropertyOp47
 70
     1
102
RTVSPropertyOp48
 70
     1
102
RTVSPropertyOp49
 70
     1
102
RTVSPropertyOp50
 70
     1
102
RTVSPropertyOp51
 70
     0
102
RTVSPropertyOp52
 70
     0
102
RTVSPropertyOp53
 70
     1
102
RTVSPropertyOp54
 70
     1
102
RTVSPropertyOp55
 70
     1
102
RTVSPropertyOp56
 70
     1
102
RTVSPropertyOp57
 70
     1
102
RTVSPost2010Prop28
280
     0
102
RTVSPost2010PropOp28
 70
     1
102
RTVSPost2010Prop29
280
     1
102
RTVSPost2010PropOp29
 70
     1
102
RTVSPost2010Prop30
280
     1
102
RTVSPost2010PropOp30
 70
     1
102
RTVSPost2010Prop31
280
     0
102
RTVSPost2010PropOp31
 70
     1
102
RTVSPost2010Prop32
280
     0
102
RTVSPost2010PropOp32
 70
     1
102
RTVSPost2010Prop33
280
     0
102
RTVSPost2010PropOp33
 70
     1
102
RTVSPost2010Prop34
280
     0
102
RTVSPost2010PropOp34
 70
     1
102
RTVSPost2010Prop35
280
     0
102
RTVSPost2010PropOp35
 70
     1
102
RTVSPost2010Prop36
280
     0
102
RTVSPost2010PropOp36
 70
     1
102
RTVSPost2010Prop37
 90
       50
102
RTVSPost2010PropOp37
 70
     1
102
RTVSPost2010Prop38
140
0.0
102
RTVSPost2010PropOp38
 70
     1
102
RTVSPost2010Prop39
140
1.0
102
RTVSPost2010PropOp39
 70
     1
102
RTVSPost2010Prop40
 90
        0
102
RTVSPost2010PropOp40
 70
     1
102
RTVSPost2010Prop41ColorIndex
 90
       18
102
RTVSPost2010Prop41ColorRGB
 90
        0
102
RTVSPost2010PropOp41
 70
     1
102
RTVSPost2010Prop42
 90
       50
102
RTVSPost2010PropOp42
 70
     1
102
RTVSPost2010Prop43
 90
        3
102
RTVSPost2010PropOp43
 70
     1
102
RTVSPost2010Prop44ColorIndex
 90
        5
102
RTVSPost2010Prop44ColorRGB
 90
      255
102
RTVSPost2010PropOp44
 70
     1
102
RTVSPost2010Prop45
280
     0
102
RTVSPost2010PropOp45
 70
     1
102
RTVSPost2010Prop46
 90
       50
102
RTVSPost2010PropOp46
 70
     1
102
RTVSPost2010Prop47
 90
       50
102
RTVSPost2010PropOp47
 70
     1
102
RTVSPost2010Prop48
 90
       50
102
RTVSPost2010PropOp48
 70
     1
102
RTVSPost2010Prop49
280
     0
102
RTVSPost2010PropOp49
 70
     1
102
RTVSPost2010Prop50
 90
       50
102
RTVSPost2010PropOp50
 70
     1
102
RTVSPost2010Prop51ColorIndex
 90
      256
102
RTVSPost2010Prop51ColorRGB
 90
-16777216
102
RTVSPost2010PropOp51
 70
     0
102
RTVSPost2010Prop52
140
1.0
102
RTVSPost2010PropOp52
 70
     0
102
RTVSPost2010Prop53
 90
        2
102
RTVSPost2010PropOp53
 70
     1
102
RTVSPost2010Prop54
  1
strokes_ogs.tif
102
RTVSPost2010PropOp54
 70
     1
102
RTVSPost2010Prop55
280
     0
102
RTVSPost2010PropOp55
 70
     1
102
RTVSPost2010Prop56
140
1.0
102
RTVSPost2010PropOp56
 70
     1
102
RTVSPost2010Prop57
140
1.0
102
RTVSPost2010PropOp57
 70
     1
  0
XRECORD
  5
65E
102
{ACAD_REACTORS
330
65D
102
}
330
65D
100
AcDbXrecord
280
     1
102
RTVSPropertyOp0
 70
     1
102
RTVSPropertyOp1
 70
     1
102
RTVSPropertyOp2
 70
     1
102
RTVSPropertyOp3
 70
     1
102
RTVSPropertyOp4
 70
     1
102
RTVSPropertyOp5
 70
     1
102
RTVSPropertyOp6
 70
     1
102
RTVSPropertyOp7
 70
     1
102
RTVSPropertyOp8
 70
     1
102
RTVSPropertyOp9
 70
     1
102
RTVSPropertyOp10
 70
     1
102
RTVSPropertyOp11
 70
     1
102
RTVSPropertyOp12
 70
     1
102
RTVSPropertyOp13
 70
     1
102
RTVSPropertyOp14
 70
     1
102
RTVSPropertyOp15
 70
     1
102
RTVSPropertyOp16
 70
     1
102
RTVSPropertyOp17
 70
     1
102
RTVSPropertyOp18
 70
     1
102
RTVSPropertyOp19
 70
     1
102
RTVSPropertyOp20
 70
     1
102
RTVSPropertyOp21
 70
     1
102
RTVSPropertyOp22
 70
     1
102
RTVSPropertyOp23
 70
     1
102
RTVSPropertyOp24
 70
     1
102
RTVSPropertyOp25
 70
     1
102
RTVSPropertyOp26
 70
     1
102
RTVSPropertyOp27
 70
     1
102
RTVSPropertyOp28
 70
     1
102
RTVSPropertyOp29
 70
     1
102
RTVSPropertyOp30
 70
     1
102
RTVSPropertyOp31
 70
     1
102
RTVSPropertyOp32
 70
     1
102
RTVSPropertyOp33
 70
     1
102
RTVSPropertyOp34
 70
     1
102
RTVSPropertyOp35
 70
     1
102
RTVSPropertyOp36
 70
     1
102
RTVSPropertyOp37
 70
     1
102
RTVSPropertyOp38
 70
     1
102
RTVSPropertyOp39
 70
     1
102
RTVSPropertyOp40
 70
     1
102
RTVSPropertyOp41
 70
     1
102
RTVSPropertyOp42
 70
     1
102
RTVSPropertyOp43
 70
     1
102
RTVSPropertyOp44
 70
     1
102
RTVSPropertyOp45
 70
     1
102
RTVSPropertyOp46
 70
     1
102
RTVSPropertyOp47
 70
     1
102
RTVSPropertyOp48
 70
     1
102
RTVSPropertyOp49
 70
     1
102
RTVSPropertyOp50
 70
     1
102
RTVSPropertyOp51
 70
     0
102
RTVSPropertyOp52
 70
     0
102
RTVSPropertyOp53
 70
     1
102
RTVSPropertyOp54
 70
     1
102
RTVSPropertyOp55
 70
     1
102
RTVSPropertyOp56
 70
     1
102
RTVSPropertyOp57
 70
     1
102
RTVSPost2010Prop28
280
     0
102
RTVSPost2010PropOp28
 70
     1
102
RTVSPost2010Prop29
280
     1
102
RTVSPost2010PropOp29
 70
     1
102
RTVSPost2010Prop30
280
     1
102
RTVSPost2010PropOp30
 70
     1
102
RTVSPost2010Prop31
280
     0
102
RTVSPost2010PropOp31
 70
     1
102
RTVSPost2010Prop32
280
     0
102
RTVSPost2010PropOp32
 70
     1
102
RTVSPost2010Prop33
280
     0
102
RTVSPost2010PropOp33
 70
     1
102
RTVSPost2010Prop34
280
     0
102
RTVSPost2010PropOp34
 70
     1
102
RTVSPost2010Prop35
280
     0
102
RTVSPost2010PropOp35
 70
     1
102
RTVSPost2010Prop36
280
     0
102
RTVSPost2010PropOp36
 70
     1
102
RTVSPost2010Prop37
 90
       50
102
RTVSPost2010PropOp37
 70
     1
102
RTVSPost2010Prop38
140
0.0
102
RTVSPost2010PropOp38
 70
     1
102
RTVSPost2010Prop39
140
1.0
102
RTVSPost2010PropOp39
 70
     1
102
RTVSPost2010Prop40
 90
        0
102
RTVSPost2010PropOp40
 70
     1
102
RTVSPost2010Prop41ColorIndex
 90
       18
102
RTVSPost2010Prop41ColorRGB
 90
        0
102
RTVSPost2010PropOp41
 70
     1
102
RTVSPost2010Prop42
 90
       50
102
RTVSPost2010PropOp42
 70
     1
102
RTVSPost2010Prop43
 90
        3
102
RTVSPost2010PropOp43
 70
     1
102
RTVSPost2010Prop44ColorIndex
 90
        5
102
RTVSPost2010Prop44ColorRGB
 90
      255
102
RTVSPost2010PropOp44
 70
     1
102
RTVSPost2010Prop45
280
     0
102
RTVSPost2010PropOp45
 70
     1
102
RTVSPost2010Prop46
 90
       50
102
RTVSPost2010PropOp46
 70
     1
102
RTVSPost2010Prop47
 90
       50
102
RTVSPost2010PropOp47
 70
     1
102
RTVSPost2010Prop48
 90
       50
102
RTVSPost2010PropOp48
 70
     1
102
RTVSPost2010Prop49
280
     0
102
RTVSPost2010PropOp49
 70
     1
102
RTVSPost2010Prop50
 90
       50
102
RTVSPost2010PropOp50
 70
     1
102
RTVSPost2010Prop51ColorIndex
 90
      256
102
RTVSPost2010Prop51ColorRGB
 90
-16777216
102
RTVSPost2010PropOp51
 70
     0
102
RTVSPost2010Prop52
140
1.0
102
RTVSPost2010PropOp52
 70
     0
102
RTVSPost2010Prop53
 90
        2
102
RTVSPost2010PropOp53
 70
     1
102
RTVSPost2010Prop54
  1
strokes_ogs.tif
102
RTVSPost2010PropOp54
 70
     1
102
RTVSPost2010Prop55
280
     0
102
RTVSPost2010PropOp55
 70
     1
102
RTVSPost2010Prop56
140
1.0
102
RTVSPost2010PropOp56
 70
     1
102
RTVSPost2010Prop57
140
1.0
102
RTVSPost2010PropOp57
 70
     1
  0
ENDSEC
  0
SECTION
  2
THUMBNAILIMAGE
 90
    16364
310
28000000B4000000550000000100080000000000C43B000000000000000000000001000000010000FFFFFF000000FF0000FFFF0000FF0000FFFF0000FF000000FF00FF000000000080808000C0C0C0000000FF007F7FFF000000A5005252A50000007F003F3F7F0000004C0026264C000000260013132600003FFF007F9FFF
310
000029A5005267A500001F7F003F4F7F0000134C00262F4C000009260013172600007FFF007FBFFF000052A500527CA500003F7F003F5F7F0000264C0026394C0000132600131C260000BFFF007FDFFF00007CA5005291A500005F7F003F6F7F0000394C0026424C00001C26001321260000FFFF007FFFFF0000A5A50052A5
310
A500007F7F003F7F7F00004C4C00264C4C00002626001326260000FFBF007FFFDF0000A57C0052A59100007F5F003F7F6F00004C3900264C420000261C001326210000FF7F007FFFBF0000A5520052A57C00007F3F003F7F5F00004C2600264C39000026130013261C0000FF3F007FFF9F0000A5290052A56700007F1F003F
310
7F4F00004C1300264C2F00002609001326170000FF00007FFF7F0000A5000052A55200007F00003F7F3F00004C0000264C260000260000132613003FFF00009FFF7F0029A5000067A552001F7F00004F7F3F00134C00002F4C260009260000172613007FFF0000BFFF7F0052A500007CA552003F7F00005F7F3F00264C0000
310
394C2600132600001C261300BFFF0000DFFF7F007CA5000091A552005F7F00006F7F3F00394C0000424C26001C26000021261300FFFF0000FFFF7F00A5A50000A5A552007F7F00007F7F3F004C4C00004C4C26002626000026261300FFBF0000FFDF7F00A57C0000A59152007F5F00007F6F3F004C3900004C422600261C00
310
0026211300FF7F0000FFBF7F00A5520000A57C52007F3F00007F5F3F004C2600004C39260026130000261C1300FF3F0000FF9F7F00A5290000A56752007F1F00007F4F3F004C1300004C2F26002609000026171300FF000000FF7F7F00A5000000A55252007F0000007F3F3F004C0000004C2626002600000026131300FF00
310
3F00FF7F9F00A5002900A55267007F001F007F3F4F004C0013004C262F002600090026131700FF007F00FF7FBF00A5005200A5527C007F003F007F3F5F004C0026004C2639002600130026131C00FF00BF00FF7FDF00A5007C00A55291007F005F007F3F6F004C0039004C26420026001C0026132100FF00FF00FF7FFF00A5
310
00A500A552A5007F007F007F3F7F004C004C004C264C002600260026132600BF00FF00DF7FFF007C00A5009152A5005F007F006F3F7F0039004C0042264C001C002600211326007F00FF00BF7FFF005200A5007C52A5003F007F005F3F7F0026004C0039264C00130026001C1326003F00FF009F7FFF002900A5006752A500
310
1F007F004F3F7F0013004C002F264C000900260017132600000000002D2D2D005B5B5B0089898900B7B7B700B3B3B30000000000000000000000000000000000000000000000000000000000000000000000000000000000000000000000000000000000000000000000000000000000000000000000000000000000000000
310
00000000000000000000000000000000000000000000000000000000000000000000000000000000000000000000000000000000000000000000000000000000000000000000000000000000000000000000000000000000000000000000000000000000000000000000000000000000000000000000000000000000000000
310
00000000000000000000000000000000000000000000000000000000000000000000000000000000000000000000000000000000000000000000000000000000000000000000000000000000000000000000000000000000000000000000000000000000000000000000000000000000000000000000000000000000000000
310
00000000000000000000000000000000000000000000000000000000000000000000000000000000000000000000000000000000000000000000000000000000000000000000000000000000000000000000000000000000000000000000000000000000000000000000000000000000000000000000000000000000000000
310
00000000000000000000000000000000000000000000000000000000000000000000000000000000000000000000000000000000000000000000000000000000000000000000000000000000000000000000000000000000000000000000000000000000000000000000000000000000000000000000000000000000000000
310
00000000000000000000000000000000000000000000000000000000000000000000000000000000000000000000000000000000000000000000000000000000000000000000000000000000000000000000000000000000000000000000000000000000000000000000000000000000000000000000000000000000000000
310
00000000000000000000000000000000000000000000000000000000000000000000000000000000000000000000000000000000000000000000000000000000000000000000000000000000000000000000000000000000000000000000000000000000000000000000000000000000000000000000000000000000000000
310
00000000000000000000000000000000000000000000000000000000000000000000000000000000000000000000000000000000000000000000000000000000000000000000000000000000000000000000000000000000000000000000000000000000000000000000000000000000000000000000000000000000000000
310
00000000000000000000000000000000000000000000000000000000000000000000000000000000000000000000000000000000000000000000000000000000000000000000000000000000000000000000000000000000000000000000000000000000000000000000000000000000000000000000000000000000000000
310
00000000000000000000000000000000000000000000000000000000000000000000000000000000000000000000000000000000000000000000000000000000000000000000000000000000000000000000000000000000000000000000000000000000000000000000000000000000000000000000000000000000000000
310
00000000000000000000000000000000000000000000000000000000000000000000000000000000000000000000000000000000000000000000000000000000000000000000000000000000000000000000000000000000000000000000000000000000000000000000000000000000000000000000000000000000000000
310
00000000000000000000000000000000000000000000000000000000000000000000000000000000000000000000000000000000000000000000000000000000000000000000000000000000000000000000000000000000000000000000000000000000000000000000000000000000000000000000000000000000000000
310
00000000000000000000000000000000000000000000000000000000000000000000000000000000000000000000000000000000000000000000000000000000000000000000000000000000000000000000000000000000000000000000000000000000000000000000000000000000000000000000000000000000000000
310
00000000000000000000000000000000000000000000000000000000000000000000000000000000000000000000000000000000000000000000000000000000000000000000000000000000000000000000000000000000000000000000000000000000000000000000000000000000000000000000000000000000000000
310
00000000000000000000000000000000000000000000000000000000000000000000000000000000000000000000000000000000000000000000000000000000000000000000000000000000000000000000000000000000000000000000000000000000000000000000000000000000000000000000000000000000000000
310
00000000000000000000000000000000000000000000000000000000000000000000000000000000000000000000000000000000000000000000000000000000000000000000000000000000000000000000000000000000000000000000000000000000000000000000000000000000000000000000000000000000000000
310
00000000000000000000000000000000000000000000000000000000000000000000000000000000000000000000000000000000000000000000000000000000000000000000000000000000000000000000000000000000000000000000000000000000000000000000000000000000000000000000000000000000000000
310
00000000000000000000000000000000000000000000000000000000000000000000000000000000000000000000000000000000000000000000000000000000000000000000000000000000000000000000000000000000000000000000000000000000000000000000000000000000000000000000000000000000000000
310
00000000000000000000000000000000000000000000000000000000000000000000000000000000000000000000000000000000000000000000000000000000000000000000000000000000000000000000000000000000000000000000000000000000000000000000000000000000000000000000000000000000000000
310
00000000000000000000000000000000000000000000000000000000000000000000000000000000000000000000000000000000000000000000000000000000000000000000000000000000000000000000000000000000000000000000000000000000000000000000000000000000000000000000000000000000000000
310
00000000000000000000000000000000000000000000000000000000000000000000000000000000000000000000000000000000000000000000000000000000000000000000000000000000000000000000000000000000000000000000000000000000000000000000000000000000000000000000000000000000000000
310
00000000000000000000000000000000000000000000000000000000000000000000000000000000000000000000000000000000000000000000000000000000000000000000000000000000000000000000000000000000000000000000000000000000000000000000000000000000000000000000000000000000000000
310
00000000000000000000000000000000000000000000000000000000000000000000000000000000000000000000000000000000000000000000000000000000000000000000000000000000000000000000000000000000000000000000000000000000000000000000000000000000000000000000000000000000000000
310
00000000000000000000000000000000000000000000000000000000000000000000000000000000000000000000000000000000000000000000000000000000000000000000000000000000000000000000000000000000000000000000000000000000000000000000000000000000000000000000000000000000000000
310
00000000000000000000000000000000000000000000000000000000000000000000000000000000000000000000000000000000000000000000000000000000000000000000000000000000000000000000000000000000000000000000000000000000000000000000000000000000000000000000000000000000000000
310
00000000000000000000000000000000000000000000000000000000000000000000000000000000000000000000000000000000000000000000000000000000000000000000000000000000000000000000000000000000000000000000000000000000000000000000000000000000000000000000000000000000000000
310
00000000000000000000000000000000000000000000000000000000000000000303030300000000000000000000000000000000000002020202020000000000000000000000000000030303030000000000000000000000000000000000000000000000000000000000000000000000000000000000000000000000000000
310
00000000000000000000000000000000000000000000000000000000000000000000000000000000000000000000000000000000000000000000000000000000000000000000000000000000000000000000000000030303030000000000000000000000000000000000000202020202000000000000000000000000000003
310
01000300000000000000000000000000000000000000000000000000000000000000000000000000000000000000000000000000000000000000000000000000000000000000000000000000000000000000000000000000000000000000000000000000000000000000000000000000000000000000000000000000000000
310
00000000000000000000000303030300000000000000000000000000000000000000000000000000000000000000000000000000030100030000000000000000000000000000000000000000000000000000000000000000000000000000000000000000000000000000000000000000000000000000000000000000000000
310
00000000000000000000000000000000000000000000000000000000000000000000000000000000000000000000000000000000000000000000000000000000030303030000000000000000000000000000000000000000000000000000000000000000000000000003010003000000000000000000000000000000000000
310
00000000000000000000000000000000000000000000000000000000000000000000000000000000000000000000000000000000000000000000000000000000000000000000000000000000000000000000000000000000000000000000000000000000000000000000000000000000000000000003030303000000000000
310
00000000000000000000000000000000000000000000000000000000000000030100030000000000000000000000000000000000000000000000000000000000000000000000000000000000000000000000000000000000000000000000000000000000000000000000000000000000000000000000000000000000000000
310
00000000000000000000000000000000000000000000000000000000000000000000000003030301030303030303030000000000000303030103030300000000000000000000000000030301030303030300000003010003000003030303030103000000000000000000000000000000000000000000000000000000000000
310
00000000000000000000000000000000000000000000000000000000000000000000000000000000000000000000000000000000000000000000000000000000000000000000000000000000000000000000000000000000000303030103030303030303040300000001030303010303030000000000000000000000000003
310
03010303030303000303030303030103030303030303030000000000000000000000000000000000000000000000000000000000000000000000000000000000000000000000000000000000000000000000000000000000000000000000000000000000000000000000000000000000000000000000000000000000000000
310
00000000000000000000000000000003030001000000030103030101030303030300000100030300000000000000000000000000030301000000000303030101010303010303000103000303000000000000000000000000000000000000000000000000000000000000000000000000000000000000000000000000000000
310
00000000000000000000000000000000000000000000000000000000000000000000000000000000000000000000000000000000000000000000000000000000000000000300000000000000010000010100000001000000000000030300000000000000000000000003000000000000000000010101030301030303030303
310
00010000000000000000000000000000000000000000000000000000000000000000000000000000000000000000000000000000000000000000000000000000000000000000000000000000000000000000000000000000000000000000000000000000000000000000000000000000000300000303030303030000000000
310
00000100000001000000010000000000000303000000000000000000000000030000000000000000000001010000000303000103030003000000000000000000000000000000000000000000000000000000000000000000000000000000000000000000000000000000000000000000000000000000000000000000000000
310
00000000000000000000000000000000000000000000000000000000000000000000000000000101010003010101030301010101010101010101010101010101010101010101010300000000000000000000000003000000000000000000000101000000010301010301000300000000000000000000000000000000000000
310
00000000000000000000000000000000000000000000000000000000000000000000000000000000000000000000000000000000000000000000000000000000000000000000000000000000000000000000000000000000000000030300000303030303030000000000000001000000010000000100000000000003030000
310
00000000000000000000030000000000000000000001010000000303000103030003000000000000000000000000000000000000000000000000000000000000000000000000000000000000000000000000000000000000000000000000000000000000000000000000000000000000000000000000000000000000000000
310
00000000000000000000000000000000000000000000000000000300000000000000010000000100000001000000000000030300000000000000000000000003000000000000000000000101030303030303030303000300000000000000000000000000000000000000000000000000000000000000000000000000000000
310
00000000000000000000000000000000000000000000000000000000000000000000000000000000000000000000000000000000000000000000000000000000000000000000000000000000000000030000000000000001000000010000000100000000000003000000000000000000000000000300000000000000000000
310
01010000000000000100000001010000000000000000000000000000000000000000000000000000000000000000000000000000000000000000000000000000000000000000000000000000000000000000000000000000000000000000000000000000000000000000000000000000000000000000000000000000000000
310
00000000000300000000000000010000000100000001000000000000030000000000000000000000000003000000000000000000000101000000000000000000000303000000000000000000000000000000000000000000000000000000000000000000000000000000000000000000000000000000000000000000000000
310
00000000000000000000000000000000000000000000000000000000000000000000000000000000000000000000000000000000000000000000030103030303010301030301010303030101030303030103000000000000000000000000000303010303030303030301010103030103030303030103030000000000000000
310
00000000000000000000000000000000000000000000000000000000000000000000000000000000000000000000000000000000000000000000000000000000000000000000000000000000000000000000000000000000000000000000000000000000000000000000000000000003030303030303030103030303030303
310
03030303030301030000000000000000000000000003030303030303010303010303030301030303030301030300000000000000000000000000000000000000000000000000000000000000000000000000000000000000000000000000000000000000000000000000000000000000000000000000000000000000000000
310
00000000000000000000000000000000000000000000000000000000000000000000000000000100000003040301030301010000000101000000000100000000000000000000000000000001010101000001000301010103030103000001010101000000000000000000000000000000000000000000000000000000000000
310
00000000000000000000000000000000000000000000000000000000000000000000000000000000000000000000000000000000000000000000000000000000000000000000000000000000000000000000000000000000000000000000000000030103030001000000000000000000000000000000000000000000000000
310
00030301000000000000000301000300000000030103000000000000000000000000000000000000000000000000000000000000000000000000000000000000000000000000000000000000000000000000000000000000000000000000000000000000000000000000000000000000000000000000000000000000000000
310
00000000000000000000000000000000000000000000000301030300010000000000000000000000000000000000000000000000000000000100000000000000030100030000000000010000000000000000000000000000000000000000000000000000000000000000000000000000000000000000000000000000000000
310
00000000000000000000000000000000000000000000000000000000000000000000000000000000000000000000000000000000000000000000000000000000000000000000000000000000030103030000000000000000000000000000000000000000000000000000000000000000000000000003010003000000000000
310
00000000000000000000000000000000000000000000000000000000000000000000000000000000000000000000000000000000000000000000000000000000000000000000000000000000000000000000000000000000000000000000000000000000000000000000000000000000000000000000000000000000000000
310
00000301030300000000000000000000000000000000000000000000000000000000000000000000000000030100030000000000000000000000000000000000000000000000000000000000000000000000000000000000000000000000000000000000000000000000000000000000000000000000000000000000000000
310
00000000000000000000000000000000000000000000000000000000000000000000000000000000000000000000000000000000000000030103030000000000000000000000000000000000000000000000000000000000000000000000000003010003000000000000000000000000000000000000000000000000000000
310
00000000000000000000000000000000000000000000000000000000000000000000000000000000000000000000000000000000000000000000000000000000000000000000000000000000000000000000000000000000000000000000000000000000000000000000000003010303000000000000000000000000000000
310
00000000000000000000000000000000000000000000030103030000000000000000000000000000000000000000000000000000000000000000000000000000000000000000000000000000000000000000000000000000000000000000000000000000000000000000000000000000000000000000000000000000000000
310
00000000000000000000000000000000000000000000000000000000000000000000000000000000000000000000000000000000000000000000000000000000000000000000000000000000000000000000000000000000000000000000000000000000000000000000000000000000000000000000000000000000000000
310
00000000000000000000000000000000000000000000000000000000000000000000000000000000000000000000000000000000000000000000000000000000000000000000000000000000000000000000000000000000000000000000000000000000000000000000000000000000000000000000000000000000000000
310
00000000000000000000000000000000000000000000000000000000000000000000000000000000000000000000000000000000000000000000000000000000000000000000000000000000000000000000000000000000000000000000000000000000000000000000000000000000000000000000000000000000000000
310
00000000000000000000000000000000000000000000000000000000000000000000000000000000000000000000000000000000000000000000000000000000000000000000000000000000000000000000000000000000000000000000000000000000000000000000000000000000000000000000000000000000000000
310
00000000000000000000000000000000000000000000000000000000000000000000000000000000000000000000000000000000000000000000000000000000000000000000000000000000000000000000000000000000000000000000000000000000000000000000000000000000000000000000000000000000000000
310
00000000000000000000000000000000000000000000000000000000000000000000000000000000000000000000000000000000000000000000000000000000000000000000000000000000000000000000000000000000000000000000000000000000000000000000000000000000000000000000000000000000000000
310
00000000000000000000000000000000000000000000000000000000000000000000000000000000000000000000000000000000000000000000000000000000000000000000000000000000000000000000000000000000000000000000000000000000000000000000000000000000000000000000000000000000000000
310
00000000000000000000000000000000000000000000000000000000000000000000000000000000000000000000000000000000000000000000000000000000000000000000000000000000000000000000000000000000000000000000000000000000000000000000000000000000000000000000000000000000000000
310
00000000000000000000000000000000000000000000000000000000000000000000000000000000000000000000000000000000000000000000000000000000000000000000000000000000000000000000000000000000000000000000000000000000000000000000000000000000000000000000000000000000000000
310
00000000000000000000000000000000000000000000000000000000000000000000000000000000000000000000000000000000000000000000000000000000000000000000000000000000000000000000000000000000000000000000000000000000000000000000000000000000000000000000000000000000000000
310
00000000000000000000000000000000000000000000000000000000000000000000000000000000000000000000000000000000000000000000000000000000000000000000000000000000000000000000000000000000000000000000000000000000000000000000000000000000000000000000000000000000000000
310
00000000000000000000000000000000000000000000000000000000000000000000000000000000000000000000000000000000000000000000000000000000000000000000000000000000000000000000000000000000000000000000000000000000000000000000000000000000000000000000000000000000000000
310
00000000000000000000000000000000000000000000000000000000000000000000000000000000000000000000000000000000000000000000000000000000000000000000000000000000000000000000000000000000000000000000000000000000000000000000000000000000000000000000000000000000000000
310
00000000000000000000000000000000000000000000000000000000000000000000000000000000000000000000000000000000000000000000000000000000000000000000000000000000000000000000000000000000000000000000000000000000000000000000000000000000000000000000000000000000000000
310
00000000000000000000000000000000000000000000000000000000000000000000000000000000000000000000000000000000000000000000000303010300000000000000000000000000000000000000000000000000000000000000000000000000000000000000000000000000000000000000000000000000000000
310
00000000000000000000000000000000000000000000000000000000000000000000000000000000000000000000000000000000000000000000000000000000000000000000000000000000000000000000000000000000000000000000000000000000000003030303030303030303030303030303030303030103030300
310
00000000000000000000000000000000000000000000000000000000000000000000000000000000000000000000000000000000000000000000000000000000000000000000000000000000000000000000000000000000000000000000000000000000000000000000000000000000000000000000000000000000000000
310
00000000000000000000000000000000000000000000000000000000030001010100030301030303030303010103030101010003000000000000000000000000000000000000000000000000000000000000000000000000000000000000000000000000000000000000000000000000000000000000000000000000000000
310
00000000000000000000000000000000000000000000000000000000000000000000000000000000000000000000000000000000000000000000000000000000000000000000000000000000000000000003000001000303030300010303030003030303030100000300000000000000000000000000000000000000000000
310
00000000000000000000000000000000000000000000000000000000000000000000000000000000000000000000000000000000000000000000000000000000000000000000000000000000000000000000000000000000000000000000000000000000000000000000000000000000000000000000000000000000000000
310
00000000000000030000000303030000000003030000000003030103000003000000000000000000000000000000000000000000000000000000000000000000000000000000000000000000000000000000000000000000000000000000000000000000000000000000000000000000000000000000000000000000000000
310
00000000000000000000000000000000000000000000000000000000000000000000000000000000000000000000000000000000000000000000000003000003010300000000000001000000000000030103000300000000000000000000000000000000000000000000000000000000000000000000000000000000000000
310
00000000000000000000000000000000000000000000000000000000000000000000000000000000000000000000000000000000000000000000000000000000000000000000000000000000000000000000000000000000000000000000000000000000000000000000000000000000000300030103000000000000030300
310
00000000000003030303000000000000000000000000000000000000000000000000000000000000000000000000000000000000000000000000000000000000000000000000000000000000000000000000000000000000000000000000000000000000000000000000000000000000000000000000000000000000000000
310
00000000000000000000000000000000000000000000000000000000000000000000000000000003030303000000000000010303030000000000000301030300000000000000000000000000000000000000000000000000000000000000000000000000000000000000000000000000000000000000000000000000000000
310
00000000000000000000000000000000000000000000000000000000000000000000000000000000000000000000000000000000000000000000000000000000000000000000000000000000000000000000000000000000000000000003010300000303010303030303030303030000000303030000000000000000000000
310
00000000000000000000000000000000000000000000000000000000000000000000000000000000000000000000000000000000000000000000000000000000000000000000000000000000000000000000000000000000000000000000000000000000000000000000000000000000000000000000000000000000000000
310
00000000000000000000000000000000000003030303030300030101030001000000010003030303010300000000000000000000000000000000000000000000000000000000000000000000000000000000000000000000000000000000000000000000000000000000000000000000000000000000000000000000000000
310
00000000000000000000000000000000000000000000000000000000000000000000000000000000000000000000000000000000000000000000000000000000000000000000000303030000000101010101040100030301030300000303030000000000000000000000000000000000000000000000000000000000000000
310
00000000000000000000000000000000000000000000000000000000000000000000000000000000000000000000000000000000000000000000000000000000000000000000000000000000000000000000000000000000000000000000000000000000000000000000000000000000000000000000000000000000030303
310
00000104010303010403000303010303030000030300000000000000000000000000000000000000000000000000000000000000000000000000000000000000000000000000000000000000000000000000000000000000000000000000000000000000000000000000000000000000000000000000000000000000000000
310
00000000000000000000000000000000000000000000000000000000000000000000000000000000000000000000000000000303030101010303030303010103030101010303010103030100000000000000000000000000000000000000000000000000000000000000000000000000000000000000000000000000000000
310
00000000000000000000000000000000000000000000000000000000000000000000000000000000000000000000000000000000000000000000000000000000000000000000000000000000000000000000000000000000000000000000000000000000000000030303000101030301010301010103030103030300000303
310
00000000000000000000000000000000000000000000000000000000000000000000000000000000000000000000000000000000000000000000000000000000000000000000000000000000000000000000000000000000000000000000000000000000000000000000000000000000000000000000000000000000000000
310
00000000000000000000000000000000000000000000000000000000000303030000010103030303010100030301030300000301030000000000000000000000000000000000000000000000000000000000000000000000000000000000000000000000000000000000000000000000000000000000000000000000000000
310
00000000000000000000000000000000000000000000000000000000000000000000000000000000000000000000000000000000000000000000000000000000000000000000000000000000000000000000030303000003040103030104030000030103000000030103000000000000000000000000000000000000000000
310
00000000000000000000000000000000000000000000000000000000000000000000000000000000000000000000000000000000000000000000000000000000000000000000000000000000000000000000000000000000000000000000000000000000000000000000000000000000000000000000000000000000000000
310
00000000000000000303010303000101010101010100000000000000000303030300000000000000000000000000000000000000000000000000000000000000000000000000000000000000000000000000000000000000000000000000000000000000000000000000000000000000000000000000000000000000000000
310
00000000000000000000000000000000000000000000000000000000000000000000000000000000000000000000000000000000000000000000000000030303030003030301030000010000000003030303010300030000000000000000000000000000000000000000000000000000000000000000000000000000000000
310
00000000000000000000000000000000000000000000000000000000000000000000000000000000000000000000000000000000000000000000000000000000000000000000000000000000000000000000000000000000000000000000000000000000000000000000000000030303030303000301030000000303030303
310
03030303000000030303000300000000000000000000000000000000000000000000000000000000000000000000000000000000000000000000000000000000000000000000000000000000000000000000000000000000000000000000000000000000000000000000000000000000000000000000000000000000000000
310
00000000000000000000000000000000000000000000000000000000000000000000000303030303030101030103010101010103030301010101010301030101030000000000000000000000000000000000000000000000000000000000000000000000000000000000000000000000000000000000000000000000000000
310
00000000000000000000000000000000000000000000000000000000000000000000000000000000000000000000000000000000000000000000000000000000000000000000000000000000000000000000000000000000030303030303000000030303010000000303000000000103010300000003000000000000000000
310
00000000000000000000000000000000000000000000000000000000000000000000000000000000000000000000000000000000000000000000000000000000000000000000000000000000000000000000000000000000000000000000000000000000000000000000000000000000000000000000000000000000000000
310
00000000000000000000000000000000000000030303010303030303000103030300030303030303030303030000000000000000000000000000000000000000000000000000000000000000000000000000000000000000000000000000000000000000000000000000000000000000000000000000000000000000000000
310
00000000000000000000000000000000000000000000000000000000000000000000000000000000000000000000000000000000000000000000000000000000000000000000000003000103010003030103030303030301010301010101000300000000000000000000000000000000000000000000000000000000000000
310
00000000000000000000000000000000000000000000000000000000000000000000000000000000000000000000000000000000000000000000000000000000000000000000000000000000000000000000000000000000000000000000000000000000000000000000000000000000000000000000000000000000000300
310
00010000000303030303030303030303000001000003000000000000000000000000000000000000000000000000000000000000000000000000000000000000000000000000000000000000000000000000000000000000000000000000000000000000000000000000000000000000000000000000000000000000000000
310
00000000000000000000000000000000000000000000000000000000000000000000000000000000000000000000000000000003030303030303000000000303000000000003030303030300000000000000000000000000000000000000000000000000000000000000000000000000000000000000000000000000000000
310
00000000000000000000000000000000000000000000000000000000000000000000000000000000000000000000000000000000000000000000000000000000000000000000000000000000000000000000000000000000000000000000000000000000000000000000000000000000000000000000000000000000000000
310
00000000000000000000000000000000000000000000000000000000000000000000000000000000000000000000000000000000000000000000000000000000000000000000000000000000000000000000000000000000000000000000000000000000000000000000000000000000000000000000000000000000000000
310
00000000000000000000000000000000000000000000000000000000000000000000000000000000000000000000000000000000000000000000000000000000000000000000000000000000000000000000000000000000000000000000000000000000000000000000000000000000000000000000000000000000000000
310
00000000000000000000000000000000000000000000000000000000000000000000000000000000000000000000000000000000000000000000000000000000000000000000000000000000000000000000000000000000000000000000000000000000000000000000000000000000000000000000000000000000000000
310
00000000000000000000000000000000000000000000000000000000000000000000000000000000000000000000000000000000000000000000000000000000000000000000000000000000000000000000000000000000000000000000000000000000000000000000000000000000000000000000000000000000000000
310
00000000000000000000000000000000000000000000000000000000000000000000000000000000000000000000000000000000000000000000000000000000000000000000000000000000000000000000000000000000000000000000000000000000000000000000000000000000000000000000000000000000000000
310
00000000000000000000000000000000000000000000000000000000000000000000000000000000000000000000000000000000000000000000000000000000000000000000000000000000000000000000000000000000000000000000000000000000000000000000000000000000000000000000000000000000000000
310
00000000000000000000000000000000000000000000000000000000000000000000000000000000000000000000000000000000000000000000000000000000000000000000000000000000000000000000000000000000000000000000000000000000000000000000000000000000000000000000000000000000000000
310
00000000000000000000000000000000000000000000000000000000000000000000000000000000000000000000000000000000000000000000000000000000000000000000000000000000000000000000000000000000000000000000000000000000000000000000000000000000000000000000000000000000000000
310
00000000000000000000000000000000000000000000000000000000000000000000000000000000000000000000000000000000000000000000000000000000000000000000000000000000000000000000000000000000000000000000000000000000000000000000000000000000000000000000000000000000000000
310
00000000000000000000000000000000000000000000000000000000000000000000000000000000000000000000000000000000000000000000000000000000000000000000000000000000000000000000000000000000000000000000000000000000000000000000000000000000000000000000000000000000000000
310
000000000000000000000000000000000000000000000000000000000000000000000000000000000000000000000000000000000000000000000000000000000000000000000000000000000000000000000000000000000000000000000000000000000000000000000000
  0
ENDSEC
  0
EOF
