  0
SECTION
  2
HEADER
  9
$ACADVER
  1
AC1015
  9
$ACADMAINTVER
 70
     6
  9
$DWGCODEPAGE
  3
ANSI_932
  9
$INSBASE
 10
2009.999995391667
 20
1362.499996820833
 30
0.0
  9
$EXTMIN
 10
263.9264818477095
 20
32.00352243827444
 30
0.0
  9
$EXTMAX
 10
1765.166351859769
 20
1302.665687587843
 30
0.0
  9
$LIMMIN
 10
0.0
 20
0.0
  9
$LIMMAX
 10
816.5000000000001
 20
565.0
  9
$ORTHOMODE
 70
     1
  9
$REGENMODE
 70
     1
  9
$FILLMODE
 70
     1
  9
$QTEXTMODE
 70
     0
  9
$MIRRTEXT
 70
     1
  9
$LTSCALE
 40
8.0
  9
$ATTMODE
 70
     1
  9
$TEXTSIZE
 40
15.0
  9
$TRACEWID
 40
0.05
  9
$TEXTSTYLE
  7
KANJI
  9
$CLAYER
  8
2
  9
$CELTYPE
  6
BYLAYER
  9
$CECOLOR
 62
   256
  9
$CELTSCALE
 40
1.0
  9
$DISPSILH
 70
     0
  9
$DIMSCALE
 40
5.0
  9
$DIMASZ
 40
2.0
  9
$DIMEXO
 40
0.5
  9
$DIMDLI
 40
0.0
  9
$DIMRND
 40
0.0
  9
$DIMDLE
 40
0.0
  9
$DIMEXE
 40
1.0
  9
$DIMTP
 40
0.0
  9
$DIMTM
 40
0.0
  9
$DIMTXT
 40
3.0
  9
$DIMCEN
 40
0.09
  9
$DIMTSZ
 40
0.0
  9
$DIMTOL
 70
     0
  9
$DIMLIM
 70
     0
  9
$DIMTIH
 70
     0
  9
$DIMTOH
 70
     0
  9
$DIMSE1
 70
     0
  9
$DIMSE2
 70
     0
  9
$DIMTAD
 70
     0
  9
$DIMZIN
 70
     8
  9
$DIMBLK
  1

  9
$DIMASO
 70
     0
  9
$DIMSHO
 70
     0
  9
$DIMPOST
  1

  9
$DIMAPOST
  1

  9
$DIMALT
 70
     0
  9
$DIMALTD
 70
     2
  9
$DIMALTF
 40
25.4
  9
$DIMLFAC
 40
1.0
  9
$DIMTOFL
 70
     1
  9
$DIMTVP
 40
1.0
  9
$DIMTIX
 70
     1
  9
$DIMSOXD
 70
     1
  9
$DIMSAH
 70
     0
  9
$DIMBLK1
  1

  9
$DIMBLK2
  1

  9
$DIMSTYLE
  2
STANDARD
  9
$DIMCLRD
 70
   256
  9
$DIMCLRE
 70
   256
  9
$DIMCLRT
 70
   256
  9
$DIMTFAC
 40
1.0
  9
$DIMGAP
 40
0.09
  9
$DIMJUST
 70
     0
  9
$DIMSD1
 70
     0
  9
$DIMSD2
 70
     0
  9
$DIMTOLJ
 70
     1
  9
$DIMTZIN
 70
     0
  9
$DIMALTZ
 70
     0
  9
$DIMALTTZ
 70
     0
  9
$DIMUPT
 70
     0
  9
$DIMDEC
 70
     1
  9
$DIMTDEC
 70
     4
  9
$DIMALTU
 70
     2
  9
$DIMALTTD
 70
     2
  9
$DIMTXSTY
  7
STANDARD
  9
$DIMAUNIT
 70
     0
  9
$DIMADEC
 70
     0
  9
$DIMALTRND
 40
0.0
  9
$DIMAZIN
 70
     0
  9
$DIMDSEP
 70
    46
  9
$DIMATFIT
 70
     3
  9
$DIMFRAC
 70
     0
  9
$DIMLDRBLK
  1

  9
$DIMLUNIT
 70
     2
  9
$DIMLWD
 70
    -2
  9
$DIMLWE
 70
    -2
  9
$DIMTMOVE
 70
     0
  9
$LUNITS
 70
     2
  9
$LUPREC
 70
     3
  9
$SKETCHINC
 40
0.1
  9
$FILLETRAD
 40
3.0
  9
$AUNITS
 70
     0
  9
$AUPREC
 70
     3
  9
$MENU
  1
C:\R13\WIN\SUPPORT\ACADFULL
  9
$ELEVATION
 40
0.0
  9
$PELEVATION
 40
0.0
  9
$THICKNESS
 40
0.0
  9
$LIMCHECK
 70
     0
  9
$CHAMFERA
 40
0.0
  9
$CHAMFERB
 40
0.0
  9
$CHAMFERC
 40
0.0
  9
$CHAMFERD
 40
0.0
  9
$SKPOLY
 70
     0
  9
$TDCREATE
 40
2449812.756805555
  9
$TDUCREATE
 40
2449812.381805555
  9
$TDUPDATE
 40
2458115.633216273
  9
$TDUUPDATE
 40
2458115.258216273
  9
$TDINDWG
 40
1.3382224074
  9
$TDUSRTIMER
 40
1.3382220833
  9
$USRTIMER
 70
     1
  9
$ANGBASE
 50
0.0
  9
$ANGDIR
 70
     0
  9
$PDMODE
 70
     0
  9
$PDSIZE
 40
0.0
  9
$PLINEWID
 40
0.0
  9
$SPLFRAME
 70
     0
  9
$SPLINETYPE
 70
     6
  9
$SPLINESEGS
 70
     8
  9
$HANDSEED
  5
60D
  9
$SURFTAB1
 70
     6
  9
$SURFTAB2
 70
     6
  9
$SURFTYPE
 70
     6
  9
$SURFU
 70
     6
  9
$SURFV
 70
     6
  9
$UCSBASE
  2

  9
$UCSNAME
  2

  9
$UCSORG
 10
0.0
 20
0.0
 30
0.0
  9
$UCSXDIR
 10
1.0
 20
0.0
 30
0.0
  9
$UCSYDIR
 10
0.0
 20
1.0
 30
0.0
  9
$UCSORTHOREF
  2

  9
$UCSORTHOVIEW
 70
     0
  9
$UCSORGTOP
 10
0.0
 20
0.0
 30
0.0
  9
$UCSORGBOTTOM
 10
0.0
 20
0.0
 30
0.0
  9
$UCSORGLEFT
 10
0.0
 20
0.0
 30
0.0
  9
$UCSORGRIGHT
 10
0.0
 20
0.0
 30
0.0
  9
$UCSORGFRONT
 10
0.0
 20
0.0
 30
0.0
  9
$UCSORGBACK
 10
0.0
 20
0.0
 30
0.0
  9
$PUCSBASE
  2

  9
$PUCSNAME
  2

  9
$PUCSORG
 10
0.0
 20
0.0
 30
0.0
  9
$PUCSXDIR
 10
1.0
 20
0.0
 30
0.0
  9
$PUCSYDIR
 10
0.0
 20
1.0
 30
0.0
  9
$PUCSORTHOREF
  2

  9
$PUCSORTHOVIEW
 70
     0
  9
$PUCSORGTOP
 10
0.0
 20
0.0
 30
0.0
  9
$PUCSORGBOTTOM
 10
0.0
 20
0.0
 30
0.0
  9
$PUCSORGLEFT
 10
0.0
 20
0.0
 30
0.0
  9
$PUCSORGRIGHT
 10
0.0
 20
0.0
 30
0.0
  9
$PUCSORGFRONT
 10
0.0
 20
0.0
 30
0.0
  9
$PUCSORGBACK
 10
0.0
 20
0.0
 30
0.0
  9
$USERI1
 70
     0
  9
$USERI2
 70
     0
  9
$USERI3
 70
     0
  9
$USERI4
 70
     0
  9
$USERI5
 70
     0
  9
$USERR1
 40
0.0
  9
$USERR2
 40
0.0
  9
$USERR3
 40
0.0
  9
$USERR4
 40
2448925.372986111
  9
$USERR5
 40
0.04166667
  9
$WORLDVIEW
 70
     1
  9
$SHADEDGE
 70
     3
  9
$SHADEDIF
 70
    70
  9
$TILEMODE
 70
     1
  9
$MAXACTVP
 70
    16
  9
$PINSBASE
 10
0.0
 20
0.0
 30
0.0
  9
$PLIMCHECK
 70
     0
  9
$PEXTMIN
 10
1000000000000000E+20
 20
1000000000000000E+20
 30
1000000000000000E+20
  9
$PEXTMAX
 10
-1000000000000000E+20
 20
-1000000000000000E+20
 30
-1000000000000000E+20
  9
$PLIMMIN
 10
0.0
 20
0.0
  9
$PLIMMAX
 10
12.0
 20
9.0
  9
$UNITMODE
 70
     0
  9
$VISRETAIN
 70
     0
  9
$PLINEGEN
 70
     0
  9
$PSLTSCALE
 70
     0
  9
$TREEDEPTH
 70
  3020
  9
$CMLSTYLE
  2
STANDARD
  9
$CMLJUST
 70
     0
  9
$CMLSCALE
 40
1.0
  9
$PROXYGRAPHICS
 70
     1
  9
$MEASUREMENT
 70
     0
  9
$CELWEIGHT
370
    -1
  9
$ENDCAPS
280
     0
  9
$JOINSTYLE
280
     0
  9
$LWDISPLAY
290
     0
  9
$INSUNITS
 70
     0
  9
$HYPERLINKBASE
  1

  9
$STYLESHEET
  1
monochrome.ctb
  9
$XEDIT
290
     1
  9
$CEPSNTYPE
380
     0
  9
$PSTYLEMODE
290
     1
  9
$FINGERPRINTGUID
  2
{E450C090-53B1-4595-A258-441EF603B90A}
  9
$VERSIONGUID
  2
{2F574718-BD4A-4461-8DDA-5718352B0E49}
  9
$EXTNAMES
290
     1
  9
$PSVPSCALE
 40
0.0
  9
$OLESTARTUP
290
     0
  0
ENDSEC
  0
SECTION
  2
CLASSES
  0
CLASS
  1
ACDBDICTIONARYWDFLT
  2
AcDbDictionaryWithDefault
  3
ObjectDBX Classes
 90
        0
280
     0
281
     0
  0
CLASS
  1
MATERIAL
  2
AcDbMaterial
  3
ObjectDBX Classes
 90
     1153
280
     0
281
     0
  0
CLASS
  1
SORTENTSTABLE
  2
AcDbSortentsTable
  3
ObjectDBX Classes
 90
        0
280
     0
281
     0
  0
CLASS
  1
VISUALSTYLE
  2
AcDbVisualStyle
  3
ObjectDBX Classes
 90
     4095
280
     0
281
     0
  0
CLASS
  1
SCALE
  2
AcDbScale
  3
ObjectDBX Classes
 90
     1153
280
     0
281
     0
  0
CLASS
  1
DICTIONARYVAR
  2
AcDbDictionaryVar
  3
ObjectDBX Classes
 90
        0
280
     0
281
     0
  0
CLASS
  1
MLEADERSTYLE
  2
AcDbMLeaderStyle
  3
ACDB_MLEADERSTYLE_CLASS
 90
     4095
280
     0
281
     0
  0
CLASS
  1
TABLESTYLE
  2
AcDbTableStyle
  3
ObjectDBX Classes
 90
     4095
280
     0
281
     0
  0
CLASS
  1
ACDBPLACEHOLDER
  2
AcDbPlaceHolder
  3
ObjectDBX Classes
 90
        0
280
     0
281
     0
  0
CLASS
  1
LAYOUT
  2
AcDbLayout
  3
ObjectDBX Classes
 90
        0
280
     0
281
     0
  0
ENDSEC
  0
SECTION
  2
TABLES
  0
TABLE
  2
VPORT
  5
2C
102
{ACAD_XDICTIONARY
360
5D2
102
}
330
0
100
AcDbSymbolTable
 70
     1
  0
VPORT
  5
32
330
2C
100
AcDbSymbolTableRecord
100
AcDbViewportTableRecord
  2
*ACTIVE
 70
     0
 10
0.0
 20
0.0
 11
1.0
 21
1.0
 12
1544.940080632364
 22
609.8314411894747
 13
0.0
 23
0.0
 14
1.0
 24
1.0
 15
50.0
 25
50.0
 16
0.0
 26
0.0
 36
1.0
 17
0.0
 27
0.0
 37
0.0
 40
1431.175365955454
 41
1.82716049382716
 42
50.0
 43
0.0
 44
0.0
 50
0.0
 51
0.0
 71
     0
 72
  5000
 73
     1
 74
     0
 75
     0
 76
     0
 77
     0
 78
     0
281
     0
 65
     1
110
0.0
120
0.0
130
0.0
111
1.0
121
0.0
131
0.0
112
0.0
122
1.0
132
0.0
 79
     0
146
0.0
1001
ACAD_NAV_VCDISPLAY
1070
     3
  0
ENDTAB
  0
TABLE
  2
LTYPE
  5
D
330
0
100
AcDbSymbolTable
 70
     2
  0
LTYPE
  5
E
330
D
100
AcDbSymbolTableRecord
100
AcDbLinetypeTableRecord
  2
BYBLOCK
 70
     0
  3

 72
    65
 73
     0
 40
0.0
  0
LTYPE
  5
F
330
D
100
AcDbSymbolTableRecord
100
AcDbLinetypeTableRecord
  2
BYLAYER
 70
     0
  3

 72
    65
 73
     0
 40
0.0
  0
LTYPE
  5
C
330
D
100
AcDbSymbolTableRecord
100
AcDbLinetypeTableRecord
  2
CONTINUOUS
 70
     0
  3
Solid line
 72
    65
 73
     0
 40
0.0
  0
LTYPE
  5
147
330
D
100
AcDbSymbolTableRecord
100
AcDbLinetypeTableRecord
  2
CENTER
 70
     0
  3
____ _ ____ _ ____ _ ____ _ ____ _ ____ _ ____
 72
    65
 73
     4
 40
2.0
 49
1.25
 74
     0
 49
-0.25
 74
     0
 49
0.25
 74
     0
 49
-0.25
 74
     0
  0
ENDTAB
  0
TABLE
  2
LAYER
  5
2
102
{ACAD_XDICTIONARY
360
3
102
}
330
0
100
AcDbSymbolTable
 70
     9
  0
LAYER
  5
1D
102
{ACAD_XDICTIONARY
360
1E
102
}
330
2
100
AcDbSymbolTableRecord
100
AcDbLayerTableRecord
  2
0
 70
     0
 62
     7
  6
CONTINUOUS
370
    -3
390
7
  0
LAYER
  5
458
102
{ACAD_XDICTIONARY
360
459
102
}
330
2
100
AcDbSymbolTableRecord
100
AcDbLayerTableRecord
  2
1
 70
     0
 62
     9
  6
CONTINUOUS
370
    -3
390
7
  0
LAYER
  5
1
102
{ACAD_XDICTIONARY
360
5
102
}
330
2
100
AcDbSymbolTableRecord
100
AcDbLayerTableRecord
  2
2
 70
     0
 62
     4
  6
CONTINUOUS
370
    -3
390
7
  0
LAYER
  5
6B
102
{ACAD_XDICTIONARY
360
6C
102
}
330
2
100
AcDbSymbolTableRecord
100
AcDbLayerTableRecord
  2
4
 70
     0
 62
     3
  6
CONTINUOUS
370
    -3
390
7
  0
LAYER
  5
144
102
{ACAD_XDICTIONARY
360
145
102
}
330
2
100
AcDbSymbolTableRecord
100
AcDbLayerTableRecord
  2
L-CENTER
 70
     0
 62
     1
  6
CENTER
370
    -3
390
7
  0
LAYER
  5
1A0
102
{ACAD_XDICTIONARY
360
1A1
102
}
330
2
100
AcDbSymbolTableRecord
100
AcDbLayerTableRecord
  2
3
 70
     0
 62
     2
  6
CONTINUOUS
370
    -3
390
7
  0
LAYER
  5
452
330
2
100
AcDbSymbolTableRecord
100
AcDbLayerTableRecord
  2
5
 70
     0
 62
     6
  6
CONTINUOUS
370
    -3
390
7
  0
LAYER
  5
5B6
330
2
100
AcDbSymbolTableRecord
100
AcDbLayerTableRecord
  2
Defpoints
 70
     0
 62
     7
  6
CONTINUOUS
290
     0
370
    -3
390
7
  0
ENDTAB
  0
TABLE
  2
STYLE
  5
11
330
0
100
AcDbSymbolTable
 70
     2
  0
STYLE
  5
15
330
11
100
AcDbSymbolTableRecord
100
AcDbTextStyleTableRecord
  2
STANDARD
 70
     0
 40
0.0
 41
1.0
 50
0.0
 71
     0
 42
9.0
  3
TXT
  4

  0
STYLE
  5
10
330
11
100
AcDbSymbolTableRecord
100
AcDbTextStyleTableRecord
  2
KANJI
 70
     0
 40
0.0
 41
1.0
 50
0.0
 71
     0
 42
15.0
  3
TXT
  4
BIGFONT
  0
ENDTAB
  0
TABLE
  2
VIEW
  5
2A
330
0
100
AcDbSymbolTable
 70
     0
  0
ENDTAB
  0
TABLE
  2
UCS
  5
2B
330
0
100
AcDbSymbolTable
 70
     0
  0
ENDTAB
  0
TABLE
  2
APPID
  5
25
330
0
100
AcDbSymbolTable
 70
     4
  0
APPID
  5
31
330
25
100
AcDbSymbolTableRecord
100
AcDbRegAppTableRecord
  2
ACAD
 70
     0
  0
APPID
  5
24
330
25
100
AcDbSymbolTableRecord
100
AcDbRegAppTableRecord
  2
ACAD_PSEXT
 70
     0
  0
APPID
  5
34
330
25
100
AcDbSymbolTableRecord
100
AcDbRegAppTableRecord
  2
ACAD_NAV_VCDISPLAY
 70
     0
  0
APPID
  5
58B
330
25
100
AcDbSymbolTableRecord
100
AcDbRegAppTableRecord
  2
ACAD_MLEADERVER
 70
     0
  0
ENDTAB
  0
TABLE
  2
DIMSTYLE
  5
14
330
0
100
AcDbSymbolTable
 70
     1
100
AcDbDimStyleTable
  0
DIMSTYLE
105
13
330
14
100
AcDbSymbolTableRecord
100
AcDbDimStyleTableRecord
  2
STANDARD
 70
     0
178
     0
340
15
  0
ENDTAB
  0
TABLE
  2
BLOCK_RECORD
  5
18
330
0
100
AcDbSymbolTable
 70
     0
  0
BLOCK_RECORD
  5
19
102
{ACAD_XDICTIONARY
360
1A
102
}
330
18
100
AcDbSymbolTableRecord
100
AcDbBlockTableRecord
  2
*MODEL_SPACE
340
21
  0
BLOCK_RECORD
  5
26
330
18
100
AcDbSymbolTableRecord
100
AcDbBlockTableRecord
  2
*PAPER_SPACE
340
29
  0
ENDTAB
  0
ENDSEC
  0
SECTION
  2
BLOCKS
  0
BLOCK
  5
1C
330
19
100
AcDbEntity
  8
0
100
AcDbBlockBegin
  2
*MODEL_SPACE
 70
     0
 10
0.0
 20
0.0
 30
0.0
  3
*MODEL_SPACE
  1

  0
ENDBLK
  5
20
330
19
100
AcDbEntity
  8
0
100
AcDbBlockEnd
  0
BLOCK
  5
27
330
26
100
AcDbEntity
 67
     1
  8
0
100
AcDbBlockBegin
  2
*PAPER_SPACE
 70
     0
 10
0.0
 20
0.0
 30
0.0
  3
*PAPER_SPACE
  1

  0
ENDBLK
  5
28
330
26
100
AcDbEntity
 67
     1
  8
0
100
AcDbBlockEnd
  0
ENDSEC
  0
SECTION
  2
ENTITIES
  0
LINE
  5
6A
330
19
100
AcDbEntity
  8
4
100
AcDbLine
 10
369.3673797439974
 20
239.4283576454823
 30
0.0
 11
369.3673797439974
 21
135.4283576454814
 31
0.0
  0
LINE
  5
6E
330
19
100
AcDbEntity
  8
4
100
AcDbLine
 10
903.3673797439974
 20
239.4283576454823
 30
0.0
 11
903.3673797439974
 21
135.4283576454814
 31
0.0
  0
LINE
  5
6F
330
19
100
AcDbEntity
  8
4
100
AcDbLine
 10
745.7835797439975
 20
117.4283576454818
 30
0.0
 11
673.3673797439978
 21
117.4283576454818
 31
0.0
  0
LINE
  5
70
330
19
100
AcDbEntity
  8
4
100
AcDbLine
 10
673.3673797439978
 20
117.4283576454818
 30
0.0
 11
673.3673797439978
 21
122.4283576454818
 31
0.0
  0
LINE
  5
71
330
19
100
AcDbEntity
  8
4
100
AcDbLine
 10
526.3673797439974
 20
108.0283576454813
 30
0.0
 11
646.8624997439974
 21
108.0283576454813
 31
0.0
  0
LINE
  5
72
330
19
100
AcDbEntity
  8
4
100
AcDbLine
 10
647.8624997439974
 20
109.0283576454813
 30
0.0
 11
647.8624997439974
 21
122.4283576454818
 31
0.0
  0
LINE
  5
73
330
19
100
AcDbEntity
  8
4
100
AcDbLine
 10
606.8777447439975
 20
335.4283576454814
 30
0.0
 11
518.8472547439974
 21
335.4283576454811
 31
0.0
  0
LINE
  5
74
330
19
100
AcDbEntity
  8
4
100
AcDbLine
 10
619.3673797439975
 20
323.4283576454818
 30
0.0
 11
529.8370348586004
 21
323.4283576454818
 31
0.0
  0
LINE
  5
75
330
19
100
AcDbEntity
  8
4
100
AcDbLine
 10
647.8624997439974
 20
328.4183476454823
 30
0.0
 11
647.8624997439974
 21
334.4283576454823
 31
0.0
  0
LINE
  5
76
330
19
100
AcDbEntity
  8
4
100
AcDbLine
 10
641.3673797439974
 20
334.4283576454823
 30
0.0
 11
647.8624997439974
 21
334.4283576454823
 31
0.0
  0
LINE
  5
77
330
19
100
AcDbEntity
  8
4
100
AcDbLine
 10
477.8624997439974
 20
334.4283576454823
 30
0.0
 11
631.3673797439974
 21
334.4283576454823
 31
0.0
  0
LINE
  5
78
330
19
100
AcDbEntity
  8
4
100
AcDbLine
 10
477.8624997439974
 20
334.4283576454823
 30
0.0
 11
477.8624997439974
 21
318.4283576454818
 31
0.0
  0
LINE
  5
79
330
19
100
AcDbEntity
  8
4
100
AcDbLine
 10
673.3673797439978
 20
325.4283576454814
 30
0.0
 11
742.8977246293944
 21
325.4283576454814
 31
0.0
  0
LINE
  5
7A
330
19
100
AcDbEntity
  8
4
100
AcDbLine
 10
386.3673797439974
 20
298.4283576454818
 30
0.0
 11
386.3673797439974
 21
316.4283576454818
 31
0.0
  0
LINE
  5
7B
330
19
100
AcDbEntity
  8
4
100
AcDbLine
 10
884.3673797439974
 20
318.4283576454818
 30
0.0
 11
388.3673797439978
 21
318.4283576454818
 31
0.0
  0
LINE
  5
7C
330
19
100
AcDbEntity
  8
4
100
AcDbLine
 10
886.3673797439974
 20
298.4283576454818
 30
0.0
 11
386.3673797439974
 21
298.4283576454818
 31
0.0
  0
LINE
  5
7D
330
19
100
AcDbEntity
  8
4
100
AcDbLine
 10
886.3673797439974
 20
298.4283576454818
 30
0.0
 11
886.3673797439974
 21
316.4283576454818
 31
0.0
  0
LINE
  5
7E
330
19
100
AcDbEntity
  8
4
100
AcDbLine
 10
673.3673797439978
 20
325.4283576454814
 30
0.0
 11
673.3673797439978
 21
318.2381726454819
 31
0.0
  0
LINE
  5
7F
330
19
100
AcDbEntity
  8
4
100
AcDbLine
 10
793.3673797439974
 20
325.4283576454814
 30
0.0
 11
764.8370348586004
 21
325.4283576454814
 31
0.0
  0
LINE
  5
80
330
19
100
AcDbEntity
  8
4
100
AcDbLine
 10
793.3673797439974
 20
318.4283576454818
 30
0.0
 11
793.3673797439974
 21
325.4283576454814
 31
0.0
  0
LINE
  5
81
330
19
100
AcDbEntity
  8
4
100
AcDbLine
 10
653.8673797439974
 20
319.2574576454817
 30
0.0
 11
618.8673797439974
 21
319.2574576454817
 31
0.0
  0
LINE
  5
82
330
19
100
AcDbEntity
  8
4
100
AcDbLine
 10
653.8673797439974
 20
318.4283576454818
 30
0.0
 11
653.8673797439974
 21
319.2574576454817
 31
0.0
  0
LINE
  5
83
330
19
100
AcDbEntity
  8
4
100
AcDbLine
 10
618.8673797439974
 20
318.4283576454818
 30
0.0
 11
618.8673797439974
 21
319.2574576454817
 31
0.0
  0
LINE
  5
84
330
19
100
AcDbEntity
  8
4
100
AcDbLine
 10
641.3673797439974
 20
329.4574126454822
 30
0.0
 11
648.8673797439974
 21
328.2574576454817
 31
0.0
  0
LINE
  5
85
330
19
100
AcDbEntity
  8
4
100
AcDbLine
 10
631.3673797439974
 20
329.4574126454822
 30
0.0
 11
623.8673797439974
 21
328.2574576454817
 31
0.0
  0
LINE
  5
86
330
19
100
AcDbEntity
  8
4
100
AcDbLine
 10
641.3673797439974
 20
328.2574576454817
 30
0.0
 11
648.8673797439974
 21
328.2574576454817
 31
0.0
  0
LINE
  5
87
330
19
100
AcDbEntity
  8
4
100
AcDbLine
 10
623.8673797439974
 20
328.2574576454817
 30
0.0
 11
631.3673797439974
 21
328.2574576454817
 31
0.0
  0
ARC
  5
88
330
19
100
AcDbEntity
  8
4
100
AcDbCircle
 10
636.3673797439974
 20
365.2574576454817
 30
0.0
 40
5.0
100
AcDbArc
 50
0.0
 51
180.0
  0
LINE
  5
89
330
19
100
AcDbEntity
  8
4
100
AcDbLine
 10
641.3673797439974
 20
322.813612645482
 30
0.0
 11
641.3673797439974
 21
365.2574576454817
 31
0.0
  0
LINE
  5
8A
330
19
100
AcDbEntity
  8
4
100
AcDbLine
 10
631.3673797439974
 20
322.813612645482
 30
0.0
 11
631.3673797439974
 21
365.2574576454817
 31
0.0
  0
LINE
  5
8B
330
19
100
AcDbEntity
  8
4
100
AcDbLine
 10
623.8673797439974
 20
319.2574576454817
 30
0.0
 11
623.8673797439974
 21
328.2574576454817
 31
0.0
  0
LINE
  5
8C
330
19
100
AcDbEntity
  8
4
100
AcDbLine
 10
623.8673797439974
 20
319.2574576454817
 30
0.0
 11
648.8673797439974
 21
319.2574576454817
 31
0.0
  0
LINE
  5
8D
330
19
100
AcDbEntity
  8
4
100
AcDbLine
 10
648.8673797439974
 20
319.2574576454817
 30
0.0
 11
648.8673797439974
 21
328.2574576454817
 31
0.0
  0
LINE
  5
8E
330
19
100
AcDbEntity
  8
4
100
AcDbLine
 10
619.3673797439975
 20
323.4283576454818
 30
0.0
 11
529.8370348586004
 21
323.4283576454818
 31
0.0
  0
ARC
  5
8F
330
19
100
AcDbEntity
  8
4
100
AcDbCircle
 10
794.4979947439974
 20
105.0120976454818
 30
0.0
 40
4.15458
100
AcDbArc
 50
300.3909439999998
 51
35.56271599999915
  0
ARC
  5
90
330
19
100
AcDbEntity
  8
4
100
AcDbCircle
 10
798.7016097439973
 20
97.84461764548132
 30
0.0
 40
4.15458
100
AcDbArc
 50
120.390950999996
 51
215.5627279999995
  0
ARC
  5
91
330
19
100
AcDbEntity
  8
4
100
AcDbCircle
 10
791.9425747439973
 20
93.01209764548139
 30
0.0
 40
4.15458
100
AcDbArc
 50
300.3909440000068
 51
35.56271599999915
  0
ARC
  5
92
330
19
100
AcDbEntity
  8
4
100
AcDbCircle
 10
796.1461897439976
 20
85.84461764548178
 30
0.0
 40
4.15458
100
AcDbArc
 50
120.390950999996
 51
215.5627279999995
  0
ARC
  5
93
330
19
100
AcDbEntity
  8
4
100
AcDbCircle
 10
789.3869097439974
 20
81.01209764548184
 30
0.0
 40
4.15458
100
AcDbArc
 50
300.3909440000068
 51
35.56271599999915
  0
ARC
  5
94
330
19
100
AcDbEntity
  8
4
100
AcDbCircle
 10
789.3869097439974
 20
81.01209764548184
 30
0.0
 40
4.15458
100
AcDbArc
 50
300.3909440000068
 51
35.56271599999915
  0
ARC
  5
95
330
19
100
AcDbEntity
  8
4
100
AcDbCircle
 10
796.1461897439976
 20
85.84461764548178
 30
0.0
 40
4.15458
100
AcDbArc
 50
120.390950999996
 51
215.5627279999995
  0
ARC
  5
96
330
19
100
AcDbEntity
  8
4
100
AcDbCircle
 10
791.9425747439973
 20
93.01209764548139
 30
0.0
 40
4.15458
100
AcDbArc
 50
300.3909440000068
 51
35.56271599999915
  0
ARC
  5
97
330
19
100
AcDbEntity
  8
4
100
AcDbCircle
 10
798.7016097439973
 20
97.84461764548132
 30
0.0
 40
4.15458
100
AcDbArc
 50
120.390950999996
 51
215.5627279999995
  0
ARC
  5
98
330
19
100
AcDbEntity
  8
4
100
AcDbCircle
 10
794.4979947439974
 20
105.0120976454818
 30
0.0
 40
4.15458
100
AcDbArc
 50
300.3909439999998
 51
35.56271599999915
  0
LINE
  5
99
330
19
100
AcDbEntity
  8
4
100
AcDbLine
 10
837.3673797439978
 20
77.42835764548181
 30
0.0
 11
837.3673797439978
 21
107.4283576454818
 31
0.0
  0
LINE
  5
9A
330
19
100
AcDbEntity
  8
4
100
AcDbLine
 10
815.3673797439974
 20
77.42835764548181
 30
0.0
 11
815.3673797439974
 21
107.4283576454818
 31
0.0
  0
LINE
  5
9B
330
19
100
AcDbEntity
  8
4
100
AcDbLine
 10
892.3673797439978
 20
295.4283576454814
 30
0.0
 11
892.3673797439978
 21
132.4283576454818
 31
0.0
  0
LINE
  5
9C
330
19
100
AcDbEntity
  8
4
100
AcDbLine
 10
886.3673797439974
 20
295.4283576454814
 30
0.0
 11
886.3673797439974
 21
298.4283576454818
 31
0.0
  0
LINE
  5
9D
330
19
100
AcDbEntity
  8
4
100
AcDbLine
 10
892.3673797439978
 20
295.4283576454814
 30
0.0
 11
380.3673797439974
 21
295.4283576454814
 31
0.0
  0
LINE
  5
9E
330
19
100
AcDbEntity
  8
4
100
AcDbLine
 10
886.3673797439974
 20
298.4283576454818
 30
0.0
 11
386.3673797439974
 21
298.4283576454818
 31
0.0
  0
LINE
  5
9F
330
19
100
AcDbEntity
  8
4
100
AcDbLine
 10
386.3673797439974
 20
295.4283576454814
 30
0.0
 11
386.3673797439974
 21
298.4283576454818
 31
0.0
  0
LINE
  5
A0
330
19
100
AcDbEntity
  8
4
100
AcDbLine
 10
380.3673797439974
 20
295.4283576454814
 30
0.0
 11
380.3673797439974
 21
132.4283576454818
 31
0.0
  0
LINE
  5
A1
330
19
100
AcDbEntity
  8
4
100
AcDbLine
 10
894.3673797439974
 20
241.4283576454818
 30
0.0
 11
898.3673797439974
 21
241.4283576454818
 31
0.0
  0
LINE
  5
A2
330
19
100
AcDbEntity
  8
4
100
AcDbLine
 10
374.3673797439974
 20
241.4283576454818
 30
0.0
 11
378.3673797439978
 21
241.4283576454818
 31
0.0
  0
LINE
  5
A3
330
19
100
AcDbEntity
  8
4
100
AcDbLine
 10
894.3256397439973
 20
133.4283576454818
 30
0.0
 11
898.3673797439974
 21
133.4283576454818
 31
0.0
  0
LINE
  5
A4
330
19
100
AcDbEntity
  8
4
100
AcDbLine
 10
374.3673797439974
 20
133.4283576454818
 30
0.0
 11
378.4091197439975
 21
133.4283576454818
 31
0.0
  0
LINE
  5
A5
330
19
100
AcDbEntity
  8
4
100
AcDbLine
 10
506.3673797439974
 20
107.4283576454818
 30
0.0
 11
506.3673797439974
 21
77.42835764548181
 31
0.0
  0
LINE
  5
A6
330
19
100
AcDbEntity
  8
4
100
AcDbLine
 10
766.3673797439974
 20
107.4283576454818
 30
0.0
 11
766.3673797439974
 21
77.42835764548181
 31
0.0
  0
LINE
  5
A7
330
19
100
AcDbEntity
  8
4
100
AcDbLine
 10
876.3673797439974
 20
122.4283576454818
 30
0.0
 11
882.3673797439978
 21
122.4283576454818
 31
0.0
  0
LINE
  5
A8
330
19
100
AcDbEntity
  8
4
100
AcDbLine
 10
390.3673797439974
 20
122.4283576454818
 30
0.0
 11
396.3673797439974
 21
122.4283576454818
 31
0.0
  0
LINE
  5
A9
330
19
100
AcDbEntity
  8
4
100
AcDbLine
 10
871.3673797439974
 20
117.4283576454818
 30
0.0
 11
871.3673797439974
 21
112.4283576454818
 31
0.0
  0
ARC
  5
AA
330
19
100
AcDbEntity
  8
4
100
AcDbCircle
 10
876.3673797439974
 20
117.4283576454818
 30
0.0
 40
5.0
100
AcDbArc
 50
90.0
 51
180.0
  0
LINE
  5
AB
330
19
100
AcDbEntity
  8
4
100
AcDbLine
 10
401.3673797439974
 20
117.4283576454818
 30
0.0
 11
401.3673797439974
 21
112.4283576454818
 31
0.0
  0
LINE
  5
AC
330
19
100
AcDbEntity
  8
4
100
AcDbLine
 10
374.3673797439974
 20
133.4283576454818
 30
0.0
 11
374.3673797439974
 21
241.4283576454818
 31
0.0
  0
LINE
  5
AD
330
19
100
AcDbEntity
  8
4
100
AcDbLine
 10
373.3673797439978
 20
135.4283576454814
 30
0.0
 11
369.3673797439974
 21
135.4283576454814
 31
0.0
  0
LINE
  5
AE
330
19
100
AcDbEntity
  8
4
100
AcDbLine
 10
373.3673797439978
 20
239.4283576454823
 30
0.0
 11
369.3673797439974
 21
239.4283576454823
 31
0.0
  0
LINE
  5
AF
330
19
100
AcDbEntity
  8
4
100
AcDbLine
 10
898.3673797439974
 20
133.4283576454818
 30
0.0
 11
898.3673797439974
 21
241.4283576454818
 31
0.0
  0
LINE
  5
B0
330
19
100
AcDbEntity
  8
4
100
AcDbLine
 10
903.3673797439974
 20
135.4283576454814
 30
0.0
 11
903.3673797439974
 21
239.4283576454823
 31
0.0
  0
LINE
  5
B1
330
19
100
AcDbEntity
  8
4
100
AcDbLine
 10
903.3673797439974
 20
135.4283576454814
 30
0.0
 11
899.3673797439974
 21
135.4283576454814
 31
0.0
  0
LINE
  5
B2
330
19
100
AcDbEntity
  8
4
100
AcDbLine
 10
903.3673797439974
 20
239.4283576454823
 30
0.0
 11
899.3673797439974
 21
239.4283576454823
 31
0.0
  0
LINE
  5
B3
330
19
100
AcDbEntity
  8
4
100
AcDbLine
 10
528.1223847439974
 20
119.4283576454823
 30
0.0
 11
647.8624997439974
 21
119.4283576454823
 31
0.0
  0
LINE
  5
B4
330
19
100
AcDbEntity
  8
4
100
AcDbLine
 10
746.3673797439974
 20
114.4283576454823
 30
0.0
 11
746.3673797439974
 21
77.42835764548181
 31
0.0
  0
LINE
  5
B5
330
19
100
AcDbEntity
  8
4
100
AcDbLine
 10
526.3673797439974
 20
114.4283576454823
 30
0.0
 11
526.3673797439974
 21
77.42835764548181
 31
0.0
  0
LINE
  5
B6
330
19
100
AcDbEntity
  8
4
100
AcDbLine
 10
738.3673797439974
 20
122.4283576454818
 30
0.0
 11
534.3673797439974
 21
122.4283576454818
 31
0.0
  0
LINE
  5
B7
330
19
100
AcDbEntity
  8
4
100
AcDbLine
 10
886.3673797439974
 20
77.42835764548181
 30
0.0
 11
746.3673797439974
 21
77.42835764548181
 31
0.0
  0
LINE
  5
B8
330
19
100
AcDbEntity
  8
4
100
AcDbLine
 10
386.3673797439974
 20
77.42835764548181
 30
0.0
 11
526.3673797439974
 21
77.42835764548181
 31
0.0
  0
LINE
  5
B9
330
19
100
AcDbEntity
  8
4
100
AcDbLine
 10
886.3673797439974
 20
102.4283576454818
 30
0.0
 11
886.3673797439974
 21
77.42835764548181
 31
0.0
  0
LINE
  5
BA
330
19
100
AcDbEntity
  8
4
100
AcDbLine
 10
881.3673797439974
 20
107.4283576454818
 30
0.0
 11
746.3673797439974
 21
107.4283576454818
 31
0.0
  0
ARC
  5
BB
330
19
100
AcDbEntity
  8
4
100
AcDbCircle
 10
881.3673797439974
 20
102.4283576454818
 30
0.0
 40
5.0
100
AcDbArc
 50
0.0
 51
90.0
  0
LINE
  5
BC
330
19
100
AcDbEntity
  8
4
100
AcDbLine
 10
386.3673797439974
 20
102.4283576454818
 30
0.0
 11
386.3673797439974
 21
77.42835764548181
 31
0.0
  0
LINE
  5
BD
330
19
100
AcDbEntity
  8
4
100
AcDbLine
 10
391.3673797439974
 20
107.4283576454818
 30
0.0
 11
526.3673797439974
 21
107.4283576454818
 31
0.0
  0
ARC
  5
BE
330
19
100
AcDbEntity
  8
4
100
AcDbCircle
 10
391.3673797439974
 20
102.4283576454818
 30
0.0
 40
5.0
100
AcDbArc
 50
90.0
 51
180.0
  0
ARC
  5
BF
330
19
100
AcDbEntity
  8
4
100
AcDbCircle
 10
1251.391481859769
 20
102.4283576454818
 30
0.0
 40
5.0
100
AcDbArc
 50
90.0
 51
180.0
  0
LINE
  5
C0
330
19
100
AcDbEntity
  8
4
100
AcDbLine
 10
1251.391481859769
 20
107.4283576454818
 30
0.0
 11
1396.391481859769
 21
107.4283576454818
 31
0.0
  0
ARC
  5
C1
330
19
100
AcDbEntity
  8
4
100
AcDbCircle
 10
1756.391481859769
 20
102.4283576454818
 30
0.0
 40
5.0
100
AcDbArc
 50
0.0
 51
90.0
  0
LINE
  5
C2
330
19
100
AcDbEntity
  8
4
100
AcDbLine
 10
1756.391481859769
 20
107.4283576454818
 30
0.0
 11
1611.391481859769
 21
107.4283576454818
 31
0.0
  0
LINE
  5
C3
330
19
100
AcDbEntity
  8
4
100
AcDbLine
 10
1246.391481859769
 20
77.42835764548181
 30
0.0
 11
1246.391481859769
 21
102.4283576454818
 31
0.0
  0
LINE
  5
C4
330
19
100
AcDbEntity
  8
4
100
AcDbLine
 10
1761.391481859769
 20
77.42835764548181
 30
0.0
 11
1761.391481859769
 21
102.4283576454818
 31
0.0
  0
LINE
  5
C5
330
19
100
AcDbEntity
  8
4
100
AcDbLine
 10
1761.391481859769
 20
77.42835764548181
 30
0.0
 11
1611.391481859769
 21
77.42835764548181
 31
0.0
  0
LINE
  5
C6
330
19
100
AcDbEntity
  8
4
100
AcDbLine
 10
1246.391481859769
 20
77.42835764548181
 30
0.0
 11
1396.391481859769
 21
77.42835764548181
 31
0.0
  0
LINE
  5
C7
330
19
100
AcDbEntity
  8
4
100
AcDbLine
 10
1563.391481859769
 20
117.4283576454818
 30
0.0
 11
1443.391481859769
 21
117.4283576454818
 31
0.0
  0
LINE
  5
C8
330
19
100
AcDbEntity
  8
4
100
AcDbLine
 10
1431.391481859769
 20
122.4283576454818
 30
0.0
 11
1431.391481859769
 21
108.0283576454813
 31
0.0
  0
LINE
  5
C9
330
19
100
AcDbEntity
  8
4
100
AcDbLine
 10
1601.391481859769
 20
122.4283576454818
 30
0.0
 11
1601.391481859769
 21
108.0283576454813
 31
0.0
  0
LINE
  5
CA
330
19
100
AcDbEntity
  8
4
100
AcDbLine
 10
1246.391481859769
 20
298.4283576454818
 30
0.0
 11
1246.391481859769
 21
295.4283576454814
 31
0.0
  0
LINE
  5
CB
330
19
100
AcDbEntity
  8
4
100
AcDbLine
 10
1752.391481859769
 20
295.4283576454814
 30
0.0
 11
1240.391481859769
 21
295.4283576454814
 31
0.0
  0
LINE
  5
CC
330
19
100
AcDbEntity
  8
4
100
AcDbLine
 10
1746.391481859769
 20
298.4283576454818
 30
0.0
 11
1246.391481859769
 21
298.4283576454818
 31
0.0
  0
LINE
  5
CD
330
19
100
AcDbEntity
  8
4
100
AcDbLine
 10
1746.391481859769
 20
295.4283576454814
 30
0.0
 11
1746.391481859769
 21
298.4283576454818
 31
0.0
  0
LINE
  5
CE
330
19
100
AcDbEntity
  8
4
100
AcDbLine
 10
1396.391481859769
 20
114.4283576454823
 30
0.0
 11
1396.391481859769
 21
77.42835764548181
 31
0.0
  0
LINE
  5
CF
330
19
100
AcDbEntity
  8
4
100
AcDbLine
 10
1603.391481859769
 20
122.4283576454818
 30
0.0
 11
1404.391481859769
 21
122.4283576454818
 31
0.0
  0
LINE
  5
D0
330
19
100
AcDbEntity
  8
4
100
AcDbLine
 10
1266.391481859769
 20
117.4283576454818
 30
0.0
 11
1266.391481859769
 21
112.4283576454818
 31
0.0
  0
LINE
  5
D1
330
19
100
AcDbEntity
  8
4
100
AcDbLine
 10
1726.391481859769
 20
117.4283576454818
 30
0.0
 11
1726.391481859769
 21
112.4283576454818
 31
0.0
  0
ARC
  5
D2
330
19
100
AcDbEntity
  8
4
100
AcDbCircle
 10
1742.391481859769
 20
132.4283576454818
 30
0.0
 40
10.0
100
AcDbArc
 50
270.0014040000008
 51
0.0
  0
LINE
  5
D3
330
19
100
AcDbEntity
  8
4
100
AcDbLine
 10
1752.391481859769
 20
132.4283576454818
 30
0.0
 11
1752.391481859769
 21
295.4283576454814
 31
0.0
  0
ARC
  5
D4
330
19
100
AcDbEntity
  8
4
100
AcDbCircle
 10
1250.391481859769
 20
132.4283576454818
 30
0.0
 40
10.0
100
AcDbArc
 50
180.0
 51
270.0014039999981
  0
LINE
  5
D5
330
19
100
AcDbEntity
  8
4
100
AcDbLine
 10
1250.391481859769
 20
122.4283576454818
 30
0.0
 11
1261.391481859769
 21
122.4283576454818
 31
0.0
  0
LINE
  5
D6
330
19
100
AcDbEntity
  8
4
100
AcDbLine
 10
1240.391481859769
 20
132.4283576454818
 30
0.0
 11
1240.391481859769
 21
295.4283576454814
 31
0.0
  0
LINE
  5
D7
330
19
100
AcDbEntity
  8
4
100
AcDbLine
 10
1611.391481859769
 20
135.2491576454813
 30
0.0
 11
1611.391481859769
 21
77.42835764548181
 31
0.0
  0
LINE
  5
D8
330
19
100
AcDbEntity
  8
4
100
AcDbLine
 10
1690.636356859769
 20
137.0142976454813
 30
0.0
 11
1690.636356859769
 21
107.4283576454818
 31
0.0
  0
LINE
  5
D9
330
19
100
AcDbEntity
  8
4
100
AcDbLine
 10
1753.391481859769
 20
122.4283576454818
 30
0.0
 11
1731.391481859769
 21
122.4283576454818
 31
0.0
  0
LINE
  5
DA
330
19
100
AcDbEntity
  8
4
100
AcDbLine
 10
1754.391481859769
 20
123.4283576454818
 30
0.0
 11
1754.391481859769
 21
187.4283576454818
 31
0.0
  0
LINE
  5
DB
330
19
100
AcDbEntity
  8
4
100
AcDbLine
 10
1753.391481859769
 20
277.4283576454818
 30
0.0
 11
1752.391481859769
 21
277.4283576454818
 31
0.0
  0
LINE
  5
DC
330
19
100
AcDbEntity
  8
4
100
AcDbLine
 10
1753.391481859769
 20
238.4283576454818
 30
0.0
 11
1753.391481859769
 21
277.4283576454818
 31
0.0
  0
LINE
  5
DD
330
19
100
AcDbEntity
  8
4
100
AcDbLine
 10
1756.391481859769
 20
238.4283576454818
 30
0.0
 11
1756.391481859769
 21
187.4283576454818
 31
0.0
  0
LINE
  5
DE
330
19
100
AcDbEntity
  8
4
100
AcDbLine
 10
1756.391481859769
 20
238.4283576454818
 30
0.0
 11
1753.391481859769
 21
238.4283576454818
 31
0.0
  0
LINE
  5
DF
330
19
100
AcDbEntity
  8
4
100
AcDbLine
 10
1754.391481859769
 20
187.4283576454818
 30
0.0
 11
1756.391481859769
 21
187.4283576454818
 31
0.0
  0
LINE
  5
E0
330
19
100
AcDbEntity
  8
4
100
AcDbLine
 10
1756.891261859769
 20
250.9283576454818
 30
0.0
 11
1761.891261859769
 21
250.9283576454818
 31
0.0
  0
LINE
  5
E1
330
19
100
AcDbEntity
  8
4
100
AcDbLine
 10
1756.891261859769
 20
265.9283576454818
 30
0.0
 11
1761.891261859769
 21
265.9283576454818
 31
0.0
  0
LINE
  5
E2
330
19
100
AcDbEntity
  8
4
100
AcDbLine
 10
1753.390261859769
 20
272.4283576454818
 30
0.0
 11
1753.390261859769
 21
244.4283576454823
 31
0.0
  0
LINE
  5
E3
330
19
100
AcDbEntity
  8
4
100
AcDbLine
 10
1754.891261859769
 20
273.4283576454818
 30
0.0
 11
1754.891261859769
 21
243.4283576454818
 31
0.0
  0
LINE
  5
E4
330
19
100
AcDbEntity
  8
4
100
AcDbLine
 10
1756.891261859769
 20
273.4283576454818
 30
0.0
 11
1756.891261859769
 21
243.4283576454818
 31
0.0
  0
LINE
  5
E5
330
19
100
AcDbEntity
  8
4
100
AcDbLine
 10
1761.891261859769
 20
273.4283576454818
 30
0.0
 11
1761.891261859769
 21
243.4283576454818
 31
0.0
  0
LINE
  5
E6
330
19
100
AcDbEntity
  8
4
100
AcDbLine
 10
1761.891261859769
 20
243.4283576454818
 30
0.0
 11
1754.891261859769
 21
243.4283576454818
 31
0.0
  0
LINE
  5
E7
330
19
100
AcDbEntity
  8
4
100
AcDbLine
 10
1754.891261859769
 20
244.4283576454823
 30
0.0
 11
1753.390261859769
 21
244.4283576454823
 31
0.0
  0
LINE
  5
E8
330
19
100
AcDbEntity
  8
4
100
AcDbLine
 10
1754.891261859769
 20
273.4283576454818
 30
0.0
 11
1761.891261859769
 21
273.4283576454818
 31
0.0
  0
LINE
  5
E9
330
19
100
AcDbEntity
  8
4
100
AcDbLine
 10
1754.891261859769
 20
272.4283576454818
 30
0.0
 11
1753.390261859769
 21
272.4283576454818
 31
0.0
  0
LINE
  5
EA
330
19
100
AcDbEntity
  8
4
100
AcDbLine
 10
1756.391386859769
 20
150.1663926454817
 30
0.0
 11
1756.391386859769
 21
143.4283576454818
 31
0.0
  0
LINE
  5
EB
330
19
100
AcDbEntity
  8
4
100
AcDbLine
 10
1754.391481859769
 20
150.0040426454825
 30
0.0
 11
1756.391386859769
 21
150.1663926454817
 31
0.0
  0
LINE
  5
EC
330
19
100
AcDbEntity
  8
4
100
AcDbLine
 10
1754.391481859769
 20
136.852672645482
 30
0.0
 11
1756.391386859769
 21
136.6903226454815
 31
0.0
  0
LINE
  5
ED
330
19
100
AcDbEntity
  8
4
100
AcDbLine
 10
1756.391386859769
 20
136.6903226454815
 30
0.0
 11
1756.391386859769
 21
143.4283576454818
 31
0.0
  0
LINE
  5
EE
330
19
100
AcDbEntity
  8
4
100
AcDbLine
 10
1694.391481859769
 20
330.2574576454817
 30
0.0
 11
1699.573356859768
 21
329.4283576454818
 31
0.0
  0
LINE
  5
EF
330
19
100
AcDbEntity
  8
4
100
AcDbLine
 10
1681.891481859769
 20
328.2574576454817
 30
0.0
 11
1694.391481859769
 21
330.2574576454817
 31
0.0
  0
ARC
  5
F0
330
19
100
AcDbEntity
  8
4
100
AcDbCircle
 10
1694.391481859769
 20
345.2574576454817
 30
0.0
 40
25.00002
100
AcDbArc
 50
311.2559945623341
 51
238.2460640000006
  0
ARC
  5
F1
330
19
100
AcDbEntity
  8
4
100
AcDbCircle
 10
1680.491581859769
 20
322.8131226454816
 30
0.0
 40
1.399915
100
AcDbArc
 50
0.0
 51
58.23080400000445
  0
LINE
  5
F2
330
19
100
AcDbEntity
  8
4
100
AcDbLine
 10
1681.891481859769
 20
319.2574576454817
 30
0.0
 11
1688.937796634509
 21
319.2574576454817
 31
0.0
  0
LINE
  5
F3
330
19
100
AcDbEntity
  8
4
100
AcDbLine
 10
1681.891481859769
 20
319.2574576454817
 30
0.0
 11
1681.891481859769
 21
328.2574576454817
 31
0.0
  0
LINE
  5
F4
330
19
100
AcDbEntity
  8
4
100
AcDbLine
 10
1688.937796634509
 20
328.2574576454817
 30
0.0
 11
1681.891481859769
 21
328.2574576454817
 31
0.0
  0
CIRCLE
  5
F5
330
19
100
AcDbEntity
  8
4
100
AcDbCircle
 10
1694.391481859769
 20
345.2574576454817
 30
0.0
 40
15.0
  0
LINE
  5
F6
330
19
100
AcDbEntity
  8
4
100
AcDbLine
 10
1298.391481859769
 20
330.2574576454817
 30
0.0
 11
1310.891481859769
 21
328.2574576454817
 31
0.0
  0
LINE
  5
F7
330
19
100
AcDbEntity
  8
4
100
AcDbLine
 10
1293.20960685977
 20
329.4283576454818
 30
0.0
 11
1298.391481859769
 21
330.2574576454817
 31
0.0
  0
ARC
  5
F8
330
19
100
AcDbEntity
  8
4
100
AcDbCircle
 10
1298.391481859769
 20
345.2574576454817
 30
0.0
 40
25.00002
100
AcDbArc
 50
301.7714660000001
 51
228.744005437666
  0
ARC
  5
F9
330
19
100
AcDbEntity
  8
4
100
AcDbCircle
 10
1312.291626859769
 20
322.8131226454816
 30
0.0
 40
1.399915
100
AcDbArc
 50
121.7691959999956
 51
180.0
  0
LINE
  5
FA
330
19
100
AcDbEntity
  8
4
100
AcDbLine
 10
1303.845167085029
 20
319.2574576454817
 30
0.0
 11
1310.891481859769
 21
319.2574576454817
 31
0.0
  0
LINE
  5
FB
330
19
100
AcDbEntity
  8
4
100
AcDbLine
 10
1310.891481859769
 20
319.2574576454817
 30
0.0
 11
1310.891481859769
 21
328.2574576454817
 31
0.0
  0
LINE
  5
FC
330
19
100
AcDbEntity
  8
4
100
AcDbLine
 10
1310.891481859769
 20
328.2574576454817
 30
0.0
 11
1303.845167085029
 21
328.2574576454817
 31
0.0
  0
CIRCLE
  5
FD
330
19
100
AcDbEntity
  8
4
100
AcDbCircle
 10
1298.391481859769
 20
345.2574576454817
 30
0.0
 40
15.0
  0
LINE
  5
FE
330
19
100
AcDbEntity
  8
4
100
AcDbLine
 10
1315.891481859769
 20
319.2574576454817
 30
0.0
 11
1303.845167085029
 21
319.2574576454817
 31
0.0
  0
LINE
  5
FF
330
19
100
AcDbEntity
  8
4
100
AcDbLine
 10
1315.891481859769
 20
319.2574576454817
 30
0.0
 11
1315.891481859769
 21
318.4283576454818
 31
0.0
  0
LINE
  5
100
330
19
100
AcDbEntity
  8
4
100
AcDbLine
 10
1280.891481859769
 20
318.4283576454818
 30
0.0
 11
1280.891481859769
 21
319.2574576454817
 31
0.0
  0
LINE
  5
101
330
19
100
AcDbEntity
  8
4
100
AcDbLine
 10
1711.891481859769
 20
319.2574576454817
 30
0.0
 11
1710.877106863715
 21
319.2574576454817
 31
0.0
  0
LINE
  5
102
330
19
100
AcDbEntity
  8
4
100
AcDbLine
 10
1711.891481859769
 20
318.4283576454818
 30
0.0
 11
1711.891481859769
 21
319.2574576454817
 31
0.0
  0
LINE
  5
103
330
19
100
AcDbEntity
  8
4
100
AcDbLine
 10
1676.891481859769
 20
318.4283576454818
 30
0.0
 11
1676.891481859769
 21
319.2574576454817
 31
0.0
  0
LINE
  5
104
330
19
100
AcDbEntity
  8
4
100
AcDbLine
 10
1661.391481859769
 20
318.4283576454818
 30
0.0
 11
1661.391481859769
 21
320.2574576454817
 31
0.0
  0
LINE
  5
105
330
19
100
AcDbEntity
  8
4
100
AcDbLine
 10
1621.391481859769
 20
318.4283576454818
 30
0.0
 11
1621.391481859769
 21
320.2574576454817
 31
0.0
  0
LINE
  5
106
330
19
100
AcDbEntity
  8
4
100
AcDbLine
 10
1621.391481859769
 20
320.2574576454817
 30
0.0
 11
1661.391481859769
 21
320.2574576454817
 31
0.0
  0
LINE
  5
107
330
19
100
AcDbEntity
  8
4
100
AcDbLine
 10
1246.391481859769
 20
298.4283576454818
 30
0.0
 11
1246.391481859769
 21
316.4283576454818
 31
0.0
  0
LINE
  5
108
330
19
100
AcDbEntity
  8
4
100
AcDbLine
 10
1744.391481859769
 20
318.4283576454818
 30
0.0
 11
1248.391481859769
 21
318.4283576454818
 31
0.0
  0
LINE
  5
109
330
19
100
AcDbEntity
  8
4
100
AcDbLine
 10
1746.391481859769
 20
298.4283576454818
 30
0.0
 11
1246.391481859769
 21
298.4283576454818
 31
0.0
  0
LINE
  5
10A
330
19
100
AcDbEntity
  8
4
100
AcDbLine
 10
1746.391481859769
 20
298.4283576454818
 30
0.0
 11
1746.391481859769
 21
316.4283576454818
 31
0.0
  0
LINE
  5
10B
330
19
100
AcDbEntity
  8
4
100
AcDbLine
 10
1601.391481859769
 20
108.0283576454813
 30
0.0
 11
1431.391481859769
 21
108.0283576454813
 31
0.0
  0
ARC
  5
10C
330
19
100
AcDbEntity
  8
4
100
AcDbCircle
 10
1651.391481859769
 20
-60.57188735451746
 30
0.0
 40
299.99997
100
AcDbArc
 50
81.47332399999996
 51
98.52691300000001
  0
ARC
  5
10D
330
19
100
AcDbEntity
  8
4
100
AcDbCircle
 10
1899.391481859769
 20
187.4283576454818
 30
0.0
 40
299.99995
100
AcDbArc
 50
171.474267
 51
188.5268669999998
  0
ARC
  5
10E
330
19
100
AcDbEntity
  8
4
100
AcDbCircle
 10
1607.651981859769
 20
231.1673726454819
 30
0.0
 40
5.000084999999999
100
AcDbArc
 50
98.52495700000087
 51
171.4722800000001
  0
ARC
  5
10F
330
19
100
AcDbEntity
  8
4
100
AcDbCircle
 10
1897.391481859769
 20
187.4283576454818
 30
0.0
 40
300.00001
100
AcDbArc
 50
171.133374
 51
188.867622
  0
ARC
  5
110
330
19
100
AcDbEntity
  8
4
100
AcDbCircle
 10
1651.391481859769
 20
-58.57188735451837
 30
0.0
 40
300.000005
100
AcDbArc
 50
81.13252299999999
 51
98.86766800000004
  0
ARC
  5
111
330
19
100
AcDbEntity
  8
4
100
AcDbCircle
 10
1605.917361859769
 20
232.9022326454819
 30
0.0
 40
4.99995
100
AcDbArc
 50
98.86761599999629
 51
171.1323830000003
  0
ARC
  5
112
330
19
100
AcDbEntity
  8
4
100
AcDbCircle
 10
1405.391481859769
 20
187.4283576454818
 30
0.0
 40
299.999955
100
AcDbArc
 50
351.134126
 51
8.867337999999943
  0
ARC
  5
113
330
19
100
AcDbEntity
  8
4
100
AcDbCircle
 10
1696.865601859769
 20
232.9022326454819
 30
0.0
 40
4.99995
100
AcDbArc
 50
8.86761699999971
 51
81.13238400000373
  0
ARC
  5
114
330
19
100
AcDbEntity
  8
4
100
AcDbCircle
 10
1403.391481859769
 20
187.4283576454818
 30
0.0
 40
299.99995
100
AcDbArc
 50
351.474927
 51
8.526583000000004
  0
ARC
  5
115
330
19
100
AcDbEntity
  8
4
100
AcDbCircle
 10
1695.130981859769
 20
231.1673726454819
 30
0.0
 40
5.000084999999999
100
AcDbArc
 50
8.527719999999922
 51
81.47504299999913
  0
ARC
  5
116
330
19
100
AcDbEntity
  8
4
100
AcDbCircle
 10
1651.391481859769
 20
433.428602645482
 30
0.0
 40
299.99992
100
AcDbArc
 50
261.133275
 51
278.8685189999999
  0
ARC
  5
117
330
19
100
AcDbEntity
  8
4
100
AcDbCircle
 10
1696.865601859769
 20
141.9544826454817
 30
0.0
 40
4.99993
100
AcDbArc
 50
278.8676169999979
 51
351.1351570000003
  0
ARC
  5
118
330
19
100
AcDbEntity
  8
4
100
AcDbCircle
 10
1651.391481859769
 20
435.4286026454811
 30
0.0
 40
300.000005
100
AcDbArc
 50
261.474221
 51
278.527902
  0
ARC
  5
119
330
19
100
AcDbEntity
  8
4
100
AcDbCircle
 10
1695.130981859769
 20
143.6893426454817
 30
0.0
 40
5.000084999999999
100
AcDbArc
 50
278.5249550000005
 51
351.4722800000001
  0
ARC
  5
11A
330
19
100
AcDbEntity
  8
4
100
AcDbCircle
 10
1605.917361859769
 20
141.9544826454817
 30
0.0
 40
4.99995
100
AcDbArc
 50
188.8676169999997
 51
261.1323830000002
  0
ARC
  5
11B
330
19
100
AcDbEntity
  8
4
100
AcDbCircle
 10
1607.651981859769
 20
143.6893426454817
 30
0.0
 40
5.000084999999999
100
AcDbArc
 50
188.5277199999999
 51
261.4750449999995
  0
LINE
  5
11C
330
19
100
AcDbEntity
  8
4
100
AcDbLine
 10
1496.391481859769
 20
141.1837276454817
 30
0.0
 11
1600.977176859769
 21
141.1837276454817
 31
0.0
  0
LINE
  5
11D
330
19
100
AcDbEntity
  8
4
100
AcDbLine
 10
1496.391481859769
 20
233.672987645482
 30
0.0
 11
1600.977176859769
 21
233.672987645482
 31
0.0
  0
LINE
  5
11E
330
19
100
AcDbEntity
  8
4
100
AcDbLine
 10
595.3624997439974
 20
347.4283576454818
 30
0.0
 11
530.3624997439974
 21
347.4283576454818
 31
0.0
  0
LINE
  5
11F
330
19
100
AcDbEntity
  8
4
100
AcDbLine
 10
530.3624997439974
 20
335.4283576454814
 30
0.0
 11
530.3624997439974
 21
347.4283576454818
 31
0.0
  0
LINE
  5
120
330
19
100
AcDbEntity
  8
4
100
AcDbLine
 10
595.3624997439974
 20
335.4283576454814
 30
0.0
 11
595.3624997439974
 21
347.4283576454818
 31
0.0
  0
LINE
  5
121
330
19
100
AcDbEntity
  8
4
100
AcDbLine
 10
1472.37623685977
 20
335.0283576454819
 30
0.0
 11
1560.40672685977
 21
335.0283576454815
 31
0.0
  0
LINE
  5
122
330
19
100
AcDbEntity
  8
4
100
AcDbLine
 10
1483.891481859769
 20
335.0283576454817
 30
0.0
 11
1483.891481859769
 21
347.4283576454818
 31
0.0
  0
LINE
  5
123
330
19
100
AcDbEntity
  8
4
100
AcDbLine
 10
1548.891481859769
 20
335.0283576454817
 30
0.0
 11
1548.891481859769
 21
347.4283576454818
 31
0.0
  0
LINE
  5
124
330
19
100
AcDbEntity
  8
4
100
AcDbLine
 10
1548.891481859769
 20
347.4283576454818
 30
0.0
 11
1483.891481859769
 21
347.4283576454818
 31
0.0
  0
ARC
  5
125
330
19
100
AcDbEntity
  8
4
100
AcDbCircle
 10
562.8624997439974
 20
366.4283576454818
 30
0.0
 40
9.0
100
AcDbArc
 50
180.0
 51
0.0
  0
LINE
  5
126
330
19
100
AcDbEntity
  8
4
100
AcDbLine
 10
553.8624997439974
 20
467.4283576454818
 30
0.0
 11
553.8624997439974
 21
366.4283576454818
 31
0.0
  0
LINE
  5
127
330
19
100
AcDbEntity
  8
4
100
AcDbLine
 10
571.8624997439974
 20
467.4283576454818
 30
0.0
 11
571.8624997439974
 21
366.4283576454818
 31
0.0
  0
LINE
  5
128
330
19
100
AcDbEntity
  8
4
100
AcDbLine
 10
532.8624997439974
 20
467.4283576454818
 30
0.0
 11
531.8624997439974
 21
466.4283576454818
 31
0.0
  0
LINE
  5
129
330
19
100
AcDbEntity
  8
4
100
AcDbLine
 10
531.8624997439974
 20
466.4283576454818
 30
0.0
 11
531.8624997439974
 21
347.4283576454818
 31
0.0
  0
LINE
  5
12A
330
19
100
AcDbEntity
  8
4
100
AcDbLine
 10
592.8624997439974
 20
467.4283576454818
 30
0.0
 11
593.8624997439974
 21
466.4283576454818
 31
0.0
  0
LINE
  5
12B
330
19
100
AcDbEntity
  8
4
100
AcDbLine
 10
592.8624997439974
 20
467.4283576454818
 30
0.0
 11
532.8624997439974
 21
467.4283576454818
 31
0.0
  0
LINE
  5
12C
330
19
100
AcDbEntity
  8
4
100
AcDbLine
 10
593.8624997439974
 20
466.4283576454818
 30
0.0
 11
593.8624997439974
 21
347.4283576454818
 31
0.0
  0
LINE
  5
12D
330
19
100
AcDbEntity
  8
4
100
AcDbLine
 10
531.8624997439974
 20
466.4283576454818
 30
0.0
 11
553.8624997439974
 21
466.4283576454818
 31
0.0
  0
LINE
  5
12E
330
19
100
AcDbEntity
  8
4
100
AcDbLine
 10
593.8624997439974
 20
466.4283576454818
 30
0.0
 11
571.8624997439974
 21
466.4283576454818
 31
0.0
  0
LINE
  5
12F
330
19
100
AcDbEntity
  8
4
100
AcDbLine
 10
1486.391481859769
 20
467.4283576454818
 30
0.0
 11
1485.391481859769
 21
466.4283576454818
 31
0.0
  0
LINE
  5
130
330
19
100
AcDbEntity
  8
4
100
AcDbLine
 10
1485.391481859769
 20
466.4283576454818
 30
0.0
 11
1485.391481859769
 21
347.4283576454818
 31
0.0
  0
LINE
  5
131
330
19
100
AcDbEntity
  8
4
100
AcDbLine
 10
1546.391481859769
 20
467.4283576454818
 30
0.0
 11
1547.391481859769
 21
466.4283576454818
 31
0.0
  0
LINE
  5
132
330
19
100
AcDbEntity
  8
4
100
AcDbLine
 10
1547.391481859769
 20
466.4283576454818
 30
0.0
 11
1547.391481859769
 21
347.4283576454818
 31
0.0
  0
LINE
  5
133
330
19
100
AcDbEntity
  8
4
100
AcDbLine
 10
1485.391481859769
 20
466.4283576454818
 30
0.0
 11
1547.391481859769
 21
466.4283576454818
 31
0.0
  0
LINE
  5
134
330
19
100
AcDbEntity
  8
4
100
AcDbLine
 10
924.3673797439974
 20
167.4283576454818
 30
0.0
 11
924.3673797439974
 21
207.4283576454818
 31
0.0
  0
LINE
  5
135
330
19
100
AcDbEntity
  8
4
100
AcDbLine
 10
1003.367379743997
 20
203.4283576454818
 30
0.0
 11
1004.367379743997
 21
202.4283576454818
 31
0.0
  0
LINE
  5
136
330
19
100
AcDbEntity
  8
4
100
AcDbLine
 10
1003.367379743997
 20
203.4283576454818
 30
0.0
 11
924.3673797439974
 21
203.4283576454818
 31
0.0
  0
LINE
  5
137
330
19
100
AcDbEntity
  8
4
100
AcDbLine
 10
1004.367379743997
 20
172.4283576454818
 30
0.0
 11
1003.367379743997
 21
171.4283576454818
 31
0.0
  0
LINE
  5
138
330
19
100
AcDbEntity
  8
4
100
AcDbLine
 10
1004.367379743997
 20
172.4283576454818
 30
0.0
 11
1004.367379743997
 21
206.9283576454823
 31
0.0
  0
LINE
  5
139
330
19
100
AcDbEntity
  8
4
100
AcDbLine
 10
1003.367379743997
 20
171.4283576454818
 30
0.0
 11
924.3673797439974
 21
171.4283576454818
 31
0.0
  0
LINE
  5
13A
330
19
100
AcDbEntity
  8
4
100
AcDbLine
 10
1003.367379743997
 20
171.4283576454818
 30
0.0
 11
1003.367379743997
 21
203.4283576454818
 31
0.0
  0
LINE
  5
13B
330
19
100
AcDbEntity
  8
4
100
AcDbLine
 10
1646.391481859769
 20
206.9283576454823
 30
0.0
 11
1656.391481859769
 21
206.9283576454823
 31
0.0
  0
LINE
  5
13C
330
19
100
AcDbEntity
  8
4
100
AcDbLine
 10
1646.391481859769
 20
198.9283576454818
 30
0.0
 11
1656.391481859769
 21
198.9283576454818
 31
0.0
  0
LINE
  5
13D
330
19
100
AcDbEntity
  8
4
100
AcDbLine
 10
1646.391481859769
 20
206.9283576454823
 30
0.0
 11
1646.391481859769
 21
198.9283576454818
 31
0.0
  0
LINE
  5
13E
330
19
100
AcDbEntity
  8
4
100
AcDbLine
 10
1656.391481859769
 20
206.9283576454823
 30
0.0
 11
1656.391481859769
 21
198.9283576454818
 31
0.0
  0
ARC
  5
13F
330
19
100
AcDbEntity
  8
4
100
AcDbCircle
 10
1651.391481859769
 20
187.4283576454818
 30
0.0
 40
16.000005
100
AcDbArc
 50
108.209906000001
 51
71.79092399999931
  0
LINE
  5
140
330
19
100
AcDbEntity
  8
4
100
AcDbLine
 10
1485.391481859769
 20
356.4283576454818
 30
0.0
 11
1479.391481859769
 21
356.4283576454818
 31
0.0
  0
LINE
  5
141
330
19
100
AcDbEntity
  8
4
100
AcDbLine
 10
1479.391481859769
 20
356.4283576454818
 30
0.0
 11
1479.391481859769
 21
467.4283576454818
 31
0.0
  0
LINE
  5
142
330
19
100
AcDbEntity
  8
4
100
AcDbLine
 10
1479.391481859769
 20
467.4283576454818
 30
0.0
 11
1546.391481859769
 21
467.4283576454818
 31
0.0
  0
LINE
  5
143
330
19
100
AcDbEntity
  8
L-CENTER
 48
3.0
100
AcDbLine
 10
733.3673797439974
 20
106.4283576454818
 30
0.0
 11
733.3673797439974
 21
336.4283576454818
 31
0.0
  0
LINE
  5
148
330
19
100
AcDbEntity
  8
L-CENTER
 48
3.0
100
AcDbLine
 10
636.3673797439974
 20
98.02835764548126
 30
0.0
 11
636.3673797439974
 21
376.141704584079
 31
0.0
  0
LINE
  5
149
330
19
100
AcDbEntity
  8
L-CENTER
 48
3.0
100
AcDbLine
 10
646.9142683497228
 20
345.2574576454817
 30
0.0
 11
625.820491138272
 21
345.2574576454817
 31
0.0
  0
LINE
  5
14A
330
19
100
AcDbEntity
  8
L-CENTER
 48
3.0
100
AcDbLine
 10
826.3673797439974
 20
117.4283576454818
 30
0.0
 11
826.3673797439974
 21
67.42835764548181
 31
0.0
  0
LINE
  5
14B
330
19
100
AcDbEntity
  8
L-CENTER
 48
3.0
100
AcDbLine
 10
446.3673797439974
 20
67.42835764548181
 30
0.0
 11
446.3673797439974
 21
117.4283576454818
 31
0.0
  0
LINE
  5
14C
330
19
100
AcDbEntity
  8
L-CENTER
 48
3.0
100
AcDbLine
 10
1731.391481859769
 20
117.4283576454818
 30
0.0
 11
1731.391481859769
 21
67.42835764548181
 31
0.0
  0
LINE
  5
14D
330
19
100
AcDbEntity
  8
L-CENTER
 48
3.0
100
AcDbLine
 10
1276.391481859769
 20
117.4283576454818
 30
0.0
 11
1276.391481859769
 21
67.42835764548181
 31
0.0
  0
LINE
  5
14E
330
19
100
AcDbEntity
  8
L-CENTER
 48
3.0
100
AcDbLine
 10
1587.078813947206
 20
187.4283576454818
 30
0.0
 11
1715.704149772332
 21
187.4283576454818
 31
0.0
  0
LINE
  5
14F
330
19
100
AcDbEntity
  8
L-CENTER
 48
3.0
100
AcDbLine
 10
1765.166351859769
 20
258.4283576454818
 30
0.0
 11
1742.608766859769
 21
258.4283576454818
 31
0.0
  0
LINE
  5
150
330
19
100
AcDbEntity
  8
L-CENTER
 48
3.0
100
AcDbLine
 10
1759.543191859769
 20
143.4283576454818
 30
0.0
 11
1741.668336859769
 21
143.4283576454818
 31
0.0
  0
LINE
  5
151
330
19
100
AcDbEntity
  8
L-CENTER
 48
3.0
100
AcDbLine
 10
1727.417606859769
 20
345.2574576454817
 30
0.0
 11
1661.365356859769
 21
345.2574576454817
 31
0.0
  0
LINE
  5
152
330
19
100
AcDbEntity
  8
L-CENTER
 48
3.0
100
AcDbLine
 10
1331.417606859769
 20
345.2574576454817
 30
0.0
 11
1265.365356859769
 21
345.2574576454817
 31
0.0
  0
LINE
  5
153
330
19
100
AcDbEntity
  8
L-CENTER
 48
3.0
100
AcDbLine
 10
1298.391481859769
 20
378.2835826454821
 30
0.0
 11
1298.391481859769
 21
312.2313326454814
 31
0.0
  0
LINE
  5
154
330
19
100
AcDbEntity
  8
L-CENTER
 48
3.0
100
AcDbLine
 10
1694.391481859769
 20
378.2835826454821
 30
0.0
 11
1694.391481859769
 21
312.2313326454814
 31
0.0
  0
LINE
  5
155
330
19
100
AcDbEntity
  8
L-CENTER
 48
3.0
100
AcDbLine
 10
1651.391481859769
 20
251.741025558045
 30
0.0
 11
1651.391481859769
 21
123.1156897329187
 31
0.0
  0
LINE
  5
156
330
19
100
AcDbEntity
  8
L-CENTER
 48
3.0
100
AcDbLine
 10
562.8624997439974
 20
477.4283576454818
 30
0.0
 11
562.8624997439974
 21
98.02835764548126
 31
0.0
  0
LINE
  5
157
330
19
100
AcDbEntity
  8
L-CENTER
 48
3.0
100
AcDbLine
 10
1516.391481859769
 20
477.4283576454818
 30
0.0
 11
1516.391481859769
 21
98.02835764548138
 31
0.0
  0
LINE
  5
158
330
19
100
AcDbEntity
  8
4
100
AcDbLine
 10
929.3673797439974
 20
203.4283576454818
 30
0.0
 11
929.3673797439974
 21
206.9283576454823
 31
0.0
  0
LINE
  5
159
330
19
100
AcDbEntity
  8
4
100
AcDbLine
 10
1004.367379743997
 20
206.9283576454823
 30
0.0
 11
929.3673797439974
 21
206.9283576454823
 31
0.0
  0
LINE
  5
15A
330
19
100
AcDbEntity
  8
L-CENTER
 48
3.0
100
AcDbLine
 10
263.9264818477097
 20
187.4283576454818
 30
0.0
 11
1008.808277640285
 21
187.4283576454818
 31
0.0
  0
LINE
  5
15B
330
19
100
AcDbEntity
  8
4
100
AcDbLine
 10
924.3673797439974
 20
207.4283576454818
 30
0.0
 11
904.3673797439974
 21
207.4283576454818
 31
0.0
  0
LINE
  5
15C
330
19
100
AcDbEntity
  8
4
100
AcDbLine
 10
924.3673797439974
 20
167.4283576454818
 30
0.0
 11
904.3673797439974
 21
167.4283576454818
 31
0.0
  0
LINE
  5
15D
330
19
100
AcDbEntity
  8
4
100
AcDbLine
 10
903.3673797439974
 20
147.4283576454818
 30
0.0
 11
904.3673797439974
 21
147.4283576454818
 31
0.0
  0
LINE
  5
15E
330
19
100
AcDbEntity
  8
4
100
AcDbLine
 10
903.3673797439974
 20
227.4283576454818
 30
0.0
 11
904.3673797439974
 21
227.4283576454818
 31
0.0
  0
LINE
  5
15F
330
19
100
AcDbEntity
  8
4
100
AcDbLine
 10
904.3673797439974
 20
227.4283576454818
 30
0.0
 11
904.3673797439974
 21
147.4283576454818
 31
0.0
  0
LINE
  5
160
330
19
100
AcDbEntity
  8
4
100
AcDbLine
 10
369.3673797439974
 20
147.4283576454818
 30
0.0
 11
368.3673797439978
 21
147.4283576454818
 31
0.0
  0
LINE
  5
161
330
19
100
AcDbEntity
  8
4
100
AcDbLine
 10
369.3673797439974
 20
227.4283576454818
 30
0.0
 11
368.3673797439978
 21
227.4283576454818
 31
0.0
  0
LINE
  5
162
330
19
100
AcDbEntity
  8
4
100
AcDbLine
 10
368.3673797439978
 20
227.4283576454818
 30
0.0
 11
368.3673797439978
 21
147.4283576454818
 31
0.0
  0
CIRCLE
  5
163
330
19
100
AcDbEntity
  8
4
100
AcDbCircle
 10
1651.391481859769
 20
187.4283576454818
 30
0.0
 40
40.0
  0
ARC
  5
164
330
19
100
AcDbEntity
  8
4
100
AcDbCircle
 10
1651.391481859769
 20
187.4283576454818
 30
0.0
 40
20.0
100
AcDbArc
 50
77.16143199999975
 51
102.8385680000003
  0
ARC
  5
165
330
19
100
AcDbEntity
  8
4
100
AcDbCircle
 10
1651.391481859769
 20
187.4283576454818
 30
0.0
 40
20.0
100
AcDbArc
 50
104.4775120000008
 51
75.52248799999924
  0
LINE
  5
166
330
19
100
AcDbEntity
  8
4
100
AcDbLine
 10
693.3673797439978
 20
326.4283576454818
 30
0.0
 11
742.8977246293944
 21
326.4283576454818
 31
0.0
  0
LINE
  5
167
330
19
100
AcDbEntity
  8
4
100
AcDbLine
 10
773.3673797439974
 20
325.4283576454814
 30
0.0
 11
773.3673797439974
 21
326.4283576454818
 31
0.0
  0
LINE
  5
168
330
19
100
AcDbEntity
  8
4
100
AcDbLine
 10
693.3673797439978
 20
325.4283576454814
 30
0.0
 11
693.3673797439978
 21
326.4283576454818
 31
0.0
  0
ARC
  5
169
330
19
100
AcDbEntity
  8
4
100
AcDbCircle
 10
396.3673797439974
 20
117.4283576454818
 30
0.0
 40
5.0
100
AcDbArc
 50
0.0
 51
90.0
  0
ARC
  5
16A
330
19
100
AcDbEntity
  8
4
100
AcDbCircle
 10
396.3673797439974
 20
112.4283576454818
 30
0.0
 40
5.0
100
AcDbArc
 50
270.0
 51
0.0
  0
ARC
  5
16B
330
19
100
AcDbEntity
  8
4
100
AcDbCircle
 10
876.3673797439974
 20
112.4283576454818
 30
0.0
 40
5.0
100
AcDbArc
 50
180.0
 51
270.0
  0
ARC
  5
16C
330
19
100
AcDbEntity
  8
4
100
AcDbCircle
 10
882.3673797439978
 20
132.4283576454818
 30
0.0
 40
10.0
100
AcDbArc
 50
270.0
 51
0.0
  0
ARC
  5
16D
330
19
100
AcDbEntity
  8
4
100
AcDbCircle
 10
390.3673797439974
 20
132.4283576454818
 30
0.0
 40
10.0
100
AcDbArc
 50
180.0
 51
270.0
  0
ARC
  5
16E
330
19
100
AcDbEntity
  8
4
100
AcDbCircle
 10
378.3673797439978
 20
243.4283576454818
 30
0.0
 40
2.0
100
AcDbArc
 50
270.0
 51
0.0
  0
ARC
  5
16F
330
19
100
AcDbEntity
  8
4
100
AcDbCircle
 10
378.4091197439975
 20
131.4283576454818
 30
0.0
 40
2.0
100
AcDbArc
 50
4.780191999998789
 51
90.0
  0
ARC
  5
170
330
19
100
AcDbEntity
  8
4
100
AcDbCircle
 10
894.3256397439973
 20
131.4283576454818
 30
0.0
 40
2.0
100
AcDbArc
 50
90.0
 51
175.2198080000012
  0
ARC
  5
171
330
19
100
AcDbEntity
  8
4
100
AcDbCircle
 10
894.3673797439974
 20
243.4283576454818
 30
0.0
 40
2.0
100
AcDbArc
 50
180.0
 51
270.0
  0
ARC
  5
172
330
19
100
AcDbEntity
  8
4
100
AcDbCircle
 10
899.3673797439974
 20
240.4283576454814
 30
0.0
 40
1.0
100
AcDbArc
 50
180.0
 51
270.0
  0
ARC
  5
173
330
19
100
AcDbEntity
  8
4
100
AcDbCircle
 10
899.3673797439974
 20
134.4283576454823
 30
0.0
 40
1.0
100
AcDbArc
 50
90.0
 51
180.0
  0
ARC
  5
174
330
19
100
AcDbEntity
  8
4
100
AcDbCircle
 10
373.3673797439978
 20
240.4283576454814
 30
0.0
 40
1.0
100
AcDbArc
 50
270.0
 51
0.0
  0
ARC
  5
175
330
19
100
AcDbEntity
  8
4
100
AcDbCircle
 10
373.3673797439978
 20
134.4283576454823
 30
0.0
 40
1.0
100
AcDbArc
 50
0.0
 51
90.0
  0
ARC
  5
176
330
19
100
AcDbEntity
  8
4
100
AcDbCircle
 10
534.3673797439974
 20
114.4283576454823
 30
0.0
 40
8.0
100
AcDbArc
 50
90.0
 51
180.0
  0
ARC
  5
177
330
19
100
AcDbEntity
  8
4
100
AcDbCircle
 10
738.3673797439974
 20
114.4283576454823
 30
0.0
 40
8.0
100
AcDbArc
 50
0.0
 51
90.0
  0
LINE
  5
178
330
19
100
AcDbEntity
  8
4
100
AcDbLine
 10
745.7835797439975
 20
116.4283576454818
 30
0.0
 11
693.3673797439978
 21
116.4283576454818
 31
0.0
  0
LINE
  5
179
330
19
100
AcDbEntity
  8
4
100
AcDbLine
 10
693.3673797439978
 20
116.4283576454818
 30
0.0
 11
693.3673797439978
 21
117.4283576454818
 31
0.0
  0
ARC
  5
17A
330
19
100
AcDbEntity
  8
4
100
AcDbCircle
 10
646.8624997439974
 20
109.0283576454813
 30
0.0
 40
1.0
100
AcDbArc
 50
270.0
 51
0.0
  0
ARC
  5
17B
330
19
100
AcDbEntity
  8
4
100
AcDbCircle
 10
1261.391481859769
 20
117.4283576454818
 30
0.0
 40
5.0
100
AcDbArc
 50
0.0
 51
90.0
  0
ARC
  5
17C
330
19
100
AcDbEntity
  8
4
100
AcDbCircle
 10
1261.391481859769
 20
112.4283576454818
 30
0.0
 40
5.0
100
AcDbArc
 50
270.0
 51
0.0
  0
ARC
  5
17D
330
19
100
AcDbEntity
  8
4
100
AcDbCircle
 10
1731.391481859769
 20
112.4283576454818
 30
0.0
 40
5.0
100
AcDbArc
 50
180.0
 51
270.0
  0
ARC
  5
17E
330
19
100
AcDbEntity
  8
4
100
AcDbCircle
 10
1731.391481859769
 20
117.4283576454818
 30
0.0
 40
5.0
100
AcDbArc
 50
90.0
 51
180.0
  0
LINE
  5
17F
330
19
100
AcDbEntity
  8
4
100
AcDbLine
 10
1563.391481859769
 20
122.4283576454818
 30
0.0
 11
1563.391481859769
 21
117.4283576454818
 31
0.0
  0
LINE
  5
180
330
19
100
AcDbEntity
  8
4
100
AcDbLine
 10
1443.391481859769
 20
122.4283576454818
 30
0.0
 11
1443.391481859769
 21
117.4283576454818
 31
0.0
  0
LINE
  5
181
330
19
100
AcDbEntity
  8
4
100
AcDbLine
 10
1543.391481859769
 20
117.4283576454818
 30
0.0
 11
1543.391481859769
 21
116.4283576454818
 31
0.0
  0
LINE
  5
182
330
19
100
AcDbEntity
  8
4
100
AcDbLine
 10
1463.391481859769
 20
117.4283576454818
 30
0.0
 11
1463.391481859769
 21
116.4283576454818
 31
0.0
  0
LINE
  5
183
330
19
100
AcDbEntity
  8
4
100
AcDbLine
 10
1543.391481859769
 20
116.4283576454818
 30
0.0
 11
1463.391481859769
 21
116.4283576454818
 31
0.0
  0
LINE
  5
184
330
19
100
AcDbEntity
  8
4
100
AcDbLine
 10
1431.391481859769
 20
119.4283576454823
 30
0.0
 11
1443.391481859769
 21
119.4283576454823
 31
0.0
  0
LINE
  5
185
330
19
100
AcDbEntity
  8
4
100
AcDbLine
 10
1563.391481859769
 20
119.4283576454823
 30
0.0
 11
1601.391481859769
 21
119.4283576454823
 31
0.0
  0
LINE
  5
186
330
19
100
AcDbEntity
  8
L-CENTER
 48
3.0
100
AcDbLine
 10
511.5972547439974
 20
347.7407276454824
 30
0.0
 11
511.5972547439974
 21
306.9552902288342
 31
0.0
  0
LINE
  5
187
330
19
100
AcDbEntity
  8
4
100
AcDbLine
 10
1563.391481859769
 20
325.4283576454814
 30
0.0
 11
1507.361136974372
 21
325.4283576454814
 31
0.0
  0
LINE
  5
188
330
19
100
AcDbEntity
  8
4
100
AcDbLine
 10
1431.391481859769
 20
318.4283576454818
 30
0.0
 11
1431.391481859769
 21
334.4283576454823
 31
0.0
  0
LINE
  5
189
330
19
100
AcDbEntity
  8
4
100
AcDbLine
 10
1601.391481859769
 20
318.4283576454818
 30
0.0
 11
1601.391481859769
 21
334.4283576454823
 31
0.0
  0
LINE
  5
18A
330
19
100
AcDbEntity
  8
4
100
AcDbLine
 10
1601.391481859769
 20
334.4283576454823
 30
0.0
 11
1431.391481859769
 21
334.4283576454823
 31
0.0
  0
LINE
  5
18B
330
19
100
AcDbEntity
  8
L-CENTER
 48
3.0
100
AcDbLine
 10
1503.391481859769
 20
106.4283576454818
 30
0.0
 11
1503.391481859769
 21
336.4283576454818
 31
0.0
  0
LINE
  5
18C
330
19
100
AcDbEntity
  8
4
100
AcDbLine
 10
1563.391481859769
 20
318.4283576454818
 30
0.0
 11
1563.391481859769
 21
325.4283576454814
 31
0.0
  0
LINE
  5
18D
330
19
100
AcDbEntity
  8
4
100
AcDbLine
 10
1443.391481859769
 20
318.4283576454818
 30
0.0
 11
1443.391481859769
 21
325.4283576454814
 31
0.0
  0
LINE
  5
18E
330
19
100
AcDbEntity
  8
4
100
AcDbLine
 10
1543.391481859769
 20
325.4283576454814
 30
0.0
 11
1543.391481859769
 21
326.4283576454818
 31
0.0
  0
LINE
  5
18F
330
19
100
AcDbEntity
  8
4
100
AcDbLine
 10
1463.391481859769
 20
325.4283576454814
 30
0.0
 11
1463.391481859769
 21
326.4283576454818
 31
0.0
  0
LINE
  5
190
330
19
100
AcDbEntity
  8
4
100
AcDbLine
 10
1543.391481859769
 20
326.4283576454818
 30
0.0
 11
1507.361136974372
 21
326.4283576454818
 31
0.0
  0
LINE
  5
191
330
19
100
AcDbEntity
  8
4
100
AcDbLine
 10
1431.391481859769
 20
323.4283576454818
 30
0.0
 11
1443.391481859769
 21
323.4283576454818
 31
0.0
  0
LINE
  5
192
330
19
100
AcDbEntity
  8
4
100
AcDbLine
 10
1563.391481859769
 20
323.4283576454818
 30
0.0
 11
1601.391481859769
 21
323.4283576454818
 31
0.0
  0
ARC
  5
193
330
19
100
AcDbEntity
  8
4
100
AcDbCircle
 10
1603.391481859769
 20
114.4283576454823
 30
0.0
 40
8.0
100
AcDbArc
 50
0.0
 51
90.0
  0
ARC
  5
194
330
19
100
AcDbEntity
  8
4
100
AcDbCircle
 10
1404.391481859769
 20
114.4283576454823
 30
0.0
 40
8.0
100
AcDbArc
 50
90.0
 51
180.0
  0
ARC
  5
195
330
19
100
AcDbEntity
  8
4
100
AcDbCircle
 10
1753.391481859769
 20
123.4283576454818
 30
0.0
 40
1.0
100
AcDbArc
 50
270.0
 51
0.0
  0
ARC
  5
196
330
19
100
AcDbEntity
  8
4
100
AcDbCircle
 10
388.3673797439978
 20
316.4283576454818
 30
0.0
 40
2.0
100
AcDbArc
 50
90.0
 51
180.0
  0
ARC
  5
197
330
19
100
AcDbEntity
  8
4
100
AcDbCircle
 10
884.3673797439974
 20
316.4283576454818
 30
0.0
 40
2.0
100
AcDbArc
 50
0.0
 51
90.0
  0
ARC
  5
198
330
19
100
AcDbEntity
  8
4
100
AcDbCircle
 10
1248.391481859769
 20
316.4283576454818
 30
0.0
 40
2.0
100
AcDbArc
 50
90.0
 51
180.0
  0
ARC
  5
199
330
19
100
AcDbEntity
  8
4
100
AcDbCircle
 10
1744.391481859769
 20
316.4283576454818
 30
0.0
 40
2.0
100
AcDbArc
 50
0.0
 51
90.0
  0
LINE
  5
227
330
19
100
AcDbEntity
  8
4
 48
3.0
100
AcDbLine
 10
374.3673797439969
 20
1232.386097198398
 30
0.0
 11
456.3673797439969
 21
1232.386097198398
 31
0.0
  0
LINE
  5
228
330
19
100
AcDbEntity
  8
4
 48
3.0
100
AcDbLine
 10
374.3673797439969
 20
1124.386097198398
 30
0.0
 11
396.6237666903853
 21
1124.386097198398
 31
0.0
  0
LINE
  5
229
330
19
100
AcDbEntity
  8
L-CENTER
 48
3.0
100
AcDbLine
 10
263.9264818477095
 20
1178.386097198398
 30
0.0
 11
1008.808277640285
 21
1178.386097198398
 31
0.0
  0
LINE
  5
22A
330
19
100
AcDbEntity
  8
L-CENTER
 48
3.0
100
AcDbLine
 10
369.24188639227
 20
1023.386097198398
 30
0.0
 11
903.4928730957248
 21
1023.386097198398
 31
0.0
  0
CIRCLE
  5
22B
330
19
100
AcDbEntity
  8
4
100
AcDbCircle
 10
636.3673797439974
 20
1023.386097198398
 30
0.0
 40
256.0
  0
LINE
  5
22C
330
19
100
AcDbEntity
  8
4
 48
3.0
100
AcDbLine
 10
374.3673797439969
 20
1232.386097198398
 30
0.0
 11
374.3673797439969
 21
1124.386097198398
 31
0.0
  0
LINE
  5
22D
330
19
100
AcDbEntity
  8
4
 48
3.0
100
AcDbLine
 10
380.3673797439969
 20
1124.386097198398
 30
0.0
 11
380.3673797439969
 21
1023.386097198398
 31
0.0
  0
LINE
  5
22E
330
19
100
AcDbEntity
  8
4
 48
3.0
100
AcDbLine
 10
369.3673797439969
 20
1230.386097198398
 30
0.0
 11
369.3673797439969
 21
1126.386097198398
 31
0.0
  0
LINE
  5
22F
330
19
100
AcDbEntity
  8
4
 48
3.0
100
AcDbLine
 10
369.3673797439969
 20
1126.386097198398
 30
0.0
 11
374.3673797439969
 21
1126.386097198398
 31
0.0
  0
LINE
  5
230
330
19
100
AcDbEntity
  8
4
 48
3.0
100
AcDbLine
 10
369.3673797439969
 20
1230.386097198398
 30
0.0
 11
374.3673797439969
 21
1230.386097198398
 31
0.0
  0
LINE
  5
231
330
19
100
AcDbEntity
  8
L-CENTER
 48
3.0
100
AcDbLine
 10
636.3673797439969
 20
1302.665687587843
 30
0.0
 11
636.3673797439978
 21
756.2606038466702
 31
0.0
  0
CIRCLE
  5
232
330
19
100
AcDbEntity
  8
4
100
AcDbCircle
 10
446.3673797439978
 20
803.3860971983977
 30
0.0
 40
11.0
  0
LINE
  5
233
330
19
100
AcDbEntity
  8
L-CENTER
 48
3.0
100
AcDbLine
 10
446.3673797439978
 20
824.7040996868441
 30
0.0
 11
446.3673797439978
 21
782.0680947099513
 31
0.0
  0
LINE
  5
234
330
19
100
AcDbEntity
  8
4
 48
3.0
100
AcDbLine
 10
386.3673797439969
 20
918.3860971983977
 30
0.0
 11
386.3673797439983
 21
778.3860971983977
 31
0.0
  0
LINE
  5
235
330
19
100
AcDbEntity
  8
4
100
AcDbLine
 10
504.3834055942029
 20
773.3860971983977
 30
0.0
 11
391.3673797439983
 21
773.3860971983977
 31
0.0
  0
ARC
  5
236
330
19
100
AcDbEntity
  8
4
100
AcDbCircle
 10
391.3673797439983
 20
778.3860971983977
 30
0.0
 40
5.0
100
AcDbArc
 50
180.0
 51
270.0
  0
LINE
  5
237
330
19
100
AcDbEntity
  8
4
100
AcDbLine
 10
507.8115982093618
 20
774.7463863041962
 30
0.0
 11
522.4295228599176
 21
788.5148043991121
 31
0.0
  0
ARC
  5
238
330
19
100
AcDbEntity
  8
4
100
AcDbCircle
 10
504.3834055942029
 20
778.3860971983977
 30
0.0
 40
5.0
100
AcDbArc
 50
270.0
 51
313.2858440773871
  0
ARC
  5
239
330
19
100
AcDbEntity
  8
4
100
AcDbCircle
 10
527.9146310441724
 20
782.6912669683893
 30
0.0
 40
8.0
100
AcDbArc
 50
65.7445318809049
 51
133.2858440773849
  0
LINE
  5
23A
330
19
100
AcDbEntity
  8
L-CENTER
 48
3.0
100
AcDbLine
 10
467.6853822324442
 20
803.3860971983977
 30
0.0
 11
425.0493772555515
 21
803.3860971983977
 31
0.0
  0
LINE
  5
23B
330
19
100
AcDbEntity
  8
4
100
AcDbLine
 10
391.3673797439969
 20
923.3860971983977
 30
0.0
 11
400.7066065975105
 21
923.3860971983977
 31
0.0
  0
ARC
  5
23C
330
19
100
AcDbEntity
  8
4
100
AcDbCircle
 10
391.3673797439969
 20
918.3860971983977
 30
0.0
 40
5.0
100
AcDbArc
 50
90.0
 51
180.0
  0
LINE
  5
23D
330
19
100
AcDbEntity
  8
4
100
AcDbLine
 10
553.5317736494444
 20
1265.613804868161
 30
0.0
 11
456.3673797439969
 21
1232.386097198398
 31
0.0
  0
LINE
  5
23E
330
19
100
AcDbEntity
  8
L-CENTER
 48
3.0
100
AcDbLine
 10
446.3673797439974
 20
1232.386097198398
 30
0.0
 11
446.3673797439974
 21
1279.116856893008
 31
0.0
  0
LINE
  5
23F
330
19
100
AcDbEntity
  8
4
100
AcDbLine
 10
386.3673797439974
 20
1232.386097198398
 30
0.0
 11
386.3673797439974
 21
1283.386097198398
 31
0.0
  0
ARC
  5
240
330
19
100
AcDbEntity
  8
4
100
AcDbCircle
 10
396.6237666903853
 20
1121.386097198398
 30
0.0
 40
3.0
100
AcDbArc
 50
337.7667282017033
 51
90.0
  0
LINE
  5
241
330
19
100
AcDbEntity
  8
4
100
AcDbLine
 10
503.5145904474143
 20
1288.386097198398
 30
0.0
 11
391.3673797439974
 21
1288.386097198398
 31
0.0
  0
LINE
  5
242
330
19
100
AcDbEntity
  8
L-CENTER
 48
3.0
100
AcDbLine
 10
467.0981394386076
 20
1258.386097198398
 30
0.0
 11
425.6366200493871
 21
1258.386097198398
 31
0.0
  0
ARC
  5
243
330
19
100
AcDbEntity
  8
4
100
AcDbCircle
 10
391.3673797439974
 20
1283.386097198398
 30
0.0
 40
5.0
100
AcDbArc
 50
90.0
 51
180.0
  0
CIRCLE
  5
244
330
19
100
AcDbEntity
  8
4
100
AcDbCircle
 10
446.3673797439974
 20
1258.386097198398
 30
0.0
 40
11.0
  0
LINE
  5
245
330
19
100
AcDbEntity
  8
4
100
AcDbLine
 10
507.8189453856617
 20
1285.930213659094
 30
0.0
 11
522.6982511656852
 21
1260.756125011278
 31
0.0
  0
ARC
  5
246
330
19
100
AcDbEntity
  8
4
100
AcDbCircle
 10
503.5145904474143
 20
1283.386097198398
 30
0.0
 40
5.0
100
AcDbArc
 50
30.58548156623509
 51
90.0
  0
ARC
  5
247
330
19
100
AcDbEntity
  8
4
100
AcDbCircle
 10
529.5852190668811
 20
1264.826711348392
 30
0.0
 40
8.0
100
AcDbArc
 50
210.5854815662338
 51
259.9805267995794
  0
LINE
  5
248
330
19
100
AcDbEntity
  8
4
100
AcDbLine
 10
621.3673797439969
 20
1286.886097198396
 30
0.0
 11
651.3673797439969
 21
1286.886097198396
 31
0.0
  0
LINE
  5
249
330
19
100
AcDbEntity
  8
4
100
AcDbLine
 10
621.3673797439969
 20
1288.386097198396
 30
0.0
 11
651.3673797439969
 21
1288.386097198396
 31
0.0
  0
ARC
  5
24A
330
19
100
AcDbEntity
  8
4
100
AcDbCircle
 10
618.3673797439969
 20
1281.759857476023
 30
0.0
 40
3.0
100
AcDbArc
 50
273.9851585080801
 51
0.0
  0
LINE
  5
24B
330
19
100
AcDbEntity
  8
4
 48
3.0
100
AcDbLine
 10
621.3673797439969
 20
1288.386097198396
 30
0.0
 11
621.3673797439969
 21
1281.759857476023
 31
0.0
  0
LINE
  5
24C
330
19
100
AcDbEntity
  8
4
 48
3.0
100
AcDbLine
 10
651.3673797439969
 20
1288.386097198396
 30
0.0
 11
651.3673797439969
 21
1281.759857476023
 31
0.0
  0
ARC
  5
24D
330
19
100
AcDbEntity
  8
4
100
AcDbCircle
 10
654.3673797439969
 20
1281.759857476023
 30
0.0
 40
3.0
100
AcDbArc
 50
180.0
 51
266.0148414919199
  0
LINE
  5
24E
330
19
100
AcDbEntity
  8
4
100
AcDbLine
 10
768.3513538937923
 20
773.3860971983977
 30
0.0
 11
881.3673797439978
 21
773.3860971983977
 31
0.0
  0
LINE
  5
24F
330
19
100
AcDbEntity
  8
L-CENTER
 48
3.0
100
AcDbLine
 10
805.0493772555515
 20
803.3860971983977
 30
0.0
 11
847.6853822324442
 21
803.3860971983977
 31
0.0
  0
CIRCLE
  5
250
330
19
100
AcDbEntity
  8
4
100
AcDbCircle
 10
826.3673797439978
 20
803.3860971983977
 30
0.0
 40
11.0
  0
LINE
  5
251
330
19
100
AcDbEntity
  8
L-CENTER
 48
3.0
100
AcDbLine
 10
826.3673797439978
 20
824.7040996868441
 30
0.0
 11
826.3673797439978
 21
782.0680947099513
 31
0.0
  0
ARC
  5
252
330
19
100
AcDbEntity
  8
4
100
AcDbCircle
 10
768.3513538937923
 20
778.3860971983977
 30
0.0
 40
5.0
100
AcDbArc
 50
226.7141559226161
 51
270.0
  0
ARC
  5
253
330
19
100
AcDbEntity
  8
4
100
AcDbCircle
 10
744.8201284438223
 20
782.6912669683893
 30
0.0
 40
8.0
100
AcDbArc
 50
46.71415592261798
 51
114.2554681190951
  0
LINE
  5
254
330
19
100
AcDbEntity
  8
4
100
AcDbLine
 10
764.9231612786334
 20
774.746386304196
 30
0.0
 11
750.3052366280763
 21
788.5148043991117
 31
0.0
  0
LINE
  5
255
330
19
100
AcDbEntity
  8
4
 48
3.0
100
AcDbLine
 10
886.3673797439978
 20
918.3860971983977
 30
0.0
 11
886.3673797439978
 21
778.3860971983977
 31
0.0
  0
ARC
  5
256
330
19
100
AcDbEntity
  8
4
 48
3.0
100
AcDbCircle
 10
881.3673797439978
 20
778.3860971983977
 30
0.0
 40
5.0
100
AcDbArc
 50
270.0
 51
0.0
  0
ARC
  5
257
330
19
100
AcDbEntity
  8
4
 48
3.0
100
AcDbCircle
 10
881.3673797439978
 20
918.3860971983977
 30
0.0
 40
5.0
100
AcDbArc
 50
0.0
 51
90.0
  0
LINE
  5
258
330
19
100
AcDbEntity
  8
4
100
AcDbLine
 10
872.0281528904843
 20
923.3860971983977
 30
0.0
 11
881.3673797439978
 21
923.3860971983977
 31
0.0
  0
LINE
  5
259
330
19
100
AcDbEntity
  8
4
 48
3.0
100
AcDbLine
 10
821.3673797439965
 20
1232.386097198398
 30
0.0
 11
898.3673797439965
 21
1232.386097198398
 31
0.0
  0
LINE
  5
25A
330
19
100
AcDbEntity
  8
4
100
AcDbLine
 10
769.2201690405777
 20
1288.386097198398
 30
0.0
 11
881.3673797439978
 21
1288.386097198398
 31
0.0
  0
LINE
  5
25B
330
19
100
AcDbEntity
  8
L-CENTER
 48
3.0
100
AcDbLine
 10
805.6366200493871
 20
1258.386097198398
 30
0.0
 11
847.0981394386076
 21
1258.386097198398
 31
0.0
  0
LINE
  5
25C
330
19
100
AcDbEntity
  8
4
100
AcDbLine
 10
715.6092645366748
 20
1266.813136975215
 30
0.0
 11
821.3673797439965
 21
1232.386097198398
 31
0.0
  0
ARC
  5
25D
330
19
100
AcDbEntity
  8
4
100
AcDbCircle
 10
769.2201690405777
 20
1283.386097198398
 30
0.0
 40
5.0
100
AcDbArc
 50
90.0
 51
149.4145184337652
  0
ARC
  5
25E
330
19
100
AcDbEntity
  8
4
100
AcDbCircle
 10
743.1495404211114
 20
1264.826711348393
 30
0.0
 40
8.0
100
AcDbArc
 50
285.9222816233575
 51
329.4145184337626
  0
LINE
  5
25F
330
19
100
AcDbEntity
  8
4
100
AcDbLine
 10
764.9158141023304
 20
1285.930213659094
 30
0.0
 11
750.0365083223069
 21
1260.756125011279
 31
0.0
  0
CIRCLE
  5
260
330
19
100
AcDbEntity
  8
4
100
AcDbCircle
 10
826.3673797439974
 20
1258.386097198398
 30
0.0
 40
11.0
  0
LINE
  5
261
330
19
100
AcDbEntity
  8
L-CENTER
 48
3.0
100
AcDbLine
 10
826.3673797439974
 20
1237.655337503787
 30
0.0
 11
826.3673797439974
 21
1279.116856893008
 31
0.0
  0
LINE
  5
262
330
19
100
AcDbEntity
  8
4
100
AcDbLine
 10
886.3673797439974
 20
1232.386097198398
 30
0.0
 11
886.3673797439978
 21
1283.386097198398
 31
0.0
  0
LINE
  5
263
330
19
100
AcDbEntity
  8
4
 48
3.0
100
AcDbLine
 10
898.3673797439965
 20
1232.386097198398
 30
0.0
 11
898.3673797439974
 21
1124.386097198398
 31
0.0
  0
LINE
  5
264
330
19
100
AcDbEntity
  8
4
 48
3.0
100
AcDbLine
 10
876.1109927976095
 20
1124.386097198398
 30
0.0
 11
898.3673797439974
 21
1124.386097198398
 31
0.0
  0
ARC
  5
265
330
19
100
AcDbEntity
  8
4
100
AcDbCircle
 10
876.1109927976095
 20
1121.386097198398
 30
0.0
 40
3.0
100
AcDbArc
 50
90.0
 51
202.2332717983011
  0
LINE
  5
266
330
19
100
AcDbEntity
  8
4
 48
3.0
100
AcDbLine
 10
892.3673797439974
 20
1124.386097198398
 30
0.0
 11
892.3673797439974
 21
1023.386097198398
 31
0.0
  0
LINE
  5
267
330
19
100
AcDbEntity
  8
4
 48
3.0
100
AcDbLine
 10
903.3673797439969
 20
1230.386097198398
 30
0.0
 11
903.3673797439969
 21
1126.386097198398
 31
0.0
  0
LINE
  5
268
330
19
100
AcDbEntity
  8
4
 48
3.0
100
AcDbLine
 10
898.3673797439978
 20
1126.386097198398
 30
0.0
 11
903.3673797439969
 21
1126.386097198398
 31
0.0
  0
LINE
  5
269
330
19
100
AcDbEntity
  8
4
 48
3.0
100
AcDbLine
 10
898.3673797439965
 20
1230.386097198398
 30
0.0
 11
903.3673797439969
 21
1230.386097198398
 31
0.0
  0
ARC
  5
26A
330
19
100
AcDbEntity
  8
4
100
AcDbCircle
 10
881.3673797439978
 20
1283.386097198398
 30
0.0
 40
5.0
100
AcDbArc
 50
0.0
 51
90.0
  0
LINE
  5
26B
330
19
100
AcDbEntity
  8
L-CENTER
 48
3.0
100
AcDbLine
 10
508.8673797439978
 20
802.5496192333662
 30
0.0
 11
528.8673797439978
 21
837.1906353847435
 31
0.0
  0
LINE
  5
26C
330
19
100
AcDbEntity
  8
L-CENTER
 48
3.0
100
AcDbLine
 10
763.8673797439969
 20
802.5496192333662
 30
0.0
 11
743.8673797439969
 21
837.1906353847435
 31
0.0
  0
CIRCLE
  5
26D
330
19
100
AcDbEntity
  8
L-CENTER
 48
3.0
100
AcDbCircle
 10
636.3673797439974
 20
1023.386097198398
 30
0.0
 40
235.0
  0
ARC
  5
26E
330
19
100
AcDbEntity
  8
4
100
AcDbCircle
 10
636.3673797439974
 20
1023.386097198398
 30
0.0
 40
220.0
100
AcDbArc
 50
271.1989487419143
 51
88.80105125808588
  0
LINE
  5
26F
330
19
100
AcDbEntity
  8
L-CENTER
 48
3.0
100
AcDbLine
 10
662.3049715366978
 20
1030.386097198398
 30
0.0
 11
804.429787951296
 21
1030.386097198398
 31
0.0
  0
CIRCLE
  5
270
330
19
100
AcDbEntity
  8
4
100
AcDbCircle
 10
733.3673797439978
 20
1030.386097198398
 30
0.0
 40
60.0
  0
CIRCLE
  5
271
330
19
100
AcDbEntity
  8
4
100
AcDbCircle
 10
733.3673797439978
 20
1030.386097198398
 30
0.0
 40
40.0
  0
ARC
  5
272
330
19
100
AcDbEntity
  8
4
100
AcDbCircle
 10
636.3673797439978
 20
1428.386097198397
 30
0.0
 40
500.0
100
AcDbArc
 50
244.5256305487904
 51
268.0346746282652
  0
ARC
  5
273
330
19
100
AcDbEntity
  8
4
100
AcDbCircle
 10
636.3673797439978
 20
1428.386097198397
 30
0.0
 40
500.0
100
AcDbArc
 50
271.9653253717347
 51
295.4743694512095
  0
ARC
  5
274
330
19
100
AcDbEntity
  8
4
100
AcDbCircle
 10
636.3673797439978
 20
658.3860971983977
 30
0.0
 40
500.0
100
AcDbArc
 50
66.53863810537607
 51
88.0346746282654
  0
LINE
  5
275
330
19
100
AcDbEntity
  8
L-CENTER
 48
3.0
100
AcDbLine
 10
508.8673797439978
 20
1244.22257516343
 30
0.0
 11
528.8673797439978
 21
1209.581559012052
 31
0.0
  0
LINE
  5
276
330
19
100
AcDbEntity
  8
L-CENTER
 48
3.0
100
AcDbLine
 10
463.2487668675167
 20
1043.386097198398
 30
0.0
 11
662.4757288453238
 21
1043.386097198398
 31
0.0
  0
ARC
  5
277
330
19
100
AcDbEntity
  8
4
100
AcDbCircle
 10
636.3673797439978
 20
658.3860971983977
 30
0.0
 40
500.0
100
AcDbArc
 50
91.96532537173466
 51
113.4613618946239
  0
CIRCLE
  5
278
330
19
100
AcDbEntity
  8
4
100
AcDbCircle
 10
562.8622478564207
 20
1043.386097198398
 30
0.0
 40
85.0
  0
LINE
  5
279
330
19
100
AcDbEntity
  8
L-CENTER
 48
3.0
100
AcDbLine
 10
562.8622478564203
 20
1142.999578187301
 30
0.0
 11
562.8622478564203
 21
943.7726162094941
 31
0.0
  0
LINE
  5
27A
330
19
100
AcDbEntity
  8
L-CENTER
 48
3.0
100
AcDbLine
 10
606.3673797439978
 20
825.3860971983977
 30
0.0
 11
666.3673797439978
 21
825.3860971983977
 31
0.0
  0
ARC
  5
27B
330
19
100
AcDbEntity
  8
4
100
AcDbCircle
 10
636.3673797439978
 20
825.3860971983977
 30
0.0
 40
17.5
100
AcDbArc
 50
106.6015495990202
 51
253.3984504009798
  0
LINE
  5
27C
330
19
100
AcDbEntity
  8
L-CENTER
 48
3.0
100
AcDbLine
 10
606.3673797439978
 20
1221.386097198398
 30
0.0
 11
666.3673797439978
 21
1221.386097198398
 31
0.0
  0
CIRCLE
  5
27D
330
19
100
AcDbEntity
  8
4
100
AcDbCircle
 10
636.3673797439978
 20
1168.386097198398
 30
0.0
 40
20.0
  0
ARC
  5
27E
330
19
100
AcDbEntity
  8
4
100
AcDbCircle
 10
636.3673797439978
 20
1221.386097198398
 30
0.0
 40
17.5
100
AcDbArc
 50
106.6015495990234
 51
253.3984504009766
  0
LINE
  5
27F
330
19
100
AcDbEntity
  8
L-CENTER
 48
3.0
100
AcDbLine
 10
763.8673797439969
 20
1244.22257516343
 30
0.0
 11
743.8673797439969
 21
1209.581559012052
 31
0.0
  0
LINE
  5
280
330
19
100
AcDbEntity
  8
L-CENTER
 48
3.0
100
AcDbLine
 10
733.3673797439969
 20
1101.448505405697
 30
0.0
 11
733.3673797439969
 21
959.3236889910991
 31
0.0
  0
CIRCLE
  5
281
330
19
100
AcDbEntity
  8
4
100
AcDbCircle
 10
636.3673797439974
 20
1023.386097198397
 30
0.0
 40
250.0
  0
CIRCLE
  5
282
330
19
100
AcDbEntity
  8
4
100
AcDbCircle
 10
562.8622478564203
 20
1043.386097198398
 30
0.0
 40
45.0
  0
LINE
  5
283
330
19
100
AcDbEntity
  8
L-CENTER
 48
3.0
100
AcDbLine
 10
501.7238368674271
 20
1104.524508187391
 30
0.0
 11
521.470175573364
 21
1084.778169481453
 31
0.0
  0
CIRCLE
  5
284
330
19
100
AcDbEntity
  8
L-CENTER
 48
3.0
100
AcDbCircle
 10
562.8622478564203
 20
1043.386097198398
 30
0.0
 40
72.5
  0
LINE
  5
285
330
19
100
AcDbEntity
  8
L-CENTER
 48
3.0
100
AcDbLine
 10
614.1277447439975
 20
94.71598764548116
 30
0.0
 11
614.1277447439975
 21
133.1953980824801
 31
0.0
  0
LINE
  5
286
330
19
100
AcDbEntity
  8
4
100
AcDbLine
 10
509.3673797439974
 20
1221.417239530439
 30
0.0
 11
518.8673797439974
 21
1215.932411973138
 31
0.0
  0
LINE
  5
287
330
19
100
AcDbEntity
  8
4
100
AcDbLine
 10
518.8673797439974
 20
1215.932411973138
 30
0.0
 11
528.3673797439974
 21
1221.417239530439
 31
0.0
  0
CIRCLE
  5
288
330
19
100
AcDbEntity
  8
4
100
AcDbCircle
 10
518.8673797439974
 20
1226.902067087741
 30
0.0
 40
9.5
  0
LINE
  5
289
330
19
100
AcDbEntity
  8
4
100
AcDbLine
 10
528.3673797439974
 20
1232.386894645043
 30
0.0
 11
518.8673797439974
 21
1237.871722202344
 31
0.0
  0
LINE
  5
28A
330
19
100
AcDbEntity
  8
4
100
AcDbLine
 10
509.3673797439974
 20
1232.386894645043
 30
0.0
 11
509.3673797439974
 21
1221.417239530439
 31
0.0
  0
LINE
  5
28B
330
19
100
AcDbEntity
  8
4
100
AcDbLine
 10
518.8673797439974
 20
1237.871722202344
 30
0.0
 11
509.3673797439974
 21
1232.386894645043
 31
0.0
  0
LINE
  5
28C
330
19
100
AcDbEntity
  8
4
100
AcDbLine
 10
528.3673797439974
 20
1221.417239530439
 30
0.0
 11
528.3673797439974
 21
1232.386894645043
 31
0.0
  0
LINE
  5
28D
330
19
100
AcDbEntity
  8
4
100
AcDbLine
 10
744.3673797439969
 20
1221.417239530439
 30
0.0
 11
753.8673797439969
 21
1215.932411973138
 31
0.0
  0
LINE
  5
28E
330
19
100
AcDbEntity
  8
4
100
AcDbLine
 10
753.8673797439969
 20
1215.932411973138
 30
0.0
 11
763.3673797439969
 21
1221.417239530439
 31
0.0
  0
CIRCLE
  5
28F
330
19
100
AcDbEntity
  8
4
100
AcDbCircle
 10
753.8673797439969
 20
1226.902067087742
 30
0.0
 40
9.5
  0
LINE
  5
290
330
19
100
AcDbEntity
  8
4
100
AcDbLine
 10
763.3673797439969
 20
1232.386894645043
 30
0.0
 11
753.8673797439969
 21
1237.871722202344
 31
0.0
  0
LINE
  5
291
330
19
100
AcDbEntity
  8
4
100
AcDbLine
 10
744.3673797439969
 20
1232.386894645043
 30
0.0
 11
744.3673797439969
 21
1221.417239530439
 31
0.0
  0
LINE
  5
292
330
19
100
AcDbEntity
  8
4
100
AcDbLine
 10
753.8673797439969
 20
1237.871722202344
 30
0.0
 11
744.3673797439969
 21
1232.386894645043
 31
0.0
  0
LINE
  5
293
330
19
100
AcDbEntity
  8
4
100
AcDbLine
 10
763.3673797439969
 20
1221.417239530439
 30
0.0
 11
763.3673797439969
 21
1232.386894645043
 31
0.0
  0
LINE
  5
294
330
19
100
AcDbEntity
  8
4
100
AcDbLine
 10
861.8673797439974
 20
1017.901269641096
 30
0.0
 11
871.3673797439974
 21
1012.416442083795
 31
0.0
  0
LINE
  5
295
330
19
100
AcDbEntity
  8
4
100
AcDbLine
 10
871.3673797439974
 20
1012.416442083795
 30
0.0
 11
880.8673797439974
 21
1017.901269641096
 31
0.0
  0
CIRCLE
  5
296
330
19
100
AcDbEntity
  8
4
100
AcDbCircle
 10
871.3673797439974
 20
1023.386097198398
 30
0.0
 40
9.5
  0
LINE
  5
297
330
19
100
AcDbEntity
  8
4
100
AcDbLine
 10
880.8673797439974
 20
1028.870924755699
 30
0.0
 11
871.3673797439974
 21
1034.355752313
 31
0.0
  0
LINE
  5
298
330
19
100
AcDbEntity
  8
4
100
AcDbLine
 10
861.8673797439974
 20
1028.870924755699
 30
0.0
 11
861.8673797439974
 21
1017.901269641096
 31
0.0
  0
LINE
  5
299
330
19
100
AcDbEntity
  8
4
100
AcDbLine
 10
871.3673797439974
 20
1034.355752313
 30
0.0
 11
861.8673797439974
 21
1028.870924755699
 31
0.0
  0
LINE
  5
29A
330
19
100
AcDbEntity
  8
4
100
AcDbLine
 10
880.8673797439974
 20
1017.901269641096
 30
0.0
 11
880.8673797439974
 21
1028.870924755699
 31
0.0
  0
LINE
  5
29B
330
19
100
AcDbEntity
  8
4
100
AcDbLine
 10
391.8673797439974
 20
1017.901269641096
 30
0.0
 11
401.3673797439974
 21
1012.416442083795
 31
0.0
  0
LINE
  5
29C
330
19
100
AcDbEntity
  8
4
100
AcDbLine
 10
401.3673797439974
 20
1012.416442083795
 30
0.0
 11
410.8673797439974
 21
1017.901269641096
 31
0.0
  0
CIRCLE
  5
29D
330
19
100
AcDbEntity
  8
4
100
AcDbCircle
 10
401.3673797439974
 20
1023.386097198398
 30
0.0
 40
9.5
  0
LINE
  5
29E
330
19
100
AcDbEntity
  8
4
100
AcDbLine
 10
410.8673797439974
 20
1028.870924755699
 30
0.0
 11
401.3673797439974
 21
1034.355752313001
 31
0.0
  0
LINE
  5
29F
330
19
100
AcDbEntity
  8
4
100
AcDbLine
 10
391.8673797439974
 20
1028.870924755699
 30
0.0
 11
391.8673797439974
 21
1017.901269641096
 31
0.0
  0
LINE
  5
2A0
330
19
100
AcDbEntity
  8
4
100
AcDbLine
 10
401.3673797439974
 20
1034.355752313001
 30
0.0
 11
391.8673797439974
 21
1028.870924755699
 31
0.0
  0
LINE
  5
2A1
330
19
100
AcDbEntity
  8
4
100
AcDbLine
 10
410.8673797439974
 20
1017.901269641096
 30
0.0
 11
410.8673797439974
 21
1028.870924755699
 31
0.0
  0
LINE
  5
2A2
330
19
100
AcDbEntity
  8
4
100
AcDbLine
 10
744.3673797439969
 20
814.3852997517529
 30
0.0
 11
753.8673797439969
 21
808.9004721944516
 31
0.0
  0
LINE
  5
2A3
330
19
100
AcDbEntity
  8
4
100
AcDbLine
 10
753.8673797439969
 20
808.9004721944516
 30
0.0
 11
763.3673797439969
 21
814.3852997517529
 31
0.0
  0
CIRCLE
  5
2A4
330
19
100
AcDbEntity
  8
4
100
AcDbCircle
 10
753.8673797439969
 20
819.8701273090546
 30
0.0
 40
9.5
  0
LINE
  5
2A5
330
19
100
AcDbEntity
  8
4
100
AcDbLine
 10
763.3673797439969
 20
825.3549548663559
 30
0.0
 11
753.8673797439969
 21
830.8397824236572
 31
0.0
  0
LINE
  5
2A6
330
19
100
AcDbEntity
  8
4
100
AcDbLine
 10
744.3673797439969
 20
825.3549548663559
 30
0.0
 11
744.3673797439969
 21
814.3852997517529
 31
0.0
  0
LINE
  5
2A7
330
19
100
AcDbEntity
  8
4
100
AcDbLine
 10
753.8673797439969
 20
830.8397824236572
 30
0.0
 11
744.3673797439969
 21
825.3549548663559
 31
0.0
  0
LINE
  5
2A8
330
19
100
AcDbEntity
  8
4
100
AcDbLine
 10
763.3673797439969
 20
814.3852997517529
 30
0.0
 11
763.3673797439969
 21
825.3549548663559
 31
0.0
  0
LINE
  5
2A9
330
19
100
AcDbEntity
  8
4
100
AcDbLine
 10
509.3673797439974
 20
814.3852997517533
 30
0.0
 11
518.8673797439974
 21
808.900472194452
 31
0.0
  0
LINE
  5
2AA
330
19
100
AcDbEntity
  8
4
100
AcDbLine
 10
518.8673797439974
 20
808.900472194452
 30
0.0
 11
528.3673797439974
 21
814.3852997517533
 31
0.0
  0
CIRCLE
  5
2AB
330
19
100
AcDbEntity
  8
4
100
AcDbCircle
 10
518.8673797439974
 20
819.8701273090551
 30
0.0
 40
9.5
  0
LINE
  5
2AC
330
19
100
AcDbEntity
  8
4
100
AcDbLine
 10
528.3673797439974
 20
825.3549548663564
 30
0.0
 11
518.8673797439974
 21
830.8397824236577
 31
0.0
  0
LINE
  5
2AD
330
19
100
AcDbEntity
  8
4
100
AcDbLine
 10
509.3673797439974
 20
825.3549548663564
 30
0.0
 11
509.3673797439974
 21
814.3852997517533
 31
0.0
  0
LINE
  5
2AE
330
19
100
AcDbEntity
  8
4
100
AcDbLine
 10
518.8673797439974
 20
830.8397824236577
 30
0.0
 11
509.3673797439974
 21
825.3549548663564
 31
0.0
  0
LINE
  5
2AF
330
19
100
AcDbEntity
  8
4
100
AcDbLine
 10
528.3673797439974
 20
814.3852997517533
 30
0.0
 11
528.3673797439974
 21
825.3549548663564
 31
0.0
  0
LINE
  5
2B0
330
19
100
AcDbEntity
  8
L-CENTER
 48
3.0
100
AcDbLine
 10
401.3673797439974
 20
333.0291975255859
 30
0.0
 11
401.3673797439974
 21
287.8174286428357
 31
0.0
  0
LINE
  5
2B1
330
19
100
AcDbEntity
  8
4
100
AcDbLine
 10
390.3977246293944
 20
318.4283576454818
 30
0.0
 11
412.3370348586
 21
318.4283576454818
 31
0.0
  0
ARC
  5
2B2
330
19
100
AcDbEntity
  8
4
100
AcDbCircle
 10
409.5946210799493
 20
325.5529787702026
 30
0.0
 40
3.875378875279264
100
AcDbArc
 50
44.95592676274579
 51
135.0440732372542
  0
LINE
  5
2B3
330
19
100
AcDbEntity
  8
4
100
AcDbLine
 10
409.5946210799493
 20
329.4283576454818
 30
0.0
 11
393.140138408045
 21
329.4283576454818
 31
0.0
  0
LINE
  5
2B4
330
19
100
AcDbEntity
  8
4
100
AcDbLine
 10
390.3977246293944
 20
321.4283576454818
 30
0.0
 11
412.3370348586
 21
321.4283576454818
 31
0.0
  0
LINE
  5
2B5
330
19
100
AcDbEntity
  8
4
100
AcDbLine
 10
406.8522073012987
 20
328.2911767348551
 30
0.0
 11
406.8522073012987
 21
321.4283576454818
 31
0.0
  0
LINE
  5
2B6
330
19
100
AcDbEntity
  8
4
100
AcDbLine
 10
395.8825521866956
 20
328.2911767348551
 30
0.0
 11
395.8825521866956
 21
321.4283576454818
 31
0.0
  0
LINE
  5
2B7
330
19
100
AcDbEntity
  8
4
100
AcDbLine
 10
390.3977246293944
 20
328.2911767348551
 30
0.0
 11
390.3977246293944
 21
318.4283576454818
 31
0.0
  0
ARC
  5
2B8
330
19
100
AcDbEntity
  8
4
100
AcDbCircle
 10
401.3673797439974
 20
315.632613510305
 30
0.0
 40
13.7957441351769
100
AcDbArc
 50
66.57340249137292
 51
113.4265975086292
  0
ARC
  5
2B9
330
19
100
AcDbEntity
  8
4
100
AcDbCircle
 10
393.140138408045
 20
325.5529787702026
 30
0.0
 40
3.875378875279244
100
AcDbArc
 50
44.955926762744
 51
135.044073237256
  0
LINE
  5
2BA
330
19
100
AcDbEntity
  8
4
100
AcDbLine
 10
412.3370348586
 20
318.4283576454818
 30
0.0
 11
412.3370348586
 21
328.2911767348551
 31
0.0
  0
LINE
  5
2BB
330
19
100
AcDbEntity
  8
L-CENTER
 48
3.0
100
AcDbLine
 10
518.8673797439974
 20
333.0291975255859
 30
0.0
 11
518.8673797439974
 21
287.8174286428357
 31
0.0
  0
LINE
  5
2BC
330
19
100
AcDbEntity
  8
4
100
AcDbLine
 10
507.8977246293944
 20
318.4283576454818
 30
0.0
 11
529.8370348586
 21
318.4283576454818
 31
0.0
  0
ARC
  5
2BD
330
19
100
AcDbEntity
  8
4
100
AcDbCircle
 10
527.0946210799493
 20
325.5529787702026
 30
0.0
 40
3.875378875279264
100
AcDbArc
 50
44.95592676274638
 51
135.0440732372536
  0
LINE
  5
2BE
330
19
100
AcDbEntity
  8
4
100
AcDbLine
 10
527.0946210799493
 20
329.4283576454818
 30
0.0
 11
510.640138408045
 21
329.4283576454818
 31
0.0
  0
LINE
  5
2BF
330
19
100
AcDbEntity
  8
4
100
AcDbLine
 10
507.8977246293944
 20
321.4283576454818
 30
0.0
 11
529.8370348586
 21
321.4283576454818
 31
0.0
  0
LINE
  5
2C0
330
19
100
AcDbEntity
  8
4
100
AcDbLine
 10
524.3522073012987
 20
328.2911767348551
 30
0.0
 11
524.3522073012987
 21
321.4283576454818
 31
0.0
  0
LINE
  5
2C1
330
19
100
AcDbEntity
  8
4
100
AcDbLine
 10
513.3825521866956
 20
328.2911767348551
 30
0.0
 11
513.3825521866956
 21
321.4283576454818
 31
0.0
  0
LINE
  5
2C2
330
19
100
AcDbEntity
  8
4
100
AcDbLine
 10
507.8977246293944
 20
328.2911767348551
 30
0.0
 11
507.8977246293944
 21
318.4283576454818
 31
0.0
  0
ARC
  5
2C3
330
19
100
AcDbEntity
  8
4
100
AcDbCircle
 10
518.8673797439974
 20
315.632613510305
 30
0.0
 40
13.7957441351769
100
AcDbArc
 50
66.57340249137077
 51
113.4265975086273
  0
ARC
  5
2C4
330
19
100
AcDbEntity
  8
4
100
AcDbCircle
 10
510.640138408045
 20
325.5529787702026
 30
0.0
 40
3.875378875279244
100
AcDbArc
 50
44.955926762744
 51
135.044073237256
  0
LINE
  5
2C5
330
19
100
AcDbEntity
  8
4
100
AcDbLine
 10
529.8370348586
 20
318.4283576454818
 30
0.0
 11
529.8370348586
 21
328.2911767348551
 31
0.0
  0
LINE
  5
2C6
330
19
100
AcDbEntity
  8
4
100
AcDbLine
 10
507.8977246293944
 20
323.4283576454818
 30
0.0
 11
477.8624997439974
 21
323.4283576454818
 31
0.0
  0
LINE
  5
2C7
330
19
100
AcDbEntity
  8
4
100
AcDbLine
 10
507.8977246293944
 20
323.4283576454818
 30
0.0
 11
477.8624997439974
 21
323.4283576454818
 31
0.0
  0
ARC
  5
2C8
330
19
100
AcDbEntity
  8
4
100
AcDbCircle
 10
879.5946210799498
 20
325.5529787702026
 30
0.0
 40
3.875378875279244
100
AcDbArc
 50
44.955926762744
 51
135.044073237256
  0
LINE
  5
2C9
330
19
100
AcDbEntity
  8
4
100
AcDbLine
 10
882.3370348586004
 20
321.4283576454818
 30
0.0
 11
860.3977246293948
 21
321.4283576454818
 31
0.0
  0
LINE
  5
2CA
330
19
100
AcDbEntity
  8
4
100
AcDbLine
 10
863.1401384080455
 20
329.4283576454818
 30
0.0
 11
879.5946210799498
 21
329.4283576454818
 31
0.0
  0
LINE
  5
2CB
330
19
100
AcDbEntity
  8
4
100
AcDbLine
 10
882.3370348586004
 20
318.4283576454818
 30
0.0
 11
860.3977246293948
 21
318.4283576454818
 31
0.0
  0
LINE
  5
2CC
330
19
100
AcDbEntity
  8
4
100
AcDbLine
 10
882.3370348586004
 20
328.2911767348551
 30
0.0
 11
882.3370348586004
 21
318.4283576454818
 31
0.0
  0
LINE
  5
2CD
330
19
100
AcDbEntity
  8
4
100
AcDbLine
 10
860.3977246293948
 20
318.4283576454818
 30
0.0
 11
860.3977246293948
 21
328.2911767348551
 31
0.0
  0
ARC
  5
2CE
330
19
100
AcDbEntity
  8
4
100
AcDbCircle
 10
871.3673797439974
 20
315.632613510305
 30
0.0
 40
13.7957441351769
100
AcDbArc
 50
66.57340249137269
 51
113.4265975086273
  0
LINE
  5
2CF
330
19
100
AcDbEntity
  8
4
100
AcDbLine
 10
876.8522073012991
 20
328.2911767348551
 30
0.0
 11
876.8522073012991
 21
321.4283576454818
 31
0.0
  0
LINE
  5
2D0
330
19
100
AcDbEntity
  8
4
100
AcDbLine
 10
865.8825521866961
 20
328.2911767348551
 30
0.0
 11
865.8825521866961
 21
321.4283576454818
 31
0.0
  0
ARC
  5
2D1
330
19
100
AcDbEntity
  8
4
100
AcDbCircle
 10
863.1401384080455
 20
325.5529787702026
 30
0.0
 40
3.875378875279264
100
AcDbArc
 50
44.95592676274519
 51
135.0440732372548
  0
LINE
  5
2D2
330
19
100
AcDbEntity
  8
L-CENTER
 48
3.0
100
AcDbLine
 10
871.3673797439974
 20
333.0291975255859
 30
0.0
 11
871.3673797439974
 21
287.8174286428357
 31
0.0
  0
LINE
  5
2D3
330
19
100
AcDbEntity
  8
4
100
AcDbLine
 10
764.8370348586004
 20
321.4283576454818
 30
0.0
 11
742.8977246293944
 21
321.4283576454818
 31
0.0
  0
ARC
  5
2D4
330
19
100
AcDbEntity
  8
4
100
AcDbCircle
 10
745.6401384080455
 20
325.5529787702026
 30
0.0
 40
3.875378875279264
100
AcDbArc
 50
44.95592676274519
 51
135.044073237262
  0
LINE
  5
2D5
330
19
100
AcDbEntity
  8
4
100
AcDbLine
 10
764.8370348586004
 20
318.4283576454818
 30
0.0
 11
742.8977246293944
 21
318.4283576454818
 31
0.0
  0
ARC
  5
2D6
330
19
100
AcDbEntity
  8
4
100
AcDbCircle
 10
762.0946210799498
 20
325.5529787702026
 30
0.0
 40
3.875378875279244
100
AcDbArc
 50
44.955926762744
 51
135.044073237256
  0
LINE
  5
2D7
330
19
100
AcDbEntity
  8
4
100
AcDbLine
 10
764.8370348586004
 20
328.2911767348551
 30
0.0
 11
764.8370348586004
 21
318.4283576454818
 31
0.0
  0
ARC
  5
2D8
330
19
100
AcDbEntity
  8
4
100
AcDbCircle
 10
753.8673797439974
 20
315.632613510305
 30
0.0
 40
13.7957441351769
100
AcDbArc
 50
66.57340249137269
 51
113.4265975086292
  0
LINE
  5
2D9
330
19
100
AcDbEntity
  8
4
100
AcDbLine
 10
759.3522073012991
 20
328.2911767348551
 30
0.0
 11
759.3522073012991
 21
321.4283576454818
 31
0.0
  0
LINE
  5
2DA
330
19
100
AcDbEntity
  8
4
100
AcDbLine
 10
748.3825521866956
 20
328.2911767348551
 30
0.0
 11
748.3825521866956
 21
321.4283576454818
 31
0.0
  0
LINE
  5
2DB
330
19
100
AcDbEntity
  8
4
100
AcDbLine
 10
745.6401384080455
 20
329.4283576454818
 30
0.0
 11
762.0946210799493
 21
329.4283576454818
 31
0.0
  0
LINE
  5
2DC
330
19
100
AcDbEntity
  8
4
100
AcDbLine
 10
742.8977246293944
 20
318.4283576454818
 30
0.0
 11
742.8977246293944
 21
328.2911767348551
 31
0.0
  0
LINE
  5
2DD
330
19
100
AcDbEntity
  8
L-CENTER
 48
3.0
100
AcDbLine
 10
753.8673797439969
 20
333.0291975255859
 30
0.0
 11
753.8673797439969
 21
287.8174286428357
 31
0.0
  0
LINE
  5
2DE
330
19
100
AcDbEntity
  8
4
100
AcDbLine
 10
742.8977246293944
 20
325.4283576454814
 30
0.0
 11
673.3673797439978
 21
325.4283576454814
 31
0.0
  0
LINE
  5
2DF
330
19
100
AcDbEntity
  8
4
100
AcDbLine
 10
764.8370348586
 20
326.4283576454818
 30
0.0
 11
773.3673797439974
 21
326.4283576454818
 31
0.0
  0
LINE
  5
2E0
330
19
100
AcDbEntity
  8
4
100
AcDbLine
 10
764.8370348586004
 20
325.4283576454814
 30
0.0
 11
793.3673797439974
 21
325.4283576454814
 31
0.0
  0
LINE
  5
2E1
330
19
100
AcDbEntity
  8
L-CENTER
 48
3.0
100
AcDbLine
 10
1496.391481859769
 20
332.2271521748153
 30
0.0
 11
1496.391481859769
 21
98.02835764548126
 31
0.0
  0
ARC
  5
2E2
330
19
100
AcDbEntity
  8
4
100
AcDbCircle
 10
1292.875511970426
 20
315.632613510305
 30
0.0
 40
13.7957441351769
100
AcDbArc
 50
66.57340249137269
 51
113.4265975086273
  0
LINE
  5
2E3
330
19
100
AcDbEntity
  8
4
100
AcDbLine
 10
1303.845167085029
 20
318.4283576454818
 30
0.0
 11
1281.905856855823
 21
318.4283576454818
 31
0.0
  0
LINE
  5
2E4
330
19
100
AcDbEntity
  8
4
100
AcDbLine
 10
1284.648270634474
 20
329.4283576454818
 30
0.0
 11
1301.102753306378
 21
329.4283576454818
 31
0.0
  0
LINE
  5
2E5
330
19
100
AcDbEntity
  8
4
100
AcDbLine
 10
1303.845167085029
 20
321.4283576454818
 30
0.0
 11
1281.905856855823
 21
321.4283576454818
 31
0.0
  0
ARC
  5
2E6
330
19
100
AcDbEntity
  8
4
100
AcDbCircle
 10
1284.648270634474
 20
325.5529787702026
 30
0.0
 40
3.875378875279264
100
AcDbArc
 50
44.95592676274638
 51
135.0440732372536
  0
LINE
  5
2E7
330
19
100
AcDbEntity
  8
4
100
AcDbLine
 10
1287.390684413125
 20
328.2911767348551
 30
0.0
 11
1287.390684413125
 21
321.4283576454818
 31
0.0
  0
LINE
  5
2E8
330
19
100
AcDbEntity
  8
4
100
AcDbLine
 10
1281.905856855823
 20
318.4283576454818
 30
0.0
 11
1281.905856855823
 21
328.2911767348551
 31
0.0
  0
LINE
  5
2E9
330
19
100
AcDbEntity
  8
4
100
AcDbLine
 10
1298.360339527728
 20
328.2911767348551
 30
0.0
 11
1298.360339527728
 21
321.4283576454818
 31
0.0
  0
LINE
  5
2EA
330
19
100
AcDbEntity
  8
4
100
AcDbLine
 10
1303.845167085029
 20
328.2911767348551
 30
0.0
 11
1303.845167085029
 21
318.4283576454818
 31
0.0
  0
ARC
  5
2EB
330
19
100
AcDbEntity
  8
4
100
AcDbCircle
 10
1301.102753306378
 20
325.5529787702026
 30
0.0
 40
3.875378875279244
100
AcDbArc
 50
44.95592676274579
 51
135.0440732372542
  0
LINE
  5
2EC
330
19
100
AcDbEntity
  8
L-CENTER
 48
3.0
100
AcDbLine
 10
1292.875511970426
 20
333.0291975255859
 30
0.0
 11
1292.875511970426
 21
287.8174286428357
 31
0.0
  0
LINE
  5
2ED
330
19
100
AcDbEntity
  8
4
100
AcDbLine
 10
1281.905856855823
 20
319.2574576454817
 30
0.0
 11
1280.891481859769
 21
319.2574576454817
 31
0.0
  0
LINE
  5
2EE
330
19
100
AcDbEntity
  8
4
100
AcDbLine
 10
1688.937796634509
 20
321.4283576454818
 30
0.0
 11
1710.877106863715
 21
321.4283576454818
 31
0.0
  0
LINE
  5
2EF
330
19
100
AcDbEntity
  8
4
100
AcDbLine
 10
1708.134693085064
 20
329.4283576454818
 30
0.0
 11
1691.68021041316
 21
329.4283576454818
 31
0.0
  0
LINE
  5
2F0
330
19
100
AcDbEntity
  8
4
100
AcDbLine
 10
1688.937796634509
 20
318.4283576454818
 30
0.0
 11
1710.877106863715
 21
318.4283576454818
 31
0.0
  0
ARC
  5
2F1
330
19
100
AcDbEntity
  8
4
100
AcDbCircle
 10
1699.907451749112
 20
315.632613510305
 30
0.0
 40
13.7957441351769
100
AcDbArc
 50
66.57340249137269
 51
113.4265975086273
  0
LINE
  5
2F2
330
19
100
AcDbEntity
  8
4
100
AcDbLine
 10
1710.877106863715
 20
318.4283576454818
 30
0.0
 11
1710.877106863715
 21
328.2911767348551
 31
0.0
  0
LINE
  5
2F3
330
19
100
AcDbEntity
  8
4
100
AcDbLine
 10
1705.392279306413
 20
328.2911767348551
 30
0.0
 11
1705.392279306413
 21
321.4283576454818
 31
0.0
  0
ARC
  5
2F4
330
19
100
AcDbEntity
  8
4
100
AcDbCircle
 10
1708.134693085064
 20
325.5529787702026
 30
0.0
 40
3.875378875279264
100
AcDbArc
 50
44.95592676274638
 51
135.0440732372536
  0
ARC
  5
2F5
330
19
100
AcDbEntity
  8
4
100
AcDbCircle
 10
1691.68021041316
 20
325.5529787702026
 30
0.0
 40
3.875378875279244
100
AcDbArc
 50
44.95592676274579
 51
135.0440732372542
  0
LINE
  5
2F6
330
19
100
AcDbEntity
  8
4
100
AcDbLine
 10
1688.937796634509
 20
328.2911767348551
 30
0.0
 11
1688.937796634509
 21
318.4283576454818
 31
0.0
  0
LINE
  5
2F7
330
19
100
AcDbEntity
  8
4
100
AcDbLine
 10
1694.42262419181
 20
328.2911767348551
 30
0.0
 11
1694.42262419181
 21
321.4283576454818
 31
0.0
  0
LINE
  5
2F8
330
19
100
AcDbEntity
  8
L-CENTER
 48
3.0
100
AcDbLine
 10
1699.907451749112
 20
333.0291975255859
 30
0.0
 11
1699.907451749112
 21
287.8174286428357
 31
0.0
  0
LINE
  5
2F9
330
19
100
AcDbEntity
  8
4
100
AcDbLine
 10
1688.937796634509
 20
319.2574576454817
 30
0.0
 11
1676.891481859769
 21
319.2574576454817
 31
0.0
  0
LINE
  5
2FA
330
19
100
AcDbEntity
  8
4
100
AcDbLine
 10
1488.164240523817
 20
329.4283576454818
 30
0.0
 11
1504.618723195721
 21
329.4283576454818
 31
0.0
  0
ARC
  5
2FB
330
19
100
AcDbEntity
  8
4
100
AcDbCircle
 10
1504.618723195721
 20
325.5529787702026
 30
0.0
 40
3.875378875279244
100
AcDbArc
 50
44.95592676274579
 51
135.0440732372542
  0
LINE
  5
2FC
330
19
100
AcDbEntity
  8
4
100
AcDbLine
 10
1507.361136974372
 20
318.4283576454818
 30
0.0
 11
1485.421826745167
 21
318.4283576454818
 31
0.0
  0
LINE
  5
2FD
330
19
100
AcDbEntity
  8
4
100
AcDbLine
 10
1507.361136974372
 20
321.4283576454818
 30
0.0
 11
1485.421826745167
 21
321.4283576454818
 31
0.0
  0
LINE
  5
2FE
330
19
100
AcDbEntity
  8
4
100
AcDbLine
 10
1485.421826745167
 20
318.4283576454818
 30
0.0
 11
1485.421826745167
 21
328.2911767348551
 31
0.0
  0
LINE
  5
2FF
330
19
100
AcDbEntity
  8
4
100
AcDbLine
 10
1490.906654302468
 20
328.2911767348551
 30
0.0
 11
1490.906654302468
 21
321.4283576454818
 31
0.0
  0
LINE
  5
300
330
19
100
AcDbEntity
  8
4
100
AcDbLine
 10
1501.876309417071
 20
328.2911767348551
 30
0.0
 11
1501.876309417071
 21
321.4283576454818
 31
0.0
  0
ARC
  5
301
330
19
100
AcDbEntity
  8
4
100
AcDbCircle
 10
1496.391481859769
 20
315.632613510305
 30
0.0
 40
13.7957441351769
100
AcDbArc
 50
66.57340249137269
 51
113.4265975086273
  0
ARC
  5
302
330
19
100
AcDbEntity
  8
4
100
AcDbCircle
 10
1488.164240523817
 20
325.5529787702026
 30
0.0
 40
3.875378875279264
100
AcDbArc
 50
44.95592676274638
 51
135.0440732372536
  0
LINE
  5
303
330
19
100
AcDbEntity
  8
4
100
AcDbLine
 10
1507.361136974372
 20
328.2911767348551
 30
0.0
 11
1507.361136974372
 21
318.4283576454818
 31
0.0
  0
LINE
  5
304
330
19
100
AcDbEntity
  8
4
100
AcDbLine
 10
1485.421826745167
 20
325.4283576454814
 30
0.0
 11
1443.391481859769
 21
325.4283576454814
 31
0.0
  0
LINE
  5
305
330
19
100
AcDbEntity
  8
4
100
AcDbLine
 10
1485.421826745167
 20
326.4283576454818
 30
0.0
 11
1463.391481859769
 21
326.4283576454818
 31
0.0
  0
ARC
  5
306
330
19
100
AcDbEntity
  8
4
100
AcDbCircle
 10
636.3673797439978
 20
845.3860971983977
 30
0.0
 40
5.0
100
AcDbArc
 50
0.0
 51
180.0
  0
ARC
  5
307
330
19
100
AcDbEntity
  8
4
100
AcDbCircle
 10
636.3673797439978
 20
825.3860971983977
 30
0.0
 40
11.0
100
AcDbArc
 50
297.0356917894122
 51
62.96430821058779
  0
ARC
  5
308
330
19
100
AcDbEntity
  8
4
100
AcDbCircle
 10
636.3673797439978
 20
825.3860971983977
 30
0.0
 40
12.5
100
AcDbArc
 50
293.5781784782019
 51
66.42182152179805
  0
ARC
  5
309
330
19
100
AcDbEntity
  8
4
100
AcDbCircle
 10
636.3673797439978
 20
825.3860971983977
 30
0.0
 40
12.5
100
AcDbArc
 50
113.578178478202
 51
246.421821521798
  0
ARC
  5
30A
330
19
100
AcDbEntity
  8
4
100
AcDbCircle
 10
636.3673797439978
 20
825.3860971983977
 30
0.0
 40
11.0
100
AcDbArc
 50
117.0356917894122
 51
242.9643082105877
  0
ARC
  5
30B
330
19
100
AcDbEntity
  8
4
100
AcDbCircle
 10
636.3673797439978
 20
805.3860971983977
 30
0.0
 40
5.0
100
AcDbArc
 50
180.0
 51
0.0
  0
LINE
  5
30C
330
19
100
AcDbEntity
  8
4
100
AcDbLine
 10
631.3673797439978
 20
805.3860971983977
 30
0.0
 11
631.3673797439978
 21
845.3860971983977
 31
0.0
  0
LINE
  5
30D
330
19
100
AcDbEntity
  8
4
100
AcDbLine
 10
641.3673797439978
 20
805.3860971983977
 30
0.0
 11
641.3673797439978
 21
845.3860971983977
 31
0.0
  0
ARC
  5
30E
330
19
100
AcDbEntity
  8
4
100
AcDbCircle
 10
636.3673797439969
 20
1241.386097198398
 30
0.0
 40
5.0
100
AcDbArc
 50
0.0
 51
180.0
  0
ARC
  5
30F
330
19
100
AcDbEntity
  8
4
100
AcDbCircle
 10
636.3673797439969
 20
1221.386097198398
 30
0.0
 40
11.0
100
AcDbArc
 50
297.035691789414
 51
62.96430821058594
  0
ARC
  5
310
330
19
100
AcDbEntity
  8
4
100
AcDbCircle
 10
636.3673797439969
 20
1221.386097198398
 30
0.0
 40
12.5
100
AcDbArc
 50
293.5781784782038
 51
66.42182152179615
  0
ARC
  5
311
330
19
100
AcDbEntity
  8
4
100
AcDbCircle
 10
636.3673797439969
 20
1221.386097198398
 30
0.0
 40
12.5
100
AcDbArc
 50
113.578178478202
 51
246.421821521798
  0
ARC
  5
312
330
19
100
AcDbEntity
  8
4
100
AcDbCircle
 10
636.3673797439969
 20
1221.386097198398
 30
0.0
 40
11.0
100
AcDbArc
 50
117.0356917894125
 51
242.9643082105875
  0
ARC
  5
313
330
19
100
AcDbEntity
  8
4
100
AcDbCircle
 10
636.3673797439969
 20
1201.386097198398
 30
0.0
 40
5.0
100
AcDbArc
 50
180.0
 51
0.0
  0
LINE
  5
314
330
19
100
AcDbEntity
  8
4
100
AcDbLine
 10
631.3673797439969
 20
1201.386097198398
 30
0.0
 11
631.3673797439969
 21
1241.386097198398
 31
0.0
  0
LINE
  5
315
330
19
100
AcDbEntity
  8
4
100
AcDbLine
 10
641.3673797439969
 20
1201.386097198398
 30
0.0
 11
641.3673797439969
 21
1241.386097198398
 31
0.0
  0
ARC
  5
316
330
19
100
AcDbEntity
  8
4
100
AcDbCircle
 10
636.3673797439978
 20
825.3860971983977
 30
0.0
 40
17.5
100
AcDbArc
 50
286.6015495990202
 51
73.39845040097977
  0
ARC
  5
317
330
19
100
AcDbEntity
  8
4
100
AcDbCircle
 10
636.3673797439974
 20
1023.386097198398
 30
0.0
 40
220.0
100
AcDbArc
 50
91.19894874191412
 51
268.8010512580859
  0
ARC
  5
318
330
19
100
AcDbEntity
  8
4
100
AcDbCircle
 10
636.3673797439978
 20
1221.386097198398
 30
0.0
 40
17.5
100
AcDbArc
 50
286.6015495990171
 51
73.39845040098295
  0
LINE
  5
319
330
19
100
AcDbEntity
  8
4
100
AcDbLine
 10
904.3673797439969
 20
1218.386097198398
 30
0.0
 11
904.3673797439969
 21
1138.386097198398
 31
0.0
  0
LINE
  5
31A
330
19
100
AcDbEntity
  8
4
100
AcDbLine
 10
903.3673797439969
 20
1138.386097198398
 30
0.0
 11
904.3673797439969
 21
1138.386097198398
 31
0.0
  0
LINE
  5
31B
330
19
100
AcDbEntity
  8
4
100
AcDbLine
 10
903.3673797439969
 20
1218.386097198398
 30
0.0
 11
904.3673797439969
 21
1218.386097198398
 31
0.0
  0
LINE
  5
31C
330
19
100
AcDbEntity
  8
4
100
AcDbLine
 10
368.3673797439974
 20
1218.386097198398
 30
0.0
 11
368.3673797439974
 21
1138.386097198398
 31
0.0
  0
LINE
  5
31D
330
19
100
AcDbEntity
  8
4
100
AcDbLine
 10
369.3673797439969
 20
1138.386097198398
 30
0.0
 11
368.3673797439974
 21
1138.386097198398
 31
0.0
  0
LINE
  5
31E
330
19
100
AcDbEntity
  8
4
100
AcDbLine
 10
369.3673797439969
 20
1218.386097198398
 30
0.0
 11
368.3673797439974
 21
1218.386097198398
 31
0.0
  0
LINE
  5
31F
330
19
100
AcDbEntity
  8
4
100
AcDbLine
 10
934.3673797439969
 20
1173.386097198398
 30
0.0
 11
1004.367379743997
 21
1173.386097198398
 31
0.0
  0
LINE
  5
320
330
19
100
AcDbEntity
  8
4
100
AcDbLine
 10
934.3673797439969
 20
1183.386097198398
 30
0.0
 11
1004.367379743997
 21
1183.386097198398
 31
0.0
  0
LINE
  5
321
330
19
100
AcDbEntity
  8
4
100
AcDbLine
 10
926.3673797439969
 20
1162.386097198398
 30
0.0
 11
1003.367379743997
 21
1162.386097198398
 31
0.0
  0
LINE
  5
322
330
19
100
AcDbEntity
  8
4
100
AcDbLine
 10
926.3673797439978
 20
1194.386097198398
 30
0.0
 11
1003.367379743997
 21
1194.386097198398
 31
0.0
  0
LINE
  5
323
330
19
100
AcDbEntity
  8
4
100
AcDbLine
 10
924.3673797439969
 20
1158.386097198398
 30
0.0
 11
924.3673797439969
 21
1198.386097198398
 31
0.0
  0
ARC
  5
324
330
19
100
AcDbEntity
  8
4
100
AcDbCircle
 10
934.3673797439969
 20
1178.386097198398
 30
0.0
 40
5.0
100
AcDbArc
 50
180.0
 51
270.0
  0
ARC
  5
325
330
19
100
AcDbEntity
  8
4
100
AcDbCircle
 10
926.3673797439969
 20
1160.386097198398
 30
0.0
 40
2.0
100
AcDbArc
 50
90.0
 51
180.0
  0
LINE
  5
326
330
19
100
AcDbEntity
  8
4
100
AcDbLine
 10
929.3673797439969
 20
1178.386097198398
 30
0.0
 11
929.3673797439969
 21
1178.386097198398
 31
0.0
  0
ARC
  5
327
330
19
100
AcDbEntity
  8
4
100
AcDbCircle
 10
926.3673797439978
 20
1196.386097198397
 30
0.0
 40
2.0
100
AcDbArc
 50
180.0
 51
270.0
  0
ARC
  5
328
330
19
100
AcDbEntity
  8
4
100
AcDbCircle
 10
934.3673797439969
 20
1178.386097198398
 30
0.0
 40
5.0
100
AcDbArc
 50
90.0
 51
180.0
  0
LINE
  5
329
330
19
100
AcDbEntity
  8
4
100
AcDbLine
 10
1004.367379743997
 20
1163.386097198398
 30
0.0
 11
1004.367379743997
 21
1193.386097198398
 31
0.0
  0
LINE
  5
32A
330
19
100
AcDbEntity
  8
4
100
AcDbLine
 10
1003.367379743997
 20
1162.386097198398
 30
0.0
 11
1003.367379743997
 21
1173.386097198398
 31
0.0
  0
LINE
  5
32B
330
19
100
AcDbEntity
  8
4
100
AcDbLine
 10
1003.367379743997
 20
1162.386097198398
 30
0.0
 11
1004.367379743997
 21
1163.386097198398
 31
0.0
  0
LINE
  5
32C
330
19
100
AcDbEntity
  8
4
100
AcDbLine
 10
1004.367379743997
 20
1193.386097198398
 30
0.0
 11
1003.367379743997
 21
1194.386097198398
 31
0.0
  0
LINE
  5
32D
330
19
100
AcDbEntity
  8
4
100
AcDbLine
 10
1003.367379743997
 20
1183.386097198398
 30
0.0
 11
1003.367379743997
 21
1194.386097198398
 31
0.0
  0
LINE
  5
32E
330
19
100
AcDbEntity
  8
4
100
AcDbLine
 10
904.3673797439969
 20
1198.386097198398
 30
0.0
 11
924.3673797439969
 21
1198.386097198398
 31
0.0
  0
LINE
  5
32F
330
19
100
AcDbEntity
  8
4
100
AcDbLine
 10
904.3673797439969
 20
1158.386097198398
 30
0.0
 11
924.3673797439969
 21
1158.386097198398
 31
0.0
  0
LINE
  5
330
330
19
100
AcDbEntity
  8
4
100
AcDbLine
 10
649.3577608007636
 20
1296.886097198396
 30
0.0
 11
623.3769986872303
 21
1296.886097198396
 31
0.0
  0
LINE
  5
331
330
19
100
AcDbEntity
  8
4
100
AcDbLine
 10
650.3673797439969
 20
1288.386097198396
 30
0.0
 11
622.3673797439969
 21
1288.386097198396
 31
0.0
  0
LINE
  5
332
330
19
100
AcDbEntity
  8
4
100
AcDbLine
 10
651.3673797439969
 20
1291.886097198396
 30
0.0
 11
621.3673797439969
 21
1291.886097198396
 31
0.0
  0
LINE
  5
333
330
19
100
AcDbEntity
  8
4
100
AcDbLine
 10
651.3673797439969
 20
1289.886097198396
 30
0.0
 11
621.3673797439969
 21
1289.886097198396
 31
0.0
  0
LINE
  5
334
330
19
100
AcDbEntity
  8
4
100
AcDbLine
 10
651.3673797439969
 20
1289.886097198396
 30
0.0
 11
651.3673797439969
 21
1291.886097198396
 31
0.0
  0
LINE
  5
335
330
19
100
AcDbEntity
  8
4
100
AcDbLine
 10
650.3673797439969
 20
1289.886097198396
 30
0.0
 11
650.3673797439969
 21
1288.386097198396
 31
0.0
  0
LINE
  5
336
330
19
100
AcDbEntity
  8
4
100
AcDbLine
 10
649.3577608007636
 20
1296.886097198396
 30
0.0
 11
649.3577608007636
 21
1291.886097198396
 31
0.0
  0
LINE
  5
337
330
19
100
AcDbEntity
  8
4
100
AcDbLine
 10
621.3673797439969
 20
1291.886097198396
 30
0.0
 11
621.3673797439969
 21
1289.886097198396
 31
0.0
  0
LINE
  5
338
330
19
100
AcDbEntity
  8
4
100
AcDbLine
 10
622.3673797439969
 20
1289.886097198396
 30
0.0
 11
622.3673797439969
 21
1288.386097198396
 31
0.0
  0
LINE
  5
339
330
19
100
AcDbEntity
  8
4
100
AcDbLine
 10
623.3769986872303
 20
1296.886097198396
 30
0.0
 11
623.3769986872303
 21
1291.886097198396
 31
0.0
  0
ARC
  5
33A
330
19
100
AcDbEntity
  8
4
100
AcDbCircle
 10
562.8622478564203
 20
1043.386097198398
 30
0.0
 40
31.0
100
AcDbArc
 50
286.8772694386292
 51
253.1227310000007
  0
LINE
  5
33B
330
19
100
AcDbEntity
  8
4
100
AcDbLine
 10
571.8622478564203
 20
1018.386097198398
 30
0.0
 11
553.8622478564203
 21
1018.386097198398
 31
0.0
  0
LINE
  5
33C
330
19
100
AcDbEntity
  8
4
100
AcDbLine
 10
571.8622478564203
 20
1006.386097198399
 30
0.0
 11
553.8622478564203
 21
1006.386097198399
 31
0.0
  0
LINE
  5
33D
330
19
100
AcDbEntity
  8
4
100
AcDbLine
 10
571.8622478564203
 20
1006.386097198399
 30
0.0
 11
571.8622478564203
 21
1018.386097198398
 31
0.0
  0
LINE
  5
33E
330
19
100
AcDbEntity
  8
4
100
AcDbLine
 10
553.8622478564203
 20
1006.386097198399
 30
0.0
 11
553.8622478564203
 21
1018.386097198398
 31
0.0
  0
LINE
  5
33F
330
19
100
AcDbEntity
  8
4
100
AcDbLine
 10
504.3472547439974
 20
336.4283576454823
 30
0.0
 11
518.8673797439974
 21
336.4283576454823
 31
0.0
  0
LINE
  5
340
330
19
100
AcDbEntity
  8
4
100
AcDbLine
 10
505.0972547439974
 20
344.4283576454823
 30
0.0
 11
518.0972547439974
 21
344.4283576454823
 31
0.0
  0
LINE
  5
341
330
19
100
AcDbEntity
  8
4
100
AcDbLine
 10
518.8472547439974
 20
336.4283576454823
 30
0.0
 11
518.8472547439974
 21
334.4283576454823
 31
0.0
  0
LINE
  5
342
330
19
100
AcDbEntity
  8
4
100
AcDbLine
 10
504.3472547439974
 20
336.4283576454823
 30
0.0
 11
504.3472547439974
 21
334.4283576454823
 31
0.0
  0
LINE
  5
343
330
19
100
AcDbEntity
  8
4
100
AcDbLine
 10
518.0972547439974
 20
344.4283576454823
 30
0.0
 11
518.0972547439974
 21
336.4283576454823
 31
0.0
  0
LINE
  5
344
330
19
100
AcDbEntity
  8
4
100
AcDbLine
 10
505.0972547439974
 20
344.4283576454823
 30
0.0
 11
505.0972547439974
 21
336.4283576454823
 31
0.0
  0
LINE
  5
345
330
19
100
AcDbEntity
  8
2
100
AcDbLine
 10
511.5972547439974
 20
334.4283576454823
 30
0.0
 11
513.5972547439974
 21
336.4283576454823
 31
0.0
  0
LINE
  5
346
330
19
100
AcDbEntity
  8
2
100
AcDbLine
 10
508.7688276192512
 20
334.4283576454823
 30
0.0
 11
510.7688276192512
 21
336.4283576454823
 31
0.0
  0
LINE
  5
347
330
19
100
AcDbEntity
  8
2
100
AcDbLine
 10
616.9561718687437
 20
334.4283576454823
 30
0.0
 11
614.9561718687437
 21
336.4283576454823
 31
0.0
  0
LINE
  5
348
330
19
100
AcDbEntity
  8
4
100
AcDbLine
 10
621.3777447439975
 20
336.4283576454823
 30
0.0
 11
606.857619743997
 21
336.4283576454823
 31
0.0
  0
LINE
  5
349
330
19
100
AcDbEntity
  8
4
100
AcDbLine
 10
620.6277447439975
 20
344.4283576454823
 30
0.0
 11
607.6277447439975
 21
344.4283576454823
 31
0.0
  0
LINE
  5
34A
330
19
100
AcDbEntity
  8
4
100
AcDbLine
 10
621.3777447439975
 20
336.4283576454823
 30
0.0
 11
621.3777447439975
 21
334.4283576454823
 31
0.0
  0
LINE
  5
34B
330
19
100
AcDbEntity
  8
4
100
AcDbLine
 10
620.6277447439975
 20
344.4283576454823
 30
0.0
 11
620.6277447439975
 21
336.4283576454823
 31
0.0
  0
LINE
  5
34C
330
19
100
AcDbEntity
  8
2
100
AcDbLine
 10
614.1277447439975
 20
334.4283576454823
 30
0.0
 11
612.1277447439975
 21
336.4283576454823
 31
0.0
  0
LINE
  5
34D
330
19
100
AcDbEntity
  8
4
100
AcDbLine
 10
606.8777447439975
 20
336.4283576454823
 30
0.0
 11
606.8777447439975
 21
334.4283576454823
 31
0.0
  0
LINE
  5
34E
330
19
100
AcDbEntity
  8
4
100
AcDbLine
 10
607.6277447439975
 20
344.4283576454823
 30
0.0
 11
607.6277447439975
 21
336.4283576454823
 31
0.0
  0
LINE
  5
34F
330
19
100
AcDbEntity
  8
L-CENTER
 48
3.0
100
AcDbLine
 10
614.1277447439975
 20
347.7407276454824
 30
0.0
 11
614.1277447439975
 21
306.9552902288342
 31
0.0
  0
LINE
  5
350
330
19
100
AcDbEntity
  8
4
100
AcDbLine
 10
620.6277447439975
 20
98.02835764548126
 30
0.0
 11
620.6277447439975
 21
106.0283576454814
 31
0.0
  0
LINE
  5
351
330
19
100
AcDbEntity
  8
4
100
AcDbLine
 10
621.3777447439975
 20
106.0283576454813
 30
0.0
 11
621.3777447439975
 21
108.0283576454815
 31
0.0
  0
LINE
  5
352
330
19
100
AcDbEntity
  8
2
100
AcDbLine
 10
614.1277447439975
 20
108.0283576454814
 30
0.0
 11
616.1277447439975
 21
106.0283576454814
 31
0.0
  0
LINE
  5
353
330
19
100
AcDbEntity
  8
4
100
AcDbLine
 10
607.6277447439975
 20
98.02835764548126
 30
0.0
 11
607.6277447439975
 21
106.0283576454814
 31
0.0
  0
LINE
  5
354
330
19
100
AcDbEntity
  8
4
100
AcDbLine
 10
606.8777447439975
 20
106.0283576454814
 30
0.0
 11
606.8777447439975
 21
108.0283576454814
 31
0.0
  0
LINE
  5
355
330
19
100
AcDbEntity
  8
4
100
AcDbLine
 10
607.6277447439975
 20
98.02835764548126
 30
0.0
 11
620.6277447439975
 21
98.02835764548126
 31
0.0
  0
LINE
  5
356
330
19
100
AcDbEntity
  8
4
100
AcDbLine
 10
606.8777447439975
 20
106.0283576454814
 30
0.0
 11
621.3978697439975
 21
106.0283576454814
 31
0.0
  0
LINE
  5
357
330
19
100
AcDbEntity
  8
2
100
AcDbLine
 10
611.2993176192513
 20
108.0283576454814
 30
0.0
 11
613.2993176192513
 21
106.0283576454814
 31
0.0
  0
LINE
  5
358
330
19
100
AcDbEntity
  8
4
100
AcDbLine
 10
1457.876236859769
 20
336.4283576454823
 30
0.0
 11
1472.39636185977
 21
336.4283576454823
 31
0.0
  0
LINE
  5
359
330
19
100
AcDbEntity
  8
4
100
AcDbLine
 10
1458.626236859769
 20
344.4283576454823
 30
0.0
 11
1471.626236859769
 21
344.4283576454823
 31
0.0
  0
LINE
  5
35A
330
19
100
AcDbEntity
  8
4
100
AcDbLine
 10
1472.376236859769
 20
336.4283576454823
 30
0.0
 11
1472.376236859769
 21
334.4283576454823
 31
0.0
  0
LINE
  5
35B
330
19
100
AcDbEntity
  8
4
100
AcDbLine
 10
1471.626236859769
 20
344.4283576454823
 30
0.0
 11
1471.626236859769
 21
336.4283576454823
 31
0.0
  0
LINE
  5
35C
330
19
100
AcDbEntity
  8
4
100
AcDbLine
 10
1458.626236859769
 20
344.4283576454823
 30
0.0
 11
1458.626236859769
 21
336.4283576454823
 31
0.0
  0
LINE
  5
35D
330
19
100
AcDbEntity
  8
2
100
AcDbLine
 10
1462.297809735023
 20
334.4283576454823
 30
0.0
 11
1464.297809735023
 21
336.4283576454823
 31
0.0
  0
LINE
  5
35E
330
19
100
AcDbEntity
  8
4
100
AcDbLine
 10
1457.876236859769
 20
336.4283576454823
 30
0.0
 11
1457.876236859769
 21
334.4283576454823
 31
0.0
  0
LINE
  5
35F
330
19
100
AcDbEntity
  8
2
100
AcDbLine
 10
1465.126236859769
 20
334.4283576454823
 30
0.0
 11
1467.126236859769
 21
336.4283576454823
 31
0.0
  0
LINE
  5
360
330
19
100
AcDbEntity
  8
L-CENTER
 48
3.0
100
AcDbLine
 10
1465.126236859769
 20
347.7407276454824
 30
0.0
 11
1465.126236859769
 21
306.9552902288342
 31
0.0
  0
LINE
  5
361
330
19
100
AcDbEntity
  8
2
100
AcDbLine
 10
1567.656726859769
 20
334.4283576454823
 30
0.0
 11
1565.656726859769
 21
336.4283576454823
 31
0.0
  0
LINE
  5
362
330
19
100
AcDbEntity
  8
4
100
AcDbLine
 10
1574.156726859769
 20
344.4283576454823
 30
0.0
 11
1561.156726859769
 21
344.4283576454823
 31
0.0
  0
LINE
  5
363
330
19
100
AcDbEntity
  8
4
100
AcDbLine
 10
1574.906726859769
 20
336.4283576454823
 30
0.0
 11
1560.386601859769
 21
336.4283576454823
 31
0.0
  0
LINE
  5
364
330
19
100
AcDbEntity
  8
4
100
AcDbLine
 10
1574.906726859769
 20
336.4283576454823
 30
0.0
 11
1574.906726859769
 21
334.4283576454823
 31
0.0
  0
LINE
  5
365
330
19
100
AcDbEntity
  8
2
100
AcDbLine
 10
1570.485153984515
 20
334.4283576454823
 30
0.0
 11
1568.485153984515
 21
336.4283576454823
 31
0.0
  0
LINE
  5
366
330
19
100
AcDbEntity
  8
4
100
AcDbLine
 10
1574.156726859769
 20
344.4283576454823
 30
0.0
 11
1574.156726859769
 21
336.4283576454823
 31
0.0
  0
LINE
  5
367
330
19
100
AcDbEntity
  8
4
100
AcDbLine
 10
1561.156726859769
 20
344.4283576454823
 30
0.0
 11
1561.156726859769
 21
336.4283576454823
 31
0.0
  0
LINE
  5
368
330
19
100
AcDbEntity
  8
4
100
AcDbLine
 10
1560.406726859769
 20
336.4283576454823
 30
0.0
 11
1560.406726859769
 21
334.4283576454823
 31
0.0
  0
LINE
  5
369
330
19
100
AcDbEntity
  8
L-CENTER
 48
3.0
100
AcDbLine
 10
1567.656726859769
 20
347.7407276454824
 30
0.0
 11
1567.656726859769
 21
306.9552902288342
 31
0.0
  0
LINE
  5
36A
330
19
100
AcDbEntity
  8
4
100
AcDbLine
 10
1561.156726859769
 20
98.02835764548126
 30
0.0
 11
1561.156726859769
 21
106.0283576454814
 31
0.0
  0
LINE
  5
36B
330
19
100
AcDbEntity
  8
4
100
AcDbLine
 10
1560.406726859769
 20
106.0283576454814
 30
0.0
 11
1560.406726859769
 21
108.0283576454814
 31
0.0
  0
LINE
  5
36C
330
19
100
AcDbEntity
  8
4
100
AcDbLine
 10
1561.156726859769
 20
98.02835764548126
 30
0.0
 11
1574.156726859769
 21
98.02835764548126
 31
0.0
  0
LINE
  5
36D
330
19
100
AcDbEntity
  8
4
100
AcDbLine
 10
1560.406726859769
 20
106.0283576454814
 30
0.0
 11
1574.926851859769
 21
106.0283576454814
 31
0.0
  0
LINE
  5
36E
330
19
100
AcDbEntity
  8
4
100
AcDbLine
 10
1574.156726859769
 20
98.02835764548126
 30
0.0
 11
1574.156726859769
 21
106.0283576454814
 31
0.0
  0
LINE
  5
36F
330
19
100
AcDbEntity
  8
4
100
AcDbLine
 10
1574.906726859769
 20
106.0283576454813
 30
0.0
 11
1574.906726859769
 21
108.0283576454815
 31
0.0
  0
LINE
  5
370
330
19
100
AcDbEntity
  8
L-CENTER
 48
3.0
100
AcDbLine
 10
1567.656726859769
 20
94.71598764548116
 30
0.0
 11
1567.656726859769
 21
133.1953980824801
 31
0.0
  0
LINE
  5
371
330
19
100
AcDbEntity
  8
4
100
AcDbLine
 10
1472.376236859769
 20
106.0283576454814
 30
0.0
 11
1457.856111859769
 21
106.0283576454814
 31
0.0
  0
LINE
  5
372
330
19
100
AcDbEntity
  8
4
100
AcDbLine
 10
1471.626236859769
 20
98.02835764548126
 30
0.0
 11
1458.626236859769
 21
98.02835764548126
 31
0.0
  0
LINE
  5
373
330
19
100
AcDbEntity
  8
4
100
AcDbLine
 10
1472.376236859769
 20
106.0283576454814
 30
0.0
 11
1472.376236859769
 21
108.0283576454814
 31
0.0
  0
LINE
  5
374
330
19
100
AcDbEntity
  8
4
100
AcDbLine
 10
1471.626236859769
 20
98.02835764548126
 30
0.0
 11
1471.626236859769
 21
106.0283576454814
 31
0.0
  0
LINE
  5
375
330
19
100
AcDbEntity
  8
4
100
AcDbLine
 10
1457.876236859769
 20
106.0283576454813
 30
0.0
 11
1457.876236859769
 21
108.0283576454815
 31
0.0
  0
LINE
  5
376
330
19
100
AcDbEntity
  8
4
100
AcDbLine
 10
1458.626236859769
 20
98.02835764548126
 30
0.0
 11
1458.626236859769
 21
106.0283576454814
 31
0.0
  0
LINE
  5
377
330
19
100
AcDbEntity
  8
L-CENTER
 48
3.0
100
AcDbLine
 10
1465.126236859769
 20
94.71598764548116
 30
0.0
 11
1465.126236859769
 21
133.1953980824801
 31
0.0
  0
CIRCLE
  5
378
330
19
100
AcDbEntity
  8
4
100
AcDbCircle
 10
511.5970062203955
 20
1094.651338834422
 30
0.0
 40
7.25
  0
CIRCLE
  5
379
330
19
100
AcDbEntity
  8
4
100
AcDbCircle
 10
511.5970062203955
 20
1094.651338834422
 30
0.0
 40
6.5
  0
LINE
  5
37A
330
19
100
AcDbEntity
  8
2
100
AcDbLine
 10
509.147516477612
 20
1097.100828577206
 30
0.0
 11
512.4935816925636
 21
1097.997404049374
 31
0.0
  0
LINE
  5
37B
330
19
100
AcDbEntity
  8
2
100
AcDbLine
 10
510.7004307482271
 20
1091.305273619471
 30
0.0
 11
514.0464959631781
 21
1092.201849091639
 31
0.0
  0
LINE
  5
37C
330
19
100
AcDbEntity
  8
2
100
AcDbLine
 10
512.4935816925636
 20
1097.997404049374
 30
0.0
 11
514.9430714353466
 21
1095.547914306591
 31
0.0
  0
LINE
  5
37D
330
19
100
AcDbEntity
  8
2
100
AcDbLine
 10
508.250941005444
 20
1093.754763362254
 30
0.0
 11
510.7004307482271
 21
1091.305273619471
 31
0.0
  0
LINE
  5
37E
330
19
100
AcDbEntity
  8
2
100
AcDbLine
 10
509.147516477612
 20
1097.100828577206
 30
0.0
 11
508.250941005444
 21
1093.754763362254
 31
0.0
  0
LINE
  5
37F
330
19
100
AcDbEntity
  8
2
100
AcDbLine
 10
514.9430714353466
 20
1095.547914306591
 30
0.0
 11
514.0464959631781
 21
1092.201849091639
 31
0.0
  0
LINE
  5
380
330
19
100
AcDbEntity
  8
L-CENTER
 48
3.0
100
AcDbLine
 10
624.0006588454135
 20
1104.524508187391
 30
0.0
 11
604.2543201394769
 21
1084.778169481453
 31
0.0
  0
CIRCLE
  5
381
330
19
100
AcDbEntity
  8
4
100
AcDbCircle
 10
614.1274894924454
 20
1094.651338834422
 30
0.0
 40
6.5
  0
CIRCLE
  5
382
330
19
100
AcDbEntity
  8
4
100
AcDbCircle
 10
614.1274894924454
 20
1094.651338834422
 30
0.0
 40
7.25
  0
LINE
  5
383
330
19
100
AcDbEntity
  8
2
100
AcDbLine
 10
616.5769792352285
 20
1097.100828577206
 30
0.0
 11
617.4735547073969
 21
1093.754763362254
 31
0.0
  0
LINE
  5
384
330
19
100
AcDbEntity
  8
2
100
AcDbLine
 10
617.4735547073969
 20
1093.754763362254
 30
0.0
 11
615.0240649646134
 21
1091.305273619471
 31
0.0
  0
LINE
  5
385
330
19
100
AcDbEntity
  8
2
100
AcDbLine
 10
616.5769792352285
 20
1097.100828577206
 30
0.0
 11
613.2309140202769
 21
1097.997404049374
 31
0.0
  0
LINE
  5
386
330
19
100
AcDbEntity
  8
2
100
AcDbLine
 10
615.0240649646134
 20
1091.305273619471
 30
0.0
 11
611.6779997496624
 21
1092.201849091639
 31
0.0
  0
LINE
  5
387
330
19
100
AcDbEntity
  8
2
100
AcDbLine
 10
610.7814242774939
 20
1095.547914306591
 30
0.0
 11
611.6779997496624
 21
1092.201849091639
 31
0.0
  0
LINE
  5
388
330
19
100
AcDbEntity
  8
2
100
AcDbLine
 10
613.2309140202769
 20
1097.997404049374
 30
0.0
 11
610.7814242774939
 21
1095.547914306591
 31
0.0
  0
CIRCLE
  5
389
330
19
100
AcDbEntity
  8
4
100
AcDbCircle
 10
511.5970062203955
 20
992.1208555623732
 30
0.0
 40
6.5
  0
CIRCLE
  5
38A
330
19
100
AcDbEntity
  8
4
100
AcDbCircle
 10
511.5970062203955
 20
992.1208555623732
 30
0.0
 40
7.25
  0
LINE
  5
38B
330
19
100
AcDbEntity
  8
2
100
AcDbLine
 10
509.147516477612
 20
989.6713658195895
 30
0.0
 11
508.250941005444
 21
993.017431034541
 31
0.0
  0
LINE
  5
38C
330
19
100
AcDbEntity
  8
2
100
AcDbLine
 10
508.250941005444
 20
993.017431034541
 30
0.0
 11
510.7004307482271
 21
995.4669207773243
 31
0.0
  0
LINE
  5
38D
330
19
100
AcDbEntity
  8
2
100
AcDbLine
 10
509.147516477612
 20
989.6713658195895
 30
0.0
 11
512.4935816925636
 21
988.7747903474215
 31
0.0
  0
LINE
  5
38E
330
19
100
AcDbEntity
  8
2
100
AcDbLine
 10
510.7004307482271
 20
995.4669207773243
 30
0.0
 11
514.0464959631781
 21
994.5703453051565
 31
0.0
  0
LINE
  5
38F
330
19
100
AcDbEntity
  8
2
100
AcDbLine
 10
514.9430714353466
 20
991.2242800902045
 30
0.0
 11
514.0464959631781
 21
994.5703453051565
 31
0.0
  0
LINE
  5
390
330
19
100
AcDbEntity
  8
2
100
AcDbLine
 10
512.4935816925636
 20
988.7747903474215
 30
0.0
 11
514.9430714353466
 21
991.2242800902045
 31
0.0
  0
LINE
  5
391
330
19
100
AcDbEntity
  8
L-CENTER
 48
3.0
100
AcDbLine
 10
501.7238368674271
 20
982.2476862094043
 30
0.0
 11
521.470175573364
 21
1001.994024915342
 31
0.0
  0
LINE
  5
392
330
19
100
AcDbEntity
  8
L-CENTER
 48
3.0
100
AcDbLine
 10
624.0006588454135
 20
982.2476862094043
 30
0.0
 11
604.2543201394769
 21
1001.994024915342
 31
0.0
  0
CIRCLE
  5
393
330
19
100
AcDbEntity
  8
4
100
AcDbCircle
 10
614.1274894924454
 20
992.1208555623732
 30
0.0
 40
7.25
  0
CIRCLE
  5
394
330
19
100
AcDbEntity
  8
4
100
AcDbCircle
 10
614.1274894924454
 20
992.1208555623732
 30
0.0
 40
6.5
  0
LINE
  5
395
330
19
100
AcDbEntity
  8
2
100
AcDbLine
 10
613.2309140202769
 20
988.7747903474215
 30
0.0
 11
610.7814242774939
 21
991.2242800902045
 31
0.0
  0
LINE
  5
396
330
19
100
AcDbEntity
  8
2
100
AcDbLine
 10
610.7814242774939
 20
991.2242800902045
 30
0.0
 11
611.6779997496624
 21
994.5703453051565
 31
0.0
  0
LINE
  5
397
330
19
100
AcDbEntity
  8
2
100
AcDbLine
 10
615.0240649646134
 20
995.4669207773243
 30
0.0
 11
611.6779997496624
 21
994.5703453051565
 31
0.0
  0
LINE
  5
398
330
19
100
AcDbEntity
  8
2
100
AcDbLine
 10
616.5769792352285
 20
989.6713658195895
 30
0.0
 11
613.2309140202769
 21
988.7747903474215
 31
0.0
  0
LINE
  5
399
330
19
100
AcDbEntity
  8
2
100
AcDbLine
 10
617.4735547073969
 20
993.017431034541
 30
0.0
 11
615.0240649646134
 21
995.4669207773243
 31
0.0
  0
LINE
  5
39A
330
19
100
AcDbEntity
  8
2
100
AcDbLine
 10
616.5769792352285
 20
989.6713658195895
 30
0.0
 11
617.4735547073969
 21
993.017431034541
 31
0.0
  0
TEXT
  5
447
330
19
100
AcDbEntity
  8
3
100
AcDbText
 10
1034.968045911398
 20
32.00352243827444
 30
0.0
 40
15.0
  1
LDC6-04
  7
KANJI
 72
     1
 11
1083.718045911398
 21
32.00352243827444
 31
0.0
100
AcDbText
  0
LINE
  5
545
330
19
100
AcDbEntity
  8
4
100
AcDbLine
 10
1407.391481859769
 20
319.2574576454817
 30
0.0
 11
1407.391481859769
 21
320.7574576454817
 31
0.0
  0
LINE
  5
546
330
19
100
AcDbEntity
  8
4
100
AcDbLine
 10
1408.391481859769
 20
327.7574576454817
 30
0.0
 11
1408.391481859769
 21
320.7574576454817
 31
0.0
  0
LINE
  5
547
330
19
100
AcDbEntity
  8
4
100
AcDbLine
 10
1375.391481859769
 20
319.2574576454817
 30
0.0
 11
1375.391481859769
 21
320.7574576454817
 31
0.0
  0
LINE
  5
548
330
19
100
AcDbEntity
  8
4
100
AcDbLine
 10
1374.391481859769
 20
327.7574576454817
 30
0.0
 11
1408.391481859769
 21
327.7574576454817
 31
0.0
  0
LINE
  5
549
330
19
100
AcDbEntity
  8
4
100
AcDbLine
 10
1374.391481859769
 20
323.7574576454822
 30
0.0
 11
1408.391481859769
 21
323.7574576454822
 31
0.0
  0
LINE
  5
54A
330
19
100
AcDbEntity
  8
4
100
AcDbLine
 10
1374.391481859769
 20
320.7574576454817
 30
0.0
 11
1408.391481859769
 21
320.7574576454817
 31
0.0
  0
LINE
  5
54B
330
19
100
AcDbEntity
  8
4
100
AcDbLine
 10
1374.391481859769
 20
320.7574576454817
 30
0.0
 11
1374.391481859769
 21
327.7574576454817
 31
0.0
  0
LINE
  5
54C
330
19
100
AcDbEntity
  8
4
100
AcDbLine
 10
1382.891481859769
 20
323.7574576454822
 30
0.0
 11
1382.891481859769
 21
327.7574576454817
 31
0.0
  0
LINE
  5
54D
330
19
100
AcDbEntity
  8
4
100
AcDbLine
 10
1399.891481859769
 20
323.7574576454822
 30
0.0
 11
1399.891481859769
 21
327.7574576454817
 31
0.0
  0
LINE
  5
54E
330
19
100
AcDbEntity
  8
4
100
AcDbLine
 10
1411.391481859769
 20
318.4283576454818
 30
0.0
 11
1411.391481859769
 21
319.2574576454817
 31
0.0
  0
LINE
  5
54F
330
19
100
AcDbEntity
  8
4
100
AcDbLine
 10
1371.391481859769
 20
318.4283576454818
 30
0.0
 11
1371.391481859769
 21
319.2574576454817
 31
0.0
  0
LINE
  5
550
330
19
100
AcDbEntity
  8
4
100
AcDbLine
 10
1371.391481859769
 20
319.2574576454817
 30
0.0
 11
1411.391481859769
 21
319.2574576454817
 31
0.0
  0
LINE
  5
551
330
19
100
AcDbEntity
  8
L-CENTER
 48
3.0
100
AcDbLine
 10
1391.391481859769
 20
332.2276876454816
 30
0.0
 11
1391.391481859769
 21
308.6320076454817
 31
0.0
  0
LINE
  5
552
330
19
100
AcDbEntity
  8
L-CENTER
 48
3.0
100
AcDbLine
 10
606.3673797439988
 20
918.3860971983977
 30
0.0
 11
666.3673797439988
 21
918.3860971983977
 31
0.0
  0
CIRCLE
  5
553
330
19
100
AcDbEntity
  8
4
100
AcDbCircle
 10
636.3673797439983
 20
918.3860971983977
 30
0.0
 40
20.0
  0
CIRCLE
  5
554
330
19
100
AcDbEntity
  8
4
100
AcDbCircle
 10
636.3673797439978
 20
918.3860971983977
 30
0.0
 40
17.0
  0
LWPOLYLINE
  5
555
330
19
100
AcDbEntity
  8
4
100
AcDbPolyline
 90
        6
 70
     1
 43
0.0
 10
636.3673797439978
 20
935.3860971983977
 10
621.6449478796621
 20
926.8860971983977
 10
621.6449478796621
 20
909.8860971983977
 10
636.3673797439978
 20
901.3860971983977
 10
651.0898116083331
 20
909.8860971983977
 10
651.0898116083331
 20
926.8860971983977
  0
LINE
  5
556
330
19
100
AcDbEntity
  8
4
100
AcDbLine
 10
652.3673797439975
 20
319.2574576454817
 30
0.0
 11
652.3673797439975
 21
320.7574576454817
 31
0.0
  0
LINE
  5
557
330
19
100
AcDbEntity
  8
4
100
AcDbLine
 10
653.3673797439975
 20
323.7574576454822
 30
0.0
 11
653.3673797439975
 21
320.7574576454817
 31
0.0
  0
LINE
  5
558
330
19
100
AcDbEntity
  8
4
100
AcDbLine
 10
620.3673797439975
 20
319.2574576454817
 30
0.0
 11
620.3673797439975
 21
320.7574576454817
 31
0.0
  0
LINE
  5
559
330
19
100
AcDbEntity
  8
4
100
AcDbLine
 10
621.6449478796621
 20
327.7574576454817
 30
0.0
 11
623.8673797439974
 21
327.7574576454817
 31
0.0
  0
LINE
  5
55A
330
19
100
AcDbEntity
  8
4
100
AcDbLine
 10
648.8673797439974
 20
327.7574576454817
 30
0.0
 11
651.0898116083331
 21
327.7574576454817
 31
0.0
  0
LINE
  5
55B
330
19
100
AcDbEntity
  8
4
100
AcDbLine
 10
619.3673797439975
 20
323.7574576454822
 30
0.0
 11
623.8673797439974
 21
323.7574576454822
 31
0.0
  0
LINE
  5
55C
330
19
100
AcDbEntity
  8
4
100
AcDbLine
 10
648.8673797439974
 20
323.7574576454822
 30
0.0
 11
653.3673797439975
 21
323.7574576454822
 31
0.0
  0
LINE
  5
55D
330
19
100
AcDbEntity
  8
4
100
AcDbLine
 10
619.3673797439975
 20
320.7574576454817
 30
0.0
 11
623.8673797439974
 21
320.7574576454817
 31
0.0
  0
LINE
  5
55E
330
19
100
AcDbEntity
  8
4
100
AcDbLine
 10
648.8673797439974
 20
320.7574576454817
 30
0.0
 11
653.3673797439975
 21
320.7574576454817
 31
0.0
  0
LINE
  5
55F
330
19
100
AcDbEntity
  8
4
100
AcDbLine
 10
619.3673797439975
 20
320.7574576454817
 30
0.0
 11
619.3673797439975
 21
323.7574576454822
 31
0.0
  0
LINE
  5
560
330
19
100
AcDbEntity
  8
4
100
AcDbLine
 10
656.3673797439975
 20
318.4283576454818
 30
0.0
 11
656.3673797439975
 21
319.2574576454817
 31
0.0
  0
LINE
  5
561
330
19
100
AcDbEntity
  8
4
100
AcDbLine
 10
616.3673797439975
 20
318.4283576454818
 30
0.0
 11
616.3673797439975
 21
319.2574576454817
 31
0.0
  0
LINE
  5
562
330
19
100
AcDbEntity
  8
4
100
AcDbLine
 10
616.3673797439975
 20
319.2574576454817
 30
0.0
 11
656.3673797439975
 21
319.2574576454817
 31
0.0
  0
LINE
  5
563
330
19
100
AcDbEntity
  8
4
100
AcDbLine
 10
621.6449478796621
 20
327.7574576454817
 30
0.0
 11
621.6449478796621
 21
323.7574576454822
 31
0.0
  0
LINE
  5
564
330
19
100
AcDbEntity
  8
4
100
AcDbLine
 10
651.0898116083331
 20
323.7574576454822
 30
0.0
 11
651.0898116083331
 21
327.7574576454817
 31
0.0
  0
LINE
  5
598
330
19
100
AcDbEntity
  8
4
100
AcDbLine
 10
348.3673797439974
 20
167.4283576454818
 30
0.0
 11
348.3673797439974
 21
207.4283576454818
 31
0.0
  0
LINE
  5
599
330
19
100
AcDbEntity
  8
4
100
AcDbLine
 10
269.3673797439974
 20
203.4283576454818
 30
0.0
 11
268.3673797439974
 21
202.4283576454818
 31
0.0
  0
LINE
  5
59A
330
19
100
AcDbEntity
  8
4
100
AcDbLine
 10
269.3673797439974
 20
203.4283576454818
 30
0.0
 11
348.3673797439974
 21
203.4283576454818
 31
0.0
  0
LINE
  5
59B
330
19
100
AcDbEntity
  8
4
100
AcDbLine
 10
268.3673797439974
 20
172.4283576454818
 30
0.0
 11
269.3673797439974
 21
171.4283576454818
 31
0.0
  0
LINE
  5
59C
330
19
100
AcDbEntity
  8
4
100
AcDbLine
 10
268.3673797439974
 20
172.4283576454818
 30
0.0
 11
268.3673797439974
 21
206.9283576454823
 31
0.0
  0
LINE
  5
59D
330
19
100
AcDbEntity
  8
4
100
AcDbLine
 10
269.3673797439974
 20
171.4283576454818
 30
0.0
 11
348.3673797439974
 21
171.4283576454818
 31
0.0
  0
LINE
  5
59E
330
19
100
AcDbEntity
  8
4
100
AcDbLine
 10
269.3673797439974
 20
171.4283576454818
 30
0.0
 11
269.3673797439974
 21
203.4283576454818
 31
0.0
  0
LINE
  5
59F
330
19
100
AcDbEntity
  8
4
100
AcDbLine
 10
343.3673797439974
 20
203.4283576454818
 30
0.0
 11
343.3673797439974
 21
206.9283576454823
 31
0.0
  0
LINE
  5
5A0
330
19
100
AcDbEntity
  8
4
100
AcDbLine
 10
268.3673797439974
 20
206.9283576454823
 30
0.0
 11
343.3673797439974
 21
206.9283576454823
 31
0.0
  0
LINE
  5
5A1
330
19
100
AcDbEntity
  8
4
100
AcDbLine
 10
348.3673797439974
 20
207.4283576454818
 30
0.0
 11
368.3673797439974
 21
207.4283576454818
 31
0.0
  0
LINE
  5
5A2
330
19
100
AcDbEntity
  8
4
100
AcDbLine
 10
348.3673797439974
 20
167.4283576454818
 30
0.0
 11
368.3673797439974
 21
167.4283576454818
 31
0.0
  0
LINE
  5
5A5
330
19
100
AcDbEntity
  8
4
100
AcDbLine
 10
338.3673797439974
 20
1173.386097198398
 30
0.0
 11
268.3673797439974
 21
1173.386097198398
 31
0.0
  0
LINE
  5
5A6
330
19
100
AcDbEntity
  8
4
100
AcDbLine
 10
338.3673797439974
 20
1183.386097198398
 30
0.0
 11
268.3673797439974
 21
1183.386097198398
 31
0.0
  0
LINE
  5
5A7
330
19
100
AcDbEntity
  8
4
100
AcDbLine
 10
346.3673797439974
 20
1162.386097198398
 30
0.0
 11
269.3673797439974
 21
1162.386097198398
 31
0.0
  0
LINE
  5
5A8
330
19
100
AcDbEntity
  8
4
100
AcDbLine
 10
346.3673797439965
 20
1194.386097198398
 30
0.0
 11
269.3673797439974
 21
1194.386097198398
 31
0.0
  0
LINE
  5
5A9
330
19
100
AcDbEntity
  8
4
100
AcDbLine
 10
348.3673797439974
 20
1158.386097198398
 30
0.0
 11
348.3673797439974
 21
1198.386097198398
 31
0.0
  0
ARC
  5
5AA
330
19
100
AcDbEntity
  8
4
100
AcDbCircle
 10
338.3673797439974
 20
1178.386097198398
 30
0.0
 40
5.0
100
AcDbArc
 50
270.0
 51
0.0
  0
ARC
  5
5AB
330
19
100
AcDbEntity
  8
4
100
AcDbCircle
 10
346.3673797439974
 20
1160.386097198398
 30
0.0
 40
2.0
100
AcDbArc
 50
0.0
 51
90.0
  0
LINE
  5
5AC
330
19
100
AcDbEntity
  8
4
100
AcDbLine
 10
343.3673797439974
 20
1178.386097198398
 30
0.0
 11
343.3673797439974
 21
1178.386097198398
 31
0.0
  0
ARC
  5
5AD
330
19
100
AcDbEntity
  8
4
100
AcDbCircle
 10
346.3673797439965
 20
1196.386097198397
 30
0.0
 40
2.0
100
AcDbArc
 50
270.0
 51
0.0
  0
ARC
  5
5AE
330
19
100
AcDbEntity
  8
4
100
AcDbCircle
 10
338.3673797439974
 20
1178.386097198398
 30
0.0
 40
5.0
100
AcDbArc
 50
0.0
 51
90.0
  0
LINE
  5
5AF
330
19
100
AcDbEntity
  8
4
100
AcDbLine
 10
268.3673797439974
 20
1163.386097198398
 30
0.0
 11
268.3673797439974
 21
1193.386097198398
 31
0.0
  0
LINE
  5
5B0
330
19
100
AcDbEntity
  8
4
100
AcDbLine
 10
269.3673797439974
 20
1162.386097198398
 30
0.0
 11
269.3673797439974
 21
1173.386097198398
 31
0.0
  0
LINE
  5
5B1
330
19
100
AcDbEntity
  8
4
100
AcDbLine
 10
269.3673797439974
 20
1162.386097198398
 30
0.0
 11
268.3673797439974
 21
1163.386097198398
 31
0.0
  0
LINE
  5
5B2
330
19
100
AcDbEntity
  8
4
100
AcDbLine
 10
268.3673797439974
 20
1193.386097198398
 30
0.0
 11
269.3673797439974
 21
1194.386097198398
 31
0.0
  0
LINE
  5
5B3
330
19
100
AcDbEntity
  8
4
100
AcDbLine
 10
269.3673797439974
 20
1183.386097198398
 30
0.0
 11
269.3673797439974
 21
1194.386097198398
 31
0.0
  0
LINE
  5
5B4
330
19
100
AcDbEntity
  8
4
100
AcDbLine
 10
368.3673797439974
 20
1198.386097198398
 30
0.0
 11
348.3673797439974
 21
1198.386097198398
 31
0.0
  0
LINE
  5
5B5
330
19
100
AcDbEntity
  8
4
100
AcDbLine
 10
368.3673797439974
 20
1158.386097198398
 30
0.0
 11
348.3673797439974
 21
1158.386097198398
 31
0.0
  0
ENDSEC
  0
SECTION
  2
OBJECTS
  0
DICTIONARY
  5
9
330
0
100
AcDbDictionary
281
     1
  3
ACAD_COLOR
350
2F
  3
ACAD_GROUP
350
2D
  3
ACAD_LAYOUT
350
22
  3
ACAD_MATERIAL
350
B
  3
ACAD_MLEADERSTYLE
350
570
  3
ACAD_MLINESTYLE
350
17
  3
ACAD_PLOTSETTINGS
350
2E
  3
ACAD_PLOTSTYLENAME
350
8
  3
ACAD_SCALELIST
350
36
  3
ACAD_TABLESTYLE
350
56F
  3
ACAD_VISUALSTYLE
350
30
  3
ACDBHEADERROUNDTRIPXREC
350
5CE
  3
AcDbVariableDictionary
350
56D
  3
DWGPROPS
350
5D1
  0
DICTIONARY
  5
5D2
330
2C
100
AcDbDictionary
280
     1
281
     1
  3
ACAD_XREC_ROUNDTRIP
360
5D3
  0
DICTIONARY
  5
3
330
2
100
AcDbDictionary
280
     1
281
     1
  3
ACAD_LAYERSTATES
360
4
  0
DICTIONARY
  5
1E
330
1D
100
AcDbDictionary
280
     1
281
     1
  3
ADSK_XREC_LAYER_RECONCILED
360
1F
  0
DICTIONARY
  5
459
330
458
100
AcDbDictionary
280
     1
281
     1
  3
ADSK_XREC_LAYER_RECONCILED
360
45A
  0
DICTIONARY
  5
5
330
1
100
AcDbDictionary
280
     1
281
     1
  3
ADSK_XREC_LAYER_RECONCILED
360
6
  0
DICTIONARY
  5
6C
330
6B
100
AcDbDictionary
280
     1
281
     1
  3
ADSK_XREC_LAYER_RECONCILED
360
6D
  0
DICTIONARY
  5
145
330
144
100
AcDbDictionary
280
     1
281
     1
  3
ADSK_XREC_LAYER_RECONCILED
360
146
  0
DICTIONARY
  5
1A1
330
1A0
100
AcDbDictionary
280
     1
281
     1
  3
ADSK_XREC_LAYER_RECONCILED
360
1A2
  0
DICTIONARY
  5
1A
330
19
100
AcDbDictionary
280
     1
281
     1
  3
ACAD_SORTENTS
360
1B
  0
DICTIONARY
  5
2F
102
{ACAD_REACTORS
330
9
102
}
330
9
100
AcDbDictionary
281
     1
  0
DICTIONARY
  5
2D
102
{ACAD_REACTORS
330
9
102
}
330
9
100
AcDbDictionary
281
     1
  0
DICTIONARY
  5
22
102
{ACAD_REACTORS
330
9
102
}
330
9
100
AcDbDictionary
281
     1
  3
Model
350
21
  3
ﾚｲｱｳﾄ1
350
29
  0
DICTIONARY
  5
B
102
{ACAD_REACTORS
330
9
102
}
330
9
100
AcDbDictionary
281
     1
  3
ByBlock
350
69
  3
ByLayer
350
12
  3
Global
350
A
  0
DICTIONARY
  5
570
102
{ACAD_REACTORS
330
9
102
}
330
9
100
AcDbDictionary
281
     1
  3
Standard
350
58A
  0
DICTIONARY
  5
17
102
{ACAD_REACTORS
330
9
102
}
330
9
100
AcDbDictionary
281
     1
  3
STANDARD
350
16
  0
DICTIONARY
  5
2E
102
{ACAD_REACTORS
330
9
102
}
330
9
100
AcDbDictionary
281
     1
  0
ACDBDICTIONARYWDFLT
  5
8
102
{ACAD_REACTORS
330
9
102
}
330
9
100
AcDbDictionary
281
     1
  3
Normal
350
7
100
AcDbDictionaryWithDefault
340
7
  0
DICTIONARY
  5
36
102
{ACAD_REACTORS
330
9
102
}
330
9
100
AcDbDictionary
281
     1
  3
*A1
350
58
  3
*A10
350
61
  3
*A11
350
62
  3
*A12
350
63
  3
*A13
350
64
  3
*A14
350
65
  3
*A15
350
66
  3
*A16
350
67
  3
*A17
350
68
  3
*A2
350
59
  3
*A3
350
5A
  3
*A4
350
5B
  3
*A5
350
5C
  3
*A6
350
5D
  3
*A7
350
5E
  3
*A8
350
5F
  3
*A9
350
60
  0
DICTIONARY
  5
56F
102
{ACAD_REACTORS
330
9
102
}
330
9
100
AcDbDictionary
281
     1
  3
Standard
350
594
  0
DICTIONARY
  5
30
102
{ACAD_REACTORS
330
9
102
}
330
9
100
AcDbDictionary
281
     1
  3
2dWireframe
350
33
  3
Basic
350
579
  3
Brighten
350
57D
  3
ColorChange
350
581
  3
Conceptual
350
57B
  3
Dim
350
57C
  3
EdgeColorOff
350
584
  3
Facepattern
350
580
  3
Flat
350
573
  3
FlatWithEdges
350
574
  3
Gouraud
350
575
  3
GouraudWithEdges
350
576
  3
Hidden
350
578
  3
JitterOff
350
582
  3
Linepattern
350
57F
  3
OverhangOff
350
583
  3
Realistic
350
57A
  3
Shaded
350
589
  3
Shaded with edges
350
588
  3
Shades of Gray
350
585
  3
Sketchy
350
586
  3
Thicken
350
57E
  3
Wireframe
350
577
  3
X-Ray
350
587
  0
DICTIONARY
  5
5CE
102
{ACAD_REACTORS
330
9
102
}
330
9
100
AcDbDictionary
281
     1
  3
COLORDICT
350
5CF
  3
MATERIALDICT
350
5D0
  0
DICTIONARY
  5
56D
102
{ACAD_REACTORS
330
9
102
}
330
9
100
AcDbDictionary
281
     1
  3
CANNOSCALE
350
56E
  3
CMLEADERSTYLE
350
58C
  3
CTABLESTYLE
350
595
  3
DIMASSOC
350
5CC
  3
HIDETEXT
350
5CD
  3
MSLTSCALE
350
5D4
  0
XRECORD
  5
5D1
102
{ACAD_REACTORS
330
9
102
}
330
9
100
AcDbXrecord
280
     1
  1
DWGPROPS COOKIE
  2

  3

  4

  6

  7

  8
sg-d03
  9

300
=
301
=
302
=
303
=
304
=
305
=
306
=
307
=
308
=
309
=
 40
0.0
 41
2449812.381805555
 42
2458115.258216273
  1

 90
        0
  0
XRECORD
  5
5D3
102
{ACAD_REACTORS
330
5D2
102
}
330
5D2
100
AcDbXrecord
280
     1
102
VTR_0.000_0.000_1.000_1.000_GRIDDISPLAY
 70
     3
102
VTR_0.000_0.000_1.000_1.000_GRIDMAJOR
 70
     5
102
VTR_0.000_0.000_1.000_1.000_DEFAULTLIGHTING
280
     1
102
VTR_0.000_0.000_1.000_1.000_DEFAULTLIGHTINGTYPE
 70
     1
102
VTR_0.000_0.000_1.000_1.000_BRIGHTNESS
141
0.0
102
VTR_0.000_0.000_1.000_1.000_CONTRAST
142
0.0
  0
DICTIONARY
  5
4
102
{ACAD_REACTORS
330
3
102
}
330
3
100
AcDbDictionary
281
     1
  0
XRECORD
  5
1F
102
{ACAD_REACTORS
330
1E
102
}
330
1E
100
AcDbXrecord
280
     1
290
     1
  0
XRECORD
  5
45A
102
{ACAD_REACTORS
330
459
102
}
330
459
100
AcDbXrecord
280
     1
290
     1
  0
XRECORD
  5
6
102
{ACAD_REACTORS
330
5
102
}
330
5
100
AcDbXrecord
280
     1
290
     1
  0
XRECORD
  5
6D
102
{ACAD_REACTORS
330
6C
102
}
330
6C
100
AcDbXrecord
280
     1
290
     1
  0
XRECORD
  5
146
102
{ACAD_REACTORS
330
145
102
}
330
145
100
AcDbXrecord
280
     1
290
     1
  0
XRECORD
  5
1A2
102
{ACAD_REACTORS
330
1A1
102
}
330
1A1
100
AcDbXrecord
280
     1
290
     1
  0
SORTENTSTABLE
  5
1B
102
{ACAD_REACTORS
330
1A
102
}
330
1A
100
AcDbSortentsTable
330
19
  0
LAYOUT
  5
21
102
{ACAD_REACTORS
330
22
102
}
102
{ACAD_XDICTIONARY
360
23
102
}
330
22
100
AcDbPlotSettings
  1

  2
Bullzip PDF Printer.pc3
  4
A3
  6

 40
0.2
 41
0.0
 42
0.0
 43
0.0
 44
420.2
 45
297.1
 46
25.0
 47
12.0
 48
99.9999997666664
 49
0.0
140
2009.999995391667
141
1362.499996820833
142
1.0
143
5.0
 70
 11936
 72
     1
 73
     0
 74
     4
  7
monochrome.ctb
 75
     0
147
0.2
148
-99.9999997666664
149
0.0
100
AcDbLayout
  1
Model
 70
     0
 71
     0
 10
0.0
 20
0.0
 11
12.0
 21
9.0
 12
0.0
 22
0.0
 32
0.0
 14
263.9264818477095
 24
32.00352243827444
 34
0.0
 15
1765.166351859769
 25
1302.665687587843
 35
0.0
146
0.0
 13
0.0
 23
0.0
 33
0.0
 16
1.0
 26
0.0
 36
0.0
 17
0.0
 27
1.0
 37
0.0
 76
     0
330
19
331
32
1001
ACAD_PSEXT
1000
Bullzip PDF Printer.pc3
1000
Bullzip PDF Printer
1000
BULLZIP
1000
Bullzip PDF Printer 10.1.0.1871
1070
     0
  0
LAYOUT
  5
29
102
{ACAD_REACTORS
330
22
102
}
330
22
100
AcDbPlotSettings
  1

  2
SR-LP8300F
  4

  6

 40
0.0
 41
0.0
 42
0.0
 43
0.0
 44
0.0
 45
0.0
 46
0.0
 47
0.0
 48
0.0
 49
0.0
140
0.0
141
0.0
142
1.0
143
1.0
 70
   688
 72
     0
 73
     0
 74
     5
  7
monochrome.ctb
 75
    16
147
1.0
148
0.0
149
0.0
100
AcDbLayout
  1
ﾚｲｱｳﾄ1
 70
     0
 71
     1
 10
0.0
 20
0.0
 11
12.0
 21
9.0
 12
0.0
 22
0.0
 32
0.0
 14
1000000000000000E+20
 24
1000000000000000E+20
 34
1000000000000000E+20
 15
-1000000000000000E+20
 25
-1000000000000000E+20
 35
-1000000000000000E+20
146
0.0
 13
0.0
 23
0.0
 33
0.0
 16
1.0
 26
0.0
 36
0.0
 17
0.0
 27
1.0
 37
0.0
 76
     0
330
26
  0
MATERIAL
  5
69
102
{ACAD_REACTORS
330
B
102
}
102
{ACAD_XDICTIONARY
360
5D9
102
}
330
B
100
AcDbMaterial
  1
ByBlock
 72
     0
 73
     2
 43
0.0208333333333333
 43
0.0
 43
0.0
 43
0.0
 43
0.0
 43
0.0208333333333333
 43
0.0
 43
0.0
 43
0.0
 43
0.0
 43
1.0
 43
0.0
 43
0.0
 43
0.0
 43
0.0
 43
1.0
 77
     0
 78
     2
 47
0.0208333333333333
 47
0.0
 47
0.0
 47
0.0
 47
0.0
 47
0.0208333333333333
 47
0.0
 47
0.0
 47
0.0
 47
0.0
 47
1.0
 47
0.0
 47
0.0
 47
0.0
 47
0.0
 47
1.0
171
     0
172
     2
 49
0.0208333333333333
 49
0.0
 49
0.0
 49
0.0
 49
0.0
 49
0.0208333333333333
 49
0.0
 49
0.0
 49
0.0
 49
0.0
 49
1.0
 49
0.0
 49
0.0
 49
0.0
 49
0.0
 49
1.0
175
     0
176
     2
142
0.0208333333333333
142
0.0
142
0.0
142
0.0
142
0.0
142
0.0208333333333333
142
0.0
142
0.0
142
0.0
142
0.0
142
1.0
142
0.0
142
0.0
142
0.0
142
0.0
142
1.0
179
     0
270
     2
144
0.0208333333333333
144
0.0
144
0.0
144
0.0
144
0.0
144
0.0208333333333333
144
0.0
144
0.0
144
0.0
144
0.0
144
1.0
144
0.0
144
0.0
144
0.0
144
0.0
144
1.0
274
     2
147
0.0208333333333333
147
0.0
147
0.0
147
0.0
147
0.0
147
0.0208333333333333
147
0.0
147
0.0
147
0.0
147
0.0
147
1.0
147
0.0
147
0.0
147
0.0
147
0.0
147
1.0
  0
MATERIAL
  5
12
102
{ACAD_REACTORS
330
B
102
}
102
{ACAD_XDICTIONARY
360
5D5
102
}
330
B
100
AcDbMaterial
  1
ByLayer
 72
     0
 73
     2
 43
0.0208333333333333
 43
0.0
 43
0.0
 43
0.0
 43
0.0
 43
0.0208333333333333
 43
0.0
 43
0.0
 43
0.0
 43
0.0
 43
1.0
 43
0.0
 43
0.0
 43
0.0
 43
0.0
 43
1.0
 77
     0
 78
     2
 47
0.0208333333333333
 47
0.0
 47
0.0
 47
0.0
 47
0.0
 47
0.0208333333333333
 47
0.0
 47
0.0
 47
0.0
 47
0.0
 47
1.0
 47
0.0
 47
0.0
 47
0.0
 47
0.0
 47
1.0
171
     0
172
     2
 49
0.0208333333333333
 49
0.0
 49
0.0
 49
0.0
 49
0.0
 49
0.0208333333333333
 49
0.0
 49
0.0
 49
0.0
 49
0.0
 49
1.0
 49
0.0
 49
0.0
 49
0.0
 49
0.0
 49
1.0
175
     0
176
     2
142
0.0208333333333333
142
0.0
142
0.0
142
0.0
142
0.0
142
0.0208333333333333
142
0.0
142
0.0
142
0.0
142
0.0
142
1.0
142
0.0
142
0.0
142
0.0
142
0.0
142
1.0
179
     0
270
     2
144
0.0208333333333333
144
0.0
144
0.0
144
0.0
144
0.0
144
0.0208333333333333
144
0.0
144
0.0
144
0.0
144
0.0
144
1.0
144
0.0
144
0.0
144
0.0
144
0.0
144
1.0
274
     2
147
0.0208333333333333
147
0.0
147
0.0
147
0.0
147
0.0
147
0.0208333333333333
147
0.0
147
0.0
147
0.0
147
0.0
147
1.0
147
0.0
147
0.0
147
0.0
147
0.0
147
1.0
  0
MATERIAL
  5
A
102
{ACAD_REACTORS
330
B
102
}
102
{ACAD_XDICTIONARY
360
5D7
102
}
330
B
100
AcDbMaterial
  1
Global
 72
     0
 73
     2
 43
0.0208333333333333
 43
0.0
 43
0.0
 43
0.0
 43
0.0
 43
0.0208333333333333
 43
0.0
 43
0.0
 43
0.0
 43
0.0
 43
1.0
 43
0.0
 43
0.0
 43
0.0
 43
0.0
 43
1.0
 77
     0
 78
     2
 47
0.0208333333333333
 47
0.0
 47
0.0
 47
0.0
 47
0.0
 47
0.0208333333333333
 47
0.0
 47
0.0
 47
0.0
 47
0.0
 47
1.0
 47
0.0
 47
0.0
 47
0.0
 47
0.0
 47
1.0
171
     0
172
     2
 49
0.0208333333333333
 49
0.0
 49
0.0
 49
0.0
 49
0.0
 49
0.0208333333333333
 49
0.0
 49
0.0
 49
0.0
 49
0.0
 49
1.0
 49
0.0
 49
0.0
 49
0.0
 49
0.0
 49
1.0
175
     0
176
     2
142
0.0208333333333333
142
0.0
142
0.0
142
0.0
142
0.0
142
0.0208333333333333
142
0.0
142
0.0
142
0.0
142
0.0
142
1.0
142
0.0
142
0.0
142
0.0
142
0.0
142
1.0
179
     0
270
     2
144
0.0208333333333333
144
0.0
144
0.0
144
0.0
144
0.0
144
0.0208333333333333
144
0.0
144
0.0
144
0.0
144
0.0
144
1.0
144
0.0
144
0.0
144
0.0
144
0.0
144
1.0
274
     2
147
0.0208333333333333
147
0.0
147
0.0
147
0.0
147
0.0
147
0.0208333333333333
147
0.0
147
0.0
147
0.0
147
0.0
147
1.0
147
0.0
147
0.0
147
0.0
147
0.0
147
1.0
  0
MLEADERSTYLE
  5
58A
102
{ACAD_REACTORS
330
570
102
}
102
{ACAD_XDICTIONARY
360
60B
102
}
330
570
100
AcDbMLeaderStyle
170
     2
171
     1
172
     0
 90
        2
 40
0.0
 41
0.0
173
     1
 91
-1056964608
340
F
 92
       -2
290
     1
 42
0.09
291
     1
 43
0.36
  3
Standard
341
0
 44
0.18
300

342
10
174
     1
178
     6
175
     1
176
     0
 93
-1056964608
 45
0.18
292
     0
297
     0
 46
0.18
343
0
 94
-1056964608
 47
1.0
 49
1.0
140
1.0
293
     1
141
0.0
294
     1
177
     0
142
1.0
295
     0
296
     0
143
0.125
1001
ACAD_MLEADERVER
1070
     2
  0
MLINESTYLE
  5
16
102
{ACAD_REACTORS
330
17
102
}
330
17
100
AcDbMlineStyle
  2
STANDARD
 70
     0
  3

 62
     0
 51
90.0
 52
90.0
 71
     2
 49
0.5
 62
   256
  6
BYLAYER
 49
-0.5
 62
   256
  6
BYLAYER
  0
ACDBPLACEHOLDER
  5
7
102
{ACAD_REACTORS
330
8
102
}
330
8
  0
SCALE
  5
58
102
{ACAD_REACTORS
330
36
102
}
330
36
100
AcDbScale
 70
     0
300
1:1
140
1.0
141
1.0
290
     1
  0
SCALE
  5
61
102
{ACAD_REACTORS
330
36
102
}
330
36
100
AcDbScale
 70
     0
300
3/8" = 1'-0"
140
0.375
141
12.0
290
     0
  0
SCALE
  5
62
102
{ACAD_REACTORS
330
36
102
}
330
36
100
AcDbScale
 70
     0
300
1/2" = 1'-0"
140
0.5
141
12.0
290
     0
  0
SCALE
  5
63
102
{ACAD_REACTORS
330
36
102
}
330
36
100
AcDbScale
 70
     0
300
3/4" = 1'-0"
140
0.75
141
12.0
290
     0
  0
SCALE
  5
64
102
{ACAD_REACTORS
330
36
102
}
330
36
100
AcDbScale
 70
     0
300
1" = 1'-0"
140
1.0
141
12.0
290
     0
  0
SCALE
  5
65
102
{ACAD_REACTORS
330
36
102
}
330
36
100
AcDbScale
 70
     0
300
1-1/2" = 1'-0"
140
1.5
141
12.0
290
     0
  0
SCALE
  5
66
102
{ACAD_REACTORS
330
36
102
}
330
36
100
AcDbScale
 70
     0
300
3" = 1'-0"
140
3.0
141
12.0
290
     0
  0
SCALE
  5
67
102
{ACAD_REACTORS
330
36
102
}
330
36
100
AcDbScale
 70
     0
300
6" = 1'-0"
140
6.0
141
12.0
290
     0
  0
SCALE
  5
68
102
{ACAD_REACTORS
330
36
102
}
330
36
100
AcDbScale
 70
     0
300
1'-0" = 1'-0"
140
12.0
141
12.0
290
     0
  0
SCALE
  5
59
102
{ACAD_REACTORS
330
36
102
}
330
36
100
AcDbScale
 70
     0
300
1/128" = 1'-0"
140
0.0078125
141
12.0
290
     0
  0
SCALE
  5
5A
102
{ACAD_REACTORS
330
36
102
}
330
36
100
AcDbScale
 70
     0
300
1/64" = 1'-0"
140
0.015625
141
12.0
290
     0
  0
SCALE
  5
5B
102
{ACAD_REACTORS
330
36
102
}
330
36
100
AcDbScale
 70
     0
300
1/32" = 1'-0"
140
0.03125
141
12.0
290
     0
  0
SCALE
  5
5C
102
{ACAD_REACTORS
330
36
102
}
330
36
100
AcDbScale
 70
     0
300
1/16" = 1'-0"
140
0.0625
141
12.0
290
     0
  0
SCALE
  5
5D
102
{ACAD_REACTORS
330
36
102
}
330
36
100
AcDbScale
 70
     0
300
3/32" = 1'-0"
140
0.09375
141
12.0
290
     0
  0
SCALE
  5
5E
102
{ACAD_REACTORS
330
36
102
}
330
36
100
AcDbScale
 70
     0
300
1/8" = 1'-0"
140
0.125
141
12.0
290
     0
  0
SCALE
  5
5F
102
{ACAD_REACTORS
330
36
102
}
330
36
100
AcDbScale
 70
     0
300
3/16" = 1'-0"
140
0.1875
141
12.0
290
     0
  0
SCALE
  5
60
102
{ACAD_REACTORS
330
36
102
}
330
36
100
AcDbScale
 70
     0
300
1/4" = 1'-0"
140
0.25
141
12.0
290
     0
  0
TABLESTYLE
  5
594
102
{ACAD_REACTORS
330
56F
102
}
330
56F
100
AcDbTableStyle
  3
Standard
 70
     0
 71
     0
 40
0.06
 41
0.06
280
     0
281
     0
  7
STANDARD
140
0.18
170
     2
 62
     0
 63
   257
283
     0
274
    -2
284
     1
 64
     0
275
    -2
285
     1
 65
     0
276
    -2
286
     1
 66
     0
277
    -2
287
     1
 67
     0
278
    -2
288
     1
 68
     0
279
    -2
289
     1
 69
     0
  7
STANDARD
140
0.25
170
     5
 62
     0
 63
   257
283
     0
274
    -2
284
     1
 64
     0
275
    -2
285
     1
 65
     0
276
    -2
286
     1
 66
     0
277
    -2
287
     1
 67
     0
278
    -2
288
     1
 68
     0
279
    -2
289
     1
 69
     0
  7
STANDARD
140
0.18
170
     5
 62
     0
 63
   257
283
     0
274
    -2
284
     1
 64
     0
275
    -2
285
     1
 65
     0
276
    -2
286
     1
 66
     0
277
    -2
287
     1
 67
     0
278
    -2
288
     1
 68
     0
279
    -2
289
     1
 69
     0
  0
VISUALSTYLE
  5
33
102
{ACAD_REACTORS
330
30
102
}
102
{ACAD_XDICTIONARY
360
5DB
102
}
330
30
100
AcDbVisualStyle
  2
2dWireframe
 70
     4
 71
     0
 72
     2
 73
     0
 90
        0
 40
0.6
 41
30.0
 62
     5
 63
     7
 74
     1
 91
        4
 64
     7
 65
   257
 75
     1
175
     1
 42
1.0
 92
        0
 66
   257
 43
1.0
 76
     1
 77
     6
 78
     2
 67
     7
 79
     5
170
     0
171
     0
290
     0
174
     0
 93
        1
 44
0.0
173
     0
291
     0
 45
0.0
1001
ACAD
1000
AcDbSavedByObjectVersion
1070
     0
  0
VISUALSTYLE
  5
579
102
{ACAD_REACTORS
330
30
102
}
102
{ACAD_XDICTIONARY
360
5E9
102
}
330
30
100
AcDbVisualStyle
  2
Basic
 70
     7
 71
     1
 72
     0
 73
     1
 90
        0
 40
0.6
 41
30.0
 62
     5
 63
     7
 74
     0
 91
        4
 64
     7
 65
   257
 75
     1
175
     1
 42
1.0
 92
        8
 66
     7
 43
1.0
 76
     1
 77
     6
 78
     2
 67
     7
 79
     5
170
     0
171
     0
290
     0
174
     0
 93
        1
 44
0.0
173
     0
291
     1
 45
0.0
1001
ACAD
1000
AcDbSavedByObjectVersion
1070
     0
  0
VISUALSTYLE
  5
57D
102
{ACAD_REACTORS
330
30
102
}
102
{ACAD_XDICTIONARY
360
5F1
102
}
330
30
100
AcDbVisualStyle
  2
Brighten
 70
    12
 71
     2
 72
     2
 73
     0
 90
        0
 40
0.6
 41
30.0
 62
     5
 63
     7
 74
     1
 91
        4
 64
     7
 65
   257
 75
     1
175
     1
 42
1.0
 92
        8
 66
     7
 43
1.0
 76
     1
 77
     6
 78
     2
 67
     7
 79
     5
170
     0
171
     0
290
     0
174
     0
 93
        1
 44
50.0
173
     0
291
     1
 45
0.0
1001
ACAD
1000
AcDbSavedByObjectVersion
1070
     0
  0
VISUALSTYLE
  5
581
102
{ACAD_REACTORS
330
30
102
}
102
{ACAD_XDICTIONARY
360
5F9
102
}
330
30
100
AcDbVisualStyle
  2
ColorChange
 70
    16
 71
     2
 72
     2
 73
     3
 90
        0
 40
0.6
 41
30.0
 62
     5
 63
     8
 74
     1
 91
        4
 64
     7
 65
   257
 75
     1
175
     1
 42
1.0
 92
        8
 66
     8
 43
1.0
 76
     1
 77
     6
 78
     2
 67
     7
 79
     5
170
     0
171
     0
290
     0
174
     0
 93
        1
 44
0.0
173
     0
291
     1
 45
0.0
1001
ACAD
1000
AcDbSavedByObjectVersion
1070
     0
  0
VISUALSTYLE
  5
57B
102
{ACAD_REACTORS
330
30
102
}
102
{ACAD_XDICTIONARY
360
5ED
102
}
330
30
100
AcDbVisualStyle
  2
Conceptual
 70
     9
 71
     3
 72
     2
 73
     0
 90
        0
 40
0.6
 41
30.0
 62
     5
 63
     7
 74
     2
 91
        2
 64
     7
 65
   257
 75
     1
175
     1
 42
40.0
 92
        8
 66
     7
 43
1.0
 76
     1
 77
     6
 78
     2
 67
     7
 79
     3
170
     0
171
     0
290
     0
174
     0
 93
        1
 44
0.0
173
     0
291
     0
 45
0.0
1001
ACAD
1000
AcDbSavedByObjectVersion
1070
     0
  0
VISUALSTYLE
  5
57C
102
{ACAD_REACTORS
330
30
102
}
102
{ACAD_XDICTIONARY
360
5EF
102
}
330
30
100
AcDbVisualStyle
  2
Dim
 70
    11
 71
     2
 72
     2
 73
     0
 90
        0
 40
0.6
 41
30.0
 62
     5
 63
     7
 74
     1
 91
        4
 64
     7
 65
   257
 75
     1
175
     1
 42
1.0
 92
        8
 66
     7
 43
1.0
 76
     1
 77
     6
 78
     2
 67
     7
 79
     5
170
     0
171
     0
290
     0
174
     0
 93
        1
 44
-50.0
173
     0
291
     1
 45
0.0
1001
ACAD
1000
AcDbSavedByObjectVersion
1070
     0
  0
VISUALSTYLE
  5
584
102
{ACAD_REACTORS
330
30
102
}
102
{ACAD_XDICTIONARY
360
5FF
102
}
330
30
100
AcDbVisualStyle
  2
EdgeColorOff
 70
    22
 71
     2
 72
     2
 73
     0
 90
        0
 40
0.6
 41
30.0
 62
     5
 63
     7
 74
     1
 91
        4
 64
     7
 65
   257
 75
     1
175
     1
 42
1.0
 92
        8
 66
     7
 43
1.0
 76
     1
 77
     6
 78
     2
 67
     7
 79
     5
170
     0
171
     0
290
     0
174
     0
 93
        1
 44
0.0
173
     0
291
     1
 45
0.0
1001
ACAD
1000
AcDbSavedByObjectVersion
1070
     0
  0
VISUALSTYLE
  5
580
102
{ACAD_REACTORS
330
30
102
}
102
{ACAD_XDICTIONARY
360
5F7
102
}
330
30
100
AcDbVisualStyle
  2
Facepattern
 70
    15
 71
     2
 72
     2
 73
     0
 90
        0
 40
0.6
 41
30.0
 62
     5
 63
     7
 74
     1
 91
        4
 64
     7
 65
   257
 75
     1
175
     1
 42
1.0
 92
        8
 66
     7
 43
1.0
 76
     1
 77
     6
 78
     2
 67
     7
 79
     5
170
     0
171
     0
290
     0
174
     0
 93
        1
 44
0.0
173
     0
291
     1
 45
0.0
1001
ACAD
1000
AcDbSavedByObjectVersion
1070
     0
  0
VISUALSTYLE
  5
573
102
{ACAD_REACTORS
330
30
102
}
102
{ACAD_XDICTIONARY
360
5DD
102
}
330
30
100
AcDbVisualStyle
  2
Flat
 70
     0
 71
     2
 72
     1
 73
     1
 90
        2
 40
0.6
 41
30.0
 62
     5
 63
     7
 74
     0
 91
        4
 64
     7
 65
   257
 75
     1
175
     1
 42
1.0
 92
        8
 66
     7
 43
1.0
 76
     1
 77
     6
 78
     2
 67
     7
 79
     5
170
     0
171
     0
290
     0
174
     0
 93
       13
 44
0.0
173
     0
291
     1
 45
0.0
1001
ACAD
1000
AcDbSavedByObjectVersion
1070
     0
  0
VISUALSTYLE
  5
574
102
{ACAD_REACTORS
330
30
102
}
102
{ACAD_XDICTIONARY
360
5DF
102
}
330
30
100
AcDbVisualStyle
  2
FlatWithEdges
 70
     1
 71
     2
 72
     1
 73
     1
 90
        2
 40
0.6
 41
30.0
 62
     5
 63
     7
 74
     1
 91
        4
 64
     7
 65
   257
 75
     1
175
     1
 42
1.0
 92
        0
 66
   257
 43
1.0
 76
     1
 77
     6
 78
     2
 67
     7
 79
     5
170
     0
171
     0
290
     0
174
     0
 93
       13
 44
0.0
173
     0
291
     1
 45
0.0
1001
ACAD
1000
AcDbSavedByObjectVersion
1070
     0
  0
VISUALSTYLE
  5
575
102
{ACAD_REACTORS
330
30
102
}
102
{ACAD_XDICTIONARY
360
5E1
102
}
330
30
100
AcDbVisualStyle
  2
Gouraud
 70
     2
 71
     2
 72
     2
 73
     1
 90
        2
 40
0.6
 41
30.0
 62
     5
 63
     7
 74
     0
 91
        4
 64
     7
 65
   257
 75
     1
175
     1
 42
1.0
 92
        0
 66
     7
 43
1.0
 76
     1
 77
     6
 78
     2
 67
     7
 79
     5
170
     0
171
     0
290
     0
174
     0
 93
       13
 44
0.0
173
     0
291
     1
 45
0.0
1001
ACAD
1000
AcDbSavedByObjectVersion
1070
     0
  0
VISUALSTYLE
  5
576
102
{ACAD_REACTORS
330
30
102
}
102
{ACAD_XDICTIONARY
360
5E3
102
}
330
30
100
AcDbVisualStyle
  2
GouraudWithEdges
 70
     3
 71
     2
 72
     2
 73
     1
 90
        2
 40
0.6
 41
30.0
 62
     5
 63
     7
 74
     1
 91
        4
 64
     7
 65
   257
 75
     1
175
     1
 42
1.0
 92
        0
 66
   257
 43
1.0
 76
     1
 77
     6
 78
     2
 67
     7
 79
     5
170
     0
171
     0
290
     0
174
     0
 93
       13
 44
0.0
173
     0
291
     1
 45
0.0
1001
ACAD
1000
AcDbSavedByObjectVersion
1070
     0
  0
VISUALSTYLE
  5
578
102
{ACAD_REACTORS
330
30
102
}
102
{ACAD_XDICTIONARY
360
5E7
102
}
330
30
100
AcDbVisualStyle
  2
Hidden
 70
     6
 71
     1
 72
     2
 73
     2
 90
        0
 40
0.6
 41
30.0
 62
     5
 63
     7
 74
     2
 91
        2
 64
     7
 65
   257
 75
     2
175
     1
 42
40.0
 92
        0
 66
   257
 43
1.0
 76
     1
 77
     6
 78
     2
 67
     7
 79
     3
170
     0
171
     0
290
     0
174
     0
 93
        1
 44
0.0
173
     0
291
     0
 45
0.0
1001
ACAD
1000
AcDbSavedByObjectVersion
1070
     0
  0
VISUALSTYLE
  5
582
102
{ACAD_REACTORS
330
30
102
}
102
{ACAD_XDICTIONARY
360
5FB
102
}
330
30
100
AcDbVisualStyle
  2
JitterOff
 70
    20
 71
     2
 72
     2
 73
     0
 90
        0
 40
0.6
 41
30.0
 62
     5
 63
     7
 74
     1
 91
        4
 64
     7
 65
   257
 75
     1
175
     1
 42
1.0
 92
       10
 66
     7
 43
1.0
 76
     1
 77
     6
 78
     2
 67
     7
 79
     5
170
     0
171
     0
290
     0
174
     0
 93
        1
 44
0.0
173
     0
291
     1
 45
0.0
1001
ACAD
1000
AcDbSavedByObjectVersion
1070
     0
  0
VISUALSTYLE
  5
57F
102
{ACAD_REACTORS
330
30
102
}
102
{ACAD_XDICTIONARY
360
5F5
102
}
330
30
100
AcDbVisualStyle
  2
Linepattern
 70
    14
 71
     2
 72
     2
 73
     0
 90
        0
 40
0.6
 41
30.0
 62
     5
 63
     7
 74
     1
 91
        4
 64
     7
 65
   257
 75
     7
175
     7
 42
1.0
 92
        8
 66
     7
 43
1.0
 76
     1
 77
     6
 78
     2
 67
     7
 79
     5
170
     0
171
     0
290
     0
174
     0
 93
        1
 44
0.0
173
     0
291
     1
 45
0.0
1001
ACAD
1000
AcDbSavedByObjectVersion
1070
     0
  0
VISUALSTYLE
  5
583
102
{ACAD_REACTORS
330
30
102
}
102
{ACAD_XDICTIONARY
360
5FD
102
}
330
30
100
AcDbVisualStyle
  2
OverhangOff
 70
    21
 71
     2
 72
     2
 73
     0
 90
        0
 40
0.6
 41
30.0
 62
     5
 63
     7
 74
     1
 91
        4
 64
     7
 65
   257
 75
     1
175
     1
 42
1.0
 92
        9
 66
     7
 43
1.0
 76
     1
 77
     6
 78
     2
 67
     7
 79
     5
170
     0
171
     0
290
     0
174
     0
 93
        1
 44
0.0
173
     0
291
     1
 45
0.0
1001
ACAD
1000
AcDbSavedByObjectVersion
1070
     0
  0
VISUALSTYLE
  5
57A
102
{ACAD_REACTORS
330
30
102
}
102
{ACAD_XDICTIONARY
360
5EB
102
}
330
30
100
AcDbVisualStyle
  2
Realistic
 70
     8
 71
     2
 72
     3
 73
     0
 90
        2
 40
0.6
 41
30.0
 62
     5
 63
     7
 74
     0
 91
        0
 64
     7
 65
   257
 75
     1
175
     1
 42
1.0
 92
        8
 66
   257
 43
1.0
 76
     1
 77
     6
 78
     2
 67
     7
 79
     3
170
     0
171
     0
290
     0
174
     0
 93
       13
 44
0.0
173
     0
291
     0
 45
0.0
1001
ACAD
1000
AcDbSavedByObjectVersion
1070
     0
  0
VISUALSTYLE
  5
589
102
{ACAD_REACTORS
330
30
102
}
102
{ACAD_XDICTIONARY
360
609
102
}
330
30
100
AcDbVisualStyle
  2
Shaded
 70
    27
 71
     2
 72
     2
 73
     1
 90
        2
 40
0.6
 41
30.0
 62
     5
 63
     7
 74
     0
 91
        4
 64
     7
 65
   257
 75
     1
175
     1
 42
1.0
 92
        8
 66
   257
 43
1.0
 76
     1
 77
     6
 78
     2
 67
   251
 79
     3
170
     0
171
     0
290
     0
174
     0
 93
        5
 44
0.0
173
     0
291
     0
 45
0.0
1001
ACAD
1000
AcDbSavedByObjectVersion
1070
     0
  0
VISUALSTYLE
  5
588
102
{ACAD_REACTORS
330
30
102
}
102
{ACAD_XDICTIONARY
360
607
102
}
330
30
100
AcDbVisualStyle
  2
Shaded with edges
 70
    26
 71
     2
 72
     2
 73
     1
 90
        2
 40
0.6
 41
30.0
 62
     5
 63
     7
 74
     1
 91
       10
 64
     7
 65
   257
 75
     2
175
     1
 42
1.0
 92
        8
 66
   257
 43
1.0
 76
     1
 77
     6
 78
     2
 67
     7
 79
     3
170
     0
171
     0
290
     0
174
     0
 93
        5
 44
0.0
173
     0
291
     0
 45
0.0
1001
ACAD
1000
AcDbSavedByObjectVersion
1070
     0
  0
VISUALSTYLE
  5
585
102
{ACAD_REACTORS
330
30
102
}
102
{ACAD_XDICTIONARY
360
601
102
}
330
30
100
AcDbVisualStyle
  2
Shades of Gray
 70
    23
 71
     2
 72
     2
 73
     3
 90
        0
 40
0.6
 41
30.0
 62
     5
 63
     7
 74
     2
 91
        2
 64
     7
 65
     7
 75
     1
175
     1
 42
40.0
 92
        8
 66
     7
 43
1.0
 76
     1
 77
     6
 78
     2
 67
     7
 79
     3
170
     0
171
     0
290
     0
174
     0
 93
        1
 44
0.0
173
     0
291
     0
 45
0.0
1001
ACAD
1000
AcDbSavedByObjectVersion
1070
     0
  0
VISUALSTYLE
  5
586
102
{ACAD_REACTORS
330
30
102
}
102
{ACAD_XDICTIONARY
360
603
102
}
330
30
100
AcDbVisualStyle
  2
Sketchy
 70
    24
 71
     1
 72
     2
 73
     2
 90
        0
 40
0.6
 41
30.0
 62
     5
 63
     7
 74
     2
 91
        2
 64
     7
 65
     7
 75
     1
175
     1
 42
40.0
 92
       11
 66
     7
 43
1.0
 76
     1
 77
     6
 78
     2
 67
     7
 79
     6
170
     0
171
     0
290
     0
174
     0
 93
        1
 44
0.0
173
     0
291
     0
 45
0.0
1001
ACAD
1000
AcDbSavedByObjectVersion
1070
     0
  0
VISUALSTYLE
  5
57E
102
{ACAD_REACTORS
330
30
102
}
102
{ACAD_XDICTIONARY
360
5F3
102
}
330
30
100
AcDbVisualStyle
  2
Thicken
 70
    13
 71
     2
 72
     2
 73
     0
 90
        0
 40
0.6
 41
30.0
 62
     5
 63
     7
 74
     1
 91
        4
 64
     7
 65
   257
 75
     1
175
     1
 42
1.0
 92
       12
 66
     7
 43
1.0
 76
     1
 77
     6
 78
     2
 67
     7
 79
     5
170
     0
171
     0
290
     0
174
     0
 93
        1
 44
0.0
173
     0
291
     1
 45
0.0
1001
ACAD
1000
AcDbSavedByObjectVersion
1070
     0
  0
VISUALSTYLE
  5
577
102
{ACAD_REACTORS
330
30
102
}
102
{ACAD_XDICTIONARY
360
5E5
102
}
330
30
100
AcDbVisualStyle
  2
Wireframe
 70
     5
 71
     0
 72
     2
 73
     0
 90
        0
 40
0.6
 41
30.0
 62
     5
 63
     7
 74
     1
 91
        4
 64
     7
 65
   257
 75
     1
175
     1
 42
1.0
 92
        0
 66
   257
 43
1.0
 76
     1
 77
     6
 78
     2
 67
     7
 79
     5
170
     0
171
     0
290
     0
174
     0
 93
        1
 44
0.0
173
     0
291
     0
 45
0.0
1001
ACAD
1000
AcDbSavedByObjectVersion
1070
     0
  0
VISUALSTYLE
  5
587
102
{ACAD_REACTORS
330
30
102
}
102
{ACAD_XDICTIONARY
360
605
102
}
330
30
100
AcDbVisualStyle
  2
X-Ray
 70
    25
 71
     2
 72
     2
 73
     1
 90
        1
 40
0.5
 41
30.0
 62
     5
 63
     7
 74
     1
 91
        0
 64
     7
 65
   257
 75
     1
175
     1
 42
1.0
 92
        8
 66
     7
 43
1.0
 76
     1
 77
     6
 78
     2
 67
     7
 79
     3
170
     0
171
     0
290
     0
174
     0
 93
       13
 44
0.0
173
     0
291
     0
 45
0.0
1001
ACAD
1000
AcDbSavedByObjectVersion
1070
     0
  0
XRECORD
  5
5CF
102
{ACAD_REACTORS
330
5CE
102
}
330
5CE
100
AcDbXrecord
280
     1
340
2F
  0
XRECORD
  5
5D0
102
{ACAD_REACTORS
330
5CE
102
}
330
5CE
100
AcDbXrecord
280
     1
340
B
  0
DICTIONARYVAR
  5
56E
102
{ACAD_REACTORS
330
56D
102
}
330
56D
100
DictionaryVariables
280
     0
  1
1:1
  0
DICTIONARYVAR
  5
58C
102
{ACAD_REACTORS
330
56D
102
}
330
56D
100
DictionaryVariables
280
     0
  1
Standard
  0
DICTIONARYVAR
  5
595
102
{ACAD_REACTORS
330
56D
102
}
330
56D
100
DictionaryVariables
280
     0
  1
Standard
  0
DICTIONARYVAR
  5
5CC
102
{ACAD_REACTORS
330
56D
102
}
330
56D
100
DictionaryVariables
280
     0
  1
0
  0
DICTIONARYVAR
  5
5CD
102
{ACAD_REACTORS
330
56D
102
}
330
56D
100
DictionaryVariables
280
     0
  1
0
  0
DICTIONARYVAR
  5
5D4
102
{ACAD_REACTORS
330
56D
102
}
330
56D
100
DictionaryVariables
280
     0
  1
1
  0
DICTIONARY
  5
23
330
21
100
AcDbDictionary
280
     1
281
     1
  0
DICTIONARY
  5
5D9
330
69
100
AcDbDictionary
280
     1
281
     1
  3
ACAD_XREC_ROUNDTRIP
360
5DA
  0
DICTIONARY
  5
5D5
330
12
100
AcDbDictionary
280
     1
281
     1
  3
ACAD_XREC_ROUNDTRIP
360
5D6
  0
DICTIONARY
  5
5D7
330
A
100
AcDbDictionary
280
     1
281
     1
  3
ACAD_XREC_ROUNDTRIP
360
5D8
  0
DICTIONARY
  5
60B
330
58A
100
AcDbDictionary
280
     1
281
     1
  3
ACAD_XREC_ROUNDTRIP
360
60C
  0
DICTIONARY
  5
5DB
330
33
100
AcDbDictionary
280
     1
281
     1
  3
ACAD_XREC_ROUNDTRIP
360
5DC
  0
DICTIONARY
  5
5E9
330
579
100
AcDbDictionary
280
     1
281
     1
  3
ACAD_XREC_ROUNDTRIP
360
5EA
  0
DICTIONARY
  5
5F1
330
57D
100
AcDbDictionary
280
     1
281
     1
  3
ACAD_XREC_ROUNDTRIP
360
5F2
  0
DICTIONARY
  5
5F9
330
581
100
AcDbDictionary
280
     1
281
     1
  3
ACAD_XREC_ROUNDTRIP
360
5FA
  0
DICTIONARY
  5
5ED
330
57B
100
AcDbDictionary
280
     1
281
     1
  3
ACAD_XREC_ROUNDTRIP
360
5EE
  0
DICTIONARY
  5
5EF
330
57C
100
AcDbDictionary
280
     1
281
     1
  3
ACAD_XREC_ROUNDTRIP
360
5F0
  0
DICTIONARY
  5
5FF
330
584
100
AcDbDictionary
280
     1
281
     1
  3
ACAD_XREC_ROUNDTRIP
360
600
  0
DICTIONARY
  5
5F7
330
580
100
AcDbDictionary
280
     1
281
     1
  3
ACAD_XREC_ROUNDTRIP
360
5F8
  0
DICTIONARY
  5
5DD
330
573
100
AcDbDictionary
280
     1
281
     1
  3
ACAD_XREC_ROUNDTRIP
360
5DE
  0
DICTIONARY
  5
5DF
330
574
100
AcDbDictionary
280
     1
281
     1
  3
ACAD_XREC_ROUNDTRIP
360
5E0
  0
DICTIONARY
  5
5E1
330
575
100
AcDbDictionary
280
     1
281
     1
  3
ACAD_XREC_ROUNDTRIP
360
5E2
  0
DICTIONARY
  5
5E3
330
576
100
AcDbDictionary
280
     1
281
     1
  3
ACAD_XREC_ROUNDTRIP
360
5E4
  0
DICTIONARY
  5
5E7
330
578
100
AcDbDictionary
280
     1
281
     1
  3
ACAD_XREC_ROUNDTRIP
360
5E8
  0
DICTIONARY
  5
5FB
330
582
100
AcDbDictionary
280
     1
281
     1
  3
ACAD_XREC_ROUNDTRIP
360
5FC
  0
DICTIONARY
  5
5F5
330
57F
100
AcDbDictionary
280
     1
281
     1
  3
ACAD_XREC_ROUNDTRIP
360
5F6
  0
DICTIONARY
  5
5FD
330
583
100
AcDbDictionary
280
     1
281
     1
  3
ACAD_XREC_ROUNDTRIP
360
5FE
  0
DICTIONARY
  5
5EB
330
57A
100
AcDbDictionary
280
     1
281
     1
  3
ACAD_XREC_ROUNDTRIP
360
5EC
  0
DICTIONARY
  5
609
330
589
100
AcDbDictionary
280
     1
281
     1
  3
ACAD_XREC_ROUNDTRIP
360
60A
  0
DICTIONARY
  5
607
330
588
100
AcDbDictionary
280
     1
281
     1
  3
ACAD_XREC_ROUNDTRIP
360
608
  0
DICTIONARY
  5
601
330
585
100
AcDbDictionary
280
     1
281
     1
  3
ACAD_XREC_ROUNDTRIP
360
602
  0
DICTIONARY
  5
603
330
586
100
AcDbDictionary
280
     1
281
     1
  3
ACAD_XREC_ROUNDTRIP
360
604
  0
DICTIONARY
  5
5F3
330
57E
100
AcDbDictionary
280
     1
281
     1
  3
ACAD_XREC_ROUNDTRIP
360
5F4
  0
DICTIONARY
  5
5E5
330
577
100
AcDbDictionary
280
     1
281
     1
  3
ACAD_XREC_ROUNDTRIP
360
5E6
  0
DICTIONARY
  5
605
330
587
100
AcDbDictionary
280
     1
281
     1
  3
ACAD_XREC_ROUNDTRIP
360
606
  0
XRECORD
  5
5DA
102
{ACAD_REACTORS
330
5D9
102
}
330
5D9
100
AcDbXrecord
280
     1
102
MATERIAL
148
0.0
149
0.0
149
0.0
 93
        0
 94
      127
282
     0
 72
     0
 77
     0
171
     0
175
     0
179
     0
273
     0
  0
XRECORD
  5
5D6
102
{ACAD_REACTORS
330
5D5
102
}
330
5D5
100
AcDbXrecord
280
     1
102
MATERIAL
148
0.0
149
0.0
149
0.0
 93
        0
 94
      127
282
     0
 72
     0
 77
     0
171
     0
175
     0
179
     0
273
     0
  0
XRECORD
  5
5D8
102
{ACAD_REACTORS
330
5D7
102
}
330
5D7
100
AcDbXrecord
280
     1
102
MATERIAL
148
0.0
149
0.0
149
0.0
 93
        0
 94
      127
282
     0
 72
     0
 77
     0
171
     0
175
     0
179
     0
273
     0
  0
XRECORD
  5
60C
102
{ACAD_REACTORS
330
60B
102
}
330
60B
100
AcDbXrecord
280
     1
102
ACAD_ROUNDTRIP_2010_MLEADER_STYLE
  0
XRECORD
  5
5DC
102
{ACAD_REACTORS
330
5DB
102
}
330
5DB
100
AcDbXrecord
280
     1
102
RTVSPropertyOp0
 70
     1
102
RTVSPropertyOp1
 70
     1
102
RTVSPropertyOp2
 70
     1
102
RTVSPropertyOp3
 70
     1
102
RTVSPropertyOp4
 70
     1
102
RTVSPropertyOp5
 70
     1
102
RTVSPropertyOp6
 70
     1
102
RTVSPropertyOp7
 70
     1
102
RTVSPropertyOp8
 70
     1
102
RTVSPropertyOp9
 70
     1
102
RTVSPropertyOp10
 70
     1
102
RTVSPropertyOp11
 70
     1
102
RTVSPropertyOp12
 70
     1
102
RTVSPropertyOp13
 70
     1
102
RTVSPropertyOp14
 70
     1
102
RTVSPropertyOp15
 70
     1
102
RTVSPropertyOp16
 70
     1
102
RTVSPropertyOp17
 70
     1
102
RTVSPropertyOp18
 70
     1
102
RTVSPropertyOp19
 70
     1
102
RTVSPropertyOp20
 70
     1
102
RTVSPropertyOp21
 70
     1
102
RTVSPropertyOp22
 70
     1
102
RTVSPropertyOp23
 70
     1
102
RTVSPropertyOp24
 70
     1
102
RTVSPropertyOp25
 70
     1
102
RTVSPropertyOp26
 70
     1
102
RTVSPropertyOp27
 70
     1
102
RTVSPropertyOp28
 70
     1
102
RTVSPropertyOp29
 70
     1
102
RTVSPropertyOp30
 70
     1
102
RTVSPropertyOp31
 70
     1
102
RTVSPropertyOp32
 70
     1
102
RTVSPropertyOp33
 70
     1
102
RTVSPropertyOp34
 70
     1
102
RTVSPropertyOp35
 70
     1
102
RTVSPropertyOp36
 70
     1
102
RTVSPropertyOp37
 70
     1
102
RTVSPropertyOp38
 70
     1
102
RTVSPropertyOp39
 70
     1
102
RTVSPropertyOp40
 70
     1
102
RTVSPropertyOp41
 70
     1
102
RTVSPropertyOp42
 70
     1
102
RTVSPropertyOp43
 70
     1
102
RTVSPropertyOp44
 70
     1
102
RTVSPropertyOp45
 70
     1
102
RTVSPropertyOp46
 70
     1
102
RTVSPropertyOp47
 70
     1
102
RTVSPropertyOp48
 70
     1
102
RTVSPropertyOp49
 70
     1
102
RTVSPropertyOp50
 70
     1
102
RTVSPropertyOp51
 70
     0
102
RTVSPropertyOp52
 70
     0
102
RTVSPropertyOp53
 70
     1
102
RTVSPropertyOp54
 70
     1
102
RTVSPropertyOp55
 70
     1
102
RTVSPropertyOp56
 70
     1
102
RTVSPropertyOp57
 70
     1
102
RTVSPost2010Prop28
280
     1
102
RTVSPost2010PropOp28
 70
     1
102
RTVSPost2010Prop29
280
     1
102
RTVSPost2010PropOp29
 70
     1
102
RTVSPost2010Prop30
280
     0
102
RTVSPost2010PropOp30
 70
     1
102
RTVSPost2010Prop31
280
     0
102
RTVSPost2010PropOp31
 70
     1
102
RTVSPost2010Prop32
280
     0
102
RTVSPost2010PropOp32
 70
     1
102
RTVSPost2010Prop33
280
     0
102
RTVSPost2010PropOp33
 70
     1
102
RTVSPost2010Prop34
280
     0
102
RTVSPost2010PropOp34
 70
     1
102
RTVSPost2010Prop35
280
     0
102
RTVSPost2010PropOp35
 70
     1
102
RTVSPost2010Prop36
280
     0
102
RTVSPost2010PropOp36
 70
     1
102
RTVSPost2010Prop37
 90
       50
102
RTVSPost2010PropOp37
 70
     1
102
RTVSPost2010Prop38
140
0.0
102
RTVSPost2010PropOp38
 70
     1
102
RTVSPost2010Prop39
140
1.0
102
RTVSPost2010PropOp39
 70
     1
102
RTVSPost2010Prop40
 90
        0
102
RTVSPost2010PropOp40
 70
     1
102
RTVSPost2010Prop41ColorIndex
 90
       18
102
RTVSPost2010Prop41ColorRGB
 90
        0
102
RTVSPost2010PropOp41
 70
     1
102
RTVSPost2010Prop42
 90
       50
102
RTVSPost2010PropOp42
 70
     1
102
RTVSPost2010Prop43
 90
        3
102
RTVSPost2010PropOp43
 70
     1
102
RTVSPost2010Prop44ColorIndex
 90
        5
102
RTVSPost2010Prop44ColorRGB
 90
      255
102
RTVSPost2010PropOp44
 70
     1
102
RTVSPost2010Prop45
280
     0
102
RTVSPost2010PropOp45
 70
     1
102
RTVSPost2010Prop46
 90
       50
102
RTVSPost2010PropOp46
 70
     1
102
RTVSPost2010Prop47
 90
       50
102
RTVSPost2010PropOp47
 70
     1
102
RTVSPost2010Prop48
 90
       50
102
RTVSPost2010PropOp48
 70
     1
102
RTVSPost2010Prop49
280
     0
102
RTVSPost2010PropOp49
 70
     1
102
RTVSPost2010Prop50
 90
       50
102
RTVSPost2010PropOp50
 70
     1
102
RTVSPost2010Prop51ColorIndex
 90
      256
102
RTVSPost2010Prop51ColorRGB
 90
-16777216
102
RTVSPost2010PropOp51
 70
     0
102
RTVSPost2010Prop52
140
1.0
102
RTVSPost2010PropOp52
 70
     0
102
RTVSPost2010Prop53
 90
        2
102
RTVSPost2010PropOp53
 70
     1
102
RTVSPost2010Prop54
  1
strokes_ogs.tif
102
RTVSPost2010PropOp54
 70
     1
102
RTVSPost2010Prop55
280
     0
102
RTVSPost2010PropOp55
 70
     1
102
RTVSPost2010Prop56
140
1.0
102
RTVSPost2010PropOp56
 70
     1
102
RTVSPost2010Prop57
140
1.0
102
RTVSPost2010PropOp57
 70
     1
  0
XRECORD
  5
5EA
102
{ACAD_REACTORS
330
5E9
102
}
330
5E9
100
AcDbXrecord
280
     1
102
RTVSPropertyOp0
 70
     1
102
RTVSPropertyOp1
 70
     1
102
RTVSPropertyOp2
 70
     1
102
RTVSPropertyOp3
 70
     1
102
RTVSPropertyOp4
 70
     1
102
RTVSPropertyOp5
 70
     1
102
RTVSPropertyOp6
 70
     1
102
RTVSPropertyOp7
 70
     1
102
RTVSPropertyOp8
 70
     1
102
RTVSPropertyOp9
 70
     1
102
RTVSPropertyOp10
 70
     1
102
RTVSPropertyOp11
 70
     1
102
RTVSPropertyOp12
 70
     1
102
RTVSPropertyOp13
 70
     1
102
RTVSPropertyOp14
 70
     1
102
RTVSPropertyOp15
 70
     1
102
RTVSPropertyOp16
 70
     1
102
RTVSPropertyOp17
 70
     1
102
RTVSPropertyOp18
 70
     1
102
RTVSPropertyOp19
 70
     1
102
RTVSPropertyOp20
 70
     1
102
RTVSPropertyOp21
 70
     1
102
RTVSPropertyOp22
 70
     1
102
RTVSPropertyOp23
 70
     1
102
RTVSPropertyOp24
 70
     1
102
RTVSPropertyOp25
 70
     1
102
RTVSPropertyOp26
 70
     1
102
RTVSPropertyOp27
 70
     1
102
RTVSPropertyOp28
 70
     1
102
RTVSPropertyOp29
 70
     1
102
RTVSPropertyOp30
 70
     1
102
RTVSPropertyOp31
 70
     1
102
RTVSPropertyOp32
 70
     1
102
RTVSPropertyOp33
 70
     1
102
RTVSPropertyOp34
 70
     1
102
RTVSPropertyOp35
 70
     1
102
RTVSPropertyOp36
 70
     1
102
RTVSPropertyOp37
 70
     1
102
RTVSPropertyOp38
 70
     1
102
RTVSPropertyOp39
 70
     1
102
RTVSPropertyOp40
 70
     1
102
RTVSPropertyOp41
 70
     1
102
RTVSPropertyOp42
 70
     1
102
RTVSPropertyOp43
 70
     1
102
RTVSPropertyOp44
 70
     1
102
RTVSPropertyOp45
 70
     1
102
RTVSPropertyOp46
 70
     1
102
RTVSPropertyOp47
 70
     1
102
RTVSPropertyOp48
 70
     1
102
RTVSPropertyOp49
 70
     1
102
RTVSPropertyOp50
 70
     1
102
RTVSPropertyOp51
 70
     0
102
RTVSPropertyOp52
 70
     0
102
RTVSPropertyOp53
 70
     1
102
RTVSPropertyOp54
 70
     1
102
RTVSPropertyOp55
 70
     1
102
RTVSPropertyOp56
 70
     1
102
RTVSPropertyOp57
 70
     1
102
RTVSPost2010Prop28
280
     0
102
RTVSPost2010PropOp28
 70
     1
102
RTVSPost2010Prop29
280
     1
102
RTVSPost2010PropOp29
 70
     1
102
RTVSPost2010Prop30
280
     1
102
RTVSPost2010PropOp30
 70
     1
102
RTVSPost2010Prop31
280
     0
102
RTVSPost2010PropOp31
 70
     1
102
RTVSPost2010Prop32
280
     0
102
RTVSPost2010PropOp32
 70
     1
102
RTVSPost2010Prop33
280
     0
102
RTVSPost2010PropOp33
 70
     1
102
RTVSPost2010Prop34
280
     0
102
RTVSPost2010PropOp34
 70
     1
102
RTVSPost2010Prop35
280
     0
102
RTVSPost2010PropOp35
 70
     1
102
RTVSPost2010Prop36
280
     0
102
RTVSPost2010PropOp36
 70
     1
102
RTVSPost2010Prop37
 90
       50
102
RTVSPost2010PropOp37
 70
     1
102
RTVSPost2010Prop38
140
0.0
102
RTVSPost2010PropOp38
 70
     1
102
RTVSPost2010Prop39
140
1.0
102
RTVSPost2010PropOp39
 70
     1
102
RTVSPost2010Prop40
 90
        0
102
RTVSPost2010PropOp40
 70
     1
102
RTVSPost2010Prop41ColorIndex
 90
       18
102
RTVSPost2010Prop41ColorRGB
 90
        0
102
RTVSPost2010PropOp41
 70
     1
102
RTVSPost2010Prop42
 90
       50
102
RTVSPost2010PropOp42
 70
     1
102
RTVSPost2010Prop43
 90
        3
102
RTVSPost2010PropOp43
 70
     1
102
RTVSPost2010Prop44ColorIndex
 90
        5
102
RTVSPost2010Prop44ColorRGB
 90
      255
102
RTVSPost2010PropOp44
 70
     1
102
RTVSPost2010Prop45
280
     0
102
RTVSPost2010PropOp45
 70
     1
102
RTVSPost2010Prop46
 90
       50
102
RTVSPost2010PropOp46
 70
     1
102
RTVSPost2010Prop47
 90
       50
102
RTVSPost2010PropOp47
 70
     1
102
RTVSPost2010Prop48
 90
       50
102
RTVSPost2010PropOp48
 70
     1
102
RTVSPost2010Prop49
280
     0
102
RTVSPost2010PropOp49
 70
     1
102
RTVSPost2010Prop50
 90
       50
102
RTVSPost2010PropOp50
 70
     1
102
RTVSPost2010Prop51ColorIndex
 90
      256
102
RTVSPost2010Prop51ColorRGB
 90
-16777216
102
RTVSPost2010PropOp51
 70
     0
102
RTVSPost2010Prop52
140
1.0
102
RTVSPost2010PropOp52
 70
     0
102
RTVSPost2010Prop53
 90
        2
102
RTVSPost2010PropOp53
 70
     1
102
RTVSPost2010Prop54
  1
strokes_ogs.tif
102
RTVSPost2010PropOp54
 70
     1
102
RTVSPost2010Prop55
280
     0
102
RTVSPost2010PropOp55
 70
     1
102
RTVSPost2010Prop56
140
1.0
102
RTVSPost2010PropOp56
 70
     1
102
RTVSPost2010Prop57
140
1.0
102
RTVSPost2010PropOp57
 70
     1
  0
XRECORD
  5
5F2
102
{ACAD_REACTORS
330
5F1
102
}
330
5F1
100
AcDbXrecord
280
     1
102
RTVSPropertyOp0
 70
     1
102
RTVSPropertyOp1
 70
     1
102
RTVSPropertyOp2
 70
     1
102
RTVSPropertyOp3
 70
     1
102
RTVSPropertyOp4
 70
     1
102
RTVSPropertyOp5
 70
     1
102
RTVSPropertyOp6
 70
     1
102
RTVSPropertyOp7
 70
     1
102
RTVSPropertyOp8
 70
     1
102
RTVSPropertyOp9
 70
     1
102
RTVSPropertyOp10
 70
     1
102
RTVSPropertyOp11
 70
     1
102
RTVSPropertyOp12
 70
     1
102
RTVSPropertyOp13
 70
     1
102
RTVSPropertyOp14
 70
     1
102
RTVSPropertyOp15
 70
     1
102
RTVSPropertyOp16
 70
     1
102
RTVSPropertyOp17
 70
     1
102
RTVSPropertyOp18
 70
     1
102
RTVSPropertyOp19
 70
     1
102
RTVSPropertyOp20
 70
     1
102
RTVSPropertyOp21
 70
     1
102
RTVSPropertyOp22
 70
     1
102
RTVSPropertyOp23
 70
     1
102
RTVSPropertyOp24
 70
     1
102
RTVSPropertyOp25
 70
     1
102
RTVSPropertyOp26
 70
     1
102
RTVSPropertyOp27
 70
     1
102
RTVSPropertyOp28
 70
     1
102
RTVSPropertyOp29
 70
     1
102
RTVSPropertyOp30
 70
     1
102
RTVSPropertyOp31
 70
     1
102
RTVSPropertyOp32
 70
     1
102
RTVSPropertyOp33
 70
     1
102
RTVSPropertyOp34
 70
     1
102
RTVSPropertyOp35
 70
     1
102
RTVSPropertyOp36
 70
     1
102
RTVSPropertyOp37
 70
     1
102
RTVSPropertyOp38
 70
     1
102
RTVSPropertyOp39
 70
     1
102
RTVSPropertyOp40
 70
     1
102
RTVSPropertyOp41
 70
     1
102
RTVSPropertyOp42
 70
     1
102
RTVSPropertyOp43
 70
     1
102
RTVSPropertyOp44
 70
     1
102
RTVSPropertyOp45
 70
     1
102
RTVSPropertyOp46
 70
     1
102
RTVSPropertyOp47
 70
     1
102
RTVSPropertyOp48
 70
     1
102
RTVSPropertyOp49
 70
     1
102
RTVSPropertyOp50
 70
     1
102
RTVSPropertyOp51
 70
     0
102
RTVSPropertyOp52
 70
     0
102
RTVSPropertyOp53
 70
     1
102
RTVSPropertyOp54
 70
     1
102
RTVSPropertyOp55
 70
     1
102
RTVSPropertyOp56
 70
     1
102
RTVSPropertyOp57
 70
     1
102
RTVSPost2010Prop28
280
     0
102
RTVSPost2010PropOp28
 70
     1
102
RTVSPost2010Prop29
280
     1
102
RTVSPost2010PropOp29
 70
     1
102
RTVSPost2010Prop30
280
     1
102
RTVSPost2010PropOp30
 70
     1
102
RTVSPost2010Prop31
280
     0
102
RTVSPost2010PropOp31
 70
     1
102
RTVSPost2010Prop32
280
     0
102
RTVSPost2010PropOp32
 70
     1
102
RTVSPost2010Prop33
280
     0
102
RTVSPost2010PropOp33
 70
     1
102
RTVSPost2010Prop34
280
     0
102
RTVSPost2010PropOp34
 70
     1
102
RTVSPost2010Prop35
280
     0
102
RTVSPost2010PropOp35
 70
     1
102
RTVSPost2010Prop36
280
     0
102
RTVSPost2010PropOp36
 70
     1
102
RTVSPost2010Prop37
 90
       50
102
RTVSPost2010PropOp37
 70
     1
102
RTVSPost2010Prop38
140
0.0
102
RTVSPost2010PropOp38
 70
     1
102
RTVSPost2010Prop39
140
1.0
102
RTVSPost2010PropOp39
 70
     1
102
RTVSPost2010Prop40
 90
        0
102
RTVSPost2010PropOp40
 70
     1
102
RTVSPost2010Prop41ColorIndex
 90
       18
102
RTVSPost2010Prop41ColorRGB
 90
        0
102
RTVSPost2010PropOp41
 70
     1
102
RTVSPost2010Prop42
 90
       50
102
RTVSPost2010PropOp42
 70
     1
102
RTVSPost2010Prop43
 90
        3
102
RTVSPost2010PropOp43
 70
     1
102
RTVSPost2010Prop44ColorIndex
 90
        5
102
RTVSPost2010Prop44ColorRGB
 90
      255
102
RTVSPost2010PropOp44
 70
     1
102
RTVSPost2010Prop45
280
     0
102
RTVSPost2010PropOp45
 70
     1
102
RTVSPost2010Prop46
 90
       50
102
RTVSPost2010PropOp46
 70
     1
102
RTVSPost2010Prop47
 90
       50
102
RTVSPost2010PropOp47
 70
     1
102
RTVSPost2010Prop48
 90
       50
102
RTVSPost2010PropOp48
 70
     1
102
RTVSPost2010Prop49
280
     0
102
RTVSPost2010PropOp49
 70
     1
102
RTVSPost2010Prop50
 90
       50
102
RTVSPost2010PropOp50
 70
     1
102
RTVSPost2010Prop51ColorIndex
 90
      256
102
RTVSPost2010Prop51ColorRGB
 90
-16777216
102
RTVSPost2010PropOp51
 70
     0
102
RTVSPost2010Prop52
140
1.0
102
RTVSPost2010PropOp52
 70
     0
102
RTVSPost2010Prop53
 90
        2
102
RTVSPost2010PropOp53
 70
     1
102
RTVSPost2010Prop54
  1
strokes_ogs.tif
102
RTVSPost2010PropOp54
 70
     1
102
RTVSPost2010Prop55
280
     0
102
RTVSPost2010PropOp55
 70
     1
102
RTVSPost2010Prop56
140
1.0
102
RTVSPost2010PropOp56
 70
     1
102
RTVSPost2010Prop57
140
1.0
102
RTVSPost2010PropOp57
 70
     1
  0
XRECORD
  5
5FA
102
{ACAD_REACTORS
330
5F9
102
}
330
5F9
100
AcDbXrecord
280
     1
102
RTVSPropertyOp0
 70
     1
102
RTVSPropertyOp1
 70
     1
102
RTVSPropertyOp2
 70
     1
102
RTVSPropertyOp3
 70
     1
102
RTVSPropertyOp4
 70
     1
102
RTVSPropertyOp5
 70
     1
102
RTVSPropertyOp6
 70
     1
102
RTVSPropertyOp7
 70
     1
102
RTVSPropertyOp8
 70
     1
102
RTVSPropertyOp9
 70
     1
102
RTVSPropertyOp10
 70
     1
102
RTVSPropertyOp11
 70
     1
102
RTVSPropertyOp12
 70
     1
102
RTVSPropertyOp13
 70
     1
102
RTVSPropertyOp14
 70
     1
102
RTVSPropertyOp15
 70
     1
102
RTVSPropertyOp16
 70
     1
102
RTVSPropertyOp17
 70
     1
102
RTVSPropertyOp18
 70
     1
102
RTVSPropertyOp19
 70
     1
102
RTVSPropertyOp20
 70
     1
102
RTVSPropertyOp21
 70
     1
102
RTVSPropertyOp22
 70
     1
102
RTVSPropertyOp23
 70
     1
102
RTVSPropertyOp24
 70
     1
102
RTVSPropertyOp25
 70
     1
102
RTVSPropertyOp26
 70
     1
102
RTVSPropertyOp27
 70
     1
102
RTVSPropertyOp28
 70
     1
102
RTVSPropertyOp29
 70
     1
102
RTVSPropertyOp30
 70
     1
102
RTVSPropertyOp31
 70
     1
102
RTVSPropertyOp32
 70
     1
102
RTVSPropertyOp33
 70
     1
102
RTVSPropertyOp34
 70
     1
102
RTVSPropertyOp35
 70
     1
102
RTVSPropertyOp36
 70
     1
102
RTVSPropertyOp37
 70
     1
102
RTVSPropertyOp38
 70
     1
102
RTVSPropertyOp39
 70
     1
102
RTVSPropertyOp40
 70
     1
102
RTVSPropertyOp41
 70
     1
102
RTVSPropertyOp42
 70
     1
102
RTVSPropertyOp43
 70
     1
102
RTVSPropertyOp44
 70
     1
102
RTVSPropertyOp45
 70
     1
102
RTVSPropertyOp46
 70
     1
102
RTVSPropertyOp47
 70
     1
102
RTVSPropertyOp48
 70
     1
102
RTVSPropertyOp49
 70
     1
102
RTVSPropertyOp50
 70
     1
102
RTVSPropertyOp51
 70
     0
102
RTVSPropertyOp52
 70
     0
102
RTVSPropertyOp53
 70
     1
102
RTVSPropertyOp54
 70
     1
102
RTVSPropertyOp55
 70
     1
102
RTVSPropertyOp56
 70
     1
102
RTVSPropertyOp57
 70
     1
102
RTVSPost2010Prop28
280
     0
102
RTVSPost2010PropOp28
 70
     1
102
RTVSPost2010Prop29
280
     1
102
RTVSPost2010PropOp29
 70
     1
102
RTVSPost2010Prop30
280
     1
102
RTVSPost2010PropOp30
 70
     1
102
RTVSPost2010Prop31
280
     0
102
RTVSPost2010PropOp31
 70
     1
102
RTVSPost2010Prop32
280
     0
102
RTVSPost2010PropOp32
 70
     1
102
RTVSPost2010Prop33
280
     0
102
RTVSPost2010PropOp33
 70
     1
102
RTVSPost2010Prop34
280
     0
102
RTVSPost2010PropOp34
 70
     1
102
RTVSPost2010Prop35
280
     0
102
RTVSPost2010PropOp35
 70
     1
102
RTVSPost2010Prop36
280
     0
102
RTVSPost2010PropOp36
 70
     1
102
RTVSPost2010Prop37
 90
       50
102
RTVSPost2010PropOp37
 70
     1
102
RTVSPost2010Prop38
140
0.0
102
RTVSPost2010PropOp38
 70
     1
102
RTVSPost2010Prop39
140
1.0
102
RTVSPost2010PropOp39
 70
     1
102
RTVSPost2010Prop40
 90
        0
102
RTVSPost2010PropOp40
 70
     1
102
RTVSPost2010Prop41ColorIndex
 90
       18
102
RTVSPost2010Prop41ColorRGB
 90
        0
102
RTVSPost2010PropOp41
 70
     1
102
RTVSPost2010Prop42
 90
       50
102
RTVSPost2010PropOp42
 70
     1
102
RTVSPost2010Prop43
 90
        3
102
RTVSPost2010PropOp43
 70
     1
102
RTVSPost2010Prop44ColorIndex
 90
        5
102
RTVSPost2010Prop44ColorRGB
 90
      255
102
RTVSPost2010PropOp44
 70
     1
102
RTVSPost2010Prop45
280
     0
102
RTVSPost2010PropOp45
 70
     1
102
RTVSPost2010Prop46
 90
       50
102
RTVSPost2010PropOp46
 70
     1
102
RTVSPost2010Prop47
 90
       50
102
RTVSPost2010PropOp47
 70
     1
102
RTVSPost2010Prop48
 90
       50
102
RTVSPost2010PropOp48
 70
     1
102
RTVSPost2010Prop49
280
     0
102
RTVSPost2010PropOp49
 70
     1
102
RTVSPost2010Prop50
 90
       50
102
RTVSPost2010PropOp50
 70
     1
102
RTVSPost2010Prop51ColorIndex
 90
      256
102
RTVSPost2010Prop51ColorRGB
 90
-16777216
102
RTVSPost2010PropOp51
 70
     0
102
RTVSPost2010Prop52
140
1.0
102
RTVSPost2010PropOp52
 70
     0
102
RTVSPost2010Prop53
 90
        2
102
RTVSPost2010PropOp53
 70
     1
102
RTVSPost2010Prop54
  1
strokes_ogs.tif
102
RTVSPost2010PropOp54
 70
     1
102
RTVSPost2010Prop55
280
     0
102
RTVSPost2010PropOp55
 70
     1
102
RTVSPost2010Prop56
140
1.0
102
RTVSPost2010PropOp56
 70
     1
102
RTVSPost2010Prop57
140
1.0
102
RTVSPost2010PropOp57
 70
     1
  0
XRECORD
  5
5EE
102
{ACAD_REACTORS
330
5ED
102
}
330
5ED
100
AcDbXrecord
280
     1
102
RTVSPropertyOp0
 70
     1
102
RTVSPropertyOp1
 70
     1
102
RTVSPropertyOp2
 70
     1
102
RTVSPropertyOp3
 70
     1
102
RTVSPropertyOp4
 70
     1
102
RTVSPropertyOp5
 70
     1
102
RTVSPropertyOp6
 70
     1
102
RTVSPropertyOp7
 70
     1
102
RTVSPropertyOp8
 70
     1
102
RTVSPropertyOp9
 70
     1
102
RTVSPropertyOp10
 70
     1
102
RTVSPropertyOp11
 70
     1
102
RTVSPropertyOp12
 70
     1
102
RTVSPropertyOp13
 70
     1
102
RTVSPropertyOp14
 70
     1
102
RTVSPropertyOp15
 70
     1
102
RTVSPropertyOp16
 70
     1
102
RTVSPropertyOp17
 70
     1
102
RTVSPropertyOp18
 70
     1
102
RTVSPropertyOp19
 70
     1
102
RTVSPropertyOp20
 70
     1
102
RTVSPropertyOp21
 70
     1
102
RTVSPropertyOp22
 70
     1
102
RTVSPropertyOp23
 70
     1
102
RTVSPropertyOp24
 70
     1
102
RTVSPropertyOp25
 70
     1
102
RTVSPropertyOp26
 70
     1
102
RTVSPropertyOp27
 70
     1
102
RTVSPropertyOp28
 70
     1
102
RTVSPropertyOp29
 70
     1
102
RTVSPropertyOp30
 70
     1
102
RTVSPropertyOp31
 70
     1
102
RTVSPropertyOp32
 70
     1
102
RTVSPropertyOp33
 70
     1
102
RTVSPropertyOp34
 70
     1
102
RTVSPropertyOp35
 70
     1
102
RTVSPropertyOp36
 70
     1
102
RTVSPropertyOp37
 70
     1
102
RTVSPropertyOp38
 70
     1
102
RTVSPropertyOp39
 70
     1
102
RTVSPropertyOp40
 70
     1
102
RTVSPropertyOp41
 70
     1
102
RTVSPropertyOp42
 70
     1
102
RTVSPropertyOp43
 70
     1
102
RTVSPropertyOp44
 70
     1
102
RTVSPropertyOp45
 70
     1
102
RTVSPropertyOp46
 70
     1
102
RTVSPropertyOp47
 70
     1
102
RTVSPropertyOp48
 70
     1
102
RTVSPropertyOp49
 70
     1
102
RTVSPropertyOp50
 70
     1
102
RTVSPropertyOp51
 70
     0
102
RTVSPropertyOp52
 70
     0
102
RTVSPropertyOp53
 70
     1
102
RTVSPropertyOp54
 70
     1
102
RTVSPropertyOp55
 70
     1
102
RTVSPropertyOp56
 70
     1
102
RTVSPropertyOp57
 70
     1
102
RTVSPost2010Prop28
280
     0
102
RTVSPost2010PropOp28
 70
     1
102
RTVSPost2010Prop29
280
     1
102
RTVSPost2010PropOp29
 70
     1
102
RTVSPost2010Prop30
280
     1
102
RTVSPost2010PropOp30
 70
     1
102
RTVSPost2010Prop31
280
     0
102
RTVSPost2010PropOp31
 70
     1
102
RTVSPost2010Prop32
280
     0
102
RTVSPost2010PropOp32
 70
     1
102
RTVSPost2010Prop33
280
     0
102
RTVSPost2010PropOp33
 70
     1
102
RTVSPost2010Prop34
280
     0
102
RTVSPost2010PropOp34
 70
     1
102
RTVSPost2010Prop35
280
     0
102
RTVSPost2010PropOp35
 70
     1
102
RTVSPost2010Prop36
280
     0
102
RTVSPost2010PropOp36
 70
     1
102
RTVSPost2010Prop37
 90
       50
102
RTVSPost2010PropOp37
 70
     1
102
RTVSPost2010Prop38
140
0.0
102
RTVSPost2010PropOp38
 70
     1
102
RTVSPost2010Prop39
140
1.0
102
RTVSPost2010PropOp39
 70
     1
102
RTVSPost2010Prop40
 90
        0
102
RTVSPost2010PropOp40
 70
     1
102
RTVSPost2010Prop41ColorIndex
 90
       18
102
RTVSPost2010Prop41ColorRGB
 90
        0
102
RTVSPost2010PropOp41
 70
     1
102
RTVSPost2010Prop42
 90
       50
102
RTVSPost2010PropOp42
 70
     1
102
RTVSPost2010Prop43
 90
        3
102
RTVSPost2010PropOp43
 70
     1
102
RTVSPost2010Prop44ColorIndex
 90
        5
102
RTVSPost2010Prop44ColorRGB
 90
      255
102
RTVSPost2010PropOp44
 70
     1
102
RTVSPost2010Prop45
280
     0
102
RTVSPost2010PropOp45
 70
     1
102
RTVSPost2010Prop46
 90
       50
102
RTVSPost2010PropOp46
 70
     1
102
RTVSPost2010Prop47
 90
       50
102
RTVSPost2010PropOp47
 70
     1
102
RTVSPost2010Prop48
 90
       50
102
RTVSPost2010PropOp48
 70
     1
102
RTVSPost2010Prop49
280
     0
102
RTVSPost2010PropOp49
 70
     1
102
RTVSPost2010Prop50
 90
       50
102
RTVSPost2010PropOp50
 70
     1
102
RTVSPost2010Prop51ColorIndex
 90
      256
102
RTVSPost2010Prop51ColorRGB
 90
-16777216
102
RTVSPost2010PropOp51
 70
     0
102
RTVSPost2010Prop52
140
1.0
102
RTVSPost2010PropOp52
 70
     0
102
RTVSPost2010Prop53
 90
        2
102
RTVSPost2010PropOp53
 70
     1
102
RTVSPost2010Prop54
  1
strokes_ogs.tif
102
RTVSPost2010PropOp54
 70
     1
102
RTVSPost2010Prop55
280
     0
102
RTVSPost2010PropOp55
 70
     1
102
RTVSPost2010Prop56
140
1.0
102
RTVSPost2010PropOp56
 70
     1
102
RTVSPost2010Prop57
140
1.0
102
RTVSPost2010PropOp57
 70
     1
  0
XRECORD
  5
5F0
102
{ACAD_REACTORS
330
5EF
102
}
330
5EF
100
AcDbXrecord
280
     1
102
RTVSPropertyOp0
 70
     1
102
RTVSPropertyOp1
 70
     1
102
RTVSPropertyOp2
 70
     1
102
RTVSPropertyOp3
 70
     1
102
RTVSPropertyOp4
 70
     1
102
RTVSPropertyOp5
 70
     1
102
RTVSPropertyOp6
 70
     1
102
RTVSPropertyOp7
 70
     1
102
RTVSPropertyOp8
 70
     1
102
RTVSPropertyOp9
 70
     1
102
RTVSPropertyOp10
 70
     1
102
RTVSPropertyOp11
 70
     1
102
RTVSPropertyOp12
 70
     1
102
RTVSPropertyOp13
 70
     1
102
RTVSPropertyOp14
 70
     1
102
RTVSPropertyOp15
 70
     1
102
RTVSPropertyOp16
 70
     1
102
RTVSPropertyOp17
 70
     1
102
RTVSPropertyOp18
 70
     1
102
RTVSPropertyOp19
 70
     1
102
RTVSPropertyOp20
 70
     1
102
RTVSPropertyOp21
 70
     1
102
RTVSPropertyOp22
 70
     1
102
RTVSPropertyOp23
 70
     1
102
RTVSPropertyOp24
 70
     1
102
RTVSPropertyOp25
 70
     1
102
RTVSPropertyOp26
 70
     1
102
RTVSPropertyOp27
 70
     1
102
RTVSPropertyOp28
 70
     1
102
RTVSPropertyOp29
 70
     1
102
RTVSPropertyOp30
 70
     1
102
RTVSPropertyOp31
 70
     1
102
RTVSPropertyOp32
 70
     1
102
RTVSPropertyOp33
 70
     1
102
RTVSPropertyOp34
 70
     1
102
RTVSPropertyOp35
 70
     1
102
RTVSPropertyOp36
 70
     1
102
RTVSPropertyOp37
 70
     1
102
RTVSPropertyOp38
 70
     1
102
RTVSPropertyOp39
 70
     1
102
RTVSPropertyOp40
 70
     1
102
RTVSPropertyOp41
 70
     1
102
RTVSPropertyOp42
 70
     1
102
RTVSPropertyOp43
 70
     1
102
RTVSPropertyOp44
 70
     1
102
RTVSPropertyOp45
 70
     1
102
RTVSPropertyOp46
 70
     1
102
RTVSPropertyOp47
 70
     1
102
RTVSPropertyOp48
 70
     1
102
RTVSPropertyOp49
 70
     1
102
RTVSPropertyOp50
 70
     1
102
RTVSPropertyOp51
 70
     0
102
RTVSPropertyOp52
 70
     0
102
RTVSPropertyOp53
 70
     1
102
RTVSPropertyOp54
 70
     1
102
RTVSPropertyOp55
 70
     1
102
RTVSPropertyOp56
 70
     1
102
RTVSPropertyOp57
 70
     1
102
RTVSPost2010Prop28
280
     0
102
RTVSPost2010PropOp28
 70
     1
102
RTVSPost2010Prop29
280
     1
102
RTVSPost2010PropOp29
 70
     1
102
RTVSPost2010Prop30
280
     1
102
RTVSPost2010PropOp30
 70
     1
102
RTVSPost2010Prop31
280
     0
102
RTVSPost2010PropOp31
 70
     1
102
RTVSPost2010Prop32
280
     0
102
RTVSPost2010PropOp32
 70
     1
102
RTVSPost2010Prop33
280
     0
102
RTVSPost2010PropOp33
 70
     1
102
RTVSPost2010Prop34
280
     0
102
RTVSPost2010PropOp34
 70
     1
102
RTVSPost2010Prop35
280
     0
102
RTVSPost2010PropOp35
 70
     1
102
RTVSPost2010Prop36
280
     0
102
RTVSPost2010PropOp36
 70
     1
102
RTVSPost2010Prop37
 90
       50
102
RTVSPost2010PropOp37
 70
     1
102
RTVSPost2010Prop38
140
0.0
102
RTVSPost2010PropOp38
 70
     1
102
RTVSPost2010Prop39
140
1.0
102
RTVSPost2010PropOp39
 70
     1
102
RTVSPost2010Prop40
 90
        0
102
RTVSPost2010PropOp40
 70
     1
102
RTVSPost2010Prop41ColorIndex
 90
       18
102
RTVSPost2010Prop41ColorRGB
 90
        0
102
RTVSPost2010PropOp41
 70
     1
102
RTVSPost2010Prop42
 90
       50
102
RTVSPost2010PropOp42
 70
     1
102
RTVSPost2010Prop43
 90
        3
102
RTVSPost2010PropOp43
 70
     1
102
RTVSPost2010Prop44ColorIndex
 90
        5
102
RTVSPost2010Prop44ColorRGB
 90
      255
102
RTVSPost2010PropOp44
 70
     1
102
RTVSPost2010Prop45
280
     0
102
RTVSPost2010PropOp45
 70
     1
102
RTVSPost2010Prop46
 90
       50
102
RTVSPost2010PropOp46
 70
     1
102
RTVSPost2010Prop47
 90
       50
102
RTVSPost2010PropOp47
 70
     1
102
RTVSPost2010Prop48
 90
       50
102
RTVSPost2010PropOp48
 70
     1
102
RTVSPost2010Prop49
280
     0
102
RTVSPost2010PropOp49
 70
     1
102
RTVSPost2010Prop50
 90
       50
102
RTVSPost2010PropOp50
 70
     1
102
RTVSPost2010Prop51ColorIndex
 90
      256
102
RTVSPost2010Prop51ColorRGB
 90
-16777216
102
RTVSPost2010PropOp51
 70
     0
102
RTVSPost2010Prop52
140
1.0
102
RTVSPost2010PropOp52
 70
     0
102
RTVSPost2010Prop53
 90
        2
102
RTVSPost2010PropOp53
 70
     1
102
RTVSPost2010Prop54
  1
strokes_ogs.tif
102
RTVSPost2010PropOp54
 70
     1
102
RTVSPost2010Prop55
280
     0
102
RTVSPost2010PropOp55
 70
     1
102
RTVSPost2010Prop56
140
1.0
102
RTVSPost2010PropOp56
 70
     1
102
RTVSPost2010Prop57
140
1.0
102
RTVSPost2010PropOp57
 70
     1
  0
XRECORD
  5
600
102
{ACAD_REACTORS
330
5FF
102
}
330
5FF
100
AcDbXrecord
280
     1
102
RTVSPropertyOp0
 70
     0
102
RTVSPropertyOp1
 70
     0
102
RTVSPropertyOp2
 70
     0
102
RTVSPropertyOp3
 70
     0
102
RTVSPropertyOp4
 70
     0
102
RTVSPropertyOp5
 70
     0
102
RTVSPropertyOp6
 70
     0
102
RTVSPropertyOp7
 70
     0
102
RTVSPropertyOp8
 70
     0
102
RTVSPropertyOp9
 70
     0
102
RTVSPropertyOp10
 70
     0
102
RTVSPropertyOp11
 70
     0
102
RTVSPropertyOp12
 70
     0
102
RTVSPropertyOp13
 70
     0
102
RTVSPropertyOp14
 70
     0
102
RTVSPropertyOp15
 70
     0
102
RTVSPropertyOp16
 70
     0
102
RTVSPropertyOp17
 70
     0
102
RTVSPropertyOp18
 70
     0
102
RTVSPropertyOp19
 70
     0
102
RTVSPropertyOp20
 70
     0
102
RTVSPropertyOp21
 70
     0
102
RTVSPropertyOp22
 70
     0
102
RTVSPropertyOp23
 70
     0
102
RTVSPropertyOp24
 70
     0
102
RTVSPropertyOp25
 70
     0
102
RTVSPropertyOp26
 70
     0
102
RTVSPropertyOp27
 70
     0
102
RTVSPropertyOp28
 70
     1
102
RTVSPropertyOp29
 70
     1
102
RTVSPropertyOp30
 70
     1
102
RTVSPropertyOp31
 70
     1
102
RTVSPropertyOp32
 70
     1
102
RTVSPropertyOp33
 70
     1
102
RTVSPropertyOp34
 70
     1
102
RTVSPropertyOp35
 70
     1
102
RTVSPropertyOp36
 70
     1
102
RTVSPropertyOp37
 70
     1
102
RTVSPropertyOp38
 70
     1
102
RTVSPropertyOp39
 70
     1
102
RTVSPropertyOp40
 70
     1
102
RTVSPropertyOp41
 70
     1
102
RTVSPropertyOp42
 70
     1
102
RTVSPropertyOp43
 70
     1
102
RTVSPropertyOp44
 70
     1
102
RTVSPropertyOp45
 70
     1
102
RTVSPropertyOp46
 70
     1
102
RTVSPropertyOp47
 70
     1
102
RTVSPropertyOp48
 70
     1
102
RTVSPropertyOp49
 70
     1
102
RTVSPropertyOp50
 70
     1
102
RTVSPropertyOp51
 70
     0
102
RTVSPropertyOp52
 70
     0
102
RTVSPropertyOp53
 70
     1
102
RTVSPropertyOp54
 70
     1
102
RTVSPropertyOp55
 70
     1
102
RTVSPropertyOp56
 70
     1
102
RTVSPropertyOp57
 70
     1
102
RTVSPost2010Prop28
280
     0
102
RTVSPost2010PropOp28
 70
     1
102
RTVSPost2010Prop29
280
     1
102
RTVSPost2010PropOp29
 70
     1
102
RTVSPost2010Prop30
280
     1
102
RTVSPost2010PropOp30
 70
     1
102
RTVSPost2010Prop31
280
     0
102
RTVSPost2010PropOp31
 70
     1
102
RTVSPost2010Prop32
280
     0
102
RTVSPost2010PropOp32
 70
     1
102
RTVSPost2010Prop33
280
     0
102
RTVSPost2010PropOp33
 70
     1
102
RTVSPost2010Prop34
280
     0
102
RTVSPost2010PropOp34
 70
     1
102
RTVSPost2010Prop35
280
     0
102
RTVSPost2010PropOp35
 70
     1
102
RTVSPost2010Prop36
280
     0
102
RTVSPost2010PropOp36
 70
     1
102
RTVSPost2010Prop37
 90
       50
102
RTVSPost2010PropOp37
 70
     1
102
RTVSPost2010Prop38
140
0.0
102
RTVSPost2010PropOp38
 70
     1
102
RTVSPost2010Prop39
140
1.0
102
RTVSPost2010PropOp39
 70
     1
102
RTVSPost2010Prop40
 90
        0
102
RTVSPost2010PropOp40
 70
     1
102
RTVSPost2010Prop41ColorIndex
 90
       18
102
RTVSPost2010Prop41ColorRGB
 90
        0
102
RTVSPost2010PropOp41
 70
     1
102
RTVSPost2010Prop42
 90
       50
102
RTVSPost2010PropOp42
 70
     1
102
RTVSPost2010Prop43
 90
        3
102
RTVSPost2010PropOp43
 70
     1
102
RTVSPost2010Prop44ColorIndex
 90
        5
102
RTVSPost2010Prop44ColorRGB
 90
      255
102
RTVSPost2010PropOp44
 70
     1
102
RTVSPost2010Prop45
280
     0
102
RTVSPost2010PropOp45
 70
     1
102
RTVSPost2010Prop46
 90
       50
102
RTVSPost2010PropOp46
 70
     1
102
RTVSPost2010Prop47
 90
       50
102
RTVSPost2010PropOp47
 70
     1
102
RTVSPost2010Prop48
 90
       50
102
RTVSPost2010PropOp48
 70
     1
102
RTVSPost2010Prop49
280
     0
102
RTVSPost2010PropOp49
 70
     1
102
RTVSPost2010Prop50
 90
       50
102
RTVSPost2010PropOp50
 70
     1
102
RTVSPost2010Prop51ColorIndex
 90
      256
102
RTVSPost2010Prop51ColorRGB
 90
-16777216
102
RTVSPost2010PropOp51
 70
     0
102
RTVSPost2010Prop52
140
1.0
102
RTVSPost2010PropOp52
 70
     0
102
RTVSPost2010Prop53
 90
        2
102
RTVSPost2010PropOp53
 70
     1
102
RTVSPost2010Prop54
  1
strokes_ogs.tif
102
RTVSPost2010PropOp54
 70
     1
102
RTVSPost2010Prop55
280
     0
102
RTVSPost2010PropOp55
 70
     1
102
RTVSPost2010Prop56
140
1.0
102
RTVSPost2010PropOp56
 70
     1
102
RTVSPost2010Prop57
140
1.0
102
RTVSPost2010PropOp57
 70
     1
  0
XRECORD
  5
5F8
102
{ACAD_REACTORS
330
5F7
102
}
330
5F7
100
AcDbXrecord
280
     1
102
RTVSPropertyOp0
 70
     1
102
RTVSPropertyOp1
 70
     1
102
RTVSPropertyOp2
 70
     1
102
RTVSPropertyOp3
 70
     1
102
RTVSPropertyOp4
 70
     1
102
RTVSPropertyOp5
 70
     1
102
RTVSPropertyOp6
 70
     1
102
RTVSPropertyOp7
 70
     1
102
RTVSPropertyOp8
 70
     1
102
RTVSPropertyOp9
 70
     1
102
RTVSPropertyOp10
 70
     1
102
RTVSPropertyOp11
 70
     1
102
RTVSPropertyOp12
 70
     1
102
RTVSPropertyOp13
 70
     1
102
RTVSPropertyOp14
 70
     1
102
RTVSPropertyOp15
 70
     1
102
RTVSPropertyOp16
 70
     1
102
RTVSPropertyOp17
 70
     1
102
RTVSPropertyOp18
 70
     1
102
RTVSPropertyOp19
 70
     1
102
RTVSPropertyOp20
 70
     1
102
RTVSPropertyOp21
 70
     1
102
RTVSPropertyOp22
 70
     1
102
RTVSPropertyOp23
 70
     1
102
RTVSPropertyOp24
 70
     1
102
RTVSPropertyOp25
 70
     1
102
RTVSPropertyOp26
 70
     1
102
RTVSPropertyOp27
 70
     1
102
RTVSPropertyOp28
 70
     1
102
RTVSPropertyOp29
 70
     1
102
RTVSPropertyOp30
 70
     1
102
RTVSPropertyOp31
 70
     1
102
RTVSPropertyOp32
 70
     1
102
RTVSPropertyOp33
 70
     1
102
RTVSPropertyOp34
 70
     1
102
RTVSPropertyOp35
 70
     1
102
RTVSPropertyOp36
 70
     1
102
RTVSPropertyOp37
 70
     1
102
RTVSPropertyOp38
 70
     1
102
RTVSPropertyOp39
 70
     1
102
RTVSPropertyOp40
 70
     1
102
RTVSPropertyOp41
 70
     1
102
RTVSPropertyOp42
 70
     1
102
RTVSPropertyOp43
 70
     1
102
RTVSPropertyOp44
 70
     1
102
RTVSPropertyOp45
 70
     1
102
RTVSPropertyOp46
 70
     1
102
RTVSPropertyOp47
 70
     1
102
RTVSPropertyOp48
 70
     1
102
RTVSPropertyOp49
 70
     1
102
RTVSPropertyOp50
 70
     1
102
RTVSPropertyOp51
 70
     0
102
RTVSPropertyOp52
 70
     0
102
RTVSPropertyOp53
 70
     1
102
RTVSPropertyOp54
 70
     1
102
RTVSPropertyOp55
 70
     1
102
RTVSPropertyOp56
 70
     1
102
RTVSPropertyOp57
 70
     1
102
RTVSPost2010Prop28
280
     0
102
RTVSPost2010PropOp28
 70
     1
102
RTVSPost2010Prop29
280
     1
102
RTVSPost2010PropOp29
 70
     1
102
RTVSPost2010Prop30
280
     1
102
RTVSPost2010PropOp30
 70
     1
102
RTVSPost2010Prop31
280
     0
102
RTVSPost2010PropOp31
 70
     1
102
RTVSPost2010Prop32
280
     0
102
RTVSPost2010PropOp32
 70
     1
102
RTVSPost2010Prop33
280
     0
102
RTVSPost2010PropOp33
 70
     1
102
RTVSPost2010Prop34
280
     0
102
RTVSPost2010PropOp34
 70
     1
102
RTVSPost2010Prop35
280
     0
102
RTVSPost2010PropOp35
 70
     1
102
RTVSPost2010Prop36
280
     0
102
RTVSPost2010PropOp36
 70
     1
102
RTVSPost2010Prop37
 90
       50
102
RTVSPost2010PropOp37
 70
     1
102
RTVSPost2010Prop38
140
0.0
102
RTVSPost2010PropOp38
 70
     1
102
RTVSPost2010Prop39
140
1.0
102
RTVSPost2010PropOp39
 70
     1
102
RTVSPost2010Prop40
 90
        0
102
RTVSPost2010PropOp40
 70
     1
102
RTVSPost2010Prop41ColorIndex
 90
       18
102
RTVSPost2010Prop41ColorRGB
 90
        0
102
RTVSPost2010PropOp41
 70
     1
102
RTVSPost2010Prop42
 90
       50
102
RTVSPost2010PropOp42
 70
     1
102
RTVSPost2010Prop43
 90
        3
102
RTVSPost2010PropOp43
 70
     1
102
RTVSPost2010Prop44ColorIndex
 90
        5
102
RTVSPost2010Prop44ColorRGB
 90
      255
102
RTVSPost2010PropOp44
 70
     1
102
RTVSPost2010Prop45
280
     0
102
RTVSPost2010PropOp45
 70
     1
102
RTVSPost2010Prop46
 90
       50
102
RTVSPost2010PropOp46
 70
     1
102
RTVSPost2010Prop47
 90
       50
102
RTVSPost2010PropOp47
 70
     1
102
RTVSPost2010Prop48
 90
       50
102
RTVSPost2010PropOp48
 70
     1
102
RTVSPost2010Prop49
280
     0
102
RTVSPost2010PropOp49
 70
     1
102
RTVSPost2010Prop50
 90
       50
102
RTVSPost2010PropOp50
 70
     1
102
RTVSPost2010Prop51ColorIndex
 90
      256
102
RTVSPost2010Prop51ColorRGB
 90
-16777216
102
RTVSPost2010PropOp51
 70
     0
102
RTVSPost2010Prop52
140
1.0
102
RTVSPost2010PropOp52
 70
     0
102
RTVSPost2010Prop53
 90
        2
102
RTVSPost2010PropOp53
 70
     1
102
RTVSPost2010Prop54
  1
strokes_ogs.tif
102
RTVSPost2010PropOp54
 70
     1
102
RTVSPost2010Prop55
280
     0
102
RTVSPost2010PropOp55
 70
     1
102
RTVSPost2010Prop56
140
1.0
102
RTVSPost2010PropOp56
 70
     1
102
RTVSPost2010Prop57
140
1.0
102
RTVSPost2010PropOp57
 70
     1
  0
XRECORD
  5
5DE
102
{ACAD_REACTORS
330
5DD
102
}
330
5DD
100
AcDbXrecord
280
     1
102
RTVSPropertyOp0
 70
     1
102
RTVSPropertyOp1
 70
     1
102
RTVSPropertyOp2
 70
     1
102
RTVSPropertyOp3
 70
     1
102
RTVSPropertyOp4
 70
     1
102
RTVSPropertyOp5
 70
     1
102
RTVSPropertyOp6
 70
     1
102
RTVSPropertyOp7
 70
     1
102
RTVSPropertyOp8
 70
     1
102
RTVSPropertyOp9
 70
     1
102
RTVSPropertyOp10
 70
     1
102
RTVSPropertyOp11
 70
     1
102
RTVSPropertyOp12
 70
     1
102
RTVSPropertyOp13
 70
     1
102
RTVSPropertyOp14
 70
     1
102
RTVSPropertyOp15
 70
     1
102
RTVSPropertyOp16
 70
     1
102
RTVSPropertyOp17
 70
     1
102
RTVSPropertyOp18
 70
     1
102
RTVSPropertyOp19
 70
     1
102
RTVSPropertyOp20
 70
     1
102
RTVSPropertyOp21
 70
     1
102
RTVSPropertyOp22
 70
     1
102
RTVSPropertyOp23
 70
     1
102
RTVSPropertyOp24
 70
     1
102
RTVSPropertyOp25
 70
     1
102
RTVSPropertyOp26
 70
     1
102
RTVSPropertyOp27
 70
     1
102
RTVSPropertyOp28
 70
     1
102
RTVSPropertyOp29
 70
     1
102
RTVSPropertyOp30
 70
     1
102
RTVSPropertyOp31
 70
     1
102
RTVSPropertyOp32
 70
     1
102
RTVSPropertyOp33
 70
     1
102
RTVSPropertyOp34
 70
     1
102
RTVSPropertyOp35
 70
     1
102
RTVSPropertyOp36
 70
     1
102
RTVSPropertyOp37
 70
     1
102
RTVSPropertyOp38
 70
     1
102
RTVSPropertyOp39
 70
     1
102
RTVSPropertyOp40
 70
     1
102
RTVSPropertyOp41
 70
     1
102
RTVSPropertyOp42
 70
     1
102
RTVSPropertyOp43
 70
     1
102
RTVSPropertyOp44
 70
     1
102
RTVSPropertyOp45
 70
     1
102
RTVSPropertyOp46
 70
     1
102
RTVSPropertyOp47
 70
     1
102
RTVSPropertyOp48
 70
     1
102
RTVSPropertyOp49
 70
     1
102
RTVSPropertyOp50
 70
     1
102
RTVSPropertyOp51
 70
     0
102
RTVSPropertyOp52
 70
     0
102
RTVSPropertyOp53
 70
     1
102
RTVSPropertyOp54
 70
     1
102
RTVSPropertyOp55
 70
     1
102
RTVSPropertyOp56
 70
     1
102
RTVSPropertyOp57
 70
     1
102
RTVSPost2010Prop28
280
     0
102
RTVSPost2010PropOp28
 70
     1
102
RTVSPost2010Prop29
280
     1
102
RTVSPost2010PropOp29
 70
     1
102
RTVSPost2010Prop30
280
     1
102
RTVSPost2010PropOp30
 70
     1
102
RTVSPost2010Prop31
280
     0
102
RTVSPost2010PropOp31
 70
     1
102
RTVSPost2010Prop32
280
     0
102
RTVSPost2010PropOp32
 70
     1
102
RTVSPost2010Prop33
280
     0
102
RTVSPost2010PropOp33
 70
     1
102
RTVSPost2010Prop34
280
     0
102
RTVSPost2010PropOp34
 70
     1
102
RTVSPost2010Prop35
280
     0
102
RTVSPost2010PropOp35
 70
     1
102
RTVSPost2010Prop36
280
     0
102
RTVSPost2010PropOp36
 70
     1
102
RTVSPost2010Prop37
 90
       50
102
RTVSPost2010PropOp37
 70
     1
102
RTVSPost2010Prop38
140
0.0
102
RTVSPost2010PropOp38
 70
     1
102
RTVSPost2010Prop39
140
1.0
102
RTVSPost2010PropOp39
 70
     1
102
RTVSPost2010Prop40
 90
        0
102
RTVSPost2010PropOp40
 70
     1
102
RTVSPost2010Prop41ColorIndex
 90
       18
102
RTVSPost2010Prop41ColorRGB
 90
        0
102
RTVSPost2010PropOp41
 70
     1
102
RTVSPost2010Prop42
 90
       50
102
RTVSPost2010PropOp42
 70
     1
102
RTVSPost2010Prop43
 90
        3
102
RTVSPost2010PropOp43
 70
     1
102
RTVSPost2010Prop44ColorIndex
 90
        5
102
RTVSPost2010Prop44ColorRGB
 90
      255
102
RTVSPost2010PropOp44
 70
     1
102
RTVSPost2010Prop45
280
     0
102
RTVSPost2010PropOp45
 70
     1
102
RTVSPost2010Prop46
 90
       50
102
RTVSPost2010PropOp46
 70
     1
102
RTVSPost2010Prop47
 90
       50
102
RTVSPost2010PropOp47
 70
     1
102
RTVSPost2010Prop48
 90
       50
102
RTVSPost2010PropOp48
 70
     1
102
RTVSPost2010Prop49
280
     0
102
RTVSPost2010PropOp49
 70
     1
102
RTVSPost2010Prop50
 90
       50
102
RTVSPost2010PropOp50
 70
     1
102
RTVSPost2010Prop51ColorIndex
 90
      256
102
RTVSPost2010Prop51ColorRGB
 90
-16777216
102
RTVSPost2010PropOp51
 70
     0
102
RTVSPost2010Prop52
140
1.0
102
RTVSPost2010PropOp52
 70
     0
102
RTVSPost2010Prop53
 90
        2
102
RTVSPost2010PropOp53
 70
     1
102
RTVSPost2010Prop54
  1
strokes_ogs.tif
102
RTVSPost2010PropOp54
 70
     1
102
RTVSPost2010Prop55
280
     0
102
RTVSPost2010PropOp55
 70
     1
102
RTVSPost2010Prop56
140
1.0
102
RTVSPost2010PropOp56
 70
     1
102
RTVSPost2010Prop57
140
1.0
102
RTVSPost2010PropOp57
 70
     1
  0
XRECORD
  5
5E0
102
{ACAD_REACTORS
330
5DF
102
}
330
5DF
100
AcDbXrecord
280
     1
102
RTVSPropertyOp0
 70
     1
102
RTVSPropertyOp1
 70
     1
102
RTVSPropertyOp2
 70
     1
102
RTVSPropertyOp3
 70
     1
102
RTVSPropertyOp4
 70
     1
102
RTVSPropertyOp5
 70
     1
102
RTVSPropertyOp6
 70
     1
102
RTVSPropertyOp7
 70
     1
102
RTVSPropertyOp8
 70
     1
102
RTVSPropertyOp9
 70
     1
102
RTVSPropertyOp10
 70
     1
102
RTVSPropertyOp11
 70
     1
102
RTVSPropertyOp12
 70
     1
102
RTVSPropertyOp13
 70
     1
102
RTVSPropertyOp14
 70
     1
102
RTVSPropertyOp15
 70
     1
102
RTVSPropertyOp16
 70
     1
102
RTVSPropertyOp17
 70
     1
102
RTVSPropertyOp18
 70
     1
102
RTVSPropertyOp19
 70
     1
102
RTVSPropertyOp20
 70
     1
102
RTVSPropertyOp21
 70
     1
102
RTVSPropertyOp22
 70
     1
102
RTVSPropertyOp23
 70
     1
102
RTVSPropertyOp24
 70
     1
102
RTVSPropertyOp25
 70
     1
102
RTVSPropertyOp26
 70
     1
102
RTVSPropertyOp27
 70
     1
102
RTVSPropertyOp28
 70
     1
102
RTVSPropertyOp29
 70
     1
102
RTVSPropertyOp30
 70
     1
102
RTVSPropertyOp31
 70
     1
102
RTVSPropertyOp32
 70
     1
102
RTVSPropertyOp33
 70
     1
102
RTVSPropertyOp34
 70
     1
102
RTVSPropertyOp35
 70
     1
102
RTVSPropertyOp36
 70
     1
102
RTVSPropertyOp37
 70
     1
102
RTVSPropertyOp38
 70
     1
102
RTVSPropertyOp39
 70
     1
102
RTVSPropertyOp40
 70
     1
102
RTVSPropertyOp41
 70
     1
102
RTVSPropertyOp42
 70
     1
102
RTVSPropertyOp43
 70
     1
102
RTVSPropertyOp44
 70
     1
102
RTVSPropertyOp45
 70
     1
102
RTVSPropertyOp46
 70
     1
102
RTVSPropertyOp47
 70
     1
102
RTVSPropertyOp48
 70
     1
102
RTVSPropertyOp49
 70
     1
102
RTVSPropertyOp50
 70
     1
102
RTVSPropertyOp51
 70
     0
102
RTVSPropertyOp52
 70
     0
102
RTVSPropertyOp53
 70
     1
102
RTVSPropertyOp54
 70
     1
102
RTVSPropertyOp55
 70
     1
102
RTVSPropertyOp56
 70
     1
102
RTVSPropertyOp57
 70
     1
102
RTVSPost2010Prop28
280
     0
102
RTVSPost2010PropOp28
 70
     1
102
RTVSPost2010Prop29
280
     1
102
RTVSPost2010PropOp29
 70
     1
102
RTVSPost2010Prop30
280
     1
102
RTVSPost2010PropOp30
 70
     1
102
RTVSPost2010Prop31
280
     0
102
RTVSPost2010PropOp31
 70
     1
102
RTVSPost2010Prop32
280
     0
102
RTVSPost2010PropOp32
 70
     1
102
RTVSPost2010Prop33
280
     0
102
RTVSPost2010PropOp33
 70
     1
102
RTVSPost2010Prop34
280
     0
102
RTVSPost2010PropOp34
 70
     1
102
RTVSPost2010Prop35
280
     0
102
RTVSPost2010PropOp35
 70
     1
102
RTVSPost2010Prop36
280
     0
102
RTVSPost2010PropOp36
 70
     1
102
RTVSPost2010Prop37
 90
       50
102
RTVSPost2010PropOp37
 70
     1
102
RTVSPost2010Prop38
140
0.0
102
RTVSPost2010PropOp38
 70
     1
102
RTVSPost2010Prop39
140
1.0
102
RTVSPost2010PropOp39
 70
     1
102
RTVSPost2010Prop40
 90
        0
102
RTVSPost2010PropOp40
 70
     1
102
RTVSPost2010Prop41ColorIndex
 90
       18
102
RTVSPost2010Prop41ColorRGB
 90
        0
102
RTVSPost2010PropOp41
 70
     1
102
RTVSPost2010Prop42
 90
       50
102
RTVSPost2010PropOp42
 70
     1
102
RTVSPost2010Prop43
 90
        3
102
RTVSPost2010PropOp43
 70
     1
102
RTVSPost2010Prop44ColorIndex
 90
        5
102
RTVSPost2010Prop44ColorRGB
 90
      255
102
RTVSPost2010PropOp44
 70
     1
102
RTVSPost2010Prop45
280
     0
102
RTVSPost2010PropOp45
 70
     1
102
RTVSPost2010Prop46
 90
       50
102
RTVSPost2010PropOp46
 70
     1
102
RTVSPost2010Prop47
 90
       50
102
RTVSPost2010PropOp47
 70
     1
102
RTVSPost2010Prop48
 90
       50
102
RTVSPost2010PropOp48
 70
     1
102
RTVSPost2010Prop49
280
     0
102
RTVSPost2010PropOp49
 70
     1
102
RTVSPost2010Prop50
 90
       50
102
RTVSPost2010PropOp50
 70
     1
102
RTVSPost2010Prop51ColorIndex
 90
      256
102
RTVSPost2010Prop51ColorRGB
 90
-16777216
102
RTVSPost2010PropOp51
 70
     0
102
RTVSPost2010Prop52
140
1.0
102
RTVSPost2010PropOp52
 70
     0
102
RTVSPost2010Prop53
 90
        2
102
RTVSPost2010PropOp53
 70
     1
102
RTVSPost2010Prop54
  1
strokes_ogs.tif
102
RTVSPost2010PropOp54
 70
     1
102
RTVSPost2010Prop55
280
     0
102
RTVSPost2010PropOp55
 70
     1
102
RTVSPost2010Prop56
140
1.0
102
RTVSPost2010PropOp56
 70
     1
102
RTVSPost2010Prop57
140
1.0
102
RTVSPost2010PropOp57
 70
     1
  0
XRECORD
  5
5E2
102
{ACAD_REACTORS
330
5E1
102
}
330
5E1
100
AcDbXrecord
280
     1
102
RTVSPropertyOp0
 70
     1
102
RTVSPropertyOp1
 70
     1
102
RTVSPropertyOp2
 70
     1
102
RTVSPropertyOp3
 70
     1
102
RTVSPropertyOp4
 70
     1
102
RTVSPropertyOp5
 70
     1
102
RTVSPropertyOp6
 70
     1
102
RTVSPropertyOp7
 70
     1
102
RTVSPropertyOp8
 70
     1
102
RTVSPropertyOp9
 70
     1
102
RTVSPropertyOp10
 70
     1
102
RTVSPropertyOp11
 70
     1
102
RTVSPropertyOp12
 70
     1
102
RTVSPropertyOp13
 70
     1
102
RTVSPropertyOp14
 70
     1
102
RTVSPropertyOp15
 70
     1
102
RTVSPropertyOp16
 70
     1
102
RTVSPropertyOp17
 70
     1
102
RTVSPropertyOp18
 70
     1
102
RTVSPropertyOp19
 70
     1
102
RTVSPropertyOp20
 70
     1
102
RTVSPropertyOp21
 70
     1
102
RTVSPropertyOp22
 70
     1
102
RTVSPropertyOp23
 70
     1
102
RTVSPropertyOp24
 70
     1
102
RTVSPropertyOp25
 70
     1
102
RTVSPropertyOp26
 70
     1
102
RTVSPropertyOp27
 70
     1
102
RTVSPropertyOp28
 70
     1
102
RTVSPropertyOp29
 70
     1
102
RTVSPropertyOp30
 70
     1
102
RTVSPropertyOp31
 70
     1
102
RTVSPropertyOp32
 70
     1
102
RTVSPropertyOp33
 70
     1
102
RTVSPropertyOp34
 70
     1
102
RTVSPropertyOp35
 70
     1
102
RTVSPropertyOp36
 70
     1
102
RTVSPropertyOp37
 70
     1
102
RTVSPropertyOp38
 70
     1
102
RTVSPropertyOp39
 70
     1
102
RTVSPropertyOp40
 70
     1
102
RTVSPropertyOp41
 70
     1
102
RTVSPropertyOp42
 70
     1
102
RTVSPropertyOp43
 70
     1
102
RTVSPropertyOp44
 70
     1
102
RTVSPropertyOp45
 70
     1
102
RTVSPropertyOp46
 70
     1
102
RTVSPropertyOp47
 70
     1
102
RTVSPropertyOp48
 70
     1
102
RTVSPropertyOp49
 70
     1
102
RTVSPropertyOp50
 70
     1
102
RTVSPropertyOp51
 70
     0
102
RTVSPropertyOp52
 70
     0
102
RTVSPropertyOp53
 70
     1
102
RTVSPropertyOp54
 70
     1
102
RTVSPropertyOp55
 70
     1
102
RTVSPropertyOp56
 70
     1
102
RTVSPropertyOp57
 70
     1
102
RTVSPost2010Prop28
280
     0
102
RTVSPost2010PropOp28
 70
     1
102
RTVSPost2010Prop29
280
     1
102
RTVSPost2010PropOp29
 70
     1
102
RTVSPost2010Prop30
280
     1
102
RTVSPost2010PropOp30
 70
     1
102
RTVSPost2010Prop31
280
     0
102
RTVSPost2010PropOp31
 70
     1
102
RTVSPost2010Prop32
280
     0
102
RTVSPost2010PropOp32
 70
     1
102
RTVSPost2010Prop33
280
     0
102
RTVSPost2010PropOp33
 70
     1
102
RTVSPost2010Prop34
280
     0
102
RTVSPost2010PropOp34
 70
     1
102
RTVSPost2010Prop35
280
     0
102
RTVSPost2010PropOp35
 70
     1
102
RTVSPost2010Prop36
280
     0
102
RTVSPost2010PropOp36
 70
     1
102
RTVSPost2010Prop37
 90
       50
102
RTVSPost2010PropOp37
 70
     1
102
RTVSPost2010Prop38
140
0.0
102
RTVSPost2010PropOp38
 70
     1
102
RTVSPost2010Prop39
140
1.0
102
RTVSPost2010PropOp39
 70
     1
102
RTVSPost2010Prop40
 90
        0
102
RTVSPost2010PropOp40
 70
     1
102
RTVSPost2010Prop41ColorIndex
 90
       18
102
RTVSPost2010Prop41ColorRGB
 90
        0
102
RTVSPost2010PropOp41
 70
     1
102
RTVSPost2010Prop42
 90
       50
102
RTVSPost2010PropOp42
 70
     1
102
RTVSPost2010Prop43
 90
        3
102
RTVSPost2010PropOp43
 70
     1
102
RTVSPost2010Prop44ColorIndex
 90
        5
102
RTVSPost2010Prop44ColorRGB
 90
      255
102
RTVSPost2010PropOp44
 70
     1
102
RTVSPost2010Prop45
280
     0
102
RTVSPost2010PropOp45
 70
     1
102
RTVSPost2010Prop46
 90
       50
102
RTVSPost2010PropOp46
 70
     1
102
RTVSPost2010Prop47
 90
       50
102
RTVSPost2010PropOp47
 70
     1
102
RTVSPost2010Prop48
 90
       50
102
RTVSPost2010PropOp48
 70
     1
102
RTVSPost2010Prop49
280
     0
102
RTVSPost2010PropOp49
 70
     1
102
RTVSPost2010Prop50
 90
       50
102
RTVSPost2010PropOp50
 70
     1
102
RTVSPost2010Prop51ColorIndex
 90
      256
102
RTVSPost2010Prop51ColorRGB
 90
-16777216
102
RTVSPost2010PropOp51
 70
     0
102
RTVSPost2010Prop52
140
1.0
102
RTVSPost2010PropOp52
 70
     0
102
RTVSPost2010Prop53
 90
        2
102
RTVSPost2010PropOp53
 70
     1
102
RTVSPost2010Prop54
  1
strokes_ogs.tif
102
RTVSPost2010PropOp54
 70
     1
102
RTVSPost2010Prop55
280
     0
102
RTVSPost2010PropOp55
 70
     1
102
RTVSPost2010Prop56
140
1.0
102
RTVSPost2010PropOp56
 70
     1
102
RTVSPost2010Prop57
140
1.0
102
RTVSPost2010PropOp57
 70
     1
  0
XRECORD
  5
5E4
102
{ACAD_REACTORS
330
5E3
102
}
330
5E3
100
AcDbXrecord
280
     1
102
RTVSPropertyOp0
 70
     1
102
RTVSPropertyOp1
 70
     1
102
RTVSPropertyOp2
 70
     1
102
RTVSPropertyOp3
 70
     1
102
RTVSPropertyOp4
 70
     1
102
RTVSPropertyOp5
 70
     1
102
RTVSPropertyOp6
 70
     1
102
RTVSPropertyOp7
 70
     1
102
RTVSPropertyOp8
 70
     1
102
RTVSPropertyOp9
 70
     1
102
RTVSPropertyOp10
 70
     1
102
RTVSPropertyOp11
 70
     1
102
RTVSPropertyOp12
 70
     1
102
RTVSPropertyOp13
 70
     1
102
RTVSPropertyOp14
 70
     1
102
RTVSPropertyOp15
 70
     1
102
RTVSPropertyOp16
 70
     1
102
RTVSPropertyOp17
 70
     1
102
RTVSPropertyOp18
 70
     1
102
RTVSPropertyOp19
 70
     1
102
RTVSPropertyOp20
 70
     1
102
RTVSPropertyOp21
 70
     1
102
RTVSPropertyOp22
 70
     1
102
RTVSPropertyOp23
 70
     1
102
RTVSPropertyOp24
 70
     1
102
RTVSPropertyOp25
 70
     1
102
RTVSPropertyOp26
 70
     1
102
RTVSPropertyOp27
 70
     1
102
RTVSPropertyOp28
 70
     1
102
RTVSPropertyOp29
 70
     1
102
RTVSPropertyOp30
 70
     1
102
RTVSPropertyOp31
 70
     1
102
RTVSPropertyOp32
 70
     1
102
RTVSPropertyOp33
 70
     1
102
RTVSPropertyOp34
 70
     1
102
RTVSPropertyOp35
 70
     1
102
RTVSPropertyOp36
 70
     1
102
RTVSPropertyOp37
 70
     1
102
RTVSPropertyOp38
 70
     1
102
RTVSPropertyOp39
 70
     1
102
RTVSPropertyOp40
 70
     1
102
RTVSPropertyOp41
 70
     1
102
RTVSPropertyOp42
 70
     1
102
RTVSPropertyOp43
 70
     1
102
RTVSPropertyOp44
 70
     1
102
RTVSPropertyOp45
 70
     1
102
RTVSPropertyOp46
 70
     1
102
RTVSPropertyOp47
 70
     1
102
RTVSPropertyOp48
 70
     1
102
RTVSPropertyOp49
 70
     1
102
RTVSPropertyOp50
 70
     1
102
RTVSPropertyOp51
 70
     0
102
RTVSPropertyOp52
 70
     0
102
RTVSPropertyOp53
 70
     1
102
RTVSPropertyOp54
 70
     1
102
RTVSPropertyOp55
 70
     1
102
RTVSPropertyOp56
 70
     1
102
RTVSPropertyOp57
 70
     1
102
RTVSPost2010Prop28
280
     0
102
RTVSPost2010PropOp28
 70
     1
102
RTVSPost2010Prop29
280
     1
102
RTVSPost2010PropOp29
 70
     1
102
RTVSPost2010Prop30
280
     1
102
RTVSPost2010PropOp30
 70
     1
102
RTVSPost2010Prop31
280
     0
102
RTVSPost2010PropOp31
 70
     1
102
RTVSPost2010Prop32
280
     0
102
RTVSPost2010PropOp32
 70
     1
102
RTVSPost2010Prop33
280
     0
102
RTVSPost2010PropOp33
 70
     1
102
RTVSPost2010Prop34
280
     0
102
RTVSPost2010PropOp34
 70
     1
102
RTVSPost2010Prop35
280
     0
102
RTVSPost2010PropOp35
 70
     1
102
RTVSPost2010Prop36
280
     0
102
RTVSPost2010PropOp36
 70
     1
102
RTVSPost2010Prop37
 90
       50
102
RTVSPost2010PropOp37
 70
     1
102
RTVSPost2010Prop38
140
0.0
102
RTVSPost2010PropOp38
 70
     1
102
RTVSPost2010Prop39
140
1.0
102
RTVSPost2010PropOp39
 70
     1
102
RTVSPost2010Prop40
 90
        0
102
RTVSPost2010PropOp40
 70
     1
102
RTVSPost2010Prop41ColorIndex
 90
       18
102
RTVSPost2010Prop41ColorRGB
 90
        0
102
RTVSPost2010PropOp41
 70
     1
102
RTVSPost2010Prop42
 90
       50
102
RTVSPost2010PropOp42
 70
     1
102
RTVSPost2010Prop43
 90
        3
102
RTVSPost2010PropOp43
 70
     1
102
RTVSPost2010Prop44ColorIndex
 90
        5
102
RTVSPost2010Prop44ColorRGB
 90
      255
102
RTVSPost2010PropOp44
 70
     1
102
RTVSPost2010Prop45
280
     0
102
RTVSPost2010PropOp45
 70
     1
102
RTVSPost2010Prop46
 90
       50
102
RTVSPost2010PropOp46
 70
     1
102
RTVSPost2010Prop47
 90
       50
102
RTVSPost2010PropOp47
 70
     1
102
RTVSPost2010Prop48
 90
       50
102
RTVSPost2010PropOp48
 70
     1
102
RTVSPost2010Prop49
280
     0
102
RTVSPost2010PropOp49
 70
     1
102
RTVSPost2010Prop50
 90
       50
102
RTVSPost2010PropOp50
 70
     1
102
RTVSPost2010Prop51ColorIndex
 90
      256
102
RTVSPost2010Prop51ColorRGB
 90
-16777216
102
RTVSPost2010PropOp51
 70
     0
102
RTVSPost2010Prop52
140
1.0
102
RTVSPost2010PropOp52
 70
     0
102
RTVSPost2010Prop53
 90
        2
102
RTVSPost2010PropOp53
 70
     1
102
RTVSPost2010Prop54
  1
strokes_ogs.tif
102
RTVSPost2010PropOp54
 70
     1
102
RTVSPost2010Prop55
280
     0
102
RTVSPost2010PropOp55
 70
     1
102
RTVSPost2010Prop56
140
1.0
102
RTVSPost2010PropOp56
 70
     1
102
RTVSPost2010Prop57
140
1.0
102
RTVSPost2010PropOp57
 70
     1
  0
XRECORD
  5
5E8
102
{ACAD_REACTORS
330
5E7
102
}
330
5E7
100
AcDbXrecord
280
     1
102
RTVSPropertyOp0
 70
     1
102
RTVSPropertyOp1
 70
     1
102
RTVSPropertyOp2
 70
     1
102
RTVSPropertyOp3
 70
     1
102
RTVSPropertyOp4
 70
     1
102
RTVSPropertyOp5
 70
     1
102
RTVSPropertyOp6
 70
     1
102
RTVSPropertyOp7
 70
     1
102
RTVSPropertyOp8
 70
     1
102
RTVSPropertyOp9
 70
     1
102
RTVSPropertyOp10
 70
     1
102
RTVSPropertyOp11
 70
     1
102
RTVSPropertyOp12
 70
     1
102
RTVSPropertyOp13
 70
     1
102
RTVSPropertyOp14
 70
     1
102
RTVSPropertyOp15
 70
     1
102
RTVSPropertyOp16
 70
     1
102
RTVSPropertyOp17
 70
     1
102
RTVSPropertyOp18
 70
     1
102
RTVSPropertyOp19
 70
     1
102
RTVSPropertyOp20
 70
     1
102
RTVSPropertyOp21
 70
     1
102
RTVSPropertyOp22
 70
     1
102
RTVSPropertyOp23
 70
     1
102
RTVSPropertyOp24
 70
     1
102
RTVSPropertyOp25
 70
     1
102
RTVSPropertyOp26
 70
     1
102
RTVSPropertyOp27
 70
     1
102
RTVSPropertyOp28
 70
     1
102
RTVSPropertyOp29
 70
     1
102
RTVSPropertyOp30
 70
     1
102
RTVSPropertyOp31
 70
     1
102
RTVSPropertyOp32
 70
     1
102
RTVSPropertyOp33
 70
     1
102
RTVSPropertyOp34
 70
     1
102
RTVSPropertyOp35
 70
     1
102
RTVSPropertyOp36
 70
     1
102
RTVSPropertyOp37
 70
     1
102
RTVSPropertyOp38
 70
     1
102
RTVSPropertyOp39
 70
     1
102
RTVSPropertyOp40
 70
     1
102
RTVSPropertyOp41
 70
     1
102
RTVSPropertyOp42
 70
     1
102
RTVSPropertyOp43
 70
     1
102
RTVSPropertyOp44
 70
     1
102
RTVSPropertyOp45
 70
     1
102
RTVSPropertyOp46
 70
     1
102
RTVSPropertyOp47
 70
     1
102
RTVSPropertyOp48
 70
     1
102
RTVSPropertyOp49
 70
     1
102
RTVSPropertyOp50
 70
     1
102
RTVSPropertyOp51
 70
     0
102
RTVSPropertyOp52
 70
     0
102
RTVSPropertyOp53
 70
     1
102
RTVSPropertyOp54
 70
     1
102
RTVSPropertyOp55
 70
     1
102
RTVSPropertyOp56
 70
     1
102
RTVSPropertyOp57
 70
     1
102
RTVSPost2010Prop28
280
     0
102
RTVSPost2010PropOp28
 70
     1
102
RTVSPost2010Prop29
280
     1
102
RTVSPost2010PropOp29
 70
     1
102
RTVSPost2010Prop30
280
     1
102
RTVSPost2010PropOp30
 70
     1
102
RTVSPost2010Prop31
280
     0
102
RTVSPost2010PropOp31
 70
     1
102
RTVSPost2010Prop32
280
     0
102
RTVSPost2010PropOp32
 70
     1
102
RTVSPost2010Prop33
280
     0
102
RTVSPost2010PropOp33
 70
     1
102
RTVSPost2010Prop34
280
     0
102
RTVSPost2010PropOp34
 70
     1
102
RTVSPost2010Prop35
280
     0
102
RTVSPost2010PropOp35
 70
     1
102
RTVSPost2010Prop36
280
     0
102
RTVSPost2010PropOp36
 70
     1
102
RTVSPost2010Prop37
 90
       50
102
RTVSPost2010PropOp37
 70
     1
102
RTVSPost2010Prop38
140
0.0
102
RTVSPost2010PropOp38
 70
     1
102
RTVSPost2010Prop39
140
1.0
102
RTVSPost2010PropOp39
 70
     1
102
RTVSPost2010Prop40
 90
        0
102
RTVSPost2010PropOp40
 70
     1
102
RTVSPost2010Prop41ColorIndex
 90
       18
102
RTVSPost2010Prop41ColorRGB
 90
        0
102
RTVSPost2010PropOp41
 70
     1
102
RTVSPost2010Prop42
 90
       50
102
RTVSPost2010PropOp42
 70
     1
102
RTVSPost2010Prop43
 90
        3
102
RTVSPost2010PropOp43
 70
     1
102
RTVSPost2010Prop44ColorIndex
 90
        5
102
RTVSPost2010Prop44ColorRGB
 90
      255
102
RTVSPost2010PropOp44
 70
     1
102
RTVSPost2010Prop45
280
     0
102
RTVSPost2010PropOp45
 70
     1
102
RTVSPost2010Prop46
 90
       50
102
RTVSPost2010PropOp46
 70
     1
102
RTVSPost2010Prop47
 90
       50
102
RTVSPost2010PropOp47
 70
     1
102
RTVSPost2010Prop48
 90
       50
102
RTVSPost2010PropOp48
 70
     1
102
RTVSPost2010Prop49
280
     0
102
RTVSPost2010PropOp49
 70
     1
102
RTVSPost2010Prop50
 90
       50
102
RTVSPost2010PropOp50
 70
     1
102
RTVSPost2010Prop51ColorIndex
 90
      256
102
RTVSPost2010Prop51ColorRGB
 90
-16777216
102
RTVSPost2010PropOp51
 70
     0
102
RTVSPost2010Prop52
140
1.0
102
RTVSPost2010PropOp52
 70
     0
102
RTVSPost2010Prop53
 90
        2
102
RTVSPost2010PropOp53
 70
     1
102
RTVSPost2010Prop54
  1
strokes_ogs.tif
102
RTVSPost2010PropOp54
 70
     1
102
RTVSPost2010Prop55
280
     0
102
RTVSPost2010PropOp55
 70
     1
102
RTVSPost2010Prop56
140
1.0
102
RTVSPost2010PropOp56
 70
     1
102
RTVSPost2010Prop57
140
1.0
102
RTVSPost2010PropOp57
 70
     1
  0
XRECORD
  5
5FC
102
{ACAD_REACTORS
330
5FB
102
}
330
5FB
100
AcDbXrecord
280
     1
102
RTVSPropertyOp0
 70
     0
102
RTVSPropertyOp1
 70
     0
102
RTVSPropertyOp2
 70
     0
102
RTVSPropertyOp3
 70
     0
102
RTVSPropertyOp4
 70
     0
102
RTVSPropertyOp5
 70
     0
102
RTVSPropertyOp6
 70
     0
102
RTVSPropertyOp7
 70
     0
102
RTVSPropertyOp8
 70
     0
102
RTVSPropertyOp9
 70
     0
102
RTVSPropertyOp10
 70
     0
102
RTVSPropertyOp11
 70
     0
102
RTVSPropertyOp12
 70
     0
102
RTVSPropertyOp13
 70
     0
102
RTVSPropertyOp14
 70
     0
102
RTVSPropertyOp15
 70
     0
102
RTVSPropertyOp16
 70
     0
102
RTVSPropertyOp17
 70
     0
102
RTVSPropertyOp18
 70
     0
102
RTVSPropertyOp19
 70
     0
102
RTVSPropertyOp20
 70
     0
102
RTVSPropertyOp21
 70
     0
102
RTVSPropertyOp22
 70
     0
102
RTVSPropertyOp23
 70
     0
102
RTVSPropertyOp24
 70
     0
102
RTVSPropertyOp25
 70
     0
102
RTVSPropertyOp26
 70
     0
102
RTVSPropertyOp27
 70
     0
102
RTVSPropertyOp28
 70
     1
102
RTVSPropertyOp29
 70
     1
102
RTVSPropertyOp30
 70
     1
102
RTVSPropertyOp31
 70
     1
102
RTVSPropertyOp32
 70
     1
102
RTVSPropertyOp33
 70
     1
102
RTVSPropertyOp34
 70
     1
102
RTVSPropertyOp35
 70
     1
102
RTVSPropertyOp36
 70
     1
102
RTVSPropertyOp37
 70
     1
102
RTVSPropertyOp38
 70
     1
102
RTVSPropertyOp39
 70
     1
102
RTVSPropertyOp40
 70
     1
102
RTVSPropertyOp41
 70
     1
102
RTVSPropertyOp42
 70
     1
102
RTVSPropertyOp43
 70
     1
102
RTVSPropertyOp44
 70
     1
102
RTVSPropertyOp45
 70
     1
102
RTVSPropertyOp46
 70
     1
102
RTVSPropertyOp47
 70
     1
102
RTVSPropertyOp48
 70
     1
102
RTVSPropertyOp49
 70
     1
102
RTVSPropertyOp50
 70
     1
102
RTVSPropertyOp51
 70
     0
102
RTVSPropertyOp52
 70
     0
102
RTVSPropertyOp53
 70
     1
102
RTVSPropertyOp54
 70
     1
102
RTVSPropertyOp55
 70
     1
102
RTVSPropertyOp56
 70
     1
102
RTVSPropertyOp57
 70
     1
102
RTVSPost2010Prop28
280
     0
102
RTVSPost2010PropOp28
 70
     1
102
RTVSPost2010Prop29
280
     1
102
RTVSPost2010PropOp29
 70
     1
102
RTVSPost2010Prop30
280
     1
102
RTVSPost2010PropOp30
 70
     1
102
RTVSPost2010Prop31
280
     0
102
RTVSPost2010PropOp31
 70
     1
102
RTVSPost2010Prop32
280
     0
102
RTVSPost2010PropOp32
 70
     1
102
RTVSPost2010Prop33
280
     0
102
RTVSPost2010PropOp33
 70
     1
102
RTVSPost2010Prop34
280
     0
102
RTVSPost2010PropOp34
 70
     1
102
RTVSPost2010Prop35
280
     0
102
RTVSPost2010PropOp35
 70
     1
102
RTVSPost2010Prop36
280
     0
102
RTVSPost2010PropOp36
 70
     1
102
RTVSPost2010Prop37
 90
       50
102
RTVSPost2010PropOp37
 70
     1
102
RTVSPost2010Prop38
140
0.0
102
RTVSPost2010PropOp38
 70
     1
102
RTVSPost2010Prop39
140
1.0
102
RTVSPost2010PropOp39
 70
     1
102
RTVSPost2010Prop40
 90
        0
102
RTVSPost2010PropOp40
 70
     1
102
RTVSPost2010Prop41ColorIndex
 90
       18
102
RTVSPost2010Prop41ColorRGB
 90
        0
102
RTVSPost2010PropOp41
 70
     1
102
RTVSPost2010Prop42
 90
       50
102
RTVSPost2010PropOp42
 70
     1
102
RTVSPost2010Prop43
 90
        3
102
RTVSPost2010PropOp43
 70
     1
102
RTVSPost2010Prop44ColorIndex
 90
        5
102
RTVSPost2010Prop44ColorRGB
 90
      255
102
RTVSPost2010PropOp44
 70
     1
102
RTVSPost2010Prop45
280
     0
102
RTVSPost2010PropOp45
 70
     1
102
RTVSPost2010Prop46
 90
       50
102
RTVSPost2010PropOp46
 70
     1
102
RTVSPost2010Prop47
 90
       50
102
RTVSPost2010PropOp47
 70
     1
102
RTVSPost2010Prop48
 90
       50
102
RTVSPost2010PropOp48
 70
     1
102
RTVSPost2010Prop49
280
     0
102
RTVSPost2010PropOp49
 70
     1
102
RTVSPost2010Prop50
 90
       50
102
RTVSPost2010PropOp50
 70
     1
102
RTVSPost2010Prop51ColorIndex
 90
      256
102
RTVSPost2010Prop51ColorRGB
 90
-16777216
102
RTVSPost2010PropOp51
 70
     0
102
RTVSPost2010Prop52
140
1.0
102
RTVSPost2010PropOp52
 70
     0
102
RTVSPost2010Prop53
 90
        2
102
RTVSPost2010PropOp53
 70
     1
102
RTVSPost2010Prop54
  1
strokes_ogs.tif
102
RTVSPost2010PropOp54
 70
     1
102
RTVSPost2010Prop55
280
     0
102
RTVSPost2010PropOp55
 70
     1
102
RTVSPost2010Prop56
140
1.0
102
RTVSPost2010PropOp56
 70
     1
102
RTVSPost2010Prop57
140
1.0
102
RTVSPost2010PropOp57
 70
     1
  0
XRECORD
  5
5F6
102
{ACAD_REACTORS
330
5F5
102
}
330
5F5
100
AcDbXrecord
280
     1
102
RTVSPropertyOp0
 70
     1
102
RTVSPropertyOp1
 70
     1
102
RTVSPropertyOp2
 70
     1
102
RTVSPropertyOp3
 70
     1
102
RTVSPropertyOp4
 70
     1
102
RTVSPropertyOp5
 70
     1
102
RTVSPropertyOp6
 70
     1
102
RTVSPropertyOp7
 70
     1
102
RTVSPropertyOp8
 70
     1
102
RTVSPropertyOp9
 70
     1
102
RTVSPropertyOp10
 70
     1
102
RTVSPropertyOp11
 70
     1
102
RTVSPropertyOp12
 70
     1
102
RTVSPropertyOp13
 70
     1
102
RTVSPropertyOp14
 70
     1
102
RTVSPropertyOp15
 70
     1
102
RTVSPropertyOp16
 70
     1
102
RTVSPropertyOp17
 70
     1
102
RTVSPropertyOp18
 70
     1
102
RTVSPropertyOp19
 70
     1
102
RTVSPropertyOp20
 70
     1
102
RTVSPropertyOp21
 70
     1
102
RTVSPropertyOp22
 70
     1
102
RTVSPropertyOp23
 70
     1
102
RTVSPropertyOp24
 70
     1
102
RTVSPropertyOp25
 70
     1
102
RTVSPropertyOp26
 70
     1
102
RTVSPropertyOp27
 70
     1
102
RTVSPropertyOp28
 70
     1
102
RTVSPropertyOp29
 70
     1
102
RTVSPropertyOp30
 70
     1
102
RTVSPropertyOp31
 70
     1
102
RTVSPropertyOp32
 70
     1
102
RTVSPropertyOp33
 70
     1
102
RTVSPropertyOp34
 70
     1
102
RTVSPropertyOp35
 70
     1
102
RTVSPropertyOp36
 70
     1
102
RTVSPropertyOp37
 70
     1
102
RTVSPropertyOp38
 70
     1
102
RTVSPropertyOp39
 70
     1
102
RTVSPropertyOp40
 70
     1
102
RTVSPropertyOp41
 70
     1
102
RTVSPropertyOp42
 70
     1
102
RTVSPropertyOp43
 70
     1
102
RTVSPropertyOp44
 70
     1
102
RTVSPropertyOp45
 70
     1
102
RTVSPropertyOp46
 70
     1
102
RTVSPropertyOp47
 70
     1
102
RTVSPropertyOp48
 70
     1
102
RTVSPropertyOp49
 70
     1
102
RTVSPropertyOp50
 70
     1
102
RTVSPropertyOp51
 70
     0
102
RTVSPropertyOp52
 70
     0
102
RTVSPropertyOp53
 70
     1
102
RTVSPropertyOp54
 70
     1
102
RTVSPropertyOp55
 70
     1
102
RTVSPropertyOp56
 70
     1
102
RTVSPropertyOp57
 70
     1
102
RTVSPost2010Prop28
280
     0
102
RTVSPost2010PropOp28
 70
     1
102
RTVSPost2010Prop29
280
     1
102
RTVSPost2010PropOp29
 70
     1
102
RTVSPost2010Prop30
280
     1
102
RTVSPost2010PropOp30
 70
     1
102
RTVSPost2010Prop31
280
     0
102
RTVSPost2010PropOp31
 70
     1
102
RTVSPost2010Prop32
280
     0
102
RTVSPost2010PropOp32
 70
     1
102
RTVSPost2010Prop33
280
     0
102
RTVSPost2010PropOp33
 70
     1
102
RTVSPost2010Prop34
280
     0
102
RTVSPost2010PropOp34
 70
     1
102
RTVSPost2010Prop35
280
     0
102
RTVSPost2010PropOp35
 70
     1
102
RTVSPost2010Prop36
280
     0
102
RTVSPost2010PropOp36
 70
     1
102
RTVSPost2010Prop37
 90
       50
102
RTVSPost2010PropOp37
 70
     1
102
RTVSPost2010Prop38
140
0.0
102
RTVSPost2010PropOp38
 70
     1
102
RTVSPost2010Prop39
140
1.0
102
RTVSPost2010PropOp39
 70
     1
102
RTVSPost2010Prop40
 90
        0
102
RTVSPost2010PropOp40
 70
     1
102
RTVSPost2010Prop41ColorIndex
 90
       18
102
RTVSPost2010Prop41ColorRGB
 90
        0
102
RTVSPost2010PropOp41
 70
     1
102
RTVSPost2010Prop42
 90
       50
102
RTVSPost2010PropOp42
 70
     1
102
RTVSPost2010Prop43
 90
        3
102
RTVSPost2010PropOp43
 70
     1
102
RTVSPost2010Prop44ColorIndex
 90
        5
102
RTVSPost2010Prop44ColorRGB
 90
      255
102
RTVSPost2010PropOp44
 70
     1
102
RTVSPost2010Prop45
280
     0
102
RTVSPost2010PropOp45
 70
     1
102
RTVSPost2010Prop46
 90
       50
102
RTVSPost2010PropOp46
 70
     1
102
RTVSPost2010Prop47
 90
       50
102
RTVSPost2010PropOp47
 70
     1
102
RTVSPost2010Prop48
 90
       50
102
RTVSPost2010PropOp48
 70
     1
102
RTVSPost2010Prop49
280
     0
102
RTVSPost2010PropOp49
 70
     1
102
RTVSPost2010Prop50
 90
       50
102
RTVSPost2010PropOp50
 70
     1
102
RTVSPost2010Prop51ColorIndex
 90
      256
102
RTVSPost2010Prop51ColorRGB
 90
-16777216
102
RTVSPost2010PropOp51
 70
     0
102
RTVSPost2010Prop52
140
1.0
102
RTVSPost2010PropOp52
 70
     0
102
RTVSPost2010Prop53
 90
        2
102
RTVSPost2010PropOp53
 70
     1
102
RTVSPost2010Prop54
  1
strokes_ogs.tif
102
RTVSPost2010PropOp54
 70
     1
102
RTVSPost2010Prop55
280
     0
102
RTVSPost2010PropOp55
 70
     1
102
RTVSPost2010Prop56
140
1.0
102
RTVSPost2010PropOp56
 70
     1
102
RTVSPost2010Prop57
140
1.0
102
RTVSPost2010PropOp57
 70
     1
  0
XRECORD
  5
5FE
102
{ACAD_REACTORS
330
5FD
102
}
330
5FD
100
AcDbXrecord
280
     1
102
RTVSPropertyOp0
 70
     0
102
RTVSPropertyOp1
 70
     0
102
RTVSPropertyOp2
 70
     0
102
RTVSPropertyOp3
 70
     0
102
RTVSPropertyOp4
 70
     0
102
RTVSPropertyOp5
 70
     0
102
RTVSPropertyOp6
 70
     0
102
RTVSPropertyOp7
 70
     0
102
RTVSPropertyOp8
 70
     0
102
RTVSPropertyOp9
 70
     0
102
RTVSPropertyOp10
 70
     0
102
RTVSPropertyOp11
 70
     0
102
RTVSPropertyOp12
 70
     0
102
RTVSPropertyOp13
 70
     0
102
RTVSPropertyOp14
 70
     0
102
RTVSPropertyOp15
 70
     0
102
RTVSPropertyOp16
 70
     0
102
RTVSPropertyOp17
 70
     0
102
RTVSPropertyOp18
 70
     0
102
RTVSPropertyOp19
 70
     0
102
RTVSPropertyOp20
 70
     0
102
RTVSPropertyOp21
 70
     0
102
RTVSPropertyOp22
 70
     0
102
RTVSPropertyOp23
 70
     0
102
RTVSPropertyOp24
 70
     0
102
RTVSPropertyOp25
 70
     0
102
RTVSPropertyOp26
 70
     0
102
RTVSPropertyOp27
 70
     0
102
RTVSPropertyOp28
 70
     1
102
RTVSPropertyOp29
 70
     1
102
RTVSPropertyOp30
 70
     1
102
RTVSPropertyOp31
 70
     1
102
RTVSPropertyOp32
 70
     1
102
RTVSPropertyOp33
 70
     1
102
RTVSPropertyOp34
 70
     1
102
RTVSPropertyOp35
 70
     1
102
RTVSPropertyOp36
 70
     1
102
RTVSPropertyOp37
 70
     1
102
RTVSPropertyOp38
 70
     1
102
RTVSPropertyOp39
 70
     1
102
RTVSPropertyOp40
 70
     1
102
RTVSPropertyOp41
 70
     1
102
RTVSPropertyOp42
 70
     1
102
RTVSPropertyOp43
 70
     1
102
RTVSPropertyOp44
 70
     1
102
RTVSPropertyOp45
 70
     1
102
RTVSPropertyOp46
 70
     1
102
RTVSPropertyOp47
 70
     1
102
RTVSPropertyOp48
 70
     1
102
RTVSPropertyOp49
 70
     1
102
RTVSPropertyOp50
 70
     1
102
RTVSPropertyOp51
 70
     0
102
RTVSPropertyOp52
 70
     0
102
RTVSPropertyOp53
 70
     1
102
RTVSPropertyOp54
 70
     1
102
RTVSPropertyOp55
 70
     1
102
RTVSPropertyOp56
 70
     1
102
RTVSPropertyOp57
 70
     1
102
RTVSPost2010Prop28
280
     0
102
RTVSPost2010PropOp28
 70
     1
102
RTVSPost2010Prop29
280
     1
102
RTVSPost2010PropOp29
 70
     1
102
RTVSPost2010Prop30
280
     1
102
RTVSPost2010PropOp30
 70
     1
102
RTVSPost2010Prop31
280
     0
102
RTVSPost2010PropOp31
 70
     1
102
RTVSPost2010Prop32
280
     0
102
RTVSPost2010PropOp32
 70
     1
102
RTVSPost2010Prop33
280
     0
102
RTVSPost2010PropOp33
 70
     1
102
RTVSPost2010Prop34
280
     0
102
RTVSPost2010PropOp34
 70
     1
102
RTVSPost2010Prop35
280
     0
102
RTVSPost2010PropOp35
 70
     1
102
RTVSPost2010Prop36
280
     0
102
RTVSPost2010PropOp36
 70
     1
102
RTVSPost2010Prop37
 90
       50
102
RTVSPost2010PropOp37
 70
     1
102
RTVSPost2010Prop38
140
0.0
102
RTVSPost2010PropOp38
 70
     1
102
RTVSPost2010Prop39
140
1.0
102
RTVSPost2010PropOp39
 70
     1
102
RTVSPost2010Prop40
 90
        0
102
RTVSPost2010PropOp40
 70
     1
102
RTVSPost2010Prop41ColorIndex
 90
       18
102
RTVSPost2010Prop41ColorRGB
 90
        0
102
RTVSPost2010PropOp41
 70
     1
102
RTVSPost2010Prop42
 90
       50
102
RTVSPost2010PropOp42
 70
     1
102
RTVSPost2010Prop43
 90
        3
102
RTVSPost2010PropOp43
 70
     1
102
RTVSPost2010Prop44ColorIndex
 90
        5
102
RTVSPost2010Prop44ColorRGB
 90
      255
102
RTVSPost2010PropOp44
 70
     1
102
RTVSPost2010Prop45
280
     0
102
RTVSPost2010PropOp45
 70
     1
102
RTVSPost2010Prop46
 90
       50
102
RTVSPost2010PropOp46
 70
     1
102
RTVSPost2010Prop47
 90
       50
102
RTVSPost2010PropOp47
 70
     1
102
RTVSPost2010Prop48
 90
       50
102
RTVSPost2010PropOp48
 70
     1
102
RTVSPost2010Prop49
280
     0
102
RTVSPost2010PropOp49
 70
     1
102
RTVSPost2010Prop50
 90
       50
102
RTVSPost2010PropOp50
 70
     1
102
RTVSPost2010Prop51ColorIndex
 90
      256
102
RTVSPost2010Prop51ColorRGB
 90
-16777216
102
RTVSPost2010PropOp51
 70
     0
102
RTVSPost2010Prop52
140
1.0
102
RTVSPost2010PropOp52
 70
     0
102
RTVSPost2010Prop53
 90
        2
102
RTVSPost2010PropOp53
 70
     1
102
RTVSPost2010Prop54
  1
strokes_ogs.tif
102
RTVSPost2010PropOp54
 70
     1
102
RTVSPost2010Prop55
280
     0
102
RTVSPost2010PropOp55
 70
     1
102
RTVSPost2010Prop56
140
1.0
102
RTVSPost2010PropOp56
 70
     1
102
RTVSPost2010Prop57
140
1.0
102
RTVSPost2010PropOp57
 70
     1
  0
XRECORD
  5
5EC
102
{ACAD_REACTORS
330
5EB
102
}
330
5EB
100
AcDbXrecord
280
     1
102
RTVSPropertyOp0
 70
     1
102
RTVSPropertyOp1
 70
     1
102
RTVSPropertyOp2
 70
     1
102
RTVSPropertyOp3
 70
     1
102
RTVSPropertyOp4
 70
     1
102
RTVSPropertyOp5
 70
     1
102
RTVSPropertyOp6
 70
     1
102
RTVSPropertyOp7
 70
     1
102
RTVSPropertyOp8
 70
     1
102
RTVSPropertyOp9
 70
     1
102
RTVSPropertyOp10
 70
     1
102
RTVSPropertyOp11
 70
     1
102
RTVSPropertyOp12
 70
     1
102
RTVSPropertyOp13
 70
     1
102
RTVSPropertyOp14
 70
     1
102
RTVSPropertyOp15
 70
     1
102
RTVSPropertyOp16
 70
     1
102
RTVSPropertyOp17
 70
     1
102
RTVSPropertyOp18
 70
     1
102
RTVSPropertyOp19
 70
     1
102
RTVSPropertyOp20
 70
     1
102
RTVSPropertyOp21
 70
     1
102
RTVSPropertyOp22
 70
     1
102
RTVSPropertyOp23
 70
     1
102
RTVSPropertyOp24
 70
     1
102
RTVSPropertyOp25
 70
     1
102
RTVSPropertyOp26
 70
     1
102
RTVSPropertyOp27
 70
     1
102
RTVSPropertyOp28
 70
     1
102
RTVSPropertyOp29
 70
     1
102
RTVSPropertyOp30
 70
     1
102
RTVSPropertyOp31
 70
     1
102
RTVSPropertyOp32
 70
     1
102
RTVSPropertyOp33
 70
     1
102
RTVSPropertyOp34
 70
     1
102
RTVSPropertyOp35
 70
     1
102
RTVSPropertyOp36
 70
     1
102
RTVSPropertyOp37
 70
     1
102
RTVSPropertyOp38
 70
     1
102
RTVSPropertyOp39
 70
     1
102
RTVSPropertyOp40
 70
     1
102
RTVSPropertyOp41
 70
     1
102
RTVSPropertyOp42
 70
     1
102
RTVSPropertyOp43
 70
     1
102
RTVSPropertyOp44
 70
     1
102
RTVSPropertyOp45
 70
     1
102
RTVSPropertyOp46
 70
     1
102
RTVSPropertyOp47
 70
     1
102
RTVSPropertyOp48
 70
     1
102
RTVSPropertyOp49
 70
     1
102
RTVSPropertyOp50
 70
     1
102
RTVSPropertyOp51
 70
     0
102
RTVSPropertyOp52
 70
     0
102
RTVSPropertyOp53
 70
     1
102
RTVSPropertyOp54
 70
     1
102
RTVSPropertyOp55
 70
     1
102
RTVSPropertyOp56
 70
     1
102
RTVSPropertyOp57
 70
     1
102
RTVSPost2010Prop28
280
     0
102
RTVSPost2010PropOp28
 70
     1
102
RTVSPost2010Prop29
280
     1
102
RTVSPost2010PropOp29
 70
     1
102
RTVSPost2010Prop30
280
     1
102
RTVSPost2010PropOp30
 70
     1
102
RTVSPost2010Prop31
280
     0
102
RTVSPost2010PropOp31
 70
     1
102
RTVSPost2010Prop32
280
     0
102
RTVSPost2010PropOp32
 70
     1
102
RTVSPost2010Prop33
280
     0
102
RTVSPost2010PropOp33
 70
     1
102
RTVSPost2010Prop34
280
     0
102
RTVSPost2010PropOp34
 70
     1
102
RTVSPost2010Prop35
280
     0
102
RTVSPost2010PropOp35
 70
     1
102
RTVSPost2010Prop36
280
     0
102
RTVSPost2010PropOp36
 70
     1
102
RTVSPost2010Prop37
 90
       50
102
RTVSPost2010PropOp37
 70
     1
102
RTVSPost2010Prop38
140
0.0
102
RTVSPost2010PropOp38
 70
     1
102
RTVSPost2010Prop39
140
1.0
102
RTVSPost2010PropOp39
 70
     1
102
RTVSPost2010Prop40
 90
        0
102
RTVSPost2010PropOp40
 70
     1
102
RTVSPost2010Prop41ColorIndex
 90
       18
102
RTVSPost2010Prop41ColorRGB
 90
        0
102
RTVSPost2010PropOp41
 70
     1
102
RTVSPost2010Prop42
 90
       50
102
RTVSPost2010PropOp42
 70
     1
102
RTVSPost2010Prop43
 90
        3
102
RTVSPost2010PropOp43
 70
     1
102
RTVSPost2010Prop44ColorIndex
 90
        5
102
RTVSPost2010Prop44ColorRGB
 90
      255
102
RTVSPost2010PropOp44
 70
     1
102
RTVSPost2010Prop45
280
     0
102
RTVSPost2010PropOp45
 70
     1
102
RTVSPost2010Prop46
 90
       50
102
RTVSPost2010PropOp46
 70
     1
102
RTVSPost2010Prop47
 90
       50
102
RTVSPost2010PropOp47
 70
     1
102
RTVSPost2010Prop48
 90
       50
102
RTVSPost2010PropOp48
 70
     1
102
RTVSPost2010Prop49
280
     0
102
RTVSPost2010PropOp49
 70
     1
102
RTVSPost2010Prop50
 90
       50
102
RTVSPost2010PropOp50
 70
     1
102
RTVSPost2010Prop51ColorIndex
 90
      256
102
RTVSPost2010Prop51ColorRGB
 90
-16777216
102
RTVSPost2010PropOp51
 70
     0
102
RTVSPost2010Prop52
140
1.0
102
RTVSPost2010PropOp52
 70
     0
102
RTVSPost2010Prop53
 90
        2
102
RTVSPost2010PropOp53
 70
     1
102
RTVSPost2010Prop54
  1
strokes_ogs.tif
102
RTVSPost2010PropOp54
 70
     1
102
RTVSPost2010Prop55
280
     0
102
RTVSPost2010PropOp55
 70
     1
102
RTVSPost2010Prop56
140
1.0
102
RTVSPost2010PropOp56
 70
     1
102
RTVSPost2010Prop57
140
1.0
102
RTVSPost2010PropOp57
 70
     1
  0
XRECORD
  5
60A
102
{ACAD_REACTORS
330
609
102
}
330
609
100
AcDbXrecord
280
     1
102
RTVSPropertyOp0
 70
     1
102
RTVSPropertyOp1
 70
     1
102
RTVSPropertyOp2
 70
     1
102
RTVSPropertyOp3
 70
     1
102
RTVSPropertyOp4
 70
     1
102
RTVSPropertyOp5
 70
     1
102
RTVSPropertyOp6
 70
     1
102
RTVSPropertyOp7
 70
     1
102
RTVSPropertyOp8
 70
     1
102
RTVSPropertyOp9
 70
     1
102
RTVSPropertyOp10
 70
     1
102
RTVSPropertyOp11
 70
     1
102
RTVSPropertyOp12
 70
     1
102
RTVSPropertyOp13
 70
     1
102
RTVSPropertyOp14
 70
     1
102
RTVSPropertyOp15
 70
     1
102
RTVSPropertyOp16
 70
     1
102
RTVSPropertyOp17
 70
     1
102
RTVSPropertyOp18
 70
     1
102
RTVSPropertyOp19
 70
     1
102
RTVSPropertyOp20
 70
     1
102
RTVSPropertyOp21
 70
     1
102
RTVSPropertyOp22
 70
     1
102
RTVSPropertyOp23
 70
     1
102
RTVSPropertyOp24
 70
     1
102
RTVSPropertyOp25
 70
     1
102
RTVSPropertyOp26
 70
     1
102
RTVSPropertyOp27
 70
     1
102
RTVSPropertyOp28
 70
     1
102
RTVSPropertyOp29
 70
     1
102
RTVSPropertyOp30
 70
     1
102
RTVSPropertyOp31
 70
     1
102
RTVSPropertyOp32
 70
     1
102
RTVSPropertyOp33
 70
     1
102
RTVSPropertyOp34
 70
     1
102
RTVSPropertyOp35
 70
     1
102
RTVSPropertyOp36
 70
     1
102
RTVSPropertyOp37
 70
     1
102
RTVSPropertyOp38
 70
     1
102
RTVSPropertyOp39
 70
     1
102
RTVSPropertyOp40
 70
     1
102
RTVSPropertyOp41
 70
     1
102
RTVSPropertyOp42
 70
     1
102
RTVSPropertyOp43
 70
     1
102
RTVSPropertyOp44
 70
     1
102
RTVSPropertyOp45
 70
     1
102
RTVSPropertyOp46
 70
     1
102
RTVSPropertyOp47
 70
     1
102
RTVSPropertyOp48
 70
     1
102
RTVSPropertyOp49
 70
     1
102
RTVSPropertyOp50
 70
     1
102
RTVSPropertyOp51
 70
     0
102
RTVSPropertyOp52
 70
     0
102
RTVSPropertyOp53
 70
     1
102
RTVSPropertyOp54
 70
     1
102
RTVSPropertyOp55
 70
     1
102
RTVSPropertyOp56
 70
     1
102
RTVSPropertyOp57
 70
     1
102
RTVSPost2010Prop28
280
     0
102
RTVSPost2010PropOp28
 70
     1
102
RTVSPost2010Prop29
280
     1
102
RTVSPost2010PropOp29
 70
     1
102
RTVSPost2010Prop30
280
     1
102
RTVSPost2010PropOp30
 70
     1
102
RTVSPost2010Prop31
280
     0
102
RTVSPost2010PropOp31
 70
     1
102
RTVSPost2010Prop32
280
     0
102
RTVSPost2010PropOp32
 70
     1
102
RTVSPost2010Prop33
280
     0
102
RTVSPost2010PropOp33
 70
     1
102
RTVSPost2010Prop34
280
     0
102
RTVSPost2010PropOp34
 70
     1
102
RTVSPost2010Prop35
280
     0
102
RTVSPost2010PropOp35
 70
     1
102
RTVSPost2010Prop36
280
     0
102
RTVSPost2010PropOp36
 70
     1
102
RTVSPost2010Prop37
 90
       50
102
RTVSPost2010PropOp37
 70
     1
102
RTVSPost2010Prop38
140
0.0
102
RTVSPost2010PropOp38
 70
     1
102
RTVSPost2010Prop39
140
1.0
102
RTVSPost2010PropOp39
 70
     1
102
RTVSPost2010Prop40
 90
        0
102
RTVSPost2010PropOp40
 70
     1
102
RTVSPost2010Prop41ColorIndex
 90
       18
102
RTVSPost2010Prop41ColorRGB
 90
        0
102
RTVSPost2010PropOp41
 70
     1
102
RTVSPost2010Prop42
 90
       50
102
RTVSPost2010PropOp42
 70
     1
102
RTVSPost2010Prop43
 90
        3
102
RTVSPost2010PropOp43
 70
     1
102
RTVSPost2010Prop44ColorIndex
 90
        5
102
RTVSPost2010Prop44ColorRGB
 90
      255
102
RTVSPost2010PropOp44
 70
     1
102
RTVSPost2010Prop45
280
     0
102
RTVSPost2010PropOp45
 70
     1
102
RTVSPost2010Prop46
 90
       50
102
RTVSPost2010PropOp46
 70
     1
102
RTVSPost2010Prop47
 90
       50
102
RTVSPost2010PropOp47
 70
     1
102
RTVSPost2010Prop48
 90
       50
102
RTVSPost2010PropOp48
 70
     1
102
RTVSPost2010Prop49
280
     0
102
RTVSPost2010PropOp49
 70
     1
102
RTVSPost2010Prop50
 90
       50
102
RTVSPost2010PropOp50
 70
     1
102
RTVSPost2010Prop51ColorIndex
 90
      256
102
RTVSPost2010Prop51ColorRGB
 90
-16777216
102
RTVSPost2010PropOp51
 70
     0
102
RTVSPost2010Prop52
140
1.0
102
RTVSPost2010PropOp52
 70
     0
102
RTVSPost2010Prop53
 90
        2
102
RTVSPost2010PropOp53
 70
     1
102
RTVSPost2010Prop54
  1
strokes_ogs.tif
102
RTVSPost2010PropOp54
 70
     1
102
RTVSPost2010Prop55
280
     0
102
RTVSPost2010PropOp55
 70
     1
102
RTVSPost2010Prop56
140
1.0
102
RTVSPost2010PropOp56
 70
     1
102
RTVSPost2010Prop57
140
1.0
102
RTVSPost2010PropOp57
 70
     1
  0
XRECORD
  5
608
102
{ACAD_REACTORS
330
607
102
}
330
607
100
AcDbXrecord
280
     1
102
RTVSPropertyOp0
 70
     1
102
RTVSPropertyOp1
 70
     1
102
RTVSPropertyOp2
 70
     1
102
RTVSPropertyOp3
 70
     1
102
RTVSPropertyOp4
 70
     1
102
RTVSPropertyOp5
 70
     1
102
RTVSPropertyOp6
 70
     1
102
RTVSPropertyOp7
 70
     1
102
RTVSPropertyOp8
 70
     1
102
RTVSPropertyOp9
 70
     1
102
RTVSPropertyOp10
 70
     1
102
RTVSPropertyOp11
 70
     1
102
RTVSPropertyOp12
 70
     1
102
RTVSPropertyOp13
 70
     1
102
RTVSPropertyOp14
 70
     1
102
RTVSPropertyOp15
 70
     1
102
RTVSPropertyOp16
 70
     1
102
RTVSPropertyOp17
 70
     1
102
RTVSPropertyOp18
 70
     1
102
RTVSPropertyOp19
 70
     1
102
RTVSPropertyOp20
 70
     1
102
RTVSPropertyOp21
 70
     1
102
RTVSPropertyOp22
 70
     1
102
RTVSPropertyOp23
 70
     1
102
RTVSPropertyOp24
 70
     1
102
RTVSPropertyOp25
 70
     1
102
RTVSPropertyOp26
 70
     1
102
RTVSPropertyOp27
 70
     1
102
RTVSPropertyOp28
 70
     1
102
RTVSPropertyOp29
 70
     1
102
RTVSPropertyOp30
 70
     1
102
RTVSPropertyOp31
 70
     1
102
RTVSPropertyOp32
 70
     1
102
RTVSPropertyOp33
 70
     1
102
RTVSPropertyOp34
 70
     1
102
RTVSPropertyOp35
 70
     1
102
RTVSPropertyOp36
 70
     1
102
RTVSPropertyOp37
 70
     1
102
RTVSPropertyOp38
 70
     1
102
RTVSPropertyOp39
 70
     1
102
RTVSPropertyOp40
 70
     1
102
RTVSPropertyOp41
 70
     1
102
RTVSPropertyOp42
 70
     1
102
RTVSPropertyOp43
 70
     1
102
RTVSPropertyOp44
 70
     1
102
RTVSPropertyOp45
 70
     1
102
RTVSPropertyOp46
 70
     1
102
RTVSPropertyOp47
 70
     1
102
RTVSPropertyOp48
 70
     1
102
RTVSPropertyOp49
 70
     1
102
RTVSPropertyOp50
 70
     1
102
RTVSPropertyOp51
 70
     0
102
RTVSPropertyOp52
 70
     0
102
RTVSPropertyOp53
 70
     1
102
RTVSPropertyOp54
 70
     1
102
RTVSPropertyOp55
 70
     1
102
RTVSPropertyOp56
 70
     1
102
RTVSPropertyOp57
 70
     1
102
RTVSPost2010Prop28
280
     0
102
RTVSPost2010PropOp28
 70
     1
102
RTVSPost2010Prop29
280
     1
102
RTVSPost2010PropOp29
 70
     1
102
RTVSPost2010Prop30
280
     1
102
RTVSPost2010PropOp30
 70
     1
102
RTVSPost2010Prop31
280
     0
102
RTVSPost2010PropOp31
 70
     1
102
RTVSPost2010Prop32
280
     0
102
RTVSPost2010PropOp32
 70
     1
102
RTVSPost2010Prop33
280
     0
102
RTVSPost2010PropOp33
 70
     1
102
RTVSPost2010Prop34
280
     0
102
RTVSPost2010PropOp34
 70
     1
102
RTVSPost2010Prop35
280
     0
102
RTVSPost2010PropOp35
 70
     1
102
RTVSPost2010Prop36
280
     0
102
RTVSPost2010PropOp36
 70
     1
102
RTVSPost2010Prop37
 90
       50
102
RTVSPost2010PropOp37
 70
     1
102
RTVSPost2010Prop38
140
0.0
102
RTVSPost2010PropOp38
 70
     1
102
RTVSPost2010Prop39
140
1.0
102
RTVSPost2010PropOp39
 70
     1
102
RTVSPost2010Prop40
 90
        0
102
RTVSPost2010PropOp40
 70
     1
102
RTVSPost2010Prop41ColorIndex
 90
       18
102
RTVSPost2010Prop41ColorRGB
 90
        0
102
RTVSPost2010PropOp41
 70
     1
102
RTVSPost2010Prop42
 90
       50
102
RTVSPost2010PropOp42
 70
     1
102
RTVSPost2010Prop43
 90
        3
102
RTVSPost2010PropOp43
 70
     1
102
RTVSPost2010Prop44ColorIndex
 90
        5
102
RTVSPost2010Prop44ColorRGB
 90
      255
102
RTVSPost2010PropOp44
 70
     1
102
RTVSPost2010Prop45
280
     0
102
RTVSPost2010PropOp45
 70
     1
102
RTVSPost2010Prop46
 90
       50
102
RTVSPost2010PropOp46
 70
     1
102
RTVSPost2010Prop47
 90
       50
102
RTVSPost2010PropOp47
 70
     1
102
RTVSPost2010Prop48
 90
       50
102
RTVSPost2010PropOp48
 70
     1
102
RTVSPost2010Prop49
280
     0
102
RTVSPost2010PropOp49
 70
     1
102
RTVSPost2010Prop50
 90
       50
102
RTVSPost2010PropOp50
 70
     1
102
RTVSPost2010Prop51ColorIndex
 90
      256
102
RTVSPost2010Prop51ColorRGB
 90
-16777216
102
RTVSPost2010PropOp51
 70
     0
102
RTVSPost2010Prop52
140
1.0
102
RTVSPost2010PropOp52
 70
     0
102
RTVSPost2010Prop53
 90
        2
102
RTVSPost2010PropOp53
 70
     1
102
RTVSPost2010Prop54
  1
strokes_ogs.tif
102
RTVSPost2010PropOp54
 70
     1
102
RTVSPost2010Prop55
280
     0
102
RTVSPost2010PropOp55
 70
     1
102
RTVSPost2010Prop56
140
1.0
102
RTVSPost2010PropOp56
 70
     1
102
RTVSPost2010Prop57
140
1.0
102
RTVSPost2010PropOp57
 70
     1
  0
XRECORD
  5
602
102
{ACAD_REACTORS
330
601
102
}
330
601
100
AcDbXrecord
280
     1
102
RTVSPropertyOp0
 70
     1
102
RTVSPropertyOp1
 70
     1
102
RTVSPropertyOp2
 70
     1
102
RTVSPropertyOp3
 70
     1
102
RTVSPropertyOp4
 70
     1
102
RTVSPropertyOp5
 70
     1
102
RTVSPropertyOp6
 70
     1
102
RTVSPropertyOp7
 70
     1
102
RTVSPropertyOp8
 70
     1
102
RTVSPropertyOp9
 70
     1
102
RTVSPropertyOp10
 70
     1
102
RTVSPropertyOp11
 70
     1
102
RTVSPropertyOp12
 70
     1
102
RTVSPropertyOp13
 70
     1
102
RTVSPropertyOp14
 70
     1
102
RTVSPropertyOp15
 70
     1
102
RTVSPropertyOp16
 70
     1
102
RTVSPropertyOp17
 70
     1
102
RTVSPropertyOp18
 70
     1
102
RTVSPropertyOp19
 70
     1
102
RTVSPropertyOp20
 70
     1
102
RTVSPropertyOp21
 70
     1
102
RTVSPropertyOp22
 70
     1
102
RTVSPropertyOp23
 70
     1
102
RTVSPropertyOp24
 70
     1
102
RTVSPropertyOp25
 70
     1
102
RTVSPropertyOp26
 70
     1
102
RTVSPropertyOp27
 70
     1
102
RTVSPropertyOp28
 70
     1
102
RTVSPropertyOp29
 70
     1
102
RTVSPropertyOp30
 70
     1
102
RTVSPropertyOp31
 70
     1
102
RTVSPropertyOp32
 70
     1
102
RTVSPropertyOp33
 70
     1
102
RTVSPropertyOp34
 70
     1
102
RTVSPropertyOp35
 70
     1
102
RTVSPropertyOp36
 70
     1
102
RTVSPropertyOp37
 70
     1
102
RTVSPropertyOp38
 70
     1
102
RTVSPropertyOp39
 70
     1
102
RTVSPropertyOp40
 70
     1
102
RTVSPropertyOp41
 70
     1
102
RTVSPropertyOp42
 70
     1
102
RTVSPropertyOp43
 70
     1
102
RTVSPropertyOp44
 70
     1
102
RTVSPropertyOp45
 70
     1
102
RTVSPropertyOp46
 70
     1
102
RTVSPropertyOp47
 70
     1
102
RTVSPropertyOp48
 70
     1
102
RTVSPropertyOp49
 70
     1
102
RTVSPropertyOp50
 70
     1
102
RTVSPropertyOp51
 70
     0
102
RTVSPropertyOp52
 70
     0
102
RTVSPropertyOp53
 70
     1
102
RTVSPropertyOp54
 70
     1
102
RTVSPropertyOp55
 70
     1
102
RTVSPropertyOp56
 70
     1
102
RTVSPropertyOp57
 70
     1
102
RTVSPost2010Prop28
280
     0
102
RTVSPost2010PropOp28
 70
     1
102
RTVSPost2010Prop29
280
     1
102
RTVSPost2010PropOp29
 70
     1
102
RTVSPost2010Prop30
280
     1
102
RTVSPost2010PropOp30
 70
     1
102
RTVSPost2010Prop31
280
     0
102
RTVSPost2010PropOp31
 70
     1
102
RTVSPost2010Prop32
280
     0
102
RTVSPost2010PropOp32
 70
     1
102
RTVSPost2010Prop33
280
     0
102
RTVSPost2010PropOp33
 70
     1
102
RTVSPost2010Prop34
280
     0
102
RTVSPost2010PropOp34
 70
     1
102
RTVSPost2010Prop35
280
     0
102
RTVSPost2010PropOp35
 70
     1
102
RTVSPost2010Prop36
280
     0
102
RTVSPost2010PropOp36
 70
     1
102
RTVSPost2010Prop37
 90
       50
102
RTVSPost2010PropOp37
 70
     1
102
RTVSPost2010Prop38
140
0.0
102
RTVSPost2010PropOp38
 70
     1
102
RTVSPost2010Prop39
140
1.0
102
RTVSPost2010PropOp39
 70
     1
102
RTVSPost2010Prop40
 90
        0
102
RTVSPost2010PropOp40
 70
     1
102
RTVSPost2010Prop41ColorIndex
 90
       18
102
RTVSPost2010Prop41ColorRGB
 90
        0
102
RTVSPost2010PropOp41
 70
     1
102
RTVSPost2010Prop42
 90
       50
102
RTVSPost2010PropOp42
 70
     1
102
RTVSPost2010Prop43
 90
        3
102
RTVSPost2010PropOp43
 70
     1
102
RTVSPost2010Prop44ColorIndex
 90
        5
102
RTVSPost2010Prop44ColorRGB
 90
      255
102
RTVSPost2010PropOp44
 70
     1
102
RTVSPost2010Prop45
280
     0
102
RTVSPost2010PropOp45
 70
     1
102
RTVSPost2010Prop46
 90
       50
102
RTVSPost2010PropOp46
 70
     1
102
RTVSPost2010Prop47
 90
       50
102
RTVSPost2010PropOp47
 70
     1
102
RTVSPost2010Prop48
 90
       50
102
RTVSPost2010PropOp48
 70
     1
102
RTVSPost2010Prop49
280
     0
102
RTVSPost2010PropOp49
 70
     1
102
RTVSPost2010Prop50
 90
       50
102
RTVSPost2010PropOp50
 70
     1
102
RTVSPost2010Prop51ColorIndex
 90
      256
102
RTVSPost2010Prop51ColorRGB
 90
-16777216
102
RTVSPost2010PropOp51
 70
     0
102
RTVSPost2010Prop52
140
1.0
102
RTVSPost2010PropOp52
 70
     0
102
RTVSPost2010Prop53
 90
        2
102
RTVSPost2010PropOp53
 70
     1
102
RTVSPost2010Prop54
  1
strokes_ogs.tif
102
RTVSPost2010PropOp54
 70
     1
102
RTVSPost2010Prop55
280
     0
102
RTVSPost2010PropOp55
 70
     1
102
RTVSPost2010Prop56
140
1.0
102
RTVSPost2010PropOp56
 70
     1
102
RTVSPost2010Prop57
140
1.0
102
RTVSPost2010PropOp57
 70
     1
  0
XRECORD
  5
604
102
{ACAD_REACTORS
330
603
102
}
330
603
100
AcDbXrecord
280
     1
102
RTVSPropertyOp0
 70
     1
102
RTVSPropertyOp1
 70
     1
102
RTVSPropertyOp2
 70
     1
102
RTVSPropertyOp3
 70
     1
102
RTVSPropertyOp4
 70
     1
102
RTVSPropertyOp5
 70
     1
102
RTVSPropertyOp6
 70
     1
102
RTVSPropertyOp7
 70
     1
102
RTVSPropertyOp8
 70
     1
102
RTVSPropertyOp9
 70
     1
102
RTVSPropertyOp10
 70
     1
102
RTVSPropertyOp11
 70
     1
102
RTVSPropertyOp12
 70
     1
102
RTVSPropertyOp13
 70
     1
102
RTVSPropertyOp14
 70
     1
102
RTVSPropertyOp15
 70
     1
102
RTVSPropertyOp16
 70
     1
102
RTVSPropertyOp17
 70
     1
102
RTVSPropertyOp18
 70
     1
102
RTVSPropertyOp19
 70
     1
102
RTVSPropertyOp20
 70
     1
102
RTVSPropertyOp21
 70
     1
102
RTVSPropertyOp22
 70
     1
102
RTVSPropertyOp23
 70
     1
102
RTVSPropertyOp24
 70
     1
102
RTVSPropertyOp25
 70
     1
102
RTVSPropertyOp26
 70
     1
102
RTVSPropertyOp27
 70
     1
102
RTVSPropertyOp28
 70
     1
102
RTVSPropertyOp29
 70
     1
102
RTVSPropertyOp30
 70
     1
102
RTVSPropertyOp31
 70
     1
102
RTVSPropertyOp32
 70
     1
102
RTVSPropertyOp33
 70
     1
102
RTVSPropertyOp34
 70
     1
102
RTVSPropertyOp35
 70
     1
102
RTVSPropertyOp36
 70
     1
102
RTVSPropertyOp37
 70
     1
102
RTVSPropertyOp38
 70
     1
102
RTVSPropertyOp39
 70
     1
102
RTVSPropertyOp40
 70
     1
102
RTVSPropertyOp41
 70
     1
102
RTVSPropertyOp42
 70
     1
102
RTVSPropertyOp43
 70
     1
102
RTVSPropertyOp44
 70
     1
102
RTVSPropertyOp45
 70
     1
102
RTVSPropertyOp46
 70
     1
102
RTVSPropertyOp47
 70
     1
102
RTVSPropertyOp48
 70
     1
102
RTVSPropertyOp49
 70
     1
102
RTVSPropertyOp50
 70
     1
102
RTVSPropertyOp51
 70
     0
102
RTVSPropertyOp52
 70
     0
102
RTVSPropertyOp53
 70
     1
102
RTVSPropertyOp54
 70
     1
102
RTVSPropertyOp55
 70
     1
102
RTVSPropertyOp56
 70
     1
102
RTVSPropertyOp57
 70
     1
102
RTVSPost2010Prop28
280
     0
102
RTVSPost2010PropOp28
 70
     1
102
RTVSPost2010Prop29
280
     1
102
RTVSPost2010PropOp29
 70
     1
102
RTVSPost2010Prop30
280
     1
102
RTVSPost2010PropOp30
 70
     1
102
RTVSPost2010Prop31
280
     0
102
RTVSPost2010PropOp31
 70
     1
102
RTVSPost2010Prop32
280
     0
102
RTVSPost2010PropOp32
 70
     1
102
RTVSPost2010Prop33
280
     0
102
RTVSPost2010PropOp33
 70
     1
102
RTVSPost2010Prop34
280
     0
102
RTVSPost2010PropOp34
 70
     1
102
RTVSPost2010Prop35
280
     0
102
RTVSPost2010PropOp35
 70
     1
102
RTVSPost2010Prop36
280
     0
102
RTVSPost2010PropOp36
 70
     1
102
RTVSPost2010Prop37
 90
       50
102
RTVSPost2010PropOp37
 70
     1
102
RTVSPost2010Prop38
140
0.0
102
RTVSPost2010PropOp38
 70
     1
102
RTVSPost2010Prop39
140
1.0
102
RTVSPost2010PropOp39
 70
     1
102
RTVSPost2010Prop40
 90
        0
102
RTVSPost2010PropOp40
 70
     1
102
RTVSPost2010Prop41ColorIndex
 90
       18
102
RTVSPost2010Prop41ColorRGB
 90
        0
102
RTVSPost2010PropOp41
 70
     1
102
RTVSPost2010Prop42
 90
       50
102
RTVSPost2010PropOp42
 70
     1
102
RTVSPost2010Prop43
 90
        3
102
RTVSPost2010PropOp43
 70
     1
102
RTVSPost2010Prop44ColorIndex
 90
        5
102
RTVSPost2010Prop44ColorRGB
 90
      255
102
RTVSPost2010PropOp44
 70
     1
102
RTVSPost2010Prop45
280
     0
102
RTVSPost2010PropOp45
 70
     1
102
RTVSPost2010Prop46
 90
       50
102
RTVSPost2010PropOp46
 70
     1
102
RTVSPost2010Prop47
 90
       50
102
RTVSPost2010PropOp47
 70
     1
102
RTVSPost2010Prop48
 90
       50
102
RTVSPost2010PropOp48
 70
     1
102
RTVSPost2010Prop49
280
     0
102
RTVSPost2010PropOp49
 70
     1
102
RTVSPost2010Prop50
 90
       50
102
RTVSPost2010PropOp50
 70
     1
102
RTVSPost2010Prop51ColorIndex
 90
      256
102
RTVSPost2010Prop51ColorRGB
 90
-16777216
102
RTVSPost2010PropOp51
 70
     0
102
RTVSPost2010Prop52
140
1.0
102
RTVSPost2010PropOp52
 70
     0
102
RTVSPost2010Prop53
 90
        2
102
RTVSPost2010PropOp53
 70
     1
102
RTVSPost2010Prop54
  1
strokes_ogs.tif
102
RTVSPost2010PropOp54
 70
     1
102
RTVSPost2010Prop55
280
     0
102
RTVSPost2010PropOp55
 70
     1
102
RTVSPost2010Prop56
140
1.0
102
RTVSPost2010PropOp56
 70
     1
102
RTVSPost2010Prop57
140
1.0
102
RTVSPost2010PropOp57
 70
     1
  0
XRECORD
  5
5F4
102
{ACAD_REACTORS
330
5F3
102
}
330
5F3
100
AcDbXrecord
280
     1
102
RTVSPropertyOp0
 70
     1
102
RTVSPropertyOp1
 70
     1
102
RTVSPropertyOp2
 70
     1
102
RTVSPropertyOp3
 70
     1
102
RTVSPropertyOp4
 70
     1
102
RTVSPropertyOp5
 70
     1
102
RTVSPropertyOp6
 70
     1
102
RTVSPropertyOp7
 70
     1
102
RTVSPropertyOp8
 70
     1
102
RTVSPropertyOp9
 70
     1
102
RTVSPropertyOp10
 70
     1
102
RTVSPropertyOp11
 70
     1
102
RTVSPropertyOp12
 70
     1
102
RTVSPropertyOp13
 70
     1
102
RTVSPropertyOp14
 70
     1
102
RTVSPropertyOp15
 70
     1
102
RTVSPropertyOp16
 70
     1
102
RTVSPropertyOp17
 70
     1
102
RTVSPropertyOp18
 70
     1
102
RTVSPropertyOp19
 70
     1
102
RTVSPropertyOp20
 70
     1
102
RTVSPropertyOp21
 70
     1
102
RTVSPropertyOp22
 70
     1
102
RTVSPropertyOp23
 70
     1
102
RTVSPropertyOp24
 70
     1
102
RTVSPropertyOp25
 70
     1
102
RTVSPropertyOp26
 70
     1
102
RTVSPropertyOp27
 70
     1
102
RTVSPropertyOp28
 70
     1
102
RTVSPropertyOp29
 70
     1
102
RTVSPropertyOp30
 70
     1
102
RTVSPropertyOp31
 70
     1
102
RTVSPropertyOp32
 70
     1
102
RTVSPropertyOp33
 70
     1
102
RTVSPropertyOp34
 70
     1
102
RTVSPropertyOp35
 70
     1
102
RTVSPropertyOp36
 70
     1
102
RTVSPropertyOp37
 70
     1
102
RTVSPropertyOp38
 70
     1
102
RTVSPropertyOp39
 70
     1
102
RTVSPropertyOp40
 70
     1
102
RTVSPropertyOp41
 70
     1
102
RTVSPropertyOp42
 70
     1
102
RTVSPropertyOp43
 70
     1
102
RTVSPropertyOp44
 70
     1
102
RTVSPropertyOp45
 70
     1
102
RTVSPropertyOp46
 70
     1
102
RTVSPropertyOp47
 70
     1
102
RTVSPropertyOp48
 70
     1
102
RTVSPropertyOp49
 70
     1
102
RTVSPropertyOp50
 70
     1
102
RTVSPropertyOp51
 70
     0
102
RTVSPropertyOp52
 70
     0
102
RTVSPropertyOp53
 70
     1
102
RTVSPropertyOp54
 70
     1
102
RTVSPropertyOp55
 70
     1
102
RTVSPropertyOp56
 70
     1
102
RTVSPropertyOp57
 70
     1
102
RTVSPost2010Prop28
280
     0
102
RTVSPost2010PropOp28
 70
     1
102
RTVSPost2010Prop29
280
     1
102
RTVSPost2010PropOp29
 70
     1
102
RTVSPost2010Prop30
280
     1
102
RTVSPost2010PropOp30
 70
     1
102
RTVSPost2010Prop31
280
     0
102
RTVSPost2010PropOp31
 70
     1
102
RTVSPost2010Prop32
280
     0
102
RTVSPost2010PropOp32
 70
     1
102
RTVSPost2010Prop33
280
     0
102
RTVSPost2010PropOp33
 70
     1
102
RTVSPost2010Prop34
280
     0
102
RTVSPost2010PropOp34
 70
     1
102
RTVSPost2010Prop35
280
     0
102
RTVSPost2010PropOp35
 70
     1
102
RTVSPost2010Prop36
280
     0
102
RTVSPost2010PropOp36
 70
     1
102
RTVSPost2010Prop37
 90
       50
102
RTVSPost2010PropOp37
 70
     1
102
RTVSPost2010Prop38
140
0.0
102
RTVSPost2010PropOp38
 70
     1
102
RTVSPost2010Prop39
140
1.0
102
RTVSPost2010PropOp39
 70
     1
102
RTVSPost2010Prop40
 90
        0
102
RTVSPost2010PropOp40
 70
     1
102
RTVSPost2010Prop41ColorIndex
 90
       18
102
RTVSPost2010Prop41ColorRGB
 90
        0
102
RTVSPost2010PropOp41
 70
     1
102
RTVSPost2010Prop42
 90
       50
102
RTVSPost2010PropOp42
 70
     1
102
RTVSPost2010Prop43
 90
        3
102
RTVSPost2010PropOp43
 70
     1
102
RTVSPost2010Prop44ColorIndex
 90
        5
102
RTVSPost2010Prop44ColorRGB
 90
      255
102
RTVSPost2010PropOp44
 70
     1
102
RTVSPost2010Prop45
280
     0
102
RTVSPost2010PropOp45
 70
     1
102
RTVSPost2010Prop46
 90
       50
102
RTVSPost2010PropOp46
 70
     1
102
RTVSPost2010Prop47
 90
       50
102
RTVSPost2010PropOp47
 70
     1
102
RTVSPost2010Prop48
 90
       50
102
RTVSPost2010PropOp48
 70
     1
102
RTVSPost2010Prop49
280
     0
102
RTVSPost2010PropOp49
 70
     1
102
RTVSPost2010Prop50
 90
       50
102
RTVSPost2010PropOp50
 70
     1
102
RTVSPost2010Prop51ColorIndex
 90
      256
102
RTVSPost2010Prop51ColorRGB
 90
-16777216
102
RTVSPost2010PropOp51
 70
     0
102
RTVSPost2010Prop52
140
1.0
102
RTVSPost2010PropOp52
 70
     0
102
RTVSPost2010Prop53
 90
        2
102
RTVSPost2010PropOp53
 70
     1
102
RTVSPost2010Prop54
  1
strokes_ogs.tif
102
RTVSPost2010PropOp54
 70
     1
102
RTVSPost2010Prop55
280
     0
102
RTVSPost2010PropOp55
 70
     1
102
RTVSPost2010Prop56
140
1.0
102
RTVSPost2010PropOp56
 70
     1
102
RTVSPost2010Prop57
140
1.0
102
RTVSPost2010PropOp57
 70
     1
  0
XRECORD
  5
5E6
102
{ACAD_REACTORS
330
5E5
102
}
330
5E5
100
AcDbXrecord
280
     1
102
RTVSPropertyOp0
 70
     1
102
RTVSPropertyOp1
 70
     1
102
RTVSPropertyOp2
 70
     1
102
RTVSPropertyOp3
 70
     1
102
RTVSPropertyOp4
 70
     1
102
RTVSPropertyOp5
 70
     1
102
RTVSPropertyOp6
 70
     1
102
RTVSPropertyOp7
 70
     1
102
RTVSPropertyOp8
 70
     1
102
RTVSPropertyOp9
 70
     1
102
RTVSPropertyOp10
 70
     1
102
RTVSPropertyOp11
 70
     1
102
RTVSPropertyOp12
 70
     1
102
RTVSPropertyOp13
 70
     1
102
RTVSPropertyOp14
 70
     1
102
RTVSPropertyOp15
 70
     1
102
RTVSPropertyOp16
 70
     1
102
RTVSPropertyOp17
 70
     1
102
RTVSPropertyOp18
 70
     1
102
RTVSPropertyOp19
 70
     1
102
RTVSPropertyOp20
 70
     1
102
RTVSPropertyOp21
 70
     1
102
RTVSPropertyOp22
 70
     1
102
RTVSPropertyOp23
 70
     1
102
RTVSPropertyOp24
 70
     1
102
RTVSPropertyOp25
 70
     1
102
RTVSPropertyOp26
 70
     1
102
RTVSPropertyOp27
 70
     1
102
RTVSPropertyOp28
 70
     1
102
RTVSPropertyOp29
 70
     1
102
RTVSPropertyOp30
 70
     1
102
RTVSPropertyOp31
 70
     1
102
RTVSPropertyOp32
 70
     1
102
RTVSPropertyOp33
 70
     1
102
RTVSPropertyOp34
 70
     1
102
RTVSPropertyOp35
 70
     1
102
RTVSPropertyOp36
 70
     1
102
RTVSPropertyOp37
 70
     1
102
RTVSPropertyOp38
 70
     1
102
RTVSPropertyOp39
 70
     1
102
RTVSPropertyOp40
 70
     1
102
RTVSPropertyOp41
 70
     1
102
RTVSPropertyOp42
 70
     1
102
RTVSPropertyOp43
 70
     1
102
RTVSPropertyOp44
 70
     1
102
RTVSPropertyOp45
 70
     1
102
RTVSPropertyOp46
 70
     1
102
RTVSPropertyOp47
 70
     1
102
RTVSPropertyOp48
 70
     1
102
RTVSPropertyOp49
 70
     1
102
RTVSPropertyOp50
 70
     1
102
RTVSPropertyOp51
 70
     0
102
RTVSPropertyOp52
 70
     0
102
RTVSPropertyOp53
 70
     1
102
RTVSPropertyOp54
 70
     1
102
RTVSPropertyOp55
 70
     1
102
RTVSPropertyOp56
 70
     1
102
RTVSPropertyOp57
 70
     1
102
RTVSPost2010Prop28
280
     0
102
RTVSPost2010PropOp28
 70
     1
102
RTVSPost2010Prop29
280
     1
102
RTVSPost2010PropOp29
 70
     1
102
RTVSPost2010Prop30
280
     1
102
RTVSPost2010PropOp30
 70
     1
102
RTVSPost2010Prop31
280
     0
102
RTVSPost2010PropOp31
 70
     1
102
RTVSPost2010Prop32
280
     0
102
RTVSPost2010PropOp32
 70
     1
102
RTVSPost2010Prop33
280
     0
102
RTVSPost2010PropOp33
 70
     1
102
RTVSPost2010Prop34
280
     0
102
RTVSPost2010PropOp34
 70
     1
102
RTVSPost2010Prop35
280
     0
102
RTVSPost2010PropOp35
 70
     1
102
RTVSPost2010Prop36
280
     0
102
RTVSPost2010PropOp36
 70
     1
102
RTVSPost2010Prop37
 90
       50
102
RTVSPost2010PropOp37
 70
     1
102
RTVSPost2010Prop38
140
0.0
102
RTVSPost2010PropOp38
 70
     1
102
RTVSPost2010Prop39
140
1.0
102
RTVSPost2010PropOp39
 70
     1
102
RTVSPost2010Prop40
 90
        0
102
RTVSPost2010PropOp40
 70
     1
102
RTVSPost2010Prop41ColorIndex
 90
       18
102
RTVSPost2010Prop41ColorRGB
 90
        0
102
RTVSPost2010PropOp41
 70
     1
102
RTVSPost2010Prop42
 90
       50
102
RTVSPost2010PropOp42
 70
     1
102
RTVSPost2010Prop43
 90
        3
102
RTVSPost2010PropOp43
 70
     1
102
RTVSPost2010Prop44ColorIndex
 90
        5
102
RTVSPost2010Prop44ColorRGB
 90
      255
102
RTVSPost2010PropOp44
 70
     1
102
RTVSPost2010Prop45
280
     0
102
RTVSPost2010PropOp45
 70
     1
102
RTVSPost2010Prop46
 90
       50
102
RTVSPost2010PropOp46
 70
     1
102
RTVSPost2010Prop47
 90
       50
102
RTVSPost2010PropOp47
 70
     1
102
RTVSPost2010Prop48
 90
       50
102
RTVSPost2010PropOp48
 70
     1
102
RTVSPost2010Prop49
280
     0
102
RTVSPost2010PropOp49
 70
     1
102
RTVSPost2010Prop50
 90
       50
102
RTVSPost2010PropOp50
 70
     1
102
RTVSPost2010Prop51ColorIndex
 90
      256
102
RTVSPost2010Prop51ColorRGB
 90
-16777216
102
RTVSPost2010PropOp51
 70
     0
102
RTVSPost2010Prop52
140
1.0
102
RTVSPost2010PropOp52
 70
     0
102
RTVSPost2010Prop53
 90
        2
102
RTVSPost2010PropOp53
 70
     1
102
RTVSPost2010Prop54
  1
strokes_ogs.tif
102
RTVSPost2010PropOp54
 70
     1
102
RTVSPost2010Prop55
280
     0
102
RTVSPost2010PropOp55
 70
     1
102
RTVSPost2010Prop56
140
1.0
102
RTVSPost2010PropOp56
 70
     1
102
RTVSPost2010Prop57
140
1.0
102
RTVSPost2010PropOp57
 70
     1
  0
XRECORD
  5
606
102
{ACAD_REACTORS
330
605
102
}
330
605
100
AcDbXrecord
280
     1
102
RTVSPropertyOp0
 70
     1
102
RTVSPropertyOp1
 70
     1
102
RTVSPropertyOp2
 70
     1
102
RTVSPropertyOp3
 70
     1
102
RTVSPropertyOp4
 70
     1
102
RTVSPropertyOp5
 70
     1
102
RTVSPropertyOp6
 70
     1
102
RTVSPropertyOp7
 70
     1
102
RTVSPropertyOp8
 70
     1
102
RTVSPropertyOp9
 70
     1
102
RTVSPropertyOp10
 70
     1
102
RTVSPropertyOp11
 70
     1
102
RTVSPropertyOp12
 70
     1
102
RTVSPropertyOp13
 70
     1
102
RTVSPropertyOp14
 70
     1
102
RTVSPropertyOp15
 70
     1
102
RTVSPropertyOp16
 70
     1
102
RTVSPropertyOp17
 70
     1
102
RTVSPropertyOp18
 70
     1
102
RTVSPropertyOp19
 70
     1
102
RTVSPropertyOp20
 70
     1
102
RTVSPropertyOp21
 70
     1
102
RTVSPropertyOp22
 70
     1
102
RTVSPropertyOp23
 70
     1
102
RTVSPropertyOp24
 70
     1
102
RTVSPropertyOp25
 70
     1
102
RTVSPropertyOp26
 70
     1
102
RTVSPropertyOp27
 70
     1
102
RTVSPropertyOp28
 70
     1
102
RTVSPropertyOp29
 70
     1
102
RTVSPropertyOp30
 70
     1
102
RTVSPropertyOp31
 70
     1
102
RTVSPropertyOp32
 70
     1
102
RTVSPropertyOp33
 70
     1
102
RTVSPropertyOp34
 70
     1
102
RTVSPropertyOp35
 70
     1
102
RTVSPropertyOp36
 70
     1
102
RTVSPropertyOp37
 70
     1
102
RTVSPropertyOp38
 70
     1
102
RTVSPropertyOp39
 70
     1
102
RTVSPropertyOp40
 70
     1
102
RTVSPropertyOp41
 70
     1
102
RTVSPropertyOp42
 70
     1
102
RTVSPropertyOp43
 70
     1
102
RTVSPropertyOp44
 70
     1
102
RTVSPropertyOp45
 70
     1
102
RTVSPropertyOp46
 70
     1
102
RTVSPropertyOp47
 70
     1
102
RTVSPropertyOp48
 70
     1
102
RTVSPropertyOp49
 70
     1
102
RTVSPropertyOp50
 70
     1
102
RTVSPropertyOp51
 70
     0
102
RTVSPropertyOp52
 70
     0
102
RTVSPropertyOp53
 70
     1
102
RTVSPropertyOp54
 70
     1
102
RTVSPropertyOp55
 70
     1
102
RTVSPropertyOp56
 70
     1
102
RTVSPropertyOp57
 70
     1
102
RTVSPost2010Prop28
280
     0
102
RTVSPost2010PropOp28
 70
     1
102
RTVSPost2010Prop29
280
     1
102
RTVSPost2010PropOp29
 70
     1
102
RTVSPost2010Prop30
280
     1
102
RTVSPost2010PropOp30
 70
     1
102
RTVSPost2010Prop31
280
     0
102
RTVSPost2010PropOp31
 70
     1
102
RTVSPost2010Prop32
280
     0
102
RTVSPost2010PropOp32
 70
     1
102
RTVSPost2010Prop33
280
     0
102
RTVSPost2010PropOp33
 70
     1
102
RTVSPost2010Prop34
280
     0
102
RTVSPost2010PropOp34
 70
     1
102
RTVSPost2010Prop35
280
     0
102
RTVSPost2010PropOp35
 70
     1
102
RTVSPost2010Prop36
280
     0
102
RTVSPost2010PropOp36
 70
     1
102
RTVSPost2010Prop37
 90
       50
102
RTVSPost2010PropOp37
 70
     1
102
RTVSPost2010Prop38
140
0.0
102
RTVSPost2010PropOp38
 70
     1
102
RTVSPost2010Prop39
140
1.0
102
RTVSPost2010PropOp39
 70
     1
102
RTVSPost2010Prop40
 90
        0
102
RTVSPost2010PropOp40
 70
     1
102
RTVSPost2010Prop41ColorIndex
 90
       18
102
RTVSPost2010Prop41ColorRGB
 90
        0
102
RTVSPost2010PropOp41
 70
     1
102
RTVSPost2010Prop42
 90
       50
102
RTVSPost2010PropOp42
 70
     1
102
RTVSPost2010Prop43
 90
        3
102
RTVSPost2010PropOp43
 70
     1
102
RTVSPost2010Prop44ColorIndex
 90
        5
102
RTVSPost2010Prop44ColorRGB
 90
      255
102
RTVSPost2010PropOp44
 70
     1
102
RTVSPost2010Prop45
280
     0
102
RTVSPost2010PropOp45
 70
     1
102
RTVSPost2010Prop46
 90
       50
102
RTVSPost2010PropOp46
 70
     1
102
RTVSPost2010Prop47
 90
       50
102
RTVSPost2010PropOp47
 70
     1
102
RTVSPost2010Prop48
 90
       50
102
RTVSPost2010PropOp48
 70
     1
102
RTVSPost2010Prop49
280
     0
102
RTVSPost2010PropOp49
 70
     1
102
RTVSPost2010Prop50
 90
       50
102
RTVSPost2010PropOp50
 70
     1
102
RTVSPost2010Prop51ColorIndex
 90
      256
102
RTVSPost2010Prop51ColorRGB
 90
-16777216
102
RTVSPost2010PropOp51
 70
     0
102
RTVSPost2010Prop52
140
1.0
102
RTVSPost2010PropOp52
 70
     0
102
RTVSPost2010Prop53
 90
        2
102
RTVSPost2010PropOp53
 70
     1
102
RTVSPost2010Prop54
  1
strokes_ogs.tif
102
RTVSPost2010PropOp54
 70
     1
102
RTVSPost2010Prop55
280
     0
102
RTVSPost2010PropOp55
 70
     1
102
RTVSPost2010Prop56
140
1.0
102
RTVSPost2010PropOp56
 70
     1
102
RTVSPost2010Prop57
140
1.0
102
RTVSPost2010PropOp57
 70
     1
  0
ENDSEC
  0
SECTION
  2
THUMBNAILIMAGE
 90
    16364
310
28000000B4000000550000000100080000000000C43B000000000000000000000001000000010000FFFFFF000000FF0000FFFF0000FF0000FFFF0000FF000000FF00FF000000000080808000C0C0C0000000FF007F7FFF000000A5005252A50000007F003F3F7F0000004C0026264C000000260013132600003FFF007F9FFF
310
000029A5005267A500001F7F003F4F7F0000134C00262F4C000009260013172600007FFF007FBFFF000052A500527CA500003F7F003F5F7F0000264C0026394C0000132600131C260000BFFF007FDFFF00007CA5005291A500005F7F003F6F7F0000394C0026424C00001C26001321260000FFFF007FFFFF0000A5A50052A5
310
A500007F7F003F7F7F00004C4C00264C4C00002626001326260000FFBF007FFFDF0000A57C0052A59100007F5F003F7F6F00004C3900264C420000261C001326210000FF7F007FFFBF0000A5520052A57C00007F3F003F7F5F00004C2600264C39000026130013261C0000FF3F007FFF9F0000A5290052A56700007F1F003F
310
7F4F00004C1300264C2F00002609001326170000FF00007FFF7F0000A5000052A55200007F00003F7F3F00004C0000264C260000260000132613003FFF00009FFF7F0029A5000067A552001F7F00004F7F3F00134C00002F4C260009260000172613007FFF0000BFFF7F0052A500007CA552003F7F00005F7F3F00264C0000
310
394C2600132600001C261300BFFF0000DFFF7F007CA5000091A552005F7F00006F7F3F00394C0000424C26001C26000021261300FFFF0000FFFF7F00A5A50000A5A552007F7F00007F7F3F004C4C00004C4C26002626000026261300FFBF0000FFDF7F00A57C0000A59152007F5F00007F6F3F004C3900004C422600261C00
310
0026211300FF7F0000FFBF7F00A5520000A57C52007F3F00007F5F3F004C2600004C39260026130000261C1300FF3F0000FF9F7F00A5290000A56752007F1F00007F4F3F004C1300004C2F26002609000026171300FF000000FF7F7F00A5000000A55252007F0000007F3F3F004C0000004C2626002600000026131300FF00
310
3F00FF7F9F00A5002900A55267007F001F007F3F4F004C0013004C262F002600090026131700FF007F00FF7FBF00A5005200A5527C007F003F007F3F5F004C0026004C2639002600130026131C00FF00BF00FF7FDF00A5007C00A55291007F005F007F3F6F004C0039004C26420026001C0026132100FF00FF00FF7FFF00A5
310
00A500A552A5007F007F007F3F7F004C004C004C264C002600260026132600BF00FF00DF7FFF007C00A5009152A5005F007F006F3F7F0039004C0042264C001C002600211326007F00FF00BF7FFF005200A5007C52A5003F007F005F3F7F0026004C0039264C00130026001C1326003F00FF009F7FFF002900A5006752A500
310
1F007F004F3F7F0013004C002F264C000900260017132600000000002D2D2D005B5B5B0089898900B7B7B700B3B3B30000000000000000000000000000000000000000000000000000000000000000000000000000000000000000000000000000000000000000000000000000000000000000000000000000000000000000
310
00000000000000000000000000000000000000000000000000000000000000000000000000000000000000000000000000000000000000000000000000000000000000000000000000000000000000000000000000000000000000000000000000000000000000000000000000000000000000000000000000000000000000
310
00000000000000000000000000000000000000000000000000000000000000000000000000000000000000000000000000000000000000000000000000000000000000000000000000000000000000000000000000000000000000000000000000000000000000000000000000000000000000000000000000000000000000
310
00000000000000000000000000000000000000000000000000000000000000000000000000000000000000000000000000000000000000000000000000000000000000000000000000000000000000000000000000000000000000000000000000000000000000000000000000000000000000000000000000000000000000
310
00000000000000000000000000000000000000000000000000000000000000000000000000000000000000000000000000000000000000000000000000000000000000000000000000000000000000000000000000000000000000000000000000000000000000000000000000000000000000000000000000000000000000
310
00000000000000000000000000000000000000000000000000000000000000000000000000000000000000000000000000000000000000000000000000000000000000000000000000000000000000000000000000000000000000000000000000000000000000000000000000000000000000000000000000000000000000
310
00000000000000000000000000000000000000000000000000000000000000000000000000000000000000000000000000000000000000000000000000000000000000000000000000000000000000000000000000000000000000000000000000000000000000000000000000000000000000000000000000000000000000
310
00000000000000000000000000000000000000000000000000000000000000000000000000000000000000000000000000000000000000000000000000000000000000000000000000000000000000000000000000000000000000000000000000000000000000000000000000000000000000000000000000000000000000
310
00000000000000000000000000000000000000000000000000000000000000000000000000000000000000000000000000000000000000000000000000000000000000000000000000000000000000000000000000000000000000000000000000000000000000000000000000000000000000000000000000000000000000
310
00000000000000000000000000000000000000000000000000000000000000000000000000000000000000000000000000000000000000000000000000000000000000000000000000000000000000000000000000000000000000000000000000000000000000000000000000000000000000000000000000000000000000
310
00000000000000000000000000000000000000000000000000000000000000000000000000000000000000000000000000000000000000000000000000000000000000000000000000000000000000000000000000000000000000000000000000000202020202020200000000000000000000000000000000000000000000
310
00000000000000000000000000000000000000000000000000000000000000000000000000000000000000000000000000000000000000000000000000000000000000000000000000000000000000000000000000000000000000000000000000000000000000000000000000000000000000000000000000000000000000
310
00000000000000000000000000000000000000000000000002020202020200000000000000000000000000000000000000000000000000000000000000000000000000000000000000000000000000000000000000000000000000000000000000000000000000000000000000000000000000000000000000000000000000
310
00000000000000000000000000000000000000000000000000000000000000000000000000000000000001000000000000000000000000000000000000000000010000000000000000000000000000000000000000000000000000010000000000000000000000000000000000000000000000000000010000000000000000
310
00000000000000000000000000000000000000000000000000000000000000000000000000000000000000000000000000000000000000000000000000000000000000000000000000000000000000000000000000000000000000030303030103030303000000000000000000000000000303030301030303030000000000
310
00000000000000000000000000000003030103030303030303000000000000000000000000030303030303030103030000000000000000000000000000000000000000000000000000000000000000000000000000000000000000000000000000000000000000000000000000000000000000000000000000000000000000
310
00000000000000000000000000000000000300000001000003030000010003030100000000000003030303010300000300000000000000000000000000000000000000000300010000000000000300000001030101000001030003000000000000010003000000000000000000000000000000000000000000000000000000
310
00000000000000000000000000000000000000000000000000000000000000000000000000000000000000000000000000000000000000000000000000000000000000000000030303030103030303030301030304010303030303030303030301030303030000000000000000000000000000000000000000030301030303
310
03030303000303010301010303010303030303030303030303030000000000000000000000000000000000000000000000000000000000000000000000000000000000000000000000000000000000000000000000000000000000000000000000000000000000000000000000000000000000000000000000000303030000
310
00000000000303010303010103030303030300000000000000030303000000000000000000000000000000000000000303000000000000000303030301030101030301030303030103030300030303000000000000000000000000000000000000000000000000000000000000000000000000000000000000000000000000
310
00000000000000000000000000000000000000000000000000000000000000000000000000000000000000000000000003030000000000000000000001000000010000000000010000000000000000030300000000000000000000000000000000000000030000000000000000000000000000010103030303030303030300
310
03000001010000000000000000000000000000000000000000000000000000000000000000000000000000000000000000000000000000000000000000000000000000000000000000000000000000000000000000000000000000000000000303030303030303000000000000000000000100000001000000000001000000
310
00000000000303030303030303000000000000000000000000000300000000000000000000000000000101000000000303030303030300000300000000000000000000000000000000000000000000000000000000000000000000000000000000000000000000000000000000000000000000000000000000000000000000
310
00000000000000000000000000000000000000000003010101010303010101010101010101010101010101010101010101010101010101010101010301010101010100000000000000000000000000030000000000000000000000000000010100000000010303010303030100030300000000000000000000000000000000
310
00000000000000000000000000000000000000000000000000000000000000000000000000000000000000000000000000000000000000000000000000000000000000000000000000000303030303030303000000000000000000000100000001000000000001000000000000000003030303030303030000000000000000
310
00000000000300000000000000000000000000000101000000000303030303030303000303000000000000000000000000000000000000000000000000000000000000000000000000000000000000000000000000000000000000000000000000000000000000000000000000000000000000000000000000000000000000
310
03030303030303030000000000000000000001000000010000000000010000000000000000030303030303030300000000000000000000000000030000000000000000000000000000010100000000030303030303030000030300000000000000000000000000000000000000000000000000000000000000000000000000
310
00000000000000000000000000000000000000000000000000000000000000000000000000000000000000000000000000000000000000000000000303000000000000000000000100000001000000000001000000000000000003030000000000000000000000000000000000000003000000000000000000000000000001
310
01030303030303030303030300000303000000000000000000000000000000000000000000000000000000000000000000000000000000000000000000000000000000000000000000000000000000000000000000000000000000000000000000000000000000000000000000000000030300000000000000000000010000
310
00010000000000010000000000000000030300000000000000000000000000000000000000030000000000000000000000000000010100000000000003010303000000030300000000000000000000000000000000000000000000000000000000000000000000000000000000000000000000000000000000000000000000
310
00000000000000000000000000000000000000000000000000000000000000000000000000000003000000000000000000000100000001000000000001000000000000000003000000000000000000000000000000000000000003000000000000000000000000000001010000000000000000000000000001010000000000
310
00000000000000000000000000000000000000000000000000000000000000000000000000000000000000000000000000000000000000000000000000000000000000000000000000000000000000000000000000000000000000000301000000000000010000010000000100000000000101000000000000010300000000
310
00000000000000000000000000000000030000010000000000000000000000010100000000000000000000010000030300000000000000000000000000000000000000000000000000000000000000000000000000000000000000000000000000000000000000000000000000000000000000000000000000000000000000
310
00000000000000000000000000000000000003010303030303030103030103030301030303030301010303030303030103000000000000000000000000000000000000000003030301030303030303030303030301010303030303030303030301030303000000000000000000000000000000000000000000000000000000
310
00000000000000000000000000000000000000000000000000000000000000000000000000000000000000000000000000000000000000000000000000000000000000000000000303030303030303030303010303030303030303030301030303030303010300000000000000000000000000000000000000000303030103
310
03030303010303030103030303030103030303030303030303030000000000000000000000000000000000000000000000000000000000000000000000000000000000000000000000000000000000000000000000000000000000000000000000000000000000000000000000000000000000000000000000000000030303
310
00000003040403030103030301030303030303010303000000030103000000000000000000000000000000000000000000000301030300000301030303010303030303010303000000000301030000000000000000000000000000000000000000000000000000000000000000000000000000000000000000000000000000
310
00000000000000000000000000000000000000000000000000000000000000000000000000000000000000000000000000000000000000000003030303010303010101000000000000000000000000000000000000000000000000000000000000000000000001010101010000000000000001030301030301030000000001
310
01010101000000000000000000000000000000000000000000000000000000000000000000000000000000000000000000000000000000000000000000000000000000000000000000000000000000000000000000000000000000000000000000000000000000000000000000000000030301000300010000000000000000
310
00000000000000000000000000000000000000000000000000000000000301030300000000000000000300010003000000000000000301030000000000000000000000000000000000000000000000000000000000000000000000000000000000000000000000000000000000000000000000000000000000000000000000
310
00000000000000000000000000000000000000000000000000000000000000000000000000000303010003000100000000000000000000000000000000000000000000000000000000000000000000000000000100000000000000000000030001000300000000000000000100000000000000000000000000000000000000
310
00000000000000000000000000000000000000000000000000000000000000000000000000000000000000000000000000000000000000000000000000000000000000000000000000000000000000000000000000000000000000030301000300000000000000000000000000000000000000000000000000000000000000
310
00000000000000000000000000000000000000000300010003000000000000000000000000000000000000000000000000000000000000000000000000000000000000000000000000000000000000000000000000000000000000000000000000000000000000000000000000000000000000000000000000000000000000
310
00000000000000000000000000000000000303010003000000000000000000000000000000000000000000000000000000000000000000000000000000000000000000000000000000030001000300000000000000000000000000000000000000000000000000000000000000000000000000000000000000000000000000
310
00000000000000000000000000000000000000000000000000000000000000000000000000000000000000000000000000000000000000000000000000000000000000000000030301000300000000000000000000000000000000000000000000000000000000000000000000000000000000000000000000000000000003
310
00010003000000000000000000000000000000000000000000000000000000000000000000000000000000000000000000000000000000000000000000000000000000000000000000000000000000000000000000000000000000000000000000000000000000000000000000000000000000000000000000000003030100
310
03000000000000000000000000000000000000000000000000000000000000000000000000000000000000000000000000000000030001000300000000000000000000000000000000000000000000000000000000000000000000000000000000000000000000000000000000000000000000000000000000000000000000
310
00000000000000000000000000000000000000000000000000000000000000000000000000000000000000000000000000030301030300000000000000000000000000000000000000000000000000000000000000000000000000000000000000000000000000000003030103030000000000000000000000000000000000
310
00000000000000000000000000000000000000000000000000000000000000000000000000000000000000000000000000000000000000000000000000000000000000000000000000000000000000000000000000000000000000000000000000000000000000000100000000000000000000000000000000000000000000
310
00000000000000000000000000000000000000000000000000000000000000000001000000000000000000000000000000000000000000000000000000000000000000000000000000000000000000000000000000000000000000000000000000000000000000000000000000000000000000000000000000000000000000
310
00000000000000000000000000000000000000000000000000000000000000000000000000000000000000000000000000000000000000000000000000000000000000000000000000000000000000000000000000000000000000000000000000000000000000000000000000000000000000000000000000000000000000
310
00000000000000000000000000000000000000000000000000000000000000000000000000000000000000000000000000000000000000000000000000000000000000000000000000000000000000000000000000000000000000000000000000000000000000000000000000000000000000000000000000000000000000
310
00000000000000000000000000000000000000000000000000000000000000000000000000000000000000000000000000000000000000000000000000000000000000000000000000000000000000000000000000000000000000000000000000000000000000000000000000000000000000000000000000000000000000
310
00000000000000000000000000000000000000000000000000000000000000000000000000000000000000000000000000000000000000000000000000000000000000000000000000000000000000000000000000000000000000000000000000000000000000000000000000000000000000000000000000000000000000
310
00000000000000000000000000000000000000000000000000000000000000000000000000000000000000000000000000000000000000000000000000000000000000000000000000000000000000000000000000000000000000000000000000000000000000000000000000000000000000000000000000000000000000
310
00000000000000000000000000000000000000000000000000000000000000000000000000000000000000000000000000000000000000000000000000000000000000000000000000000000000000000000000000000000000000000000000000000000000000000000000000000000000000000000000000000000000000
310
00000000000000000000000000000000000000000000000000000000000000000000000000000000000000000000000000000000000000000000000000000000000000000000000000000000000000000000000000000000000000000000000000000000000000000000000000000000000000000000000000000000000000
310
00000000000000000000000000000000000000000000000000000000000000000000000000000000000000000000000000000000000000000000000000000000000000000000000000000000000000000000000000000000000000000000000000000000000000000000000000000000000000000000000000000000000000
310
00000000000000000000000000000000000000000000000000000000000000000000000000000000000000000000000000000000000000000000000000000000000000000000000000000000000000000000000000000000000000000000000000000000000000000000000000000000000000000000000000000000000000
310
00000000000000000000000000000000000000000000000000000000000000000000000000000000000000000000000000000000000000000000000000000000000000000000000000000000000000000000000000000000000000000000000000000000000000000000000000000000000000000000000000000000000000
310
00000000000000000000000000000000000000000000000000000000000000000000000000000000000000000000000000000000000000000000000000000000000000000000000000000000000000000000000000000000000000000000000000000000000000000000000000000000000000000000000000000000000000
310
00000000000000000000000000000000000000000000000000000000000000000000000000000000000000000000000000000000000000000000000000000000000000000000000000000000000000000000000000000000000000000000000000000000000000000000000000000000000000000000000000000000000000
310
00000000000000000000000000000000000000000000000000000000000000000000000000000000000000000000000000000000000000000000000000000000000000000000000000000000000000000000000000000000000000000000000000000000000000000000000000000000000000000000000000000000000000
310
00000000000000000000000000000000000000000000000000000000000000000000000000000000000000000000000000000000000000000000000000000000000000000000000000000000000000000000000000000000000000000000000000000000000000000000000000000000000000000000000000000000000000
310
00000000000000000000000000000000000000000000000000000000000000000000000000000000000000000000000000000000000000000000000000000000000000000000000000000000000000000000000000000000000000000000000000000000000000000000000000000000000000000000000000000000000000
310
00000000000000000000000000000000000000000000000000000000000000000000000000000000000000000000000000000000000000000000000000000000000000000000000000000000000000000000000000000000000000000000000000000000000000000000000000000000000000000000000000000000000000
310
00000000000000000000000000000000000000000000000000000000000000000000000000000000000000000000000000000000000000000000000000000000000000000000000000000000000000000000000000000000000000000000000000000000000000000000000000000000000000000000000000000000000000
310
00000000000000000000000000000000000000000000000000000000000000000000000000000000000000000000000000000000000000000000000000000000000000000000000000000000000000000000000000000000000000000000000000000000000000000000000000000000000000000000000000000000000000
310
00000000000000000000000000000000000000000000000000000000000000000000000000000000000000000000000000000000000000000000000000000000000000000000000000000000000000000000000000000000000000000000000000000000000000000000000000000000000000000000000000000000000000
310
00000000000000000000000000000000000000000000000000000000000000000000000000000000000000000000000000000000000000000000000000000000000000000000000000000000000000000000000000000000000000000000000000000000000000000000000000000000000000000000000000000000000000
310
00000000000000000000000000000000000000000000000000000000000000000000000000000000000000000000000000000000000000000000000000000000000000000000000000000000000000000000000000000000000000000000000000000000000000000000000000000000000000000000000000000000000000
310
00000000000000000000000000000000000000000000000000000000000000000000000000000000000000000000000000000000000000000000000000000000000000010000000000000000000000000000000000000000000000000000000000000000000000000000000000000000000000000000000000000000000000
310
00000000000000000000000000000000000000000000000000000000000000000000000000000000000000000000000000000000000000000000000000000000000000000000000000000000000000000000000000000000000000000000000000000000000000000003030303030303030000000003030303030303000000
310
00030303030303030300000000000000000000000000000000000000000000000000000000000000000000000000000000000000000000000000000000000000000000000000000000000000000000000000000000000000000000000000000000000000000000000000000000000000000000000000000000000000000000
310
00000000000000000000000000000000000000000000000000000000000000030000030100000003030303010101010101010303030300000001030000030000000000000000000000000000000000000000000000000000000000000000000000000000000000000000000000000000000000000000000000000000000000
310
00000000000000000000000000000000000000000000000000000000000000000000000000000000000000000000000000000000000000000000000000000000000000000000000000000000000000000000000003000101010103010301010103030303030303010101030103010103010003000000000000000000000000
310
00000000000000000000000000000000000000000000000000000000000000000000000000000000000000000000000000000000000000000000000000000000000000000000000000000000000000000000000000000000000000000000000000000000000000000000000000000000000000000000000000000000000000
310
00000000000000000000030000030103000303030303000103030301000303030303000301030000030000000000000000000000000000000000000000000000000000000000000000000000000000000000000000000000000000000000000000000000000000000000000000000000000000000000000000000000000000
310
00000000000000000000000000000000000000000000000000000000000000000000000000000000000000000000000000000000000000000000000000000003000000030003010303000000000303030000000003030103030300000003000000000000000000000000000000000000000000000000000000000000000000
310
00000000000000000000000000000000000000000000000000000000000000000000000000000000000000000000000000000000000000000000000000000000000000000000000000000000000000000000000000000000000000000000000000000000000000000000000000000000000000000300000300030103000000
310
00000000030000000000000003010103030000030000000000000000000000000000000000000000000000000000000000000000000000000000000000000000000000000000000000000000000000000000000000000000000000000000000000000000000000000000000000000000000000000000000000000000000000
310
00000000000000000000000000000000000000000000000000000000000000000000000000000000000003000003030103000000000000000001000000000000000003000103000003000000000000000000000000000000000000000000000000000000000000000000000000000000000000000000000000000000000000
310
00000000000000000000000000000000000000000000000000000000000000000000000000000000000000000000000000000000000000000000000000000000000000000000000000000000000000000000000000000000000000000000000300030301030000000000000000000100000000000000000003010303000300
310
00000000000000000000000000000000000000000000000000000000000000000000000000000000000000000000000000000000000000000000000000000000000000000000000000000000000000000000000000000000000000000000000000000000000000000000000000000000000000000000000000000000000000
310
00000000000000000000000000000000000000000003000301030000000000000000000303030000000000000000000301030003000000000000000000000000000000000000000000000000000000000000000000000000000000000000000000000000000000000000000000000000000000000000000000000000000000
310
00000000000000000000000000000000000000000000000000000000000000000000000000000000000000000000000000000000000000000000000000000000000000000000000000000303010300000000000000000001030103010000000000000000000301030300000000000000000000000000000000000000000000
310
00000000000000000000000000000000000000000000000000000000000000000000000000000000000000000000000000000000000000000000000000000000000000000000000000000000000000000000000000000000000000000000000000000000000000000000000000000000000000000000000000000000000000
310
00030103000000000303030103000303030003030303030300000003010300000000000000000000000000000000000000000000000000000000000000000000000000000000000000000000000000000000000000000000000000000000000000000000000000000000000000000000000000000000000000000000000000
310
00000000000000000000000000000000000000000000000000000000000000000000000000000000000000000000000000000000000303010300030303000003010300000100000000000100000303000003030300000000000000000000000000000000000000000000000000000000000000000000000000000000000000
310
00000000000000000000000000000000000000000000000000000000000000000000000000000000000000000000000000000000000000000000000000000000000000000000000000000000000000000000000000000000000000000000000000000000000000000000030103030300000303010101010103010000000303
310
01030000000303030103000000000000000000000000000000000000000000000000000000000000000000000000000000000000000000000000000000000000000000000000000000000000000000000000000000000000000000000000000000000000000000000000000000000000000000000000000000000000000000
310
00000000000000000000000000000000000000000000000000000000000000000301030000000001040100010001040300000303030103030000000003010300000000000000000000000000000000000000000000000000000000000000000000000000000000000000000000000000000000000000000000000000000000
310
00000000000000000000000000000000000000000000000000000000000000000000000000000000000000000000000000000000000000000000000000000000000000000000000000000000000000000000000000030303000000030101030303030101030000030300010303030000000303030000000000000000000000
310
00000000000000000000000000000000000000000000000000000000000000000000000000000000000000000000000000000000000000000000000000000000000000000000000000000000000000000000000000000000000000000000000000000000000000000000000000000000000000000000000000000000000000
310
00000000000000000000010303030101010101030303030303010103030301010101030301010103030301000000000000000000000000000000000000000000000000000000000000000000000000000000000000000000000000000000000000000000000000000000000000000000000000000000000000000000000000
310
00000000000000000000000000000000000000000000000000000000000000000000000000000000000000000000000000000000000000000000000000000000030303000001010103030101030301010301030000010003030000000303030000000000000000000000000000000000000000000000000000000000000000
310
00000000000000000000000000000000000000000000000000000000000000000000000000000000000000000000000000000000000000000000000000000000000000000000000000000000000000000000000000000000000000000000000000000000000000000000000000000000000000000003010300000001000303
310
00010303000103000303000103030300000003010300000000000000000000000000000000000000000000000000000000000000000000000000000000000000000000000000000000000000000000000000000000000000000000000000000000000000000000000000000000000000000000000000000000000000000000
310
00000000000000000000000000000000000000000000000000000000000000000000000000000000000000030103000000030100030303030301010000030303010303000000000301030000000000000000000000000000000000000000000000000000000000000000000000000000000000000000000000000000000000
310
00000000000000000000000000000000000000000000000000000000000000000000000000000000000000000000000000000000000000000000000000000000000000000000000000000000000000000000000000000000000000000000000003030103000003040400030303010403000000030301030000000000030303
310
00000000000000000000000000000000000000000000000000000000000000000000000000000000000000000000000000000000000000000000000000000000000000000000000000000000000000000000000000000000000000000000000000000000000000000000000000000000000000000000000000000000000000
310
00000000000000000000000000000000000000000000030301030000000101010101010101010000000000010000000000030103030000000000000000000000000000000000000000000000000000000000000000000000000000000000000000000000000000000000000000000000000000000000000000000000000000
310
00000000000000000000000000000000000000000000000000000000000000000000000000000000000000000000000000000000000000000000000000000000000000000000000000000303030103030300000303010103030001000000000000000000030303010303030000000000000000000000000000000000000000
310
00000000000000000000000000000000000000000000000000000000000000000000000000000000000000000000000000000000000000000000000000000000000000000000000000000000000000000000000000000000000000000000000000000000000000000000000000000000000000000000000000000000000000
310
03000003010300030303030001000000030000000000030303030003010300000300000000000000000000000000000000000000000000000000000000000000000000000000000000000000000000000000000000000000000000000000000000000000000000000000000000000000000000000000000000000000000000
310
00000000000000000000000000000000000000000000000000000000000000000000000000000000000000000000000303030303030300000303010300000000030303030303030303030300000000030103030000030303030303030000000000000000000000000000000000000000000000000000000000000000000000
310
00000000000000000000000000000000000000000000000000000000000000000000000000000000000000000000000000000000000000000000000000000000000000000000000000000000000000000000000000000000000000000000000000000000030303030303030101030103010301010101010101030103010101
310
01010101030101030301010303030303030300000000000000000000000000000000000000000000000000000000000000000000000000000000000000000000000000000000000000000000000000000000000000000000000000000000000000000000000000000000000000000000000000000000000000000000000000
310
00000000000000000000000000000000000000000000000000000303030303030300000003030100030000000000000303030000000000000300010003000000030303030303030000000000000000000000000000000000000000000000000000000000000000000000000000000000000000000000000000000000000000
310
00000000000000000000000000000000000000000000000000000000000000000000000000000000000000000000000000000000000000000000000000000000000000000000000000000000000000000000000000030000000003030101030100000000030303000000000103010103030000000003000000000000000000
310
00000000000000000000000000000000000000000000000000000000000000000000000000000000000000000000000000000000000000000000000000000000000000000000000000000000000000000000000000000000000000000000000000000000000000000000000000000000000000000000000000000000000000
310
00000000000000000000000303030303010303030303030000010303030100000303030303030303030303030000000000000000000000000000000000000000000000000000000000000000000000000000000000000000000000000000000000000000000000000000000000000000000000000000000000000000000000
310
00000000000000000000000000000000000000000000000000000000000000000000000000000000000000000000000000000000000000000000000000000000000300000303000301030101030303030303030303010103010300010300000300000000000000000000000000000000000000000000000000000000000000
310
00000000000000000000000000000000000000000000000000000000000000000000000000000000000000000000000000000000000000000000000000000000000000000000000000000000000000000000000000000000000000000000000000000000000000000000000000000000000000000000030000030301000003
310
03030301010101010101030303030000010103010003000000000000000000000000000000000000000000000000000000000000000000000000000000000000000000000000000000000000000000000000000000000000000000000000000000000000000000000000000000000000000000000000000000000000000000
310
00000000000000000000000000000000000000000000000000000000000000000000000000000000000000000300000303000000030000030303030303030303030003000000010300000300000000000000000000000000000000000000000000000000000000000000000000000000000000000000000000000000000000
310
00000000000000000000000000000000000000000000000000000000000000000000000000000000000000000000000000000000000000000000000000000000000000000000000000000000000000000000000000000000000000000000000000030303030303030300000000000003030300000000000003030303030303
310
03000000000000000000000000000000000000000000000000000000000000000000000000000000000000000000000000000000000000000000000000000000000000000000000000000000000000000000000000000000000000000000000000000000000000000000000000000000000000000000000000000000000000
310
00000000000000000000000000000000000000000000000000000000000000000000000000000100000000000000000000000000000000000000000000000000000000000000000000000000000000000000000000000000000000000000000000000000000000000000000000000000000000000000000000000000000000
310
00000000000000000000000000000000000000000000000000000000000000000000000000000000000000000000000000000000000000000000000000000000000000000000000000000000000000000000000000000000000000000000000000000000000000000000000000000000000000000000000000000000000000
310
000000000000000000000000000000000000000000000000000000000000000000000000000000000000000000000000000000000000000000000000000000000000000000000000000000000000000000000000000000000000000000000000000000000000000000000000
  0
ENDSEC
  0
EOF
