  0
SECTION
  2
HEADER
  9
$ACADVER
  1
AC1015
  9
$ACADMAINTVER
 70
     6
  9
$DWGCODEPAGE
  3
ANSI_932
  9
$INSBASE
 10
1217.766963410697
 20
963.2870546194475
 30
0.0
  9
$EXTMIN
 10
100.7624053502027
 20
37.34429447957666
 30
0.0
  9
$EXTMAX
 10
1047.323435653453
 20
876.1245447862493
 30
0.0
  9
$LIMMIN
 10
0.0
 20
0.0
  9
$LIMMAX
 10
816.5000000000001
 20
565.0
  9
$ORTHOMODE
 70
     1
  9
$REGENMODE
 70
     1
  9
$FILLMODE
 70
     1
  9
$QTEXTMODE
 70
     0
  9
$MIRRTEXT
 70
     1
  9
$LTSCALE
 40
8.0
  9
$ATTMODE
 70
     1
  9
$TEXTSIZE
 40
7.5
  9
$TRACEWID
 40
0.05
  9
$TEXTSTYLE
  7
KANJI
  9
$CLAYER
  8
2
  9
$CELTYPE
  6
BYLAYER
  9
$CECOLOR
 62
   256
  9
$CELTSCALE
 40
1.0
  9
$DISPSILH
 70
     0
  9
$DIMSCALE
 40
3.0
  9
$DIMASZ
 40
2.0
  9
$DIMEXO
 40
0.5
  9
$DIMDLI
 40
0.0
  9
$DIMRND
 40
0.0
  9
$DIMDLE
 40
0.0
  9
$DIMEXE
 40
1.0
  9
$DIMTP
 40
0.0
  9
$DIMTM
 40
0.0
  9
$DIMTXT
 40
3.0
  9
$DIMCEN
 40
0.09
  9
$DIMTSZ
 40
0.0
  9
$DIMTOL
 70
     0
  9
$DIMLIM
 70
     0
  9
$DIMTIH
 70
     0
  9
$DIMTOH
 70
     0
  9
$DIMSE1
 70
     0
  9
$DIMSE2
 70
     0
  9
$DIMTAD
 70
     0
  9
$DIMZIN
 70
     8
  9
$DIMBLK
  1

  9
$DIMASO
 70
     0
  9
$DIMSHO
 70
     0
  9
$DIMPOST
  1

  9
$DIMAPOST
  1

  9
$DIMALT
 70
     0
  9
$DIMALTD
 70
     2
  9
$DIMALTF
 40
25.4
  9
$DIMLFAC
 40
1.0
  9
$DIMTOFL
 70
     1
  9
$DIMTVP
 40
1.0
  9
$DIMTIX
 70
     1
  9
$DIMSOXD
 70
     1
  9
$DIMSAH
 70
     0
  9
$DIMBLK1
  1

  9
$DIMBLK2
  1

  9
$DIMSTYLE
  2
STANDARD
  9
$DIMCLRD
 70
   256
  9
$DIMCLRE
 70
   256
  9
$DIMCLRT
 70
   256
  9
$DIMTFAC
 40
1.0
  9
$DIMGAP
 40
0.09
  9
$DIMJUST
 70
     0
  9
$DIMSD1
 70
     0
  9
$DIMSD2
 70
     0
  9
$DIMTOLJ
 70
     1
  9
$DIMTZIN
 70
     0
  9
$DIMALTZ
 70
     0
  9
$DIMALTTZ
 70
     0
  9
$DIMUPT
 70
     0
  9
$DIMDEC
 70
     1
  9
$DIMTDEC
 70
     4
  9
$DIMALTU
 70
     2
  9
$DIMALTTD
 70
     2
  9
$DIMTXSTY
  7
STANDARD
  9
$DIMAUNIT
 70
     0
  9
$DIMADEC
 70
     0
  9
$DIMALTRND
 40
0.0
  9
$DIMAZIN
 70
     0
  9
$DIMDSEP
 70
    46
  9
$DIMATFIT
 70
     3
  9
$DIMFRAC
 70
     0
  9
$DIMLDRBLK
  1

  9
$DIMLUNIT
 70
     2
  9
$DIMLWD
 70
    -2
  9
$DIMLWE
 70
    -2
  9
$DIMTMOVE
 70
     0
  9
$LUNITS
 70
     2
  9
$LUPREC
 70
     3
  9
$SKETCHINC
 40
0.1
  9
$FILLETRAD
 40
2.0
  9
$AUNITS
 70
     0
  9
$AUPREC
 70
     3
  9
$MENU
  1
C:\R13\WIN\SUPPORT\ACADFULL
  9
$ELEVATION
 40
0.0
  9
$PELEVATION
 40
0.0
  9
$THICKNESS
 40
0.0
  9
$LIMCHECK
 70
     0
  9
$CHAMFERA
 40
0.0
  9
$CHAMFERB
 40
0.0
  9
$CHAMFERC
 40
0.0
  9
$CHAMFERD
 40
0.0
  9
$SKPOLY
 70
     0
  9
$TDCREATE
 40
2449812.756805555
  9
$TDUCREATE
 40
2449812.381805555
  9
$TDUPDATE
 40
2458115.571816609
  9
$TDUUPDATE
 40
2458115.196816609
  9
$TDINDWG
 40
1.3810888773
  9
$TDUSRTIMER
 40
1.3810877662
  9
$USRTIMER
 70
     1
  9
$ANGBASE
 50
0.0
  9
$ANGDIR
 70
     0
  9
$PDMODE
 70
     0
  9
$PDSIZE
 40
0.0
  9
$PLINEWID
 40
0.0
  9
$SPLFRAME
 70
     0
  9
$SPLINETYPE
 70
     6
  9
$SPLINESEGS
 70
     8
  9
$HANDSEED
  5
57B
  9
$SURFTAB1
 70
     6
  9
$SURFTAB2
 70
     6
  9
$SURFTYPE
 70
     6
  9
$SURFU
 70
     6
  9
$SURFV
 70
     6
  9
$UCSBASE
  2

  9
$UCSNAME
  2

  9
$UCSORG
 10
0.0
 20
0.0
 30
0.0
  9
$UCSXDIR
 10
1.0
 20
0.0
 30
0.0
  9
$UCSYDIR
 10
0.0
 20
1.0
 30
0.0
  9
$UCSORTHOREF
  2

  9
$UCSORTHOVIEW
 70
     0
  9
$UCSORGTOP
 10
0.0
 20
0.0
 30
0.0
  9
$UCSORGBOTTOM
 10
0.0
 20
0.0
 30
0.0
  9
$UCSORGLEFT
 10
0.0
 20
0.0
 30
0.0
  9
$UCSORGRIGHT
 10
0.0
 20
0.0
 30
0.0
  9
$UCSORGFRONT
 10
0.0
 20
0.0
 30
0.0
  9
$UCSORGBACK
 10
0.0
 20
0.0
 30
0.0
  9
$PUCSBASE
  2

  9
$PUCSNAME
  2

  9
$PUCSORG
 10
0.0
 20
0.0
 30
0.0
  9
$PUCSXDIR
 10
1.0
 20
0.0
 30
0.0
  9
$PUCSYDIR
 10
0.0
 20
1.0
 30
0.0
  9
$PUCSORTHOREF
  2

  9
$PUCSORTHOVIEW
 70
     0
  9
$PUCSORGTOP
 10
0.0
 20
0.0
 30
0.0
  9
$PUCSORGBOTTOM
 10
0.0
 20
0.0
 30
0.0
  9
$PUCSORGLEFT
 10
0.0
 20
0.0
 30
0.0
  9
$PUCSORGRIGHT
 10
0.0
 20
0.0
 30
0.0
  9
$PUCSORGFRONT
 10
0.0
 20
0.0
 30
0.0
  9
$PUCSORGBACK
 10
0.0
 20
0.0
 30
0.0
  9
$USERI1
 70
     0
  9
$USERI2
 70
     0
  9
$USERI3
 70
     0
  9
$USERI4
 70
     0
  9
$USERI5
 70
     0
  9
$USERR1
 40
0.0
  9
$USERR2
 40
0.0
  9
$USERR3
 40
0.0
  9
$USERR4
 40
2448925.372986111
  9
$USERR5
 40
0.04166667
  9
$WORLDVIEW
 70
     1
  9
$SHADEDGE
 70
     3
  9
$SHADEDIF
 70
    70
  9
$TILEMODE
 70
     1
  9
$MAXACTVP
 70
    16
  9
$PINSBASE
 10
0.0
 20
0.0
 30
0.0
  9
$PLIMCHECK
 70
     0
  9
$PEXTMIN
 10
1000000000000000E+20
 20
1000000000000000E+20
 30
1000000000000000E+20
  9
$PEXTMAX
 10
-1000000000000000E+20
 20
-1000000000000000E+20
 30
-1000000000000000E+20
  9
$PLIMMIN
 10
0.0
 20
0.0
  9
$PLIMMAX
 10
12.0
 20
9.0
  9
$UNITMODE
 70
     0
  9
$VISRETAIN
 70
     0
  9
$PLINEGEN
 70
     0
  9
$PSLTSCALE
 70
     0
  9
$TREEDEPTH
 70
  3020
  9
$CMLSTYLE
  2
STANDARD
  9
$CMLJUST
 70
     0
  9
$CMLSCALE
 40
1.0
  9
$PROXYGRAPHICS
 70
     1
  9
$MEASUREMENT
 70
     0
  9
$CELWEIGHT
370
    -1
  9
$ENDCAPS
280
     0
  9
$JOINSTYLE
280
     0
  9
$LWDISPLAY
290
     0
  9
$INSUNITS
 70
     0
  9
$HYPERLINKBASE
  1

  9
$STYLESHEET
  1
monochrome.ctb
  9
$XEDIT
290
     1
  9
$CEPSNTYPE
380
     0
  9
$PSTYLEMODE
290
     1
  9
$FINGERPRINTGUID
  2
{E8288C0B-E231-437A-908B-E90D3A5BEFFE}
  9
$VERSIONGUID
  2
{0BFA786B-4F62-44BE-8879-FF17F3875754}
  9
$EXTNAMES
290
     1
  9
$PSVPSCALE
 40
0.0
  9
$OLESTARTUP
290
     0
  0
ENDSEC
  0
SECTION
  2
CLASSES
  0
CLASS
  1
ACDBDICTIONARYWDFLT
  2
AcDbDictionaryWithDefault
  3
ObjectDBX Classes
 90
        0
280
     0
281
     0
  0
CLASS
  1
MATERIAL
  2
AcDbMaterial
  3
ObjectDBX Classes
 90
     1153
280
     0
281
     0
  0
CLASS
  1
SORTENTSTABLE
  2
AcDbSortentsTable
  3
ObjectDBX Classes
 90
        0
280
     0
281
     0
  0
CLASS
  1
SCALE
  2
AcDbScale
  3
ObjectDBX Classes
 90
     1153
280
     0
281
     0
  0
CLASS
  1
DICTIONARYVAR
  2
AcDbDictionaryVar
  3
ObjectDBX Classes
 90
        0
280
     0
281
     0
  0
CLASS
  1
VISUALSTYLE
  2
AcDbVisualStyle
  3
ObjectDBX Classes
 90
     4095
280
     0
281
     0
  0
CLASS
  1
TABLESTYLE
  2
AcDbTableStyle
  3
ObjectDBX Classes
 90
     4095
280
     0
281
     0
  0
CLASS
  1
MLEADERSTYLE
  2
AcDbMLeaderStyle
  3
ACDB_MLEADERSTYLE_CLASS
 90
     4095
280
     0
281
     0
  0
CLASS
  1
ACDBPLACEHOLDER
  2
AcDbPlaceHolder
  3
ObjectDBX Classes
 90
        0
280
     0
281
     0
  0
CLASS
  1
LAYOUT
  2
AcDbLayout
  3
ObjectDBX Classes
 90
        0
280
     0
281
     0
  0
ENDSEC
  0
SECTION
  2
TABLES
  0
TABLE
  2
VPORT
  5
2B
102
{ACAD_XDICTIONARY
360
540
102
}
330
0
100
AcDbSymbolTable
 70
     1
  0
VPORT
  5
31
330
2B
100
AcDbSymbolTableRecord
100
AcDbViewportTableRecord
  2
*ACTIVE
 70
     0
 10
0.0
 20
0.0
 11
1.0
 21
1.0
 12
807.9443102562877
 22
468.2752975226128
 13
0.0
 23
0.0
 14
1.0
 24
1.0
 15
50.0
 25
50.0
 16
0.0
 26
0.0
 36
1.0
 17
0.0
 27
0.0
 37
0.0
 40
885.1926865098307
 41
1.82716049382716
 42
50.0
 43
0.0
 44
0.0
 50
0.0
 51
0.0
 71
     0
 72
  5000
 73
     1
 74
     0
 75
     0
 76
     0
 77
     0
 78
     1
281
     0
 65
     1
110
0.0
120
0.0
130
0.0
111
1.0
121
0.0
131
0.0
112
0.0
122
1.0
132
0.0
 79
     0
146
0.0
1001
ACAD_NAV_VCDISPLAY
1070
     3
  0
ENDTAB
  0
TABLE
  2
LTYPE
  5
D
330
0
100
AcDbSymbolTable
 70
     2
  0
LTYPE
  5
E
330
D
100
AcDbSymbolTableRecord
100
AcDbLinetypeTableRecord
  2
BYBLOCK
 70
     0
  3

 72
    65
 73
     0
 40
0.0
  0
LTYPE
  5
F
330
D
100
AcDbSymbolTableRecord
100
AcDbLinetypeTableRecord
  2
BYLAYER
 70
     0
  3

 72
    65
 73
     0
 40
0.0
  0
LTYPE
  5
C
330
D
100
AcDbSymbolTableRecord
100
AcDbLinetypeTableRecord
  2
CONTINUOUS
 70
     0
  3
Solid line
 72
    65
 73
     0
 40
0.0
  0
LTYPE
  5
6C
330
D
100
AcDbSymbolTableRecord
100
AcDbLinetypeTableRecord
  2
CENTER
 70
     0
  3
____ _ ____ _ ____ _ ____ _ ____ _ ____ _ ____
 72
    65
 73
     4
 40
2.0
 49
1.25
 74
     0
 49
-0.25
 74
     0
 49
0.25
 74
     0
 49
-0.25
 74
     0
  0
ENDTAB
  0
TABLE
  2
LAYER
  5
2
102
{ACAD_XDICTIONARY
360
3
102
}
330
0
100
AcDbSymbolTable
 70
     9
  0
LAYER
  5
1D
102
{ACAD_XDICTIONARY
360
1E
102
}
330
2
100
AcDbSymbolTableRecord
100
AcDbLayerTableRecord
  2
0
 70
     0
 62
     7
  6
CONTINUOUS
370
    -3
390
7
  0
LAYER
  5
25F
102
{ACAD_XDICTIONARY
360
260
102
}
330
2
100
AcDbSymbolTableRecord
100
AcDbLayerTableRecord
  2
1
 70
     0
 62
     9
  6
CONTINUOUS
370
    -3
390
7
  0
LAYER
  5
1
102
{ACAD_XDICTIONARY
360
5
102
}
330
2
100
AcDbSymbolTableRecord
100
AcDbLayerTableRecord
  2
2
 70
     0
 62
     4
  6
CONTINUOUS
370
    -3
390
7
  0
LAYER
  5
6E
102
{ACAD_XDICTIONARY
360
6F
102
}
330
2
100
AcDbSymbolTableRecord
100
AcDbLayerTableRecord
  2
4
 70
     0
 62
     3
  6
CONTINUOUS
370
    -3
390
7
  0
LAYER
  5
69
102
{ACAD_XDICTIONARY
360
6A
102
}
330
2
100
AcDbSymbolTableRecord
100
AcDbLayerTableRecord
  2
L-CENTER
 70
     0
 62
     1
  6
CENTER
370
    -3
390
7
  0
LAYER
  5
F7
102
{ACAD_XDICTIONARY
360
F8
102
}
330
2
100
AcDbSymbolTableRecord
100
AcDbLayerTableRecord
  2
3
 70
     0
 62
     2
  6
CONTINUOUS
370
    -3
390
7
  0
LAYER
  5
259
330
2
100
AcDbSymbolTableRecord
100
AcDbLayerTableRecord
  2
5
 70
     0
 62
     6
  6
CONTINUOUS
370
    -3
390
7
  0
LAYER
  5
4D0
330
2
100
AcDbSymbolTableRecord
100
AcDbLayerTableRecord
  2
Defpoints
 70
     0
 62
     7
  6
CONTINUOUS
290
     0
370
    -3
390
7
  0
ENDTAB
  0
TABLE
  2
STYLE
  5
11
330
0
100
AcDbSymbolTable
 70
     2
  0
STYLE
  5
15
330
11
100
AcDbSymbolTableRecord
100
AcDbTextStyleTableRecord
  2
STANDARD
 70
     0
 40
0.0
 41
1.0
 50
0.0
 71
     0
 42
4.5
  3
TXT
  4

  0
STYLE
  5
10
330
11
100
AcDbSymbolTableRecord
100
AcDbTextStyleTableRecord
  2
KANJI
 70
     0
 40
0.0
 41
1.0
 50
0.0
 71
     0
 42
7.5
  3
TXT
  4
BIGFONT
  0
ENDTAB
  0
TABLE
  2
VIEW
  5
29
330
0
100
AcDbSymbolTable
 70
     0
  0
ENDTAB
  0
TABLE
  2
UCS
  5
2A
330
0
100
AcDbSymbolTable
 70
     0
  0
ENDTAB
  0
TABLE
  2
APPID
  5
24
330
0
100
AcDbSymbolTable
 70
     6
  0
APPID
  5
30
330
24
100
AcDbSymbolTableRecord
100
AcDbRegAppTableRecord
  2
ACAD
 70
     0
  0
APPID
  5
32
330
24
100
AcDbSymbolTableRecord
100
AcDbRegAppTableRecord
  2
ACAD_NAV_VCDISPLAY
 70
     0
  0
APPID
  5
23
330
24
100
AcDbSymbolTableRecord
100
AcDbRegAppTableRecord
  2
ACAD_PSEXT
 70
     0
  0
APPID
  5
4AC
330
24
100
AcDbSymbolTableRecord
100
AcDbRegAppTableRecord
  2
ACAD_MLEADERVER
 70
     0
  0
ENDTAB
  0
TABLE
  2
DIMSTYLE
  5
14
330
0
100
AcDbSymbolTable
 70
     1
100
AcDbDimStyleTable
  0
DIMSTYLE
105
13
330
14
100
AcDbSymbolTableRecord
100
AcDbDimStyleTableRecord
  2
STANDARD
 70
     0
178
     0
340
15
  0
ENDTAB
  0
TABLE
  2
BLOCK_RECORD
  5
18
330
0
100
AcDbSymbolTable
 70
     0
  0
BLOCK_RECORD
  5
19
102
{ACAD_XDICTIONARY
360
1A
102
}
330
18
100
AcDbSymbolTableRecord
100
AcDbBlockTableRecord
  2
*MODEL_SPACE
340
21
  0
BLOCK_RECORD
  5
25
330
18
100
AcDbSymbolTableRecord
100
AcDbBlockTableRecord
  2
*PAPER_SPACE
340
28
  0
ENDTAB
  0
ENDSEC
  0
SECTION
  2
BLOCKS
  0
BLOCK
  5
1C
330
19
100
AcDbEntity
  8
0
100
AcDbBlockBegin
  2
*MODEL_SPACE
 70
     0
 10
0.0
 20
0.0
 30
0.0
  3
*MODEL_SPACE
  1

  0
ENDBLK
  5
20
330
19
100
AcDbEntity
  8
0
100
AcDbBlockEnd
  0
BLOCK
  5
26
330
25
100
AcDbEntity
 67
     1
  8
0
100
AcDbBlockBegin
  2
*PAPER_SPACE
 70
     0
 10
0.0
 20
0.0
 30
0.0
  3
*PAPER_SPACE
  1

  0
ENDBLK
  5
27
330
25
100
AcDbEntity
 67
     1
  8
0
100
AcDbBlockEnd
  0
ENDSEC
  0
SECTION
  2
ENTITIES
  0
LINE
  5
68
330
19
100
AcDbEntity
  8
L-CENTER
 48
2.0
100
AcDbLine
 10
570.995445416427
 20
265.8726802426727
 30
0.0
 11
100.7624053502029
 21
265.8726802426727
 31
0.0
  0
LINE
  5
6D
330
19
100
AcDbEntity
  8
4
100
AcDbLine
 10
472.3789253833149
 20
185.8726802426727
 30
0.0
 11
472.3789253833149
 21
210.8726802426727
 31
0.0
  0
LINE
  5
71
330
19
100
AcDbEntity
  8
4
100
AcDbLine
 10
454.3789253833149
 20
185.8726802426727
 30
0.0
 11
454.3789253833149
 21
210.8726802426727
 31
0.0
  0
LINE
  5
72
330
19
100
AcDbEntity
  8
4
100
AcDbLine
 10
493.3789253833149
 20
185.8726802426727
 30
0.0
 11
493.3789253833149
 21
207.8726802426727
 31
0.0
  0
LINE
  5
73
330
19
100
AcDbEntity
  8
L-CENTER
 48
2.0
100
AcDbLine
 10
463.3789253833149
 20
175.8726802426727
 30
0.0
 11
463.3789253833149
 21
220.8726802426727
 31
0.0
  0
LINE
  5
74
330
19
100
AcDbEntity
  8
4
100
AcDbLine
 10
429.1826353833148
 20
192.1492902426727
 30
0.0
 11
429.9990428833148
 21
189.2379152426727
 31
0.0
  0
LINE
  5
75
330
19
100
AcDbEntity
  8
4
100
AcDbLine
 10
408.3789253833149
 20
214.8726802426727
 30
0.0
 11
408.3789253833149
 21
185.8726802426727
 31
0.0
  0
LINE
  5
76
330
19
100
AcDbEntity
  8
4
100
AcDbLine
 10
263.3789253833149
 20
214.8726802426727
 30
0.0
 11
263.3789253833149
 21
185.8726802426727
 31
0.0
  0
LINE
  5
77
330
19
100
AcDbEntity
  8
L-CENTER
 48
2.0
100
AcDbLine
 10
208.3790328833149
 20
175.8726802426727
 30
0.0
 11
208.3790328833149
 21
220.8726802426727
 31
0.0
  0
LINE
  5
78
330
19
100
AcDbEntity
  8
4
100
AcDbLine
 10
178.3790328833149
 20
185.8726802426727
 30
0.0
 11
178.3790328833149
 21
207.8726802426727
 31
0.0
  0
LINE
  5
79
330
19
100
AcDbEntity
  8
L-CENTER
 48
2.0
100
AcDbLine
 10
295.3430353833149
 20
361.7265703716233
 30
0.0
 11
295.3430353833147
 21
99.25274342253533
 31
0.0
  0
LINE
  5
7A
330
19
100
AcDbEntity
  8
4
100
AcDbLine
 10
178.3790328833149
 20
185.8726802426727
 30
0.0
 11
263.3789253833149
 21
185.8726802426727
 31
0.0
  0
LINE
  5
7B
330
19
100
AcDbEntity
  8
4
100
AcDbLine
 10
408.3789253833149
 20
185.8726802426727
 30
0.0
 11
493.3789253833149
 21
185.8726802426727
 31
0.0
  0
LINE
  5
7C
330
19
100
AcDbEntity
  8
4
100
AcDbLine
 10
428.0263853833148
 20
185.8726802426727
 30
0.0
 11
428.5788753833149
 21
186.3975827426726
 31
0.0
  0
LINE
  5
7D
330
19
100
AcDbEntity
  8
4
100
AcDbLine
 10
430.212177883315
 20
187.5335702426727
 30
0.0
 11
428.5788753833149
 21
186.3975827426726
 31
0.0
  0
LINE
  5
7E
330
19
100
AcDbEntity
  8
4
100
AcDbLine
 10
429.9990428833148
 20
189.2379152426727
 30
0.0
 11
430.212177883315
 21
187.5335702426727
 31
0.0
  0
LINE
  5
7F
330
19
100
AcDbEntity
  8
4
100
AcDbLine
 10
246.3430353833151
 20
356.5726302426727
 30
0.0
 11
323.3789253833149
 21
356.5726302426727
 31
0.0
  0
LINE
  5
80
330
19
100
AcDbEntity
  8
4
100
AcDbLine
 10
255.3430353833151
 20
357.5726302426727
 30
0.0
 11
324.8789253833149
 21
357.5726302426727
 31
0.0
  0
LINE
  5
81
330
19
100
AcDbEntity
  8
4
100
AcDbLine
 10
171.8789253833149
 20
330.8726802426727
 30
0.0
 11
485.8789253833149
 21
330.8726802426727
 31
0.0
  0
LINE
  5
82
330
19
100
AcDbEntity
  8
4
100
AcDbLine
 10
485.8789253833149
 20
344.5726302426727
 30
0.0
 11
185.8789253833149
 21
344.5726302426727
 31
0.0
  0
LINE
  5
83
330
19
100
AcDbEntity
  8
4
100
AcDbLine
 10
185.8789253833149
 20
332.8726802426727
 30
0.0
 11
485.8789253833149
 21
332.8726802426727
 31
0.0
  0
LINE
  5
84
330
19
100
AcDbEntity
  8
4
100
AcDbLine
 10
467.8789253833149
 20
346.5726302426727
 30
0.0
 11
203.8789253833149
 21
346.5726302426727
 31
0.0
  0
ARC
  5
85
330
19
100
AcDbEntity
  8
4
100
AcDbCircle
 10
267.3789253833149
 20
214.8726802426727
 30
0.0
 40
4.0
100
AcDbArc
 50
90.0
 51
180.0
  0
ARC
  5
86
330
19
100
AcDbEntity
  8
4
100
AcDbCircle
 10
260.3789253833149
 20
207.8726802426727
 30
0.0
 40
3.0
100
AcDbArc
 50
0.0
 51
90.0
  0
LINE
  5
87
330
19
100
AcDbEntity
  8
4
100
AcDbLine
 10
263.3789253833149
 20
211.8726802426727
 30
0.0
 11
344.3430353833151
 21
211.8726802426727
 31
0.0
  0
LINE
  5
88
330
19
100
AcDbEntity
  8
4
100
AcDbLine
 10
263.3789253833149
 20
210.8726802426727
 30
0.0
 11
335.3430353833151
 21
210.8726802426727
 31
0.0
  0
LINE
  5
89
330
19
100
AcDbEntity
  8
4
100
AcDbLine
 10
168.8789253833149
 20
327.8726802426727
 30
0.0
 11
168.8789253833149
 21
222.8726802426727
 31
0.0
  0
LINE
  5
8A
330
19
100
AcDbEntity
  8
4
100
AcDbLine
 10
260.3789253833149
 20
210.8726802426727
 30
0.0
 11
181.3790328833149
 21
210.8726802426727
 31
0.0
  0
LINE
  5
8B
330
19
100
AcDbEntity
  8
4
100
AcDbLine
 10
162.8789253833149
 20
223.8726802426727
 30
0.0
 11
162.8789253833149
 21
307.8726802426726
 31
0.0
  0
LINE
  5
8C
330
19
100
AcDbEntity
  8
4
100
AcDbLine
 10
161.8789253833149
 20
296.8726802426727
 30
0.0
 11
161.8789253833149
 21
234.8726802426727
 31
0.0
  0
ARC
  5
8D
330
19
100
AcDbEntity
  8
4
100
AcDbCircle
 10
172.8789253833149
 20
222.8726802426727
 30
0.0
 40
4.0
100
AcDbArc
 50
180.0
 51
270.0013179999999
  0
ARC
  5
8E
330
19
100
AcDbEntity
  8
4
100
AcDbCircle
 10
178.3790328833149
 20
214.8726802426727
 30
0.0
 40
4.0
100
AcDbArc
 50
0.0
 51
90.0
  0
LINE
  5
8F
330
19
100
AcDbEntity
  8
4
100
AcDbLine
 10
172.8789253833149
 20
218.8726802426727
 30
0.0
 11
178.3790328833149
 21
218.8726802426727
 31
0.0
  0
LINE
  5
90
330
19
100
AcDbEntity
  8
4
100
AcDbLine
 10
182.3790328833149
 20
210.8726802426727
 30
0.0
 11
182.3790328833149
 21
214.8726802426727
 31
0.0
  0
ARC
  5
91
330
19
100
AcDbEntity
  8
4
100
AcDbCircle
 10
181.3790328833149
 20
207.8726802426727
 30
0.0
 40
3.0
100
AcDbArc
 50
90.0
 51
180.0
  0
LINE
  5
92
330
19
100
AcDbEntity
  8
4
100
AcDbLine
 10
162.8789253833149
 20
223.8726802426727
 30
0.0
 11
168.8789253833149
 21
223.8726802426727
 31
0.0
  0
LINE
  5
93
330
19
100
AcDbEntity
  8
4
100
AcDbLine
 10
162.8789253833149
 20
234.8726802426727
 30
0.0
 11
161.8789253833149
 21
234.8726802426727
 31
0.0
  0
LINE
  5
94
330
19
100
AcDbEntity
  8
4
100
AcDbLine
 10
162.8789253833149
 20
296.8726802426727
 30
0.0
 11
161.8789253833149
 21
296.8726802426727
 31
0.0
  0
LINE
  5
95
330
19
100
AcDbEntity
  8
4
100
AcDbLine
 10
185.8789253833149
 20
330.8726802426727
 30
0.0
 11
185.8789253833149
 21
344.5726302426727
 31
0.0
  0
LINE
  5
96
330
19
100
AcDbEntity
  8
4
100
AcDbLine
 10
162.8789253833149
 20
307.8726802426726
 30
0.0
 11
168.8789253833149
 21
307.8726802426727
 31
0.0
  0
ARC
  5
97
330
19
100
AcDbEntity
  8
4
100
AcDbCircle
 10
171.8789253833149
 20
327.8726802426727
 30
0.0
 40
3.0
100
AcDbArc
 50
90.0
 51
180.0
  0
ARC
  5
98
330
19
100
AcDbEntity
  8
4
100
AcDbCircle
 10
335.8789253833149
 20
-1393.327269757327
 30
0.0
 40
1744.8998825
100
AcDbArc
 50
92.54563478805892
 51
94.338955
  0
LINE
  5
99
330
19
100
AcDbEntity
  8
4
100
AcDbLine
 10
203.8789253833149
 20
344.5726302426727
 30
0.0
 11
203.8789253833149
 21
346.5726302426727
 31
0.0
  0
ARC
  5
9A
330
19
100
AcDbEntity
  8
4
100
AcDbCircle
 10
244.3430353833151
 20
351.1727302426726
 30
0.0
 40
2.00003
100
AcDbArc
 50
273.002206999994
 51
0.0
  0
LINE
  5
9B
330
19
100
AcDbEntity
  8
4
100
AcDbLine
 10
246.3430353833151
 20
351.1727302426726
 30
0.0
 11
246.3430353833151
 21
356.5726302426727
 31
0.0
  0
LINE
  5
9C
330
19
100
AcDbEntity
  8
4
100
AcDbLine
 10
255.3430353833151
 20
357.5726302426727
 30
0.0
 11
255.3430353833151
 21
356.5726302426727
 31
0.0
  0
ARC
  5
A1
330
19
100
AcDbEntity
  8
4
100
AcDbCircle
 10
335.8789253833149
 20
-1393.327269757327
 30
0.0
 40
1744.899855
100
AcDbArc
 50
85.661501
 51
87.4543651717949
  0
LINE
  5
A2
330
19
100
AcDbEntity
  8
4
100
AcDbLine
 10
363.8789253833149
 20
356.5726302426727
 30
0.0
 11
441.8789253833149
 21
356.5726302426727
 31
0.0
  0
LINE
  5
A3
330
19
100
AcDbEntity
  8
4
100
AcDbLine
 10
371.8789253833149
 20
357.5726302426727
 30
0.0
 11
433.8789253833149
 21
357.5726302426727
 31
0.0
  0
LINE
  5
A4
330
19
100
AcDbEntity
  8
4
100
AcDbLine
 10
490.3789253833149
 20
210.8726802426727
 30
0.0
 11
411.3789253833149
 21
210.8726802426727
 31
0.0
  0
LINE
  5
A5
330
19
100
AcDbEntity
  8
4
100
AcDbLine
 10
267.3789253833149
 20
218.8726802426727
 30
0.0
 11
404.3789253833149
 21
218.8726802426727
 31
0.0
  0
LINE
  5
A6
330
19
100
AcDbEntity
  8
4
100
AcDbLine
 10
335.3430353833151
 20
211.8726802426727
 30
0.0
 11
335.3430353833151
 21
210.8726802426727
 31
0.0
  0
LINE
  5
A7
330
19
100
AcDbEntity
  8
4
100
AcDbLine
 10
363.8789253833149
 20
211.8726802426727
 30
0.0
 11
408.3789253833149
 21
211.8726802426727
 31
0.0
  0
LINE
  5
A8
330
19
100
AcDbEntity
  8
4
100
AcDbLine
 10
408.3789253833149
 20
210.8726802426727
 30
0.0
 11
371.8789253833149
 21
210.8726802426727
 31
0.0
  0
ARC
  5
A9
330
19
100
AcDbEntity
  8
4
100
AcDbCircle
 10
346.3430353833151
 20
216.8726802426727
 30
0.0
 40
2.0
100
AcDbArc
 50
90.0
 51
180.0
  0
LINE
  5
AA
330
19
100
AcDbEntity
  8
4
100
AcDbLine
 10
344.3430353833151
 20
211.8726802426727
 30
0.0
 11
344.3430353833151
 21
216.8726802426727
 31
0.0
  0
ARC
  5
AB
330
19
100
AcDbEntity
  8
4
100
AcDbCircle
 10
361.8789253833149
 20
216.8726802426727
 30
0.0
 40
2.0
100
AcDbArc
 50
0.0
 51
90.0
  0
LINE
  5
AC
330
19
100
AcDbEntity
  8
4
100
AcDbLine
 10
363.8789253833149
 20
211.8726802426727
 30
0.0
 11
363.8789253833149
 21
216.8726802426727
 31
0.0
  0
LINE
  5
AD
330
19
100
AcDbEntity
  8
4
100
AcDbLine
 10
371.8789253833149
 20
210.8726802426727
 30
0.0
 11
371.8789253833149
 21
211.8726802426727
 31
0.0
  0
ARC
  5
AE
330
19
100
AcDbEntity
  8
4
100
AcDbCircle
 10
404.3789253833149
 20
214.8726802426727
 30
0.0
 40
4.0
100
AcDbArc
 50
0.0
 51
90.0
  0
ARC
  5
AF
330
19
100
AcDbEntity
  8
4
100
AcDbCircle
 10
411.3789253833149
 20
207.8726802426727
 30
0.0
 40
3.0
100
AcDbArc
 50
90.0
 51
180.0
  0
LINE
  5
B0
330
19
100
AcDbEntity
  8
4
100
AcDbLine
 10
323.3789253833149
 20
356.7078852426727
 30
0.0
 11
348.3789253833149
 21
356.7078852426727
 31
0.0
  0
LINE
  5
B1
330
19
100
AcDbEntity
  8
4
100
AcDbLine
 10
346.8789253833149
 20
360.7078852426727
 30
0.0
 11
324.8789253833149
 21
360.7078852426727
 31
0.0
  0
ARC
  5
B2
330
19
100
AcDbEntity
  8
4
100
AcDbCircle
 10
335.8789253833149
 20
-1393.327269757327
 30
0.0
 40
1744.8999125
100
AcDbArc
 50
87.88158990068237
 51
89.40893897915774
  0
ARC
  5
B5
330
19
100
AcDbEntity
  8
4
100
AcDbCircle
 10
335.8789253833149
 20
-1393.327269757327
 30
0.0
 40
1744.8999225
100
AcDbArc
 50
90.59106101745428
 51
92.11841008717148
  0
LINE
  5
B6
330
19
100
AcDbEntity
  8
L-CENTER
 48
2.0
100
AcDbLine
 10
335.8789253833149
 20
362.0928952426726
 30
0.0
 11
335.8789253833149
 21
206.2925067794355
 31
0.0
  0
LINE
  5
B7
330
19
100
AcDbEntity
  8
4
100
AcDbLine
 10
324.8789253833149
 20
360.7078852426727
 30
0.0
 11
324.8789253833149
 21
356.7078852426727
 31
0.0
  0
LINE
  5
BB
330
19
100
AcDbEntity
  8
L-CENTER
 48
2.0
100
AcDbLine
 10
402.8789253833149
 20
206.2925067794355
 30
0.0
 11
402.8789253833149
 21
361.7265703716233
 31
0.0
  0
LINE
  5
BC
330
19
100
AcDbEntity
  8
4
100
AcDbLine
 10
317.8789253833149
 20
353.2078852426727
 30
0.0
 11
353.8789253833149
 21
353.2078852426727
 31
0.0
  0
LINE
  5
BD
330
19
100
AcDbEntity
  8
4
100
AcDbLine
 10
347.3789253833149
 20
354.7078852426727
 30
0.0
 11
347.3789253833149
 21
353.2078852426727
 31
0.0
  0
LINE
  5
BE
330
19
100
AcDbEntity
  8
4
100
AcDbLine
 10
348.3789253833149
 20
356.7078852426727
 30
0.0
 11
348.3789253833149
 21
354.7078852426727
 31
0.0
  0
LINE
  5
BF
330
19
100
AcDbEntity
  8
4
100
AcDbLine
 10
323.3789253833149
 20
354.7078852426727
 30
0.0
 11
348.3789253833149
 21
354.7078852426727
 31
0.0
  0
LINE
  5
C0
330
19
100
AcDbEntity
  8
4
100
AcDbLine
 10
346.8789253833149
 20
360.7078852426727
 30
0.0
 11
346.8789253833149
 21
356.7078852426727
 31
0.0
  0
LINE
  5
C1
330
19
100
AcDbEntity
  8
4
100
AcDbLine
 10
353.8789253833149
 20
349.1981316180742
 30
0.0
 11
353.8789253833149
 21
353.2078852426727
 31
0.0
  0
ARC
  5
C2
330
19
100
AcDbEntity
  8
4
100
AcDbCircle
 10
360.8789253833149
 20
354.3939202426726
 30
0.0
 40
3.0000325
100
AcDbArc
 50
269.1793420000001
 51
0.0
  0
LINE
  5
C3
330
19
100
AcDbEntity
  8
4
100
AcDbLine
 10
363.8789253833149
 20
354.3939202426726
 30
0.0
 11
363.8789253833149
 21
356.5726302426727
 31
0.0
  0
LINE
  5
C4
330
19
100
AcDbEntity
  8
4
100
AcDbLine
 10
371.8789253833149
 20
357.5726302426727
 30
0.0
 11
371.8789253833149
 21
356.5726302426727
 31
0.0
  0
LINE
  5
C5
330
19
100
AcDbEntity
  8
4
100
AcDbLine
 10
502.8789253833149
 20
327.8726802426727
 30
0.0
 11
502.8789253833149
 21
222.8726802426727
 31
0.0
  0
LINE
  5
C6
330
19
100
AcDbEntity
  8
4
100
AcDbLine
 10
493.3789253833149
 20
218.8726802426727
 30
0.0
 11
498.8789253833149
 21
218.8726802426727
 31
0.0
  0
LINE
  5
C7
330
19
100
AcDbEntity
  8
4
100
AcDbLine
 10
438.2719903833149
 20
209.5823977426727
 30
0.0
 11
436.638690383315
 21
208.7659902426727
 31
0.0
  0
LINE
  5
C8
330
19
100
AcDbEntity
  8
4
100
AcDbLine
 10
434.9343453833148
 20
206.3870852426727
 30
0.0
 11
434.614765383315
 21
204.8248277426727
 31
0.0
  0
LINE
  5
C9
330
19
100
AcDbEntity
  8
4
100
AcDbLine
 10
434.5437203833148
 20
203.7950427426726
 30
0.0
 11
434.5437203833148
 21
201.9134502426726
 31
0.0
  0
LINE
  5
CA
330
19
100
AcDbEntity
  8
4
100
AcDbLine
 10
434.614765383315
 20
204.8248277426727
 30
0.0
 11
434.5437203833148
 21
203.7950427426726
 31
0.0
  0
LINE
  5
CB
330
19
100
AcDbEntity
  8
4
100
AcDbLine
 10
432.0940128833149
 20
198.9307852426726
 30
0.0
 11
432.5200378833149
 21
195.3448477426726
 31
0.0
  0
LINE
  5
CC
330
19
100
AcDbEntity
  8
4
100
AcDbLine
 10
431.2773628833149
 20
193.7825927426727
 30
0.0
 11
429.1826353833148
 21
192.1492902426727
 31
0.0
  0
LINE
  5
CD
330
19
100
AcDbEntity
  8
4
100
AcDbLine
 10
432.5200378833149
 20
195.3448477426726
 30
0.0
 11
431.2773628833149
 21
193.7825927426727
 31
0.0
  0
LINE
  5
CE
330
19
100
AcDbEntity
  8
4
100
AcDbLine
 10
433.5141803833149
 20
200.7061752426727
 30
0.0
 11
432.0940128833149
 21
198.9307852426726
 31
0.0
  0
LINE
  5
CF
330
19
100
AcDbEntity
  8
4
100
AcDbLine
 10
434.5437203833148
 20
201.9134502426726
 30
0.0
 11
433.5141803833149
 21
200.7061752426727
 31
0.0
  0
LINE
  5
D0
330
19
100
AcDbEntity
  8
4
100
AcDbLine
 10
436.638690383315
 20
208.7659902426727
 30
0.0
 11
435.431415383315
 21
207.6651602426726
 31
0.0
  0
LINE
  5
D1
330
19
100
AcDbEntity
  8
4
100
AcDbLine
 10
435.431415383315
 20
207.6651602426726
 30
0.0
 11
434.9343453833148
 21
206.3870852426727
 31
0.0
  0
LINE
  5
D2
330
19
100
AcDbEntity
  8
4
100
AcDbLine
 10
438.9785353833149
 20
210.8726802426727
 30
0.0
 11
438.2719903833149
 21
209.5823977426727
 31
0.0
  0
ARC
  5
D3
330
19
100
AcDbEntity
  8
4
100
AcDbCircle
 10
493.3789253833149
 20
214.8726802426727
 30
0.0
 40
4.0
100
AcDbArc
 50
90.0
 51
180.0
  0
LINE
  5
D4
330
19
100
AcDbEntity
  8
4
100
AcDbLine
 10
489.3789253833149
 20
214.8726802426727
 30
0.0
 11
489.3789253833149
 21
210.8726802426727
 31
0.0
  0
ARC
  5
D5
330
19
100
AcDbEntity
  8
4
100
AcDbCircle
 10
490.3789253833149
 20
207.8726802426727
 30
0.0
 40
3.0
100
AcDbArc
 50
0.0
 51
90.0
  0
LINE
  5
D6
330
19
100
AcDbEntity
  8
4
100
AcDbLine
 10
508.8789253833149
 20
307.8726802426726
 30
0.0
 11
508.8789253833149
 21
223.8726802426727
 31
0.0
  0
LINE
  5
D7
330
19
100
AcDbEntity
  8
4
100
AcDbLine
 10
509.8789253833149
 20
296.8726802426727
 30
0.0
 11
509.8789253833149
 21
234.8726802426727
 31
0.0
  0
ARC
  5
D8
330
19
100
AcDbEntity
  8
4
100
AcDbCircle
 10
498.8789253833149
 20
222.8726802426727
 30
0.0
 40
4.0
100
AcDbArc
 50
270.0
 51
0.0
  0
LINE
  5
D9
330
19
100
AcDbEntity
  8
4
100
AcDbLine
 10
502.8789253833149
 20
223.8726802426727
 30
0.0
 11
508.8789253833149
 21
223.8726802426727
 31
0.0
  0
LINE
  5
DA
330
19
100
AcDbEntity
  8
4
100
AcDbLine
 10
509.8789253833149
 20
234.8726802426727
 30
0.0
 11
508.8789253833149
 21
234.8726802426727
 31
0.0
  0
LINE
  5
DB
330
19
100
AcDbEntity
  8
4
100
AcDbLine
 10
567.8789253833149
 20
281.3726802426727
 30
0.0
 11
522.8789253833149
 21
281.3726802426727
 31
0.0
  0
LINE
  5
DC
330
19
100
AcDbEntity
  8
4
100
AcDbLine
 10
566.8789253833149
 20
278.3726802426727
 30
0.0
 11
517.8789253833149
 21
278.3726802426727
 31
0.0
  0
LINE
  5
DD
330
19
100
AcDbEntity
  8
4
100
AcDbLine
 10
566.8789253833149
 20
253.3726802426727
 30
0.0
 11
517.8789253833149
 21
253.3726802426727
 31
0.0
  0
LINE
  5
DE
330
19
100
AcDbEntity
  8
4
100
AcDbLine
 10
517.8789253833149
 20
250.8726802426727
 30
0.0
 11
517.8789253833149
 21
280.8726802426727
 31
0.0
  0
LINE
  5
DF
330
19
100
AcDbEntity
  8
4
100
AcDbLine
 10
517.8789253833149
 20
250.8726802426727
 30
0.0
 11
509.8789253833149
 21
250.8726802426727
 31
0.0
  0
LINE
  5
E0
330
19
100
AcDbEntity
  8
4
100
AcDbLine
 10
517.8789253833149
 20
280.8726802426727
 30
0.0
 11
509.8789253833149
 21
280.8726802426727
 31
0.0
  0
LINE
  5
E1
330
19
100
AcDbEntity
  8
4
100
AcDbLine
 10
509.8789253833149
 20
296.8726802426727
 30
0.0
 11
508.8789253833149
 21
296.8726802426727
 31
0.0
  0
LINE
  5
E2
330
19
100
AcDbEntity
  8
4
100
AcDbLine
 10
522.8789253833149
 20
281.3726802426727
 30
0.0
 11
522.8789253833149
 21
278.3726802426727
 31
0.0
  0
LINE
  5
E3
330
19
100
AcDbEntity
  8
4
100
AcDbLine
 10
566.8789253833149
 20
278.3726802426727
 30
0.0
 11
567.8789253833149
 21
277.3726802426727
 31
0.0
  0
LINE
  5
E4
330
19
100
AcDbEntity
  8
4
100
AcDbLine
 10
567.8789253833149
 20
254.3726802426727
 30
0.0
 11
567.8789253833149
 21
281.3726802426727
 31
0.0
  0
LINE
  5
E5
330
19
100
AcDbEntity
  8
4
100
AcDbLine
 10
566.8789253833149
 20
278.3726802426727
 30
0.0
 11
566.8789253833149
 21
253.3726802426727
 31
0.0
  0
LINE
  5
E6
330
19
100
AcDbEntity
  8
4
100
AcDbLine
 10
566.8789253833149
 20
253.3726802426727
 30
0.0
 11
567.8789253833149
 21
254.3726802426727
 31
0.0
  0
LINE
  5
E7
330
19
100
AcDbEntity
  8
4
100
AcDbLine
 10
499.8789253833149
 20
330.8726802426727
 30
0.0
 11
485.8789253833149
 21
330.8726802426727
 31
0.0
  0
LINE
  5
E8
330
19
100
AcDbEntity
  8
4
100
AcDbLine
 10
433.8789253833149
 20
357.5726302426727
 30
0.0
 11
433.8789253833149
 21
356.5726302426727
 31
0.0
  0
LINE
  5
E9
330
19
100
AcDbEntity
  8
4
100
AcDbLine
 10
441.8789253833149
 20
350.2308352426727
 30
0.0
 11
441.8789253833149
 21
356.5726302426727
 31
0.0
  0
ARC
  5
EA
330
19
100
AcDbEntity
  8
4
100
AcDbCircle
 10
443.8789253833149
 20
350.2308352426727
 30
0.0
 40
1.999955
100
AcDbArc
 50
180.0
 51
266.4585729999983
  0
LINE
  5
EB
330
19
100
AcDbEntity
  8
4
100
AcDbLine
 10
485.8789253833149
 20
330.8726802426727
 30
0.0
 11
485.8789253833149
 21
344.5726302426727
 31
0.0
  0
LINE
  5
EC
330
19
100
AcDbEntity
  8
4
100
AcDbLine
 10
467.8789253833149
 20
344.5726302426727
 30
0.0
 11
467.8789253833149
 21
346.5726302426727
 31
0.0
  0
LINE
  5
ED
330
19
100
AcDbEntity
  8
4
100
AcDbLine
 10
502.8789253833149
 20
307.8726802426727
 30
0.0
 11
508.8789253833149
 21
307.8726802426726
 31
0.0
  0
ARC
  5
EE
330
19
100
AcDbEntity
  8
4
100
AcDbCircle
 10
499.8789253833149
 20
327.8726802426727
 30
0.0
 40
3.0
100
AcDbArc
 50
0.0
 51
90.0
  0
LINE
  5
FA
330
19
100
AcDbEntity
  8
L-CENTER
 48
2.0
100
AcDbLine
 10
1015.331003153453
 20
175.8726802426727
 30
0.0
 11
1015.331003153453
 21
220.8726802426727
 31
0.0
  0
LINE
  5
FB
330
19
100
AcDbEntity
  8
4
100
AcDbLine
 10
1035.331003153453
 20
207.8726802426727
 30
0.0
 11
1035.331003153453
 21
185.8726802426727
 31
0.0
  0
LINE
  5
FC
330
19
100
AcDbEntity
  8
4
100
AcDbLine
 10
940.3310031534531
 20
214.8726802426727
 30
0.0
 11
940.3310031534531
 21
185.8726802426727
 31
0.0
  0
LINE
  5
FD
330
19
100
AcDbEntity
  8
4
100
AcDbLine
 10
800.3310031534531
 20
214.8726802426727
 30
0.0
 11
800.3310031534531
 21
185.8726802426727
 31
0.0
  0
LINE
  5
FE
330
19
100
AcDbEntity
  8
4
100
AcDbLine
 10
705.3310031534531
 20
207.8726802426727
 30
0.0
 11
705.3310031534531
 21
185.8726802426727
 31
0.0
  0
LINE
  5
FF
330
19
100
AcDbEntity
  8
L-CENTER
 48
2.0
100
AcDbLine
 10
725.3310031534531
 20
175.8726802426727
 30
0.0
 11
725.3310031534531
 21
220.8726802426727
 31
0.0
  0
LINE
  5
100
330
19
100
AcDbEntity
  8
L-CENTER
 48
2.0
100
AcDbLine
 10
859.3310031534531
 20
361.7265703716233
 30
0.0
 11
859.3310031534531
 21
99.25274342253533
 31
0.0
  0
LINE
  5
101
330
19
100
AcDbEntity
  8
4
100
AcDbLine
 10
940.3310031534531
 20
185.8726802426727
 30
0.0
 11
1035.331003153453
 21
185.8726802426727
 31
0.0
  0
LINE
  5
102
330
19
100
AcDbEntity
  8
4
100
AcDbLine
 10
705.3310031534531
 20
185.8726802426727
 30
0.0
 11
800.3310031534531
 21
185.8726802426727
 31
0.0
  0
LINE
  5
103
330
19
100
AcDbEntity
  8
4
100
AcDbLine
 10
952.8310031534531
 20
274.3726802426726
 30
0.0
 11
945.8310031534531
 21
274.3726802426726
 31
0.0
  0
LINE
  5
104
330
19
100
AcDbEntity
  8
4
100
AcDbLine
 10
952.8310031534531
 20
281.3726802426727
 30
0.0
 11
945.8310031534531
 21
281.3726802426727
 31
0.0
  0
ARC
  5
105
330
19
100
AcDbEntity
  8
4
100
AcDbCircle
 10
949.3310031534531
 20
265.8726802426727
 30
0.0
 40
12.5
100
AcDbArc
 50
106.2602049999989
 51
73.73979500000115
  0
LINE
  5
106
330
19
100
AcDbEntity
  8
4
100
AcDbLine
 10
955.3310031534531
 20
355.2078852426727
 30
0.0
 11
923.3310031534531
 21
355.2078852426727
 31
0.0
  0
ARC
  5
107
330
19
100
AcDbEntity
  8
4
100
AcDbCircle
 10
949.3310031534531
 20
107.8726802426727
 30
0.0
 40
199.99999
100
AcDbArc
 50
79.54974499999999
 51
100.450405
  0
ARC
  5
108
330
19
100
AcDbEntity
  8
4
100
AcDbCircle
 10
870.3310031534531
 20
-1393.327269757327
 30
0.0
 40
1744.89988
100
AcDbArc
 50
86.1725444520393
 51
89.78656458605974
  0
LINE
  5
109
330
19
100
AcDbEntity
  8
4
100
AcDbLine
 10
1002.331003153453
 20
346.5726302426727
 30
0.0
 11
754.605395816063
 21
346.5726302426727
 31
0.0
  0
LINE
  5
10A
330
19
100
AcDbEntity
  8
4
100
AcDbLine
 10
1034.331003153453
 20
330.8726802426727
 30
0.0
 11
706.3310031534531
 21
330.8726802426727
 31
0.0
  0
LINE
  5
10B
330
19
100
AcDbEntity
  8
4
100
AcDbLine
 10
1020.331003153453
 20
332.8726802426727
 30
0.0
 11
720.3310031534531
 21
332.8726802426727
 31
0.0
  0
LINE
  5
10C
330
19
100
AcDbEntity
  8
4
100
AcDbLine
 10
1020.331003153453
 20
344.5726302426727
 30
0.0
 11
720.3310031534531
 21
344.5726302426727
 31
0.0
  0
LINE
  5
10D
330
19
100
AcDbEntity
  8
L-CENTER
 48
2.0
100
AcDbLine
 10
899.1017116531981
 20
265.8726802426727
 30
0.0
 11
999.5602946537082
 21
265.8726802426727
 31
0.0
  0
ARC
  5
10E
330
19
100
AcDbEntity
  8
4
100
AcDbCircle
 10
949.3310031534531
 20
423.8726802426728
 30
0.0
 40
199.9999675
100
AcDbArc
 50
259.550171
 51
280.450761
  0
LINE
  5
10F
330
19
100
AcDbEntity
  8
4
100
AcDbLine
 10
1032.331003153453
 20
210.8726802426727
 30
0.0
 11
942.3310031534531
 21
210.8726802426727
 31
0.0
  0
CIRCLE
  5
110
330
19
100
AcDbEntity
  8
4
100
AcDbCircle
 10
949.3310031534531
 20
265.8726802426727
 30
0.0
 40
31.0
  0
ARC
  5
114
330
19
100
AcDbEntity
  8
4
100
AcDbCircle
 10
870.3310031534531
 20
-1393.327269757327
 30
0.0
 40
1744.8999325
100
AcDbArc
 50
90.21343540751846
 51
93.82745543262982
  0
LINE
  5
115
330
19
100
AcDbEntity
  8
4
100
AcDbLine
 10
708.3310031534531
 20
210.8726802426727
 30
0.0
 11
798.3310031534531
 21
210.8726802426727
 31
0.0
  0
LINE
  5
116
330
19
100
AcDbEntity
  8
4
100
AcDbLine
 10
703.3310031534531
 20
327.8726802426727
 30
0.0
 11
703.3310031534531
 21
221.8726802426727
 31
0.0
  0
ARC
  5
117
330
19
100
AcDbEntity
  8
4
100
AcDbCircle
 10
712.8310031534531
 20
214.8726802426727
 30
0.0
 40
4.0
100
AcDbArc
 50
0.0
 51
90.0
  0
ARC
  5
118
330
19
100
AcDbEntity
  8
4
100
AcDbCircle
 10
706.3310031534531
 20
221.8726802426727
 30
0.0
 40
3.0
100
AcDbArc
 50
180.0
 51
270.0
  0
LINE
  5
119
330
19
100
AcDbEntity
  8
4
100
AcDbLine
 10
706.3310031534531
 20
218.8726802426727
 30
0.0
 11
712.8310031534531
 21
218.8726802426727
 31
0.0
  0
ARC
  5
11A
330
19
100
AcDbEntity
  8
4
100
AcDbCircle
 10
708.3310031534531
 20
207.8726802426727
 30
0.0
 40
3.0
100
AcDbArc
 50
90.0
 51
180.0
  0
LINE
  5
11B
330
19
100
AcDbEntity
  8
4
100
AcDbLine
 10
716.8310031534531
 20
214.8726802426727
 30
0.0
 11
716.8310031534531
 21
210.8726802426727
 31
0.0
  0
ARC
  5
11F
330
19
100
AcDbEntity
  8
4
100
AcDbCircle
 10
706.3310031534531
 20
327.8726802426727
 30
0.0
 40
3.0
100
AcDbArc
 50
90.0
 51
180.0
  0
LINE
  5
120
330
19
100
AcDbEntity
  8
4
100
AcDbLine
 10
720.3310031534531
 20
330.8726802426727
 30
0.0
 11
720.3310031534531
 21
344.5726302426727
 31
0.0
  0
ARC
  5
121
330
19
100
AcDbEntity
  8
4
100
AcDbCircle
 10
870.3310031534531
 20
-1393.327269757327
 30
0.0
 40
1744.899895
100
AcDbArc
 50
94.25539046521496
 51
94.33895799999999
  0
LINE
  5
122
330
19
100
AcDbEntity
  8
4
100
AcDbLine
 10
738.3310031534531
 20
344.5726302426727
 30
0.0
 11
738.3310031534531
 21
346.5726302426727
 31
0.0
  0
LINE
  5
123
330
19
100
AcDbEntity
  8
L-CENTER
 48
2.0
100
AcDbLine
 10
949.3310031534531
 20
215.6433887424176
 30
0.0
 11
949.3310031534531
 21
316.1019717429277
 31
0.0
  0
ARC
  5
124
330
19
100
AcDbEntity
  8
4
100
AcDbCircle
 10
873.3310031534531
 20
307.1715077426727
 30
0.0
 40
3.0
100
AcDbArc
 50
180.0
 51
270.0
  0
ARC
  5
125
330
19
100
AcDbEntity
  8
4
100
AcDbCircle
 10
873.3310031534531
 20
224.5738527426727
 30
0.0
 40
3.0
100
AcDbArc
 50
90.0
 51
180.0
  0
LINE
  5
126
330
19
100
AcDbEntity
  8
4
100
AcDbLine
 10
899.3310031534531
 20
210.8726802426727
 30
0.0
 11
819.3310031534531
 21
210.8726802426727
 31
0.0
  0
LINE
  5
127
330
19
100
AcDbEntity
  8
4
100
AcDbLine
 10
810.3310031534531
 20
211.8726802426727
 30
0.0
 11
908.3310031534531
 21
211.8726802426727
 31
0.0
  0
LINE
  5
128
330
19
100
AcDbEntity
  8
4
100
AcDbLine
 10
804.3310031534531
 20
218.8726802426727
 30
0.0
 11
936.3310031534531
 21
218.8726802426727
 31
0.0
  0
ARC
  5
129
330
19
100
AcDbEntity
  8
4
100
AcDbCircle
 10
804.3310031534531
 20
214.8726802426727
 30
0.0
 40
4.0
100
AcDbArc
 50
90.0
 51
180.0
  0
ARC
  5
12A
330
19
100
AcDbEntity
  8
4
100
AcDbCircle
 10
798.3310031534531
 20
208.8726802426727
 30
0.0
 40
2.0
100
AcDbArc
 50
0.0
 51
90.0
  0
ARC
  5
12B
330
19
100
AcDbEntity
  8
4
100
AcDbCircle
 10
808.3310031534531
 20
216.8726802426727
 30
0.0
 40
2.0
100
AcDbArc
 50
0.0
 51
90.0
  0
LINE
  5
12C
330
19
100
AcDbEntity
  8
4
100
AcDbLine
 10
810.3310031534531
 20
216.8726802426727
 30
0.0
 11
810.3310031534531
 21
211.8726802426727
 31
0.0
  0
LINE
  5
12D
330
19
100
AcDbEntity
  8
4
100
AcDbLine
 10
819.3310031534531
 20
210.8726802426727
 30
0.0
 11
819.3310031534531
 21
211.8726802426727
 31
0.0
  0
ARC
  5
12E
330
19
100
AcDbEntity
  8
4
100
AcDbCircle
 10
1107.331003153453
 20
265.8726802426727
 30
0.0
 40
200.000045
100
AcDbArc
 50
169.550171
 51
190.4506109999997
  0
ARC
  5
12F
330
19
100
AcDbEntity
  8
4
100
AcDbCircle
 10
913.5988256534531
 20
230.1405027426727
 30
0.0
 40
2.999965
100
AcDbArc
 50
190.451225
 51
259.5487749999976
  0
LINE
  5
130
330
19
100
AcDbEntity
  8
4
100
AcDbLine
 10
912.0456031534534
 20
227.5738527426727
 30
0.0
 11
873.3310031534531
 21
227.5738527426727
 31
0.0
  0
ARC
  5
131
330
19
100
AcDbEntity
  8
4
100
AcDbCircle
 10
890.3310031534531
 20
216.8726802426727
 30
0.0
 40
2.0
100
AcDbArc
 50
90.0
 51
180.0
  0
LINE
  5
132
330
19
100
AcDbEntity
  8
4
100
AcDbLine
 10
888.3310031534531
 20
216.8726802426727
 30
0.0
 11
888.3310031534531
 21
211.8726802426727
 31
0.0
  0
LINE
  5
133
330
19
100
AcDbEntity
  8
4
100
AcDbLine
 10
899.3310031534531
 20
210.8726802426727
 30
0.0
 11
899.3310031534531
 21
211.8726802426727
 31
0.0
  0
ARC
  5
134
330
19
100
AcDbEntity
  8
4
100
AcDbCircle
 10
910.3310031534531
 20
216.8726802426727
 30
0.0
 40
2.0
100
AcDbArc
 50
90.0
 51
180.0
  0
LINE
  5
135
330
19
100
AcDbEntity
  8
4
100
AcDbLine
 10
908.3310031534531
 20
216.8726802426727
 30
0.0
 11
908.3310031534531
 21
211.8726802426727
 31
0.0
  0
ARC
  5
136
330
19
100
AcDbEntity
  8
4
100
AcDbCircle
 10
936.3310031534531
 20
214.8726802426727
 30
0.0
 40
4.0
100
AcDbArc
 50
0.0
 51
90.0
  0
ARC
  5
137
330
19
100
AcDbEntity
  8
4
100
AcDbCircle
 10
942.3310031534531
 20
208.8726802426727
 30
0.0
 40
2.0
100
AcDbArc
 50
90.0
 51
180.0
  0
ARC
  5
138
330
19
100
AcDbEntity
  8
4
100
AcDbCircle
 10
913.5988256534531
 20
301.6048577426727
 30
0.0
 40
2.999965
100
AcDbArc
 50
100.4512250000024
 51
169.548775
  0
LINE
  5
139
330
19
100
AcDbEntity
  8
4
100
AcDbLine
 10
912.0456031534534
 20
304.1715077426727
 30
0.0
 11
873.3310031534531
 21
304.1715077426727
 31
0.0
  0
LINE
  5
13A
330
19
100
AcDbEntity
  8
4
100
AcDbLine
 10
945.8310031534531
 20
281.3726802426727
 30
0.0
 11
945.8310031534531
 21
274.3726802426726
 31
0.0
  0
LINE
  5
13C
330
19
100
AcDbEntity
  8
4
100
AcDbLine
 10
899.3310031534531
 20
357.5726302426727
 30
0.0
 11
819.3310031534531
 21
357.5726302426727
 31
0.0
  0
LINE
  5
13D
330
19
100
AcDbEntity
  8
4
100
AcDbLine
 10
810.3310031534531
 20
356.5726302426727
 30
0.0
 11
908.3310031534531
 21
356.5726302426727
 31
0.0
  0
LINE
  5
13F
330
19
100
AcDbEntity
  8
L-CENTER
 48
2.0
100
AcDbLine
 10
849.3310031534531
 20
206.2925067794355
 30
0.0
 11
849.3310031534531
 21
361.7265703716233
 31
0.0
  0
ARC
  5
140
330
19
100
AcDbEntity
  8
4
100
AcDbCircle
 10
807.3310031534531
 20
353.4368902426728
 30
0.0
 40
2.9999975
100
AcDbArc
 50
272.0660389999939
 51
0.0
  0
LINE
  5
141
330
19
100
AcDbEntity
  8
4
100
AcDbLine
 10
810.3310031534531
 20
356.5726302426727
 30
0.0
 11
810.3310031534531
 21
353.4368902426728
 31
0.0
  0
LINE
  5
142
330
19
100
AcDbEntity
  8
4
100
AcDbLine
 10
819.3310031534531
 20
356.5726302426727
 30
0.0
 11
819.3310031534531
 21
357.5726302426727
 31
0.0
  0
LINE
  5
143
330
19
100
AcDbEntity
  8
L-CENTER
 48
2.0
100
AcDbLine
 10
870.3310031534531
 20
361.7265703716233
 30
0.0
 11
870.3310031534531
 21
206.2925067794355
 31
0.0
  0
ARC
  5
146
330
19
100
AcDbEntity
  8
4
100
AcDbCircle
 10
891.3310031534531
 20
354.4464102426726
 30
0.0
 40
2.9999875
100
AcDbArc
 50
180.0
 51
269.3098880000011
  0
LINE
  5
147
330
19
100
AcDbEntity
  8
4
100
AcDbLine
 10
880.3310031534531
 20
356.5726302426727
 30
0.0
 11
880.3310031534531
 21
357.5726302426727
 31
0.0
  0
LINE
  5
148
330
19
100
AcDbEntity
  8
4
100
AcDbLine
 10
888.3310031534531
 20
356.5726302426727
 30
0.0
 11
888.3310031534531
 21
354.4464102426726
 31
0.0
  0
ARC
  5
149
330
19
100
AcDbEntity
  8
4
100
AcDbCircle
 10
911.3310031534531
 20
354.0679927426728
 30
0.0
 40
2.999945
100
AcDbArc
 50
180.0
 51
261.4663818739903
  0
LINE
  5
14A
330
19
100
AcDbEntity
  8
4
100
AcDbLine
 10
899.3310031534531
 20
356.5726302426727
 30
0.0
 11
899.3310031534531
 21
357.5726302426727
 31
0.0
  0
LINE
  5
14B
330
19
100
AcDbEntity
  8
4
100
AcDbLine
 10
908.3310031534531
 20
356.5726302426727
 30
0.0
 11
908.3310031534531
 21
354.0679927426728
 31
0.0
  0
ARC
  5
14C
330
19
100
AcDbEntity
  8
4
100
AcDbCircle
 10
919.3310031534531
 20
352.8853752426727
 30
0.0
 40
2.0000275
100
AcDbArc
 50
268.3911970000077
 51
0.0
  0
LINE
  5
14D
330
19
100
AcDbEntity
  8
4
100
AcDbLine
 10
921.3310031534531
 20
353.2078852426727
 30
0.0
 11
921.3310031534531
 21
352.8853752426727
 31
0.0
  0
LINE
  5
152
330
19
100
AcDbEntity
  8
4
100
AcDbLine
 10
1045.331003153453
 20
288.8726802426727
 30
0.0
 11
1045.331003153453
 21
318.8726802426727
 31
0.0
  0
LINE
  5
153
330
19
100
AcDbEntity
  8
4
100
AcDbLine
 10
1041.831003153453
 20
288.8726802426727
 30
0.0
 11
1041.831003153453
 21
318.8726802426727
 31
0.0
  0
LINE
  5
154
330
19
100
AcDbEntity
  8
4
100
AcDbLine
 10
1040.331003153453
 20
290.8726802426727
 30
0.0
 11
1040.331003153453
 21
319.8726802426727
 31
0.0
  0
LINE
  5
155
330
19
100
AcDbEntity
  8
4
100
AcDbLine
 10
1037.331003153453
 20
327.8726802426727
 30
0.0
 11
1037.331003153453
 21
221.8726802426727
 31
0.0
  0
ARC
  5
156
330
19
100
AcDbEntity
  8
4
100
AcDbCircle
 10
1027.831003153453
 20
214.8726802426727
 30
0.0
 40
4.0
100
AcDbArc
 50
90.0
 51
180.0
  0
ARC
  5
157
330
19
100
AcDbEntity
  8
4
100
AcDbCircle
 10
791.3310031534531
 20
265.8726802426727
 30
0.0
 40
200.000085
100
AcDbArc
 50
349.550458
 51
10.45025499999999
  0
ARC
  5
158
330
19
100
AcDbEntity
  8
4
100
AcDbCircle
 10
985.0631806534532
 20
230.1405027426727
 30
0.0
 40
2.999965
100
AcDbArc
 50
280.4512250000024
 51
349.5487749999976
  0
LINE
  5
159
330
19
100
AcDbEntity
  8
4
100
AcDbLine
 10
1023.831003153453
 20
214.8726802426727
 30
0.0
 11
1023.831003153453
 21
210.8726802426727
 31
0.0
  0
ARC
  5
15A
330
19
100
AcDbEntity
  8
4
100
AcDbCircle
 10
985.0631806534532
 20
301.6048577426727
 30
0.0
 40
2.999965
100
AcDbArc
 50
10.45122499999994
 51
79.54877499999759
  0
LINE
  5
15B
330
19
100
AcDbEntity
  8
4
100
AcDbLine
 10
952.8310031534531
 20
281.3726802426727
 30
0.0
 11
952.8310031534531
 21
274.3726802426726
 31
0.0
  0
LINE
  5
15C
330
19
100
AcDbEntity
  8
4
100
AcDbLine
 10
1039.331003153453
 20
221.8726802426727
 30
0.0
 11
1039.331003153453
 21
265.8726802426727
 31
0.0
  0
ARC
  5
15D
330
19
100
AcDbEntity
  8
4
100
AcDbCircle
 10
1036.331003153453
 20
221.8726802426727
 30
0.0
 40
3.0
100
AcDbArc
 50
270.0
 51
0.0
  0
ARC
  5
15E
330
19
100
AcDbEntity
  8
4
100
AcDbCircle
 10
1034.331003153453
 20
221.8726802426727
 30
0.0
 40
3.0
100
AcDbArc
 50
270.0
 51
0.0
  0
LINE
  5
15F
330
19
100
AcDbEntity
  8
4
100
AcDbLine
 10
1034.331003153453
 20
218.8726802426726
 30
0.0
 11
1036.331003153453
 21
218.8726802426727
 31
0.0
  0
ARC
  5
160
330
19
100
AcDbEntity
  8
4
100
AcDbCircle
 10
1032.331003153453
 20
207.8726802426727
 30
0.0
 40
3.0
100
AcDbArc
 50
0.0
 51
90.0
  0
LINE
  5
161
330
19
100
AcDbEntity
  8
4
100
AcDbLine
 10
1034.331003153453
 20
218.8726802426727
 30
0.0
 11
1027.831003153453
 21
218.8726802426727
 31
0.0
  0
LINE
  5
162
330
19
100
AcDbEntity
  8
4
100
AcDbLine
 10
1041.331003153453
 20
227.8726802426727
 30
0.0
 11
1041.331003153453
 21
243.8726802426727
 31
0.0
  0
LINE
  5
163
330
19
100
AcDbEntity
  8
4
100
AcDbLine
 10
1039.331003153453
 20
227.8726802426727
 30
0.0
 11
1041.331003153453
 21
227.8726802426727
 31
0.0
  0
LINE
  5
164
330
19
100
AcDbEntity
  8
L-CENTER
 48
2.0
100
AcDbLine
 10
1043.311608153453
 20
235.8726802426727
 30
0.0
 11
1022.785161601151
 21
235.8726802426727
 31
0.0
  0
LINE
  5
165
330
19
100
AcDbEntity
  8
4
100
AcDbLine
 10
1039.331003153453
 20
243.8726802426727
 30
0.0
 11
1041.331003153453
 21
243.8726802426727
 31
0.0
  0
LINE
  5
166
330
19
100
AcDbEntity
  8
4
100
AcDbLine
 10
1041.331003153453
 20
265.8726802426727
 30
0.0
 11
1041.331003153453
 21
290.8726802426727
 31
0.0
  0
LINE
  5
167
330
19
100
AcDbEntity
  8
4
100
AcDbLine
 10
1039.331003153453
 20
265.8726802426727
 30
0.0
 11
1041.331003153453
 21
265.8726802426727
 31
0.0
  0
LINE
  5
168
330
19
100
AcDbEntity
  8
L-CENTER
 48
2.0
100
AcDbLine
 10
1047.323435653453
 20
303.8726802426727
 30
0.0
 11
1022.120586747672
 21
303.8726802426727
 31
0.0
  0
LINE
  5
169
330
19
100
AcDbEntity
  8
4
100
AcDbLine
 10
1040.331003153453
 20
290.8726802426727
 30
0.0
 11
1041.331003153453
 21
290.8726802426727
 31
0.0
  0
LINE
  5
16A
330
19
100
AcDbEntity
  8
4
100
AcDbLine
 10
1045.331003153453
 20
288.8726802426727
 30
0.0
 11
1041.331003153453
 21
288.8726802426727
 31
0.0
  0
LINE
  5
16B
330
19
100
AcDbEntity
  8
4
100
AcDbLine
 10
1045.331003153453
 20
296.3726802426727
 30
0.0
 11
1041.831003153453
 21
296.3726802426727
 31
0.0
  0
ARC
  5
16C
330
19
100
AcDbEntity
  8
4
100
AcDbCircle
 10
959.3310031534531
 20
351.3040752426726
 30
0.0
 40
1.9999525
100
AcDbArc
 50
180.0
 51
267.082047000002
  0
LINE
  5
16D
330
19
100
AcDbEntity
  8
4
100
AcDbLine
 10
957.3310031534531
 20
353.2078852426727
 30
0.0
 11
957.3310031534531
 21
351.3040752426726
 31
0.0
  0
LINE
  5
16E
330
19
100
AcDbEntity
  8
4
100
AcDbLine
 10
1020.331003153453
 20
330.8726802426727
 30
0.0
 11
1020.331003153453
 21
344.5726302426727
 31
0.0
  0
ARC
  5
16F
330
19
100
AcDbEntity
  8
4
100
AcDbCircle
 10
870.3310031534531
 20
-1393.327269757327
 30
0.0
 40
1744.899895
100
AcDbArc
 50
85.661501
 51
85.74460953478504
  0
LINE
  5
170
330
19
100
AcDbEntity
  8
4
100
AcDbLine
 10
1002.331003153453
 20
344.5726302426727
 30
0.0
 11
1002.331003153453
 21
346.5726302426727
 31
0.0
  0
LINE
  5
171
330
19
100
AcDbEntity
  8
4
100
AcDbLine
 10
1045.331003153453
 20
318.8726802426727
 30
0.0
 11
1040.331003153453
 21
318.8726802426727
 31
0.0
  0
LINE
  5
172
330
19
100
AcDbEntity
  8
4
100
AcDbLine
 10
1037.331003153453
 20
319.8726802426727
 30
0.0
 11
1040.331003153453
 21
319.8726802426727
 31
0.0
  0
LINE
  5
173
330
19
100
AcDbEntity
  8
4
100
AcDbLine
 10
1041.831003153453
 20
311.3726802426727
 30
0.0
 11
1045.331003153453
 21
311.3726802426727
 31
0.0
  0
ARC
  5
174
330
19
100
AcDbEntity
  8
4
100
AcDbCircle
 10
1034.331003153453
 20
327.8726802426727
 30
0.0
 40
3.0
100
AcDbArc
 50
0.0
 51
90.0
  0
LINE
  5
175
330
19
100
AcDbEntity
  8
4
100
AcDbLine
 10
502.8790353833149
 20
689.5299261920491
 30
0.0
 11
502.8790353833149
 21
726.5299261920491
 31
0.0
  0
LINE
  5
176
330
19
100
AcDbEntity
  8
4
100
AcDbLine
 10
168.8790353833149
 20
689.5299261920491
 30
0.0
 11
168.8790353833149
 21
726.5299261920491
 31
0.0
  0
LINE
  5
177
330
19
100
AcDbEntity
  8
L-CENTER
 48
2.0
100
AcDbLine
 10
295.3430353833148
 20
621.6736751686999
 30
0.0
 11
295.3430353833148
 21
735.3861772153982
 31
0.0
  0
LINE
  5
178
330
19
100
AcDbEntity
  8
L-CENTER
 48
2.0
100
AcDbLine
 10
402.8790353833149
 20
618.9347493826417
 30
0.0
 11
402.8790353833149
 21
718.1251030014562
 31
0.0
  0
LINE
  5
179
330
19
100
AcDbEntity
  8
L-CENTER
 48
2.0
100
AcDbLine
 10
335.8790353833149
 20
512.586396361969
 30
0.0
 11
335.8790353833149
 21
876.1245447862491
 31
0.0
  0
CIRCLE
  5
17A
330
19
100
AcDbEntity
  8
4
100
AcDbCircle
 10
335.8790353833149
 20
689.5299261920491
 30
0.0
 40
150.0
  0
CIRCLE
  5
17B
330
19
100
AcDbEntity
  8
4
100
AcDbCircle
 10
335.8790353833149
 20
689.5299261920491
 30
0.0
 40
167.0
  0
LINE
  5
17C
330
19
100
AcDbEntity
  8
L-CENTER
 48
2.0
100
AcDbLine
 10
452.474212192722
 20
668.5299261920491
 30
0.0
 11
353.2838585739078
 21
668.5299261920491
 31
0.0
  0
CIRCLE
  5
17D
330
19
100
AcDbEntity
  8
4
100
AcDbCircle
 10
208.3790353833149
 20
544.5299261920491
 30
0.0
 40
9.0
  0
LINE
  5
17E
330
19
100
AcDbEntity
  8
L-CENTER
 48
2.0
100
AcDbLine
 10
208.3790353833149
 20
528.7115116956534
 30
0.0
 11
208.3790353833149
 21
561.1440490880586
 31
0.0
  0
LINE
  5
17F
330
19
100
AcDbEntity
  8
4
100
AcDbLine
 10
178.3790353833149
 20
527.5299261920491
 30
0.0
 11
178.3790353833149
 21
616.5299261920491
 31
0.0
  0
LINE
  5
180
330
19
100
AcDbEntity
  8
4
100
AcDbLine
 10
246.3516130748687
 20
524.5299261920488
 30
0.0
 11
181.3790353833149
 21
524.5299261920491
 31
0.0
  0
ARC
  5
181
330
19
100
AcDbEntity
  8
4
100
AcDbCircle
 10
181.3790353833149
 20
527.5299261920491
 30
0.0
 40
3.0
100
AcDbArc
 50
180.0
 51
270.0
  0
LINE
  5
182
330
19
100
AcDbEntity
  8
4
100
AcDbLine
 10
263.3790353833149
 20
539.0880769611917
 30
0.0
 11
249.8339070967074
 21
525.9419423089378
 31
0.0
  0
ARC
  5
183
330
19
100
AcDbEntity
  8
4
100
AcDbCircle
 10
246.3516130748687
 20
529.5299261920488
 30
0.0
 40
5.0
100
AcDbArc
 50
270.0
 51
314.1435793505946
  0
LINE
  5
184
330
19
100
AcDbEntity
  8
L-CENTER
 48
2.0
100
AcDbLine
 10
352.199286406664
 20
678.5299261920491
 30
0.0
 11
238.4867843599657
 21
678.5299261920491
 31
0.0
  0
ARC
  5
185
330
19
100
AcDbEntity
  8
4
100
AcDbCircle
 10
181.3790353833149
 20
616.5299261920491
 30
0.0
 40
3.0
100
AcDbArc
 50
90.0
 51
180.0
  0
LINE
  5
186
330
19
100
AcDbEntity
  8
L-CENTER
 48
2.0
100
AcDbLine
 10
227.4174553688229
 20
544.5299261920491
 30
0.0
 11
190.325331844346
 21
544.5299261920491
 31
0.0
  0
LINE
  5
187
330
19
100
AcDbEntity
  8
4
100
AcDbLine
 10
184.2577967655013
 20
619.5299261920491
 30
0.0
 11
181.3790353833149
 21
619.5299261920491
 31
0.0
  0
LINE
  5
188
330
19
100
AcDbEntity
  8
L-CENTER
 48
2.0
100
AcDbLine
 10
463.3790353833149
 20
528.7115116956534
 30
0.0
 11
463.3790353833149
 21
561.1440490880586
 31
0.0
  0
LINE
  5
189
330
19
100
AcDbEntity
  8
4
100
AcDbLine
 10
493.3790353833149
 20
527.5299261920488
 30
0.0
 11
493.3790353833149
 21
616.5299261920491
 31
0.0
  0
CIRCLE
  5
18A
330
19
100
AcDbEntity
  8
4
100
AcDbCircle
 10
463.3790353833149
 20
544.5299261920491
 30
0.0
 40
9.0
  0
LINE
  5
18B
330
19
100
AcDbEntity
  8
4
100
AcDbLine
 10
490.3790353833149
 20
524.5299261920488
 30
0.0
 11
425.406457691761
 21
524.5299261920491
 31
0.0
  0
LINE
  5
18C
330
19
100
AcDbEntity
  8
4
100
AcDbLine
 10
408.3790353833149
 20
539.0880769611917
 30
0.0
 11
421.9241636699223
 21
525.941942308938
 31
0.0
  0
ARC
  5
18D
330
19
100
AcDbEntity
  8
4
100
AcDbCircle
 10
425.406457691761
 20
529.5299261920491
 30
0.0
 40
5.0
100
AcDbArc
 50
225.8564206494054
 51
270.0
  0
ARC
  5
18E
330
19
100
AcDbEntity
  8
4
100
AcDbCircle
 10
490.3790353833149
 20
527.5299261920488
 30
0.0
 40
3.0
100
AcDbArc
 50
270.0
 51
0.0
  0
LINE
  5
18F
330
19
100
AcDbEntity
  8
L-CENTER
 48
2.0
100
AcDbLine
 10
444.3406153978069
 20
544.5299261920491
 30
0.0
 11
481.4327389222838
 21
544.5299261920491
 31
0.0
  0
ARC
  5
190
330
19
100
AcDbEntity
  8
4
100
AcDbCircle
 10
490.3790353833149
 20
616.5299261920491
 30
0.0
 40
3.0
100
AcDbArc
 50
0.0
 51
90.0
  0
LINE
  5
191
330
19
100
AcDbEntity
  8
4
100
AcDbLine
 10
490.3790353833149
 20
619.5299261920491
 30
0.0
 11
487.5002740011284
 21
619.5299261920491
 31
0.0
  0
LINE
  5
192
330
19
100
AcDbEntity
  8
4
100
AcDbLine
 10
319.8790353833149
 20
860.5299261920488
 30
0.0
 11
351.8790353833153
 21
860.5299261920488
 31
0.0
  0
LINE
  5
193
330
19
100
AcDbEntity
  8
4
100
AcDbLine
 10
319.8790353833149
 20
859.5299261920488
 30
0.0
 11
351.8790353833153
 21
859.5299261920491
 31
0.0
  0
LINE
  5
194
330
19
100
AcDbEntity
  8
L-CENTER
 48
2.0
100
AcDbLine
 10
100.7625153502029
 20
768.5299261920491
 30
0.0
 11
570.9955554164269
 21
768.5299261920491
 31
0.0
  0
CIRCLE
  5
195
330
19
100
AcDbEntity
  8
4
100
AcDbCircle
 10
208.3790353833149
 20
834.5299261920488
 30
0.0
 40
9.0
  0
LINE
  5
196
330
19
100
AcDbEntity
  8
4
100
AcDbLine
 10
178.3790353833153
 20
810.5299261920488
 30
0.0
 11
178.3790353833149
 21
851.5299261920488
 31
0.0
  0
LINE
  5
197
330
19
100
AcDbEntity
  8
L-CENTER
 48
2.0
100
AcDbLine
 10
208.3790353833144
 20
817.9567920904185
 30
0.0
 11
208.3790353833149
 21
850.3893294828242
 31
0.0
  0
LINE
  5
198
330
19
100
AcDbEntity
  8
4
100
AcDbLine
 10
162.8790353833149
 20
810.5299261920488
 30
0.0
 11
162.8790353833153
 21
726.5299261920491
 31
0.0
  0
LINE
  5
199
330
19
100
AcDbEntity
  8
4
100
AcDbLine
 10
173.0294114967367
 20
726.5299261920491
 30
0.0
 11
162.8790353833153
 21
726.5299261920491
 31
0.0
  0
LINE
  5
19A
330
19
100
AcDbEntity
  8
4
100
AcDbLine
 10
220.7790788238096
 20
810.5299261920491
 30
0.0
 11
162.8790353833149
 21
810.5299261920488
 31
0.0
  0
LINE
  5
19B
330
19
100
AcDbEntity
  8
L-CENTER
 48
2.0
100
AcDbLine
 10
225.4303783891976
 20
834.5299261920488
 30
0.0
 11
190.325331844346
 21
834.5299261920488
 31
0.0
  0
LINE
  5
19C
330
19
100
AcDbEntity
  8
4
100
AcDbLine
 10
246.3516130748692
 20
854.5299261920488
 30
0.0
 11
181.3790353833149
 21
854.5299261920488
 31
0.0
  0
ARC
  5
19D
330
19
100
AcDbEntity
  8
4
100
AcDbCircle
 10
181.3790353833149
 20
851.5299261920488
 30
0.0
 40
3.0
100
AcDbArc
 50
90.0
 51
180.0
  0
LINE
  5
19E
330
19
100
AcDbEntity
  8
4
100
AcDbLine
 10
263.3790353833149
 20
839.9717754229061
 30
0.0
 11
249.8339070967079
 21
853.1179100751599
 31
0.0
  0
ARC
  5
19F
330
19
100
AcDbEntity
  8
4
100
AcDbCircle
 10
246.3516130748692
 20
849.5299261920488
 30
0.0
 40
5.0
100
AcDbArc
 50
45.85642064940539
 51
90.0
  0
LINE
  5
1A0
330
19
100
AcDbEntity
  8
4
100
AcDbLine
 10
319.8790353833149
 20
855.761692109397
 30
0.0
 11
319.8790353833149
 21
860.5299261920488
 31
0.0
  0
LINE
  5
1A1
330
19
100
AcDbEntity
  8
4
100
AcDbLine
 10
346.8790353833149
 20
856.1672569435946
 30
0.0
 11
346.8790353833149
 21
859.5299261920488
 31
0.0
  0
LINE
  5
1A2
330
19
100
AcDbEntity
  8
4
100
AcDbLine
 10
324.8790353833149
 20
856.1672569435946
 30
0.0
 11
324.8790353833149
 21
859.5299261920488
 31
0.0
  0
LINE
  5
1A3
330
19
100
AcDbEntity
  8
L-CENTER
 48
2.0
100
AcDbLine
 10
463.3790353833153
 20
817.9567920904185
 30
0.0
 11
463.3790353833149
 21
850.3893294828242
 31
0.0
  0
LINE
  5
1A4
330
19
100
AcDbEntity
  8
4
100
AcDbLine
 10
493.3790353833153
 20
810.5299261920488
 30
0.0
 11
493.3790353833149
 21
851.5299261920488
 31
0.0
  0
CIRCLE
  5
1A5
330
19
100
AcDbEntity
  8
4
100
AcDbCircle
 10
463.3790353833149
 20
834.5299261920488
 30
0.0
 40
9.0
  0
LINE
  5
1A6
330
19
100
AcDbEntity
  8
L-CENTER
 48
2.0
100
AcDbLine
 10
446.3276923774322
 20
834.5299261920488
 30
0.0
 11
481.4327389222838
 21
834.5299261920488
 31
0.0
  0
LINE
  5
1A7
330
19
100
AcDbEntity
  8
4
100
AcDbLine
 10
450.9789919428201
 20
810.5299261920491
 30
0.0
 11
508.8790353833149
 21
810.5299261920488
 31
0.0
  0
LINE
  5
1A8
330
19
100
AcDbEntity
  8
4
100
AcDbLine
 10
508.8790353833149
 20
810.5299261920488
 30
0.0
 11
508.8790353833144
 21
726.5299261920491
 31
0.0
  0
LINE
  5
1A9
330
19
100
AcDbEntity
  8
4
100
AcDbLine
 10
498.7286592698931
 20
726.5299261920491
 30
0.0
 11
508.8790353833144
 21
726.5299261920491
 31
0.0
  0
LINE
  5
1AA
330
19
100
AcDbEntity
  8
4
100
AcDbLine
 10
490.3790353833149
 20
854.5299261920488
 30
0.0
 11
425.406457691761
 21
854.5299261920491
 31
0.0
  0
LINE
  5
1AB
330
19
100
AcDbEntity
  8
4
100
AcDbLine
 10
408.3790353833149
 20
839.9717754229061
 30
0.0
 11
421.9241636699219
 21
853.1179100751601
 31
0.0
  0
LINE
  5
1AC
330
19
100
AcDbEntity
  8
4
100
AcDbLine
 10
351.8790353833149
 20
855.761692109397
 30
0.0
 11
351.8790353833149
 21
860.5299261920488
 31
0.0
  0
ARC
  5
1AD
330
19
100
AcDbEntity
  8
4
100
AcDbCircle
 10
425.406457691761
 20
849.5299261920491
 30
0.0
 40
5.0
100
AcDbArc
 50
90.0
 51
134.1435793505946
  0
ARC
  5
1AE
330
19
100
AcDbEntity
  8
4
100
AcDbCircle
 10
490.3790353833149
 20
851.5299261920488
 30
0.0
 40
3.0
100
AcDbArc
 50
0.0
 51
90.0
  0
ARC
  5
1AF
330
19
100
AcDbEntity
  8
4
100
AcDbCircle
 10
335.8790353833147
 20
296.5299261920488
 30
0.0
 40
450.0
100
AcDbArc
 50
73.72418214356303
 51
88.31403983653507
  0
ARC
  5
1B0
330
19
100
AcDbEntity
  8
4
100
AcDbCircle
 10
335.8790353833149
 20
1060.529926192049
 30
0.0
 40
450.0
100
AcDbArc
 50
255.1294095303705
 51
268.3140398365354
  0
ARC
  5
1B1
330
19
100
AcDbEntity
  8
4
100
AcDbCircle
 10
335.8790353833149
 20
1060.529926192049
 30
0.0
 40
450.0
100
AcDbArc
 50
271.6859601634647
 51
284.8705904696295
  0
CIRCLE
  5
1B2
330
19
100
AcDbEntity
  8
4
100
AcDbCircle
 10
402.8790353833147
 20
668.5299261920491
 30
0.0
 40
31.0
  0
CIRCLE
  5
1B3
330
19
100
AcDbEntity
  8
4
100
AcDbCircle
 10
402.8790353833147
 20
668.5299261920491
 30
0.0
 40
39.0
  0
CIRCLE
  5
1B4
330
19
100
AcDbEntity
  8
4
100
AcDbCircle
 10
335.8790353833149
 20
689.5299261920491
 30
0.0
 40
132.0
  0
CIRCLE
  5
1B5
330
19
100
AcDbEntity
  8
L-CENTER
 48
2.0
100
AcDbCircle
 10
335.8790353833151
 20
689.5299261920491
 30
0.0
 40
142.0
  0
LINE
  5
1B6
330
19
100
AcDbEntity
  8
L-CENTER
 48
2.0
100
AcDbLine
 10
272.3790353833147
 20
579.5446999114251
 30
0.0
 11
257.3790353833151
 21
553.5639377978923
 31
0.0
  0
CIRCLE
  5
1B7
330
19
100
AcDbEntity
  8
4
100
AcDbCircle
 10
295.3429949131544
 20
678.5299261920491
 30
0.0
 40
40.0
  0
CIRCLE
  5
1B8
330
19
100
AcDbEntity
  8
4
100
AcDbCircle
 10
295.3429949131544
 20
678.5299261920491
 30
0.0
 40
49.0
  0
ARC
  5
1B9
330
19
100
AcDbEntity
  8
4
100
AcDbCircle
 10
335.8790353833147
 20
296.5299261920488
 30
0.0
 40
450.0
100
AcDbArc
 50
91.6859601634648
 51
106.2758178564369
  0
CIRCLE
  5
1BA
330
19
100
AcDbEntity
  8
4
100
AcDbCircle
 10
335.8790353833151
 20
758.5299261920491
 30
0.0
 40
18.0
  0
LINE
  5
1BB
330
19
100
AcDbEntity
  8
L-CENTER
 48
2.0
100
AcDbLine
 10
512.8225652133949
 20
689.5299261920491
 30
0.0
 11
158.9355055532351
 21
689.5299261920491
 31
0.0
  0
LINE
  5
1BC
330
19
100
AcDbEntity
  8
L-CENTER
 48
2.0
100
AcDbLine
 10
747.355395816063
 20
357.9340382605916
 30
0.0
 11
747.355395816063
 21
323.25402664479
 31
0.0
  0
LINE
  5
1BD
330
19
100
AcDbEntity
  8
L-CENTER
 48
2.0
100
AcDbLine
 10
193.8790353833151
 20
357.9340382605916
 30
0.0
 11
193.8790353833151
 21
323.25402664479
 31
0.0
  0
LINE
  5
1BE
330
19
100
AcDbEntity
  8
L-CENTER
 48
2.0
100
AcDbLine
 10
264.8790353833151
 20
357.9340382605916
 30
0.0
 11
264.8790353833151
 21
323.25402664479
 31
0.0
  0
LINE
  5
1BF
330
19
100
AcDbEntity
  8
4
100
AcDbLine
 10
740.105395816063
 20
346.5726302426727
 30
0.0
 11
738.3310031534531
 21
346.5726302426727
 31
0.0
  0
LINE
  5
1C5
330
19
100
AcDbEntity
  8
4
100
AcDbLine
 10
348.8694164400815
 20
869.0299261920488
 30
0.0
 11
322.8886543265482
 21
869.0299261920488
 31
0.0
  0
LINE
  5
1C6
330
19
100
AcDbEntity
  8
4
100
AcDbLine
 10
349.8790353833149
 20
860.5299261920488
 30
0.0
 11
321.8790353833149
 21
860.5299261920488
 31
0.0
  0
LINE
  5
1C7
330
19
100
AcDbEntity
  8
4
100
AcDbLine
 10
350.8790353833149
 20
864.0299261920488
 30
0.0
 11
320.8790353833149
 21
864.0299261920488
 31
0.0
  0
LINE
  5
1C8
330
19
100
AcDbEntity
  8
4
100
AcDbLine
 10
350.8790353833149
 20
862.0299261920488
 30
0.0
 11
320.8790353833149
 21
862.0299261920488
 31
0.0
  0
LINE
  5
1C9
330
19
100
AcDbEntity
  8
4
100
AcDbLine
 10
350.8790353833149
 20
862.0299261920488
 30
0.0
 11
350.8790353833149
 21
864.0299261920488
 31
0.0
  0
LINE
  5
1CA
330
19
100
AcDbEntity
  8
4
100
AcDbLine
 10
349.8790353833149
 20
862.0299261920488
 30
0.0
 11
349.8790353833149
 21
860.5299261920488
 31
0.0
  0
LINE
  5
1CB
330
19
100
AcDbEntity
  8
4
100
AcDbLine
 10
348.8694164400815
 20
869.0299261920488
 30
0.0
 11
348.8694164400815
 21
864.0299261920488
 31
0.0
  0
LINE
  5
1CC
330
19
100
AcDbEntity
  8
4
100
AcDbLine
 10
320.8790353833149
 20
864.0299261920488
 30
0.0
 11
320.8790353833149
 21
862.0299261920488
 31
0.0
  0
LINE
  5
1CD
330
19
100
AcDbEntity
  8
4
100
AcDbLine
 10
321.8790353833149
 20
862.0299261920488
 30
0.0
 11
321.8790353833149
 21
860.5299261920488
 31
0.0
  0
LINE
  5
1CE
330
19
100
AcDbEntity
  8
4
100
AcDbLine
 10
322.8886543265482
 20
869.0299261920488
 30
0.0
 11
322.8886543265482
 21
864.0299261920488
 31
0.0
  0
LINE
  5
1CF
330
19
100
AcDbEntity
  8
4
100
AcDbLine
 10
161.8790353833149
 20
799.5299261920488
 30
0.0
 11
161.8790353833149
 21
737.5299261920491
 31
0.0
  0
LINE
  5
1D0
330
19
100
AcDbEntity
  8
4
100
AcDbLine
 10
162.8790353833149
 20
737.5299261920491
 30
0.0
 11
161.8790353833149
 21
737.5299261920491
 31
0.0
  0
LINE
  5
1D1
330
19
100
AcDbEntity
  8
4
100
AcDbLine
 10
162.8790353833149
 20
799.5299261920488
 30
0.0
 11
161.8790353833149
 21
799.5299261920488
 31
0.0
  0
LINE
  5
1D2
330
19
100
AcDbEntity
  8
4
100
AcDbLine
 10
509.8790353833149
 20
799.5299261920488
 30
0.0
 11
509.8790353833149
 21
737.5299261920491
 31
0.0
  0
LINE
  5
1D3
330
19
100
AcDbEntity
  8
4
100
AcDbLine
 10
509.8790353833149
 20
737.5299261920491
 30
0.0
 11
508.8790353833149
 21
737.5299261920491
 31
0.0
  0
LINE
  5
1D4
330
19
100
AcDbEntity
  8
4
100
AcDbLine
 10
509.8790353833149
 20
799.5299261920488
 30
0.0
 11
508.8790353833149
 21
799.5299261920488
 31
0.0
  0
LINE
  5
1D5
330
19
100
AcDbEntity
  8
4
100
AcDbLine
 10
567.8790353833149
 20
765.0299261920491
 30
0.0
 11
526.3525971011506
 21
765.0299261920491
 31
0.0
  0
LINE
  5
1D6
330
19
100
AcDbEntity
  8
4
100
AcDbLine
 10
567.8790353833149
 20
772.0299261920491
 30
0.0
 11
526.3525971011506
 21
772.0299261920491
 31
0.0
  0
LINE
  5
1D7
330
19
100
AcDbEntity
  8
4
100
AcDbLine
 10
518.8525971011506
 20
781.0299261920488
 30
0.0
 11
566.8754044862537
 21
781.0299261920488
 31
0.0
  0
LINE
  5
1D8
330
19
100
AcDbEntity
  8
4
100
AcDbLine
 10
518.8525971011506
 20
756.0299261920491
 30
0.0
 11
566.8790353833149
 21
756.0299261920491
 31
0.0
  0
ARC
  5
1D9
330
19
100
AcDbEntity
  8
4
100
AcDbCircle
 10
518.8525971011506
 20
782.0299261920488
 30
0.0
 40
1.0
100
AcDbArc
 50
180.0
 51
270.0
  0
LINE
  5
1DA
330
19
100
AcDbEntity
  8
4
100
AcDbLine
 10
522.8525971011506
 20
768.5299261920491
 30
0.0
 11
522.8525971011506
 21
768.5299261920491
 31
0.0
  0
ARC
  5
1DB
330
19
100
AcDbEntity
  8
4
100
AcDbCircle
 10
526.3525971011506
 20
768.5299261920491
 30
0.0
 40
3.5
100
AcDbArc
 50
180.0
 51
270.0
  0
ARC
  5
1DC
330
19
100
AcDbEntity
  8
4
100
AcDbCircle
 10
526.3525971011506
 20
768.5299261920491
 30
0.0
 40
3.5
100
AcDbArc
 50
90.0
 51
180.0
  0
ARC
  5
1DD
330
19
100
AcDbEntity
  8
4
100
AcDbCircle
 10
518.8525971011506
 20
755.0299261920491
 30
0.0
 40
1.0
100
AcDbArc
 50
90.0
 51
180.0
  0
LINE
  5
1DE
330
19
100
AcDbEntity
  8
4
100
AcDbLine
 10
517.8525971011506
 20
783.5299261920488
 30
0.0
 11
517.8525971011506
 21
753.5299261920491
 31
0.0
  0
LINE
  5
1DF
330
19
100
AcDbEntity
  8
4
100
AcDbLine
 10
566.8754044862537
 20
781.0299261920488
 30
0.0
 11
567.8790353833149
 21
780.0262952949879
 31
0.0
  0
LINE
  5
1E0
330
19
100
AcDbEntity
  8
4
100
AcDbLine
 10
567.8790353833149
 20
757.0262952949879
 30
0.0
 11
566.8826662803765
 21
756.0299261920491
 31
0.0
  0
LINE
  5
1E1
330
19
100
AcDbEntity
  8
4
100
AcDbLine
 10
566.8790353833149
 20
765.0299261920491
 30
0.0
 11
566.8790353833149
 21
756.0299261920491
 31
0.0
  0
LINE
  5
1E2
330
19
100
AcDbEntity
  8
4
100
AcDbLine
 10
566.8790353833149
 20
781.0262952949881
 30
0.0
 11
566.8790353833149
 21
772.0299261920491
 31
0.0
  0
LINE
  5
1E3
330
19
100
AcDbEntity
  8
4
100
AcDbLine
 10
567.8790353833149
 20
780.0262952949879
 30
0.0
 11
567.8790353833149
 21
757.0262952949879
 31
0.0
  0
LINE
  5
1E4
330
19
100
AcDbEntity
  8
4
100
AcDbLine
 10
517.8525971011506
 20
783.5299261920488
 30
0.0
 11
509.8790353833149
 21
783.5299261920488
 31
0.0
  0
LINE
  5
1E5
330
19
100
AcDbEntity
  8
4
100
AcDbLine
 10
517.8525971011506
 20
753.5299261920491
 30
0.0
 11
509.8790353833149
 21
753.5299261920491
 31
0.0
  0
CIRCLE
  5
1E6
330
19
100
AcDbEntity
  8
4
100
AcDbCircle
 10
193.8790353833151
 20
689.5299261920488
 30
0.0
 40
6.5
  0
CIRCLE
  5
1E7
330
19
100
AcDbEntity
  8
4
100
AcDbCircle
 10
193.8790353833151
 20
689.5299261920488
 30
0.0
 40
7.25
  0
LINE
  5
1E8
330
19
100
AcDbEntity
  8
2
100
AcDbLine
 10
192.146984575746
 20
692.5299261920488
 30
0.0
 11
190.4149337681772
 21
689.5299261920488
 31
0.0
  0
LINE
  5
1E9
330
19
100
AcDbEntity
  8
2
100
AcDbLine
 10
197.3431369984526
 20
689.5299261920486
 30
0.0
 11
195.611086190884
 21
686.5299261920491
 31
0.0
  0
LINE
  5
1EA
330
19
100
AcDbEntity
  8
2
100
AcDbLine
 10
195.6110861908837
 20
692.5299261920486
 30
0.0
 11
192.146984575746
 21
692.5299261920488
 31
0.0
  0
LINE
  5
1EB
330
19
100
AcDbEntity
  8
2
100
AcDbLine
 10
195.611086190884
 20
686.5299261920491
 30
0.0
 11
192.146984575746
 21
686.5299261920488
 31
0.0
  0
LINE
  5
1EC
330
19
100
AcDbEntity
  8
2
100
AcDbLine
 10
192.146984575746
 20
686.5299261920488
 30
0.0
 11
190.4149337681772
 21
689.5299261920488
 31
0.0
  0
LINE
  5
1ED
330
19
100
AcDbEntity
  8
2
100
AcDbLine
 10
197.3431369984526
 20
689.5299261920486
 30
0.0
 11
195.6110861908837
 21
692.5299261920486
 31
0.0
  0
LINE
  5
1EE
330
19
100
AcDbEntity
  8
2
100
AcDbLine
 10
268.3431369984526
 20
566.554318854659
 30
0.0
 11
266.6110861908835
 21
569.554318854659
 31
0.0
  0
LINE
  5
1EF
330
19
100
AcDbEntity
  8
2
100
AcDbLine
 10
268.3431369984526
 20
566.554318854659
 30
0.0
 11
266.6110861908837
 21
563.5543188546592
 31
0.0
  0
CIRCLE
  5
1F0
330
19
100
AcDbEntity
  8
4
100
AcDbCircle
 10
264.8790353833151
 20
566.554318854659
 30
0.0
 40
7.25
  0
CIRCLE
  5
1F1
330
19
100
AcDbEntity
  8
4
100
AcDbCircle
 10
264.8790353833151
 20
566.554318854659
 30
0.0
 40
6.5
  0
LINE
  5
1F2
330
19
100
AcDbEntity
  8
2
100
AcDbLine
 10
266.6110861908835
 20
569.554318854659
 30
0.0
 11
263.146984575746
 21
569.554318854659
 31
0.0
  0
LINE
  5
1F3
330
19
100
AcDbEntity
  8
2
100
AcDbLine
 10
263.146984575746
 20
569.554318854659
 30
0.0
 11
261.414933768177
 21
566.554318854659
 31
0.0
  0
LINE
  5
1F4
330
19
100
AcDbEntity
  8
2
100
AcDbLine
 10
263.1469845757458
 20
563.554318854659
 30
0.0
 11
261.414933768177
 21
566.554318854659
 31
0.0
  0
LINE
  5
1F5
330
19
100
AcDbEntity
  8
2
100
AcDbLine
 10
266.6110861908837
 20
563.5543188546592
 30
0.0
 11
263.1469845757458
 21
563.554318854659
 31
0.0
  0
LINE
  5
1F6
330
19
100
AcDbEntity
  8
2
100
AcDbLine
 10
474.414933768177
 20
689.5299261920486
 30
0.0
 11
476.146984575746
 21
692.5299261920486
 31
0.0
  0
LINE
  5
1F7
330
19
100
AcDbEntity
  8
2
100
AcDbLine
 10
474.414933768177
 20
689.5299261920486
 30
0.0
 11
476.1469845757458
 21
686.5299261920491
 31
0.0
  0
CIRCLE
  5
1F8
330
19
100
AcDbEntity
  8
4
100
AcDbCircle
 10
477.8790353833147
 20
689.5299261920488
 30
0.0
 40
7.25
  0
CIRCLE
  5
1F9
330
19
100
AcDbEntity
  8
4
100
AcDbCircle
 10
477.8790353833147
 20
689.5299261920488
 30
0.0
 40
6.5
  0
LINE
  5
1FA
330
19
100
AcDbEntity
  8
2
100
AcDbLine
 10
476.146984575746
 20
692.5299261920486
 30
0.0
 11
479.6110861908837
 21
692.5299261920488
 31
0.0
  0
LINE
  5
1FB
330
19
100
AcDbEntity
  8
2
100
AcDbLine
 10
479.6110861908837
 20
692.5299261920488
 30
0.0
 11
481.3431369984526
 21
689.5299261920488
 31
0.0
  0
LINE
  5
1FC
330
19
100
AcDbEntity
  8
2
100
AcDbLine
 10
479.6110861908837
 20
686.5299261920488
 30
0.0
 11
481.3431369984526
 21
689.5299261920488
 31
0.0
  0
LINE
  5
1FD
330
19
100
AcDbEntity
  8
2
100
AcDbLine
 10
476.1469845757458
 20
686.5299261920491
 30
0.0
 11
479.6110861908837
 21
686.5299261920488
 31
0.0
  0
LINE
  5
1FE
330
19
100
AcDbEntity
  8
2
100
AcDbLine
 10
405.146984575746
 20
563.5543188546592
 30
0.0
 11
408.611086190884
 21
563.554318854659
 31
0.0
  0
LINE
  5
1FF
330
19
100
AcDbEntity
  8
2
100
AcDbLine
 10
405.1469845757463
 20
569.554318854659
 30
0.0
 11
408.6110861908837
 21
569.554318854659
 31
0.0
  0
CIRCLE
  5
200
330
19
100
AcDbEntity
  8
4
100
AcDbCircle
 10
406.8790353833147
 20
566.554318854659
 30
0.0
 40
6.5
  0
CIRCLE
  5
201
330
19
100
AcDbEntity
  8
4
100
AcDbCircle
 10
406.8790353833147
 20
566.554318854659
 30
0.0
 40
7.25
  0
LINE
  5
202
330
19
100
AcDbEntity
  8
L-CENTER
 48
2.0
100
AcDbLine
 10
399.3790353833151
 20
579.5446999114251
 30
0.0
 11
414.3790353833147
 21
553.5639377978923
 31
0.0
  0
LINE
  5
203
330
19
100
AcDbEntity
  8
2
100
AcDbLine
 10
408.611086190884
 20
563.554318854659
 30
0.0
 11
410.3431369984528
 21
566.554318854659
 31
0.0
  0
LINE
  5
204
330
19
100
AcDbEntity
  8
2
100
AcDbLine
 10
408.6110861908837
 20
569.554318854659
 30
0.0
 11
410.3431369984528
 21
566.554318854659
 31
0.0
  0
LINE
  5
205
330
19
100
AcDbEntity
  8
2
100
AcDbLine
 10
403.4149337681772
 20
566.554318854659
 30
0.0
 11
405.146984575746
 21
563.5543188546592
 31
0.0
  0
LINE
  5
206
330
19
100
AcDbEntity
  8
2
100
AcDbLine
 10
403.4149337681772
 20
566.554318854659
 30
0.0
 11
405.1469845757463
 21
569.554318854659
 31
0.0
  0
LINE
  5
207
330
19
100
AcDbEntity
  8
2
100
AcDbLine
 10
266.6110861908837
 20
815.5055335294387
 30
0.0
 11
263.1469845757458
 21
815.5055335294389
 31
0.0
  0
LINE
  5
208
330
19
100
AcDbEntity
  8
2
100
AcDbLine
 10
266.6110861908835
 20
809.5055335294389
 30
0.0
 11
263.146984575746
 21
809.5055335294389
 31
0.0
  0
CIRCLE
  5
209
330
19
100
AcDbEntity
  8
4
100
AcDbCircle
 10
264.8790353833151
 20
812.5055335294389
 30
0.0
 40
6.5
  0
CIRCLE
  5
20A
330
19
100
AcDbEntity
  8
4
100
AcDbCircle
 10
264.8790353833151
 20
812.5055335294389
 30
0.0
 40
7.25
  0
LINE
  5
20B
330
19
100
AcDbEntity
  8
L-CENTER
 48
2.0
100
AcDbLine
 10
272.3790353833147
 20
799.5151524726728
 30
0.0
 11
257.3790353833151
 21
825.4959145862056
 31
0.0
  0
LINE
  5
20C
330
19
100
AcDbEntity
  8
2
100
AcDbLine
 10
263.1469845757458
 20
815.5055335294389
 30
0.0
 11
261.414933768177
 21
812.5055335294389
 31
0.0
  0
LINE
  5
20D
330
19
100
AcDbEntity
  8
2
100
AcDbLine
 10
263.146984575746
 20
809.5055335294389
 30
0.0
 11
261.414933768177
 21
812.5055335294389
 31
0.0
  0
LINE
  5
20E
330
19
100
AcDbEntity
  8
2
100
AcDbLine
 10
268.3431369984526
 20
812.5055335294389
 30
0.0
 11
266.6110861908837
 21
815.5055335294387
 31
0.0
  0
LINE
  5
20F
330
19
100
AcDbEntity
  8
2
100
AcDbLine
 10
268.3431369984526
 20
812.5055335294389
 30
0.0
 11
266.6110861908835
 21
809.5055335294389
 31
0.0
  0
LINE
  5
210
330
19
100
AcDbEntity
  8
L-CENTER
 48
2.0
100
AcDbLine
 10
399.3790353833151
 20
799.5151524726728
 30
0.0
 11
414.3790353833147
 21
825.4959145862056
 31
0.0
  0
CIRCLE
  5
211
330
19
100
AcDbEntity
  8
4
100
AcDbCircle
 10
406.8790353833147
 20
812.5055335294389
 30
0.0
 40
7.25
  0
CIRCLE
  5
212
330
19
100
AcDbEntity
  8
4
100
AcDbCircle
 10
406.8790353833147
 20
812.5055335294389
 30
0.0
 40
6.5
  0
LINE
  5
213
330
19
100
AcDbEntity
  8
2
100
AcDbLine
 10
405.1469845757463
 20
809.5055335294389
 30
0.0
 11
408.6110861908837
 21
809.5055335294389
 31
0.0
  0
LINE
  5
214
330
19
100
AcDbEntity
  8
2
100
AcDbLine
 10
405.146984575746
 20
815.5055335294387
 30
0.0
 11
408.611086190884
 21
815.5055335294389
 31
0.0
  0
LINE
  5
215
330
19
100
AcDbEntity
  8
2
100
AcDbLine
 10
403.4149337681772
 20
812.5055335294389
 30
0.0
 11
405.1469845757463
 21
809.5055335294389
 31
0.0
  0
LINE
  5
216
330
19
100
AcDbEntity
  8
2
100
AcDbLine
 10
403.4149337681772
 20
812.5055335294389
 30
0.0
 11
405.146984575746
 21
815.5055335294387
 31
0.0
  0
LINE
  5
217
330
19
100
AcDbEntity
  8
2
100
AcDbLine
 10
408.6110861908837
 20
809.5055335294389
 30
0.0
 11
410.3431369984528
 21
812.5055335294389
 31
0.0
  0
LINE
  5
218
330
19
100
AcDbEntity
  8
2
100
AcDbLine
 10
408.611086190884
 20
815.5055335294389
 30
0.0
 11
410.3431369984528
 21
812.5055335294389
 31
0.0
  0
LINE
  5
219
330
19
100
AcDbEntity
  8
4
100
AcDbLine
 10
201.1290353833151
 20
346.5726302426727
 30
0.0
 11
186.6290353833151
 21
346.5726302426727
 31
0.0
  0
LINE
  5
21A
330
19
100
AcDbEntity
  8
4
100
AcDbLine
 10
201.1290353833151
 20
346.5726302426727
 30
0.0
 11
201.1290353833151
 21
344.5726302426727
 31
0.0
  0
LINE
  5
21B
330
19
100
AcDbEntity
  8
4
100
AcDbLine
 10
186.6290353833151
 20
346.5726302426727
 30
0.0
 11
186.6290353833151
 21
344.5726302426727
 31
0.0
  0
LINE
  5
21C
330
19
100
AcDbEntity
  8
2
100
AcDbLine
 10
195.8790353833151
 20
346.5726302426727
 30
0.0
 11
193.8790353833151
 21
344.5726302426727
 31
0.0
  0
LINE
  5
21D
330
19
100
AcDbEntity
  8
2
100
AcDbLine
 10
193.0506082585689
 20
346.5726302426727
 30
0.0
 11
191.0506082585689
 21
344.5726302426727
 31
0.0
  0
LINE
  5
21E
330
19
100
AcDbEntity
  8
4
100
AcDbLine
 10
200.3790353833151
 20
354.5726302426727
 30
0.0
 11
187.3790353833151
 21
354.5726302426727
 31
0.0
  0
LINE
  5
21F
330
19
100
AcDbEntity
  8
4
100
AcDbLine
 10
187.3790353833151
 20
354.5726302426727
 30
0.0
 11
187.3790353833151
 21
346.5726302426727
 31
0.0
  0
LINE
  5
220
330
19
100
AcDbEntity
  8
4
100
AcDbLine
 10
200.3790353833151
 20
354.5726302426727
 30
0.0
 11
200.3790353833151
 21
346.5726302426727
 31
0.0
  0
LINE
  5
221
330
19
100
AcDbEntity
  8
4
100
AcDbLine
 10
271.3790353833151
 20
354.5726302426727
 30
0.0
 11
258.3790353833151
 21
354.5726302426727
 31
0.0
  0
LINE
  5
222
330
19
100
AcDbEntity
  8
4
100
AcDbLine
 10
272.1290353833151
 20
346.5726302426727
 30
0.0
 11
257.6290353833151
 21
346.5726302426727
 31
0.0
  0
LINE
  5
223
330
19
100
AcDbEntity
  8
4
100
AcDbLine
 10
258.3790353833151
 20
354.5726302426727
 30
0.0
 11
258.3790353833151
 21
346.5726302426727
 31
0.0
  0
LINE
  5
224
330
19
100
AcDbEntity
  8
2
100
AcDbLine
 10
264.0506082585689
 20
346.5726302426727
 30
0.0
 11
262.0506082585689
 21
344.5726302426727
 31
0.0
  0
LINE
  5
225
330
19
100
AcDbEntity
  8
2
100
AcDbLine
 10
266.8790353833151
 20
346.5726302426727
 30
0.0
 11
264.8790353833151
 21
344.5726302426727
 31
0.0
  0
LINE
  5
226
330
19
100
AcDbEntity
  8
4
100
AcDbLine
 10
257.6290353833151
 20
346.5726302426727
 30
0.0
 11
257.6290353833151
 21
344.5726302426727
 31
0.0
  0
LINE
  5
227
330
19
100
AcDbEntity
  8
4
100
AcDbLine
 10
271.3790353833151
 20
354.5726302426727
 30
0.0
 11
271.3790353833151
 21
346.5726302426727
 31
0.0
  0
LINE
  5
228
330
19
100
AcDbEntity
  8
4
100
AcDbLine
 10
272.1290353833151
 20
346.5726302426727
 30
0.0
 11
272.1290353833151
 21
344.5726302426727
 31
0.0
  0
LINE
  5
229
330
19
100
AcDbEntity
  8
4
100
AcDbLine
 10
471.3788153833148
 20
354.5726302426727
 30
0.0
 11
484.3788153833148
 21
354.5726302426727
 31
0.0
  0
LINE
  5
22A
330
19
100
AcDbEntity
  8
4
100
AcDbLine
 10
484.3788153833148
 20
354.5726302426727
 30
0.0
 11
484.3788153833148
 21
346.5726302426727
 31
0.0
  0
LINE
  5
22B
330
19
100
AcDbEntity
  8
2
100
AcDbLine
 10
478.707242508061
 20
346.5726302426727
 30
0.0
 11
480.707242508061
 21
344.5726302426727
 31
0.0
  0
LINE
  5
22C
330
19
100
AcDbEntity
  8
2
100
AcDbLine
 10
475.8788153833148
 20
346.5726302426727
 30
0.0
 11
477.8788153833148
 21
344.5726302426727
 31
0.0
  0
LINE
  5
22D
330
19
100
AcDbEntity
  8
4
100
AcDbLine
 10
485.1288153833148
 20
346.5726302426727
 30
0.0
 11
485.1288153833148
 21
344.5726302426727
 31
0.0
  0
LINE
  5
22E
330
19
100
AcDbEntity
  8
4
100
AcDbLine
 10
471.3788153833148
 20
354.5726302426727
 30
0.0
 11
471.3788153833148
 21
346.5726302426727
 31
0.0
  0
LINE
  5
22F
330
19
100
AcDbEntity
  8
L-CENTER
 48
2.0
100
AcDbLine
 10
477.8788153833148
 20
357.9340382605916
 30
0.0
 11
477.8788153833148
 21
323.25402664479
 31
0.0
  0
LINE
  5
230
330
19
100
AcDbEntity
  8
4
100
AcDbLine
 10
470.6288153833148
 20
346.5726302426727
 30
0.0
 11
485.1288153833148
 21
346.5726302426727
 31
0.0
  0
LINE
  5
231
330
19
100
AcDbEntity
  8
4
100
AcDbLine
 10
470.6288153833148
 20
346.5726302426727
 30
0.0
 11
470.6288153833148
 21
344.5726302426727
 31
0.0
  0
LINE
  5
232
330
19
100
AcDbEntity
  8
2
100
AcDbLine
 10
407.707242508061
 20
346.5726302426727
 30
0.0
 11
409.707242508061
 21
344.5726302426727
 31
0.0
  0
LINE
  5
233
330
19
100
AcDbEntity
  8
4
100
AcDbLine
 10
399.6288153833148
 20
346.5726302426727
 30
0.0
 11
414.1288153833148
 21
346.5726302426727
 31
0.0
  0
LINE
  5
234
330
19
100
AcDbEntity
  8
4
100
AcDbLine
 10
400.3788153833148
 20
354.5726302426727
 30
0.0
 11
413.3788153833148
 21
354.5726302426727
 31
0.0
  0
LINE
  5
235
330
19
100
AcDbEntity
  8
4
100
AcDbLine
 10
414.1288153833148
 20
346.5726302426727
 30
0.0
 11
414.1288153833148
 21
344.5726302426727
 31
0.0
  0
LINE
  5
236
330
19
100
AcDbEntity
  8
4
100
AcDbLine
 10
413.3788153833148
 20
354.5726302426727
 30
0.0
 11
413.3788153833148
 21
346.5726302426727
 31
0.0
  0
LINE
  5
237
330
19
100
AcDbEntity
  8
4
100
AcDbLine
 10
399.6288153833148
 20
346.5726302426727
 30
0.0
 11
399.6288153833148
 21
344.5726302426727
 31
0.0
  0
LINE
  5
238
330
19
100
AcDbEntity
  8
4
100
AcDbLine
 10
400.3788153833148
 20
354.5726302426727
 30
0.0
 11
400.3788153833148
 21
346.5726302426727
 31
0.0
  0
LINE
  5
239
330
19
100
AcDbEntity
  8
2
100
AcDbLine
 10
404.8788153833148
 20
346.5726302426727
 30
0.0
 11
406.8788153833148
 21
344.5726302426727
 31
0.0
  0
LINE
  5
23A
330
19
100
AcDbEntity
  8
L-CENTER
 48
2.0
100
AcDbLine
 10
406.8788153833148
 20
357.9340382605916
 30
0.0
 11
406.8788153833148
 21
323.25402664479
 31
0.0
  0
LINE
  5
23B
330
19
100
AcDbEntity
  8
4
100
AcDbLine
 10
753.855395816063
 20
354.5726302426727
 30
0.0
 11
740.855395816063
 21
354.5726302426727
 31
0.0
  0
LINE
  5
23C
330
19
100
AcDbEntity
  8
4
100
AcDbLine
 10
754.605395816063
 20
346.5726302426727
 30
0.0
 11
740.105395816063
 21
346.5726302426727
 31
0.0
  0
LINE
  5
23D
330
19
100
AcDbEntity
  8
4
100
AcDbLine
 10
740.855395816063
 20
354.5726302426727
 30
0.0
 11
740.855395816063
 21
346.5726302426727
 31
0.0
  0
LINE
  5
23E
330
19
100
AcDbEntity
  8
4
100
AcDbLine
 10
740.105395816063
 20
346.5726302426727
 30
0.0
 11
740.105395816063
 21
344.5726302426727
 31
0.0
  0
LINE
  5
23F
330
19
100
AcDbEntity
  8
4
100
AcDbLine
 10
753.855395816063
 20
354.5726302426727
 30
0.0
 11
753.855395816063
 21
346.5726302426727
 31
0.0
  0
LINE
  5
240
330
19
100
AcDbEntity
  8
4
100
AcDbLine
 10
754.605395816063
 20
346.5726302426727
 30
0.0
 11
754.605395816063
 21
344.5726302426727
 31
0.0
  0
LINE
  5
241
330
19
100
AcDbEntity
  8
L-CENTER
100
AcDbLine
 10
849.3310031534531
 20
357.9340382605916
 30
0.0
 11
849.3310031534531
 21
323.25402664479
 31
0.0
  0
LINE
  5
242
330
19
100
AcDbEntity
  8
4
100
AcDbLine
 10
876.8310031534531
 20
354.5726302426727
 30
0.0
 11
863.8310031534531
 21
354.5726302426727
 31
0.0
  0
LINE
  5
243
330
19
100
AcDbEntity
  8
4
100
AcDbLine
 10
877.5810031534531
 20
346.5726302426727
 30
0.0
 11
863.0810031534531
 21
346.5726302426727
 31
0.0
  0
LINE
  5
244
330
19
100
AcDbEntity
  8
4
100
AcDbLine
 10
863.8310031534531
 20
354.5726302426727
 30
0.0
 11
863.8310031534531
 21
346.5726302426727
 31
0.0
  0
LINE
  5
245
330
19
100
AcDbEntity
  8
4
100
AcDbLine
 10
863.0810031534531
 20
346.5726302426727
 30
0.0
 11
863.0810031534531
 21
344.5726302426727
 31
0.0
  0
LINE
  5
246
330
19
100
AcDbEntity
  8
4
100
AcDbLine
 10
876.8310031534531
 20
354.5726302426727
 30
0.0
 11
876.8310031534531
 21
346.5726302426727
 31
0.0
  0
LINE
  5
247
330
19
100
AcDbEntity
  8
4
100
AcDbLine
 10
877.5810031534531
 20
346.5726302426727
 30
0.0
 11
877.5810031534531
 21
344.5726302426727
 31
0.0
  0
LINE
  5
248
330
19
100
AcDbEntity
  8
4
100
AcDbLine
 10
986.8066104908432
 20
354.5726302426727
 30
0.0
 11
999.8066104908432
 21
354.5726302426727
 31
0.0
  0
LINE
  5
249
330
19
100
AcDbEntity
  8
4
100
AcDbLine
 10
986.0566104908432
 20
346.5726302426727
 30
0.0
 11
1000.556610490843
 21
346.5726302426727
 31
0.0
  0
LINE
  5
24A
330
19
100
AcDbEntity
  8
4
100
AcDbLine
 10
999.8066104908432
 20
354.5726302426727
 30
0.0
 11
999.8066104908432
 21
346.5726302426727
 31
0.0
  0
LINE
  5
24B
330
19
100
AcDbEntity
  8
4
100
AcDbLine
 10
1000.556610490843
 20
346.5726302426727
 30
0.0
 11
1000.556610490843
 21
344.5726302426727
 31
0.0
  0
LINE
  5
24C
330
19
100
AcDbEntity
  8
4
100
AcDbLine
 10
986.8066104908432
 20
354.5726302426727
 30
0.0
 11
986.8066104908432
 21
346.5726302426727
 31
0.0
  0
LINE
  5
24D
330
19
100
AcDbEntity
  8
4
100
AcDbLine
 10
986.0566104908432
 20
346.5726302426727
 30
0.0
 11
986.0566104908432
 21
344.5726302426727
 31
0.0
  0
LINE
  5
24E
330
19
100
AcDbEntity
  8
L-CENTER
 48
2.0
100
AcDbLine
 10
993.3066104908432
 20
357.9340382605916
 30
0.0
 11
993.3066104908432
 21
323.25402664479
 31
0.0
  0
TEXT
  5
330
330
19
100
AcDbEntity
  8
3
100
AcDbText
 10
572.745107789641
 20
162.6599903746944
 30
0.0
 40
9.0
  1
LDC4-08
  7
KANJI
 72
     1
 11
601.995107789641
 21
162.6599903746944
 31
0.0
100
AcDbText
  0
CIRCLE
  5
3FF
330
19
100
AcDbEntity
  8
4
100
AcDbCircle
 10
335.8790353833151
 20
598.5299261920486
 30
0.0
 40
18.0
  0
LINE
  5
400
330
19
100
AcDbEntity
  8
L-CENTER
 48
2.0
100
AcDbLine
 10
307.8790353833151
 20
598.5299261920491
 30
0.0
 11
363.8790353833151
 21
598.5299261920491
 31
0.0
  0
CIRCLE
  5
401
330
19
100
AcDbEntity
  8
4
100
AcDbCircle
 10
335.8790353833149
 20
598.5299261920491
 30
0.0
 40
12.5
  0
LWPOLYLINE
  5
402
330
19
100
AcDbEntity
  8
4
100
AcDbPolyline
 90
        6
 70
     1
 43
0.0
 10
335.8790353833149
 20
611.0299261920491
 10
346.7043529306204
 20
604.7799261920491
 10
346.7043529306204
 20
592.2799261920491
 10
335.8790353833149
 20
586.0299261920491
 10
325.0537178360094
 20
592.2799261920491
 10
325.0537178360094
 20
604.7799261920491
  0
LINE
  5
403
330
19
100
AcDbEntity
  8
4
100
AcDbLine
 10
791.8310031534531
 20
354.707885242673
 30
0.0
 11
766.8310031534531
 21
354.7078852426731
 31
0.0
  0
LINE
  5
404
330
19
100
AcDbEntity
  8
4
100
AcDbLine
 10
791.8310031534531
 20
356.707885242673
 30
0.0
 11
766.8310031534531
 21
356.7078852426731
 31
0.0
  0
LINE
  5
405
330
19
100
AcDbEntity
  8
4
100
AcDbLine
 10
766.8310031534531
 20
360.7078852426731
 30
0.0
 11
791.8310031534531
 21
360.707885242673
 31
0.0
  0
LINE
  5
406
330
19
100
AcDbEntity
  8
4
100
AcDbLine
 10
761.3310031534531
 20
353.2078852426731
 30
0.0
 11
797.3310031534531
 21
353.2078852426729
 31
0.0
  0
LINE
  5
407
330
19
100
AcDbEntity
  8
4
100
AcDbLine
 10
790.8310031534531
 20
354.707885242673
 30
0.0
 11
790.8310031534531
 21
353.207885242673
 31
0.0
  0
LINE
  5
408
330
19
100
AcDbEntity
  8
4
100
AcDbLine
 10
791.8310031534531
 20
354.707885242673
 30
0.0
 11
791.8310031534531
 21
360.707885242673
 31
0.0
  0
LINE
  5
409
330
19
100
AcDbEntity
  8
4
100
AcDbLine
 10
797.3310031534531
 20
353.2078852426729
 30
0.0
 11
797.3310031534531
 21
352.1292247358766
 31
0.0
  0
LINE
  5
40A
330
19
100
AcDbEntity
  8
L-CENTER
 48
2.0
100
AcDbLine
 10
779.3310031534531
 20
362.0928952426731
 30
0.0
 11
779.3310031534531
 21
335.7499077973409
 31
0.0
  0
LINE
  5
40B
330
19
100
AcDbEntity
  8
4
100
AcDbLine
 10
786.8310031534531
 20
356.707885242673
 30
0.0
 11
786.8310031534531
 21
360.707885242673
 31
0.0
  0
LINE
  5
40C
330
19
100
AcDbEntity
  8
4
100
AcDbLine
 10
771.8310031534531
 20
356.7078852426731
 30
0.0
 11
771.8310031534531
 21
360.7078852426731
 31
0.0
  0
LINE
  5
40D
330
19
100
AcDbEntity
  8
4
100
AcDbLine
 10
767.8310031534531
 20
354.7078852426731
 30
0.0
 11
767.8310031534531
 21
353.2078852426731
 31
0.0
  0
LINE
  5
40E
330
19
100
AcDbEntity
  8
4
100
AcDbLine
 10
766.8310031534531
 20
354.7078852426731
 30
0.0
 11
766.8310031534531
 21
360.7078852426731
 31
0.0
  0
LINE
  5
40F
330
19
100
AcDbEntity
  8
4
100
AcDbLine
 10
761.3310031534531
 20
353.2078852426731
 30
0.0
 11
761.3310031534531
 21
350.0425631147756
 31
0.0
  0
ARC
  5
410
330
19
100
AcDbEntity
  8
4
100
AcDbCircle
 10
759.3310031534531
 20
350.0425631147756
 30
0.0
 40
2.0
100
AcDbArc
 50
273.6430930086149
 51
0.0
  0
ARC
  5
411
330
19
100
AcDbEntity
  8
4
100
AcDbCircle
 10
799.3310031534531
 20
352.1292247358766
 30
0.0
 40
2.0
100
AcDbArc
 50
180.0
 51
272.3293384374012
  0
ARC
  5
412
330
19
100
AcDbEntity
  8
4
100
AcDbCircle
 10
923.3310031534531
 20
353.2078852426727
 30
0.0
 40
2.0
100
AcDbArc
 50
90.0
 51
180.0
  0
ARC
  5
413
330
19
100
AcDbEntity
  8
4
100
AcDbCircle
 10
955.3310031534531
 20
353.2078852426727
 30
0.0
 40
2.0
100
AcDbArc
 50
0.0
 51
90.0
  0
LINE
  5
414
330
19
100
AcDbEntity
  8
4
100
AcDbLine
 10
317.8789253833149
 20
349.1981316180742
 30
0.0
 11
317.8789253833149
 21
353.2078852426727
 31
0.0
  0
ARC
  5
415
330
19
100
AcDbEntity
  8
4
100
AcDbCircle
 10
335.8789253833152
 20
505.4622747631739
 30
0.0
 40
157.2974330142493
100
AcDbArc
 50
263.4290838414149
 51
276.5709161585848
  0
LINE
  5
416
330
19
100
AcDbEntity
  8
4
100
AcDbLine
 10
324.3789253833149
 20
354.7078852426727
 30
0.0
 11
324.3789253833149
 21
353.2078852426727
 31
0.0
  0
LINE
  5
417
330
19
100
AcDbEntity
  8
4
100
AcDbLine
 10
323.3789253833149
 20
356.7078852426727
 30
0.0
 11
323.3789253833149
 21
354.7078852426727
 31
0.0
  0
LINE
  5
418
330
19
100
AcDbEntity
  8
4
100
AcDbLine
 10
335.8789253833149
 20
360.7078852426727
 30
0.0
 11
335.8789253833149
 21
356.7078852426727
 31
0.0
  0
LINE
  5
4B1
330
19
100
AcDbEntity
  8
4
100
AcDbLine
 10
103.8789253833149
 20
281.3726802426727
 30
0.0
 11
148.8789253833149
 21
281.3726802426727
 31
0.0
  0
LINE
  5
4B2
330
19
100
AcDbEntity
  8
4
100
AcDbLine
 10
104.8789253833149
 20
278.3726802426727
 30
0.0
 11
153.8789253833149
 21
278.3726802426727
 31
0.0
  0
LINE
  5
4B3
330
19
100
AcDbEntity
  8
4
100
AcDbLine
 10
104.8789253833149
 20
253.3726802426727
 30
0.0
 11
153.8789253833149
 21
253.3726802426727
 31
0.0
  0
LINE
  5
4B4
330
19
100
AcDbEntity
  8
4
100
AcDbLine
 10
153.8789253833149
 20
250.8726802426727
 30
0.0
 11
153.8789253833149
 21
280.8726802426727
 31
0.0
  0
LINE
  5
4B5
330
19
100
AcDbEntity
  8
4
100
AcDbLine
 10
153.8789253833149
 20
250.8726802426727
 30
0.0
 11
161.8789253833149
 21
250.8726802426727
 31
0.0
  0
LINE
  5
4B6
330
19
100
AcDbEntity
  8
4
100
AcDbLine
 10
153.8789253833149
 20
280.8726802426727
 30
0.0
 11
161.8789253833149
 21
280.8726802426727
 31
0.0
  0
LINE
  5
4B7
330
19
100
AcDbEntity
  8
4
100
AcDbLine
 10
148.8789253833149
 20
281.3726802426727
 30
0.0
 11
148.8789253833149
 21
278.3726802426727
 31
0.0
  0
LINE
  5
4B8
330
19
100
AcDbEntity
  8
4
100
AcDbLine
 10
104.8789253833149
 20
278.3726802426727
 30
0.0
 11
103.8789253833149
 21
277.3726802426727
 31
0.0
  0
LINE
  5
4B9
330
19
100
AcDbEntity
  8
4
100
AcDbLine
 10
103.8789253833149
 20
254.3726802426727
 30
0.0
 11
103.8789253833149
 21
281.3726802426727
 31
0.0
  0
LINE
  5
4BA
330
19
100
AcDbEntity
  8
4
100
AcDbLine
 10
104.8789253833149
 20
278.3726802426727
 30
0.0
 11
104.8789253833149
 21
253.3726802426727
 31
0.0
  0
LINE
  5
4BB
330
19
100
AcDbEntity
  8
4
100
AcDbLine
 10
104.8789253833149
 20
253.3726802426727
 30
0.0
 11
103.8789253833149
 21
254.3726802426727
 31
0.0
  0
LINE
  5
4BE
330
19
100
AcDbEntity
  8
4
100
AcDbLine
 10
103.8790353833147
 20
765.0299261920486
 30
0.0
 11
145.4054736654789
 21
765.0299261920488
 31
0.0
  0
LINE
  5
4BF
330
19
100
AcDbEntity
  8
4
100
AcDbLine
 10
103.8790353833147
 20
772.0299261920486
 30
0.0
 11
145.4054736654789
 21
772.0299261920488
 31
0.0
  0
LINE
  5
4C0
330
19
100
AcDbEntity
  8
4
100
AcDbLine
 10
152.9054736654789
 20
781.0299261920486
 30
0.0
 11
104.8826662803758
 21
781.0299261920484
 31
0.0
  0
LINE
  5
4C1
330
19
100
AcDbEntity
  8
4
100
AcDbLine
 10
152.905473665479
 20
756.0299261920488
 30
0.0
 11
104.8790353833148
 21
756.0299261920486
 31
0.0
  0
ARC
  5
4C2
330
19
100
AcDbEntity
  8
4
100
AcDbCircle
 10
152.9054736654789
 20
782.0299261920486
 30
0.0
 40
1.0
100
AcDbArc
 50
270.0
 51
0.0
  0
LINE
  5
4C3
330
19
100
AcDbEntity
  8
4
100
AcDbLine
 10
148.9054736654789
 20
768.5299261920488
 30
0.0
 11
148.9054736654789
 21
768.5299261920488
 31
0.0
  0
ARC
  5
4C4
330
19
100
AcDbEntity
  8
4
100
AcDbCircle
 10
145.4054736654789
 20
768.5299261920488
 30
0.0
 40
3.5
100
AcDbArc
 50
270.0
 51
0.0
  0
ARC
  5
4C5
330
19
100
AcDbEntity
  8
4
100
AcDbCircle
 10
145.4054736654789
 20
768.5299261920488
 30
0.0
 40
3.5
100
AcDbArc
 50
0.0
 51
90.0
  0
ARC
  5
4C6
330
19
100
AcDbEntity
  8
4
100
AcDbCircle
 10
152.905473665479
 20
755.0299261920488
 30
0.0
 40
1.0
100
AcDbArc
 50
0.0
 51
90.0
  0
LINE
  5
4C7
330
19
100
AcDbEntity
  8
4
100
AcDbLine
 10
153.9054736654789
 20
783.5299261920486
 30
0.0
 11
153.905473665479
 21
753.5299261920488
 31
0.0
  0
LINE
  5
4C8
330
19
100
AcDbEntity
  8
4
100
AcDbLine
 10
104.8826662803758
 20
781.0299261920484
 30
0.0
 11
103.8790353833147
 21
780.0262952949874
 31
0.0
  0
LINE
  5
4C9
330
19
100
AcDbEntity
  8
4
100
AcDbLine
 10
103.8790353833148
 20
757.0262952949874
 30
0.0
 11
104.8754044862532
 21
756.0299261920486
 31
0.0
  0
LINE
  5
4CA
330
19
100
AcDbEntity
  8
4
100
AcDbLine
 10
104.8790353833147
 20
765.0299261920486
 30
0.0
 11
104.8790353833148
 21
756.0299261920486
 31
0.0
  0
LINE
  5
4CB
330
19
100
AcDbEntity
  8
4
100
AcDbLine
 10
104.8790353833147
 20
781.0262952949877
 30
0.0
 11
104.8790353833147
 21
772.0299261920486
 31
0.0
  0
LINE
  5
4CC
330
19
100
AcDbEntity
  8
4
100
AcDbLine
 10
103.8790353833147
 20
780.0262952949874
 30
0.0
 11
103.8790353833148
 21
757.0262952949874
 31
0.0
  0
LINE
  5
4CD
330
19
100
AcDbEntity
  8
4
100
AcDbLine
 10
153.9054736654789
 20
783.5299261920486
 30
0.0
 11
161.8790353833147
 21
783.5299261920486
 31
0.0
  0
LINE
  5
4CE
330
19
100
AcDbEntity
  8
4
100
AcDbLine
 10
153.905473665479
 20
753.5299261920488
 30
0.0
 11
161.8790353833147
 21
753.5299261920488
 31
0.0
  0
LINE
  5
4E9
330
19
100
AcDbEntity
  8
4
100
AcDbLine
 10
314.3430353833151
 20
103.8726802426728
 30
0.0
 11
314.3430353833151
 21
197.8726802426728
 31
0.0
  0
LINE
  5
4EA
330
19
100
AcDbEntity
  8
4
100
AcDbLine
 10
276.3430353833151
 20
103.8726802426728
 30
0.0
 11
276.3430353833151
 21
197.8726802426728
 31
0.0
  0
LINE
  5
4EB
330
19
100
AcDbEntity
  8
4
100
AcDbLine
 10
300.3430353833151
 20
102.8726802426728
 30
0.0
 11
300.3430353833151
 21
187.8726802426728
 31
0.0
  0
LINE
  5
4EC
330
19
100
AcDbEntity
  8
4
100
AcDbLine
 10
290.3430353833151
 20
102.8726802426728
 30
0.0
 11
290.3430353833151
 21
187.8726802426728
 31
0.0
  0
LINE
  5
4ED
330
19
100
AcDbEntity
  8
4
100
AcDbLine
 10
315.3430353833151
 20
197.8726802426728
 30
0.0
 11
315.3430353833151
 21
211.1727302426729
 31
0.0
  0
LINE
  5
4EE
330
19
100
AcDbEntity
  8
4
100
AcDbLine
 10
275.3430353833151
 20
197.8726802426728
 30
0.0
 11
275.3430353833151
 21
211.1727302426729
 31
0.0
  0
LINE
  5
4EF
330
19
100
AcDbEntity
  8
4
100
AcDbLine
 10
275.3430353833151
 20
197.8726802426728
 30
0.0
 11
315.3430353833151
 21
197.8726802426728
 31
0.0
  0
ARC
  5
4F0
330
19
100
AcDbEntity
  8
4
100
AcDbCircle
 10
295.3430353833151
 20
187.8726802426728
 30
0.0
 40
5.0
100
AcDbArc
 50
0.0
 51
89.99930100000259
  0
ARC
  5
4F1
330
19
100
AcDbEntity
  8
4
100
AcDbCircle
 10
295.3430353833151
 20
187.8726802426728
 30
0.0
 40
5.0
100
AcDbArc
 50
89.99930100000259
 51
180.0
  0
LINE
  5
4F2
330
19
100
AcDbEntity
  8
4
100
AcDbLine
 10
314.3430353833151
 20
103.8726802426728
 30
0.0
 11
300.3430353833151
 21
103.8726802426728
 31
0.0
  0
LINE
  5
4F3
330
19
100
AcDbEntity
  8
4
100
AcDbLine
 10
313.3430353833151
 20
102.8726802426728
 30
0.0
 11
277.3430353833151
 21
102.8726802426728
 31
0.0
  0
LINE
  5
4F4
330
19
100
AcDbEntity
  8
4
100
AcDbLine
 10
276.3430353833151
 20
103.8726802426728
 30
0.0
 11
290.3430353833151
 21
103.8726802426728
 31
0.0
  0
LINE
  5
4F5
330
19
100
AcDbEntity
  8
4
100
AcDbLine
 10
276.3430353833151
 20
103.8726802426728
 30
0.0
 11
277.3430353833151
 21
102.8726802426728
 31
0.0
  0
LINE
  5
4F6
330
19
100
AcDbEntity
  8
4
100
AcDbLine
 10
314.3430353833151
 20
103.8726802426728
 30
0.0
 11
313.3430353833151
 21
102.8726802426728
 31
0.0
  0
LINE
  5
4F7
330
19
100
AcDbEntity
  8
4
100
AcDbLine
 10
878.3310031534531
 20
103.8726802426728
 30
0.0
 11
878.3310031534531
 21
197.8726802426728
 31
0.0
  0
LINE
  5
4F8
330
19
100
AcDbEntity
  8
4
100
AcDbLine
 10
836.8310031534531
 20
192.8726802426728
 30
0.0
 11
836.8310031534531
 21
102.8726802426728
 31
0.0
  0
LINE
  5
4F9
330
19
100
AcDbEntity
  8
4
100
AcDbLine
 10
840.3310031534531
 20
103.8726802426728
 30
0.0
 11
840.3310031534531
 21
197.8726802426728
 31
0.0
  0
LINE
  5
4FA
330
19
100
AcDbEntity
  8
4
100
AcDbLine
 10
839.3310031534531
 20
197.8726802426728
 30
0.0
 11
879.3310031534531
 21
197.8726802426728
 31
0.0
  0
LINE
  5
4FB
330
19
100
AcDbEntity
  8
4
100
AcDbLine
 10
839.3310031534531
 20
197.8726802426728
 30
0.0
 11
839.3310031534531
 21
211.1727302426729
 31
0.0
  0
LINE
  5
4FC
330
19
100
AcDbEntity
  8
4
100
AcDbLine
 10
840.3310031534531
 20
192.8726802426728
 30
0.0
 11
836.8310031534531
 21
192.8726802426728
 31
0.0
  0
LINE
  5
4FD
330
19
100
AcDbEntity
  8
4
100
AcDbLine
 10
879.3310031534531
 20
197.8726802426728
 30
0.0
 11
879.3310031534531
 21
211.1727302426729
 31
0.0
  0
LINE
  5
4FE
330
19
100
AcDbEntity
  8
4
100
AcDbLine
 10
840.3310031534531
 20
103.8726802426728
 30
0.0
 11
878.3310031534531
 21
103.8726802426728
 31
0.0
  0
LINE
  5
4FF
330
19
100
AcDbEntity
  8
4
100
AcDbLine
 10
836.8310031534531
 20
102.8726802426728
 30
0.0
 11
877.3310031534531
 21
102.8726802426728
 31
0.0
  0
LINE
  5
500
330
19
100
AcDbEntity
  8
4
100
AcDbLine
 10
840.3310031534531
 20
103.8726802426728
 30
0.0
 11
841.3310031534531
 21
102.8726802426728
 31
0.0
  0
LINE
  5
501
330
19
100
AcDbEntity
  8
4
100
AcDbLine
 10
877.3310031534531
 20
102.8726802426728
 30
0.0
 11
878.3310031534531
 21
103.8726802426728
 31
0.0
  0
LINE
  5
530
330
19
100
AcDbEntity
  8
4
100
AcDbLine
 10
299.5097028833148
 20
79.0443894795767
 30
0.0
 11
291.1763703833145
 21
79.0443894795767
 31
0.0
  0
LINE
  5
531
330
19
100
AcDbEntity
  8
4
100
AcDbLine
 10
299.5097028833148
 20
72.37772197957679
 30
0.0
 11
291.1763703833145
 21
72.37772197957679
 31
0.0
  0
LINE
  5
532
330
19
100
AcDbEntity
  8
4
100
AcDbLine
 10
291.1763703833145
 20
72.37772197957679
 30
0.0
 11
291.1763703833145
 21
79.0443894795767
 31
0.0
  0
LINE
  5
533
330
19
100
AcDbEntity
  8
4
100
AcDbLine
 10
299.5097028833148
 20
79.0443894795767
 30
0.0
 11
299.5097028833148
 21
72.37772197957679
 31
0.0
  0
LINE
  5
536
330
19
100
AcDbEntity
  8
L-CENTER
 48
2.0
100
AcDbLine
 10
318.2931303833149
 20
60.29438947957669
 30
0.0
 11
272.3929403833141
 21
60.29438947957669
 31
0.0
  0
ARC
  5
537
330
19
100
AcDbEntity
  8
4
100
AcDbCircle
 10
295.3430353833147
 20
60.29438947957669
 30
0.0
 40
15.83334
100
AcDbArc
 50
105.2575104584734
 51
74.74249200000177
  0
LINE
  5
538
330
19
100
AcDbEntity
  8
L-CENTER
 48
2.0
100
AcDbLine
 10
295.3430353833147
 20
37.34429447957666
 30
0.0
 11
295.3430353833147
 21
83.24448447957684
 31
0.0
  0
ENDSEC
  0
SECTION
  2
OBJECTS
  0
DICTIONARY
  5
9
330
0
100
AcDbDictionary
281
     1
  3
ACAD_COLOR
350
2E
  3
ACAD_GROUP
350
2C
  3
ACAD_LAYOUT
350
22
  3
ACAD_MATERIAL
350
B
  3
ACAD_MLEADERSTYLE
350
48F
  3
ACAD_MLINESTYLE
350
17
  3
ACAD_PLOTSETTINGS
350
2D
  3
ACAD_PLOTSTYLENAME
350
8
  3
ACAD_SCALELIST
350
34
  3
ACAD_TABLESTYLE
350
48E
  3
ACAD_VISUALSTYLE
350
2F
  3
ACDBHEADERROUNDTRIPXREC
350
53C
  3
AcDbVariableDictionary
350
48C
  3
DWGPROPS
350
53F
  0
DICTIONARY
  5
540
330
2B
100
AcDbDictionary
280
     1
281
     1
  3
ACAD_XREC_ROUNDTRIP
360
541
  0
DICTIONARY
  5
3
330
2
100
AcDbDictionary
280
     1
281
     1
  3
ACAD_LAYERSTATES
360
4
  0
DICTIONARY
  5
1E
330
1D
100
AcDbDictionary
280
     1
281
     1
  3
ADSK_XREC_LAYER_RECONCILED
360
1F
  0
DICTIONARY
  5
260
330
25F
100
AcDbDictionary
280
     1
281
     1
  3
ADSK_XREC_LAYER_RECONCILED
360
261
  0
DICTIONARY
  5
5
330
1
100
AcDbDictionary
280
     1
281
     1
  3
ADSK_XREC_LAYER_RECONCILED
360
6
  0
DICTIONARY
  5
6F
330
6E
100
AcDbDictionary
280
     1
281
     1
  3
ADSK_XREC_LAYER_RECONCILED
360
70
  0
DICTIONARY
  5
6A
330
69
100
AcDbDictionary
280
     1
281
     1
  3
ADSK_XREC_LAYER_RECONCILED
360
6B
  0
DICTIONARY
  5
F8
330
F7
100
AcDbDictionary
280
     1
281
     1
  3
ADSK_XREC_LAYER_RECONCILED
360
F9
  0
DICTIONARY
  5
1A
330
19
100
AcDbDictionary
280
     1
281
     1
  3
ACAD_SORTENTS
360
1B
  0
DICTIONARY
  5
2E
102
{ACAD_REACTORS
330
9
102
}
330
9
100
AcDbDictionary
281
     1
  0
DICTIONARY
  5
2C
102
{ACAD_REACTORS
330
9
102
}
330
9
100
AcDbDictionary
281
     1
  0
DICTIONARY
  5
22
102
{ACAD_REACTORS
330
9
102
}
330
9
100
AcDbDictionary
281
     1
  3
Model
350
21
  3
ﾚｲｱｳﾄ1
350
28
  0
DICTIONARY
  5
B
102
{ACAD_REACTORS
330
9
102
}
330
9
100
AcDbDictionary
281
     1
  3
ByBlock
350
67
  3
ByLayer
350
12
  3
Global
350
A
  0
DICTIONARY
  5
48F
102
{ACAD_REACTORS
330
9
102
}
330
9
100
AcDbDictionary
281
     1
  3
Standard
350
4AB
  0
DICTIONARY
  5
17
102
{ACAD_REACTORS
330
9
102
}
330
9
100
AcDbDictionary
281
     1
  3
STANDARD
350
16
  0
DICTIONARY
  5
2D
102
{ACAD_REACTORS
330
9
102
}
330
9
100
AcDbDictionary
281
     1
  0
ACDBDICTIONARYWDFLT
  5
8
102
{ACAD_REACTORS
330
9
102
}
330
9
100
AcDbDictionary
281
     1
  3
Normal
350
7
100
AcDbDictionaryWithDefault
340
7
  0
DICTIONARY
  5
34
102
{ACAD_REACTORS
330
9
102
}
330
9
100
AcDbDictionary
281
     1
  3
*A1
350
56
  3
*A10
350
5F
  3
*A11
350
60
  3
*A12
350
61
  3
*A13
350
62
  3
*A14
350
63
  3
*A15
350
64
  3
*A16
350
65
  3
*A17
350
66
  3
*A2
350
57
  3
*A3
350
58
  3
*A4
350
59
  3
*A5
350
5A
  3
*A6
350
5B
  3
*A7
350
5C
  3
*A8
350
5D
  3
*A9
350
5E
  0
DICTIONARY
  5
48E
102
{ACAD_REACTORS
330
9
102
}
330
9
100
AcDbDictionary
281
     1
  3
Standard
350
4AA
  0
DICTIONARY
  5
2F
102
{ACAD_REACTORS
330
9
102
}
330
9
100
AcDbDictionary
281
     1
  3
2dWireframe
350
496
  3
Basic
350
499
  3
Brighten
350
49D
  3
ColorChange
350
4A1
  3
Conceptual
350
49B
  3
Dim
350
49C
  3
EdgeColorOff
350
4A4
  3
Facepattern
350
4A0
  3
Flat
350
492
  3
FlatWithEdges
350
493
  3
Gouraud
350
494
  3
GouraudWithEdges
350
495
  3
Hidden
350
498
  3
JitterOff
350
4A2
  3
Linepattern
350
49F
  3
OverhangOff
350
4A3
  3
Realistic
350
49A
  3
Shaded
350
4A9
  3
Shaded with edges
350
4A8
  3
Shades of Gray
350
4A5
  3
Sketchy
350
4A6
  3
Thicken
350
49E
  3
Wireframe
350
497
  3
X-Ray
350
4A7
  0
DICTIONARY
  5
53C
102
{ACAD_REACTORS
330
9
102
}
330
9
100
AcDbDictionary
281
     1
  3
COLORDICT
350
53D
  3
MATERIALDICT
350
53E
  0
DICTIONARY
  5
48C
102
{ACAD_REACTORS
330
9
102
}
330
9
100
AcDbDictionary
281
     1
  3
CANNOSCALE
350
48D
  3
CMLEADERSTYLE
350
4AE
  3
CTABLESTYLE
350
4AD
  3
DIMASSOC
350
53A
  3
HIDETEXT
350
53B
  3
MSLTSCALE
350
542
  3
SORTENTS
350
539
  0
XRECORD
  5
53F
102
{ACAD_REACTORS
330
9
102
}
330
9
100
AcDbXrecord
280
     1
  1
DWGPROPS COOKIE
  2

  3

  4

  6

  7

  8
sg-d03
  9

300
=
301
=
302
=
303
=
304
=
305
=
306
=
307
=
308
=
309
=
 40
0.0
 41
2449812.381805555
 42
2458115.196816609
  1

 90
        0
  0
XRECORD
  5
541
102
{ACAD_REACTORS
330
540
102
}
330
540
100
AcDbXrecord
280
     1
102
VTR_0.000_0.000_1.000_1.000_GRIDDISPLAY
 70
     3
102
VTR_0.000_0.000_1.000_1.000_GRIDMAJOR
 70
     5
102
VTR_0.000_0.000_1.000_1.000_DEFAULTLIGHTING
280
     1
102
VTR_0.000_0.000_1.000_1.000_DEFAULTLIGHTINGTYPE
 70
     1
102
VTR_0.000_0.000_1.000_1.000_BRIGHTNESS
141
0.0
102
VTR_0.000_0.000_1.000_1.000_CONTRAST
142
0.0
  0
DICTIONARY
  5
4
102
{ACAD_REACTORS
330
3
102
}
330
3
100
AcDbDictionary
281
     1
  0
XRECORD
  5
1F
102
{ACAD_REACTORS
330
1E
102
}
330
1E
100
AcDbXrecord
280
     1
290
     1
  0
XRECORD
  5
261
102
{ACAD_REACTORS
330
260
102
}
330
260
100
AcDbXrecord
280
     1
290
     1
  0
XRECORD
  5
6
102
{ACAD_REACTORS
330
5
102
}
330
5
100
AcDbXrecord
280
     1
290
     1
  0
XRECORD
  5
70
102
{ACAD_REACTORS
330
6F
102
}
330
6F
100
AcDbXrecord
280
     1
290
     1
  0
XRECORD
  5
6B
102
{ACAD_REACTORS
330
6A
102
}
330
6A
100
AcDbXrecord
280
     1
290
     1
  0
XRECORD
  5
F9
102
{ACAD_REACTORS
330
F8
102
}
330
F8
100
AcDbXrecord
280
     1
290
     1
  0
SORTENTSTABLE
  5
1B
102
{ACAD_REACTORS
330
1A
102
}
330
1A
100
AcDbSortentsTable
330
19
331
0
  5
F3
331
FA
  5
FC
331
FB
  5
FD
331
FC
  5
FE
331
FD
  5
FF
331
FE
  5
100
331
FF
  5
101
331
100
  5
102
331
101
  5
103
331
102
  5
104
331
103
  5
105
331
104
  5
106
331
105
  5
107
331
106
  5
108
331
107
  5
109
331
108
  5
10A
331
109
  5
10B
331
10A
  5
10C
331
10B
  5
10D
331
10C
  5
10E
331
10D
  5
10F
331
10E
  5
110
331
10F
  5
111
331
110
  5
112
331
114
  5
116
331
115
  5
117
331
116
  5
118
331
117
  5
119
331
118
  5
11A
331
119
  5
11B
331
11A
  5
11C
331
11B
  5
11D
331
0
  5
11E
331
0
  5
11F
331
0
  5
120
331
11F
  5
121
331
120
  5
122
331
121
  5
123
331
122
  5
124
331
123
  5
125
331
124
  5
126
331
125
  5
127
331
126
  5
128
331
127
  5
129
331
128
  5
12A
331
129
  5
12B
331
12A
  5
12C
331
12B
  5
12D
331
12C
  5
12E
331
12D
  5
12F
331
12E
  5
130
331
12F
  5
131
331
130
  5
132
331
131
  5
133
331
132
  5
134
331
133
  5
135
331
134
  5
136
331
135
  5
137
331
136
  5
138
331
137
  5
139
331
138
  5
13A
331
139
  5
13B
331
13A
  5
13C
331
13C
  5
13E
331
13D
  5
13F
331
13F
  5
141
331
140
  5
142
331
141
  5
143
331
142
  5
144
331
143
  5
145
331
146
  5
148
331
147
  5
149
331
148
  5
14A
331
149
  5
14B
331
14A
  5
14C
331
14B
  5
14D
331
14C
  5
14E
331
14D
  5
14F
331
152
  5
154
331
153
  5
155
331
154
  5
156
331
155
  5
157
331
156
  5
158
331
157
  5
159
331
158
  5
15A
331
159
  5
15B
331
15A
  5
15C
331
15B
  5
15D
331
15C
  5
15E
331
15D
  5
15F
331
15E
  5
160
331
15F
  5
161
331
160
  5
162
331
161
  5
163
331
162
  5
164
331
163
  5
165
331
164
  5
166
331
165
  5
167
331
166
  5
168
331
167
  5
169
331
168
  5
16A
331
169
  5
16B
331
16A
  5
16C
331
16B
  5
16D
331
16C
  5
16E
331
16D
  5
16F
331
16E
  5
170
331
16F
  5
171
331
170
  5
172
331
171
  5
173
331
172
  5
174
331
173
  5
175
331
174
  5
176
331
175
  5
177
331
176
  5
178
331
177
  5
179
331
178
  5
17A
331
179
  5
17B
331
17A
  5
17C
331
17B
  5
17D
331
17C
  5
17E
331
17D
  5
17F
331
17E
  5
180
331
17F
  5
181
331
180
  5
182
331
181
  5
183
331
182
  5
184
331
183
  5
185
331
184
  5
186
331
185
  5
187
331
186
  5
188
331
187
  5
189
331
188
  5
18A
331
189
  5
18B
331
18A
  5
18C
331
18B
  5
18D
331
18C
  5
18E
331
18D
  5
18F
331
18E
  5
190
331
18F
  5
191
331
190
  5
192
331
191
  5
193
331
192
  5
194
331
193
  5
195
331
194
  5
196
331
195
  5
197
331
196
  5
198
331
197
  5
199
331
198
  5
19A
331
199
  5
19B
331
19A
  5
19C
331
19B
  5
19D
331
19C
  5
19E
331
19D
  5
19F
331
19E
  5
1A0
331
19F
  5
1A1
331
1A0
  5
1A2
331
1A1
  5
1A3
331
1A2
  5
1A4
331
1A3
  5
1A5
331
1A4
  5
1A6
331
1A5
  5
1A7
331
1A6
  5
1A8
331
1A7
  5
1A9
331
1A8
  5
1AA
331
1A9
  5
1AB
331
1AA
  5
1AC
331
1AB
  5
1AD
331
1AC
  5
1AE
331
1AD
  5
1AF
331
1AE
  5
1B0
331
1AF
  5
1B1
331
1B0
  5
1B2
331
1B1
  5
1B3
331
1B2
  5
1B4
331
1B3
  5
1B5
331
1B4
  5
1B6
331
1B5
  5
1B7
331
1B6
  5
1B8
331
1B7
  5
1B9
331
1B8
  5
1BA
331
1B9
  5
1BB
331
1BA
  5
1BC
331
1BB
  5
1BD
331
1BC
  5
1BE
331
1BD
  5
1BF
331
1BE
  5
1C0
331
1BF
  5
1C1
331
1C5
  5
1C7
331
1C6
  5
1C8
331
1C7
  5
1C9
331
1C8
  5
1CA
331
1C9
  5
1CB
331
1CA
  5
1CC
331
1CB
  5
1CD
331
1CC
  5
1CE
331
1CD
  5
1CF
331
1CE
  5
1D0
331
1CF
  5
1D1
331
1D0
  5
1D2
331
1D1
  5
1D3
331
1D2
  5
1D4
331
1D3
  5
1D5
331
1D4
  5
1D6
331
1D5
  5
1D7
331
1D6
  5
1D8
331
1D7
  5
1D9
331
1D8
  5
1DA
331
1D9
  5
1DB
331
1DA
  5
1DC
331
1DB
  5
1DD
331
1DC
  5
1DE
331
1DD
  5
1DF
331
1DE
  5
1E0
331
1DF
  5
1E1
331
1E0
  5
1E2
331
1E1
  5
1E3
331
1E2
  5
1E4
331
1E3
  5
1E5
331
1E4
  5
1E6
331
1E5
  5
1E7
331
1E6
  5
1E8
331
1E7
  5
1E9
331
1E8
  5
1EA
331
1E9
  5
1EB
331
1EA
  5
1EC
331
1EB
  5
1ED
331
1EC
  5
1EE
331
1ED
  5
1EF
331
1EE
  5
1F0
331
1EF
  5
1F1
331
1F0
  5
1F2
331
1F1
  5
1F3
331
1F2
  5
1F4
331
1F3
  5
1F5
331
1F4
  5
1F6
331
1F5
  5
1F7
331
1F6
  5
1F8
331
1F7
  5
1F9
331
1F8
  5
1FA
331
1F9
  5
1FB
331
1FA
  5
1FC
331
1FB
  5
1FD
331
1FC
  5
1FE
331
1FD
  5
1FF
331
1FE
  5
200
331
1FF
  5
201
331
200
  5
202
331
201
  5
203
331
202
  5
204
331
203
  5
205
331
204
  5
206
331
205
  5
207
331
206
  5
208
331
207
  5
209
331
208
  5
20A
331
209
  5
20B
331
20A
  5
20C
331
20B
  5
20D
331
20C
  5
20E
331
20D
  5
20F
331
20E
  5
210
331
20F
  5
211
331
210
  5
212
331
211
  5
213
331
212
  5
214
331
213
  5
215
331
214
  5
216
331
215
  5
217
331
216
  5
218
331
217
  5
219
331
218
  5
21A
331
219
  5
21B
331
21A
  5
21C
331
21B
  5
21D
331
21C
  5
21E
331
21D
  5
21F
331
21E
  5
220
331
21F
  5
221
331
220
  5
222
331
221
  5
223
331
222
  5
224
331
223
  5
225
331
224
  5
226
331
225
  5
227
331
226
  5
228
331
227
  5
229
331
228
  5
22A
331
229
  5
22B
331
22A
  5
22C
331
22B
  5
22D
331
22C
  5
22E
331
22D
  5
22F
331
22E
  5
230
331
22F
  5
231
331
230
  5
232
331
231
  5
233
331
232
  5
234
331
233
  5
235
331
234
  5
236
331
235
  5
237
331
236
  5
238
331
237
  5
239
331
238
  5
23A
331
239
  5
23B
331
23A
  5
23C
331
23B
  5
23D
331
23C
  5
23E
331
23D
  5
23F
331
23E
  5
240
331
23F
  5
241
331
240
  5
242
331
241
  5
243
331
242
  5
244
331
243
  5
245
331
244
  5
246
331
245
  5
247
331
246
  5
248
331
247
  5
249
331
248
  5
24A
331
249
  5
24B
331
24A
  5
24C
331
24B
  5
24D
331
24C
  5
24E
331
24D
  5
24F
331
24E
  5
250
331
0
  5
251
331
0
  5
252
331
0
  5
253
331
0
  5
254
331
0
  5
255
331
0
  5
256
331
0
  5
257
331
0
  5
258
331
0
  5
25A
331
0
  5
25B
331
0
  5
25C
331
0
  5
25D
331
0
  5
25E
331
0
  5
262
331
0
  5
263
331
0
  5
264
331
0
  5
265
331
0
  5
266
331
0
  5
267
331
0
  5
268
331
0
  5
269
331
0
  5
26A
331
0
  5
26B
331
0
  5
26C
331
0
  5
26D
331
0
  5
26E
331
0
  5
26F
331
0
  5
270
331
0
  5
271
331
0
  5
272
331
0
  5
273
331
0
  5
274
331
0
  5
275
331
0
  5
276
331
0
  5
277
331
0
  5
278
331
0
  5
279
331
0
  5
27A
331
0
  5
27B
331
0
  5
27C
331
0
  5
27D
331
0
  5
27E
331
0
  5
27F
331
0
  5
280
331
0
  5
281
331
0
  5
282
331
0
  5
283
331
0
  5
284
331
0
  5
285
331
0
  5
286
331
0
  5
287
331
0
  5
288
331
0
  5
289
331
0
  5
28A
331
0
  5
28B
331
0
  5
28C
331
0
  5
28D
331
0
  5
28E
331
0
  5
28F
331
0
  5
290
331
0
  5
291
331
0
  5
292
331
0
  5
293
331
0
  5
294
331
0
  5
295
331
0
  5
296
331
0
  5
297
331
0
  5
298
331
0
  5
299
331
0
  5
29A
331
0
  5
29B
331
0
  5
29C
331
0
  5
29D
331
0
  5
29E
331
0
  5
29F
331
0
  5
2A0
331
0
  5
2A1
331
0
  5
2A2
331
0
  5
2A3
331
0
  5
2A4
331
0
  5
2A5
331
0
  5
2A6
331
0
  5
2A7
331
0
  5
2A8
331
0
  5
2A9
331
0
  5
2AA
331
0
  5
2AB
331
0
  5
2AC
331
0
  5
2AD
331
0
  5
2AE
331
0
  5
2AF
331
0
  5
2B0
331
0
  5
2B1
331
0
  5
2B2
331
0
  5
2B3
331
0
  5
2B4
331
0
  5
2B5
331
0
  5
2B6
331
0
  5
2B7
331
0
  5
2B8
331
0
  5
2B9
331
0
  5
2BA
331
0
  5
2BB
331
0
  5
2BC
331
0
  5
2BD
331
0
  5
2BE
331
0
  5
2BF
331
0
  5
2C0
331
0
  5
2C1
331
0
  5
2C2
331
0
  5
2C3
331
0
  5
2C4
331
0
  5
2C5
331
0
  5
2C6
331
0
  5
2C7
331
0
  5
2C8
331
0
  5
2C9
331
0
  5
2CA
331
0
  5
2CB
331
0
  5
2CC
331
0
  5
2CD
331
0
  5
2CE
331
0
  5
2CF
331
0
  5
2D0
331
0
  5
2D1
331
0
  5
2D2
331
0
  5
2D3
331
0
  5
2D4
331
0
  5
2D5
331
0
  5
2D6
331
0
  5
2D7
331
0
  5
2D8
331
0
  5
2D9
331
0
  5
2DA
331
0
  5
2DB
331
0
  5
2DC
331
0
  5
2DD
331
0
  5
2DE
331
0
  5
2DF
331
0
  5
2E0
331
0
  5
2E1
331
0
  5
2E2
331
0
  5
2E3
331
0
  5
2E4
331
0
  5
2E5
331
0
  5
2E6
331
0
  5
2E7
331
0
  5
2E8
331
0
  5
2E9
331
0
  5
2EA
331
0
  5
2EB
331
0
  5
2EC
331
0
  5
2ED
331
0
  5
2EE
331
0
  5
2EF
331
0
  5
2F0
331
0
  5
2F1
331
0
  5
2F2
331
0
  5
2F3
331
0
  5
2F4
331
0
  5
2F5
331
0
  5
2F6
331
0
  5
2F7
331
0
  5
2F8
331
0
  5
2F9
331
0
  5
2FA
331
0
  5
2FB
331
0
  5
2FC
331
0
  5
2FD
331
0
  5
2FE
331
0
  5
2FF
331
0
  5
300
331
0
  5
301
331
0
  5
302
331
0
  5
303
331
0
  5
304
331
0
  5
305
331
0
  5
306
331
0
  5
307
331
0
  5
308
331
0
  5
309
331
0
  5
30A
331
0
  5
30B
331
0
  5
30C
331
0
  5
30D
331
0
  5
30E
331
0
  5
30F
331
0
  5
310
331
0
  5
311
331
0
  5
312
331
0
  5
313
331
0
  5
314
331
0
  5
315
331
0
  5
316
331
0
  5
317
331
0
  5
318
331
0
  5
319
331
0
  5
31A
331
0
  5
31B
331
0
  5
31C
331
0
  5
31D
331
0
  5
31E
331
0
  5
31F
331
0
  5
320
331
0
  5
321
331
0
  5
322
331
0
  5
323
331
0
  5
324
331
0
  5
325
331
0
  5
326
331
0
  5
327
331
0
  5
328
331
0
  5
329
331
0
  5
32A
331
0
  5
32B
331
0
  5
32C
331
0
  5
32D
331
0
  5
32E
331
0
  5
32F
331
0
  5
330
331
0
  5
331
331
330
  5
332
331
0
  5
333
331
0
  5
334
331
0
  5
335
331
0
  5
336
331
0
  5
337
331
0
  5
338
331
0
  5
339
331
0
  5
33A
331
0
  5
33B
331
0
  5
33C
331
0
  5
33D
331
0
  5
33E
331
0
  5
33F
331
0
  5
340
331
0
  5
341
331
0
  5
342
331
0
  5
343
331
0
  5
344
331
0
  5
345
331
0
  5
346
331
0
  5
347
331
0
  5
348
331
0
  5
349
331
0
  5
34A
331
0
  5
34B
331
0
  5
34C
331
0
  5
34D
331
0
  5
34E
331
0
  5
34F
331
0
  5
350
331
0
  5
351
331
0
  5
352
331
0
  5
353
331
0
  5
354
331
0
  5
355
331
0
  5
356
331
0
  5
357
331
0
  5
358
331
0
  5
359
331
0
  5
35A
331
0
  5
35B
331
0
  5
35C
331
0
  5
35D
331
0
  5
35E
331
0
  5
35F
331
0
  5
360
331
0
  5
361
331
0
  5
362
331
0
  5
363
331
0
  5
364
331
0
  5
365
331
0
  5
366
331
0
  5
367
331
0
  5
368
331
0
  5
369
331
0
  5
36A
331
0
  5
36B
331
0
  5
36C
331
0
  5
36D
331
0
  5
36E
331
0
  5
36F
331
0
  5
370
331
0
  5
371
331
0
  5
372
331
0
  5
373
331
0
  5
374
331
0
  5
375
331
0
  5
376
331
0
  5
377
331
0
  5
378
331
0
  5
379
331
0
  5
37A
331
0
  5
37B
331
0
  5
37C
331
0
  5
37D
331
0
  5
37E
331
0
  5
37F
331
0
  5
380
331
0
  5
381
331
0
  5
382
331
0
  5
383
331
0
  5
384
331
0
  5
385
331
0
  5
386
331
0
  5
387
331
0
  5
388
331
0
  5
389
331
0
  5
38A
331
0
  5
38B
331
0
  5
38C
331
0
  5
38D
331
0
  5
38E
331
0
  5
38F
331
0
  5
390
331
0
  5
391
331
0
  5
392
331
0
  5
393
331
0
  5
394
331
0
  5
395
331
0
  5
396
331
0
  5
397
331
0
  5
398
331
0
  5
399
331
0
  5
39A
331
0
  5
39B
331
0
  5
39C
331
0
  5
39D
331
0
  5
39E
331
0
  5
39F
331
0
  5
3A0
331
0
  5
3A1
331
0
  5
3A2
331
0
  5
3A3
331
0
  5
3A4
331
0
  5
3A5
331
0
  5
3A6
331
0
  5
3A7
331
0
  5
3A8
331
0
  5
3A9
331
0
  5
3AA
331
0
  5
3AC
331
0
  5
3AD
331
0
  5
3AE
331
0
  5
3AF
331
0
  5
3B0
331
0
  5
3B1
331
0
  5
3B2
331
0
  5
3B3
331
0
  5
3B4
331
0
  5
3B5
331
0
  5
3B6
331
0
  5
3B7
331
0
  5
3B8
331
0
  5
3B9
331
0
  5
3BA
331
0
  5
3BB
331
0
  5
3BC
331
0
  5
3BD
331
0
  5
3BE
331
0
  5
3BF
331
0
  5
3C0
331
0
  5
3C1
331
0
  5
3C2
331
0
  5
3C3
331
0
  5
3C4
331
0
  5
3C5
331
0
  5
3C6
331
0
  5
3C7
331
0
  5
3C8
331
0
  5
3C9
331
0
  5
3CA
331
0
  5
3CB
331
0
  5
3CC
331
0
  5
3CD
331
0
  5
3CE
331
0
  5
3CF
331
0
  5
3D0
331
0
  5
3D1
331
0
  5
3D2
331
0
  5
3D3
331
0
  5
3D4
331
0
  5
3D5
331
0
  5
3D6
331
0
  5
3D7
331
0
  5
3D8
331
0
  5
3D9
331
0
  5
3DA
331
0
  5
3DB
331
0
  5
3DC
331
0
  5
3DD
331
0
  5
3DE
331
0
  5
3DF
331
0
  5
3E0
331
0
  5
3E1
331
0
  5
3E2
331
0
  5
3E3
331
0
  5
3E4
331
0
  5
3E5
331
0
  5
3E6
331
0
  5
3E7
331
0
  5
3E8
331
0
  5
3E9
331
0
  5
3EA
331
0
  5
3EB
331
0
  5
3EC
331
0
  5
3ED
331
0
  5
3EE
331
0
  5
3EF
331
0
  5
3F0
331
0
  5
3F1
331
0
  5
3F2
331
0
  5
3F3
331
0
  5
3F4
331
0
  5
3F5
331
0
  5
3F6
331
0
  5
3F7
331
0
  5
3F8
331
0
  5
3F9
331
0
  5
3FA
331
0
  5
3FB
331
0
  5
3FC
331
0
  5
3FD
331
0
  5
3FE
331
0
  5
3FF
331
0
  5
400
331
3FF
  5
401
331
400
  5
402
331
401
  5
403
331
402
  5
404
331
403
  5
405
331
404
  5
406
331
405
  5
407
331
406
  5
408
331
407
  5
409
331
408
  5
40A
331
409
  5
40B
331
40A
  5
40C
331
40B
  5
40D
331
40C
  5
40E
331
40D
  5
40F
331
40E
  5
410
331
40F
  5
411
331
410
  5
412
331
411
  5
413
331
412
  5
414
331
413
  5
415
331
414
  5
416
331
415
  5
417
331
416
  5
418
331
417
  5
419
331
418
  5
41A
331
0
  5
41C
331
0
  5
41D
331
0
  5
41E
331
0
  5
41F
331
0
  5
420
331
0
  5
421
331
0
  5
422
331
0
  5
423
331
0
  5
424
331
0
  5
425
331
0
  5
426
331
0
  5
427
331
0
  5
428
331
0
  5
429
331
0
  5
42A
331
0
  5
42B
331
0
  5
42C
331
0
  5
42D
331
0
  5
42E
331
0
  5
42F
331
0
  5
430
331
0
  5
431
331
0
  5
432
331
0
  5
433
331
0
  5
434
331
0
  5
435
331
0
  5
436
331
0
  5
437
331
0
  5
438
331
0
  5
439
331
0
  5
43A
331
0
  5
43B
331
0
  5
43C
331
0
  5
43D
331
0
  5
43E
331
0
  5
43F
331
0
  5
440
331
0
  5
441
331
0
  5
442
331
0
  5
443
331
0
  5
444
331
0
  5
445
331
0
  5
446
331
0
  5
447
331
0
  5
448
331
0
  5
449
331
0
  5
44A
331
0
  5
44B
331
0
  5
44C
331
0
  5
44D
331
0
  5
44E
331
0
  5
44F
331
0
  5
450
331
0
  5
451
331
0
  5
452
331
0
  5
453
331
0
  5
454
331
0
  5
455
331
0
  5
456
331
0
  5
462
331
0
  5
463
331
0
  5
46A
331
0
  5
46B
331
0
  5
46C
331
0
  5
46D
331
0
  5
46E
331
0
  5
46F
331
0
  5
470
331
0
  5
471
331
0
  5
472
331
0
  5
473
331
0
  5
474
331
0
  5
475
331
0
  5
476
331
0
  5
477
331
0
  5
478
331
0
  5
479
331
0
  5
47A
331
0
  5
47B
331
0
  5
47C
331
0
  5
483
331
0
  5
488
331
0
  5
489
331
0
  5
48A
331
0
  5
48B
331
0
  5
4AF
331
0
  5
4B0
331
0
  5
4B1
331
0
  5
4B2
331
4B1
  5
4B3
331
4B2
  5
4B4
331
4B3
  5
4B5
331
4B4
  5
4B6
331
4B5
  5
4B7
331
4B6
  5
4B8
331
4B7
  5
4B9
331
4B8
  5
4BA
331
4B9
  5
4BB
331
4BA
  5
4BE
331
4BB
  5
4BF
331
4BE
  5
4C0
331
4BF
  5
4C1
331
4C0
  5
4C2
331
4C1
  5
4C3
331
4C2
  5
4C4
331
4C3
  5
4C5
331
4C4
  5
4C6
331
4C5
  5
4C7
331
4C6
  5
4C8
331
4C7
  5
4C9
331
4C8
  5
4CA
331
4C9
  5
4CB
331
4CA
  5
4CC
331
4CB
  5
4CD
331
4CC
  5
4CE
331
4CD
  5
4D1
331
4CE
  5
4D2
331
0
  5
4D3
331
0
  5
4D4
331
0
  5
4D5
331
0
  5
4D6
331
0
  5
4D7
331
0
  5
4D8
331
0
  5
4D9
331
0
  5
4DA
331
0
  5
4DB
331
0
  5
4DC
331
0
  5
4DD
331
0
  5
4DE
331
0
  5
4DF
331
0
  5
4E0
331
0
  5
4E1
331
0
  5
4E2
331
0
  5
4E3
331
0
  5
4E4
331
0
  5
4E5
331
0
  5
4E6
331
0
  5
4E7
331
4E9
  5
4EA
331
4EA
  5
4EB
331
4EB
  5
4EC
331
4EC
  5
4ED
331
4ED
  5
4EE
331
4EE
  5
4EF
331
4EF
  5
4F0
331
4F0
  5
4F1
331
4F1
  5
4F2
331
4F2
  5
4F3
331
4F3
  5
4F4
331
4F4
  5
4F5
331
4F5
  5
4F6
331
4F6
  5
4F7
331
4F7
  5
4F8
331
4F8
  5
4F9
331
4F9
  5
4FA
331
4FA
  5
4FB
331
4FB
  5
4FC
331
4FC
  5
4FD
331
4FD
  5
4FE
331
4FE
  5
4FF
331
4FF
  5
500
331
500
  5
501
331
501
  5
502
  0
LAYOUT
  5
21
102
{ACAD_REACTORS
330
22
102
}
330
22
100
AcDbPlotSettings
  1

  2
Bullzip PDF Printer.pc3
  4
A3
  6

 40
0.2
 41
0.0
 42
0.0
 43
0.0
 44
420.2
 45
297.1
 46
25.0
 47
12.0
 48
49.99999988333343
 49
0.0
140
1195.999997258333
141
817.4999980924998
142
1.0
143
3.0
 70
 11936
 72
     1
 73
     0
 74
     4
  7
monochrome.ctb
 75
     0
147
0.3333333333333333
148
-49.99999988333343
149
0.0
100
AcDbLayout
  1
Model
 70
     0
 71
     0
 10
0.0
 20
0.0
 11
12.0
 21
9.0
 12
0.0
 22
0.0
 32
0.0
 14
100.7624053502027
 24
37.34429447957666
 34
0.0
 15
1047.323435653453
 25
876.1245447862493
 35
0.0
146
0.0
 13
0.0
 23
0.0
 33
0.0
 16
1.0
 26
0.0
 36
0.0
 17
0.0
 27
1.0
 37
0.0
 76
     0
330
19
331
31
1001
ACAD_PSEXT
1000
Bullzip PDF Printer.pc3
1000
Bullzip PDF Printer
1000
BULLZIP
1000
Bullzip PDF Printer 10.1.0.1871
1070
     0
  0
LAYOUT
  5
28
102
{ACAD_REACTORS
330
22
102
}
330
22
100
AcDbPlotSettings
  1

  2
SR-LP8300F
  4

  6

 40
0.0
 41
0.0
 42
0.0
 43
0.0
 44
0.0
 45
0.0
 46
0.0
 47
0.0
 48
0.0
 49
0.0
140
0.0
141
0.0
142
1.0
143
1.0
 70
   688
 72
     0
 73
     0
 74
     5
  7
monochrome.ctb
 75
    16
147
1.0
148
0.0
149
0.0
100
AcDbLayout
  1
ﾚｲｱｳﾄ1
 70
     0
 71
     1
 10
0.0
 20
0.0
 11
12.0
 21
9.0
 12
0.0
 22
0.0
 32
0.0
 14
1000000000000000E+20
 24
1000000000000000E+20
 34
1000000000000000E+20
 15
-1000000000000000E+20
 25
-1000000000000000E+20
 35
-1000000000000000E+20
146
0.0
 13
0.0
 23
0.0
 33
0.0
 16
1.0
 26
0.0
 36
0.0
 17
0.0
 27
1.0
 37
0.0
 76
     0
330
25
  0
MATERIAL
  5
67
102
{ACAD_REACTORS
330
B
102
}
102
{ACAD_XDICTIONARY
360
547
102
}
330
B
100
AcDbMaterial
  1
ByBlock
 72
     0
 73
     2
 43
0.0208333333333333
 43
0.0
 43
0.0
 43
0.0
 43
0.0
 43
0.0208333333333333
 43
0.0
 43
0.0
 43
0.0
 43
0.0
 43
1.0
 43
0.0
 43
0.0
 43
0.0
 43
0.0
 43
1.0
 77
     0
 78
     2
 47
0.0208333333333333
 47
0.0
 47
0.0
 47
0.0
 47
0.0
 47
0.0208333333333333
 47
0.0
 47
0.0
 47
0.0
 47
0.0
 47
1.0
 47
0.0
 47
0.0
 47
0.0
 47
0.0
 47
1.0
171
     0
172
     2
 49
0.0208333333333333
 49
0.0
 49
0.0
 49
0.0
 49
0.0
 49
0.0208333333333333
 49
0.0
 49
0.0
 49
0.0
 49
0.0
 49
1.0
 49
0.0
 49
0.0
 49
0.0
 49
0.0
 49
1.0
175
     0
176
     2
142
0.0208333333333333
142
0.0
142
0.0
142
0.0
142
0.0
142
0.0208333333333333
142
0.0
142
0.0
142
0.0
142
0.0
142
1.0
142
0.0
142
0.0
142
0.0
142
0.0
142
1.0
179
     0
270
     2
144
0.0208333333333333
144
0.0
144
0.0
144
0.0
144
0.0
144
0.0208333333333333
144
0.0
144
0.0
144
0.0
144
0.0
144
1.0
144
0.0
144
0.0
144
0.0
144
0.0
144
1.0
274
     2
147
0.0208333333333333
147
0.0
147
0.0
147
0.0
147
0.0
147
0.0208333333333333
147
0.0
147
0.0
147
0.0
147
0.0
147
1.0
147
0.0
147
0.0
147
0.0
147
0.0
147
1.0
  0
MATERIAL
  5
12
102
{ACAD_REACTORS
330
B
102
}
102
{ACAD_XDICTIONARY
360
543
102
}
330
B
100
AcDbMaterial
  1
ByLayer
 72
     0
 73
     2
 43
0.0208333333333333
 43
0.0
 43
0.0
 43
0.0
 43
0.0
 43
0.0208333333333333
 43
0.0
 43
0.0
 43
0.0
 43
0.0
 43
1.0
 43
0.0
 43
0.0
 43
0.0
 43
0.0
 43
1.0
 77
     0
 78
     2
 47
0.0208333333333333
 47
0.0
 47
0.0
 47
0.0
 47
0.0
 47
0.0208333333333333
 47
0.0
 47
0.0
 47
0.0
 47
0.0
 47
1.0
 47
0.0
 47
0.0
 47
0.0
 47
0.0
 47
1.0
171
     0
172
     2
 49
0.0208333333333333
 49
0.0
 49
0.0
 49
0.0
 49
0.0
 49
0.0208333333333333
 49
0.0
 49
0.0
 49
0.0
 49
0.0
 49
1.0
 49
0.0
 49
0.0
 49
0.0
 49
0.0
 49
1.0
175
     0
176
     2
142
0.0208333333333333
142
0.0
142
0.0
142
0.0
142
0.0
142
0.0208333333333333
142
0.0
142
0.0
142
0.0
142
0.0
142
1.0
142
0.0
142
0.0
142
0.0
142
0.0
142
1.0
179
     0
270
     2
144
0.0208333333333333
144
0.0
144
0.0
144
0.0
144
0.0
144
0.0208333333333333
144
0.0
144
0.0
144
0.0
144
0.0
144
1.0
144
0.0
144
0.0
144
0.0
144
0.0
144
1.0
274
     2
147
0.0208333333333333
147
0.0
147
0.0
147
0.0
147
0.0
147
0.0208333333333333
147
0.0
147
0.0
147
0.0
147
0.0
147
1.0
147
0.0
147
0.0
147
0.0
147
0.0
147
1.0
  0
MATERIAL
  5
A
102
{ACAD_REACTORS
330
B
102
}
102
{ACAD_XDICTIONARY
360
545
102
}
330
B
100
AcDbMaterial
  1
Global
 72
     0
 73
     2
 43
0.0208333333333333
 43
0.0
 43
0.0
 43
0.0
 43
0.0
 43
0.0208333333333333
 43
0.0
 43
0.0
 43
0.0
 43
0.0
 43
1.0
 43
0.0
 43
0.0
 43
0.0
 43
0.0
 43
1.0
 77
     0
 78
     2
 47
0.0208333333333333
 47
0.0
 47
0.0
 47
0.0
 47
0.0
 47
0.0208333333333333
 47
0.0
 47
0.0
 47
0.0
 47
0.0
 47
1.0
 47
0.0
 47
0.0
 47
0.0
 47
0.0
 47
1.0
171
     0
172
     2
 49
0.0208333333333333
 49
0.0
 49
0.0
 49
0.0
 49
0.0
 49
0.0208333333333333
 49
0.0
 49
0.0
 49
0.0
 49
0.0
 49
1.0
 49
0.0
 49
0.0
 49
0.0
 49
0.0
 49
1.0
175
     0
176
     2
142
0.0208333333333333
142
0.0
142
0.0
142
0.0
142
0.0
142
0.0208333333333333
142
0.0
142
0.0
142
0.0
142
0.0
142
1.0
142
0.0
142
0.0
142
0.0
142
0.0
142
1.0
179
     0
270
     2
144
0.0208333333333333
144
0.0
144
0.0
144
0.0
144
0.0
144
0.0208333333333333
144
0.0
144
0.0
144
0.0
144
0.0
144
1.0
144
0.0
144
0.0
144
0.0
144
0.0
144
1.0
274
     2
147
0.0208333333333333
147
0.0
147
0.0
147
0.0
147
0.0
147
0.0208333333333333
147
0.0
147
0.0
147
0.0
147
0.0
147
1.0
147
0.0
147
0.0
147
0.0
147
0.0
147
1.0
  0
MLEADERSTYLE
  5
4AB
102
{ACAD_REACTORS
330
48F
102
}
102
{ACAD_XDICTIONARY
360
579
102
}
330
48F
100
AcDbMLeaderStyle
170
     2
171
     1
172
     0
 90
        2
 40
0.0
 41
0.0
173
     1
 91
-1056964608
340
F
 92
       -2
290
     1
 42
0.09
291
     1
 43
0.36
  3
Standard
341
0
 44
0.18
300

342
10
174
     1
178
     6
175
     1
176
     0
 93
-1056964608
 45
0.18
292
     0
297
     0
 46
0.18
343
0
 94
-1056964608
 47
1.0
 49
1.0
140
1.0
293
     1
141
0.0
294
     1
177
     0
142
1.0
295
     0
296
     0
143
0.125
1001
ACAD_MLEADERVER
1070
     2
  0
MLINESTYLE
  5
16
102
{ACAD_REACTORS
330
17
102
}
330
17
100
AcDbMlineStyle
  2
STANDARD
 70
     0
  3

 62
     0
 51
90.0
 52
90.0
 71
     2
 49
0.5
 62
   256
  6
BYLAYER
 49
-0.5
 62
   256
  6
BYLAYER
  0
ACDBPLACEHOLDER
  5
7
102
{ACAD_REACTORS
330
8
102
}
330
8
  0
SCALE
  5
56
102
{ACAD_REACTORS
330
34
102
}
330
34
100
AcDbScale
 70
     0
300
1:1
140
1.0
141
1.0
290
     1
  0
SCALE
  5
5F
102
{ACAD_REACTORS
330
34
102
}
330
34
100
AcDbScale
 70
     0
300
3/8" = 1'-0"
140
0.375
141
12.0
290
     0
  0
SCALE
  5
60
102
{ACAD_REACTORS
330
34
102
}
330
34
100
AcDbScale
 70
     0
300
1/2" = 1'-0"
140
0.5
141
12.0
290
     0
  0
SCALE
  5
61
102
{ACAD_REACTORS
330
34
102
}
330
34
100
AcDbScale
 70
     0
300
3/4" = 1'-0"
140
0.75
141
12.0
290
     0
  0
SCALE
  5
62
102
{ACAD_REACTORS
330
34
102
}
330
34
100
AcDbScale
 70
     0
300
1" = 1'-0"
140
1.0
141
12.0
290
     0
  0
SCALE
  5
63
102
{ACAD_REACTORS
330
34
102
}
330
34
100
AcDbScale
 70
     0
300
1-1/2" = 1'-0"
140
1.5
141
12.0
290
     0
  0
SCALE
  5
64
102
{ACAD_REACTORS
330
34
102
}
330
34
100
AcDbScale
 70
     0
300
3" = 1'-0"
140
3.0
141
12.0
290
     0
  0
SCALE
  5
65
102
{ACAD_REACTORS
330
34
102
}
330
34
100
AcDbScale
 70
     0
300
6" = 1'-0"
140
6.0
141
12.0
290
     0
  0
SCALE
  5
66
102
{ACAD_REACTORS
330
34
102
}
330
34
100
AcDbScale
 70
     0
300
1'-0" = 1'-0"
140
12.0
141
12.0
290
     0
  0
SCALE
  5
57
102
{ACAD_REACTORS
330
34
102
}
330
34
100
AcDbScale
 70
     0
300
1/128" = 1'-0"
140
0.0078125
141
12.0
290
     0
  0
SCALE
  5
58
102
{ACAD_REACTORS
330
34
102
}
330
34
100
AcDbScale
 70
     0
300
1/64" = 1'-0"
140
0.015625
141
12.0
290
     0
  0
SCALE
  5
59
102
{ACAD_REACTORS
330
34
102
}
330
34
100
AcDbScale
 70
     0
300
1/32" = 1'-0"
140
0.03125
141
12.0
290
     0
  0
SCALE
  5
5A
102
{ACAD_REACTORS
330
34
102
}
330
34
100
AcDbScale
 70
     0
300
1/16" = 1'-0"
140
0.0625
141
12.0
290
     0
  0
SCALE
  5
5B
102
{ACAD_REACTORS
330
34
102
}
330
34
100
AcDbScale
 70
     0
300
3/32" = 1'-0"
140
0.09375
141
12.0
290
     0
  0
SCALE
  5
5C
102
{ACAD_REACTORS
330
34
102
}
330
34
100
AcDbScale
 70
     0
300
1/8" = 1'-0"
140
0.125
141
12.0
290
     0
  0
SCALE
  5
5D
102
{ACAD_REACTORS
330
34
102
}
330
34
100
AcDbScale
 70
     0
300
3/16" = 1'-0"
140
0.1875
141
12.0
290
     0
  0
SCALE
  5
5E
102
{ACAD_REACTORS
330
34
102
}
330
34
100
AcDbScale
 70
     0
300
1/4" = 1'-0"
140
0.25
141
12.0
290
     0
  0
TABLESTYLE
  5
4AA
102
{ACAD_REACTORS
330
48E
102
}
330
48E
100
AcDbTableStyle
  3
Standard
 70
     0
 71
     0
 40
0.06
 41
0.06
280
     0
281
     0
  7
STANDARD
140
0.18
170
     2
 62
     0
 63
   257
283
     0
274
    -2
284
     1
 64
     0
275
    -2
285
     1
 65
     0
276
    -2
286
     1
 66
     0
277
    -2
287
     1
 67
     0
278
    -2
288
     1
 68
     0
279
    -2
289
     1
 69
     0
  7
STANDARD
140
0.25
170
     5
 62
     0
 63
   257
283
     0
274
    -2
284
     1
 64
     0
275
    -2
285
     1
 65
     0
276
    -2
286
     1
 66
     0
277
    -2
287
     1
 67
     0
278
    -2
288
     1
 68
     0
279
    -2
289
     1
 69
     0
  7
STANDARD
140
0.18
170
     5
 62
     0
 63
   257
283
     0
274
    -2
284
     1
 64
     0
275
    -2
285
     1
 65
     0
276
    -2
286
     1
 66
     0
277
    -2
287
     1
 67
     0
278
    -2
288
     1
 68
     0
279
    -2
289
     1
 69
     0
  0
VISUALSTYLE
  5
496
102
{ACAD_REACTORS
330
2F
102
}
102
{ACAD_XDICTIONARY
360
551
102
}
330
2F
100
AcDbVisualStyle
  2
2dWireframe
 70
     4
 71
     0
 72
     2
 73
     0
 90
        0
 40
0.6
 41
30.0
 62
     5
 63
     7
 74
     1
 91
        4
 64
     7
 65
   257
 75
     1
175
     1
 42
1.0
 92
        0
 66
   257
 43
1.0
 76
     1
 77
     6
 78
     2
 67
     7
 79
     5
170
     0
171
     0
290
     0
174
     0
 93
        1
 44
0.0
173
     0
291
     0
 45
0.0
1001
ACAD
1000
AcDbSavedByObjectVersion
1070
     0
  0
VISUALSTYLE
  5
499
102
{ACAD_REACTORS
330
2F
102
}
102
{ACAD_XDICTIONARY
360
557
102
}
330
2F
100
AcDbVisualStyle
  2
Basic
 70
     7
 71
     1
 72
     0
 73
     1
 90
        0
 40
0.6
 41
30.0
 62
     5
 63
     7
 74
     0
 91
        4
 64
     7
 65
   257
 75
     1
175
     1
 42
1.0
 92
        8
 66
     7
 43
1.0
 76
     1
 77
     6
 78
     2
 67
     7
 79
     5
170
     0
171
     0
290
     0
174
     0
 93
        1
 44
0.0
173
     0
291
     1
 45
0.0
1001
ACAD
1000
AcDbSavedByObjectVersion
1070
     0
  0
VISUALSTYLE
  5
49D
102
{ACAD_REACTORS
330
2F
102
}
102
{ACAD_XDICTIONARY
360
55F
102
}
330
2F
100
AcDbVisualStyle
  2
Brighten
 70
    12
 71
     2
 72
     2
 73
     0
 90
        0
 40
0.6
 41
30.0
 62
     5
 63
     7
 74
     1
 91
        4
 64
     7
 65
   257
 75
     1
175
     1
 42
1.0
 92
        8
 66
     7
 43
1.0
 76
     1
 77
     6
 78
     2
 67
     7
 79
     5
170
     0
171
     0
290
     0
174
     0
 93
        1
 44
50.0
173
     0
291
     1
 45
0.0
1001
ACAD
1000
AcDbSavedByObjectVersion
1070
     0
  0
VISUALSTYLE
  5
4A1
102
{ACAD_REACTORS
330
2F
102
}
102
{ACAD_XDICTIONARY
360
567
102
}
330
2F
100
AcDbVisualStyle
  2
ColorChange
 70
    16
 71
     2
 72
     2
 73
     3
 90
        0
 40
0.6
 41
30.0
 62
     5
 63
     8
 74
     1
 91
        4
 64
     7
 65
   257
 75
     1
175
     1
 42
1.0
 92
        8
 66
     8
 43
1.0
 76
     1
 77
     6
 78
     2
 67
     7
 79
     5
170
     0
171
     0
290
     0
174
     0
 93
        1
 44
0.0
173
     0
291
     1
 45
0.0
1001
ACAD
1000
AcDbSavedByObjectVersion
1070
     0
  0
VISUALSTYLE
  5
49B
102
{ACAD_REACTORS
330
2F
102
}
102
{ACAD_XDICTIONARY
360
55B
102
}
330
2F
100
AcDbVisualStyle
  2
Conceptual
 70
     9
 71
     3
 72
     2
 73
     0
 90
        0
 40
0.6
 41
30.0
 62
     5
 63
     7
 74
     2
 91
        2
 64
     7
 65
   257
 75
     1
175
     1
 42
40.0
 92
        8
 66
     7
 43
1.0
 76
     1
 77
     6
 78
     2
 67
     7
 79
     3
170
     0
171
     0
290
     0
174
     0
 93
        1
 44
0.0
173
     0
291
     0
 45
0.0
1001
ACAD
1000
AcDbSavedByObjectVersion
1070
     0
  0
VISUALSTYLE
  5
49C
102
{ACAD_REACTORS
330
2F
102
}
102
{ACAD_XDICTIONARY
360
55D
102
}
330
2F
100
AcDbVisualStyle
  2
Dim
 70
    11
 71
     2
 72
     2
 73
     0
 90
        0
 40
0.6
 41
30.0
 62
     5
 63
     7
 74
     1
 91
        4
 64
     7
 65
   257
 75
     1
175
     1
 42
1.0
 92
        8
 66
     7
 43
1.0
 76
     1
 77
     6
 78
     2
 67
     7
 79
     5
170
     0
171
     0
290
     0
174
     0
 93
        1
 44
-50.0
173
     0
291
     1
 45
0.0
1001
ACAD
1000
AcDbSavedByObjectVersion
1070
     0
  0
VISUALSTYLE
  5
4A4
102
{ACAD_REACTORS
330
2F
102
}
102
{ACAD_XDICTIONARY
360
56D
102
}
330
2F
100
AcDbVisualStyle
  2
EdgeColorOff
 70
    22
 71
     2
 72
     2
 73
     0
 90
        0
 40
0.6
 41
30.0
 62
     5
 63
     7
 74
     1
 91
        4
 64
     7
 65
   257
 75
     1
175
     1
 42
1.0
 92
        8
 66
     7
 43
1.0
 76
     1
 77
     6
 78
     2
 67
     7
 79
     5
170
     0
171
     0
290
     0
174
     0
 93
        1
 44
0.0
173
     0
291
     1
 45
0.0
1001
ACAD
1000
AcDbSavedByObjectVersion
1070
     0
  0
VISUALSTYLE
  5
4A0
102
{ACAD_REACTORS
330
2F
102
}
102
{ACAD_XDICTIONARY
360
565
102
}
330
2F
100
AcDbVisualStyle
  2
Facepattern
 70
    15
 71
     2
 72
     2
 73
     0
 90
        0
 40
0.6
 41
30.0
 62
     5
 63
     7
 74
     1
 91
        4
 64
     7
 65
   257
 75
     1
175
     1
 42
1.0
 92
        8
 66
     7
 43
1.0
 76
     1
 77
     6
 78
     2
 67
     7
 79
     5
170
     0
171
     0
290
     0
174
     0
 93
        1
 44
0.0
173
     0
291
     1
 45
0.0
1001
ACAD
1000
AcDbSavedByObjectVersion
1070
     0
  0
VISUALSTYLE
  5
492
102
{ACAD_REACTORS
330
2F
102
}
102
{ACAD_XDICTIONARY
360
549
102
}
330
2F
100
AcDbVisualStyle
  2
Flat
 70
     0
 71
     2
 72
     1
 73
     1
 90
        2
 40
0.6
 41
30.0
 62
     5
 63
     7
 74
     0
 91
        4
 64
     7
 65
   257
 75
     1
175
     1
 42
1.0
 92
        8
 66
     7
 43
1.0
 76
     1
 77
     6
 78
     2
 67
     7
 79
     5
170
     0
171
     0
290
     0
174
     0
 93
       13
 44
0.0
173
     0
291
     1
 45
0.0
1001
ACAD
1000
AcDbSavedByObjectVersion
1070
     0
  0
VISUALSTYLE
  5
493
102
{ACAD_REACTORS
330
2F
102
}
102
{ACAD_XDICTIONARY
360
54B
102
}
330
2F
100
AcDbVisualStyle
  2
FlatWithEdges
 70
     1
 71
     2
 72
     1
 73
     1
 90
        2
 40
0.6
 41
30.0
 62
     5
 63
     7
 74
     1
 91
        4
 64
     7
 65
   257
 75
     1
175
     1
 42
1.0
 92
        0
 66
   257
 43
1.0
 76
     1
 77
     6
 78
     2
 67
     7
 79
     5
170
     0
171
     0
290
     0
174
     0
 93
       13
 44
0.0
173
     0
291
     1
 45
0.0
1001
ACAD
1000
AcDbSavedByObjectVersion
1070
     0
  0
VISUALSTYLE
  5
494
102
{ACAD_REACTORS
330
2F
102
}
102
{ACAD_XDICTIONARY
360
54D
102
}
330
2F
100
AcDbVisualStyle
  2
Gouraud
 70
     2
 71
     2
 72
     2
 73
     1
 90
        2
 40
0.6
 41
30.0
 62
     5
 63
     7
 74
     0
 91
        4
 64
     7
 65
   257
 75
     1
175
     1
 42
1.0
 92
        0
 66
     7
 43
1.0
 76
     1
 77
     6
 78
     2
 67
     7
 79
     5
170
     0
171
     0
290
     0
174
     0
 93
       13
 44
0.0
173
     0
291
     1
 45
0.0
1001
ACAD
1000
AcDbSavedByObjectVersion
1070
     0
  0
VISUALSTYLE
  5
495
102
{ACAD_REACTORS
330
2F
102
}
102
{ACAD_XDICTIONARY
360
54F
102
}
330
2F
100
AcDbVisualStyle
  2
GouraudWithEdges
 70
     3
 71
     2
 72
     2
 73
     1
 90
        2
 40
0.6
 41
30.0
 62
     5
 63
     7
 74
     1
 91
        4
 64
     7
 65
   257
 75
     1
175
     1
 42
1.0
 92
        0
 66
   257
 43
1.0
 76
     1
 77
     6
 78
     2
 67
     7
 79
     5
170
     0
171
     0
290
     0
174
     0
 93
       13
 44
0.0
173
     0
291
     1
 45
0.0
1001
ACAD
1000
AcDbSavedByObjectVersion
1070
     0
  0
VISUALSTYLE
  5
498
102
{ACAD_REACTORS
330
2F
102
}
102
{ACAD_XDICTIONARY
360
555
102
}
330
2F
100
AcDbVisualStyle
  2
Hidden
 70
     6
 71
     1
 72
     2
 73
     2
 90
        0
 40
0.6
 41
30.0
 62
     5
 63
     7
 74
     2
 91
        2
 64
     7
 65
   257
 75
     2
175
     1
 42
40.0
 92
        0
 66
   257
 43
1.0
 76
     1
 77
     6
 78
     2
 67
     7
 79
     3
170
     0
171
     0
290
     0
174
     0
 93
        1
 44
0.0
173
     0
291
     0
 45
0.0
1001
ACAD
1000
AcDbSavedByObjectVersion
1070
     0
  0
VISUALSTYLE
  5
4A2
102
{ACAD_REACTORS
330
2F
102
}
102
{ACAD_XDICTIONARY
360
569
102
}
330
2F
100
AcDbVisualStyle
  2
JitterOff
 70
    20
 71
     2
 72
     2
 73
     0
 90
        0
 40
0.6
 41
30.0
 62
     5
 63
     7
 74
     1
 91
        4
 64
     7
 65
   257
 75
     1
175
     1
 42
1.0
 92
       10
 66
     7
 43
1.0
 76
     1
 77
     6
 78
     2
 67
     7
 79
     5
170
     0
171
     0
290
     0
174
     0
 93
        1
 44
0.0
173
     0
291
     1
 45
0.0
1001
ACAD
1000
AcDbSavedByObjectVersion
1070
     0
  0
VISUALSTYLE
  5
49F
102
{ACAD_REACTORS
330
2F
102
}
102
{ACAD_XDICTIONARY
360
563
102
}
330
2F
100
AcDbVisualStyle
  2
Linepattern
 70
    14
 71
     2
 72
     2
 73
     0
 90
        0
 40
0.6
 41
30.0
 62
     5
 63
     7
 74
     1
 91
        4
 64
     7
 65
   257
 75
     7
175
     7
 42
1.0
 92
        8
 66
     7
 43
1.0
 76
     1
 77
     6
 78
     2
 67
     7
 79
     5
170
     0
171
     0
290
     0
174
     0
 93
        1
 44
0.0
173
     0
291
     1
 45
0.0
1001
ACAD
1000
AcDbSavedByObjectVersion
1070
     0
  0
VISUALSTYLE
  5
4A3
102
{ACAD_REACTORS
330
2F
102
}
102
{ACAD_XDICTIONARY
360
56B
102
}
330
2F
100
AcDbVisualStyle
  2
OverhangOff
 70
    21
 71
     2
 72
     2
 73
     0
 90
        0
 40
0.6
 41
30.0
 62
     5
 63
     7
 74
     1
 91
        4
 64
     7
 65
   257
 75
     1
175
     1
 42
1.0
 92
        9
 66
     7
 43
1.0
 76
     1
 77
     6
 78
     2
 67
     7
 79
     5
170
     0
171
     0
290
     0
174
     0
 93
        1
 44
0.0
173
     0
291
     1
 45
0.0
1001
ACAD
1000
AcDbSavedByObjectVersion
1070
     0
  0
VISUALSTYLE
  5
49A
102
{ACAD_REACTORS
330
2F
102
}
102
{ACAD_XDICTIONARY
360
559
102
}
330
2F
100
AcDbVisualStyle
  2
Realistic
 70
     8
 71
     2
 72
     3
 73
     0
 90
        2
 40
0.6
 41
30.0
 62
     5
 63
     7
 74
     0
 91
        0
 64
     7
 65
   257
 75
     1
175
     1
 42
1.0
 92
        8
 66
   257
 43
1.0
 76
     1
 77
     6
 78
     2
 67
     7
 79
     3
170
     0
171
     0
290
     0
174
     0
 93
       13
 44
0.0
173
     0
291
     0
 45
0.0
1001
ACAD
1000
AcDbSavedByObjectVersion
1070
     0
  0
VISUALSTYLE
  5
4A9
102
{ACAD_REACTORS
330
2F
102
}
102
{ACAD_XDICTIONARY
360
577
102
}
330
2F
100
AcDbVisualStyle
  2
Shaded
 70
    27
 71
     2
 72
     2
 73
     1
 90
        2
 40
0.6
 41
30.0
 62
     5
 63
     7
 74
     0
 91
        4
 64
     7
 65
   257
 75
     1
175
     1
 42
1.0
 92
        8
 66
   257
 43
1.0
 76
     1
 77
     6
 78
     2
 67
   251
 79
     3
170
     0
171
     0
290
     0
174
     0
 93
        5
 44
0.0
173
     0
291
     0
 45
0.0
1001
ACAD
1000
AcDbSavedByObjectVersion
1070
     0
  0
VISUALSTYLE
  5
4A8
102
{ACAD_REACTORS
330
2F
102
}
102
{ACAD_XDICTIONARY
360
575
102
}
330
2F
100
AcDbVisualStyle
  2
Shaded with edges
 70
    26
 71
     2
 72
     2
 73
     1
 90
        2
 40
0.6
 41
30.0
 62
     5
 63
     7
 74
     1
 91
       10
 64
     7
 65
   257
 75
     2
175
     1
 42
1.0
 92
        8
 66
   257
 43
1.0
 76
     1
 77
     6
 78
     2
 67
     7
 79
     3
170
     0
171
     0
290
     0
174
     0
 93
        5
 44
0.0
173
     0
291
     0
 45
0.0
1001
ACAD
1000
AcDbSavedByObjectVersion
1070
     0
  0
VISUALSTYLE
  5
4A5
102
{ACAD_REACTORS
330
2F
102
}
102
{ACAD_XDICTIONARY
360
56F
102
}
330
2F
100
AcDbVisualStyle
  2
Shades of Gray
 70
    23
 71
     2
 72
     2
 73
     3
 90
        0
 40
0.6
 41
30.0
 62
     5
 63
     7
 74
     2
 91
        2
 64
     7
 65
     7
 75
     1
175
     1
 42
40.0
 92
        8
 66
     7
 43
1.0
 76
     1
 77
     6
 78
     2
 67
     7
 79
     3
170
     0
171
     0
290
     0
174
     0
 93
        1
 44
0.0
173
     0
291
     0
 45
0.0
1001
ACAD
1000
AcDbSavedByObjectVersion
1070
     0
  0
VISUALSTYLE
  5
4A6
102
{ACAD_REACTORS
330
2F
102
}
102
{ACAD_XDICTIONARY
360
571
102
}
330
2F
100
AcDbVisualStyle
  2
Sketchy
 70
    24
 71
     1
 72
     2
 73
     2
 90
        0
 40
0.6
 41
30.0
 62
     5
 63
     7
 74
     2
 91
        2
 64
     7
 65
     7
 75
     1
175
     1
 42
40.0
 92
       11
 66
     7
 43
1.0
 76
     1
 77
     6
 78
     2
 67
     7
 79
     6
170
     0
171
     0
290
     0
174
     0
 93
        1
 44
0.0
173
     0
291
     0
 45
0.0
1001
ACAD
1000
AcDbSavedByObjectVersion
1070
     0
  0
VISUALSTYLE
  5
49E
102
{ACAD_REACTORS
330
2F
102
}
102
{ACAD_XDICTIONARY
360
561
102
}
330
2F
100
AcDbVisualStyle
  2
Thicken
 70
    13
 71
     2
 72
     2
 73
     0
 90
        0
 40
0.6
 41
30.0
 62
     5
 63
     7
 74
     1
 91
        4
 64
     7
 65
   257
 75
     1
175
     1
 42
1.0
 92
       12
 66
     7
 43
1.0
 76
     1
 77
     6
 78
     2
 67
     7
 79
     5
170
     0
171
     0
290
     0
174
     0
 93
        1
 44
0.0
173
     0
291
     1
 45
0.0
1001
ACAD
1000
AcDbSavedByObjectVersion
1070
     0
  0
VISUALSTYLE
  5
497
102
{ACAD_REACTORS
330
2F
102
}
102
{ACAD_XDICTIONARY
360
553
102
}
330
2F
100
AcDbVisualStyle
  2
Wireframe
 70
     5
 71
     0
 72
     2
 73
     0
 90
        0
 40
0.6
 41
30.0
 62
     5
 63
     7
 74
     1
 91
        4
 64
     7
 65
   257
 75
     1
175
     1
 42
1.0
 92
        0
 66
   257
 43
1.0
 76
     1
 77
     6
 78
     2
 67
     7
 79
     5
170
     0
171
     0
290
     0
174
     0
 93
        1
 44
0.0
173
     0
291
     0
 45
0.0
1001
ACAD
1000
AcDbSavedByObjectVersion
1070
     0
  0
VISUALSTYLE
  5
4A7
102
{ACAD_REACTORS
330
2F
102
}
102
{ACAD_XDICTIONARY
360
573
102
}
330
2F
100
AcDbVisualStyle
  2
X-Ray
 70
    25
 71
     2
 72
     2
 73
     1
 90
        1
 40
0.5
 41
30.0
 62
     5
 63
     7
 74
     1
 91
        0
 64
     7
 65
   257
 75
     1
175
     1
 42
1.0
 92
        8
 66
     7
 43
1.0
 76
     1
 77
     6
 78
     2
 67
     7
 79
     3
170
     0
171
     0
290
     0
174
     0
 93
       13
 44
0.0
173
     0
291
     0
 45
0.0
1001
ACAD
1000
AcDbSavedByObjectVersion
1070
     0
  0
XRECORD
  5
53D
102
{ACAD_REACTORS
330
53C
102
}
330
53C
100
AcDbXrecord
280
     1
340
2E
  0
XRECORD
  5
53E
102
{ACAD_REACTORS
330
53C
102
}
330
53C
100
AcDbXrecord
280
     1
340
B
  0
DICTIONARYVAR
  5
48D
102
{ACAD_REACTORS
330
48C
102
}
330
48C
100
DictionaryVariables
280
     0
  1
1:1
  0
DICTIONARYVAR
  5
4AE
102
{ACAD_REACTORS
330
48C
102
}
330
48C
100
DictionaryVariables
280
     0
  1
Standard
  0
DICTIONARYVAR
  5
4AD
102
{ACAD_REACTORS
330
48C
102
}
330
48C
100
DictionaryVariables
280
     0
  1
Standard
  0
DICTIONARYVAR
  5
53A
102
{ACAD_REACTORS
330
48C
102
}
330
48C
100
DictionaryVariables
280
     0
  1
0
  0
DICTIONARYVAR
  5
53B
102
{ACAD_REACTORS
330
48C
102
}
330
48C
100
DictionaryVariables
280
     0
  1
0
  0
DICTIONARYVAR
  5
542
102
{ACAD_REACTORS
330
48C
102
}
330
48C
100
DictionaryVariables
280
     0
  1
1
  0
DICTIONARYVAR
  5
539
102
{ACAD_REACTORS
330
48C
102
}
330
48C
100
DictionaryVariables
280
     0
  1
96
  0
DICTIONARY
  5
547
330
67
100
AcDbDictionary
280
     1
281
     1
  3
ACAD_XREC_ROUNDTRIP
360
548
  0
DICTIONARY
  5
543
330
12
100
AcDbDictionary
280
     1
281
     1
  3
ACAD_XREC_ROUNDTRIP
360
544
  0
DICTIONARY
  5
545
330
A
100
AcDbDictionary
280
     1
281
     1
  3
ACAD_XREC_ROUNDTRIP
360
546
  0
DICTIONARY
  5
579
330
4AB
100
AcDbDictionary
280
     1
281
     1
  3
ACAD_XREC_ROUNDTRIP
360
57A
  0
DICTIONARY
  5
551
330
496
100
AcDbDictionary
280
     1
281
     1
  3
ACAD_XREC_ROUNDTRIP
360
552
  0
DICTIONARY
  5
557
330
499
100
AcDbDictionary
280
     1
281
     1
  3
ACAD_XREC_ROUNDTRIP
360
558
  0
DICTIONARY
  5
55F
330
49D
100
AcDbDictionary
280
     1
281
     1
  3
ACAD_XREC_ROUNDTRIP
360
560
  0
DICTIONARY
  5
567
330
4A1
100
AcDbDictionary
280
     1
281
     1
  3
ACAD_XREC_ROUNDTRIP
360
568
  0
DICTIONARY
  5
55B
330
49B
100
AcDbDictionary
280
     1
281
     1
  3
ACAD_XREC_ROUNDTRIP
360
55C
  0
DICTIONARY
  5
55D
330
49C
100
AcDbDictionary
280
     1
281
     1
  3
ACAD_XREC_ROUNDTRIP
360
55E
  0
DICTIONARY
  5
56D
330
4A4
100
AcDbDictionary
280
     1
281
     1
  3
ACAD_XREC_ROUNDTRIP
360
56E
  0
DICTIONARY
  5
565
330
4A0
100
AcDbDictionary
280
     1
281
     1
  3
ACAD_XREC_ROUNDTRIP
360
566
  0
DICTIONARY
  5
549
330
492
100
AcDbDictionary
280
     1
281
     1
  3
ACAD_XREC_ROUNDTRIP
360
54A
  0
DICTIONARY
  5
54B
330
493
100
AcDbDictionary
280
     1
281
     1
  3
ACAD_XREC_ROUNDTRIP
360
54C
  0
DICTIONARY
  5
54D
330
494
100
AcDbDictionary
280
     1
281
     1
  3
ACAD_XREC_ROUNDTRIP
360
54E
  0
DICTIONARY
  5
54F
330
495
100
AcDbDictionary
280
     1
281
     1
  3
ACAD_XREC_ROUNDTRIP
360
550
  0
DICTIONARY
  5
555
330
498
100
AcDbDictionary
280
     1
281
     1
  3
ACAD_XREC_ROUNDTRIP
360
556
  0
DICTIONARY
  5
569
330
4A2
100
AcDbDictionary
280
     1
281
     1
  3
ACAD_XREC_ROUNDTRIP
360
56A
  0
DICTIONARY
  5
563
330
49F
100
AcDbDictionary
280
     1
281
     1
  3
ACAD_XREC_ROUNDTRIP
360
564
  0
DICTIONARY
  5
56B
330
4A3
100
AcDbDictionary
280
     1
281
     1
  3
ACAD_XREC_ROUNDTRIP
360
56C
  0
DICTIONARY
  5
559
330
49A
100
AcDbDictionary
280
     1
281
     1
  3
ACAD_XREC_ROUNDTRIP
360
55A
  0
DICTIONARY
  5
577
330
4A9
100
AcDbDictionary
280
     1
281
     1
  3
ACAD_XREC_ROUNDTRIP
360
578
  0
DICTIONARY
  5
575
330
4A8
100
AcDbDictionary
280
     1
281
     1
  3
ACAD_XREC_ROUNDTRIP
360
576
  0
DICTIONARY
  5
56F
330
4A5
100
AcDbDictionary
280
     1
281
     1
  3
ACAD_XREC_ROUNDTRIP
360
570
  0
DICTIONARY
  5
571
330
4A6
100
AcDbDictionary
280
     1
281
     1
  3
ACAD_XREC_ROUNDTRIP
360
572
  0
DICTIONARY
  5
561
330
49E
100
AcDbDictionary
280
     1
281
     1
  3
ACAD_XREC_ROUNDTRIP
360
562
  0
DICTIONARY
  5
553
330
497
100
AcDbDictionary
280
     1
281
     1
  3
ACAD_XREC_ROUNDTRIP
360
554
  0
DICTIONARY
  5
573
330
4A7
100
AcDbDictionary
280
     1
281
     1
  3
ACAD_XREC_ROUNDTRIP
360
574
  0
XRECORD
  5
548
102
{ACAD_REACTORS
330
547
102
}
330
547
100
AcDbXrecord
280
     1
102
MATERIAL
148
0.0
149
0.0
149
0.0
 93
        0
 94
      127
282
     0
 72
     0
 77
     0
171
     0
175
     0
179
     0
273
     0
  0
XRECORD
  5
544
102
{ACAD_REACTORS
330
543
102
}
330
543
100
AcDbXrecord
280
     1
102
MATERIAL
148
0.0
149
0.0
149
0.0
 93
        0
 94
      127
282
     0
 72
     0
 77
     0
171
     0
175
     0
179
     0
273
     0
  0
XRECORD
  5
546
102
{ACAD_REACTORS
330
545
102
}
330
545
100
AcDbXrecord
280
     1
102
MATERIAL
148
0.0
149
0.0
149
0.0
 93
        0
 94
      127
282
     0
 72
     0
 77
     0
171
     0
175
     0
179
     0
273
     0
  0
XRECORD
  5
57A
102
{ACAD_REACTORS
330
579
102
}
330
579
100
AcDbXrecord
280
     1
102
ACAD_ROUNDTRIP_2010_MLEADER_STYLE
  0
XRECORD
  5
552
102
{ACAD_REACTORS
330
551
102
}
330
551
100
AcDbXrecord
280
     1
102
RTVSPropertyOp0
 70
     1
102
RTVSPropertyOp1
 70
     1
102
RTVSPropertyOp2
 70
     1
102
RTVSPropertyOp3
 70
     1
102
RTVSPropertyOp4
 70
     1
102
RTVSPropertyOp5
 70
     1
102
RTVSPropertyOp6
 70
     1
102
RTVSPropertyOp7
 70
     1
102
RTVSPropertyOp8
 70
     1
102
RTVSPropertyOp9
 70
     1
102
RTVSPropertyOp10
 70
     1
102
RTVSPropertyOp11
 70
     1
102
RTVSPropertyOp12
 70
     1
102
RTVSPropertyOp13
 70
     1
102
RTVSPropertyOp14
 70
     1
102
RTVSPropertyOp15
 70
     1
102
RTVSPropertyOp16
 70
     1
102
RTVSPropertyOp17
 70
     1
102
RTVSPropertyOp18
 70
     1
102
RTVSPropertyOp19
 70
     1
102
RTVSPropertyOp20
 70
     1
102
RTVSPropertyOp21
 70
     1
102
RTVSPropertyOp22
 70
     1
102
RTVSPropertyOp23
 70
     1
102
RTVSPropertyOp24
 70
     1
102
RTVSPropertyOp25
 70
     1
102
RTVSPropertyOp26
 70
     1
102
RTVSPropertyOp27
 70
     1
102
RTVSPropertyOp28
 70
     1
102
RTVSPropertyOp29
 70
     1
102
RTVSPropertyOp30
 70
     1
102
RTVSPropertyOp31
 70
     1
102
RTVSPropertyOp32
 70
     1
102
RTVSPropertyOp33
 70
     1
102
RTVSPropertyOp34
 70
     1
102
RTVSPropertyOp35
 70
     1
102
RTVSPropertyOp36
 70
     1
102
RTVSPropertyOp37
 70
     1
102
RTVSPropertyOp38
 70
     1
102
RTVSPropertyOp39
 70
     1
102
RTVSPropertyOp40
 70
     1
102
RTVSPropertyOp41
 70
     1
102
RTVSPropertyOp42
 70
     1
102
RTVSPropertyOp43
 70
     1
102
RTVSPropertyOp44
 70
     1
102
RTVSPropertyOp45
 70
     1
102
RTVSPropertyOp46
 70
     1
102
RTVSPropertyOp47
 70
     1
102
RTVSPropertyOp48
 70
     1
102
RTVSPropertyOp49
 70
     1
102
RTVSPropertyOp50
 70
     1
102
RTVSPropertyOp51
 70
     0
102
RTVSPropertyOp52
 70
     0
102
RTVSPropertyOp53
 70
     1
102
RTVSPropertyOp54
 70
     1
102
RTVSPropertyOp55
 70
     1
102
RTVSPropertyOp56
 70
     1
102
RTVSPropertyOp57
 70
     1
102
RTVSPost2010Prop28
280
     1
102
RTVSPost2010PropOp28
 70
     1
102
RTVSPost2010Prop29
280
     1
102
RTVSPost2010PropOp29
 70
     1
102
RTVSPost2010Prop30
280
     0
102
RTVSPost2010PropOp30
 70
     1
102
RTVSPost2010Prop31
280
     0
102
RTVSPost2010PropOp31
 70
     1
102
RTVSPost2010Prop32
280
     0
102
RTVSPost2010PropOp32
 70
     1
102
RTVSPost2010Prop33
280
     0
102
RTVSPost2010PropOp33
 70
     1
102
RTVSPost2010Prop34
280
     0
102
RTVSPost2010PropOp34
 70
     1
102
RTVSPost2010Prop35
280
     0
102
RTVSPost2010PropOp35
 70
     1
102
RTVSPost2010Prop36
280
     0
102
RTVSPost2010PropOp36
 70
     1
102
RTVSPost2010Prop37
 90
       50
102
RTVSPost2010PropOp37
 70
     1
102
RTVSPost2010Prop38
140
0.0
102
RTVSPost2010PropOp38
 70
     1
102
RTVSPost2010Prop39
140
1.0
102
RTVSPost2010PropOp39
 70
     1
102
RTVSPost2010Prop40
 90
        0
102
RTVSPost2010PropOp40
 70
     1
102
RTVSPost2010Prop41ColorIndex
 90
       18
102
RTVSPost2010Prop41ColorRGB
 90
        0
102
RTVSPost2010PropOp41
 70
     1
102
RTVSPost2010Prop42
 90
       50
102
RTVSPost2010PropOp42
 70
     1
102
RTVSPost2010Prop43
 90
        3
102
RTVSPost2010PropOp43
 70
     1
102
RTVSPost2010Prop44ColorIndex
 90
        5
102
RTVSPost2010Prop44ColorRGB
 90
      255
102
RTVSPost2010PropOp44
 70
     1
102
RTVSPost2010Prop45
280
     0
102
RTVSPost2010PropOp45
 70
     1
102
RTVSPost2010Prop46
 90
       50
102
RTVSPost2010PropOp46
 70
     1
102
RTVSPost2010Prop47
 90
       50
102
RTVSPost2010PropOp47
 70
     1
102
RTVSPost2010Prop48
 90
       50
102
RTVSPost2010PropOp48
 70
     1
102
RTVSPost2010Prop49
280
     0
102
RTVSPost2010PropOp49
 70
     1
102
RTVSPost2010Prop50
 90
       50
102
RTVSPost2010PropOp50
 70
     1
102
RTVSPost2010Prop51ColorIndex
 90
      256
102
RTVSPost2010Prop51ColorRGB
 90
-16777216
102
RTVSPost2010PropOp51
 70
     0
102
RTVSPost2010Prop52
140
1.0
102
RTVSPost2010PropOp52
 70
     0
102
RTVSPost2010Prop53
 90
        2
102
RTVSPost2010PropOp53
 70
     1
102
RTVSPost2010Prop54
  1
strokes_ogs.tif
102
RTVSPost2010PropOp54
 70
     1
102
RTVSPost2010Prop55
280
     0
102
RTVSPost2010PropOp55
 70
     1
102
RTVSPost2010Prop56
140
1.0
102
RTVSPost2010PropOp56
 70
     1
102
RTVSPost2010Prop57
140
1.0
102
RTVSPost2010PropOp57
 70
     1
  0
XRECORD
  5
558
102
{ACAD_REACTORS
330
557
102
}
330
557
100
AcDbXrecord
280
     1
102
RTVSPropertyOp0
 70
     1
102
RTVSPropertyOp1
 70
     1
102
RTVSPropertyOp2
 70
     1
102
RTVSPropertyOp3
 70
     1
102
RTVSPropertyOp4
 70
     1
102
RTVSPropertyOp5
 70
     1
102
RTVSPropertyOp6
 70
     1
102
RTVSPropertyOp7
 70
     1
102
RTVSPropertyOp8
 70
     1
102
RTVSPropertyOp9
 70
     1
102
RTVSPropertyOp10
 70
     1
102
RTVSPropertyOp11
 70
     1
102
RTVSPropertyOp12
 70
     1
102
RTVSPropertyOp13
 70
     1
102
RTVSPropertyOp14
 70
     1
102
RTVSPropertyOp15
 70
     1
102
RTVSPropertyOp16
 70
     1
102
RTVSPropertyOp17
 70
     1
102
RTVSPropertyOp18
 70
     1
102
RTVSPropertyOp19
 70
     1
102
RTVSPropertyOp20
 70
     1
102
RTVSPropertyOp21
 70
     1
102
RTVSPropertyOp22
 70
     1
102
RTVSPropertyOp23
 70
     1
102
RTVSPropertyOp24
 70
     1
102
RTVSPropertyOp25
 70
     1
102
RTVSPropertyOp26
 70
     1
102
RTVSPropertyOp27
 70
     1
102
RTVSPropertyOp28
 70
     1
102
RTVSPropertyOp29
 70
     1
102
RTVSPropertyOp30
 70
     1
102
RTVSPropertyOp31
 70
     1
102
RTVSPropertyOp32
 70
     1
102
RTVSPropertyOp33
 70
     1
102
RTVSPropertyOp34
 70
     1
102
RTVSPropertyOp35
 70
     1
102
RTVSPropertyOp36
 70
     1
102
RTVSPropertyOp37
 70
     1
102
RTVSPropertyOp38
 70
     1
102
RTVSPropertyOp39
 70
     1
102
RTVSPropertyOp40
 70
     1
102
RTVSPropertyOp41
 70
     1
102
RTVSPropertyOp42
 70
     1
102
RTVSPropertyOp43
 70
     1
102
RTVSPropertyOp44
 70
     1
102
RTVSPropertyOp45
 70
     1
102
RTVSPropertyOp46
 70
     1
102
RTVSPropertyOp47
 70
     1
102
RTVSPropertyOp48
 70
     1
102
RTVSPropertyOp49
 70
     1
102
RTVSPropertyOp50
 70
     1
102
RTVSPropertyOp51
 70
     0
102
RTVSPropertyOp52
 70
     0
102
RTVSPropertyOp53
 70
     1
102
RTVSPropertyOp54
 70
     1
102
RTVSPropertyOp55
 70
     1
102
RTVSPropertyOp56
 70
     1
102
RTVSPropertyOp57
 70
     1
102
RTVSPost2010Prop28
280
     0
102
RTVSPost2010PropOp28
 70
     1
102
RTVSPost2010Prop29
280
     1
102
RTVSPost2010PropOp29
 70
     1
102
RTVSPost2010Prop30
280
     1
102
RTVSPost2010PropOp30
 70
     1
102
RTVSPost2010Prop31
280
     0
102
RTVSPost2010PropOp31
 70
     1
102
RTVSPost2010Prop32
280
     0
102
RTVSPost2010PropOp32
 70
     1
102
RTVSPost2010Prop33
280
     0
102
RTVSPost2010PropOp33
 70
     1
102
RTVSPost2010Prop34
280
     0
102
RTVSPost2010PropOp34
 70
     1
102
RTVSPost2010Prop35
280
     0
102
RTVSPost2010PropOp35
 70
     1
102
RTVSPost2010Prop36
280
     0
102
RTVSPost2010PropOp36
 70
     1
102
RTVSPost2010Prop37
 90
       50
102
RTVSPost2010PropOp37
 70
     1
102
RTVSPost2010Prop38
140
0.0
102
RTVSPost2010PropOp38
 70
     1
102
RTVSPost2010Prop39
140
1.0
102
RTVSPost2010PropOp39
 70
     1
102
RTVSPost2010Prop40
 90
        0
102
RTVSPost2010PropOp40
 70
     1
102
RTVSPost2010Prop41ColorIndex
 90
       18
102
RTVSPost2010Prop41ColorRGB
 90
        0
102
RTVSPost2010PropOp41
 70
     1
102
RTVSPost2010Prop42
 90
       50
102
RTVSPost2010PropOp42
 70
     1
102
RTVSPost2010Prop43
 90
        3
102
RTVSPost2010PropOp43
 70
     1
102
RTVSPost2010Prop44ColorIndex
 90
        5
102
RTVSPost2010Prop44ColorRGB
 90
      255
102
RTVSPost2010PropOp44
 70
     1
102
RTVSPost2010Prop45
280
     0
102
RTVSPost2010PropOp45
 70
     1
102
RTVSPost2010Prop46
 90
       50
102
RTVSPost2010PropOp46
 70
     1
102
RTVSPost2010Prop47
 90
       50
102
RTVSPost2010PropOp47
 70
     1
102
RTVSPost2010Prop48
 90
       50
102
RTVSPost2010PropOp48
 70
     1
102
RTVSPost2010Prop49
280
     0
102
RTVSPost2010PropOp49
 70
     1
102
RTVSPost2010Prop50
 90
       50
102
RTVSPost2010PropOp50
 70
     1
102
RTVSPost2010Prop51ColorIndex
 90
      256
102
RTVSPost2010Prop51ColorRGB
 90
-16777216
102
RTVSPost2010PropOp51
 70
     0
102
RTVSPost2010Prop52
140
1.0
102
RTVSPost2010PropOp52
 70
     0
102
RTVSPost2010Prop53
 90
        2
102
RTVSPost2010PropOp53
 70
     1
102
RTVSPost2010Prop54
  1
strokes_ogs.tif
102
RTVSPost2010PropOp54
 70
     1
102
RTVSPost2010Prop55
280
     0
102
RTVSPost2010PropOp55
 70
     1
102
RTVSPost2010Prop56
140
1.0
102
RTVSPost2010PropOp56
 70
     1
102
RTVSPost2010Prop57
140
1.0
102
RTVSPost2010PropOp57
 70
     1
  0
XRECORD
  5
560
102
{ACAD_REACTORS
330
55F
102
}
330
55F
100
AcDbXrecord
280
     1
102
RTVSPropertyOp0
 70
     1
102
RTVSPropertyOp1
 70
     1
102
RTVSPropertyOp2
 70
     1
102
RTVSPropertyOp3
 70
     1
102
RTVSPropertyOp4
 70
     1
102
RTVSPropertyOp5
 70
     1
102
RTVSPropertyOp6
 70
     1
102
RTVSPropertyOp7
 70
     1
102
RTVSPropertyOp8
 70
     1
102
RTVSPropertyOp9
 70
     1
102
RTVSPropertyOp10
 70
     1
102
RTVSPropertyOp11
 70
     1
102
RTVSPropertyOp12
 70
     1
102
RTVSPropertyOp13
 70
     1
102
RTVSPropertyOp14
 70
     1
102
RTVSPropertyOp15
 70
     1
102
RTVSPropertyOp16
 70
     1
102
RTVSPropertyOp17
 70
     1
102
RTVSPropertyOp18
 70
     1
102
RTVSPropertyOp19
 70
     1
102
RTVSPropertyOp20
 70
     1
102
RTVSPropertyOp21
 70
     1
102
RTVSPropertyOp22
 70
     1
102
RTVSPropertyOp23
 70
     1
102
RTVSPropertyOp24
 70
     1
102
RTVSPropertyOp25
 70
     1
102
RTVSPropertyOp26
 70
     1
102
RTVSPropertyOp27
 70
     1
102
RTVSPropertyOp28
 70
     1
102
RTVSPropertyOp29
 70
     1
102
RTVSPropertyOp30
 70
     1
102
RTVSPropertyOp31
 70
     1
102
RTVSPropertyOp32
 70
     1
102
RTVSPropertyOp33
 70
     1
102
RTVSPropertyOp34
 70
     1
102
RTVSPropertyOp35
 70
     1
102
RTVSPropertyOp36
 70
     1
102
RTVSPropertyOp37
 70
     1
102
RTVSPropertyOp38
 70
     1
102
RTVSPropertyOp39
 70
     1
102
RTVSPropertyOp40
 70
     1
102
RTVSPropertyOp41
 70
     1
102
RTVSPropertyOp42
 70
     1
102
RTVSPropertyOp43
 70
     1
102
RTVSPropertyOp44
 70
     1
102
RTVSPropertyOp45
 70
     1
102
RTVSPropertyOp46
 70
     1
102
RTVSPropertyOp47
 70
     1
102
RTVSPropertyOp48
 70
     1
102
RTVSPropertyOp49
 70
     1
102
RTVSPropertyOp50
 70
     1
102
RTVSPropertyOp51
 70
     0
102
RTVSPropertyOp52
 70
     0
102
RTVSPropertyOp53
 70
     1
102
RTVSPropertyOp54
 70
     1
102
RTVSPropertyOp55
 70
     1
102
RTVSPropertyOp56
 70
     1
102
RTVSPropertyOp57
 70
     1
102
RTVSPost2010Prop28
280
     0
102
RTVSPost2010PropOp28
 70
     1
102
RTVSPost2010Prop29
280
     1
102
RTVSPost2010PropOp29
 70
     1
102
RTVSPost2010Prop30
280
     1
102
RTVSPost2010PropOp30
 70
     1
102
RTVSPost2010Prop31
280
     0
102
RTVSPost2010PropOp31
 70
     1
102
RTVSPost2010Prop32
280
     0
102
RTVSPost2010PropOp32
 70
     1
102
RTVSPost2010Prop33
280
     0
102
RTVSPost2010PropOp33
 70
     1
102
RTVSPost2010Prop34
280
     0
102
RTVSPost2010PropOp34
 70
     1
102
RTVSPost2010Prop35
280
     0
102
RTVSPost2010PropOp35
 70
     1
102
RTVSPost2010Prop36
280
     0
102
RTVSPost2010PropOp36
 70
     1
102
RTVSPost2010Prop37
 90
       50
102
RTVSPost2010PropOp37
 70
     1
102
RTVSPost2010Prop38
140
0.0
102
RTVSPost2010PropOp38
 70
     1
102
RTVSPost2010Prop39
140
1.0
102
RTVSPost2010PropOp39
 70
     1
102
RTVSPost2010Prop40
 90
        0
102
RTVSPost2010PropOp40
 70
     1
102
RTVSPost2010Prop41ColorIndex
 90
       18
102
RTVSPost2010Prop41ColorRGB
 90
        0
102
RTVSPost2010PropOp41
 70
     1
102
RTVSPost2010Prop42
 90
       50
102
RTVSPost2010PropOp42
 70
     1
102
RTVSPost2010Prop43
 90
        3
102
RTVSPost2010PropOp43
 70
     1
102
RTVSPost2010Prop44ColorIndex
 90
        5
102
RTVSPost2010Prop44ColorRGB
 90
      255
102
RTVSPost2010PropOp44
 70
     1
102
RTVSPost2010Prop45
280
     0
102
RTVSPost2010PropOp45
 70
     1
102
RTVSPost2010Prop46
 90
       50
102
RTVSPost2010PropOp46
 70
     1
102
RTVSPost2010Prop47
 90
       50
102
RTVSPost2010PropOp47
 70
     1
102
RTVSPost2010Prop48
 90
       50
102
RTVSPost2010PropOp48
 70
     1
102
RTVSPost2010Prop49
280
     0
102
RTVSPost2010PropOp49
 70
     1
102
RTVSPost2010Prop50
 90
       50
102
RTVSPost2010PropOp50
 70
     1
102
RTVSPost2010Prop51ColorIndex
 90
      256
102
RTVSPost2010Prop51ColorRGB
 90
-16777216
102
RTVSPost2010PropOp51
 70
     0
102
RTVSPost2010Prop52
140
1.0
102
RTVSPost2010PropOp52
 70
     0
102
RTVSPost2010Prop53
 90
        2
102
RTVSPost2010PropOp53
 70
     1
102
RTVSPost2010Prop54
  1
strokes_ogs.tif
102
RTVSPost2010PropOp54
 70
     1
102
RTVSPost2010Prop55
280
     0
102
RTVSPost2010PropOp55
 70
     1
102
RTVSPost2010Prop56
140
1.0
102
RTVSPost2010PropOp56
 70
     1
102
RTVSPost2010Prop57
140
1.0
102
RTVSPost2010PropOp57
 70
     1
  0
XRECORD
  5
568
102
{ACAD_REACTORS
330
567
102
}
330
567
100
AcDbXrecord
280
     1
102
RTVSPropertyOp0
 70
     1
102
RTVSPropertyOp1
 70
     1
102
RTVSPropertyOp2
 70
     1
102
RTVSPropertyOp3
 70
     1
102
RTVSPropertyOp4
 70
     1
102
RTVSPropertyOp5
 70
     1
102
RTVSPropertyOp6
 70
     1
102
RTVSPropertyOp7
 70
     1
102
RTVSPropertyOp8
 70
     1
102
RTVSPropertyOp9
 70
     1
102
RTVSPropertyOp10
 70
     1
102
RTVSPropertyOp11
 70
     1
102
RTVSPropertyOp12
 70
     1
102
RTVSPropertyOp13
 70
     1
102
RTVSPropertyOp14
 70
     1
102
RTVSPropertyOp15
 70
     1
102
RTVSPropertyOp16
 70
     1
102
RTVSPropertyOp17
 70
     1
102
RTVSPropertyOp18
 70
     1
102
RTVSPropertyOp19
 70
     1
102
RTVSPropertyOp20
 70
     1
102
RTVSPropertyOp21
 70
     1
102
RTVSPropertyOp22
 70
     1
102
RTVSPropertyOp23
 70
     1
102
RTVSPropertyOp24
 70
     1
102
RTVSPropertyOp25
 70
     1
102
RTVSPropertyOp26
 70
     1
102
RTVSPropertyOp27
 70
     1
102
RTVSPropertyOp28
 70
     1
102
RTVSPropertyOp29
 70
     1
102
RTVSPropertyOp30
 70
     1
102
RTVSPropertyOp31
 70
     1
102
RTVSPropertyOp32
 70
     1
102
RTVSPropertyOp33
 70
     1
102
RTVSPropertyOp34
 70
     1
102
RTVSPropertyOp35
 70
     1
102
RTVSPropertyOp36
 70
     1
102
RTVSPropertyOp37
 70
     1
102
RTVSPropertyOp38
 70
     1
102
RTVSPropertyOp39
 70
     1
102
RTVSPropertyOp40
 70
     1
102
RTVSPropertyOp41
 70
     1
102
RTVSPropertyOp42
 70
     1
102
RTVSPropertyOp43
 70
     1
102
RTVSPropertyOp44
 70
     1
102
RTVSPropertyOp45
 70
     1
102
RTVSPropertyOp46
 70
     1
102
RTVSPropertyOp47
 70
     1
102
RTVSPropertyOp48
 70
     1
102
RTVSPropertyOp49
 70
     1
102
RTVSPropertyOp50
 70
     1
102
RTVSPropertyOp51
 70
     0
102
RTVSPropertyOp52
 70
     0
102
RTVSPropertyOp53
 70
     1
102
RTVSPropertyOp54
 70
     1
102
RTVSPropertyOp55
 70
     1
102
RTVSPropertyOp56
 70
     1
102
RTVSPropertyOp57
 70
     1
102
RTVSPost2010Prop28
280
     0
102
RTVSPost2010PropOp28
 70
     1
102
RTVSPost2010Prop29
280
     1
102
RTVSPost2010PropOp29
 70
     1
102
RTVSPost2010Prop30
280
     1
102
RTVSPost2010PropOp30
 70
     1
102
RTVSPost2010Prop31
280
     0
102
RTVSPost2010PropOp31
 70
     1
102
RTVSPost2010Prop32
280
     0
102
RTVSPost2010PropOp32
 70
     1
102
RTVSPost2010Prop33
280
     0
102
RTVSPost2010PropOp33
 70
     1
102
RTVSPost2010Prop34
280
     0
102
RTVSPost2010PropOp34
 70
     1
102
RTVSPost2010Prop35
280
     0
102
RTVSPost2010PropOp35
 70
     1
102
RTVSPost2010Prop36
280
     0
102
RTVSPost2010PropOp36
 70
     1
102
RTVSPost2010Prop37
 90
       50
102
RTVSPost2010PropOp37
 70
     1
102
RTVSPost2010Prop38
140
0.0
102
RTVSPost2010PropOp38
 70
     1
102
RTVSPost2010Prop39
140
1.0
102
RTVSPost2010PropOp39
 70
     1
102
RTVSPost2010Prop40
 90
        0
102
RTVSPost2010PropOp40
 70
     1
102
RTVSPost2010Prop41ColorIndex
 90
       18
102
RTVSPost2010Prop41ColorRGB
 90
        0
102
RTVSPost2010PropOp41
 70
     1
102
RTVSPost2010Prop42
 90
       50
102
RTVSPost2010PropOp42
 70
     1
102
RTVSPost2010Prop43
 90
        3
102
RTVSPost2010PropOp43
 70
     1
102
RTVSPost2010Prop44ColorIndex
 90
        5
102
RTVSPost2010Prop44ColorRGB
 90
      255
102
RTVSPost2010PropOp44
 70
     1
102
RTVSPost2010Prop45
280
     0
102
RTVSPost2010PropOp45
 70
     1
102
RTVSPost2010Prop46
 90
       50
102
RTVSPost2010PropOp46
 70
     1
102
RTVSPost2010Prop47
 90
       50
102
RTVSPost2010PropOp47
 70
     1
102
RTVSPost2010Prop48
 90
       50
102
RTVSPost2010PropOp48
 70
     1
102
RTVSPost2010Prop49
280
     0
102
RTVSPost2010PropOp49
 70
     1
102
RTVSPost2010Prop50
 90
       50
102
RTVSPost2010PropOp50
 70
     1
102
RTVSPost2010Prop51ColorIndex
 90
      256
102
RTVSPost2010Prop51ColorRGB
 90
-16777216
102
RTVSPost2010PropOp51
 70
     0
102
RTVSPost2010Prop52
140
1.0
102
RTVSPost2010PropOp52
 70
     0
102
RTVSPost2010Prop53
 90
        2
102
RTVSPost2010PropOp53
 70
     1
102
RTVSPost2010Prop54
  1
strokes_ogs.tif
102
RTVSPost2010PropOp54
 70
     1
102
RTVSPost2010Prop55
280
     0
102
RTVSPost2010PropOp55
 70
     1
102
RTVSPost2010Prop56
140
1.0
102
RTVSPost2010PropOp56
 70
     1
102
RTVSPost2010Prop57
140
1.0
102
RTVSPost2010PropOp57
 70
     1
  0
XRECORD
  5
55C
102
{ACAD_REACTORS
330
55B
102
}
330
55B
100
AcDbXrecord
280
     1
102
RTVSPropertyOp0
 70
     1
102
RTVSPropertyOp1
 70
     1
102
RTVSPropertyOp2
 70
     1
102
RTVSPropertyOp3
 70
     1
102
RTVSPropertyOp4
 70
     1
102
RTVSPropertyOp5
 70
     1
102
RTVSPropertyOp6
 70
     1
102
RTVSPropertyOp7
 70
     1
102
RTVSPropertyOp8
 70
     1
102
RTVSPropertyOp9
 70
     1
102
RTVSPropertyOp10
 70
     1
102
RTVSPropertyOp11
 70
     1
102
RTVSPropertyOp12
 70
     1
102
RTVSPropertyOp13
 70
     1
102
RTVSPropertyOp14
 70
     1
102
RTVSPropertyOp15
 70
     1
102
RTVSPropertyOp16
 70
     1
102
RTVSPropertyOp17
 70
     1
102
RTVSPropertyOp18
 70
     1
102
RTVSPropertyOp19
 70
     1
102
RTVSPropertyOp20
 70
     1
102
RTVSPropertyOp21
 70
     1
102
RTVSPropertyOp22
 70
     1
102
RTVSPropertyOp23
 70
     1
102
RTVSPropertyOp24
 70
     1
102
RTVSPropertyOp25
 70
     1
102
RTVSPropertyOp26
 70
     1
102
RTVSPropertyOp27
 70
     1
102
RTVSPropertyOp28
 70
     1
102
RTVSPropertyOp29
 70
     1
102
RTVSPropertyOp30
 70
     1
102
RTVSPropertyOp31
 70
     1
102
RTVSPropertyOp32
 70
     1
102
RTVSPropertyOp33
 70
     1
102
RTVSPropertyOp34
 70
     1
102
RTVSPropertyOp35
 70
     1
102
RTVSPropertyOp36
 70
     1
102
RTVSPropertyOp37
 70
     1
102
RTVSPropertyOp38
 70
     1
102
RTVSPropertyOp39
 70
     1
102
RTVSPropertyOp40
 70
     1
102
RTVSPropertyOp41
 70
     1
102
RTVSPropertyOp42
 70
     1
102
RTVSPropertyOp43
 70
     1
102
RTVSPropertyOp44
 70
     1
102
RTVSPropertyOp45
 70
     1
102
RTVSPropertyOp46
 70
     1
102
RTVSPropertyOp47
 70
     1
102
RTVSPropertyOp48
 70
     1
102
RTVSPropertyOp49
 70
     1
102
RTVSPropertyOp50
 70
     1
102
RTVSPropertyOp51
 70
     0
102
RTVSPropertyOp52
 70
     0
102
RTVSPropertyOp53
 70
     1
102
RTVSPropertyOp54
 70
     1
102
RTVSPropertyOp55
 70
     1
102
RTVSPropertyOp56
 70
     1
102
RTVSPropertyOp57
 70
     1
102
RTVSPost2010Prop28
280
     0
102
RTVSPost2010PropOp28
 70
     1
102
RTVSPost2010Prop29
280
     1
102
RTVSPost2010PropOp29
 70
     1
102
RTVSPost2010Prop30
280
     1
102
RTVSPost2010PropOp30
 70
     1
102
RTVSPost2010Prop31
280
     0
102
RTVSPost2010PropOp31
 70
     1
102
RTVSPost2010Prop32
280
     0
102
RTVSPost2010PropOp32
 70
     1
102
RTVSPost2010Prop33
280
     0
102
RTVSPost2010PropOp33
 70
     1
102
RTVSPost2010Prop34
280
     0
102
RTVSPost2010PropOp34
 70
     1
102
RTVSPost2010Prop35
280
     0
102
RTVSPost2010PropOp35
 70
     1
102
RTVSPost2010Prop36
280
     0
102
RTVSPost2010PropOp36
 70
     1
102
RTVSPost2010Prop37
 90
       50
102
RTVSPost2010PropOp37
 70
     1
102
RTVSPost2010Prop38
140
0.0
102
RTVSPost2010PropOp38
 70
     1
102
RTVSPost2010Prop39
140
1.0
102
RTVSPost2010PropOp39
 70
     1
102
RTVSPost2010Prop40
 90
        0
102
RTVSPost2010PropOp40
 70
     1
102
RTVSPost2010Prop41ColorIndex
 90
       18
102
RTVSPost2010Prop41ColorRGB
 90
        0
102
RTVSPost2010PropOp41
 70
     1
102
RTVSPost2010Prop42
 90
       50
102
RTVSPost2010PropOp42
 70
     1
102
RTVSPost2010Prop43
 90
        3
102
RTVSPost2010PropOp43
 70
     1
102
RTVSPost2010Prop44ColorIndex
 90
        5
102
RTVSPost2010Prop44ColorRGB
 90
      255
102
RTVSPost2010PropOp44
 70
     1
102
RTVSPost2010Prop45
280
     0
102
RTVSPost2010PropOp45
 70
     1
102
RTVSPost2010Prop46
 90
       50
102
RTVSPost2010PropOp46
 70
     1
102
RTVSPost2010Prop47
 90
       50
102
RTVSPost2010PropOp47
 70
     1
102
RTVSPost2010Prop48
 90
       50
102
RTVSPost2010PropOp48
 70
     1
102
RTVSPost2010Prop49
280
     0
102
RTVSPost2010PropOp49
 70
     1
102
RTVSPost2010Prop50
 90
       50
102
RTVSPost2010PropOp50
 70
     1
102
RTVSPost2010Prop51ColorIndex
 90
      256
102
RTVSPost2010Prop51ColorRGB
 90
-16777216
102
RTVSPost2010PropOp51
 70
     0
102
RTVSPost2010Prop52
140
1.0
102
RTVSPost2010PropOp52
 70
     0
102
RTVSPost2010Prop53
 90
        2
102
RTVSPost2010PropOp53
 70
     1
102
RTVSPost2010Prop54
  1
strokes_ogs.tif
102
RTVSPost2010PropOp54
 70
     1
102
RTVSPost2010Prop55
280
     0
102
RTVSPost2010PropOp55
 70
     1
102
RTVSPost2010Prop56
140
1.0
102
RTVSPost2010PropOp56
 70
     1
102
RTVSPost2010Prop57
140
1.0
102
RTVSPost2010PropOp57
 70
     1
  0
XRECORD
  5
55E
102
{ACAD_REACTORS
330
55D
102
}
330
55D
100
AcDbXrecord
280
     1
102
RTVSPropertyOp0
 70
     1
102
RTVSPropertyOp1
 70
     1
102
RTVSPropertyOp2
 70
     1
102
RTVSPropertyOp3
 70
     1
102
RTVSPropertyOp4
 70
     1
102
RTVSPropertyOp5
 70
     1
102
RTVSPropertyOp6
 70
     1
102
RTVSPropertyOp7
 70
     1
102
RTVSPropertyOp8
 70
     1
102
RTVSPropertyOp9
 70
     1
102
RTVSPropertyOp10
 70
     1
102
RTVSPropertyOp11
 70
     1
102
RTVSPropertyOp12
 70
     1
102
RTVSPropertyOp13
 70
     1
102
RTVSPropertyOp14
 70
     1
102
RTVSPropertyOp15
 70
     1
102
RTVSPropertyOp16
 70
     1
102
RTVSPropertyOp17
 70
     1
102
RTVSPropertyOp18
 70
     1
102
RTVSPropertyOp19
 70
     1
102
RTVSPropertyOp20
 70
     1
102
RTVSPropertyOp21
 70
     1
102
RTVSPropertyOp22
 70
     1
102
RTVSPropertyOp23
 70
     1
102
RTVSPropertyOp24
 70
     1
102
RTVSPropertyOp25
 70
     1
102
RTVSPropertyOp26
 70
     1
102
RTVSPropertyOp27
 70
     1
102
RTVSPropertyOp28
 70
     1
102
RTVSPropertyOp29
 70
     1
102
RTVSPropertyOp30
 70
     1
102
RTVSPropertyOp31
 70
     1
102
RTVSPropertyOp32
 70
     1
102
RTVSPropertyOp33
 70
     1
102
RTVSPropertyOp34
 70
     1
102
RTVSPropertyOp35
 70
     1
102
RTVSPropertyOp36
 70
     1
102
RTVSPropertyOp37
 70
     1
102
RTVSPropertyOp38
 70
     1
102
RTVSPropertyOp39
 70
     1
102
RTVSPropertyOp40
 70
     1
102
RTVSPropertyOp41
 70
     1
102
RTVSPropertyOp42
 70
     1
102
RTVSPropertyOp43
 70
     1
102
RTVSPropertyOp44
 70
     1
102
RTVSPropertyOp45
 70
     1
102
RTVSPropertyOp46
 70
     1
102
RTVSPropertyOp47
 70
     1
102
RTVSPropertyOp48
 70
     1
102
RTVSPropertyOp49
 70
     1
102
RTVSPropertyOp50
 70
     1
102
RTVSPropertyOp51
 70
     0
102
RTVSPropertyOp52
 70
     0
102
RTVSPropertyOp53
 70
     1
102
RTVSPropertyOp54
 70
     1
102
RTVSPropertyOp55
 70
     1
102
RTVSPropertyOp56
 70
     1
102
RTVSPropertyOp57
 70
     1
102
RTVSPost2010Prop28
280
     0
102
RTVSPost2010PropOp28
 70
     1
102
RTVSPost2010Prop29
280
     1
102
RTVSPost2010PropOp29
 70
     1
102
RTVSPost2010Prop30
280
     1
102
RTVSPost2010PropOp30
 70
     1
102
RTVSPost2010Prop31
280
     0
102
RTVSPost2010PropOp31
 70
     1
102
RTVSPost2010Prop32
280
     0
102
RTVSPost2010PropOp32
 70
     1
102
RTVSPost2010Prop33
280
     0
102
RTVSPost2010PropOp33
 70
     1
102
RTVSPost2010Prop34
280
     0
102
RTVSPost2010PropOp34
 70
     1
102
RTVSPost2010Prop35
280
     0
102
RTVSPost2010PropOp35
 70
     1
102
RTVSPost2010Prop36
280
     0
102
RTVSPost2010PropOp36
 70
     1
102
RTVSPost2010Prop37
 90
       50
102
RTVSPost2010PropOp37
 70
     1
102
RTVSPost2010Prop38
140
0.0
102
RTVSPost2010PropOp38
 70
     1
102
RTVSPost2010Prop39
140
1.0
102
RTVSPost2010PropOp39
 70
     1
102
RTVSPost2010Prop40
 90
        0
102
RTVSPost2010PropOp40
 70
     1
102
RTVSPost2010Prop41ColorIndex
 90
       18
102
RTVSPost2010Prop41ColorRGB
 90
        0
102
RTVSPost2010PropOp41
 70
     1
102
RTVSPost2010Prop42
 90
       50
102
RTVSPost2010PropOp42
 70
     1
102
RTVSPost2010Prop43
 90
        3
102
RTVSPost2010PropOp43
 70
     1
102
RTVSPost2010Prop44ColorIndex
 90
        5
102
RTVSPost2010Prop44ColorRGB
 90
      255
102
RTVSPost2010PropOp44
 70
     1
102
RTVSPost2010Prop45
280
     0
102
RTVSPost2010PropOp45
 70
     1
102
RTVSPost2010Prop46
 90
       50
102
RTVSPost2010PropOp46
 70
     1
102
RTVSPost2010Prop47
 90
       50
102
RTVSPost2010PropOp47
 70
     1
102
RTVSPost2010Prop48
 90
       50
102
RTVSPost2010PropOp48
 70
     1
102
RTVSPost2010Prop49
280
     0
102
RTVSPost2010PropOp49
 70
     1
102
RTVSPost2010Prop50
 90
       50
102
RTVSPost2010PropOp50
 70
     1
102
RTVSPost2010Prop51ColorIndex
 90
      256
102
RTVSPost2010Prop51ColorRGB
 90
-16777216
102
RTVSPost2010PropOp51
 70
     0
102
RTVSPost2010Prop52
140
1.0
102
RTVSPost2010PropOp52
 70
     0
102
RTVSPost2010Prop53
 90
        2
102
RTVSPost2010PropOp53
 70
     1
102
RTVSPost2010Prop54
  1
strokes_ogs.tif
102
RTVSPost2010PropOp54
 70
     1
102
RTVSPost2010Prop55
280
     0
102
RTVSPost2010PropOp55
 70
     1
102
RTVSPost2010Prop56
140
1.0
102
RTVSPost2010PropOp56
 70
     1
102
RTVSPost2010Prop57
140
1.0
102
RTVSPost2010PropOp57
 70
     1
  0
XRECORD
  5
56E
102
{ACAD_REACTORS
330
56D
102
}
330
56D
100
AcDbXrecord
280
     1
102
RTVSPropertyOp0
 70
     0
102
RTVSPropertyOp1
 70
     0
102
RTVSPropertyOp2
 70
     0
102
RTVSPropertyOp3
 70
     0
102
RTVSPropertyOp4
 70
     0
102
RTVSPropertyOp5
 70
     0
102
RTVSPropertyOp6
 70
     0
102
RTVSPropertyOp7
 70
     0
102
RTVSPropertyOp8
 70
     0
102
RTVSPropertyOp9
 70
     0
102
RTVSPropertyOp10
 70
     0
102
RTVSPropertyOp11
 70
     0
102
RTVSPropertyOp12
 70
     0
102
RTVSPropertyOp13
 70
     0
102
RTVSPropertyOp14
 70
     0
102
RTVSPropertyOp15
 70
     0
102
RTVSPropertyOp16
 70
     0
102
RTVSPropertyOp17
 70
     0
102
RTVSPropertyOp18
 70
     0
102
RTVSPropertyOp19
 70
     0
102
RTVSPropertyOp20
 70
     0
102
RTVSPropertyOp21
 70
     0
102
RTVSPropertyOp22
 70
     0
102
RTVSPropertyOp23
 70
     0
102
RTVSPropertyOp24
 70
     0
102
RTVSPropertyOp25
 70
     0
102
RTVSPropertyOp26
 70
     0
102
RTVSPropertyOp27
 70
     0
102
RTVSPropertyOp28
 70
     1
102
RTVSPropertyOp29
 70
     1
102
RTVSPropertyOp30
 70
     1
102
RTVSPropertyOp31
 70
     1
102
RTVSPropertyOp32
 70
     1
102
RTVSPropertyOp33
 70
     1
102
RTVSPropertyOp34
 70
     1
102
RTVSPropertyOp35
 70
     1
102
RTVSPropertyOp36
 70
     1
102
RTVSPropertyOp37
 70
     1
102
RTVSPropertyOp38
 70
     1
102
RTVSPropertyOp39
 70
     1
102
RTVSPropertyOp40
 70
     1
102
RTVSPropertyOp41
 70
     1
102
RTVSPropertyOp42
 70
     1
102
RTVSPropertyOp43
 70
     1
102
RTVSPropertyOp44
 70
     1
102
RTVSPropertyOp45
 70
     1
102
RTVSPropertyOp46
 70
     1
102
RTVSPropertyOp47
 70
     1
102
RTVSPropertyOp48
 70
     1
102
RTVSPropertyOp49
 70
     1
102
RTVSPropertyOp50
 70
     1
102
RTVSPropertyOp51
 70
     0
102
RTVSPropertyOp52
 70
     0
102
RTVSPropertyOp53
 70
     1
102
RTVSPropertyOp54
 70
     1
102
RTVSPropertyOp55
 70
     1
102
RTVSPropertyOp56
 70
     1
102
RTVSPropertyOp57
 70
     1
102
RTVSPost2010Prop28
280
     0
102
RTVSPost2010PropOp28
 70
     1
102
RTVSPost2010Prop29
280
     1
102
RTVSPost2010PropOp29
 70
     1
102
RTVSPost2010Prop30
280
     1
102
RTVSPost2010PropOp30
 70
     1
102
RTVSPost2010Prop31
280
     0
102
RTVSPost2010PropOp31
 70
     1
102
RTVSPost2010Prop32
280
     0
102
RTVSPost2010PropOp32
 70
     1
102
RTVSPost2010Prop33
280
     0
102
RTVSPost2010PropOp33
 70
     1
102
RTVSPost2010Prop34
280
     0
102
RTVSPost2010PropOp34
 70
     1
102
RTVSPost2010Prop35
280
     0
102
RTVSPost2010PropOp35
 70
     1
102
RTVSPost2010Prop36
280
     0
102
RTVSPost2010PropOp36
 70
     1
102
RTVSPost2010Prop37
 90
       50
102
RTVSPost2010PropOp37
 70
     1
102
RTVSPost2010Prop38
140
0.0
102
RTVSPost2010PropOp38
 70
     1
102
RTVSPost2010Prop39
140
1.0
102
RTVSPost2010PropOp39
 70
     1
102
RTVSPost2010Prop40
 90
        0
102
RTVSPost2010PropOp40
 70
     1
102
RTVSPost2010Prop41ColorIndex
 90
       18
102
RTVSPost2010Prop41ColorRGB
 90
        0
102
RTVSPost2010PropOp41
 70
     1
102
RTVSPost2010Prop42
 90
       50
102
RTVSPost2010PropOp42
 70
     1
102
RTVSPost2010Prop43
 90
        3
102
RTVSPost2010PropOp43
 70
     1
102
RTVSPost2010Prop44ColorIndex
 90
        5
102
RTVSPost2010Prop44ColorRGB
 90
      255
102
RTVSPost2010PropOp44
 70
     1
102
RTVSPost2010Prop45
280
     0
102
RTVSPost2010PropOp45
 70
     1
102
RTVSPost2010Prop46
 90
       50
102
RTVSPost2010PropOp46
 70
     1
102
RTVSPost2010Prop47
 90
       50
102
RTVSPost2010PropOp47
 70
     1
102
RTVSPost2010Prop48
 90
       50
102
RTVSPost2010PropOp48
 70
     1
102
RTVSPost2010Prop49
280
     0
102
RTVSPost2010PropOp49
 70
     1
102
RTVSPost2010Prop50
 90
       50
102
RTVSPost2010PropOp50
 70
     1
102
RTVSPost2010Prop51ColorIndex
 90
      256
102
RTVSPost2010Prop51ColorRGB
 90
-16777216
102
RTVSPost2010PropOp51
 70
     0
102
RTVSPost2010Prop52
140
1.0
102
RTVSPost2010PropOp52
 70
     0
102
RTVSPost2010Prop53
 90
        2
102
RTVSPost2010PropOp53
 70
     1
102
RTVSPost2010Prop54
  1
strokes_ogs.tif
102
RTVSPost2010PropOp54
 70
     1
102
RTVSPost2010Prop55
280
     0
102
RTVSPost2010PropOp55
 70
     1
102
RTVSPost2010Prop56
140
1.0
102
RTVSPost2010PropOp56
 70
     1
102
RTVSPost2010Prop57
140
1.0
102
RTVSPost2010PropOp57
 70
     1
  0
XRECORD
  5
566
102
{ACAD_REACTORS
330
565
102
}
330
565
100
AcDbXrecord
280
     1
102
RTVSPropertyOp0
 70
     1
102
RTVSPropertyOp1
 70
     1
102
RTVSPropertyOp2
 70
     1
102
RTVSPropertyOp3
 70
     1
102
RTVSPropertyOp4
 70
     1
102
RTVSPropertyOp5
 70
     1
102
RTVSPropertyOp6
 70
     1
102
RTVSPropertyOp7
 70
     1
102
RTVSPropertyOp8
 70
     1
102
RTVSPropertyOp9
 70
     1
102
RTVSPropertyOp10
 70
     1
102
RTVSPropertyOp11
 70
     1
102
RTVSPropertyOp12
 70
     1
102
RTVSPropertyOp13
 70
     1
102
RTVSPropertyOp14
 70
     1
102
RTVSPropertyOp15
 70
     1
102
RTVSPropertyOp16
 70
     1
102
RTVSPropertyOp17
 70
     1
102
RTVSPropertyOp18
 70
     1
102
RTVSPropertyOp19
 70
     1
102
RTVSPropertyOp20
 70
     1
102
RTVSPropertyOp21
 70
     1
102
RTVSPropertyOp22
 70
     1
102
RTVSPropertyOp23
 70
     1
102
RTVSPropertyOp24
 70
     1
102
RTVSPropertyOp25
 70
     1
102
RTVSPropertyOp26
 70
     1
102
RTVSPropertyOp27
 70
     1
102
RTVSPropertyOp28
 70
     1
102
RTVSPropertyOp29
 70
     1
102
RTVSPropertyOp30
 70
     1
102
RTVSPropertyOp31
 70
     1
102
RTVSPropertyOp32
 70
     1
102
RTVSPropertyOp33
 70
     1
102
RTVSPropertyOp34
 70
     1
102
RTVSPropertyOp35
 70
     1
102
RTVSPropertyOp36
 70
     1
102
RTVSPropertyOp37
 70
     1
102
RTVSPropertyOp38
 70
     1
102
RTVSPropertyOp39
 70
     1
102
RTVSPropertyOp40
 70
     1
102
RTVSPropertyOp41
 70
     1
102
RTVSPropertyOp42
 70
     1
102
RTVSPropertyOp43
 70
     1
102
RTVSPropertyOp44
 70
     1
102
RTVSPropertyOp45
 70
     1
102
RTVSPropertyOp46
 70
     1
102
RTVSPropertyOp47
 70
     1
102
RTVSPropertyOp48
 70
     1
102
RTVSPropertyOp49
 70
     1
102
RTVSPropertyOp50
 70
     1
102
RTVSPropertyOp51
 70
     0
102
RTVSPropertyOp52
 70
     0
102
RTVSPropertyOp53
 70
     1
102
RTVSPropertyOp54
 70
     1
102
RTVSPropertyOp55
 70
     1
102
RTVSPropertyOp56
 70
     1
102
RTVSPropertyOp57
 70
     1
102
RTVSPost2010Prop28
280
     0
102
RTVSPost2010PropOp28
 70
     1
102
RTVSPost2010Prop29
280
     1
102
RTVSPost2010PropOp29
 70
     1
102
RTVSPost2010Prop30
280
     1
102
RTVSPost2010PropOp30
 70
     1
102
RTVSPost2010Prop31
280
     0
102
RTVSPost2010PropOp31
 70
     1
102
RTVSPost2010Prop32
280
     0
102
RTVSPost2010PropOp32
 70
     1
102
RTVSPost2010Prop33
280
     0
102
RTVSPost2010PropOp33
 70
     1
102
RTVSPost2010Prop34
280
     0
102
RTVSPost2010PropOp34
 70
     1
102
RTVSPost2010Prop35
280
     0
102
RTVSPost2010PropOp35
 70
     1
102
RTVSPost2010Prop36
280
     0
102
RTVSPost2010PropOp36
 70
     1
102
RTVSPost2010Prop37
 90
       50
102
RTVSPost2010PropOp37
 70
     1
102
RTVSPost2010Prop38
140
0.0
102
RTVSPost2010PropOp38
 70
     1
102
RTVSPost2010Prop39
140
1.0
102
RTVSPost2010PropOp39
 70
     1
102
RTVSPost2010Prop40
 90
        0
102
RTVSPost2010PropOp40
 70
     1
102
RTVSPost2010Prop41ColorIndex
 90
       18
102
RTVSPost2010Prop41ColorRGB
 90
        0
102
RTVSPost2010PropOp41
 70
     1
102
RTVSPost2010Prop42
 90
       50
102
RTVSPost2010PropOp42
 70
     1
102
RTVSPost2010Prop43
 90
        3
102
RTVSPost2010PropOp43
 70
     1
102
RTVSPost2010Prop44ColorIndex
 90
        5
102
RTVSPost2010Prop44ColorRGB
 90
      255
102
RTVSPost2010PropOp44
 70
     1
102
RTVSPost2010Prop45
280
     0
102
RTVSPost2010PropOp45
 70
     1
102
RTVSPost2010Prop46
 90
       50
102
RTVSPost2010PropOp46
 70
     1
102
RTVSPost2010Prop47
 90
       50
102
RTVSPost2010PropOp47
 70
     1
102
RTVSPost2010Prop48
 90
       50
102
RTVSPost2010PropOp48
 70
     1
102
RTVSPost2010Prop49
280
     0
102
RTVSPost2010PropOp49
 70
     1
102
RTVSPost2010Prop50
 90
       50
102
RTVSPost2010PropOp50
 70
     1
102
RTVSPost2010Prop51ColorIndex
 90
      256
102
RTVSPost2010Prop51ColorRGB
 90
-16777216
102
RTVSPost2010PropOp51
 70
     0
102
RTVSPost2010Prop52
140
1.0
102
RTVSPost2010PropOp52
 70
     0
102
RTVSPost2010Prop53
 90
        2
102
RTVSPost2010PropOp53
 70
     1
102
RTVSPost2010Prop54
  1
strokes_ogs.tif
102
RTVSPost2010PropOp54
 70
     1
102
RTVSPost2010Prop55
280
     0
102
RTVSPost2010PropOp55
 70
     1
102
RTVSPost2010Prop56
140
1.0
102
RTVSPost2010PropOp56
 70
     1
102
RTVSPost2010Prop57
140
1.0
102
RTVSPost2010PropOp57
 70
     1
  0
XRECORD
  5
54A
102
{ACAD_REACTORS
330
549
102
}
330
549
100
AcDbXrecord
280
     1
102
RTVSPropertyOp0
 70
     1
102
RTVSPropertyOp1
 70
     1
102
RTVSPropertyOp2
 70
     1
102
RTVSPropertyOp3
 70
     1
102
RTVSPropertyOp4
 70
     1
102
RTVSPropertyOp5
 70
     1
102
RTVSPropertyOp6
 70
     1
102
RTVSPropertyOp7
 70
     1
102
RTVSPropertyOp8
 70
     1
102
RTVSPropertyOp9
 70
     1
102
RTVSPropertyOp10
 70
     1
102
RTVSPropertyOp11
 70
     1
102
RTVSPropertyOp12
 70
     1
102
RTVSPropertyOp13
 70
     1
102
RTVSPropertyOp14
 70
     1
102
RTVSPropertyOp15
 70
     1
102
RTVSPropertyOp16
 70
     1
102
RTVSPropertyOp17
 70
     1
102
RTVSPropertyOp18
 70
     1
102
RTVSPropertyOp19
 70
     1
102
RTVSPropertyOp20
 70
     1
102
RTVSPropertyOp21
 70
     1
102
RTVSPropertyOp22
 70
     1
102
RTVSPropertyOp23
 70
     1
102
RTVSPropertyOp24
 70
     1
102
RTVSPropertyOp25
 70
     1
102
RTVSPropertyOp26
 70
     1
102
RTVSPropertyOp27
 70
     1
102
RTVSPropertyOp28
 70
     1
102
RTVSPropertyOp29
 70
     1
102
RTVSPropertyOp30
 70
     1
102
RTVSPropertyOp31
 70
     1
102
RTVSPropertyOp32
 70
     1
102
RTVSPropertyOp33
 70
     1
102
RTVSPropertyOp34
 70
     1
102
RTVSPropertyOp35
 70
     1
102
RTVSPropertyOp36
 70
     1
102
RTVSPropertyOp37
 70
     1
102
RTVSPropertyOp38
 70
     1
102
RTVSPropertyOp39
 70
     1
102
RTVSPropertyOp40
 70
     1
102
RTVSPropertyOp41
 70
     1
102
RTVSPropertyOp42
 70
     1
102
RTVSPropertyOp43
 70
     1
102
RTVSPropertyOp44
 70
     1
102
RTVSPropertyOp45
 70
     1
102
RTVSPropertyOp46
 70
     1
102
RTVSPropertyOp47
 70
     1
102
RTVSPropertyOp48
 70
     1
102
RTVSPropertyOp49
 70
     1
102
RTVSPropertyOp50
 70
     1
102
RTVSPropertyOp51
 70
     0
102
RTVSPropertyOp52
 70
     0
102
RTVSPropertyOp53
 70
     1
102
RTVSPropertyOp54
 70
     1
102
RTVSPropertyOp55
 70
     1
102
RTVSPropertyOp56
 70
     1
102
RTVSPropertyOp57
 70
     1
102
RTVSPost2010Prop28
280
     0
102
RTVSPost2010PropOp28
 70
     1
102
RTVSPost2010Prop29
280
     1
102
RTVSPost2010PropOp29
 70
     1
102
RTVSPost2010Prop30
280
     1
102
RTVSPost2010PropOp30
 70
     1
102
RTVSPost2010Prop31
280
     0
102
RTVSPost2010PropOp31
 70
     1
102
RTVSPost2010Prop32
280
     0
102
RTVSPost2010PropOp32
 70
     1
102
RTVSPost2010Prop33
280
     0
102
RTVSPost2010PropOp33
 70
     1
102
RTVSPost2010Prop34
280
     0
102
RTVSPost2010PropOp34
 70
     1
102
RTVSPost2010Prop35
280
     0
102
RTVSPost2010PropOp35
 70
     1
102
RTVSPost2010Prop36
280
     0
102
RTVSPost2010PropOp36
 70
     1
102
RTVSPost2010Prop37
 90
       50
102
RTVSPost2010PropOp37
 70
     1
102
RTVSPost2010Prop38
140
0.0
102
RTVSPost2010PropOp38
 70
     1
102
RTVSPost2010Prop39
140
1.0
102
RTVSPost2010PropOp39
 70
     1
102
RTVSPost2010Prop40
 90
        0
102
RTVSPost2010PropOp40
 70
     1
102
RTVSPost2010Prop41ColorIndex
 90
       18
102
RTVSPost2010Prop41ColorRGB
 90
        0
102
RTVSPost2010PropOp41
 70
     1
102
RTVSPost2010Prop42
 90
       50
102
RTVSPost2010PropOp42
 70
     1
102
RTVSPost2010Prop43
 90
        3
102
RTVSPost2010PropOp43
 70
     1
102
RTVSPost2010Prop44ColorIndex
 90
        5
102
RTVSPost2010Prop44ColorRGB
 90
      255
102
RTVSPost2010PropOp44
 70
     1
102
RTVSPost2010Prop45
280
     0
102
RTVSPost2010PropOp45
 70
     1
102
RTVSPost2010Prop46
 90
       50
102
RTVSPost2010PropOp46
 70
     1
102
RTVSPost2010Prop47
 90
       50
102
RTVSPost2010PropOp47
 70
     1
102
RTVSPost2010Prop48
 90
       50
102
RTVSPost2010PropOp48
 70
     1
102
RTVSPost2010Prop49
280
     0
102
RTVSPost2010PropOp49
 70
     1
102
RTVSPost2010Prop50
 90
       50
102
RTVSPost2010PropOp50
 70
     1
102
RTVSPost2010Prop51ColorIndex
 90
      256
102
RTVSPost2010Prop51ColorRGB
 90
-16777216
102
RTVSPost2010PropOp51
 70
     0
102
RTVSPost2010Prop52
140
1.0
102
RTVSPost2010PropOp52
 70
     0
102
RTVSPost2010Prop53
 90
        2
102
RTVSPost2010PropOp53
 70
     1
102
RTVSPost2010Prop54
  1
strokes_ogs.tif
102
RTVSPost2010PropOp54
 70
     1
102
RTVSPost2010Prop55
280
     0
102
RTVSPost2010PropOp55
 70
     1
102
RTVSPost2010Prop56
140
1.0
102
RTVSPost2010PropOp56
 70
     1
102
RTVSPost2010Prop57
140
1.0
102
RTVSPost2010PropOp57
 70
     1
  0
XRECORD
  5
54C
102
{ACAD_REACTORS
330
54B
102
}
330
54B
100
AcDbXrecord
280
     1
102
RTVSPropertyOp0
 70
     1
102
RTVSPropertyOp1
 70
     1
102
RTVSPropertyOp2
 70
     1
102
RTVSPropertyOp3
 70
     1
102
RTVSPropertyOp4
 70
     1
102
RTVSPropertyOp5
 70
     1
102
RTVSPropertyOp6
 70
     1
102
RTVSPropertyOp7
 70
     1
102
RTVSPropertyOp8
 70
     1
102
RTVSPropertyOp9
 70
     1
102
RTVSPropertyOp10
 70
     1
102
RTVSPropertyOp11
 70
     1
102
RTVSPropertyOp12
 70
     1
102
RTVSPropertyOp13
 70
     1
102
RTVSPropertyOp14
 70
     1
102
RTVSPropertyOp15
 70
     1
102
RTVSPropertyOp16
 70
     1
102
RTVSPropertyOp17
 70
     1
102
RTVSPropertyOp18
 70
     1
102
RTVSPropertyOp19
 70
     1
102
RTVSPropertyOp20
 70
     1
102
RTVSPropertyOp21
 70
     1
102
RTVSPropertyOp22
 70
     1
102
RTVSPropertyOp23
 70
     1
102
RTVSPropertyOp24
 70
     1
102
RTVSPropertyOp25
 70
     1
102
RTVSPropertyOp26
 70
     1
102
RTVSPropertyOp27
 70
     1
102
RTVSPropertyOp28
 70
     1
102
RTVSPropertyOp29
 70
     1
102
RTVSPropertyOp30
 70
     1
102
RTVSPropertyOp31
 70
     1
102
RTVSPropertyOp32
 70
     1
102
RTVSPropertyOp33
 70
     1
102
RTVSPropertyOp34
 70
     1
102
RTVSPropertyOp35
 70
     1
102
RTVSPropertyOp36
 70
     1
102
RTVSPropertyOp37
 70
     1
102
RTVSPropertyOp38
 70
     1
102
RTVSPropertyOp39
 70
     1
102
RTVSPropertyOp40
 70
     1
102
RTVSPropertyOp41
 70
     1
102
RTVSPropertyOp42
 70
     1
102
RTVSPropertyOp43
 70
     1
102
RTVSPropertyOp44
 70
     1
102
RTVSPropertyOp45
 70
     1
102
RTVSPropertyOp46
 70
     1
102
RTVSPropertyOp47
 70
     1
102
RTVSPropertyOp48
 70
     1
102
RTVSPropertyOp49
 70
     1
102
RTVSPropertyOp50
 70
     1
102
RTVSPropertyOp51
 70
     0
102
RTVSPropertyOp52
 70
     0
102
RTVSPropertyOp53
 70
     1
102
RTVSPropertyOp54
 70
     1
102
RTVSPropertyOp55
 70
     1
102
RTVSPropertyOp56
 70
     1
102
RTVSPropertyOp57
 70
     1
102
RTVSPost2010Prop28
280
     0
102
RTVSPost2010PropOp28
 70
     1
102
RTVSPost2010Prop29
280
     1
102
RTVSPost2010PropOp29
 70
     1
102
RTVSPost2010Prop30
280
     1
102
RTVSPost2010PropOp30
 70
     1
102
RTVSPost2010Prop31
280
     0
102
RTVSPost2010PropOp31
 70
     1
102
RTVSPost2010Prop32
280
     0
102
RTVSPost2010PropOp32
 70
     1
102
RTVSPost2010Prop33
280
     0
102
RTVSPost2010PropOp33
 70
     1
102
RTVSPost2010Prop34
280
     0
102
RTVSPost2010PropOp34
 70
     1
102
RTVSPost2010Prop35
280
     0
102
RTVSPost2010PropOp35
 70
     1
102
RTVSPost2010Prop36
280
     0
102
RTVSPost2010PropOp36
 70
     1
102
RTVSPost2010Prop37
 90
       50
102
RTVSPost2010PropOp37
 70
     1
102
RTVSPost2010Prop38
140
0.0
102
RTVSPost2010PropOp38
 70
     1
102
RTVSPost2010Prop39
140
1.0
102
RTVSPost2010PropOp39
 70
     1
102
RTVSPost2010Prop40
 90
        0
102
RTVSPost2010PropOp40
 70
     1
102
RTVSPost2010Prop41ColorIndex
 90
       18
102
RTVSPost2010Prop41ColorRGB
 90
        0
102
RTVSPost2010PropOp41
 70
     1
102
RTVSPost2010Prop42
 90
       50
102
RTVSPost2010PropOp42
 70
     1
102
RTVSPost2010Prop43
 90
        3
102
RTVSPost2010PropOp43
 70
     1
102
RTVSPost2010Prop44ColorIndex
 90
        5
102
RTVSPost2010Prop44ColorRGB
 90
      255
102
RTVSPost2010PropOp44
 70
     1
102
RTVSPost2010Prop45
280
     0
102
RTVSPost2010PropOp45
 70
     1
102
RTVSPost2010Prop46
 90
       50
102
RTVSPost2010PropOp46
 70
     1
102
RTVSPost2010Prop47
 90
       50
102
RTVSPost2010PropOp47
 70
     1
102
RTVSPost2010Prop48
 90
       50
102
RTVSPost2010PropOp48
 70
     1
102
RTVSPost2010Prop49
280
     0
102
RTVSPost2010PropOp49
 70
     1
102
RTVSPost2010Prop50
 90
       50
102
RTVSPost2010PropOp50
 70
     1
102
RTVSPost2010Prop51ColorIndex
 90
      256
102
RTVSPost2010Prop51ColorRGB
 90
-16777216
102
RTVSPost2010PropOp51
 70
     0
102
RTVSPost2010Prop52
140
1.0
102
RTVSPost2010PropOp52
 70
     0
102
RTVSPost2010Prop53
 90
        2
102
RTVSPost2010PropOp53
 70
     1
102
RTVSPost2010Prop54
  1
strokes_ogs.tif
102
RTVSPost2010PropOp54
 70
     1
102
RTVSPost2010Prop55
280
     0
102
RTVSPost2010PropOp55
 70
     1
102
RTVSPost2010Prop56
140
1.0
102
RTVSPost2010PropOp56
 70
     1
102
RTVSPost2010Prop57
140
1.0
102
RTVSPost2010PropOp57
 70
     1
  0
XRECORD
  5
54E
102
{ACAD_REACTORS
330
54D
102
}
330
54D
100
AcDbXrecord
280
     1
102
RTVSPropertyOp0
 70
     1
102
RTVSPropertyOp1
 70
     1
102
RTVSPropertyOp2
 70
     1
102
RTVSPropertyOp3
 70
     1
102
RTVSPropertyOp4
 70
     1
102
RTVSPropertyOp5
 70
     1
102
RTVSPropertyOp6
 70
     1
102
RTVSPropertyOp7
 70
     1
102
RTVSPropertyOp8
 70
     1
102
RTVSPropertyOp9
 70
     1
102
RTVSPropertyOp10
 70
     1
102
RTVSPropertyOp11
 70
     1
102
RTVSPropertyOp12
 70
     1
102
RTVSPropertyOp13
 70
     1
102
RTVSPropertyOp14
 70
     1
102
RTVSPropertyOp15
 70
     1
102
RTVSPropertyOp16
 70
     1
102
RTVSPropertyOp17
 70
     1
102
RTVSPropertyOp18
 70
     1
102
RTVSPropertyOp19
 70
     1
102
RTVSPropertyOp20
 70
     1
102
RTVSPropertyOp21
 70
     1
102
RTVSPropertyOp22
 70
     1
102
RTVSPropertyOp23
 70
     1
102
RTVSPropertyOp24
 70
     1
102
RTVSPropertyOp25
 70
     1
102
RTVSPropertyOp26
 70
     1
102
RTVSPropertyOp27
 70
     1
102
RTVSPropertyOp28
 70
     1
102
RTVSPropertyOp29
 70
     1
102
RTVSPropertyOp30
 70
     1
102
RTVSPropertyOp31
 70
     1
102
RTVSPropertyOp32
 70
     1
102
RTVSPropertyOp33
 70
     1
102
RTVSPropertyOp34
 70
     1
102
RTVSPropertyOp35
 70
     1
102
RTVSPropertyOp36
 70
     1
102
RTVSPropertyOp37
 70
     1
102
RTVSPropertyOp38
 70
     1
102
RTVSPropertyOp39
 70
     1
102
RTVSPropertyOp40
 70
     1
102
RTVSPropertyOp41
 70
     1
102
RTVSPropertyOp42
 70
     1
102
RTVSPropertyOp43
 70
     1
102
RTVSPropertyOp44
 70
     1
102
RTVSPropertyOp45
 70
     1
102
RTVSPropertyOp46
 70
     1
102
RTVSPropertyOp47
 70
     1
102
RTVSPropertyOp48
 70
     1
102
RTVSPropertyOp49
 70
     1
102
RTVSPropertyOp50
 70
     1
102
RTVSPropertyOp51
 70
     0
102
RTVSPropertyOp52
 70
     0
102
RTVSPropertyOp53
 70
     1
102
RTVSPropertyOp54
 70
     1
102
RTVSPropertyOp55
 70
     1
102
RTVSPropertyOp56
 70
     1
102
RTVSPropertyOp57
 70
     1
102
RTVSPost2010Prop28
280
     0
102
RTVSPost2010PropOp28
 70
     1
102
RTVSPost2010Prop29
280
     1
102
RTVSPost2010PropOp29
 70
     1
102
RTVSPost2010Prop30
280
     1
102
RTVSPost2010PropOp30
 70
     1
102
RTVSPost2010Prop31
280
     0
102
RTVSPost2010PropOp31
 70
     1
102
RTVSPost2010Prop32
280
     0
102
RTVSPost2010PropOp32
 70
     1
102
RTVSPost2010Prop33
280
     0
102
RTVSPost2010PropOp33
 70
     1
102
RTVSPost2010Prop34
280
     0
102
RTVSPost2010PropOp34
 70
     1
102
RTVSPost2010Prop35
280
     0
102
RTVSPost2010PropOp35
 70
     1
102
RTVSPost2010Prop36
280
     0
102
RTVSPost2010PropOp36
 70
     1
102
RTVSPost2010Prop37
 90
       50
102
RTVSPost2010PropOp37
 70
     1
102
RTVSPost2010Prop38
140
0.0
102
RTVSPost2010PropOp38
 70
     1
102
RTVSPost2010Prop39
140
1.0
102
RTVSPost2010PropOp39
 70
     1
102
RTVSPost2010Prop40
 90
        0
102
RTVSPost2010PropOp40
 70
     1
102
RTVSPost2010Prop41ColorIndex
 90
       18
102
RTVSPost2010Prop41ColorRGB
 90
        0
102
RTVSPost2010PropOp41
 70
     1
102
RTVSPost2010Prop42
 90
       50
102
RTVSPost2010PropOp42
 70
     1
102
RTVSPost2010Prop43
 90
        3
102
RTVSPost2010PropOp43
 70
     1
102
RTVSPost2010Prop44ColorIndex
 90
        5
102
RTVSPost2010Prop44ColorRGB
 90
      255
102
RTVSPost2010PropOp44
 70
     1
102
RTVSPost2010Prop45
280
     0
102
RTVSPost2010PropOp45
 70
     1
102
RTVSPost2010Prop46
 90
       50
102
RTVSPost2010PropOp46
 70
     1
102
RTVSPost2010Prop47
 90
       50
102
RTVSPost2010PropOp47
 70
     1
102
RTVSPost2010Prop48
 90
       50
102
RTVSPost2010PropOp48
 70
     1
102
RTVSPost2010Prop49
280
     0
102
RTVSPost2010PropOp49
 70
     1
102
RTVSPost2010Prop50
 90
       50
102
RTVSPost2010PropOp50
 70
     1
102
RTVSPost2010Prop51ColorIndex
 90
      256
102
RTVSPost2010Prop51ColorRGB
 90
-16777216
102
RTVSPost2010PropOp51
 70
     0
102
RTVSPost2010Prop52
140
1.0
102
RTVSPost2010PropOp52
 70
     0
102
RTVSPost2010Prop53
 90
        2
102
RTVSPost2010PropOp53
 70
     1
102
RTVSPost2010Prop54
  1
strokes_ogs.tif
102
RTVSPost2010PropOp54
 70
     1
102
RTVSPost2010Prop55
280
     0
102
RTVSPost2010PropOp55
 70
     1
102
RTVSPost2010Prop56
140
1.0
102
RTVSPost2010PropOp56
 70
     1
102
RTVSPost2010Prop57
140
1.0
102
RTVSPost2010PropOp57
 70
     1
  0
XRECORD
  5
550
102
{ACAD_REACTORS
330
54F
102
}
330
54F
100
AcDbXrecord
280
     1
102
RTVSPropertyOp0
 70
     1
102
RTVSPropertyOp1
 70
     1
102
RTVSPropertyOp2
 70
     1
102
RTVSPropertyOp3
 70
     1
102
RTVSPropertyOp4
 70
     1
102
RTVSPropertyOp5
 70
     1
102
RTVSPropertyOp6
 70
     1
102
RTVSPropertyOp7
 70
     1
102
RTVSPropertyOp8
 70
     1
102
RTVSPropertyOp9
 70
     1
102
RTVSPropertyOp10
 70
     1
102
RTVSPropertyOp11
 70
     1
102
RTVSPropertyOp12
 70
     1
102
RTVSPropertyOp13
 70
     1
102
RTVSPropertyOp14
 70
     1
102
RTVSPropertyOp15
 70
     1
102
RTVSPropertyOp16
 70
     1
102
RTVSPropertyOp17
 70
     1
102
RTVSPropertyOp18
 70
     1
102
RTVSPropertyOp19
 70
     1
102
RTVSPropertyOp20
 70
     1
102
RTVSPropertyOp21
 70
     1
102
RTVSPropertyOp22
 70
     1
102
RTVSPropertyOp23
 70
     1
102
RTVSPropertyOp24
 70
     1
102
RTVSPropertyOp25
 70
     1
102
RTVSPropertyOp26
 70
     1
102
RTVSPropertyOp27
 70
     1
102
RTVSPropertyOp28
 70
     1
102
RTVSPropertyOp29
 70
     1
102
RTVSPropertyOp30
 70
     1
102
RTVSPropertyOp31
 70
     1
102
RTVSPropertyOp32
 70
     1
102
RTVSPropertyOp33
 70
     1
102
RTVSPropertyOp34
 70
     1
102
RTVSPropertyOp35
 70
     1
102
RTVSPropertyOp36
 70
     1
102
RTVSPropertyOp37
 70
     1
102
RTVSPropertyOp38
 70
     1
102
RTVSPropertyOp39
 70
     1
102
RTVSPropertyOp40
 70
     1
102
RTVSPropertyOp41
 70
     1
102
RTVSPropertyOp42
 70
     1
102
RTVSPropertyOp43
 70
     1
102
RTVSPropertyOp44
 70
     1
102
RTVSPropertyOp45
 70
     1
102
RTVSPropertyOp46
 70
     1
102
RTVSPropertyOp47
 70
     1
102
RTVSPropertyOp48
 70
     1
102
RTVSPropertyOp49
 70
     1
102
RTVSPropertyOp50
 70
     1
102
RTVSPropertyOp51
 70
     0
102
RTVSPropertyOp52
 70
     0
102
RTVSPropertyOp53
 70
     1
102
RTVSPropertyOp54
 70
     1
102
RTVSPropertyOp55
 70
     1
102
RTVSPropertyOp56
 70
     1
102
RTVSPropertyOp57
 70
     1
102
RTVSPost2010Prop28
280
     0
102
RTVSPost2010PropOp28
 70
     1
102
RTVSPost2010Prop29
280
     1
102
RTVSPost2010PropOp29
 70
     1
102
RTVSPost2010Prop30
280
     1
102
RTVSPost2010PropOp30
 70
     1
102
RTVSPost2010Prop31
280
     0
102
RTVSPost2010PropOp31
 70
     1
102
RTVSPost2010Prop32
280
     0
102
RTVSPost2010PropOp32
 70
     1
102
RTVSPost2010Prop33
280
     0
102
RTVSPost2010PropOp33
 70
     1
102
RTVSPost2010Prop34
280
     0
102
RTVSPost2010PropOp34
 70
     1
102
RTVSPost2010Prop35
280
     0
102
RTVSPost2010PropOp35
 70
     1
102
RTVSPost2010Prop36
280
     0
102
RTVSPost2010PropOp36
 70
     1
102
RTVSPost2010Prop37
 90
       50
102
RTVSPost2010PropOp37
 70
     1
102
RTVSPost2010Prop38
140
0.0
102
RTVSPost2010PropOp38
 70
     1
102
RTVSPost2010Prop39
140
1.0
102
RTVSPost2010PropOp39
 70
     1
102
RTVSPost2010Prop40
 90
        0
102
RTVSPost2010PropOp40
 70
     1
102
RTVSPost2010Prop41ColorIndex
 90
       18
102
RTVSPost2010Prop41ColorRGB
 90
        0
102
RTVSPost2010PropOp41
 70
     1
102
RTVSPost2010Prop42
 90
       50
102
RTVSPost2010PropOp42
 70
     1
102
RTVSPost2010Prop43
 90
        3
102
RTVSPost2010PropOp43
 70
     1
102
RTVSPost2010Prop44ColorIndex
 90
        5
102
RTVSPost2010Prop44ColorRGB
 90
      255
102
RTVSPost2010PropOp44
 70
     1
102
RTVSPost2010Prop45
280
     0
102
RTVSPost2010PropOp45
 70
     1
102
RTVSPost2010Prop46
 90
       50
102
RTVSPost2010PropOp46
 70
     1
102
RTVSPost2010Prop47
 90
       50
102
RTVSPost2010PropOp47
 70
     1
102
RTVSPost2010Prop48
 90
       50
102
RTVSPost2010PropOp48
 70
     1
102
RTVSPost2010Prop49
280
     0
102
RTVSPost2010PropOp49
 70
     1
102
RTVSPost2010Prop50
 90
       50
102
RTVSPost2010PropOp50
 70
     1
102
RTVSPost2010Prop51ColorIndex
 90
      256
102
RTVSPost2010Prop51ColorRGB
 90
-16777216
102
RTVSPost2010PropOp51
 70
     0
102
RTVSPost2010Prop52
140
1.0
102
RTVSPost2010PropOp52
 70
     0
102
RTVSPost2010Prop53
 90
        2
102
RTVSPost2010PropOp53
 70
     1
102
RTVSPost2010Prop54
  1
strokes_ogs.tif
102
RTVSPost2010PropOp54
 70
     1
102
RTVSPost2010Prop55
280
     0
102
RTVSPost2010PropOp55
 70
     1
102
RTVSPost2010Prop56
140
1.0
102
RTVSPost2010PropOp56
 70
     1
102
RTVSPost2010Prop57
140
1.0
102
RTVSPost2010PropOp57
 70
     1
  0
XRECORD
  5
556
102
{ACAD_REACTORS
330
555
102
}
330
555
100
AcDbXrecord
280
     1
102
RTVSPropertyOp0
 70
     1
102
RTVSPropertyOp1
 70
     1
102
RTVSPropertyOp2
 70
     1
102
RTVSPropertyOp3
 70
     1
102
RTVSPropertyOp4
 70
     1
102
RTVSPropertyOp5
 70
     1
102
RTVSPropertyOp6
 70
     1
102
RTVSPropertyOp7
 70
     1
102
RTVSPropertyOp8
 70
     1
102
RTVSPropertyOp9
 70
     1
102
RTVSPropertyOp10
 70
     1
102
RTVSPropertyOp11
 70
     1
102
RTVSPropertyOp12
 70
     1
102
RTVSPropertyOp13
 70
     1
102
RTVSPropertyOp14
 70
     1
102
RTVSPropertyOp15
 70
     1
102
RTVSPropertyOp16
 70
     1
102
RTVSPropertyOp17
 70
     1
102
RTVSPropertyOp18
 70
     1
102
RTVSPropertyOp19
 70
     1
102
RTVSPropertyOp20
 70
     1
102
RTVSPropertyOp21
 70
     1
102
RTVSPropertyOp22
 70
     1
102
RTVSPropertyOp23
 70
     1
102
RTVSPropertyOp24
 70
     1
102
RTVSPropertyOp25
 70
     1
102
RTVSPropertyOp26
 70
     1
102
RTVSPropertyOp27
 70
     1
102
RTVSPropertyOp28
 70
     1
102
RTVSPropertyOp29
 70
     1
102
RTVSPropertyOp30
 70
     1
102
RTVSPropertyOp31
 70
     1
102
RTVSPropertyOp32
 70
     1
102
RTVSPropertyOp33
 70
     1
102
RTVSPropertyOp34
 70
     1
102
RTVSPropertyOp35
 70
     1
102
RTVSPropertyOp36
 70
     1
102
RTVSPropertyOp37
 70
     1
102
RTVSPropertyOp38
 70
     1
102
RTVSPropertyOp39
 70
     1
102
RTVSPropertyOp40
 70
     1
102
RTVSPropertyOp41
 70
     1
102
RTVSPropertyOp42
 70
     1
102
RTVSPropertyOp43
 70
     1
102
RTVSPropertyOp44
 70
     1
102
RTVSPropertyOp45
 70
     1
102
RTVSPropertyOp46
 70
     1
102
RTVSPropertyOp47
 70
     1
102
RTVSPropertyOp48
 70
     1
102
RTVSPropertyOp49
 70
     1
102
RTVSPropertyOp50
 70
     1
102
RTVSPropertyOp51
 70
     0
102
RTVSPropertyOp52
 70
     0
102
RTVSPropertyOp53
 70
     1
102
RTVSPropertyOp54
 70
     1
102
RTVSPropertyOp55
 70
     1
102
RTVSPropertyOp56
 70
     1
102
RTVSPropertyOp57
 70
     1
102
RTVSPost2010Prop28
280
     0
102
RTVSPost2010PropOp28
 70
     1
102
RTVSPost2010Prop29
280
     1
102
RTVSPost2010PropOp29
 70
     1
102
RTVSPost2010Prop30
280
     1
102
RTVSPost2010PropOp30
 70
     1
102
RTVSPost2010Prop31
280
     0
102
RTVSPost2010PropOp31
 70
     1
102
RTVSPost2010Prop32
280
     0
102
RTVSPost2010PropOp32
 70
     1
102
RTVSPost2010Prop33
280
     0
102
RTVSPost2010PropOp33
 70
     1
102
RTVSPost2010Prop34
280
     0
102
RTVSPost2010PropOp34
 70
     1
102
RTVSPost2010Prop35
280
     0
102
RTVSPost2010PropOp35
 70
     1
102
RTVSPost2010Prop36
280
     0
102
RTVSPost2010PropOp36
 70
     1
102
RTVSPost2010Prop37
 90
       50
102
RTVSPost2010PropOp37
 70
     1
102
RTVSPost2010Prop38
140
0.0
102
RTVSPost2010PropOp38
 70
     1
102
RTVSPost2010Prop39
140
1.0
102
RTVSPost2010PropOp39
 70
     1
102
RTVSPost2010Prop40
 90
        0
102
RTVSPost2010PropOp40
 70
     1
102
RTVSPost2010Prop41ColorIndex
 90
       18
102
RTVSPost2010Prop41ColorRGB
 90
        0
102
RTVSPost2010PropOp41
 70
     1
102
RTVSPost2010Prop42
 90
       50
102
RTVSPost2010PropOp42
 70
     1
102
RTVSPost2010Prop43
 90
        3
102
RTVSPost2010PropOp43
 70
     1
102
RTVSPost2010Prop44ColorIndex
 90
        5
102
RTVSPost2010Prop44ColorRGB
 90
      255
102
RTVSPost2010PropOp44
 70
     1
102
RTVSPost2010Prop45
280
     0
102
RTVSPost2010PropOp45
 70
     1
102
RTVSPost2010Prop46
 90
       50
102
RTVSPost2010PropOp46
 70
     1
102
RTVSPost2010Prop47
 90
       50
102
RTVSPost2010PropOp47
 70
     1
102
RTVSPost2010Prop48
 90
       50
102
RTVSPost2010PropOp48
 70
     1
102
RTVSPost2010Prop49
280
     0
102
RTVSPost2010PropOp49
 70
     1
102
RTVSPost2010Prop50
 90
       50
102
RTVSPost2010PropOp50
 70
     1
102
RTVSPost2010Prop51ColorIndex
 90
      256
102
RTVSPost2010Prop51ColorRGB
 90
-16777216
102
RTVSPost2010PropOp51
 70
     0
102
RTVSPost2010Prop52
140
1.0
102
RTVSPost2010PropOp52
 70
     0
102
RTVSPost2010Prop53
 90
        2
102
RTVSPost2010PropOp53
 70
     1
102
RTVSPost2010Prop54
  1
strokes_ogs.tif
102
RTVSPost2010PropOp54
 70
     1
102
RTVSPost2010Prop55
280
     0
102
RTVSPost2010PropOp55
 70
     1
102
RTVSPost2010Prop56
140
1.0
102
RTVSPost2010PropOp56
 70
     1
102
RTVSPost2010Prop57
140
1.0
102
RTVSPost2010PropOp57
 70
     1
  0
XRECORD
  5
56A
102
{ACAD_REACTORS
330
569
102
}
330
569
100
AcDbXrecord
280
     1
102
RTVSPropertyOp0
 70
     0
102
RTVSPropertyOp1
 70
     0
102
RTVSPropertyOp2
 70
     0
102
RTVSPropertyOp3
 70
     0
102
RTVSPropertyOp4
 70
     0
102
RTVSPropertyOp5
 70
     0
102
RTVSPropertyOp6
 70
     0
102
RTVSPropertyOp7
 70
     0
102
RTVSPropertyOp8
 70
     0
102
RTVSPropertyOp9
 70
     0
102
RTVSPropertyOp10
 70
     0
102
RTVSPropertyOp11
 70
     0
102
RTVSPropertyOp12
 70
     0
102
RTVSPropertyOp13
 70
     0
102
RTVSPropertyOp14
 70
     0
102
RTVSPropertyOp15
 70
     0
102
RTVSPropertyOp16
 70
     0
102
RTVSPropertyOp17
 70
     0
102
RTVSPropertyOp18
 70
     0
102
RTVSPropertyOp19
 70
     0
102
RTVSPropertyOp20
 70
     0
102
RTVSPropertyOp21
 70
     0
102
RTVSPropertyOp22
 70
     0
102
RTVSPropertyOp23
 70
     0
102
RTVSPropertyOp24
 70
     0
102
RTVSPropertyOp25
 70
     0
102
RTVSPropertyOp26
 70
     0
102
RTVSPropertyOp27
 70
     0
102
RTVSPropertyOp28
 70
     1
102
RTVSPropertyOp29
 70
     1
102
RTVSPropertyOp30
 70
     1
102
RTVSPropertyOp31
 70
     1
102
RTVSPropertyOp32
 70
     1
102
RTVSPropertyOp33
 70
     1
102
RTVSPropertyOp34
 70
     1
102
RTVSPropertyOp35
 70
     1
102
RTVSPropertyOp36
 70
     1
102
RTVSPropertyOp37
 70
     1
102
RTVSPropertyOp38
 70
     1
102
RTVSPropertyOp39
 70
     1
102
RTVSPropertyOp40
 70
     1
102
RTVSPropertyOp41
 70
     1
102
RTVSPropertyOp42
 70
     1
102
RTVSPropertyOp43
 70
     1
102
RTVSPropertyOp44
 70
     1
102
RTVSPropertyOp45
 70
     1
102
RTVSPropertyOp46
 70
     1
102
RTVSPropertyOp47
 70
     1
102
RTVSPropertyOp48
 70
     1
102
RTVSPropertyOp49
 70
     1
102
RTVSPropertyOp50
 70
     1
102
RTVSPropertyOp51
 70
     0
102
RTVSPropertyOp52
 70
     0
102
RTVSPropertyOp53
 70
     1
102
RTVSPropertyOp54
 70
     1
102
RTVSPropertyOp55
 70
     1
102
RTVSPropertyOp56
 70
     1
102
RTVSPropertyOp57
 70
     1
102
RTVSPost2010Prop28
280
     0
102
RTVSPost2010PropOp28
 70
     1
102
RTVSPost2010Prop29
280
     1
102
RTVSPost2010PropOp29
 70
     1
102
RTVSPost2010Prop30
280
     1
102
RTVSPost2010PropOp30
 70
     1
102
RTVSPost2010Prop31
280
     0
102
RTVSPost2010PropOp31
 70
     1
102
RTVSPost2010Prop32
280
     0
102
RTVSPost2010PropOp32
 70
     1
102
RTVSPost2010Prop33
280
     0
102
RTVSPost2010PropOp33
 70
     1
102
RTVSPost2010Prop34
280
     0
102
RTVSPost2010PropOp34
 70
     1
102
RTVSPost2010Prop35
280
     0
102
RTVSPost2010PropOp35
 70
     1
102
RTVSPost2010Prop36
280
     0
102
RTVSPost2010PropOp36
 70
     1
102
RTVSPost2010Prop37
 90
       50
102
RTVSPost2010PropOp37
 70
     1
102
RTVSPost2010Prop38
140
0.0
102
RTVSPost2010PropOp38
 70
     1
102
RTVSPost2010Prop39
140
1.0
102
RTVSPost2010PropOp39
 70
     1
102
RTVSPost2010Prop40
 90
        0
102
RTVSPost2010PropOp40
 70
     1
102
RTVSPost2010Prop41ColorIndex
 90
       18
102
RTVSPost2010Prop41ColorRGB
 90
        0
102
RTVSPost2010PropOp41
 70
     1
102
RTVSPost2010Prop42
 90
       50
102
RTVSPost2010PropOp42
 70
     1
102
RTVSPost2010Prop43
 90
        3
102
RTVSPost2010PropOp43
 70
     1
102
RTVSPost2010Prop44ColorIndex
 90
        5
102
RTVSPost2010Prop44ColorRGB
 90
      255
102
RTVSPost2010PropOp44
 70
     1
102
RTVSPost2010Prop45
280
     0
102
RTVSPost2010PropOp45
 70
     1
102
RTVSPost2010Prop46
 90
       50
102
RTVSPost2010PropOp46
 70
     1
102
RTVSPost2010Prop47
 90
       50
102
RTVSPost2010PropOp47
 70
     1
102
RTVSPost2010Prop48
 90
       50
102
RTVSPost2010PropOp48
 70
     1
102
RTVSPost2010Prop49
280
     0
102
RTVSPost2010PropOp49
 70
     1
102
RTVSPost2010Prop50
 90
       50
102
RTVSPost2010PropOp50
 70
     1
102
RTVSPost2010Prop51ColorIndex
 90
      256
102
RTVSPost2010Prop51ColorRGB
 90
-16777216
102
RTVSPost2010PropOp51
 70
     0
102
RTVSPost2010Prop52
140
1.0
102
RTVSPost2010PropOp52
 70
     0
102
RTVSPost2010Prop53
 90
        2
102
RTVSPost2010PropOp53
 70
     1
102
RTVSPost2010Prop54
  1
strokes_ogs.tif
102
RTVSPost2010PropOp54
 70
     1
102
RTVSPost2010Prop55
280
     0
102
RTVSPost2010PropOp55
 70
     1
102
RTVSPost2010Prop56
140
1.0
102
RTVSPost2010PropOp56
 70
     1
102
RTVSPost2010Prop57
140
1.0
102
RTVSPost2010PropOp57
 70
     1
  0
XRECORD
  5
564
102
{ACAD_REACTORS
330
563
102
}
330
563
100
AcDbXrecord
280
     1
102
RTVSPropertyOp0
 70
     1
102
RTVSPropertyOp1
 70
     1
102
RTVSPropertyOp2
 70
     1
102
RTVSPropertyOp3
 70
     1
102
RTVSPropertyOp4
 70
     1
102
RTVSPropertyOp5
 70
     1
102
RTVSPropertyOp6
 70
     1
102
RTVSPropertyOp7
 70
     1
102
RTVSPropertyOp8
 70
     1
102
RTVSPropertyOp9
 70
     1
102
RTVSPropertyOp10
 70
     1
102
RTVSPropertyOp11
 70
     1
102
RTVSPropertyOp12
 70
     1
102
RTVSPropertyOp13
 70
     1
102
RTVSPropertyOp14
 70
     1
102
RTVSPropertyOp15
 70
     1
102
RTVSPropertyOp16
 70
     1
102
RTVSPropertyOp17
 70
     1
102
RTVSPropertyOp18
 70
     1
102
RTVSPropertyOp19
 70
     1
102
RTVSPropertyOp20
 70
     1
102
RTVSPropertyOp21
 70
     1
102
RTVSPropertyOp22
 70
     1
102
RTVSPropertyOp23
 70
     1
102
RTVSPropertyOp24
 70
     1
102
RTVSPropertyOp25
 70
     1
102
RTVSPropertyOp26
 70
     1
102
RTVSPropertyOp27
 70
     1
102
RTVSPropertyOp28
 70
     1
102
RTVSPropertyOp29
 70
     1
102
RTVSPropertyOp30
 70
     1
102
RTVSPropertyOp31
 70
     1
102
RTVSPropertyOp32
 70
     1
102
RTVSPropertyOp33
 70
     1
102
RTVSPropertyOp34
 70
     1
102
RTVSPropertyOp35
 70
     1
102
RTVSPropertyOp36
 70
     1
102
RTVSPropertyOp37
 70
     1
102
RTVSPropertyOp38
 70
     1
102
RTVSPropertyOp39
 70
     1
102
RTVSPropertyOp40
 70
     1
102
RTVSPropertyOp41
 70
     1
102
RTVSPropertyOp42
 70
     1
102
RTVSPropertyOp43
 70
     1
102
RTVSPropertyOp44
 70
     1
102
RTVSPropertyOp45
 70
     1
102
RTVSPropertyOp46
 70
     1
102
RTVSPropertyOp47
 70
     1
102
RTVSPropertyOp48
 70
     1
102
RTVSPropertyOp49
 70
     1
102
RTVSPropertyOp50
 70
     1
102
RTVSPropertyOp51
 70
     0
102
RTVSPropertyOp52
 70
     0
102
RTVSPropertyOp53
 70
     1
102
RTVSPropertyOp54
 70
     1
102
RTVSPropertyOp55
 70
     1
102
RTVSPropertyOp56
 70
     1
102
RTVSPropertyOp57
 70
     1
102
RTVSPost2010Prop28
280
     0
102
RTVSPost2010PropOp28
 70
     1
102
RTVSPost2010Prop29
280
     1
102
RTVSPost2010PropOp29
 70
     1
102
RTVSPost2010Prop30
280
     1
102
RTVSPost2010PropOp30
 70
     1
102
RTVSPost2010Prop31
280
     0
102
RTVSPost2010PropOp31
 70
     1
102
RTVSPost2010Prop32
280
     0
102
RTVSPost2010PropOp32
 70
     1
102
RTVSPost2010Prop33
280
     0
102
RTVSPost2010PropOp33
 70
     1
102
RTVSPost2010Prop34
280
     0
102
RTVSPost2010PropOp34
 70
     1
102
RTVSPost2010Prop35
280
     0
102
RTVSPost2010PropOp35
 70
     1
102
RTVSPost2010Prop36
280
     0
102
RTVSPost2010PropOp36
 70
     1
102
RTVSPost2010Prop37
 90
       50
102
RTVSPost2010PropOp37
 70
     1
102
RTVSPost2010Prop38
140
0.0
102
RTVSPost2010PropOp38
 70
     1
102
RTVSPost2010Prop39
140
1.0
102
RTVSPost2010PropOp39
 70
     1
102
RTVSPost2010Prop40
 90
        0
102
RTVSPost2010PropOp40
 70
     1
102
RTVSPost2010Prop41ColorIndex
 90
       18
102
RTVSPost2010Prop41ColorRGB
 90
        0
102
RTVSPost2010PropOp41
 70
     1
102
RTVSPost2010Prop42
 90
       50
102
RTVSPost2010PropOp42
 70
     1
102
RTVSPost2010Prop43
 90
        3
102
RTVSPost2010PropOp43
 70
     1
102
RTVSPost2010Prop44ColorIndex
 90
        5
102
RTVSPost2010Prop44ColorRGB
 90
      255
102
RTVSPost2010PropOp44
 70
     1
102
RTVSPost2010Prop45
280
     0
102
RTVSPost2010PropOp45
 70
     1
102
RTVSPost2010Prop46
 90
       50
102
RTVSPost2010PropOp46
 70
     1
102
RTVSPost2010Prop47
 90
       50
102
RTVSPost2010PropOp47
 70
     1
102
RTVSPost2010Prop48
 90
       50
102
RTVSPost2010PropOp48
 70
     1
102
RTVSPost2010Prop49
280
     0
102
RTVSPost2010PropOp49
 70
     1
102
RTVSPost2010Prop50
 90
       50
102
RTVSPost2010PropOp50
 70
     1
102
RTVSPost2010Prop51ColorIndex
 90
      256
102
RTVSPost2010Prop51ColorRGB
 90
-16777216
102
RTVSPost2010PropOp51
 70
     0
102
RTVSPost2010Prop52
140
1.0
102
RTVSPost2010PropOp52
 70
     0
102
RTVSPost2010Prop53
 90
        2
102
RTVSPost2010PropOp53
 70
     1
102
RTVSPost2010Prop54
  1
strokes_ogs.tif
102
RTVSPost2010PropOp54
 70
     1
102
RTVSPost2010Prop55
280
     0
102
RTVSPost2010PropOp55
 70
     1
102
RTVSPost2010Prop56
140
1.0
102
RTVSPost2010PropOp56
 70
     1
102
RTVSPost2010Prop57
140
1.0
102
RTVSPost2010PropOp57
 70
     1
  0
XRECORD
  5
56C
102
{ACAD_REACTORS
330
56B
102
}
330
56B
100
AcDbXrecord
280
     1
102
RTVSPropertyOp0
 70
     0
102
RTVSPropertyOp1
 70
     0
102
RTVSPropertyOp2
 70
     0
102
RTVSPropertyOp3
 70
     0
102
RTVSPropertyOp4
 70
     0
102
RTVSPropertyOp5
 70
     0
102
RTVSPropertyOp6
 70
     0
102
RTVSPropertyOp7
 70
     0
102
RTVSPropertyOp8
 70
     0
102
RTVSPropertyOp9
 70
     0
102
RTVSPropertyOp10
 70
     0
102
RTVSPropertyOp11
 70
     0
102
RTVSPropertyOp12
 70
     0
102
RTVSPropertyOp13
 70
     0
102
RTVSPropertyOp14
 70
     0
102
RTVSPropertyOp15
 70
     0
102
RTVSPropertyOp16
 70
     0
102
RTVSPropertyOp17
 70
     0
102
RTVSPropertyOp18
 70
     0
102
RTVSPropertyOp19
 70
     0
102
RTVSPropertyOp20
 70
     0
102
RTVSPropertyOp21
 70
     0
102
RTVSPropertyOp22
 70
     0
102
RTVSPropertyOp23
 70
     0
102
RTVSPropertyOp24
 70
     0
102
RTVSPropertyOp25
 70
     0
102
RTVSPropertyOp26
 70
     0
102
RTVSPropertyOp27
 70
     0
102
RTVSPropertyOp28
 70
     1
102
RTVSPropertyOp29
 70
     1
102
RTVSPropertyOp30
 70
     1
102
RTVSPropertyOp31
 70
     1
102
RTVSPropertyOp32
 70
     1
102
RTVSPropertyOp33
 70
     1
102
RTVSPropertyOp34
 70
     1
102
RTVSPropertyOp35
 70
     1
102
RTVSPropertyOp36
 70
     1
102
RTVSPropertyOp37
 70
     1
102
RTVSPropertyOp38
 70
     1
102
RTVSPropertyOp39
 70
     1
102
RTVSPropertyOp40
 70
     1
102
RTVSPropertyOp41
 70
     1
102
RTVSPropertyOp42
 70
     1
102
RTVSPropertyOp43
 70
     1
102
RTVSPropertyOp44
 70
     1
102
RTVSPropertyOp45
 70
     1
102
RTVSPropertyOp46
 70
     1
102
RTVSPropertyOp47
 70
     1
102
RTVSPropertyOp48
 70
     1
102
RTVSPropertyOp49
 70
     1
102
RTVSPropertyOp50
 70
     1
102
RTVSPropertyOp51
 70
     0
102
RTVSPropertyOp52
 70
     0
102
RTVSPropertyOp53
 70
     1
102
RTVSPropertyOp54
 70
     1
102
RTVSPropertyOp55
 70
     1
102
RTVSPropertyOp56
 70
     1
102
RTVSPropertyOp57
 70
     1
102
RTVSPost2010Prop28
280
     0
102
RTVSPost2010PropOp28
 70
     1
102
RTVSPost2010Prop29
280
     1
102
RTVSPost2010PropOp29
 70
     1
102
RTVSPost2010Prop30
280
     1
102
RTVSPost2010PropOp30
 70
     1
102
RTVSPost2010Prop31
280
     0
102
RTVSPost2010PropOp31
 70
     1
102
RTVSPost2010Prop32
280
     0
102
RTVSPost2010PropOp32
 70
     1
102
RTVSPost2010Prop33
280
     0
102
RTVSPost2010PropOp33
 70
     1
102
RTVSPost2010Prop34
280
     0
102
RTVSPost2010PropOp34
 70
     1
102
RTVSPost2010Prop35
280
     0
102
RTVSPost2010PropOp35
 70
     1
102
RTVSPost2010Prop36
280
     0
102
RTVSPost2010PropOp36
 70
     1
102
RTVSPost2010Prop37
 90
       50
102
RTVSPost2010PropOp37
 70
     1
102
RTVSPost2010Prop38
140
0.0
102
RTVSPost2010PropOp38
 70
     1
102
RTVSPost2010Prop39
140
1.0
102
RTVSPost2010PropOp39
 70
     1
102
RTVSPost2010Prop40
 90
        0
102
RTVSPost2010PropOp40
 70
     1
102
RTVSPost2010Prop41ColorIndex
 90
       18
102
RTVSPost2010Prop41ColorRGB
 90
        0
102
RTVSPost2010PropOp41
 70
     1
102
RTVSPost2010Prop42
 90
       50
102
RTVSPost2010PropOp42
 70
     1
102
RTVSPost2010Prop43
 90
        3
102
RTVSPost2010PropOp43
 70
     1
102
RTVSPost2010Prop44ColorIndex
 90
        5
102
RTVSPost2010Prop44ColorRGB
 90
      255
102
RTVSPost2010PropOp44
 70
     1
102
RTVSPost2010Prop45
280
     0
102
RTVSPost2010PropOp45
 70
     1
102
RTVSPost2010Prop46
 90
       50
102
RTVSPost2010PropOp46
 70
     1
102
RTVSPost2010Prop47
 90
       50
102
RTVSPost2010PropOp47
 70
     1
102
RTVSPost2010Prop48
 90
       50
102
RTVSPost2010PropOp48
 70
     1
102
RTVSPost2010Prop49
280
     0
102
RTVSPost2010PropOp49
 70
     1
102
RTVSPost2010Prop50
 90
       50
102
RTVSPost2010PropOp50
 70
     1
102
RTVSPost2010Prop51ColorIndex
 90
      256
102
RTVSPost2010Prop51ColorRGB
 90
-16777216
102
RTVSPost2010PropOp51
 70
     0
102
RTVSPost2010Prop52
140
1.0
102
RTVSPost2010PropOp52
 70
     0
102
RTVSPost2010Prop53
 90
        2
102
RTVSPost2010PropOp53
 70
     1
102
RTVSPost2010Prop54
  1
strokes_ogs.tif
102
RTVSPost2010PropOp54
 70
     1
102
RTVSPost2010Prop55
280
     0
102
RTVSPost2010PropOp55
 70
     1
102
RTVSPost2010Prop56
140
1.0
102
RTVSPost2010PropOp56
 70
     1
102
RTVSPost2010Prop57
140
1.0
102
RTVSPost2010PropOp57
 70
     1
  0
XRECORD
  5
55A
102
{ACAD_REACTORS
330
559
102
}
330
559
100
AcDbXrecord
280
     1
102
RTVSPropertyOp0
 70
     1
102
RTVSPropertyOp1
 70
     1
102
RTVSPropertyOp2
 70
     1
102
RTVSPropertyOp3
 70
     1
102
RTVSPropertyOp4
 70
     1
102
RTVSPropertyOp5
 70
     1
102
RTVSPropertyOp6
 70
     1
102
RTVSPropertyOp7
 70
     1
102
RTVSPropertyOp8
 70
     1
102
RTVSPropertyOp9
 70
     1
102
RTVSPropertyOp10
 70
     1
102
RTVSPropertyOp11
 70
     1
102
RTVSPropertyOp12
 70
     1
102
RTVSPropertyOp13
 70
     1
102
RTVSPropertyOp14
 70
     1
102
RTVSPropertyOp15
 70
     1
102
RTVSPropertyOp16
 70
     1
102
RTVSPropertyOp17
 70
     1
102
RTVSPropertyOp18
 70
     1
102
RTVSPropertyOp19
 70
     1
102
RTVSPropertyOp20
 70
     1
102
RTVSPropertyOp21
 70
     1
102
RTVSPropertyOp22
 70
     1
102
RTVSPropertyOp23
 70
     1
102
RTVSPropertyOp24
 70
     1
102
RTVSPropertyOp25
 70
     1
102
RTVSPropertyOp26
 70
     1
102
RTVSPropertyOp27
 70
     1
102
RTVSPropertyOp28
 70
     1
102
RTVSPropertyOp29
 70
     1
102
RTVSPropertyOp30
 70
     1
102
RTVSPropertyOp31
 70
     1
102
RTVSPropertyOp32
 70
     1
102
RTVSPropertyOp33
 70
     1
102
RTVSPropertyOp34
 70
     1
102
RTVSPropertyOp35
 70
     1
102
RTVSPropertyOp36
 70
     1
102
RTVSPropertyOp37
 70
     1
102
RTVSPropertyOp38
 70
     1
102
RTVSPropertyOp39
 70
     1
102
RTVSPropertyOp40
 70
     1
102
RTVSPropertyOp41
 70
     1
102
RTVSPropertyOp42
 70
     1
102
RTVSPropertyOp43
 70
     1
102
RTVSPropertyOp44
 70
     1
102
RTVSPropertyOp45
 70
     1
102
RTVSPropertyOp46
 70
     1
102
RTVSPropertyOp47
 70
     1
102
RTVSPropertyOp48
 70
     1
102
RTVSPropertyOp49
 70
     1
102
RTVSPropertyOp50
 70
     1
102
RTVSPropertyOp51
 70
     0
102
RTVSPropertyOp52
 70
     0
102
RTVSPropertyOp53
 70
     1
102
RTVSPropertyOp54
 70
     1
102
RTVSPropertyOp55
 70
     1
102
RTVSPropertyOp56
 70
     1
102
RTVSPropertyOp57
 70
     1
102
RTVSPost2010Prop28
280
     0
102
RTVSPost2010PropOp28
 70
     1
102
RTVSPost2010Prop29
280
     1
102
RTVSPost2010PropOp29
 70
     1
102
RTVSPost2010Prop30
280
     1
102
RTVSPost2010PropOp30
 70
     1
102
RTVSPost2010Prop31
280
     0
102
RTVSPost2010PropOp31
 70
     1
102
RTVSPost2010Prop32
280
     0
102
RTVSPost2010PropOp32
 70
     1
102
RTVSPost2010Prop33
280
     0
102
RTVSPost2010PropOp33
 70
     1
102
RTVSPost2010Prop34
280
     0
102
RTVSPost2010PropOp34
 70
     1
102
RTVSPost2010Prop35
280
     0
102
RTVSPost2010PropOp35
 70
     1
102
RTVSPost2010Prop36
280
     0
102
RTVSPost2010PropOp36
 70
     1
102
RTVSPost2010Prop37
 90
       50
102
RTVSPost2010PropOp37
 70
     1
102
RTVSPost2010Prop38
140
0.0
102
RTVSPost2010PropOp38
 70
     1
102
RTVSPost2010Prop39
140
1.0
102
RTVSPost2010PropOp39
 70
     1
102
RTVSPost2010Prop40
 90
        0
102
RTVSPost2010PropOp40
 70
     1
102
RTVSPost2010Prop41ColorIndex
 90
       18
102
RTVSPost2010Prop41ColorRGB
 90
        0
102
RTVSPost2010PropOp41
 70
     1
102
RTVSPost2010Prop42
 90
       50
102
RTVSPost2010PropOp42
 70
     1
102
RTVSPost2010Prop43
 90
        3
102
RTVSPost2010PropOp43
 70
     1
102
RTVSPost2010Prop44ColorIndex
 90
        5
102
RTVSPost2010Prop44ColorRGB
 90
      255
102
RTVSPost2010PropOp44
 70
     1
102
RTVSPost2010Prop45
280
     0
102
RTVSPost2010PropOp45
 70
     1
102
RTVSPost2010Prop46
 90
       50
102
RTVSPost2010PropOp46
 70
     1
102
RTVSPost2010Prop47
 90
       50
102
RTVSPost2010PropOp47
 70
     1
102
RTVSPost2010Prop48
 90
       50
102
RTVSPost2010PropOp48
 70
     1
102
RTVSPost2010Prop49
280
     0
102
RTVSPost2010PropOp49
 70
     1
102
RTVSPost2010Prop50
 90
       50
102
RTVSPost2010PropOp50
 70
     1
102
RTVSPost2010Prop51ColorIndex
 90
      256
102
RTVSPost2010Prop51ColorRGB
 90
-16777216
102
RTVSPost2010PropOp51
 70
     0
102
RTVSPost2010Prop52
140
1.0
102
RTVSPost2010PropOp52
 70
     0
102
RTVSPost2010Prop53
 90
        2
102
RTVSPost2010PropOp53
 70
     1
102
RTVSPost2010Prop54
  1
strokes_ogs.tif
102
RTVSPost2010PropOp54
 70
     1
102
RTVSPost2010Prop55
280
     0
102
RTVSPost2010PropOp55
 70
     1
102
RTVSPost2010Prop56
140
1.0
102
RTVSPost2010PropOp56
 70
     1
102
RTVSPost2010Prop57
140
1.0
102
RTVSPost2010PropOp57
 70
     1
  0
XRECORD
  5
578
102
{ACAD_REACTORS
330
577
102
}
330
577
100
AcDbXrecord
280
     1
102
RTVSPropertyOp0
 70
     1
102
RTVSPropertyOp1
 70
     1
102
RTVSPropertyOp2
 70
     1
102
RTVSPropertyOp3
 70
     1
102
RTVSPropertyOp4
 70
     1
102
RTVSPropertyOp5
 70
     1
102
RTVSPropertyOp6
 70
     1
102
RTVSPropertyOp7
 70
     1
102
RTVSPropertyOp8
 70
     1
102
RTVSPropertyOp9
 70
     1
102
RTVSPropertyOp10
 70
     1
102
RTVSPropertyOp11
 70
     1
102
RTVSPropertyOp12
 70
     1
102
RTVSPropertyOp13
 70
     1
102
RTVSPropertyOp14
 70
     1
102
RTVSPropertyOp15
 70
     1
102
RTVSPropertyOp16
 70
     1
102
RTVSPropertyOp17
 70
     1
102
RTVSPropertyOp18
 70
     1
102
RTVSPropertyOp19
 70
     1
102
RTVSPropertyOp20
 70
     1
102
RTVSPropertyOp21
 70
     1
102
RTVSPropertyOp22
 70
     1
102
RTVSPropertyOp23
 70
     1
102
RTVSPropertyOp24
 70
     1
102
RTVSPropertyOp25
 70
     1
102
RTVSPropertyOp26
 70
     1
102
RTVSPropertyOp27
 70
     1
102
RTVSPropertyOp28
 70
     1
102
RTVSPropertyOp29
 70
     1
102
RTVSPropertyOp30
 70
     1
102
RTVSPropertyOp31
 70
     1
102
RTVSPropertyOp32
 70
     1
102
RTVSPropertyOp33
 70
     1
102
RTVSPropertyOp34
 70
     1
102
RTVSPropertyOp35
 70
     1
102
RTVSPropertyOp36
 70
     1
102
RTVSPropertyOp37
 70
     1
102
RTVSPropertyOp38
 70
     1
102
RTVSPropertyOp39
 70
     1
102
RTVSPropertyOp40
 70
     1
102
RTVSPropertyOp41
 70
     1
102
RTVSPropertyOp42
 70
     1
102
RTVSPropertyOp43
 70
     1
102
RTVSPropertyOp44
 70
     1
102
RTVSPropertyOp45
 70
     1
102
RTVSPropertyOp46
 70
     1
102
RTVSPropertyOp47
 70
     1
102
RTVSPropertyOp48
 70
     1
102
RTVSPropertyOp49
 70
     1
102
RTVSPropertyOp50
 70
     1
102
RTVSPropertyOp51
 70
     0
102
RTVSPropertyOp52
 70
     0
102
RTVSPropertyOp53
 70
     1
102
RTVSPropertyOp54
 70
     1
102
RTVSPropertyOp55
 70
     1
102
RTVSPropertyOp56
 70
     1
102
RTVSPropertyOp57
 70
     1
102
RTVSPost2010Prop28
280
     0
102
RTVSPost2010PropOp28
 70
     1
102
RTVSPost2010Prop29
280
     1
102
RTVSPost2010PropOp29
 70
     1
102
RTVSPost2010Prop30
280
     1
102
RTVSPost2010PropOp30
 70
     1
102
RTVSPost2010Prop31
280
     0
102
RTVSPost2010PropOp31
 70
     1
102
RTVSPost2010Prop32
280
     0
102
RTVSPost2010PropOp32
 70
     1
102
RTVSPost2010Prop33
280
     0
102
RTVSPost2010PropOp33
 70
     1
102
RTVSPost2010Prop34
280
     0
102
RTVSPost2010PropOp34
 70
     1
102
RTVSPost2010Prop35
280
     0
102
RTVSPost2010PropOp35
 70
     1
102
RTVSPost2010Prop36
280
     0
102
RTVSPost2010PropOp36
 70
     1
102
RTVSPost2010Prop37
 90
       50
102
RTVSPost2010PropOp37
 70
     1
102
RTVSPost2010Prop38
140
0.0
102
RTVSPost2010PropOp38
 70
     1
102
RTVSPost2010Prop39
140
1.0
102
RTVSPost2010PropOp39
 70
     1
102
RTVSPost2010Prop40
 90
        0
102
RTVSPost2010PropOp40
 70
     1
102
RTVSPost2010Prop41ColorIndex
 90
       18
102
RTVSPost2010Prop41ColorRGB
 90
        0
102
RTVSPost2010PropOp41
 70
     1
102
RTVSPost2010Prop42
 90
       50
102
RTVSPost2010PropOp42
 70
     1
102
RTVSPost2010Prop43
 90
        3
102
RTVSPost2010PropOp43
 70
     1
102
RTVSPost2010Prop44ColorIndex
 90
        5
102
RTVSPost2010Prop44ColorRGB
 90
      255
102
RTVSPost2010PropOp44
 70
     1
102
RTVSPost2010Prop45
280
     0
102
RTVSPost2010PropOp45
 70
     1
102
RTVSPost2010Prop46
 90
       50
102
RTVSPost2010PropOp46
 70
     1
102
RTVSPost2010Prop47
 90
       50
102
RTVSPost2010PropOp47
 70
     1
102
RTVSPost2010Prop48
 90
       50
102
RTVSPost2010PropOp48
 70
     1
102
RTVSPost2010Prop49
280
     0
102
RTVSPost2010PropOp49
 70
     1
102
RTVSPost2010Prop50
 90
       50
102
RTVSPost2010PropOp50
 70
     1
102
RTVSPost2010Prop51ColorIndex
 90
      256
102
RTVSPost2010Prop51ColorRGB
 90
-16777216
102
RTVSPost2010PropOp51
 70
     0
102
RTVSPost2010Prop52
140
1.0
102
RTVSPost2010PropOp52
 70
     0
102
RTVSPost2010Prop53
 90
        2
102
RTVSPost2010PropOp53
 70
     1
102
RTVSPost2010Prop54
  1
strokes_ogs.tif
102
RTVSPost2010PropOp54
 70
     1
102
RTVSPost2010Prop55
280
     0
102
RTVSPost2010PropOp55
 70
     1
102
RTVSPost2010Prop56
140
1.0
102
RTVSPost2010PropOp56
 70
     1
102
RTVSPost2010Prop57
140
1.0
102
RTVSPost2010PropOp57
 70
     1
  0
XRECORD
  5
576
102
{ACAD_REACTORS
330
575
102
}
330
575
100
AcDbXrecord
280
     1
102
RTVSPropertyOp0
 70
     1
102
RTVSPropertyOp1
 70
     1
102
RTVSPropertyOp2
 70
     1
102
RTVSPropertyOp3
 70
     1
102
RTVSPropertyOp4
 70
     1
102
RTVSPropertyOp5
 70
     1
102
RTVSPropertyOp6
 70
     1
102
RTVSPropertyOp7
 70
     1
102
RTVSPropertyOp8
 70
     1
102
RTVSPropertyOp9
 70
     1
102
RTVSPropertyOp10
 70
     1
102
RTVSPropertyOp11
 70
     1
102
RTVSPropertyOp12
 70
     1
102
RTVSPropertyOp13
 70
     1
102
RTVSPropertyOp14
 70
     1
102
RTVSPropertyOp15
 70
     1
102
RTVSPropertyOp16
 70
     1
102
RTVSPropertyOp17
 70
     1
102
RTVSPropertyOp18
 70
     1
102
RTVSPropertyOp19
 70
     1
102
RTVSPropertyOp20
 70
     1
102
RTVSPropertyOp21
 70
     1
102
RTVSPropertyOp22
 70
     1
102
RTVSPropertyOp23
 70
     1
102
RTVSPropertyOp24
 70
     1
102
RTVSPropertyOp25
 70
     1
102
RTVSPropertyOp26
 70
     1
102
RTVSPropertyOp27
 70
     1
102
RTVSPropertyOp28
 70
     1
102
RTVSPropertyOp29
 70
     1
102
RTVSPropertyOp30
 70
     1
102
RTVSPropertyOp31
 70
     1
102
RTVSPropertyOp32
 70
     1
102
RTVSPropertyOp33
 70
     1
102
RTVSPropertyOp34
 70
     1
102
RTVSPropertyOp35
 70
     1
102
RTVSPropertyOp36
 70
     1
102
RTVSPropertyOp37
 70
     1
102
RTVSPropertyOp38
 70
     1
102
RTVSPropertyOp39
 70
     1
102
RTVSPropertyOp40
 70
     1
102
RTVSPropertyOp41
 70
     1
102
RTVSPropertyOp42
 70
     1
102
RTVSPropertyOp43
 70
     1
102
RTVSPropertyOp44
 70
     1
102
RTVSPropertyOp45
 70
     1
102
RTVSPropertyOp46
 70
     1
102
RTVSPropertyOp47
 70
     1
102
RTVSPropertyOp48
 70
     1
102
RTVSPropertyOp49
 70
     1
102
RTVSPropertyOp50
 70
     1
102
RTVSPropertyOp51
 70
     0
102
RTVSPropertyOp52
 70
     0
102
RTVSPropertyOp53
 70
     1
102
RTVSPropertyOp54
 70
     1
102
RTVSPropertyOp55
 70
     1
102
RTVSPropertyOp56
 70
     1
102
RTVSPropertyOp57
 70
     1
102
RTVSPost2010Prop28
280
     0
102
RTVSPost2010PropOp28
 70
     1
102
RTVSPost2010Prop29
280
     1
102
RTVSPost2010PropOp29
 70
     1
102
RTVSPost2010Prop30
280
     1
102
RTVSPost2010PropOp30
 70
     1
102
RTVSPost2010Prop31
280
     0
102
RTVSPost2010PropOp31
 70
     1
102
RTVSPost2010Prop32
280
     0
102
RTVSPost2010PropOp32
 70
     1
102
RTVSPost2010Prop33
280
     0
102
RTVSPost2010PropOp33
 70
     1
102
RTVSPost2010Prop34
280
     0
102
RTVSPost2010PropOp34
 70
     1
102
RTVSPost2010Prop35
280
     0
102
RTVSPost2010PropOp35
 70
     1
102
RTVSPost2010Prop36
280
     0
102
RTVSPost2010PropOp36
 70
     1
102
RTVSPost2010Prop37
 90
       50
102
RTVSPost2010PropOp37
 70
     1
102
RTVSPost2010Prop38
140
0.0
102
RTVSPost2010PropOp38
 70
     1
102
RTVSPost2010Prop39
140
1.0
102
RTVSPost2010PropOp39
 70
     1
102
RTVSPost2010Prop40
 90
        0
102
RTVSPost2010PropOp40
 70
     1
102
RTVSPost2010Prop41ColorIndex
 90
       18
102
RTVSPost2010Prop41ColorRGB
 90
        0
102
RTVSPost2010PropOp41
 70
     1
102
RTVSPost2010Prop42
 90
       50
102
RTVSPost2010PropOp42
 70
     1
102
RTVSPost2010Prop43
 90
        3
102
RTVSPost2010PropOp43
 70
     1
102
RTVSPost2010Prop44ColorIndex
 90
        5
102
RTVSPost2010Prop44ColorRGB
 90
      255
102
RTVSPost2010PropOp44
 70
     1
102
RTVSPost2010Prop45
280
     0
102
RTVSPost2010PropOp45
 70
     1
102
RTVSPost2010Prop46
 90
       50
102
RTVSPost2010PropOp46
 70
     1
102
RTVSPost2010Prop47
 90
       50
102
RTVSPost2010PropOp47
 70
     1
102
RTVSPost2010Prop48
 90
       50
102
RTVSPost2010PropOp48
 70
     1
102
RTVSPost2010Prop49
280
     0
102
RTVSPost2010PropOp49
 70
     1
102
RTVSPost2010Prop50
 90
       50
102
RTVSPost2010PropOp50
 70
     1
102
RTVSPost2010Prop51ColorIndex
 90
      256
102
RTVSPost2010Prop51ColorRGB
 90
-16777216
102
RTVSPost2010PropOp51
 70
     0
102
RTVSPost2010Prop52
140
1.0
102
RTVSPost2010PropOp52
 70
     0
102
RTVSPost2010Prop53
 90
        2
102
RTVSPost2010PropOp53
 70
     1
102
RTVSPost2010Prop54
  1
strokes_ogs.tif
102
RTVSPost2010PropOp54
 70
     1
102
RTVSPost2010Prop55
280
     0
102
RTVSPost2010PropOp55
 70
     1
102
RTVSPost2010Prop56
140
1.0
102
RTVSPost2010PropOp56
 70
     1
102
RTVSPost2010Prop57
140
1.0
102
RTVSPost2010PropOp57
 70
     1
  0
XRECORD
  5
570
102
{ACAD_REACTORS
330
56F
102
}
330
56F
100
AcDbXrecord
280
     1
102
RTVSPropertyOp0
 70
     1
102
RTVSPropertyOp1
 70
     1
102
RTVSPropertyOp2
 70
     1
102
RTVSPropertyOp3
 70
     1
102
RTVSPropertyOp4
 70
     1
102
RTVSPropertyOp5
 70
     1
102
RTVSPropertyOp6
 70
     1
102
RTVSPropertyOp7
 70
     1
102
RTVSPropertyOp8
 70
     1
102
RTVSPropertyOp9
 70
     1
102
RTVSPropertyOp10
 70
     1
102
RTVSPropertyOp11
 70
     1
102
RTVSPropertyOp12
 70
     1
102
RTVSPropertyOp13
 70
     1
102
RTVSPropertyOp14
 70
     1
102
RTVSPropertyOp15
 70
     1
102
RTVSPropertyOp16
 70
     1
102
RTVSPropertyOp17
 70
     1
102
RTVSPropertyOp18
 70
     1
102
RTVSPropertyOp19
 70
     1
102
RTVSPropertyOp20
 70
     1
102
RTVSPropertyOp21
 70
     1
102
RTVSPropertyOp22
 70
     1
102
RTVSPropertyOp23
 70
     1
102
RTVSPropertyOp24
 70
     1
102
RTVSPropertyOp25
 70
     1
102
RTVSPropertyOp26
 70
     1
102
RTVSPropertyOp27
 70
     1
102
RTVSPropertyOp28
 70
     1
102
RTVSPropertyOp29
 70
     1
102
RTVSPropertyOp30
 70
     1
102
RTVSPropertyOp31
 70
     1
102
RTVSPropertyOp32
 70
     1
102
RTVSPropertyOp33
 70
     1
102
RTVSPropertyOp34
 70
     1
102
RTVSPropertyOp35
 70
     1
102
RTVSPropertyOp36
 70
     1
102
RTVSPropertyOp37
 70
     1
102
RTVSPropertyOp38
 70
     1
102
RTVSPropertyOp39
 70
     1
102
RTVSPropertyOp40
 70
     1
102
RTVSPropertyOp41
 70
     1
102
RTVSPropertyOp42
 70
     1
102
RTVSPropertyOp43
 70
     1
102
RTVSPropertyOp44
 70
     1
102
RTVSPropertyOp45
 70
     1
102
RTVSPropertyOp46
 70
     1
102
RTVSPropertyOp47
 70
     1
102
RTVSPropertyOp48
 70
     1
102
RTVSPropertyOp49
 70
     1
102
RTVSPropertyOp50
 70
     1
102
RTVSPropertyOp51
 70
     0
102
RTVSPropertyOp52
 70
     0
102
RTVSPropertyOp53
 70
     1
102
RTVSPropertyOp54
 70
     1
102
RTVSPropertyOp55
 70
     1
102
RTVSPropertyOp56
 70
     1
102
RTVSPropertyOp57
 70
     1
102
RTVSPost2010Prop28
280
     0
102
RTVSPost2010PropOp28
 70
     1
102
RTVSPost2010Prop29
280
     1
102
RTVSPost2010PropOp29
 70
     1
102
RTVSPost2010Prop30
280
     1
102
RTVSPost2010PropOp30
 70
     1
102
RTVSPost2010Prop31
280
     0
102
RTVSPost2010PropOp31
 70
     1
102
RTVSPost2010Prop32
280
     0
102
RTVSPost2010PropOp32
 70
     1
102
RTVSPost2010Prop33
280
     0
102
RTVSPost2010PropOp33
 70
     1
102
RTVSPost2010Prop34
280
     0
102
RTVSPost2010PropOp34
 70
     1
102
RTVSPost2010Prop35
280
     0
102
RTVSPost2010PropOp35
 70
     1
102
RTVSPost2010Prop36
280
     0
102
RTVSPost2010PropOp36
 70
     1
102
RTVSPost2010Prop37
 90
       50
102
RTVSPost2010PropOp37
 70
     1
102
RTVSPost2010Prop38
140
0.0
102
RTVSPost2010PropOp38
 70
     1
102
RTVSPost2010Prop39
140
1.0
102
RTVSPost2010PropOp39
 70
     1
102
RTVSPost2010Prop40
 90
        0
102
RTVSPost2010PropOp40
 70
     1
102
RTVSPost2010Prop41ColorIndex
 90
       18
102
RTVSPost2010Prop41ColorRGB
 90
        0
102
RTVSPost2010PropOp41
 70
     1
102
RTVSPost2010Prop42
 90
       50
102
RTVSPost2010PropOp42
 70
     1
102
RTVSPost2010Prop43
 90
        3
102
RTVSPost2010PropOp43
 70
     1
102
RTVSPost2010Prop44ColorIndex
 90
        5
102
RTVSPost2010Prop44ColorRGB
 90
      255
102
RTVSPost2010PropOp44
 70
     1
102
RTVSPost2010Prop45
280
     0
102
RTVSPost2010PropOp45
 70
     1
102
RTVSPost2010Prop46
 90
       50
102
RTVSPost2010PropOp46
 70
     1
102
RTVSPost2010Prop47
 90
       50
102
RTVSPost2010PropOp47
 70
     1
102
RTVSPost2010Prop48
 90
       50
102
RTVSPost2010PropOp48
 70
     1
102
RTVSPost2010Prop49
280
     0
102
RTVSPost2010PropOp49
 70
     1
102
RTVSPost2010Prop50
 90
       50
102
RTVSPost2010PropOp50
 70
     1
102
RTVSPost2010Prop51ColorIndex
 90
      256
102
RTVSPost2010Prop51ColorRGB
 90
-16777216
102
RTVSPost2010PropOp51
 70
     0
102
RTVSPost2010Prop52
140
1.0
102
RTVSPost2010PropOp52
 70
     0
102
RTVSPost2010Prop53
 90
        2
102
RTVSPost2010PropOp53
 70
     1
102
RTVSPost2010Prop54
  1
strokes_ogs.tif
102
RTVSPost2010PropOp54
 70
     1
102
RTVSPost2010Prop55
280
     0
102
RTVSPost2010PropOp55
 70
     1
102
RTVSPost2010Prop56
140
1.0
102
RTVSPost2010PropOp56
 70
     1
102
RTVSPost2010Prop57
140
1.0
102
RTVSPost2010PropOp57
 70
     1
  0
XRECORD
  5
572
102
{ACAD_REACTORS
330
571
102
}
330
571
100
AcDbXrecord
280
     1
102
RTVSPropertyOp0
 70
     1
102
RTVSPropertyOp1
 70
     1
102
RTVSPropertyOp2
 70
     1
102
RTVSPropertyOp3
 70
     1
102
RTVSPropertyOp4
 70
     1
102
RTVSPropertyOp5
 70
     1
102
RTVSPropertyOp6
 70
     1
102
RTVSPropertyOp7
 70
     1
102
RTVSPropertyOp8
 70
     1
102
RTVSPropertyOp9
 70
     1
102
RTVSPropertyOp10
 70
     1
102
RTVSPropertyOp11
 70
     1
102
RTVSPropertyOp12
 70
     1
102
RTVSPropertyOp13
 70
     1
102
RTVSPropertyOp14
 70
     1
102
RTVSPropertyOp15
 70
     1
102
RTVSPropertyOp16
 70
     1
102
RTVSPropertyOp17
 70
     1
102
RTVSPropertyOp18
 70
     1
102
RTVSPropertyOp19
 70
     1
102
RTVSPropertyOp20
 70
     1
102
RTVSPropertyOp21
 70
     1
102
RTVSPropertyOp22
 70
     1
102
RTVSPropertyOp23
 70
     1
102
RTVSPropertyOp24
 70
     1
102
RTVSPropertyOp25
 70
     1
102
RTVSPropertyOp26
 70
     1
102
RTVSPropertyOp27
 70
     1
102
RTVSPropertyOp28
 70
     1
102
RTVSPropertyOp29
 70
     1
102
RTVSPropertyOp30
 70
     1
102
RTVSPropertyOp31
 70
     1
102
RTVSPropertyOp32
 70
     1
102
RTVSPropertyOp33
 70
     1
102
RTVSPropertyOp34
 70
     1
102
RTVSPropertyOp35
 70
     1
102
RTVSPropertyOp36
 70
     1
102
RTVSPropertyOp37
 70
     1
102
RTVSPropertyOp38
 70
     1
102
RTVSPropertyOp39
 70
     1
102
RTVSPropertyOp40
 70
     1
102
RTVSPropertyOp41
 70
     1
102
RTVSPropertyOp42
 70
     1
102
RTVSPropertyOp43
 70
     1
102
RTVSPropertyOp44
 70
     1
102
RTVSPropertyOp45
 70
     1
102
RTVSPropertyOp46
 70
     1
102
RTVSPropertyOp47
 70
     1
102
RTVSPropertyOp48
 70
     1
102
RTVSPropertyOp49
 70
     1
102
RTVSPropertyOp50
 70
     1
102
RTVSPropertyOp51
 70
     0
102
RTVSPropertyOp52
 70
     0
102
RTVSPropertyOp53
 70
     1
102
RTVSPropertyOp54
 70
     1
102
RTVSPropertyOp55
 70
     1
102
RTVSPropertyOp56
 70
     1
102
RTVSPropertyOp57
 70
     1
102
RTVSPost2010Prop28
280
     0
102
RTVSPost2010PropOp28
 70
     1
102
RTVSPost2010Prop29
280
     1
102
RTVSPost2010PropOp29
 70
     1
102
RTVSPost2010Prop30
280
     1
102
RTVSPost2010PropOp30
 70
     1
102
RTVSPost2010Prop31
280
     0
102
RTVSPost2010PropOp31
 70
     1
102
RTVSPost2010Prop32
280
     0
102
RTVSPost2010PropOp32
 70
     1
102
RTVSPost2010Prop33
280
     0
102
RTVSPost2010PropOp33
 70
     1
102
RTVSPost2010Prop34
280
     0
102
RTVSPost2010PropOp34
 70
     1
102
RTVSPost2010Prop35
280
     0
102
RTVSPost2010PropOp35
 70
     1
102
RTVSPost2010Prop36
280
     0
102
RTVSPost2010PropOp36
 70
     1
102
RTVSPost2010Prop37
 90
       50
102
RTVSPost2010PropOp37
 70
     1
102
RTVSPost2010Prop38
140
0.0
102
RTVSPost2010PropOp38
 70
     1
102
RTVSPost2010Prop39
140
1.0
102
RTVSPost2010PropOp39
 70
     1
102
RTVSPost2010Prop40
 90
        0
102
RTVSPost2010PropOp40
 70
     1
102
RTVSPost2010Prop41ColorIndex
 90
       18
102
RTVSPost2010Prop41ColorRGB
 90
        0
102
RTVSPost2010PropOp41
 70
     1
102
RTVSPost2010Prop42
 90
       50
102
RTVSPost2010PropOp42
 70
     1
102
RTVSPost2010Prop43
 90
        3
102
RTVSPost2010PropOp43
 70
     1
102
RTVSPost2010Prop44ColorIndex
 90
        5
102
RTVSPost2010Prop44ColorRGB
 90
      255
102
RTVSPost2010PropOp44
 70
     1
102
RTVSPost2010Prop45
280
     0
102
RTVSPost2010PropOp45
 70
     1
102
RTVSPost2010Prop46
 90
       50
102
RTVSPost2010PropOp46
 70
     1
102
RTVSPost2010Prop47
 90
       50
102
RTVSPost2010PropOp47
 70
     1
102
RTVSPost2010Prop48
 90
       50
102
RTVSPost2010PropOp48
 70
     1
102
RTVSPost2010Prop49
280
     0
102
RTVSPost2010PropOp49
 70
     1
102
RTVSPost2010Prop50
 90
       50
102
RTVSPost2010PropOp50
 70
     1
102
RTVSPost2010Prop51ColorIndex
 90
      256
102
RTVSPost2010Prop51ColorRGB
 90
-16777216
102
RTVSPost2010PropOp51
 70
     0
102
RTVSPost2010Prop52
140
1.0
102
RTVSPost2010PropOp52
 70
     0
102
RTVSPost2010Prop53
 90
        2
102
RTVSPost2010PropOp53
 70
     1
102
RTVSPost2010Prop54
  1
strokes_ogs.tif
102
RTVSPost2010PropOp54
 70
     1
102
RTVSPost2010Prop55
280
     0
102
RTVSPost2010PropOp55
 70
     1
102
RTVSPost2010Prop56
140
1.0
102
RTVSPost2010PropOp56
 70
     1
102
RTVSPost2010Prop57
140
1.0
102
RTVSPost2010PropOp57
 70
     1
  0
XRECORD
  5
562
102
{ACAD_REACTORS
330
561
102
}
330
561
100
AcDbXrecord
280
     1
102
RTVSPropertyOp0
 70
     1
102
RTVSPropertyOp1
 70
     1
102
RTVSPropertyOp2
 70
     1
102
RTVSPropertyOp3
 70
     1
102
RTVSPropertyOp4
 70
     1
102
RTVSPropertyOp5
 70
     1
102
RTVSPropertyOp6
 70
     1
102
RTVSPropertyOp7
 70
     1
102
RTVSPropertyOp8
 70
     1
102
RTVSPropertyOp9
 70
     1
102
RTVSPropertyOp10
 70
     1
102
RTVSPropertyOp11
 70
     1
102
RTVSPropertyOp12
 70
     1
102
RTVSPropertyOp13
 70
     1
102
RTVSPropertyOp14
 70
     1
102
RTVSPropertyOp15
 70
     1
102
RTVSPropertyOp16
 70
     1
102
RTVSPropertyOp17
 70
     1
102
RTVSPropertyOp18
 70
     1
102
RTVSPropertyOp19
 70
     1
102
RTVSPropertyOp20
 70
     1
102
RTVSPropertyOp21
 70
     1
102
RTVSPropertyOp22
 70
     1
102
RTVSPropertyOp23
 70
     1
102
RTVSPropertyOp24
 70
     1
102
RTVSPropertyOp25
 70
     1
102
RTVSPropertyOp26
 70
     1
102
RTVSPropertyOp27
 70
     1
102
RTVSPropertyOp28
 70
     1
102
RTVSPropertyOp29
 70
     1
102
RTVSPropertyOp30
 70
     1
102
RTVSPropertyOp31
 70
     1
102
RTVSPropertyOp32
 70
     1
102
RTVSPropertyOp33
 70
     1
102
RTVSPropertyOp34
 70
     1
102
RTVSPropertyOp35
 70
     1
102
RTVSPropertyOp36
 70
     1
102
RTVSPropertyOp37
 70
     1
102
RTVSPropertyOp38
 70
     1
102
RTVSPropertyOp39
 70
     1
102
RTVSPropertyOp40
 70
     1
102
RTVSPropertyOp41
 70
     1
102
RTVSPropertyOp42
 70
     1
102
RTVSPropertyOp43
 70
     1
102
RTVSPropertyOp44
 70
     1
102
RTVSPropertyOp45
 70
     1
102
RTVSPropertyOp46
 70
     1
102
RTVSPropertyOp47
 70
     1
102
RTVSPropertyOp48
 70
     1
102
RTVSPropertyOp49
 70
     1
102
RTVSPropertyOp50
 70
     1
102
RTVSPropertyOp51
 70
     0
102
RTVSPropertyOp52
 70
     0
102
RTVSPropertyOp53
 70
     1
102
RTVSPropertyOp54
 70
     1
102
RTVSPropertyOp55
 70
     1
102
RTVSPropertyOp56
 70
     1
102
RTVSPropertyOp57
 70
     1
102
RTVSPost2010Prop28
280
     0
102
RTVSPost2010PropOp28
 70
     1
102
RTVSPost2010Prop29
280
     1
102
RTVSPost2010PropOp29
 70
     1
102
RTVSPost2010Prop30
280
     1
102
RTVSPost2010PropOp30
 70
     1
102
RTVSPost2010Prop31
280
     0
102
RTVSPost2010PropOp31
 70
     1
102
RTVSPost2010Prop32
280
     0
102
RTVSPost2010PropOp32
 70
     1
102
RTVSPost2010Prop33
280
     0
102
RTVSPost2010PropOp33
 70
     1
102
RTVSPost2010Prop34
280
     0
102
RTVSPost2010PropOp34
 70
     1
102
RTVSPost2010Prop35
280
     0
102
RTVSPost2010PropOp35
 70
     1
102
RTVSPost2010Prop36
280
     0
102
RTVSPost2010PropOp36
 70
     1
102
RTVSPost2010Prop37
 90
       50
102
RTVSPost2010PropOp37
 70
     1
102
RTVSPost2010Prop38
140
0.0
102
RTVSPost2010PropOp38
 70
     1
102
RTVSPost2010Prop39
140
1.0
102
RTVSPost2010PropOp39
 70
     1
102
RTVSPost2010Prop40
 90
        0
102
RTVSPost2010PropOp40
 70
     1
102
RTVSPost2010Prop41ColorIndex
 90
       18
102
RTVSPost2010Prop41ColorRGB
 90
        0
102
RTVSPost2010PropOp41
 70
     1
102
RTVSPost2010Prop42
 90
       50
102
RTVSPost2010PropOp42
 70
     1
102
RTVSPost2010Prop43
 90
        3
102
RTVSPost2010PropOp43
 70
     1
102
RTVSPost2010Prop44ColorIndex
 90
        5
102
RTVSPost2010Prop44ColorRGB
 90
      255
102
RTVSPost2010PropOp44
 70
     1
102
RTVSPost2010Prop45
280
     0
102
RTVSPost2010PropOp45
 70
     1
102
RTVSPost2010Prop46
 90
       50
102
RTVSPost2010PropOp46
 70
     1
102
RTVSPost2010Prop47
 90
       50
102
RTVSPost2010PropOp47
 70
     1
102
RTVSPost2010Prop48
 90
       50
102
RTVSPost2010PropOp48
 70
     1
102
RTVSPost2010Prop49
280
     0
102
RTVSPost2010PropOp49
 70
     1
102
RTVSPost2010Prop50
 90
       50
102
RTVSPost2010PropOp50
 70
     1
102
RTVSPost2010Prop51ColorIndex
 90
      256
102
RTVSPost2010Prop51ColorRGB
 90
-16777216
102
RTVSPost2010PropOp51
 70
     0
102
RTVSPost2010Prop52
140
1.0
102
RTVSPost2010PropOp52
 70
     0
102
RTVSPost2010Prop53
 90
        2
102
RTVSPost2010PropOp53
 70
     1
102
RTVSPost2010Prop54
  1
strokes_ogs.tif
102
RTVSPost2010PropOp54
 70
     1
102
RTVSPost2010Prop55
280
     0
102
RTVSPost2010PropOp55
 70
     1
102
RTVSPost2010Prop56
140
1.0
102
RTVSPost2010PropOp56
 70
     1
102
RTVSPost2010Prop57
140
1.0
102
RTVSPost2010PropOp57
 70
     1
  0
XRECORD
  5
554
102
{ACAD_REACTORS
330
553
102
}
330
553
100
AcDbXrecord
280
     1
102
RTVSPropertyOp0
 70
     1
102
RTVSPropertyOp1
 70
     1
102
RTVSPropertyOp2
 70
     1
102
RTVSPropertyOp3
 70
     1
102
RTVSPropertyOp4
 70
     1
102
RTVSPropertyOp5
 70
     1
102
RTVSPropertyOp6
 70
     1
102
RTVSPropertyOp7
 70
     1
102
RTVSPropertyOp8
 70
     1
102
RTVSPropertyOp9
 70
     1
102
RTVSPropertyOp10
 70
     1
102
RTVSPropertyOp11
 70
     1
102
RTVSPropertyOp12
 70
     1
102
RTVSPropertyOp13
 70
     1
102
RTVSPropertyOp14
 70
     1
102
RTVSPropertyOp15
 70
     1
102
RTVSPropertyOp16
 70
     1
102
RTVSPropertyOp17
 70
     1
102
RTVSPropertyOp18
 70
     1
102
RTVSPropertyOp19
 70
     1
102
RTVSPropertyOp20
 70
     1
102
RTVSPropertyOp21
 70
     1
102
RTVSPropertyOp22
 70
     1
102
RTVSPropertyOp23
 70
     1
102
RTVSPropertyOp24
 70
     1
102
RTVSPropertyOp25
 70
     1
102
RTVSPropertyOp26
 70
     1
102
RTVSPropertyOp27
 70
     1
102
RTVSPropertyOp28
 70
     1
102
RTVSPropertyOp29
 70
     1
102
RTVSPropertyOp30
 70
     1
102
RTVSPropertyOp31
 70
     1
102
RTVSPropertyOp32
 70
     1
102
RTVSPropertyOp33
 70
     1
102
RTVSPropertyOp34
 70
     1
102
RTVSPropertyOp35
 70
     1
102
RTVSPropertyOp36
 70
     1
102
RTVSPropertyOp37
 70
     1
102
RTVSPropertyOp38
 70
     1
102
RTVSPropertyOp39
 70
     1
102
RTVSPropertyOp40
 70
     1
102
RTVSPropertyOp41
 70
     1
102
RTVSPropertyOp42
 70
     1
102
RTVSPropertyOp43
 70
     1
102
RTVSPropertyOp44
 70
     1
102
RTVSPropertyOp45
 70
     1
102
RTVSPropertyOp46
 70
     1
102
RTVSPropertyOp47
 70
     1
102
RTVSPropertyOp48
 70
     1
102
RTVSPropertyOp49
 70
     1
102
RTVSPropertyOp50
 70
     1
102
RTVSPropertyOp51
 70
     0
102
RTVSPropertyOp52
 70
     0
102
RTVSPropertyOp53
 70
     1
102
RTVSPropertyOp54
 70
     1
102
RTVSPropertyOp55
 70
     1
102
RTVSPropertyOp56
 70
     1
102
RTVSPropertyOp57
 70
     1
102
RTVSPost2010Prop28
280
     0
102
RTVSPost2010PropOp28
 70
     1
102
RTVSPost2010Prop29
280
     1
102
RTVSPost2010PropOp29
 70
     1
102
RTVSPost2010Prop30
280
     1
102
RTVSPost2010PropOp30
 70
     1
102
RTVSPost2010Prop31
280
     0
102
RTVSPost2010PropOp31
 70
     1
102
RTVSPost2010Prop32
280
     0
102
RTVSPost2010PropOp32
 70
     1
102
RTVSPost2010Prop33
280
     0
102
RTVSPost2010PropOp33
 70
     1
102
RTVSPost2010Prop34
280
     0
102
RTVSPost2010PropOp34
 70
     1
102
RTVSPost2010Prop35
280
     0
102
RTVSPost2010PropOp35
 70
     1
102
RTVSPost2010Prop36
280
     0
102
RTVSPost2010PropOp36
 70
     1
102
RTVSPost2010Prop37
 90
       50
102
RTVSPost2010PropOp37
 70
     1
102
RTVSPost2010Prop38
140
0.0
102
RTVSPost2010PropOp38
 70
     1
102
RTVSPost2010Prop39
140
1.0
102
RTVSPost2010PropOp39
 70
     1
102
RTVSPost2010Prop40
 90
        0
102
RTVSPost2010PropOp40
 70
     1
102
RTVSPost2010Prop41ColorIndex
 90
       18
102
RTVSPost2010Prop41ColorRGB
 90
        0
102
RTVSPost2010PropOp41
 70
     1
102
RTVSPost2010Prop42
 90
       50
102
RTVSPost2010PropOp42
 70
     1
102
RTVSPost2010Prop43
 90
        3
102
RTVSPost2010PropOp43
 70
     1
102
RTVSPost2010Prop44ColorIndex
 90
        5
102
RTVSPost2010Prop44ColorRGB
 90
      255
102
RTVSPost2010PropOp44
 70
     1
102
RTVSPost2010Prop45
280
     0
102
RTVSPost2010PropOp45
 70
     1
102
RTVSPost2010Prop46
 90
       50
102
RTVSPost2010PropOp46
 70
     1
102
RTVSPost2010Prop47
 90
       50
102
RTVSPost2010PropOp47
 70
     1
102
RTVSPost2010Prop48
 90
       50
102
RTVSPost2010PropOp48
 70
     1
102
RTVSPost2010Prop49
280
     0
102
RTVSPost2010PropOp49
 70
     1
102
RTVSPost2010Prop50
 90
       50
102
RTVSPost2010PropOp50
 70
     1
102
RTVSPost2010Prop51ColorIndex
 90
      256
102
RTVSPost2010Prop51ColorRGB
 90
-16777216
102
RTVSPost2010PropOp51
 70
     0
102
RTVSPost2010Prop52
140
1.0
102
RTVSPost2010PropOp52
 70
     0
102
RTVSPost2010Prop53
 90
        2
102
RTVSPost2010PropOp53
 70
     1
102
RTVSPost2010Prop54
  1
strokes_ogs.tif
102
RTVSPost2010PropOp54
 70
     1
102
RTVSPost2010Prop55
280
     0
102
RTVSPost2010PropOp55
 70
     1
102
RTVSPost2010Prop56
140
1.0
102
RTVSPost2010PropOp56
 70
     1
102
RTVSPost2010Prop57
140
1.0
102
RTVSPost2010PropOp57
 70
     1
  0
XRECORD
  5
574
102
{ACAD_REACTORS
330
573
102
}
330
573
100
AcDbXrecord
280
     1
102
RTVSPropertyOp0
 70
     1
102
RTVSPropertyOp1
 70
     1
102
RTVSPropertyOp2
 70
     1
102
RTVSPropertyOp3
 70
     1
102
RTVSPropertyOp4
 70
     1
102
RTVSPropertyOp5
 70
     1
102
RTVSPropertyOp6
 70
     1
102
RTVSPropertyOp7
 70
     1
102
RTVSPropertyOp8
 70
     1
102
RTVSPropertyOp9
 70
     1
102
RTVSPropertyOp10
 70
     1
102
RTVSPropertyOp11
 70
     1
102
RTVSPropertyOp12
 70
     1
102
RTVSPropertyOp13
 70
     1
102
RTVSPropertyOp14
 70
     1
102
RTVSPropertyOp15
 70
     1
102
RTVSPropertyOp16
 70
     1
102
RTVSPropertyOp17
 70
     1
102
RTVSPropertyOp18
 70
     1
102
RTVSPropertyOp19
 70
     1
102
RTVSPropertyOp20
 70
     1
102
RTVSPropertyOp21
 70
     1
102
RTVSPropertyOp22
 70
     1
102
RTVSPropertyOp23
 70
     1
102
RTVSPropertyOp24
 70
     1
102
RTVSPropertyOp25
 70
     1
102
RTVSPropertyOp26
 70
     1
102
RTVSPropertyOp27
 70
     1
102
RTVSPropertyOp28
 70
     1
102
RTVSPropertyOp29
 70
     1
102
RTVSPropertyOp30
 70
     1
102
RTVSPropertyOp31
 70
     1
102
RTVSPropertyOp32
 70
     1
102
RTVSPropertyOp33
 70
     1
102
RTVSPropertyOp34
 70
     1
102
RTVSPropertyOp35
 70
     1
102
RTVSPropertyOp36
 70
     1
102
RTVSPropertyOp37
 70
     1
102
RTVSPropertyOp38
 70
     1
102
RTVSPropertyOp39
 70
     1
102
RTVSPropertyOp40
 70
     1
102
RTVSPropertyOp41
 70
     1
102
RTVSPropertyOp42
 70
     1
102
RTVSPropertyOp43
 70
     1
102
RTVSPropertyOp44
 70
     1
102
RTVSPropertyOp45
 70
     1
102
RTVSPropertyOp46
 70
     1
102
RTVSPropertyOp47
 70
     1
102
RTVSPropertyOp48
 70
     1
102
RTVSPropertyOp49
 70
     1
102
RTVSPropertyOp50
 70
     1
102
RTVSPropertyOp51
 70
     0
102
RTVSPropertyOp52
 70
     0
102
RTVSPropertyOp53
 70
     1
102
RTVSPropertyOp54
 70
     1
102
RTVSPropertyOp55
 70
     1
102
RTVSPropertyOp56
 70
     1
102
RTVSPropertyOp57
 70
     1
102
RTVSPost2010Prop28
280
     0
102
RTVSPost2010PropOp28
 70
     1
102
RTVSPost2010Prop29
280
     1
102
RTVSPost2010PropOp29
 70
     1
102
RTVSPost2010Prop30
280
     1
102
RTVSPost2010PropOp30
 70
     1
102
RTVSPost2010Prop31
280
     0
102
RTVSPost2010PropOp31
 70
     1
102
RTVSPost2010Prop32
280
     0
102
RTVSPost2010PropOp32
 70
     1
102
RTVSPost2010Prop33
280
     0
102
RTVSPost2010PropOp33
 70
     1
102
RTVSPost2010Prop34
280
     0
102
RTVSPost2010PropOp34
 70
     1
102
RTVSPost2010Prop35
280
     0
102
RTVSPost2010PropOp35
 70
     1
102
RTVSPost2010Prop36
280
     0
102
RTVSPost2010PropOp36
 70
     1
102
RTVSPost2010Prop37
 90
       50
102
RTVSPost2010PropOp37
 70
     1
102
RTVSPost2010Prop38
140
0.0
102
RTVSPost2010PropOp38
 70
     1
102
RTVSPost2010Prop39
140
1.0
102
RTVSPost2010PropOp39
 70
     1
102
RTVSPost2010Prop40
 90
        0
102
RTVSPost2010PropOp40
 70
     1
102
RTVSPost2010Prop41ColorIndex
 90
       18
102
RTVSPost2010Prop41ColorRGB
 90
        0
102
RTVSPost2010PropOp41
 70
     1
102
RTVSPost2010Prop42
 90
       50
102
RTVSPost2010PropOp42
 70
     1
102
RTVSPost2010Prop43
 90
        3
102
RTVSPost2010PropOp43
 70
     1
102
RTVSPost2010Prop44ColorIndex
 90
        5
102
RTVSPost2010Prop44ColorRGB
 90
      255
102
RTVSPost2010PropOp44
 70
     1
102
RTVSPost2010Prop45
280
     0
102
RTVSPost2010PropOp45
 70
     1
102
RTVSPost2010Prop46
 90
       50
102
RTVSPost2010PropOp46
 70
     1
102
RTVSPost2010Prop47
 90
       50
102
RTVSPost2010PropOp47
 70
     1
102
RTVSPost2010Prop48
 90
       50
102
RTVSPost2010PropOp48
 70
     1
102
RTVSPost2010Prop49
280
     0
102
RTVSPost2010PropOp49
 70
     1
102
RTVSPost2010Prop50
 90
       50
102
RTVSPost2010PropOp50
 70
     1
102
RTVSPost2010Prop51ColorIndex
 90
      256
102
RTVSPost2010Prop51ColorRGB
 90
-16777216
102
RTVSPost2010PropOp51
 70
     0
102
RTVSPost2010Prop52
140
1.0
102
RTVSPost2010PropOp52
 70
     0
102
RTVSPost2010Prop53
 90
        2
102
RTVSPost2010PropOp53
 70
     1
102
RTVSPost2010Prop54
  1
strokes_ogs.tif
102
RTVSPost2010PropOp54
 70
     1
102
RTVSPost2010Prop55
280
     0
102
RTVSPost2010PropOp55
 70
     1
102
RTVSPost2010Prop56
140
1.0
102
RTVSPost2010PropOp56
 70
     1
102
RTVSPost2010Prop57
140
1.0
102
RTVSPost2010PropOp57
 70
     1
  0
ENDSEC
  0
SECTION
  2
THUMBNAILIMAGE
 90
    16364
310
28000000B4000000550000000100080000000000C43B000000000000000000000001000000010000FFFFFF000000FF0000FFFF0000FF0000FFFF0000FF000000FF00FF000000000080808000C0C0C0000000FF007F7FFF000000A5005252A50000007F003F3F7F0000004C0026264C000000260013132600003FFF007F9FFF
310
000029A5005267A500001F7F003F4F7F0000134C00262F4C000009260013172600007FFF007FBFFF000052A500527CA500003F7F003F5F7F0000264C0026394C0000132600131C260000BFFF007FDFFF00007CA5005291A500005F7F003F6F7F0000394C0026424C00001C26001321260000FFFF007FFFFF0000A5A50052A5
310
A500007F7F003F7F7F00004C4C00264C4C00002626001326260000FFBF007FFFDF0000A57C0052A59100007F5F003F7F6F00004C3900264C420000261C001326210000FF7F007FFFBF0000A5520052A57C00007F3F003F7F5F00004C2600264C39000026130013261C0000FF3F007FFF9F0000A5290052A56700007F1F003F
310
7F4F00004C1300264C2F00002609001326170000FF00007FFF7F0000A5000052A55200007F00003F7F3F00004C0000264C260000260000132613003FFF00009FFF7F0029A5000067A552001F7F00004F7F3F00134C00002F4C260009260000172613007FFF0000BFFF7F0052A500007CA552003F7F00005F7F3F00264C0000
310
394C2600132600001C261300BFFF0000DFFF7F007CA5000091A552005F7F00006F7F3F00394C0000424C26001C26000021261300FFFF0000FFFF7F00A5A50000A5A552007F7F00007F7F3F004C4C00004C4C26002626000026261300FFBF0000FFDF7F00A57C0000A59152007F5F00007F6F3F004C3900004C422600261C00
310
0026211300FF7F0000FFBF7F00A5520000A57C52007F3F00007F5F3F004C2600004C39260026130000261C1300FF3F0000FF9F7F00A5290000A56752007F1F00007F4F3F004C1300004C2F26002609000026171300FF000000FF7F7F00A5000000A55252007F0000007F3F3F004C0000004C2626002600000026131300FF00
310
3F00FF7F9F00A5002900A55267007F001F007F3F4F004C0013004C262F002600090026131700FF007F00FF7FBF00A5005200A5527C007F003F007F3F5F004C0026004C2639002600130026131C00FF00BF00FF7FDF00A5007C00A55291007F005F007F3F6F004C0039004C26420026001C0026132100FF00FF00FF7FFF00A5
310
00A500A552A5007F007F007F3F7F004C004C004C264C002600260026132600BF00FF00DF7FFF007C00A5009152A5005F007F006F3F7F0039004C0042264C001C002600211326007F00FF00BF7FFF005200A5007C52A5003F007F005F3F7F0026004C0039264C00130026001C1326003F00FF009F7FFF002900A5006752A500
310
1F007F004F3F7F0013004C002F264C000900260017132600000000002D2D2D005B5B5B0089898900B7B7B700B3B3B30000000000000000000000000000000000000000000000000000000000000000000000000000000000000100000000000000000000000000000000000000000000000000000000000000000000000000
310
00000000000000000000000000000000000000000000000000000000000000000000000000000000000000000000000000000000000000000000000000000000000000000000000000000000000000000000000000000000000000000000000000000000000000000000000000000000000000000000000000000000000000
310
00000000000000000000000000000301030000000000000000000000000000000000000000000000000000000000000000000000000000000000000000000000000000000000000000000000000000000000000000000000000000000000000000000000000000000000000000000000000000000000000000000000000000
310
00000000000000000000000000000000000000000000000000000000000000000000000000000000000000000000000000000000000000000000000000000000000003010103010000000000000000000000000000000000000000000000000000000000000000000000000000000000000000000000000000000000000000
310
00000000000000000000000000000000000000000000000000000000000000000000000000000000000000000000000000000000000000000000000000000000000000000000000000000000000000000000000000000000000000000000000000000000000000000000000000000000000000000000000303010300000000
310
00000000000000000000000000000000000000000000000000000000000000000000000000000000000000000000000000000000000000000000000000000000000000000000000000000000000000000000000000000000000000000000000000000000000000000000000000000000000000000000000000000000000000
310
00000000000000000000000000000000000000000000000000000000000000000000000000000000000000000000030103000000000000000000000000000000000000000000000000000000000000000000000000000000000000000000000000000000000000000000000000000000000000000000000000000000000000
310
00000000000000000000000000000000000000000000000000000000000000000000000000000000000000000000000000000000000000000000000000000000000000000000000000000000000000000000000000000000000000000000000000000000010000000000000000000000000000000000000000000000000000
310
00000000000000000000000000000000000000000000000000000000000000000000000000000000000000000000000000000000000000000000000000000000000000000000000000000000000000000000000000000000000000000000000000000000000000000000000000000000000000000000000000000000000000
310
00000000000000000000000000000000000000000000000003030303030000000000000000000000000000000000000000000000000000000000000000000000000000000000000000000000000003030303030000000000000000000000000000000000000000000000000000000000000000000000000000000000000000
310
00000000000000000000000000000000000000000000000000000000000000000000000000000000000000000000000000000000000000000000000000000000000000000000000000000000000303030303000000000000000000000000000000000000000000000000000000000000000000000000000000000000000000
310
00000000030303030300000000000000000000000000000000000000000000000000000000000000000000000000000000000000000000000000000000000000000000000000000000000000000000000000000000000000000000000000000000000000000000000000000000000000000000000000000000000000000000
310
00000003030300030000000000000000000000000000000000000000000000000000000000000000000000000000000000000000000000000003000100030000000000000000000000000000000000000000000000000000000000000000000000000000000000000000000000000000000000000000000000000000000000
310
00000000000000000000000000000000000000000000000000000000000000000000000000000000000000000000000000000000000000000303030003000000000000000000000000000000000000000000000000000000000000000000000000000000000000000000000000000300010003000000000000000000000000
310
00000000000000000000000000000000000000000000000000000000000000000000000000000000000000000000000000000000000000000000000000000000000000000000000000000000000000000000000000000000000000000000000000000000000000000000000000030303000300000000000000000000000000
310
00000000000000000000000000000000000000000000000000000000000000000000000003000100030000000000000000000000000000000000000000000000000000000000000000000000000000000000000000000000000000000000000000000000000000000000000000000000000000000000000000000000000000
310
00000000000000000000000000000000000000000000000000000000000000000000000303030003000000000000000000000000000000000000000000000000000000000000000000000000000000000000000000000000000300010003000000000000000000000000000000000000000000000000000000000000000000
310
00000000000000000000000000000000000000000000000000000000000000000000000000000000000000000000000000000000000000000000000000000000000000000000000000000000000000000000000000000000030303000300000000000000000000000000000000000000000000000202020202020200000000
310
00000000000000000000000000000003000100030000000000000000000000000000000000000000000000000000000000000000000000000000000000000000000000000000000000000000000000000000000000000000000000000000000000000000000000000000000000000000000000000000000000000000000000
310
00000000000000010000000000000303030003000000000000000000000000000100000000000000000002020202020202000000000000000001000000000000000000000300010003000000000000000000000000010000000000000000000000000000000000000000000000000000000000000000000000000000000000
310
00000000000000000000000000000000000000000000000000000000000000000000000000000000000000000000000000000000000000000000030303030303030303030303000300000000000000000303030303030303030000000000000000000000000000000000000003030303030303030303000000030001000300
310
00000000030303030303030303030000000000000000000000000000000000000000000000000000000000000000000000000000000000000000000000000000000000000000000000000000000000000000000000000000000000000000000000000000000000000000000000000003000100000000000303030300030000
310
00000000000003000300030103000300000000000000000000000000000000000000030001000000000000030000000300010003000000000003000000000000010003000000000000000000000000000000000000000000000000000000000000000000000000000000000000000000000000000000000000000000000000
310
00000000000000000000000000000000000000000000000000000000000000000000000000030001000000000003030303030300010000000000010300030003010300030000000000000000000000000000000000000003000100000000000003000000030303030300000000000300000000000001000300000000000000
310
00000000000000000000000000000000000000000000000000000000000000000000000000000000000000000000000000000000000000000000000000000000000000000000000000000000000000000000000000000000000003030303030303030303030303030301030303030301030303030303030303000000000000
310
00000000000000000000000000030303030303030303030303030301030103030303000003010303030303030303000000000000000000000000000000000000000000000000000000000000000000000000000000000000000000000000000000000000000000000000000000000000000000000000000000000000000000
310
00000000000000000000000000000303030001000000000003030303030303010303030303010000000000010000030300000000000000000000000000000000000003030100000000000000030303030103010303030303030301030303000001030300000000000000000000000000000000000000000000000000000000
310
00000000000000000000000000000000000000000000000000000000000000000000000000000000000000000000000000000000000000000000000000000000000000030300000000000000000000000100000001000000000001000000000000000000030000000000000000000000000000000000000300000000000000
310
00000000000001010100000003000303010300030000000101010000000000000000000000000000000000000000000000000000000000000000000000000000000000000000000000000000000000000000000000000000000000000000000000000000000000000000000000000000000000000000000003030000000000
310
00000000000001000000010000000000010000000000000000000300000000000000000000000000000000000003000000000000000000000000000101010000000303030001030300030000000300000000000000000000000000000000000000000000000000000000000000000000000000000000000000000000000000
310
00000000000000000000000000000000000000000000000000000000000000000000000000000000030303030303030300000000000000000000000100000001000000000001000000000000000000030303030303030000000000000000000000000300000000000000000000000000010101000000030300030100030003
310
00000003000000000000000000000000000000000000000000000000000000000000000000000000000000000000000000000000000000000000000000000000000000000000000000000000000000000000000000000000000000000003010101010303030101010101010101010101010101010101010101010101010101
310
01010101010303010101010300000000000000000000000003000000000000000000000000000101010000010303010101010103030000000300000000000000000000000000000000000000000000000000000000000000000000000000000000000000000000000000000000000000000000000000000000000000000000
310
00000000000000000000000000000000000000030303030303030300000000000000000000000100000001000000000001000000000000000000030303030303030000000000000000000000000300000000000000000000000000010101000000030303030303030003000000030000000000000000000000000000000000
310
00000000000000000000000000000000000000000000000000000000000000000000000000000000000000000000000000000000000000000000000000000000000000000000000003030303030303030000000000000000000000010000000100000000000100000000000000000003030303030303000000000000000000
310
00000003000000000000000000000000000101010000000303030303030300030000000303000000000000000000000000000000000000000000000000000000000000000000000000000000000000000000000000000000000000000000000000000000000000000000000000000000000000000000000000000000000000
310
00000000030300000000000000000000000100000001000000000001000000000000000000030000000000000000000000000000000000000300000000000000000000000000010101000000030003030103000003000000030300000000000000000000000000000000000000000000000000000000000000000000000000
310
00000000000000000000000000000000000000000000000000000000000000000000000000000000000000000000000000000000000000000003030000000000000000000000010000000100000000000100000000000000000003000000000000000000000000000000000000030000000000000000000000000001010103
310
03030303030301030303000000010303000000000000000000000000000000000000000000000000000000000000000000000000000000000000000000000000000000000000000000000000000000000000000000000000000000000000000000000000000000000000000000000003000000000000000000000001000000
310
01000000000001000000000000000000030000000000000000000000000000000000000300000000000000000000000000010101000000000000000100000000000000030300000000000000000000000000000000000000000000000000000000000000000000000000000000000000000000000000000000000000000000
310
00000000000000000000000000000000000000000000000000000000000000000000000000030301030303030303010303030303030103030303030103030303030301030303000000000000000000000000000000000000030303030103030303030303030301030103030303030303030303030103030303000000000000
310
00000000000000000000000000000000000000000000000000000000000000000000000000000000000000000000000000000000000000000000000000000000000000000000000000000000000000000000000000000000000000030100000000000001000001000000010000000000010000000000000103000000000000
310
00000000000000000000000000000000030001000001000000000000010101000000000000000000000001000300000000000000000000000000000000000000000000000000000000000000000000000000000000000000000000000000000000000000000000000000000000000000000000000000000000000000000000
310
00000000000000000000000000000000000304030303030303030303030303030303030303030103030303030303030000000000000000000000000000000000000000000003030303030103030303030301030303030303030303030303030103030000000000000000000000000000000000000000000000000000000000
310
00000000000000000000000000000000000000000000000000000000000000000000000000000000000000000000000000000000000000000000000000000000000000000000030303000000030303030303030303030303030303010303030300000103000000000000000000000000000000000000000000000000030303
310
03030003030303010303030303030303030300000301000000000000000000000000000000000000000000000000000000000000000000000000000000000000000000000000000000000000000000000000000000000000000000000000000000000000000000000000000000000000000000000000000000000000000000
310
00000000000000000000000000000000000000000000000000000000000000000000000000000000000000000000000000000000000000000000000000000000000000000000000000000000000000000000000000000000000000000000000000000000000000000000000000000000000000000000000000000000000000
310
00000000000000000000000000000000000000000000000000000000000000000000000000000000000000000000000000000000000000000000000000000000000000000000000000000000000000000000000000000000000000000000000000000000000000000000000000000000000000000000000000000000000000
310
00000000000000000000000000000000000000000000000000000000000000000000000000000000000000000000000000000000000000000000000000000000000000000000000000000000000000000000000000000000000000000000000000000000000000000000000000000000000000000000000000000000000000
310
00000000000000000000000000000000000000000000000000000000000000000000000000000000000000000000000000000000000000000000000000000000000000000000000000000000000000000000000000000000000000000000000000000000000000000000000000000000000000000000000000000000000000
310
00000000000000000000000000000000000000000000000000000000000000000000000000000000000000000000000000000000000000000000000000000000000000000000000000000000000000000000000000000000000000000000000000000000000000000000000000000000000000000000000000000000000000
310
00000000000000000000000000000000000000000000000000000000000000000000000000000000000000000000000000000000000000000000000000000000000000000000000000000000000000000000000000000000000000000000000000000000000000000000000000000000000000000000000000000000000000
310
00000000000000000000000000000000000000000000000000000000000000000000000000000000000000000000000000000000000000000000000000000000000000000000000000000000000000000000000000000000000000000000000000000000000000000000000000000000000000000000000000000000000000
310
00000000000000000000000000000000000000000000000000000000000000000000000000000000000000000000000000000000000000000000000000000000000000000000000000000000000000000000000000000000000000000000000000000000000000000000000000000000000000000000000000000000000000
310
00000000000000000000000000000000000000000000000000000000000000000000000000000000000000000000000000000000000000000000000000000000000000000000000000000000000000000000000000000000000000000000000000000000000000000000000000000000000000000000000000000000000000
310
00000000000000000000000000000000000000000000000000000000000000000000000000000000000000000000000000000000000000000000000000000000000000000000000000000000000000000000000000000000000000000000000000000000000000000000000000000000000000000000000000000000000000
310
00000000000000000000000000000000000000000000000000000000000000000000000000000000000000000000000000000000000000000000000000000000000000000000000000000000000000000000000000000000000000000000000000000000000000000000000000000000000000000000000000000000000000
310
00000000000000000000000000000000000000000000000000000000000000000000000000000000000000000000000000000000000000000000000000000000000000000000000000000000000000000000000000000000000000000000000000000000000000000000000000000000000000000000000000000000000000
310
00000000000000000000000000000000000000000000000000000000000000000000000000000000000000000000000000000000000000000000000000000000000000000000000000000000000000000000000000000000000000000000000000000000000000000000000000000000000000000000000000000000000000
310
00000000000000000000000000000000000000000000000000000000000000000000000000000000000000000000000000000000000000000000000000000000000000000000000000000000000000000000000000000000000000000000000000000000000000000000000000000000000000000000000000000000000000
310
00000000000000000000000000000000000000000000000000000000000000000000000000000000000000000000000000000000000000000000000000000000000000000000000000000000000000000000000000000000000000000000000000000000000000000000000000000000000000000000000000000000000000
310
00000000000000000000000000000000000000000000000000000000000000000000000000000000000000000000000000000000000000000000000000000000000000000000000000000000000000000000000000000000000000000000000000000000000000000000000000000000000000000000000000000000000000
310
00000000000000000000000000000000000000000000000000000000000000000000000000000000000000000000000000000000000000000000000000000000000000000000000000000000000000000000000000000000000000000000000000000000000000000000000000000000000000000000000000000000000000
310
00000000000000000000000000000000000000000000000000000000000000000000000000000000000000000000000000000000000000000000000000000000000000000000000000000000000000000000000000000000000000000000000000000000000000000000000000000000000000000000000000000000000000
310
00000000000000000000000000000000000000000000000000000000000000000000000000000000000000000000000000000000000000000000000000000000000000000000000000000000000000000000000000000000000000000000000000000000000000000000000000000000000000000000000000000000000000
310
00000000000000000000000000000000000000000000000000000000000000000000000000000000000000000000000000000000000000000000000000000000000000000000000000000000000000000000000000000000000000000000000000000000000000000000000000000000000000000000010000000000000000
310
00000000000000000000000000000000000000000000000000000000000000000000000000000000000000000000000000000000000000000000000000000000000000000000000000000000000000000000000000000000000000000000000000000000000000000000000000000000000000000000000000000000000000
310
00000000000000000000000000000000000000000000000000000000000303030303030303000003030303030303030303030000030303030303030300000000000000000000000000000000000000000000000000000000000000000000000000000000000000000000000000000000000000000000000000000000000000
310
00000000000000000000000000000000000000000000000000000000000000000000000000000000000000000000000000000000000000000000000000000000000000000000000000000000000000000000030001030000000003030000000303030303000000030300000003030300030000000000000000000000000000
310
00000000000000000000000000000000000000000000000000000000000000000000000000000000000000000000000000000000000000000000000000000000000000000000000000000000000000000000000000000000000000000000000000000000000000000000000000000000000000000000000000000000000000
310
00000000000000000301010101030303000003030101010101010103030003030301010101010300000000000000000000000000000000000000000000000000000000000000000000000000000000000000000000000000000000000000000000000000000000000000000000000000000000000000000000000000000000
310
00000000000000000000000000000000000000000000000000000000000000000000000000000000000000000000000000000000000000000000000000030001030300000303010101030303030303030101030100000300030000030000000000000000000000000000000000000000000000000000000000000000000000
310
00000000000000000000000000000000000000000000000000000000000000000000000000000000000000000000000000000000000000000000000000000000000000000000000000000000000000000000000000000000000000000000000000000000000000000000000000000000000003000003000003030403030000
310
00000100000003030404030000030000000300000000000000000000000000000000000000000000000000000000000000000000000000000000000000000000000000000000000000000000000000000000000000000000000000000000000000000000000000000000000000000000000000000000000000000000000000
310
00000000000000000000000000000000000000000000000000000000000000000000000000000000030000030003010103010000000003030000000000010301030003000000030000000000000000000000000000000000000000000000000000000000000000000000000000000000000000000000000000000000000000
310
00000000000000000000000000000000000000000000000000000000000000000000000000000000000000000000000000000000000000000000000000000000000000000000000000000000000000000000000000000000000000000003000300030101030000000000030303030000000000000301010003000003000000
310
00000000000000000000000000000000000000000000000000000000000000000000000000000000000000000000000000000000000000000000000000000000000000000000000000000000000000000000000000000000000000000000000000000000000000000000000000000000000000000000000000000000000000
310
00000000000000000000000000000000000000030300030100030000000000010303010301000000000000030103000300030000000000000000000000000000000000000000000000000000000000000000000000000000000000000000000000000000000000000000000000000000000000000000000000000000000000
310
00000000000000000000000000000000000000000000000000000000000000000000000000000000000000000000000000000000000000000000000000000000000000000000000003030001010300000000030303030303030303030000000000030100000303000000000000000000000000000000000000000000000000
310
00000000000000000000000000000000000000000000000000000000000000000000000000000000000000000000000000000000000000000000000000000000000000000000000000000000000000000000000000000000000000000000000000000000000000000000000000000000000000000000000000000000000303
310
03010303030303030001000003030300000003030303030301010003030000000000000000000000000000000000000000000000000000000000000000000000000000000000000000000000000000000000000000000000000000000000000000000000000000000000000000000000000000000000000000000000000000
310
00000000000000000000000000000000000000000000000000000000000000000000000000000000000000000000000000000003000103030000000003030303000001000000000303030300030301030300000000000000000000000000000000000000000000000000000000000000000000000000000000000000000000
310
00000000000000000000000000000000000000000000000000000000000000000000000000000000000000000000000000000000000000000000000000000000000000000000000000000000000000000000000000000000000000000000000000000000000000030003010300000000030303030303030100000303030303
310
03030003010300030000000000000000000000000000000000000000000000000000000000000000000000000000000000000000000000000000000000000000000000000000000000000000000000000000000000000000000000000000000000000000000000000000000000000000000000000000000000000000000000
310
00000000000000000000000000000000000000000000000000000000000300030103000000030300000100030303000003030001000303030003010003000000000000000000000000000000000000000000000000000000000000000000000000000000000000000000000000000000000000000000000000000000000000
310
00000000000000000000000000000000000000000000000000000000000000000000000000000000000000000000000000000000000000000000000000000000000000000000000000000000000000000000030001030000000303030000010000030300030300000100000303000301030300000000000000000000000000
310
00000000000000000000000000000000000000000000000000000000000000000000000000000000000000000000000000000000000000000000000000000000000000000000000000000000000000000000000000000000000000000000000000000000000000000000000000000000000000000000000000000000000000
310
00000000000000000303010300000003030000000100000003010303010101010103030103010300030000000000000000000000000000000000000000000000000000000000000000000000000000000000000000000000000000000000000000000000000000000000000000000000000000000000000000000000000000
310
00000000000000000000000000000000000000000000000000000000000000000000000000000000000000000000000000000000000000000000000000030304030000010303010101010101010301000300000100000303000304030003000000000000000000000000000000000000000000000000000000000000000000
310
00000000000000000000000000000000000000000000000000000000000000000000000000000000000000000000000000000000000000000000000000000000000000000000000000000000000000000000000000000000000000000000000000000000000000000000000000000000000101030403010101010101010101
310
01010101010101010101010101010101040401010100000000000000000000000000000000000000000000000000000000000000000000000000000000000000000000000000000000000000000000000000000000000000000000000000000000000000000000000000000000000000000000000000000000000000000000
310
00000000000000000000000000000000000000000000000000000000000000000000000000000000030301030000000003030000010003030300000003030303030000000301030003000000000000000000000000000000000000000000000000000000000000000000000000000000000000000000000000000000000000
310
00000000000000000000000000000000000000000000000000000000000000000000000000000000000000000000000000000000000000000000000000000000000000000000000000000000000000000000000000000000000000000003030103000000000303030301030303010000000000010000000000030103000300
310
00000000000000000000000000000000000000000000000000000000000000000000000000000000000000000000000000000000000000000000000000000000000000000000000000000000000000000000000000000000000000000000000000000000000000000000000000000000000000000000000000000000000000
310
00000000000000000000000000000000000003030001030300000000030303030303000100000000000000000000030301030303000000000000000000000000000000000000000000000000000000000000000000000000000000000000000000000000000000000000000000000000000000000000000000000000000000
310
00000000000000000000000000000000000000000000000000000000000000000000000000000000000000000000000000000000000000000000000000000000000000000000000303000301030303030300000001000000010000000000000303030300010100030300000000000000000000000000000000000000000000
310
00000000000000000000000000000000000000000000000000000000000000000000000000000000000000000000000000000000000000000000000000000000000000000000000000000000000000000000000000000000000000000000000000000000000000000000000000000000000000000000000000000000030300
310
03010300000000030303030303030303030303030300000000030103000303000000000000000000000000000000000000000000000000000000000000000000000000000000000000000000000000000000000000000000000000000000000000000000000000000000000000000000000000000000000000000000000000
310
00000000000000000000000000000000000000000000000000000000000000000000000000000000000000000303030303030300030001010300000000000000000300010300000000000000000300010303000303030303030300000000000000000000000000000000000000000000000000000000000000000000000000
310
00000000000000000000000000000000000000000000000000000000000000000000000000000000000000000000000000000000000000000000000000000000000000000000000000000000000000000000000000000000000000000000000000030303030303030101010101030101010101010101030101030101010101
310
01010103010101010103030303030303000000000000000000000000000000000000000000000000000000000000000000000000000000000000000000000000000000000000000000000000000000000000000000000000000000000000000000000000000000000000000000000000000000000000000000000000000000
310
00000000000000000000000000000000000000000000000303030303030300000300030103000000000000000303030300000000000000000101000003000303030303030300000000000000000000000000000000000000000000000000000000000000000000000000000000000000000000000000000000000000000000
310
00000000000000000000000000000000000000000000000000000000000000000000000000000000000000000000000000000000000000000000000000000000000000000000000000000000030303030303030000030000010103000000000000000001000000000000000003010000030000030303030303030000000000
310
00000000000000000000000000000000000000000000000000000000000000000000000000000000000000000000000000000000000000000000000000000000000000000000000000000000000000000000000000000000000000000000000000000000000000000000000000000000000000000000000000000000000000
310
00000000000000000300000003000001010303010000000000010000000000010301010000030000000300000000000000000000000000000000000000000000000000000000000000000000000000000000000000000000000000000000000000000000000000000000000000000000000000000000000000000000000000
310
00000000000000000000000000000000000000000000000000000000000000000000000000000000000000000000000000000000000000000000000000030303030303030001030403000000000001000000000304040100000303030303030000000000000000000000000000000000000000000000000000000000000000
310
00000000000000000000000000000000000000000000000000000000000000000000000000000000000000000000000000000000000000000000000000000000000000000000000000000000000000000000000000000000000000000000000000000000000000000000000000000000000000000300010003030003040301
310
03030303030303030301040400000300010000030000000000000000000000000000000000000000000000000000000000000000000000000000000000000000000000000000000000000000000000000000000000000000000000000000000000000000000000000000000000000000000000000000000000000000000000
310
00000000000000000000000000000000000000000000000000000000000000000000000000000000000003000103000003010003010101010101010101010303010303000303030003000000000000000000000000000000000000000000000000000000000000000000000000000000000000000000000000000000000000
310
00000000000000000000000000000000000000000000000000000000000000000000000000000000000000000000000000000000000000000000000000000000000000000000000000000000000000000000000000000000000000000000000301010101000003030000000303030303030300000003000001010101010300
310
00000000000000000000000000000000000000000000000000000000000000000000000000000000000000000000000000000000000000000000000000000000000000000000000000000000000000000000000000000000000000000000000000000000000000000000000000000000000000000000000000000000000000
310
00000000000000000000000000000000000000000003000100000003000003030303000001000303030303000300000003000003000000000000000000000000000000000000000000000000000000000000000000000000000000000000000000000000000000000000000000000000000000000000000000000000000000
310
00000000000000000000000000000000000000000000000000000000000000000000000000000000000000000000000000000000000000000000000000000000000000000000000000000303030303030300000000000003030303000000000000030303030303030300000000000000000000000000000000000000000000
310
00000000000000000000000000000000000000000000000000000000000000000000000000000000000000000000000000000000000000000000000000000000000000000000000000000000000000000000000000000000000000000000000000000000000000000000000000000000000000000000000000000000000000
310
00000000000000000000000000030303030000000000000000000000000000000000000000000000000000000000000000000000000000000000000000000000000000000000000000000000000000000000000000000000000000000000000000000000000000000000000000000000000000000000000000000000000000
310
00000000000000000000000000000000000000000000000000000000000000000000000000000000000000000000000000000000000000000000000000000000000000000100000000000000000000000000000000000000000000000000000000000000000000000000000000000000000000000000000000000000000000
310
00000000000000000000000000000000000000000000000000000000000000000000000000000000000000000000000000000000000000000000000000000000000000000000000000000000000000000000000000000000000000000000000000000000000000000000000000000000000000000000000000000000000000
310
00000000000000000000000000000000000000000000000000000000000000000000000000000000000000000000000000000000000000000000000000000000000000000000000000000000000000000000000000000000000000000000000000000000000000000000000000000000000000000000000000000000000000
310
00000000000000000000000000000000000000000000000000000000000000000000000000000000000000000000000000000000000000000000000000000000000000000000000000000000000000000000000000000000000000000000000000000000000000000000000000000000000000000000000000000000000000
310
00000000000000000000000000000000000000000000000000000000000000000000000000000000000000000000000000000000000000000000000000000000000000000000000000000000000000000000000000000000000000000000000000000000000000000000000000000000000000000000000000000000000000
310
000000000000000000000000000000000000000000000000000000000000000000000000000000000000000000000000000000000000000000000000000000000000000000000000000000000000000000000000000000000000000000000000000000000000000000000000
  0
ENDSEC
  0
EOF
