  0
SECTION
  2
HEADER
  9
$ACADVER
  1
AC1015
  9
$ACADMAINTVER
 70
     6
  9
$DWGCODEPAGE
  3
ANSI_932
  9
$INSBASE
 10
1217.766963410697
 20
963.2870546194475
 30
0.0
  9
$EXTMIN
 10
100.7624053502026
 20
11.67599704068914
 30
0.0
  9
$EXTMAX
 10
1021.09550420131
 20
820.9725335722649
 30
0.0
  9
$LIMMIN
 10
0.0
 20
0.0
  9
$LIMMAX
 10
816.5000000000001
 20
565.0
  9
$ORTHOMODE
 70
     1
  9
$REGENMODE
 70
     1
  9
$FILLMODE
 70
     1
  9
$QTEXTMODE
 70
     0
  9
$MIRRTEXT
 70
     1
  9
$LTSCALE
 40
8.0
  9
$ATTMODE
 70
     1
  9
$TEXTSIZE
 40
7.5
  9
$TRACEWID
 40
0.05
  9
$TEXTSTYLE
  7
KANJI
  9
$CLAYER
  8
2
  9
$CELTYPE
  6
BYLAYER
  9
$CECOLOR
 62
   256
  9
$CELTSCALE
 40
1.0
  9
$DISPSILH
 70
     0
  9
$DIMSCALE
 40
3.0
  9
$DIMASZ
 40
2.0
  9
$DIMEXO
 40
0.5
  9
$DIMDLI
 40
0.0
  9
$DIMRND
 40
0.0
  9
$DIMDLE
 40
0.0
  9
$DIMEXE
 40
1.0
  9
$DIMTP
 40
0.0
  9
$DIMTM
 40
0.0
  9
$DIMTXT
 40
3.0
  9
$DIMCEN
 40
0.09
  9
$DIMTSZ
 40
0.0
  9
$DIMTOL
 70
     0
  9
$DIMLIM
 70
     0
  9
$DIMTIH
 70
     0
  9
$DIMTOH
 70
     0
  9
$DIMSE1
 70
     0
  9
$DIMSE2
 70
     0
  9
$DIMTAD
 70
     0
  9
$DIMZIN
 70
     8
  9
$DIMBLK
  1

  9
$DIMASO
 70
     0
  9
$DIMSHO
 70
     0
  9
$DIMPOST
  1

  9
$DIMAPOST
  1

  9
$DIMALT
 70
     0
  9
$DIMALTD
 70
     2
  9
$DIMALTF
 40
25.4
  9
$DIMLFAC
 40
1.0
  9
$DIMTOFL
 70
     1
  9
$DIMTVP
 40
1.0
  9
$DIMTIX
 70
     1
  9
$DIMSOXD
 70
     1
  9
$DIMSAH
 70
     0
  9
$DIMBLK1
  1

  9
$DIMBLK2
  1

  9
$DIMSTYLE
  2
STANDARD
  9
$DIMCLRD
 70
   256
  9
$DIMCLRE
 70
   256
  9
$DIMCLRT
 70
   256
  9
$DIMTFAC
 40
1.0
  9
$DIMGAP
 40
0.09
  9
$DIMJUST
 70
     0
  9
$DIMSD1
 70
     0
  9
$DIMSD2
 70
     0
  9
$DIMTOLJ
 70
     1
  9
$DIMTZIN
 70
     0
  9
$DIMALTZ
 70
     0
  9
$DIMALTTZ
 70
     0
  9
$DIMUPT
 70
     0
  9
$DIMDEC
 70
     1
  9
$DIMTDEC
 70
     4
  9
$DIMALTU
 70
     2
  9
$DIMALTTD
 70
     2
  9
$DIMTXSTY
  7
STANDARD
  9
$DIMAUNIT
 70
     0
  9
$DIMADEC
 70
     0
  9
$DIMALTRND
 40
0.0
  9
$DIMAZIN
 70
     0
  9
$DIMDSEP
 70
    46
  9
$DIMATFIT
 70
     3
  9
$DIMFRAC
 70
     0
  9
$DIMLDRBLK
  1

  9
$DIMLUNIT
 70
     2
  9
$DIMLWD
 70
    -2
  9
$DIMLWE
 70
    -2
  9
$DIMTMOVE
 70
     0
  9
$LUNITS
 70
     2
  9
$LUPREC
 70
     3
  9
$SKETCHINC
 40
0.1
  9
$FILLETRAD
 40
2.0
  9
$AUNITS
 70
     0
  9
$AUPREC
 70
     3
  9
$MENU
  1
C:\R13\WIN\SUPPORT\ACADFULL
  9
$ELEVATION
 40
0.0
  9
$PELEVATION
 40
0.0
  9
$THICKNESS
 40
0.0
  9
$LIMCHECK
 70
     0
  9
$CHAMFERA
 40
0.0
  9
$CHAMFERB
 40
0.0
  9
$CHAMFERC
 40
0.0
  9
$CHAMFERD
 40
0.0
  9
$SKPOLY
 70
     0
  9
$TDCREATE
 40
2449812.756805555
  9
$TDUCREATE
 40
2449812.381805555
  9
$TDUPDATE
 40
2458115.546816296
  9
$TDUUPDATE
 40
2458115.171816296
  9
$TDINDWG
 40
1.3550279861
  9
$TDUSRTIMER
 40
1.3550268866
  9
$USRTIMER
 70
     1
  9
$ANGBASE
 50
0.0
  9
$ANGDIR
 70
     0
  9
$PDMODE
 70
     0
  9
$PDSIZE
 40
0.0
  9
$PLINEWID
 40
0.0
  9
$SPLFRAME
 70
     0
  9
$SPLINETYPE
 70
     6
  9
$SPLINESEGS
 70
     8
  9
$HANDSEED
  5
528
  9
$SURFTAB1
 70
     6
  9
$SURFTAB2
 70
     6
  9
$SURFTYPE
 70
     6
  9
$SURFU
 70
     6
  9
$SURFV
 70
     6
  9
$UCSBASE
  2

  9
$UCSNAME
  2

  9
$UCSORG
 10
0.0
 20
0.0
 30
0.0
  9
$UCSXDIR
 10
1.0
 20
0.0
 30
0.0
  9
$UCSYDIR
 10
0.0
 20
1.0
 30
0.0
  9
$UCSORTHOREF
  2

  9
$UCSORTHOVIEW
 70
     0
  9
$UCSORGTOP
 10
0.0
 20
0.0
 30
0.0
  9
$UCSORGBOTTOM
 10
0.0
 20
0.0
 30
0.0
  9
$UCSORGLEFT
 10
0.0
 20
0.0
 30
0.0
  9
$UCSORGRIGHT
 10
0.0
 20
0.0
 30
0.0
  9
$UCSORGFRONT
 10
0.0
 20
0.0
 30
0.0
  9
$UCSORGBACK
 10
0.0
 20
0.0
 30
0.0
  9
$PUCSBASE
  2

  9
$PUCSNAME
  2

  9
$PUCSORG
 10
0.0
 20
0.0
 30
0.0
  9
$PUCSXDIR
 10
1.0
 20
0.0
 30
0.0
  9
$PUCSYDIR
 10
0.0
 20
1.0
 30
0.0
  9
$PUCSORTHOREF
  2

  9
$PUCSORTHOVIEW
 70
     0
  9
$PUCSORGTOP
 10
0.0
 20
0.0
 30
0.0
  9
$PUCSORGBOTTOM
 10
0.0
 20
0.0
 30
0.0
  9
$PUCSORGLEFT
 10
0.0
 20
0.0
 30
0.0
  9
$PUCSORGRIGHT
 10
0.0
 20
0.0
 30
0.0
  9
$PUCSORGFRONT
 10
0.0
 20
0.0
 30
0.0
  9
$PUCSORGBACK
 10
0.0
 20
0.0
 30
0.0
  9
$USERI1
 70
     0
  9
$USERI2
 70
     0
  9
$USERI3
 70
     0
  9
$USERI4
 70
     0
  9
$USERI5
 70
     0
  9
$USERR1
 40
0.0
  9
$USERR2
 40
0.0
  9
$USERR3
 40
0.0
  9
$USERR4
 40
2448925.372986111
  9
$USERR5
 40
0.04166667
  9
$WORLDVIEW
 70
     1
  9
$SHADEDGE
 70
     3
  9
$SHADEDIF
 70
    70
  9
$TILEMODE
 70
     1
  9
$MAXACTVP
 70
    16
  9
$PINSBASE
 10
0.0
 20
0.0
 30
0.0
  9
$PLIMCHECK
 70
     0
  9
$PEXTMIN
 10
1000000000000000E+20
 20
1000000000000000E+20
 30
1000000000000000E+20
  9
$PEXTMAX
 10
-1000000000000000E+20
 20
-1000000000000000E+20
 30
-1000000000000000E+20
  9
$PLIMMIN
 10
0.0
 20
0.0
  9
$PLIMMAX
 10
12.0
 20
9.0
  9
$UNITMODE
 70
     0
  9
$VISRETAIN
 70
     0
  9
$PLINEGEN
 70
     0
  9
$PSLTSCALE
 70
     0
  9
$TREEDEPTH
 70
  3020
  9
$CMLSTYLE
  2
STANDARD
  9
$CMLJUST
 70
     0
  9
$CMLSCALE
 40
1.0
  9
$PROXYGRAPHICS
 70
     1
  9
$MEASUREMENT
 70
     0
  9
$CELWEIGHT
370
    -1
  9
$ENDCAPS
280
     0
  9
$JOINSTYLE
280
     0
  9
$LWDISPLAY
290
     0
  9
$INSUNITS
 70
     0
  9
$HYPERLINKBASE
  1

  9
$STYLESHEET
  1
monochrome.ctb
  9
$XEDIT
290
     1
  9
$CEPSNTYPE
380
     0
  9
$PSTYLEMODE
290
     1
  9
$FINGERPRINTGUID
  2
{E8288C0B-E231-437A-908B-E90D3A5BEFFE}
  9
$VERSIONGUID
  2
{0BFA786B-4F62-44BE-8879-FF17F3875754}
  9
$EXTNAMES
290
     1
  9
$PSVPSCALE
 40
0.0
  9
$OLESTARTUP
290
     0
  0
ENDSEC
  0
SECTION
  2
CLASSES
  0
CLASS
  1
ACDBDICTIONARYWDFLT
  2
AcDbDictionaryWithDefault
  3
ObjectDBX Classes
 90
        0
280
     0
281
     0
  0
CLASS
  1
MATERIAL
  2
AcDbMaterial
  3
ObjectDBX Classes
 90
     1153
280
     0
281
     0
  0
CLASS
  1
SORTENTSTABLE
  2
AcDbSortentsTable
  3
ObjectDBX Classes
 90
        0
280
     0
281
     0
  0
CLASS
  1
SCALE
  2
AcDbScale
  3
ObjectDBX Classes
 90
     1153
280
     0
281
     0
  0
CLASS
  1
DICTIONARYVAR
  2
AcDbDictionaryVar
  3
ObjectDBX Classes
 90
        0
280
     0
281
     0
  0
CLASS
  1
VISUALSTYLE
  2
AcDbVisualStyle
  3
ObjectDBX Classes
 90
     4095
280
     0
281
     0
  0
CLASS
  1
TABLESTYLE
  2
AcDbTableStyle
  3
ObjectDBX Classes
 90
     4095
280
     0
281
     0
  0
CLASS
  1
MLEADERSTYLE
  2
AcDbMLeaderStyle
  3
ACDB_MLEADERSTYLE_CLASS
 90
     4095
280
     0
281
     0
  0
CLASS
  1
ACDBPLACEHOLDER
  2
AcDbPlaceHolder
  3
ObjectDBX Classes
 90
        0
280
     0
281
     0
  0
CLASS
  1
LAYOUT
  2
AcDbLayout
  3
ObjectDBX Classes
 90
        0
280
     0
281
     0
  0
ENDSEC
  0
SECTION
  2
TABLES
  0
TABLE
  2
VPORT
  5
2B
102
{ACAD_XDICTIONARY
360
4ED
102
}
330
0
100
AcDbSymbolTable
 70
     1
  0
VPORT
  5
31
330
2B
100
AcDbSymbolTableRecord
100
AcDbViewportTableRecord
  2
*ACTIVE
 70
     0
 10
0.0
 20
0.0
 11
1.0
 21
1.0
 12
870.2909398160191
 22
381.6812263903207
 13
0.0
 23
0.0
 14
1.0
 24
1.0
 15
50.0
 25
50.0
 16
0.0
 26
0.0
 36
1.0
 17
0.0
 27
0.0
 37
0.0
 40
1079.047549254729
 41
1.82716049382716
 42
50.0
 43
0.0
 44
0.0
 50
0.0
 51
0.0
 71
     0
 72
  5000
 73
     1
 74
     0
 75
     0
 76
     0
 77
     0
 78
     1
281
     0
 65
     1
110
0.0
120
0.0
130
0.0
111
1.0
121
0.0
131
0.0
112
0.0
122
1.0
132
0.0
 79
     0
146
0.0
1001
ACAD_NAV_VCDISPLAY
1070
     3
  0
ENDTAB
  0
TABLE
  2
LTYPE
  5
D
330
0
100
AcDbSymbolTable
 70
     2
  0
LTYPE
  5
E
330
D
100
AcDbSymbolTableRecord
100
AcDbLinetypeTableRecord
  2
BYBLOCK
 70
     0
  3

 72
    65
 73
     0
 40
0.0
  0
LTYPE
  5
F
330
D
100
AcDbSymbolTableRecord
100
AcDbLinetypeTableRecord
  2
BYLAYER
 70
     0
  3

 72
    65
 73
     0
 40
0.0
  0
LTYPE
  5
C
330
D
100
AcDbSymbolTableRecord
100
AcDbLinetypeTableRecord
  2
CONTINUOUS
 70
     0
  3
Solid line
 72
    65
 73
     0
 40
0.0
  0
LTYPE
  5
6C
330
D
100
AcDbSymbolTableRecord
100
AcDbLinetypeTableRecord
  2
CENTER
 70
     0
  3
____ _ ____ _ ____ _ ____ _ ____ _ ____ _ ____
 72
    65
 73
     4
 40
2.0
 49
1.25
 74
     0
 49
-0.25
 74
     0
 49
0.25
 74
     0
 49
-0.25
 74
     0
  0
ENDTAB
  0
TABLE
  2
LAYER
  5
2
102
{ACAD_XDICTIONARY
360
3
102
}
330
0
100
AcDbSymbolTable
 70
     9
  0
LAYER
  5
1D
102
{ACAD_XDICTIONARY
360
1E
102
}
330
2
100
AcDbSymbolTableRecord
100
AcDbLayerTableRecord
  2
0
 70
     0
 62
     7
  6
CONTINUOUS
370
    -3
390
7
  0
LAYER
  5
25F
102
{ACAD_XDICTIONARY
360
260
102
}
330
2
100
AcDbSymbolTableRecord
100
AcDbLayerTableRecord
  2
1
 70
     0
 62
     9
  6
CONTINUOUS
370
    -3
390
7
  0
LAYER
  5
1
102
{ACAD_XDICTIONARY
360
5
102
}
330
2
100
AcDbSymbolTableRecord
100
AcDbLayerTableRecord
  2
2
 70
     0
 62
     4
  6
CONTINUOUS
370
    -3
390
7
  0
LAYER
  5
6E
102
{ACAD_XDICTIONARY
360
6F
102
}
330
2
100
AcDbSymbolTableRecord
100
AcDbLayerTableRecord
  2
4
 70
     0
 62
     3
  6
CONTINUOUS
370
    -3
390
7
  0
LAYER
  5
69
102
{ACAD_XDICTIONARY
360
6A
102
}
330
2
100
AcDbSymbolTableRecord
100
AcDbLayerTableRecord
  2
L-CENTER
 70
     0
 62
     1
  6
CENTER
370
    -3
390
7
  0
LAYER
  5
F7
102
{ACAD_XDICTIONARY
360
F8
102
}
330
2
100
AcDbSymbolTableRecord
100
AcDbLayerTableRecord
  2
3
 70
     0
 62
     2
  6
CONTINUOUS
370
    -3
390
7
  0
LAYER
  5
259
330
2
100
AcDbSymbolTableRecord
100
AcDbLayerTableRecord
  2
5
 70
     0
 62
     6
  6
CONTINUOUS
370
    -3
390
7
  0
LAYER
  5
4D0
330
2
100
AcDbSymbolTableRecord
100
AcDbLayerTableRecord
  2
Defpoints
 70
     0
 62
     7
  6
CONTINUOUS
290
     0
370
    -3
390
7
  0
ENDTAB
  0
TABLE
  2
STYLE
  5
11
330
0
100
AcDbSymbolTable
 70
     2
  0
STYLE
  5
15
330
11
100
AcDbSymbolTableRecord
100
AcDbTextStyleTableRecord
  2
STANDARD
 70
     0
 40
0.0
 41
1.0
 50
0.0
 71
     0
 42
4.5
  3
TXT
  4

  0
STYLE
  5
10
330
11
100
AcDbSymbolTableRecord
100
AcDbTextStyleTableRecord
  2
KANJI
 70
     0
 40
0.0
 41
1.0
 50
0.0
 71
     0
 42
7.5
  3
TXT
  4
BIGFONT
  0
ENDTAB
  0
TABLE
  2
VIEW
  5
29
330
0
100
AcDbSymbolTable
 70
     0
  0
ENDTAB
  0
TABLE
  2
UCS
  5
2A
330
0
100
AcDbSymbolTable
 70
     0
  0
ENDTAB
  0
TABLE
  2
APPID
  5
24
330
0
100
AcDbSymbolTable
 70
     6
  0
APPID
  5
30
330
24
100
AcDbSymbolTableRecord
100
AcDbRegAppTableRecord
  2
ACAD
 70
     0
  0
APPID
  5
32
330
24
100
AcDbSymbolTableRecord
100
AcDbRegAppTableRecord
  2
ACAD_NAV_VCDISPLAY
 70
     0
  0
APPID
  5
23
330
24
100
AcDbSymbolTableRecord
100
AcDbRegAppTableRecord
  2
ACAD_PSEXT
 70
     0
  0
APPID
  5
4AC
330
24
100
AcDbSymbolTableRecord
100
AcDbRegAppTableRecord
  2
ACAD_MLEADERVER
 70
     0
  0
ENDTAB
  0
TABLE
  2
DIMSTYLE
  5
14
330
0
100
AcDbSymbolTable
 70
     1
100
AcDbDimStyleTable
  0
DIMSTYLE
105
13
330
14
100
AcDbSymbolTableRecord
100
AcDbDimStyleTableRecord
  2
STANDARD
 70
     0
178
     0
340
15
  0
ENDTAB
  0
TABLE
  2
BLOCK_RECORD
  5
18
330
0
100
AcDbSymbolTable
 70
     0
  0
BLOCK_RECORD
  5
19
102
{ACAD_XDICTIONARY
360
1A
102
}
330
18
100
AcDbSymbolTableRecord
100
AcDbBlockTableRecord
  2
*MODEL_SPACE
340
21
  0
BLOCK_RECORD
  5
25
330
18
100
AcDbSymbolTableRecord
100
AcDbBlockTableRecord
  2
*PAPER_SPACE
340
28
  0
ENDTAB
  0
ENDSEC
  0
SECTION
  2
BLOCKS
  0
BLOCK
  5
1C
330
19
100
AcDbEntity
  8
0
100
AcDbBlockBegin
  2
*MODEL_SPACE
 70
     0
 10
0.0
 20
0.0
 30
0.0
  3
*MODEL_SPACE
  1

  0
ENDBLK
  5
20
330
19
100
AcDbEntity
  8
0
100
AcDbBlockEnd
  0
BLOCK
  5
26
330
25
100
AcDbEntity
 67
     1
  8
0
100
AcDbBlockBegin
  2
*PAPER_SPACE
 70
     0
 10
0.0
 20
0.0
 30
0.0
  3
*PAPER_SPACE
  1

  0
ENDBLK
  5
27
330
25
100
AcDbEntity
 67
     1
  8
0
100
AcDbBlockEnd
  0
ENDSEC
  0
SECTION
  2
ENTITIES
  0
LINE
  5
68
330
19
100
AcDbEntity
  8
L-CENTER
 48
2.0
100
AcDbLine
 10
570.995445416427
 20
101.6759970406891
 30
0.0
 11
100.7624053502029
 21
101.6759970406891
 31
0.0
  0
LINE
  5
6D
330
19
100
AcDbEntity
  8
4
100
AcDbLine
 10
472.3789253833149
 20
21.67599704068914
 30
0.0
 11
472.3789253833149
 21
46.67599704068914
 31
0.0
  0
LINE
  5
71
330
19
100
AcDbEntity
  8
4
100
AcDbLine
 10
454.3789253833149
 20
21.67599704068914
 30
0.0
 11
454.3789253833149
 21
46.67599704068914
 31
0.0
  0
LINE
  5
72
330
19
100
AcDbEntity
  8
4
100
AcDbLine
 10
493.3789253833149
 20
21.67599704068914
 30
0.0
 11
493.3789253833149
 21
43.67599704068914
 31
0.0
  0
LINE
  5
73
330
19
100
AcDbEntity
  8
L-CENTER
 48
2.0
100
AcDbLine
 10
463.3789253833149
 20
11.67599704068914
 30
0.0
 11
463.3789253833149
 21
56.67599704068914
 31
0.0
  0
LINE
  5
74
330
19
100
AcDbEntity
  8
4
100
AcDbLine
 10
429.1826353833148
 20
27.95260704068914
 30
0.0
 11
429.9990428833148
 21
25.04123204068912
 31
0.0
  0
LINE
  5
75
330
19
100
AcDbEntity
  8
4
100
AcDbLine
 10
408.3789253833149
 20
50.67599704068914
 30
0.0
 11
408.3789253833149
 21
21.67599704068914
 31
0.0
  0
LINE
  5
76
330
19
100
AcDbEntity
  8
4
100
AcDbLine
 10
263.3789253833149
 20
50.67599704068914
 30
0.0
 11
263.3789253833149
 21
21.67599704068914
 31
0.0
  0
LINE
  5
77
330
19
100
AcDbEntity
  8
L-CENTER
 48
2.0
100
AcDbLine
 10
208.3790328833149
 20
11.67599704068914
 30
0.0
 11
208.3790328833149
 21
56.67599704068914
 31
0.0
  0
LINE
  5
78
330
19
100
AcDbEntity
  8
4
100
AcDbLine
 10
178.3790328833149
 20
21.67599704068914
 30
0.0
 11
178.3790328833149
 21
43.67599704068914
 31
0.0
  0
LINE
  5
79
330
19
100
AcDbEntity
  8
L-CENTER
 48
2.0
100
AcDbLine
 10
295.3430353833151
 20
305.2959338608267
 30
0.0
 11
295.3430353833148
 21
42.09582357745194
 31
0.0
  0
LINE
  5
7A
330
19
100
AcDbEntity
  8
4
100
AcDbLine
 10
178.3790328833149
 20
21.67599704068914
 30
0.0
 11
263.3789253833149
 21
21.67599704068914
 31
0.0
  0
LINE
  5
7B
330
19
100
AcDbEntity
  8
4
100
AcDbLine
 10
408.3789253833149
 20
21.67599704068914
 30
0.0
 11
493.3789253833149
 21
21.67599704068914
 31
0.0
  0
LINE
  5
7C
330
19
100
AcDbEntity
  8
4
100
AcDbLine
 10
428.0263853833148
 20
21.67599704068914
 30
0.0
 11
428.5788753833149
 21
22.20089954068908
 31
0.0
  0
LINE
  5
7D
330
19
100
AcDbEntity
  8
4
100
AcDbLine
 10
430.212177883315
 20
23.33688704068913
 30
0.0
 11
428.5788753833149
 21
22.20089954068908
 31
0.0
  0
LINE
  5
7E
330
19
100
AcDbEntity
  8
4
100
AcDbLine
 10
429.9990428833148
 20
25.04123204068912
 30
0.0
 11
430.212177883315
 21
23.33688704068913
 31
0.0
  0
LINE
  5
7F
330
19
100
AcDbEntity
  8
4
100
AcDbLine
 10
246.3430353833151
 20
192.3759470406892
 30
0.0
 11
323.3789253833149
 21
192.3759470406892
 31
0.0
  0
LINE
  5
80
330
19
100
AcDbEntity
  8
4
100
AcDbLine
 10
255.3430353833151
 20
193.3759470406892
 30
0.0
 11
324.8789253833149
 21
193.3759470406892
 31
0.0
  0
LINE
  5
81
330
19
100
AcDbEntity
  8
4
100
AcDbLine
 10
171.8789253833149
 20
166.6759970406891
 30
0.0
 11
485.8789253833149
 21
166.6759970406891
 31
0.0
  0
LINE
  5
82
330
19
100
AcDbEntity
  8
4
100
AcDbLine
 10
485.8789253833149
 20
180.3759470406892
 30
0.0
 11
185.8789253833149
 21
180.3759470406892
 31
0.0
  0
LINE
  5
83
330
19
100
AcDbEntity
  8
4
100
AcDbLine
 10
185.8789253833149
 20
168.6759970406891
 30
0.0
 11
485.8789253833149
 21
168.6759970406891
 31
0.0
  0
LINE
  5
84
330
19
100
AcDbEntity
  8
4
100
AcDbLine
 10
467.8789253833149
 20
182.3759470406892
 30
0.0
 11
203.8789253833149
 21
182.3759470406892
 31
0.0
  0
ARC
  5
85
330
19
100
AcDbEntity
  8
4
100
AcDbCircle
 10
267.3789253833149
 20
50.67599704068914
 30
0.0
 40
4.0
100
AcDbArc
 50
90.0
 51
180.0
  0
ARC
  5
86
330
19
100
AcDbEntity
  8
4
100
AcDbCircle
 10
260.3789253833149
 20
43.67599704068914
 30
0.0
 40
3.0
100
AcDbArc
 50
0.0
 51
90.0
  0
LINE
  5
87
330
19
100
AcDbEntity
  8
4
100
AcDbLine
 10
263.3789253833149
 20
47.67599704068914
 30
0.0
 11
344.3430353833151
 21
47.67599704068914
 31
0.0
  0
LINE
  5
88
330
19
100
AcDbEntity
  8
4
100
AcDbLine
 10
263.3789253833149
 20
46.67599704068914
 30
0.0
 11
335.3430353833151
 21
46.67599704068914
 31
0.0
  0
LINE
  5
89
330
19
100
AcDbEntity
  8
4
100
AcDbLine
 10
168.8789253833149
 20
163.6759970406891
 30
0.0
 11
168.8789253833149
 21
58.67599704068914
 31
0.0
  0
LINE
  5
8A
330
19
100
AcDbEntity
  8
4
100
AcDbLine
 10
260.3789253833149
 20
46.67599704068914
 30
0.0
 11
181.3790328833149
 21
46.67599704068914
 31
0.0
  0
LINE
  5
8B
330
19
100
AcDbEntity
  8
4
100
AcDbLine
 10
162.8789253833149
 20
59.67599704068914
 30
0.0
 11
162.8789253833149
 21
143.675997040689
 31
0.0
  0
LINE
  5
8C
330
19
100
AcDbEntity
  8
4
100
AcDbLine
 10
161.8789253833149
 20
132.6759970406891
 30
0.0
 11
161.8789253833149
 21
70.67599704068914
 31
0.0
  0
ARC
  5
8D
330
19
100
AcDbEntity
  8
4
100
AcDbCircle
 10
172.8789253833149
 20
58.67599704068914
 30
0.0
 40
4.0
100
AcDbArc
 50
180.0
 51
270.0013179999999
  0
ARC
  5
8E
330
19
100
AcDbEntity
  8
4
100
AcDbCircle
 10
178.3790328833149
 20
50.67599704068914
 30
0.0
 40
4.0
100
AcDbArc
 50
0.0
 51
90.0
  0
LINE
  5
8F
330
19
100
AcDbEntity
  8
4
100
AcDbLine
 10
172.8789253833149
 20
54.67599704068914
 30
0.0
 11
178.3790328833149
 21
54.67599704068914
 31
0.0
  0
LINE
  5
90
330
19
100
AcDbEntity
  8
4
100
AcDbLine
 10
182.3790328833149
 20
46.67599704068914
 30
0.0
 11
182.3790328833149
 21
50.67599704068914
 31
0.0
  0
ARC
  5
91
330
19
100
AcDbEntity
  8
4
100
AcDbCircle
 10
181.3790328833149
 20
43.67599704068914
 30
0.0
 40
3.0
100
AcDbArc
 50
90.0
 51
180.0
  0
LINE
  5
92
330
19
100
AcDbEntity
  8
4
100
AcDbLine
 10
162.8789253833149
 20
59.67599704068914
 30
0.0
 11
168.8789253833149
 21
59.67599704068914
 31
0.0
  0
LINE
  5
93
330
19
100
AcDbEntity
  8
4
100
AcDbLine
 10
162.8789253833149
 20
70.67599704068914
 30
0.0
 11
161.8789253833149
 21
70.67599704068914
 31
0.0
  0
LINE
  5
94
330
19
100
AcDbEntity
  8
4
100
AcDbLine
 10
162.8789253833149
 20
132.6759970406891
 30
0.0
 11
161.8789253833149
 21
132.6759970406891
 31
0.0
  0
LINE
  5
95
330
19
100
AcDbEntity
  8
4
100
AcDbLine
 10
185.8789253833149
 20
166.6759970406891
 30
0.0
 11
185.8789253833149
 21
180.3759470406892
 31
0.0
  0
LINE
  5
96
330
19
100
AcDbEntity
  8
4
100
AcDbLine
 10
162.8789253833149
 20
143.675997040689
 30
0.0
 11
168.8789253833149
 21
143.6759970406891
 31
0.0
  0
ARC
  5
97
330
19
100
AcDbEntity
  8
4
100
AcDbCircle
 10
171.8789253833149
 20
163.6759970406891
 30
0.0
 40
3.0
100
AcDbArc
 50
90.0
 51
180.0
  0
ARC
  5
98
330
19
100
AcDbEntity
  8
4
100
AcDbCircle
 10
335.8789253833149
 20
-1557.523952959311
 30
0.0
 40
1744.8998825
100
AcDbArc
 50
92.54563478805892
 51
94.338955
  0
LINE
  5
99
330
19
100
AcDbEntity
  8
4
100
AcDbLine
 10
203.8789253833149
 20
180.3759470406892
 30
0.0
 11
203.8789253833149
 21
182.3759470406892
 31
0.0
  0
ARC
  5
9A
330
19
100
AcDbEntity
  8
4
100
AcDbCircle
 10
244.3430353833151
 20
186.9760470406891
 30
0.0
 40
2.00003
100
AcDbArc
 50
273.002206999994
 51
0.0
  0
LINE
  5
9B
330
19
100
AcDbEntity
  8
4
100
AcDbLine
 10
246.3430353833151
 20
186.9760470406891
 30
0.0
 11
246.3430353833151
 21
192.3759470406892
 31
0.0
  0
LINE
  5
9C
330
19
100
AcDbEntity
  8
4
100
AcDbLine
 10
255.3430353833151
 20
193.3759470406892
 30
0.0
 11
255.3430353833151
 21
192.3759470406892
 31
0.0
  0
LINE
  5
9D
330
19
100
AcDbEntity
  8
4
100
AcDbLine
 10
314.3430353833151
 20
300.6759970406893
 30
0.0
 11
314.3430353833151
 21
206.6759970406893
 31
0.0
  0
LINE
  5
9E
330
19
100
AcDbEntity
  8
4
100
AcDbLine
 10
276.3430353833151
 20
300.6759970406893
 30
0.0
 11
276.3430353833151
 21
206.6759970406893
 31
0.0
  0
LINE
  5
9F
330
19
100
AcDbEntity
  8
4
100
AcDbLine
 10
300.3430353833151
 20
301.6759970406893
 30
0.0
 11
300.3430353833151
 21
216.6759970406893
 31
0.0
  0
LINE
  5
A0
330
19
100
AcDbEntity
  8
4
100
AcDbLine
 10
290.3430353833151
 20
301.6759970406893
 30
0.0
 11
290.3430353833151
 21
216.6759970406893
 31
0.0
  0
ARC
  5
A1
330
19
100
AcDbEntity
  8
4
100
AcDbCircle
 10
335.8789253833149
 20
-1557.523952959311
 30
0.0
 40
1744.899855
100
AcDbArc
 50
85.661501
 51
87.4543651717949
  0
LINE
  5
A2
330
19
100
AcDbEntity
  8
4
100
AcDbLine
 10
363.8789253833149
 20
192.3759470406892
 30
0.0
 11
441.8789253833149
 21
192.3759470406892
 31
0.0
  0
LINE
  5
A3
330
19
100
AcDbEntity
  8
4
100
AcDbLine
 10
371.8789253833149
 20
193.3759470406892
 30
0.0
 11
433.8789253833149
 21
193.3759470406892
 31
0.0
  0
LINE
  5
A4
330
19
100
AcDbEntity
  8
4
100
AcDbLine
 10
490.3789253833149
 20
46.67599704068914
 30
0.0
 11
411.3789253833149
 21
46.67599704068914
 31
0.0
  0
LINE
  5
A5
330
19
100
AcDbEntity
  8
4
100
AcDbLine
 10
267.3789253833149
 20
54.67599704068914
 30
0.0
 11
404.3789253833149
 21
54.67599704068914
 31
0.0
  0
LINE
  5
A6
330
19
100
AcDbEntity
  8
4
100
AcDbLine
 10
335.3430353833151
 20
47.67599704068914
 30
0.0
 11
335.3430353833151
 21
46.67599704068914
 31
0.0
  0
LINE
  5
A7
330
19
100
AcDbEntity
  8
4
100
AcDbLine
 10
363.8789253833149
 20
47.67599704068914
 30
0.0
 11
408.3789253833149
 21
47.67599704068914
 31
0.0
  0
LINE
  5
A8
330
19
100
AcDbEntity
  8
4
100
AcDbLine
 10
408.3789253833149
 20
46.67599704068914
 30
0.0
 11
371.8789253833149
 21
46.67599704068914
 31
0.0
  0
ARC
  5
A9
330
19
100
AcDbEntity
  8
4
100
AcDbCircle
 10
346.3430353833151
 20
52.67599704068914
 30
0.0
 40
2.0
100
AcDbArc
 50
90.0
 51
180.0
  0
LINE
  5
AA
330
19
100
AcDbEntity
  8
4
100
AcDbLine
 10
344.3430353833151
 20
47.67599704068914
 30
0.0
 11
344.3430353833151
 21
52.67599704068914
 31
0.0
  0
ARC
  5
AB
330
19
100
AcDbEntity
  8
4
100
AcDbCircle
 10
361.8789253833149
 20
52.67599704068914
 30
0.0
 40
2.0
100
AcDbArc
 50
0.0
 51
90.0
  0
LINE
  5
AC
330
19
100
AcDbEntity
  8
4
100
AcDbLine
 10
363.8789253833149
 20
47.67599704068914
 30
0.0
 11
363.8789253833149
 21
52.67599704068914
 31
0.0
  0
LINE
  5
AD
330
19
100
AcDbEntity
  8
4
100
AcDbLine
 10
371.8789253833149
 20
46.67599704068914
 30
0.0
 11
371.8789253833149
 21
47.67599704068914
 31
0.0
  0
ARC
  5
AE
330
19
100
AcDbEntity
  8
4
100
AcDbCircle
 10
404.3789253833149
 20
50.67599704068914
 30
0.0
 40
4.0
100
AcDbArc
 50
0.0
 51
90.0
  0
ARC
  5
AF
330
19
100
AcDbEntity
  8
4
100
AcDbCircle
 10
411.3789253833149
 20
43.67599704068914
 30
0.0
 40
3.0
100
AcDbArc
 50
90.0
 51
180.0
  0
LINE
  5
B0
330
19
100
AcDbEntity
  8
4
100
AcDbLine
 10
323.3789253833149
 20
192.5112020406891
 30
0.0
 11
348.3789253833149
 21
192.5112020406891
 31
0.0
  0
LINE
  5
B1
330
19
100
AcDbEntity
  8
4
100
AcDbLine
 10
346.8789253833149
 20
196.5112020406891
 30
0.0
 11
324.8789253833149
 21
196.5112020406891
 31
0.0
  0
ARC
  5
B2
330
19
100
AcDbEntity
  8
4
100
AcDbCircle
 10
335.8789253833149
 20
-1557.523952959311
 30
0.0
 40
1744.8999125
100
AcDbArc
 50
87.88158990068237
 51
89.40893897915774
  0
LINE
  5
B3
330
19
100
AcDbEntity
  8
4
100
AcDbLine
 10
315.3430353833151
 20
206.6759970406893
 30
0.0
 11
315.3430353833151
 21
193.3759470406892
 31
0.0
  0
LINE
  5
B4
330
19
100
AcDbEntity
  8
4
100
AcDbLine
 10
275.3430353833151
 20
206.6759970406893
 30
0.0
 11
275.3430353833151
 21
193.3759470406892
 31
0.0
  0
ARC
  5
B5
330
19
100
AcDbEntity
  8
4
100
AcDbCircle
 10
335.8789253833149
 20
-1557.523952959311
 30
0.0
 40
1744.8999225
100
AcDbArc
 50
90.59106101745428
 51
92.11841008717148
  0
LINE
  5
B6
330
19
100
AcDbEntity
  8
L-CENTER
 48
2.0
100
AcDbLine
 10
335.8789253833149
 20
197.8962120406891
 30
0.0
 11
335.8789253833149
 21
42.09582357745194
 31
0.0
  0
LINE
  5
B7
330
19
100
AcDbEntity
  8
4
100
AcDbLine
 10
324.8789253833149
 20
196.5112020406891
 30
0.0
 11
324.8789253833149
 21
192.5112020406891
 31
0.0
  0
LINE
  5
B8
330
19
100
AcDbEntity
  8
4
100
AcDbLine
 10
275.3430353833151
 20
206.6759970406893
 30
0.0
 11
315.3430353833151
 21
206.6759970406893
 31
0.0
  0
ARC
  5
B9
330
19
100
AcDbEntity
  8
4
100
AcDbCircle
 10
295.3430353833151
 20
216.6759970406893
 30
0.0
 40
5.0
100
AcDbArc
 50
270.0006989999974
 51
0.0
  0
ARC
  5
BA
330
19
100
AcDbEntity
  8
4
100
AcDbCircle
 10
295.3430353833151
 20
216.6759970406893
 30
0.0
 40
5.0
100
AcDbArc
 50
180.0
 51
270.0006989999974
  0
LINE
  5
BB
330
19
100
AcDbEntity
  8
L-CENTER
 48
2.0
100
AcDbLine
 10
402.8789253833149
 20
42.09582357745194
 30
0.0
 11
402.8789253833149
 21
197.5298871696398
 31
0.0
  0
LINE
  5
BC
330
19
100
AcDbEntity
  8
4
100
AcDbLine
 10
317.8789253833149
 20
189.0112020406891
 30
0.0
 11
353.8789253833149
 21
189.0112020406891
 31
0.0
  0
LINE
  5
BD
330
19
100
AcDbEntity
  8
4
100
AcDbLine
 10
347.3789253833149
 20
190.5112020406891
 30
0.0
 11
347.3789253833149
 21
189.0112020406891
 31
0.0
  0
LINE
  5
BE
330
19
100
AcDbEntity
  8
4
100
AcDbLine
 10
348.3789253833149
 20
192.5112020406891
 30
0.0
 11
348.3789253833149
 21
190.5112020406891
 31
0.0
  0
LINE
  5
BF
330
19
100
AcDbEntity
  8
4
100
AcDbLine
 10
323.3789253833149
 20
190.5112020406891
 30
0.0
 11
348.3789253833149
 21
190.5112020406891
 31
0.0
  0
LINE
  5
C0
330
19
100
AcDbEntity
  8
4
100
AcDbLine
 10
346.8789253833149
 20
196.5112020406891
 30
0.0
 11
346.8789253833149
 21
192.5112020406891
 31
0.0
  0
LINE
  5
C1
330
19
100
AcDbEntity
  8
4
100
AcDbLine
 10
353.8789253833149
 20
185.0014484160906
 30
0.0
 11
353.8789253833149
 21
189.0112020406891
 31
0.0
  0
ARC
  5
C2
330
19
100
AcDbEntity
  8
4
100
AcDbCircle
 10
360.8789253833149
 20
190.1972370406891
 30
0.0
 40
3.0000325
100
AcDbArc
 50
269.1793420000001
 51
0.0
  0
LINE
  5
C3
330
19
100
AcDbEntity
  8
4
100
AcDbLine
 10
363.8789253833149
 20
190.1972370406891
 30
0.0
 11
363.8789253833149
 21
192.3759470406892
 31
0.0
  0
LINE
  5
C4
330
19
100
AcDbEntity
  8
4
100
AcDbLine
 10
371.8789253833149
 20
193.3759470406892
 30
0.0
 11
371.8789253833149
 21
192.3759470406892
 31
0.0
  0
LINE
  5
C5
330
19
100
AcDbEntity
  8
4
100
AcDbLine
 10
502.8789253833149
 20
163.6759970406891
 30
0.0
 11
502.8789253833149
 21
58.67599704068914
 31
0.0
  0
LINE
  5
C6
330
19
100
AcDbEntity
  8
4
100
AcDbLine
 10
493.3789253833149
 20
54.67599704068914
 30
0.0
 11
498.8789253833149
 21
54.67599704068914
 31
0.0
  0
LINE
  5
C7
330
19
100
AcDbEntity
  8
4
100
AcDbLine
 10
438.2719903833149
 20
45.38571454068915
 30
0.0
 11
436.638690383315
 21
44.56930704068918
 31
0.0
  0
LINE
  5
C8
330
19
100
AcDbEntity
  8
4
100
AcDbLine
 10
434.9343453833148
 20
42.19040204068915
 30
0.0
 11
434.614765383315
 21
40.62814454068916
 31
0.0
  0
LINE
  5
C9
330
19
100
AcDbEntity
  8
4
100
AcDbLine
 10
434.5437203833148
 20
39.5983595406891
 30
0.0
 11
434.5437203833148
 21
37.71676704068909
 31
0.0
  0
LINE
  5
CA
330
19
100
AcDbEntity
  8
4
100
AcDbLine
 10
434.614765383315
 20
40.62814454068916
 30
0.0
 11
434.5437203833148
 21
39.5983595406891
 31
0.0
  0
LINE
  5
CB
330
19
100
AcDbEntity
  8
4
100
AcDbLine
 10
432.0940128833149
 20
34.73410204068909
 30
0.0
 11
432.5200378833149
 21
31.14816454068909
 31
0.0
  0
LINE
  5
CC
330
19
100
AcDbEntity
  8
4
100
AcDbLine
 10
431.2773628833149
 20
29.58590954068916
 30
0.0
 11
429.1826353833148
 21
27.95260704068914
 31
0.0
  0
LINE
  5
CD
330
19
100
AcDbEntity
  8
4
100
AcDbLine
 10
432.5200378833149
 20
31.14816454068909
 30
0.0
 11
431.2773628833149
 21
29.58590954068916
 31
0.0
  0
LINE
  5
CE
330
19
100
AcDbEntity
  8
4
100
AcDbLine
 10
433.5141803833149
 20
36.50949204068911
 30
0.0
 11
432.0940128833149
 21
34.73410204068909
 31
0.0
  0
LINE
  5
CF
330
19
100
AcDbEntity
  8
4
100
AcDbLine
 10
434.5437203833148
 20
37.71676704068909
 30
0.0
 11
433.5141803833149
 21
36.50949204068911
 31
0.0
  0
LINE
  5
D0
330
19
100
AcDbEntity
  8
4
100
AcDbLine
 10
436.638690383315
 20
44.56930704068918
 30
0.0
 11
435.431415383315
 21
43.46847704068909
 31
0.0
  0
LINE
  5
D1
330
19
100
AcDbEntity
  8
4
100
AcDbLine
 10
435.431415383315
 20
43.46847704068909
 30
0.0
 11
434.9343453833148
 21
42.19040204068915
 31
0.0
  0
LINE
  5
D2
330
19
100
AcDbEntity
  8
4
100
AcDbLine
 10
438.9785353833149
 20
46.67599704068914
 30
0.0
 11
438.2719903833149
 21
45.38571454068915
 31
0.0
  0
ARC
  5
D3
330
19
100
AcDbEntity
  8
4
100
AcDbCircle
 10
493.3789253833149
 20
50.67599704068914
 30
0.0
 40
4.0
100
AcDbArc
 50
90.0
 51
180.0
  0
LINE
  5
D4
330
19
100
AcDbEntity
  8
4
100
AcDbLine
 10
489.3789253833149
 20
50.67599704068914
 30
0.0
 11
489.3789253833149
 21
46.67599704068914
 31
0.0
  0
ARC
  5
D5
330
19
100
AcDbEntity
  8
4
100
AcDbCircle
 10
490.3789253833149
 20
43.67599704068914
 30
0.0
 40
3.0
100
AcDbArc
 50
0.0
 51
90.0
  0
LINE
  5
D6
330
19
100
AcDbEntity
  8
4
100
AcDbLine
 10
508.8789253833149
 20
143.675997040689
 30
0.0
 11
508.8789253833149
 21
59.67599704068914
 31
0.0
  0
LINE
  5
D7
330
19
100
AcDbEntity
  8
4
100
AcDbLine
 10
509.8789253833149
 20
132.6759970406891
 30
0.0
 11
509.8789253833149
 21
70.67599704068914
 31
0.0
  0
ARC
  5
D8
330
19
100
AcDbEntity
  8
4
100
AcDbCircle
 10
498.8789253833149
 20
58.67599704068914
 30
0.0
 40
4.0
100
AcDbArc
 50
270.0
 51
0.0
  0
LINE
  5
D9
330
19
100
AcDbEntity
  8
4
100
AcDbLine
 10
502.8789253833149
 20
59.67599704068914
 30
0.0
 11
508.8789253833149
 21
59.67599704068914
 31
0.0
  0
LINE
  5
DA
330
19
100
AcDbEntity
  8
4
100
AcDbLine
 10
509.8789253833149
 20
70.67599704068914
 30
0.0
 11
508.8789253833149
 21
70.67599704068914
 31
0.0
  0
LINE
  5
DB
330
19
100
AcDbEntity
  8
4
100
AcDbLine
 10
567.8789253833149
 20
117.1759970406891
 30
0.0
 11
522.8789253833149
 21
117.1759970406891
 31
0.0
  0
LINE
  5
DC
330
19
100
AcDbEntity
  8
4
100
AcDbLine
 10
566.8789253833149
 20
114.1759970406891
 30
0.0
 11
517.8789253833149
 21
114.1759970406891
 31
0.0
  0
LINE
  5
DD
330
19
100
AcDbEntity
  8
4
100
AcDbLine
 10
566.8789253833149
 20
89.17599704068914
 30
0.0
 11
517.8789253833149
 21
89.17599704068914
 31
0.0
  0
LINE
  5
DE
330
19
100
AcDbEntity
  8
4
100
AcDbLine
 10
517.8789253833149
 20
86.67599704068914
 30
0.0
 11
517.8789253833149
 21
116.6759970406891
 31
0.0
  0
LINE
  5
DF
330
19
100
AcDbEntity
  8
4
100
AcDbLine
 10
517.8789253833149
 20
86.67599704068914
 30
0.0
 11
509.8789253833149
 21
86.67599704068914
 31
0.0
  0
LINE
  5
E0
330
19
100
AcDbEntity
  8
4
100
AcDbLine
 10
517.8789253833149
 20
116.6759970406891
 30
0.0
 11
509.8789253833149
 21
116.6759970406891
 31
0.0
  0
LINE
  5
E1
330
19
100
AcDbEntity
  8
4
100
AcDbLine
 10
509.8789253833149
 20
132.6759970406891
 30
0.0
 11
508.8789253833149
 21
132.6759970406891
 31
0.0
  0
LINE
  5
E2
330
19
100
AcDbEntity
  8
4
100
AcDbLine
 10
522.8789253833149
 20
117.1759970406891
 30
0.0
 11
522.8789253833149
 21
114.1759970406891
 31
0.0
  0
LINE
  5
E3
330
19
100
AcDbEntity
  8
4
100
AcDbLine
 10
566.8789253833149
 20
114.1759970406891
 30
0.0
 11
567.8789253833149
 21
113.1759970406891
 31
0.0
  0
LINE
  5
E4
330
19
100
AcDbEntity
  8
4
100
AcDbLine
 10
567.8789253833149
 20
90.17599704068914
 30
0.0
 11
567.8789253833149
 21
117.1759970406891
 31
0.0
  0
LINE
  5
E5
330
19
100
AcDbEntity
  8
4
100
AcDbLine
 10
566.8789253833149
 20
114.1759970406891
 30
0.0
 11
566.8789253833149
 21
89.17599704068914
 31
0.0
  0
LINE
  5
E6
330
19
100
AcDbEntity
  8
4
100
AcDbLine
 10
566.8789253833149
 20
89.17599704068914
 30
0.0
 11
567.8789253833149
 21
90.17599704068914
 31
0.0
  0
LINE
  5
E7
330
19
100
AcDbEntity
  8
4
100
AcDbLine
 10
499.8789253833149
 20
166.6759970406891
 30
0.0
 11
485.8789253833149
 21
166.6759970406891
 31
0.0
  0
LINE
  5
E8
330
19
100
AcDbEntity
  8
4
100
AcDbLine
 10
433.8789253833149
 20
193.3759470406892
 30
0.0
 11
433.8789253833149
 21
192.3759470406892
 31
0.0
  0
LINE
  5
E9
330
19
100
AcDbEntity
  8
4
100
AcDbLine
 10
441.8789253833149
 20
186.0341520406892
 30
0.0
 11
441.8789253833149
 21
192.3759470406892
 31
0.0
  0
ARC
  5
EA
330
19
100
AcDbEntity
  8
4
100
AcDbCircle
 10
443.8789253833149
 20
186.0341520406892
 30
0.0
 40
1.999955
100
AcDbArc
 50
180.0
 51
266.4585729999983
  0
LINE
  5
EB
330
19
100
AcDbEntity
  8
4
100
AcDbLine
 10
485.8789253833149
 20
166.6759970406891
 30
0.0
 11
485.8789253833149
 21
180.3759470406892
 31
0.0
  0
LINE
  5
EC
330
19
100
AcDbEntity
  8
4
100
AcDbLine
 10
467.8789253833149
 20
180.3759470406892
 30
0.0
 11
467.8789253833149
 21
182.3759470406892
 31
0.0
  0
LINE
  5
ED
330
19
100
AcDbEntity
  8
4
100
AcDbLine
 10
502.8789253833149
 20
143.6759970406891
 30
0.0
 11
508.8789253833149
 21
143.675997040689
 31
0.0
  0
ARC
  5
EE
330
19
100
AcDbEntity
  8
4
100
AcDbCircle
 10
499.8789253833149
 20
163.6759970406891
 30
0.0
 40
3.0
100
AcDbArc
 50
0.0
 51
90.0
  0
LINE
  5
F0
330
19
100
AcDbEntity
  8
4
100
AcDbLine
 10
314.3430353833151
 20
300.6759970406893
 30
0.0
 11
300.3430353833151
 21
300.6759970406893
 31
0.0
  0
LINE
  5
F1
330
19
100
AcDbEntity
  8
4
100
AcDbLine
 10
313.3430353833151
 20
301.6759970406893
 30
0.0
 11
277.3430353833151
 21
301.6759970406893
 31
0.0
  0
LINE
  5
F2
330
19
100
AcDbEntity
  8
4
100
AcDbLine
 10
276.3430353833151
 20
300.6759970406893
 30
0.0
 11
290.3430353833151
 21
300.6759970406893
 31
0.0
  0
LINE
  5
F3
330
19
100
AcDbEntity
  8
4
100
AcDbLine
 10
276.3430353833151
 20
300.6759970406893
 30
0.0
 11
277.3430353833151
 21
301.6759970406893
 31
0.0
  0
LINE
  5
F4
330
19
100
AcDbEntity
  8
4
100
AcDbLine
 10
314.3430353833151
 20
300.6759970406893
 30
0.0
 11
313.3430353833151
 21
301.6759970406893
 31
0.0
  0
LINE
  5
FA
330
19
100
AcDbEntity
  8
L-CENTER
 48
2.0
100
AcDbLine
 10
989.10307170131
 20
11.67599704068914
 30
0.0
 11
989.10307170131
 21
56.67599704068914
 31
0.0
  0
LINE
  5
FB
330
19
100
AcDbEntity
  8
4
100
AcDbLine
 10
1009.10307170131
 20
43.67599704068914
 30
0.0
 11
1009.10307170131
 21
21.67599704068914
 31
0.0
  0
LINE
  5
FC
330
19
100
AcDbEntity
  8
4
100
AcDbLine
 10
914.10307170131
 20
50.67599704068914
 30
0.0
 11
914.10307170131
 21
21.67599704068914
 31
0.0
  0
LINE
  5
FD
330
19
100
AcDbEntity
  8
4
100
AcDbLine
 10
774.10307170131
 20
50.67599704068914
 30
0.0
 11
774.10307170131
 21
21.67599704068914
 31
0.0
  0
LINE
  5
FE
330
19
100
AcDbEntity
  8
4
100
AcDbLine
 10
679.10307170131
 20
43.67599704068914
 30
0.0
 11
679.10307170131
 21
21.67599704068914
 31
0.0
  0
LINE
  5
FF
330
19
100
AcDbEntity
  8
L-CENTER
 48
2.0
100
AcDbLine
 10
699.10307170131
 20
11.67599704068914
 30
0.0
 11
699.10307170131
 21
56.67599704068914
 31
0.0
  0
LINE
  5
100
330
19
100
AcDbEntity
  8
L-CENTER
 48
2.0
100
AcDbLine
 10
833.10307170131
 20
305.2959338608267
 30
0.0
 11
833.10307170131
 21
42.09582357745194
 31
0.0
  0
LINE
  5
101
330
19
100
AcDbEntity
  8
4
100
AcDbLine
 10
914.10307170131
 20
21.67599704068914
 30
0.0
 11
1009.10307170131
 21
21.67599704068914
 31
0.0
  0
LINE
  5
102
330
19
100
AcDbEntity
  8
4
100
AcDbLine
 10
679.10307170131
 20
21.67599704068914
 30
0.0
 11
774.10307170131
 21
21.67599704068914
 31
0.0
  0
LINE
  5
103
330
19
100
AcDbEntity
  8
4
100
AcDbLine
 10
926.60307170131
 20
110.175997040689
 30
0.0
 11
919.60307170131
 21
110.175997040689
 31
0.0
  0
LINE
  5
104
330
19
100
AcDbEntity
  8
4
100
AcDbLine
 10
926.60307170131
 20
117.1759970406891
 30
0.0
 11
919.60307170131
 21
117.1759970406891
 31
0.0
  0
ARC
  5
105
330
19
100
AcDbEntity
  8
4
100
AcDbCircle
 10
923.10307170131
 20
101.6759970406891
 30
0.0
 40
12.5
100
AcDbArc
 50
106.2602049999989
 51
73.73979500000115
  0
LINE
  5
106
330
19
100
AcDbEntity
  8
4
100
AcDbLine
 10
929.10307170131
 20
191.0112020406891
 30
0.0
 11
897.10307170131
 21
191.0112020406891
 31
0.0
  0
ARC
  5
107
330
19
100
AcDbEntity
  8
4
100
AcDbCircle
 10
923.10307170131
 20
-56.32400295931086
 30
0.0
 40
199.99999
100
AcDbArc
 50
79.54974499999999
 51
100.450405
  0
ARC
  5
108
330
19
100
AcDbEntity
  8
4
100
AcDbCircle
 10
844.10307170131
 20
-1557.523952959311
 30
0.0
 40
1744.89988
100
AcDbArc
 50
86.1725444520393
 51
89.78656458605974
  0
LINE
  5
109
330
19
100
AcDbEntity
  8
4
100
AcDbLine
 10
976.10307170131
 20
182.3759470406892
 30
0.0
 11
728.3774643639199
 21
182.3759470406892
 31
0.0
  0
LINE
  5
10A
330
19
100
AcDbEntity
  8
4
100
AcDbLine
 10
1008.10307170131
 20
166.6759970406891
 30
0.0
 11
680.10307170131
 21
166.6759970406891
 31
0.0
  0
LINE
  5
10B
330
19
100
AcDbEntity
  8
4
100
AcDbLine
 10
994.10307170131
 20
168.6759970406891
 30
0.0
 11
694.10307170131
 21
168.6759970406891
 31
0.0
  0
LINE
  5
10C
330
19
100
AcDbEntity
  8
4
100
AcDbLine
 10
994.10307170131
 20
180.3759470406892
 30
0.0
 11
694.10307170131
 21
180.3759470406892
 31
0.0
  0
LINE
  5
10D
330
19
100
AcDbEntity
  8
L-CENTER
 48
2.0
100
AcDbLine
 10
872.873780201055
 20
101.6759970406891
 30
0.0
 11
973.332363201565
 21
101.6759970406891
 31
0.0
  0
ARC
  5
10E
330
19
100
AcDbEntity
  8
4
100
AcDbCircle
 10
923.10307170131
 20
259.6759970406893
 30
0.0
 40
199.9999675
100
AcDbArc
 50
259.550171
 51
280.450761
  0
LINE
  5
10F
330
19
100
AcDbEntity
  8
4
100
AcDbLine
 10
1006.10307170131
 20
46.67599704068914
 30
0.0
 11
916.10307170131
 21
46.67599704068914
 31
0.0
  0
CIRCLE
  5
110
330
19
100
AcDbEntity
  8
4
100
AcDbCircle
 10
923.10307170131
 20
101.6759970406891
 30
0.0
 40
31.0
  0
LINE
  5
111
330
19
100
AcDbEntity
  8
4
100
AcDbLine
 10
852.10307170131
 20
300.6759970406893
 30
0.0
 11
852.10307170131
 21
206.6759970406893
 31
0.0
  0
LINE
  5
112
330
19
100
AcDbEntity
  8
4
100
AcDbLine
 10
810.60307170131
 20
211.6759970406893
 30
0.0
 11
810.60307170131
 21
301.6759970406893
 31
0.0
  0
LINE
  5
113
330
19
100
AcDbEntity
  8
4
100
AcDbLine
 10
814.10307170131
 20
300.6759970406893
 30
0.0
 11
814.10307170131
 21
206.6759970406893
 31
0.0
  0
ARC
  5
114
330
19
100
AcDbEntity
  8
4
100
AcDbCircle
 10
844.10307170131
 20
-1557.523952959311
 30
0.0
 40
1744.8999325
100
AcDbArc
 50
90.21343540751846
 51
93.82745543262982
  0
LINE
  5
115
330
19
100
AcDbEntity
  8
4
100
AcDbLine
 10
682.10307170131
 20
46.67599704068914
 30
0.0
 11
772.10307170131
 21
46.67599704068914
 31
0.0
  0
LINE
  5
116
330
19
100
AcDbEntity
  8
4
100
AcDbLine
 10
677.10307170131
 20
163.6759970406891
 30
0.0
 11
677.10307170131
 21
57.67599704068914
 31
0.0
  0
ARC
  5
117
330
19
100
AcDbEntity
  8
4
100
AcDbCircle
 10
686.60307170131
 20
50.67599704068914
 30
0.0
 40
4.0
100
AcDbArc
 50
0.0
 51
90.0
  0
ARC
  5
118
330
19
100
AcDbEntity
  8
4
100
AcDbCircle
 10
680.10307170131
 20
57.67599704068914
 30
0.0
 40
3.0
100
AcDbArc
 50
180.0
 51
270.0
  0
LINE
  5
119
330
19
100
AcDbEntity
  8
4
100
AcDbLine
 10
680.10307170131
 20
54.67599704068914
 30
0.0
 11
686.60307170131
 21
54.67599704068914
 31
0.0
  0
ARC
  5
11A
330
19
100
AcDbEntity
  8
4
100
AcDbCircle
 10
682.10307170131
 20
43.67599704068914
 30
0.0
 40
3.0
100
AcDbArc
 50
90.0
 51
180.0
  0
LINE
  5
11B
330
19
100
AcDbEntity
  8
4
100
AcDbLine
 10
690.60307170131
 20
50.67599704068914
 30
0.0
 11
690.60307170131
 21
46.67599704068914
 31
0.0
  0
ARC
  5
11F
330
19
100
AcDbEntity
  8
4
100
AcDbCircle
 10
680.10307170131
 20
163.6759970406891
 30
0.0
 40
3.0
100
AcDbArc
 50
90.0
 51
180.0
  0
LINE
  5
120
330
19
100
AcDbEntity
  8
4
100
AcDbLine
 10
694.10307170131
 20
166.6759970406891
 30
0.0
 11
694.10307170131
 21
180.3759470406892
 31
0.0
  0
ARC
  5
121
330
19
100
AcDbEntity
  8
4
100
AcDbCircle
 10
844.10307170131
 20
-1557.523952959311
 30
0.0
 40
1744.899895
100
AcDbArc
 50
94.25539046521496
 51
94.33895799999999
  0
LINE
  5
122
330
19
100
AcDbEntity
  8
4
100
AcDbLine
 10
712.10307170131
 20
180.3759470406892
 30
0.0
 11
712.10307170131
 21
182.3759470406892
 31
0.0
  0
LINE
  5
123
330
19
100
AcDbEntity
  8
L-CENTER
 48
2.0
100
AcDbLine
 10
923.10307170131
 20
51.4467055404341
 30
0.0
 11
923.10307170131
 21
151.9052885409442
 31
0.0
  0
ARC
  5
124
330
19
100
AcDbEntity
  8
4
100
AcDbCircle
 10
847.10307170131
 20
142.9748245406892
 30
0.0
 40
3.0
100
AcDbArc
 50
180.0
 51
270.0
  0
ARC
  5
125
330
19
100
AcDbEntity
  8
4
100
AcDbCircle
 10
847.10307170131
 20
60.37716954068912
 30
0.0
 40
3.0
100
AcDbArc
 50
90.0
 51
180.0
  0
LINE
  5
126
330
19
100
AcDbEntity
  8
4
100
AcDbLine
 10
873.10307170131
 20
46.67599704068914
 30
0.0
 11
793.10307170131
 21
46.67599704068914
 31
0.0
  0
LINE
  5
127
330
19
100
AcDbEntity
  8
4
100
AcDbLine
 10
784.10307170131
 20
47.67599704068914
 30
0.0
 11
882.10307170131
 21
47.67599704068914
 31
0.0
  0
LINE
  5
128
330
19
100
AcDbEntity
  8
4
100
AcDbLine
 10
778.10307170131
 20
54.67599704068914
 30
0.0
 11
910.10307170131
 21
54.67599704068914
 31
0.0
  0
ARC
  5
129
330
19
100
AcDbEntity
  8
4
100
AcDbCircle
 10
778.10307170131
 20
50.67599704068914
 30
0.0
 40
4.0
100
AcDbArc
 50
90.0
 51
180.0
  0
ARC
  5
12A
330
19
100
AcDbEntity
  8
4
100
AcDbCircle
 10
772.10307170131
 20
44.67599704068914
 30
0.0
 40
2.0
100
AcDbArc
 50
0.0
 51
90.0
  0
ARC
  5
12B
330
19
100
AcDbEntity
  8
4
100
AcDbCircle
 10
782.10307170131
 20
52.67599704068914
 30
0.0
 40
2.0
100
AcDbArc
 50
0.0
 51
90.0
  0
LINE
  5
12C
330
19
100
AcDbEntity
  8
4
100
AcDbLine
 10
784.10307170131
 20
52.67599704068914
 30
0.0
 11
784.10307170131
 21
47.67599704068914
 31
0.0
  0
LINE
  5
12D
330
19
100
AcDbEntity
  8
4
100
AcDbLine
 10
793.10307170131
 20
46.67599704068914
 30
0.0
 11
793.10307170131
 21
47.67599704068914
 31
0.0
  0
ARC
  5
12E
330
19
100
AcDbEntity
  8
4
100
AcDbCircle
 10
1081.10307170131
 20
101.6759970406891
 30
0.0
 40
200.000045
100
AcDbArc
 50
169.550171
 51
190.4506109999997
  0
ARC
  5
12F
330
19
100
AcDbEntity
  8
4
100
AcDbCircle
 10
887.37089420131
 20
65.9438195406891
 30
0.0
 40
2.999965
100
AcDbArc
 50
190.451225
 51
259.5487749999978
  0
LINE
  5
130
330
19
100
AcDbEntity
  8
4
100
AcDbLine
 10
885.8176717013102
 20
63.37716954068912
 30
0.0
 11
847.10307170131
 21
63.37716954068912
 31
0.0
  0
ARC
  5
131
330
19
100
AcDbEntity
  8
4
100
AcDbCircle
 10
864.10307170131
 20
52.67599704068914
 30
0.0
 40
2.0
100
AcDbArc
 50
90.0
 51
180.0
  0
LINE
  5
132
330
19
100
AcDbEntity
  8
4
100
AcDbLine
 10
862.10307170131
 20
52.67599704068914
 30
0.0
 11
862.10307170131
 21
47.67599704068914
 31
0.0
  0
LINE
  5
133
330
19
100
AcDbEntity
  8
4
100
AcDbLine
 10
873.10307170131
 20
46.67599704068914
 30
0.0
 11
873.10307170131
 21
47.67599704068914
 31
0.0
  0
ARC
  5
134
330
19
100
AcDbEntity
  8
4
100
AcDbCircle
 10
884.10307170131
 20
52.67599704068914
 30
0.0
 40
2.0
100
AcDbArc
 50
90.0
 51
180.0
  0
LINE
  5
135
330
19
100
AcDbEntity
  8
4
100
AcDbLine
 10
882.10307170131
 20
52.67599704068914
 30
0.0
 11
882.10307170131
 21
47.67599704068914
 31
0.0
  0
ARC
  5
136
330
19
100
AcDbEntity
  8
4
100
AcDbCircle
 10
910.10307170131
 20
50.67599704068914
 30
0.0
 40
4.0
100
AcDbArc
 50
0.0
 51
90.0
  0
ARC
  5
137
330
19
100
AcDbEntity
  8
4
100
AcDbCircle
 10
916.10307170131
 20
44.67599704068914
 30
0.0
 40
2.0
100
AcDbArc
 50
90.0
 51
180.0
  0
ARC
  5
138
330
19
100
AcDbEntity
  8
4
100
AcDbCircle
 10
887.37089420131
 20
137.4081745406892
 30
0.0
 40
2.999965
100
AcDbArc
 50
100.4512250000024
 51
169.548775
  0
LINE
  5
139
330
19
100
AcDbEntity
  8
4
100
AcDbLine
 10
885.8176717013102
 20
139.9748245406892
 30
0.0
 11
847.10307170131
 21
139.9748245406892
 31
0.0
  0
LINE
  5
13A
330
19
100
AcDbEntity
  8
4
100
AcDbLine
 10
919.60307170131
 20
117.1759970406891
 30
0.0
 11
919.60307170131
 21
110.175997040689
 31
0.0
  0
LINE
  5
13B
330
19
100
AcDbEntity
  8
4
100
AcDbLine
 10
813.10307170131
 20
206.6759970406893
 30
0.0
 11
853.10307170131
 21
206.6759970406893
 31
0.0
  0
LINE
  5
13C
330
19
100
AcDbEntity
  8
4
100
AcDbLine
 10
873.10307170131
 20
193.3759470406892
 30
0.0
 11
793.10307170131
 21
193.3759470406892
 31
0.0
  0
LINE
  5
13D
330
19
100
AcDbEntity
  8
4
100
AcDbLine
 10
784.10307170131
 20
192.3759470406892
 30
0.0
 11
882.10307170131
 21
192.3759470406892
 31
0.0
  0
LINE
  5
13E
330
19
100
AcDbEntity
  8
4
100
AcDbLine
 10
813.10307170131
 20
206.6759970406893
 30
0.0
 11
813.10307170131
 21
193.3759470406892
 31
0.0
  0
LINE
  5
13F
330
19
100
AcDbEntity
  8
L-CENTER
 48
2.0
100
AcDbLine
 10
823.10307170131
 20
42.09582357745194
 30
0.0
 11
823.10307170131
 21
197.5298871696398
 31
0.0
  0
ARC
  5
140
330
19
100
AcDbEntity
  8
4
100
AcDbCircle
 10
781.10307170131
 20
189.2402070406893
 30
0.0
 40
2.9999975
100
AcDbArc
 50
272.0660389999939
 51
0.0
  0
LINE
  5
141
330
19
100
AcDbEntity
  8
4
100
AcDbLine
 10
784.10307170131
 20
192.3759470406892
 30
0.0
 11
784.10307170131
 21
189.2402070406893
 31
0.0
  0
LINE
  5
142
330
19
100
AcDbEntity
  8
4
100
AcDbLine
 10
793.10307170131
 20
192.3759470406892
 30
0.0
 11
793.10307170131
 21
193.3759470406892
 31
0.0
  0
LINE
  5
143
330
19
100
AcDbEntity
  8
L-CENTER
 48
2.0
100
AcDbLine
 10
844.10307170131
 20
197.5298871696398
 30
0.0
 11
844.10307170131
 21
42.09582357745194
 31
0.0
  0
LINE
  5
144
330
19
100
AcDbEntity
  8
4
100
AcDbLine
 10
814.10307170131
 20
211.6759970406893
 30
0.0
 11
810.60307170131
 21
211.6759970406893
 31
0.0
  0
LINE
  5
145
330
19
100
AcDbEntity
  8
4
100
AcDbLine
 10
853.10307170131
 20
206.6759970406893
 30
0.0
 11
853.10307170131
 21
193.3759470406892
 31
0.0
  0
ARC
  5
146
330
19
100
AcDbEntity
  8
4
100
AcDbCircle
 10
865.10307170131
 20
190.2497270406891
 30
0.0
 40
2.9999875
100
AcDbArc
 50
180.0
 51
269.3098880000011
  0
LINE
  5
147
330
19
100
AcDbEntity
  8
4
100
AcDbLine
 10
854.10307170131
 20
192.3759470406892
 30
0.0
 11
854.10307170131
 21
193.3759470406892
 31
0.0
  0
LINE
  5
148
330
19
100
AcDbEntity
  8
4
100
AcDbLine
 10
862.10307170131
 20
192.3759470406892
 30
0.0
 11
862.10307170131
 21
190.2497270406891
 31
0.0
  0
ARC
  5
149
330
19
100
AcDbEntity
  8
4
100
AcDbCircle
 10
885.10307170131
 20
189.8713095406893
 30
0.0
 40
2.999945
100
AcDbArc
 50
180.0
 51
261.4663818739903
  0
LINE
  5
14A
330
19
100
AcDbEntity
  8
4
100
AcDbLine
 10
873.10307170131
 20
192.3759470406892
 30
0.0
 11
873.10307170131
 21
193.3759470406892
 31
0.0
  0
LINE
  5
14B
330
19
100
AcDbEntity
  8
4
100
AcDbLine
 10
882.10307170131
 20
192.3759470406892
 30
0.0
 11
882.10307170131
 21
189.8713095406893
 31
0.0
  0
ARC
  5
14C
330
19
100
AcDbEntity
  8
4
100
AcDbCircle
 10
893.10307170131
 20
188.6886920406891
 30
0.0
 40
2.0000275
100
AcDbArc
 50
268.3911970000077
 51
0.0
  0
LINE
  5
14D
330
19
100
AcDbEntity
  8
4
100
AcDbLine
 10
895.10307170131
 20
189.0112020406891
 30
0.0
 11
895.10307170131
 21
188.6886920406891
 31
0.0
  0
LINE
  5
14E
330
19
100
AcDbEntity
  8
4
100
AcDbLine
 10
814.10307170131
 20
300.6759970406893
 30
0.0
 11
852.10307170131
 21
300.6759970406893
 31
0.0
  0
LINE
  5
14F
330
19
100
AcDbEntity
  8
4
100
AcDbLine
 10
810.60307170131
 20
301.6759970406893
 30
0.0
 11
851.10307170131
 21
301.6759970406893
 31
0.0
  0
LINE
  5
150
330
19
100
AcDbEntity
  8
4
100
AcDbLine
 10
814.10307170131
 20
300.6759970406893
 30
0.0
 11
815.10307170131
 21
301.6759970406893
 31
0.0
  0
LINE
  5
151
330
19
100
AcDbEntity
  8
4
100
AcDbLine
 10
851.10307170131
 20
301.6759970406893
 30
0.0
 11
852.10307170131
 21
300.6759970406893
 31
0.0
  0
LINE
  5
152
330
19
100
AcDbEntity
  8
4
100
AcDbLine
 10
1019.10307170131
 20
124.6759970406891
 30
0.0
 11
1019.10307170131
 21
154.6759970406891
 31
0.0
  0
LINE
  5
153
330
19
100
AcDbEntity
  8
4
100
AcDbLine
 10
1015.60307170131
 20
124.6759970406891
 30
0.0
 11
1015.60307170131
 21
154.6759970406891
 31
0.0
  0
LINE
  5
154
330
19
100
AcDbEntity
  8
4
100
AcDbLine
 10
1014.10307170131
 20
126.6759970406891
 30
0.0
 11
1014.10307170131
 21
155.6759970406891
 31
0.0
  0
LINE
  5
155
330
19
100
AcDbEntity
  8
4
100
AcDbLine
 10
1011.10307170131
 20
163.6759970406891
 30
0.0
 11
1011.10307170131
 21
57.67599704068914
 31
0.0
  0
ARC
  5
156
330
19
100
AcDbEntity
  8
4
100
AcDbCircle
 10
1001.60307170131
 20
50.67599704068914
 30
0.0
 40
4.0
100
AcDbArc
 50
90.0
 51
180.0
  0
ARC
  5
157
330
19
100
AcDbEntity
  8
4
100
AcDbCircle
 10
765.10307170131
 20
101.6759970406891
 30
0.0
 40
200.000085
100
AcDbArc
 50
349.550458
 51
10.45025499999999
  0
ARC
  5
158
330
19
100
AcDbEntity
  8
4
100
AcDbCircle
 10
958.83524920131
 20
65.9438195406891
 30
0.0
 40
2.999965
100
AcDbArc
 50
280.4512250000022
 51
349.5487749999987
  0
LINE
  5
159
330
19
100
AcDbEntity
  8
4
100
AcDbLine
 10
997.60307170131
 20
50.67599704068914
 30
0.0
 11
997.60307170131
 21
46.67599704068914
 31
0.0
  0
ARC
  5
15A
330
19
100
AcDbEntity
  8
4
100
AcDbCircle
 10
958.83524920131
 20
137.4081745406892
 30
0.0
 40
2.999965
100
AcDbArc
 50
10.45122499999994
 51
79.54877499999759
  0
LINE
  5
15B
330
19
100
AcDbEntity
  8
4
100
AcDbLine
 10
926.60307170131
 20
117.1759970406891
 30
0.0
 11
926.60307170131
 21
110.175997040689
 31
0.0
  0
LINE
  5
15C
330
19
100
AcDbEntity
  8
4
100
AcDbLine
 10
1013.10307170131
 20
57.67599704068914
 30
0.0
 11
1013.10307170131
 21
101.6759970406891
 31
0.0
  0
ARC
  5
15D
330
19
100
AcDbEntity
  8
4
100
AcDbCircle
 10
1010.10307170131
 20
57.67599704068914
 30
0.0
 40
3.0
100
AcDbArc
 50
270.0
 51
0.0
  0
ARC
  5
15E
330
19
100
AcDbEntity
  8
4
100
AcDbCircle
 10
1008.10307170131
 20
57.67599704068914
 30
0.0
 40
3.0
100
AcDbArc
 50
270.0
 51
0.0
  0
LINE
  5
15F
330
19
100
AcDbEntity
  8
4
100
AcDbLine
 10
1008.10307170131
 20
54.67599704068908
 30
0.0
 11
1010.10307170131
 21
54.67599704068914
 31
0.0
  0
ARC
  5
160
330
19
100
AcDbEntity
  8
4
100
AcDbCircle
 10
1006.10307170131
 20
43.67599704068914
 30
0.0
 40
3.0
100
AcDbArc
 50
0.0
 51
90.0
  0
LINE
  5
161
330
19
100
AcDbEntity
  8
4
100
AcDbLine
 10
1008.10307170131
 20
54.67599704068914
 30
0.0
 11
1001.60307170131
 21
54.67599704068914
 31
0.0
  0
LINE
  5
162
330
19
100
AcDbEntity
  8
4
100
AcDbLine
 10
1015.10307170131
 20
63.67599704068914
 30
0.0
 11
1015.10307170131
 21
79.67599704068914
 31
0.0
  0
LINE
  5
163
330
19
100
AcDbEntity
  8
4
100
AcDbLine
 10
1013.10307170131
 20
63.67599704068914
 30
0.0
 11
1015.10307170131
 21
63.67599704068914
 31
0.0
  0
LINE
  5
164
330
19
100
AcDbEntity
  8
L-CENTER
 48
2.0
100
AcDbLine
 10
1017.08367670131
 20
71.67599704068914
 30
0.0
 11
996.5572301490083
 21
71.67599704068914
 31
0.0
  0
LINE
  5
165
330
19
100
AcDbEntity
  8
4
100
AcDbLine
 10
1013.10307170131
 20
79.67599704068914
 30
0.0
 11
1015.10307170131
 21
79.67599704068914
 31
0.0
  0
LINE
  5
166
330
19
100
AcDbEntity
  8
4
100
AcDbLine
 10
1015.10307170131
 20
101.6759970406891
 30
0.0
 11
1015.10307170131
 21
126.6759970406891
 31
0.0
  0
LINE
  5
167
330
19
100
AcDbEntity
  8
4
100
AcDbLine
 10
1013.10307170131
 20
101.6759970406891
 30
0.0
 11
1015.10307170131
 21
101.6759970406891
 31
0.0
  0
LINE
  5
168
330
19
100
AcDbEntity
  8
L-CENTER
 48
2.0
100
AcDbLine
 10
1021.09550420131
 20
139.6759970406891
 30
0.0
 11
995.892655295529
 21
139.6759970406891
 31
0.0
  0
LINE
  5
169
330
19
100
AcDbEntity
  8
4
100
AcDbLine
 10
1014.10307170131
 20
126.6759970406891
 30
0.0
 11
1015.10307170131
 21
126.6759970406891
 31
0.0
  0
LINE
  5
16A
330
19
100
AcDbEntity
  8
4
100
AcDbLine
 10
1019.10307170131
 20
124.6759970406891
 30
0.0
 11
1015.10307170131
 21
124.6759970406891
 31
0.0
  0
LINE
  5
16B
330
19
100
AcDbEntity
  8
4
100
AcDbLine
 10
1019.10307170131
 20
132.1759970406891
 30
0.0
 11
1015.60307170131
 21
132.1759970406891
 31
0.0
  0
ARC
  5
16C
330
19
100
AcDbEntity
  8
4
100
AcDbCircle
 10
933.10307170131
 20
187.1073920406891
 30
0.0
 40
1.9999525
100
AcDbArc
 50
180.0
 51
267.082047000002
  0
LINE
  5
16D
330
19
100
AcDbEntity
  8
4
100
AcDbLine
 10
931.10307170131
 20
189.0112020406891
 30
0.0
 11
931.10307170131
 21
187.1073920406891
 31
0.0
  0
LINE
  5
16E
330
19
100
AcDbEntity
  8
4
100
AcDbLine
 10
994.10307170131
 20
166.6759970406891
 30
0.0
 11
994.10307170131
 21
180.3759470406892
 31
0.0
  0
ARC
  5
16F
330
19
100
AcDbEntity
  8
4
100
AcDbCircle
 10
844.10307170131
 20
-1557.523952959311
 30
0.0
 40
1744.899895
100
AcDbArc
 50
85.661501
 51
85.74460953478504
  0
LINE
  5
170
330
19
100
AcDbEntity
  8
4
100
AcDbLine
 10
976.10307170131
 20
180.3759470406892
 30
0.0
 11
976.10307170131
 21
182.3759470406892
 31
0.0
  0
LINE
  5
171
330
19
100
AcDbEntity
  8
4
100
AcDbLine
 10
1019.10307170131
 20
154.6759970406891
 30
0.0
 11
1014.10307170131
 21
154.6759970406891
 31
0.0
  0
LINE
  5
172
330
19
100
AcDbEntity
  8
4
100
AcDbLine
 10
1011.10307170131
 20
155.6759970406891
 30
0.0
 11
1014.10307170131
 21
155.6759970406891
 31
0.0
  0
LINE
  5
173
330
19
100
AcDbEntity
  8
4
100
AcDbLine
 10
1015.60307170131
 20
147.1759970406891
 30
0.0
 11
1019.10307170131
 21
147.1759970406891
 31
0.0
  0
ARC
  5
174
330
19
100
AcDbEntity
  8
4
100
AcDbCircle
 10
1008.10307170131
 20
163.6759970406891
 30
0.0
 40
3.0
100
AcDbArc
 50
0.0
 51
90.0
  0
LINE
  5
175
330
19
100
AcDbEntity
  8
4
100
AcDbLine
 10
502.8790353833149
 20
634.3779149780647
 30
0.0
 11
502.8790353833149
 21
671.3779149780648
 31
0.0
  0
LINE
  5
176
330
19
100
AcDbEntity
  8
4
100
AcDbLine
 10
168.8790353833149
 20
634.3779149780647
 30
0.0
 11
168.8790353833149
 21
671.3779149780648
 31
0.0
  0
LINE
  5
177
330
19
100
AcDbEntity
  8
L-CENTER
 48
2.0
100
AcDbLine
 10
295.3430353833148
 20
566.5216639547156
 30
0.0
 11
295.3430353833148
 21
680.234166001414
 31
0.0
  0
LINE
  5
178
330
19
100
AcDbEntity
  8
L-CENTER
 48
2.0
100
AcDbLine
 10
402.8790353833149
 20
563.7827381686574
 30
0.0
 11
402.8790353833149
 21
662.9730917874717
 31
0.0
  0
LINE
  5
179
330
19
100
AcDbEntity
  8
L-CENTER
 48
2.0
100
AcDbLine
 10
335.8790353833149
 20
457.4343851479847
 30
0.0
 11
335.8790353833149
 21
820.9725335722646
 31
0.0
  0
CIRCLE
  5
17A
330
19
100
AcDbEntity
  8
4
100
AcDbCircle
 10
335.8790353833149
 20
634.3779149780647
 30
0.0
 40
150.0
  0
CIRCLE
  5
17B
330
19
100
AcDbEntity
  8
4
100
AcDbCircle
 10
335.8790353833149
 20
634.3779149780647
 30
0.0
 40
167.0
  0
LINE
  5
17C
330
19
100
AcDbEntity
  8
L-CENTER
 48
2.0
100
AcDbLine
 10
452.474212192722
 20
613.3779149780647
 30
0.0
 11
353.2838585739078
 21
613.3779149780647
 31
0.0
  0
CIRCLE
  5
17D
330
19
100
AcDbEntity
  8
4
100
AcDbCircle
 10
208.3790353833149
 20
489.3779149780647
 30
0.0
 40
9.0
  0
LINE
  5
17E
330
19
100
AcDbEntity
  8
L-CENTER
 48
2.0
100
AcDbLine
 10
208.3790353833149
 20
473.559500481669
 30
0.0
 11
208.3790353833149
 21
505.9920378740743
 31
0.0
  0
LINE
  5
17F
330
19
100
AcDbEntity
  8
4
100
AcDbLine
 10
178.3790353833149
 20
472.3779149780647
 30
0.0
 11
178.3790353833149
 21
561.3779149780647
 31
0.0
  0
LINE
  5
180
330
19
100
AcDbEntity
  8
4
100
AcDbLine
 10
246.3516130748687
 20
469.3779149780645
 30
0.0
 11
181.3790353833149
 21
469.3779149780647
 31
0.0
  0
ARC
  5
181
330
19
100
AcDbEntity
  8
4
100
AcDbCircle
 10
181.3790353833149
 20
472.3779149780647
 30
0.0
 40
3.0
100
AcDbArc
 50
180.0
 51
270.0
  0
LINE
  5
182
330
19
100
AcDbEntity
  8
4
100
AcDbLine
 10
263.3790353833149
 20
483.9360657472074
 30
0.0
 11
249.8339070967074
 21
470.7899310949534
 31
0.0
  0
ARC
  5
183
330
19
100
AcDbEntity
  8
4
100
AcDbCircle
 10
246.3516130748687
 20
474.3779149780645
 30
0.0
 40
5.0
100
AcDbArc
 50
270.0
 51
314.1435793505946
  0
LINE
  5
184
330
19
100
AcDbEntity
  8
L-CENTER
 48
2.0
100
AcDbLine
 10
352.199286406664
 20
623.3779149780647
 30
0.0
 11
238.4867843599657
 21
623.3779149780647
 31
0.0
  0
ARC
  5
185
330
19
100
AcDbEntity
  8
4
100
AcDbCircle
 10
181.3790353833149
 20
561.3779149780647
 30
0.0
 40
3.0
100
AcDbArc
 50
90.0
 51
180.0
  0
LINE
  5
186
330
19
100
AcDbEntity
  8
L-CENTER
 48
2.0
100
AcDbLine
 10
227.4174553688229
 20
489.3779149780647
 30
0.0
 11
190.325331844346
 21
489.3779149780647
 31
0.0
  0
LINE
  5
187
330
19
100
AcDbEntity
  8
4
100
AcDbLine
 10
184.2577967655013
 20
564.3779149780647
 30
0.0
 11
181.3790353833149
 21
564.3779149780647
 31
0.0
  0
LINE
  5
188
330
19
100
AcDbEntity
  8
L-CENTER
 48
2.0
100
AcDbLine
 10
463.3790353833149
 20
473.559500481669
 30
0.0
 11
463.3790353833149
 21
505.9920378740743
 31
0.0
  0
LINE
  5
189
330
19
100
AcDbEntity
  8
4
100
AcDbLine
 10
493.3790353833149
 20
472.3779149780645
 30
0.0
 11
493.3790353833149
 21
561.3779149780647
 31
0.0
  0
CIRCLE
  5
18A
330
19
100
AcDbEntity
  8
4
100
AcDbCircle
 10
463.3790353833149
 20
489.3779149780647
 30
0.0
 40
9.0
  0
LINE
  5
18B
330
19
100
AcDbEntity
  8
4
100
AcDbLine
 10
490.3790353833149
 20
469.3779149780645
 30
0.0
 11
425.406457691761
 21
469.3779149780647
 31
0.0
  0
LINE
  5
18C
330
19
100
AcDbEntity
  8
4
100
AcDbLine
 10
408.3790353833149
 20
483.9360657472074
 30
0.0
 11
421.9241636699223
 21
470.7899310949537
 31
0.0
  0
ARC
  5
18D
330
19
100
AcDbEntity
  8
4
100
AcDbCircle
 10
425.406457691761
 20
474.3779149780647
 30
0.0
 40
5.0
100
AcDbArc
 50
225.8564206494054
 51
270.0
  0
ARC
  5
18E
330
19
100
AcDbEntity
  8
4
100
AcDbCircle
 10
490.3790353833149
 20
472.3779149780645
 30
0.0
 40
3.0
100
AcDbArc
 50
270.0
 51
0.0
  0
LINE
  5
18F
330
19
100
AcDbEntity
  8
L-CENTER
 48
2.0
100
AcDbLine
 10
444.3406153978069
 20
489.3779149780647
 30
0.0
 11
481.4327389222838
 21
489.3779149780647
 31
0.0
  0
ARC
  5
190
330
19
100
AcDbEntity
  8
4
100
AcDbCircle
 10
490.3790353833149
 20
561.3779149780647
 30
0.0
 40
3.0
100
AcDbArc
 50
0.0
 51
90.0
  0
LINE
  5
191
330
19
100
AcDbEntity
  8
4
100
AcDbLine
 10
490.3790353833149
 20
564.3779149780647
 30
0.0
 11
487.5002740011284
 21
564.3779149780647
 31
0.0
  0
LINE
  5
192
330
19
100
AcDbEntity
  8
4
100
AcDbLine
 10
319.8790353833149
 20
805.3779149780644
 30
0.0
 11
351.8790353833153
 21
805.3779149780644
 31
0.0
  0
LINE
  5
193
330
19
100
AcDbEntity
  8
4
100
AcDbLine
 10
319.8790353833149
 20
804.3779149780644
 30
0.0
 11
351.8790353833153
 21
804.3779149780648
 31
0.0
  0
LINE
  5
194
330
19
100
AcDbEntity
  8
L-CENTER
 48
2.0
100
AcDbLine
 10
100.7625153502029
 20
713.3779149780648
 30
0.0
 11
570.9955554164269
 21
713.3779149780648
 31
0.0
  0
CIRCLE
  5
195
330
19
100
AcDbEntity
  8
4
100
AcDbCircle
 10
208.3790353833149
 20
779.3779149780644
 30
0.0
 40
9.0
  0
LINE
  5
196
330
19
100
AcDbEntity
  8
4
100
AcDbLine
 10
178.3790353833153
 20
755.3779149780644
 30
0.0
 11
178.3790353833149
 21
796.3779149780644
 31
0.0
  0
LINE
  5
197
330
19
100
AcDbEntity
  8
L-CENTER
 48
2.0
100
AcDbLine
 10
208.3790353833144
 20
762.804780876434
 30
0.0
 11
208.3790353833149
 21
795.2373182688398
 31
0.0
  0
LINE
  5
198
330
19
100
AcDbEntity
  8
4
100
AcDbLine
 10
162.8790353833149
 20
755.3779149780644
 30
0.0
 11
162.8790353833153
 21
671.3779149780648
 31
0.0
  0
LINE
  5
199
330
19
100
AcDbEntity
  8
4
100
AcDbLine
 10
173.0294114967367
 20
671.3779149780648
 30
0.0
 11
162.8790353833153
 21
671.3779149780648
 31
0.0
  0
LINE
  5
19A
330
19
100
AcDbEntity
  8
4
100
AcDbLine
 10
220.7790788238096
 20
755.3779149780648
 30
0.0
 11
162.8790353833149
 21
755.3779149780644
 31
0.0
  0
LINE
  5
19B
330
19
100
AcDbEntity
  8
L-CENTER
 48
2.0
100
AcDbLine
 10
225.4303783891976
 20
779.3779149780644
 30
0.0
 11
190.325331844346
 21
779.3779149780644
 31
0.0
  0
LINE
  5
19C
330
19
100
AcDbEntity
  8
4
100
AcDbLine
 10
246.3516130748692
 20
799.3779149780644
 30
0.0
 11
181.3790353833149
 21
799.3779149780644
 31
0.0
  0
ARC
  5
19D
330
19
100
AcDbEntity
  8
4
100
AcDbCircle
 10
181.3790353833149
 20
796.3779149780644
 30
0.0
 40
3.0
100
AcDbArc
 50
90.0
 51
180.0
  0
LINE
  5
19E
330
19
100
AcDbEntity
  8
4
100
AcDbLine
 10
263.3790353833149
 20
784.8197642089217
 30
0.0
 11
249.8339070967079
 21
797.9658988611754
 31
0.0
  0
ARC
  5
19F
330
19
100
AcDbEntity
  8
4
100
AcDbCircle
 10
246.3516130748692
 20
794.3779149780644
 30
0.0
 40
5.0
100
AcDbArc
 50
45.85642064940539
 51
90.0
  0
LINE
  5
1A0
330
19
100
AcDbEntity
  8
4
100
AcDbLine
 10
319.8790353833149
 20
800.6096808954126
 30
0.0
 11
319.8790353833149
 21
805.3779149780644
 31
0.0
  0
LINE
  5
1A1
330
19
100
AcDbEntity
  8
4
100
AcDbLine
 10
346.8790353833149
 20
801.0152457296103
 30
0.0
 11
346.8790353833149
 21
804.3779149780644
 31
0.0
  0
LINE
  5
1A2
330
19
100
AcDbEntity
  8
4
100
AcDbLine
 10
324.8790353833149
 20
801.0152457296103
 30
0.0
 11
324.8790353833149
 21
804.3779149780644
 31
0.0
  0
LINE
  5
1A3
330
19
100
AcDbEntity
  8
L-CENTER
 48
2.0
100
AcDbLine
 10
463.3790353833153
 20
762.804780876434
 30
0.0
 11
463.3790353833149
 21
795.2373182688398
 31
0.0
  0
LINE
  5
1A4
330
19
100
AcDbEntity
  8
4
100
AcDbLine
 10
493.3790353833153
 20
755.3779149780644
 30
0.0
 11
493.3790353833149
 21
796.3779149780644
 31
0.0
  0
CIRCLE
  5
1A5
330
19
100
AcDbEntity
  8
4
100
AcDbCircle
 10
463.3790353833149
 20
779.3779149780644
 30
0.0
 40
9.0
  0
LINE
  5
1A6
330
19
100
AcDbEntity
  8
L-CENTER
 48
2.0
100
AcDbLine
 10
446.3276923774322
 20
779.3779149780644
 30
0.0
 11
481.4327389222838
 21
779.3779149780644
 31
0.0
  0
LINE
  5
1A7
330
19
100
AcDbEntity
  8
4
100
AcDbLine
 10
450.9789919428201
 20
755.3779149780648
 30
0.0
 11
508.8790353833149
 21
755.3779149780644
 31
0.0
  0
LINE
  5
1A8
330
19
100
AcDbEntity
  8
4
100
AcDbLine
 10
508.8790353833149
 20
755.3779149780644
 30
0.0
 11
508.8790353833144
 21
671.3779149780648
 31
0.0
  0
LINE
  5
1A9
330
19
100
AcDbEntity
  8
4
100
AcDbLine
 10
498.7286592698931
 20
671.3779149780648
 30
0.0
 11
508.8790353833144
 21
671.3779149780648
 31
0.0
  0
LINE
  5
1AA
330
19
100
AcDbEntity
  8
4
100
AcDbLine
 10
490.3790353833149
 20
799.3779149780644
 30
0.0
 11
425.406457691761
 21
799.3779149780648
 31
0.0
  0
LINE
  5
1AB
330
19
100
AcDbEntity
  8
4
100
AcDbLine
 10
408.3790353833149
 20
784.8197642089217
 30
0.0
 11
421.9241636699219
 21
797.9658988611759
 31
0.0
  0
LINE
  5
1AC
330
19
100
AcDbEntity
  8
4
100
AcDbLine
 10
351.8790353833149
 20
800.6096808954126
 30
0.0
 11
351.8790353833149
 21
805.3779149780644
 31
0.0
  0
ARC
  5
1AD
330
19
100
AcDbEntity
  8
4
100
AcDbCircle
 10
425.406457691761
 20
794.3779149780648
 30
0.0
 40
5.0
100
AcDbArc
 50
90.0
 51
134.1435793505946
  0
ARC
  5
1AE
330
19
100
AcDbEntity
  8
4
100
AcDbCircle
 10
490.3790353833149
 20
796.3779149780644
 30
0.0
 40
3.0
100
AcDbArc
 50
0.0
 51
90.0
  0
ARC
  5
1AF
330
19
100
AcDbEntity
  8
4
100
AcDbCircle
 10
335.8790353833147
 20
241.3779149780645
 30
0.0
 40
450.0
100
AcDbArc
 50
73.72418214356303
 51
88.31403983653507
  0
ARC
  5
1B0
330
19
100
AcDbEntity
  8
4
100
AcDbCircle
 10
335.8790353833149
 20
1005.377914978065
 30
0.0
 40
450.0
100
AcDbArc
 50
255.1294095303705
 51
268.3140398365354
  0
ARC
  5
1B1
330
19
100
AcDbEntity
  8
4
100
AcDbCircle
 10
335.8790353833149
 20
1005.377914978065
 30
0.0
 40
450.0
100
AcDbArc
 50
271.6859601634647
 51
284.8705904696295
  0
CIRCLE
  5
1B2
330
19
100
AcDbEntity
  8
4
100
AcDbCircle
 10
402.8790353833147
 20
613.3779149780647
 30
0.0
 40
31.0
  0
CIRCLE
  5
1B3
330
19
100
AcDbEntity
  8
4
100
AcDbCircle
 10
402.8790353833147
 20
613.3779149780647
 30
0.0
 40
39.0
  0
CIRCLE
  5
1B4
330
19
100
AcDbEntity
  8
4
100
AcDbCircle
 10
335.8790353833149
 20
634.3779149780647
 30
0.0
 40
132.0
  0
CIRCLE
  5
1B5
330
19
100
AcDbEntity
  8
L-CENTER
 48
2.0
100
AcDbCircle
 10
335.8790353833151
 20
634.3779149780647
 30
0.0
 40
142.0
  0
LINE
  5
1B6
330
19
100
AcDbEntity
  8
L-CENTER
 48
2.0
100
AcDbLine
 10
272.3790353833147
 20
524.3926886974408
 30
0.0
 11
257.3790353833151
 21
498.411926583908
 31
0.0
  0
CIRCLE
  5
1B7
330
19
100
AcDbEntity
  8
4
100
AcDbCircle
 10
295.3429949131544
 20
623.3779149780647
 30
0.0
 40
40.0
  0
CIRCLE
  5
1B8
330
19
100
AcDbEntity
  8
4
100
AcDbCircle
 10
295.3429949131544
 20
623.3779149780647
 30
0.0
 40
49.0
  0
ARC
  5
1B9
330
19
100
AcDbEntity
  8
4
100
AcDbCircle
 10
335.8790353833147
 20
241.3779149780645
 30
0.0
 40
450.0
100
AcDbArc
 50
91.6859601634648
 51
106.2758178564369
  0
CIRCLE
  5
1BA
330
19
100
AcDbEntity
  8
4
100
AcDbCircle
 10
335.8790353833151
 20
703.3779149780648
 30
0.0
 40
18.0
  0
LINE
  5
1BB
330
19
100
AcDbEntity
  8
L-CENTER
 48
2.0
100
AcDbLine
 10
512.8225652133949
 20
634.3779149780647
 30
0.0
 11
158.9355055532351
 21
634.3779149780647
 31
0.0
  0
LINE
  5
1BC
330
19
100
AcDbEntity
  8
L-CENTER
 48
2.0
100
AcDbLine
 10
721.1274643639199
 20
193.737355058608
 30
0.0
 11
721.1274643639199
 21
159.0573434428064
 31
0.0
  0
LINE
  5
1BD
330
19
100
AcDbEntity
  8
L-CENTER
 48
2.0
100
AcDbLine
 10
193.8790353833151
 20
193.737355058608
 30
0.0
 11
193.8790353833151
 21
159.0573434428064
 31
0.0
  0
LINE
  5
1BE
330
19
100
AcDbEntity
  8
L-CENTER
 48
2.0
100
AcDbLine
 10
264.8790353833151
 20
193.737355058608
 30
0.0
 11
264.8790353833151
 21
159.0573434428064
 31
0.0
  0
LINE
  5
1BF
330
19
100
AcDbEntity
  8
4
100
AcDbLine
 10
713.8774643639199
 20
182.3759470406892
 30
0.0
 11
712.10307170131
 21
182.3759470406892
 31
0.0
  0
ARC
  5
1C0
330
19
100
AcDbEntity
  8
4
100
AcDbCircle
 10
295.3430353833148
 20
623.3779149780647
 30
0.0
 40
19.0
100
AcDbArc
 50
285.2575232904563
 51
254.7424800000001
  0
LINE
  5
1C1
330
19
100
AcDbEntity
  8
4
100
AcDbLine
 10
300.3430353833148
 20
600.8779149780647
 30
0.0
 11
300.3430353833148
 21
608.8779149780647
 31
0.0
  0
LINE
  5
1C2
330
19
100
AcDbEntity
  8
4
100
AcDbLine
 10
290.3430353833148
 20
608.8779149780647
 30
0.0
 11
300.3430353833148
 21
608.8779149780647
 31
0.0
  0
LINE
  5
1C3
330
19
100
AcDbEntity
  8
4
100
AcDbLine
 10
290.3430353833148
 20
600.8779149780647
 30
0.0
 11
300.3430353833148
 21
600.8779149780647
 31
0.0
  0
LINE
  5
1C4
330
19
100
AcDbEntity
  8
4
100
AcDbLine
 10
290.3430353833148
 20
600.8779149780647
 30
0.0
 11
290.3430353833148
 21
608.8779149780647
 31
0.0
  0
LINE
  5
1C5
330
19
100
AcDbEntity
  8
4
100
AcDbLine
 10
348.8694164400815
 20
813.8779149780644
 30
0.0
 11
322.8886543265482
 21
813.8779149780644
 31
0.0
  0
LINE
  5
1C6
330
19
100
AcDbEntity
  8
4
100
AcDbLine
 10
349.8790353833149
 20
805.3779149780644
 30
0.0
 11
321.8790353833149
 21
805.3779149780644
 31
0.0
  0
LINE
  5
1C7
330
19
100
AcDbEntity
  8
4
100
AcDbLine
 10
350.8790353833149
 20
808.8779149780644
 30
0.0
 11
320.8790353833149
 21
808.8779149780644
 31
0.0
  0
LINE
  5
1C8
330
19
100
AcDbEntity
  8
4
100
AcDbLine
 10
350.8790353833149
 20
806.8779149780644
 30
0.0
 11
320.8790353833149
 21
806.8779149780644
 31
0.0
  0
LINE
  5
1C9
330
19
100
AcDbEntity
  8
4
100
AcDbLine
 10
350.8790353833149
 20
806.8779149780644
 30
0.0
 11
350.8790353833149
 21
808.8779149780644
 31
0.0
  0
LINE
  5
1CA
330
19
100
AcDbEntity
  8
4
100
AcDbLine
 10
349.8790353833149
 20
806.8779149780644
 30
0.0
 11
349.8790353833149
 21
805.3779149780644
 31
0.0
  0
LINE
  5
1CB
330
19
100
AcDbEntity
  8
4
100
AcDbLine
 10
348.8694164400815
 20
813.8779149780644
 30
0.0
 11
348.8694164400815
 21
808.8779149780644
 31
0.0
  0
LINE
  5
1CC
330
19
100
AcDbEntity
  8
4
100
AcDbLine
 10
320.8790353833149
 20
808.8779149780644
 30
0.0
 11
320.8790353833149
 21
806.8779149780644
 31
0.0
  0
LINE
  5
1CD
330
19
100
AcDbEntity
  8
4
100
AcDbLine
 10
321.8790353833149
 20
806.8779149780644
 30
0.0
 11
321.8790353833149
 21
805.3779149780644
 31
0.0
  0
LINE
  5
1CE
330
19
100
AcDbEntity
  8
4
100
AcDbLine
 10
322.8886543265482
 20
813.8779149780644
 30
0.0
 11
322.8886543265482
 21
808.8779149780644
 31
0.0
  0
LINE
  5
1CF
330
19
100
AcDbEntity
  8
4
100
AcDbLine
 10
161.8790353833149
 20
744.3779149780644
 30
0.0
 11
161.8790353833149
 21
682.3779149780648
 31
0.0
  0
LINE
  5
1D0
330
19
100
AcDbEntity
  8
4
100
AcDbLine
 10
162.8790353833149
 20
682.3779149780648
 30
0.0
 11
161.8790353833149
 21
682.3779149780648
 31
0.0
  0
LINE
  5
1D1
330
19
100
AcDbEntity
  8
4
100
AcDbLine
 10
162.8790353833149
 20
744.3779149780644
 30
0.0
 11
161.8790353833149
 21
744.3779149780644
 31
0.0
  0
LINE
  5
1D2
330
19
100
AcDbEntity
  8
4
100
AcDbLine
 10
509.8790353833149
 20
744.3779149780644
 30
0.0
 11
509.8790353833149
 21
682.3779149780648
 31
0.0
  0
LINE
  5
1D3
330
19
100
AcDbEntity
  8
4
100
AcDbLine
 10
509.8790353833149
 20
682.3779149780648
 30
0.0
 11
508.8790353833149
 21
682.3779149780648
 31
0.0
  0
LINE
  5
1D4
330
19
100
AcDbEntity
  8
4
100
AcDbLine
 10
509.8790353833149
 20
744.3779149780644
 30
0.0
 11
508.8790353833149
 21
744.3779149780644
 31
0.0
  0
LINE
  5
1D5
330
19
100
AcDbEntity
  8
4
100
AcDbLine
 10
567.8790353833149
 20
709.8779149780648
 30
0.0
 11
526.3525971011506
 21
709.8779149780648
 31
0.0
  0
LINE
  5
1D6
330
19
100
AcDbEntity
  8
4
100
AcDbLine
 10
567.8790353833149
 20
716.8779149780648
 30
0.0
 11
526.3525971011506
 21
716.8779149780648
 31
0.0
  0
LINE
  5
1D7
330
19
100
AcDbEntity
  8
4
100
AcDbLine
 10
518.8525971011506
 20
725.8779149780644
 30
0.0
 11
566.8754044862537
 21
725.8779149780644
 31
0.0
  0
LINE
  5
1D8
330
19
100
AcDbEntity
  8
4
100
AcDbLine
 10
518.8525971011506
 20
700.8779149780648
 30
0.0
 11
566.8790353833149
 21
700.8779149780648
 31
0.0
  0
ARC
  5
1D9
330
19
100
AcDbEntity
  8
4
100
AcDbCircle
 10
518.8525971011506
 20
726.8779149780644
 30
0.0
 40
1.0
100
AcDbArc
 50
180.0
 51
270.0
  0
LINE
  5
1DA
330
19
100
AcDbEntity
  8
4
100
AcDbLine
 10
522.8525971011506
 20
713.3779149780648
 30
0.0
 11
522.8525971011506
 21
713.3779149780648
 31
0.0
  0
ARC
  5
1DB
330
19
100
AcDbEntity
  8
4
100
AcDbCircle
 10
526.3525971011506
 20
713.3779149780648
 30
0.0
 40
3.5
100
AcDbArc
 50
180.0
 51
270.0
  0
ARC
  5
1DC
330
19
100
AcDbEntity
  8
4
100
AcDbCircle
 10
526.3525971011506
 20
713.3779149780648
 30
0.0
 40
3.5
100
AcDbArc
 50
90.0
 51
180.0
  0
ARC
  5
1DD
330
19
100
AcDbEntity
  8
4
100
AcDbCircle
 10
518.8525971011506
 20
699.8779149780648
 30
0.0
 40
1.0
100
AcDbArc
 50
90.0
 51
180.0
  0
LINE
  5
1DE
330
19
100
AcDbEntity
  8
4
100
AcDbLine
 10
517.8525971011506
 20
728.3779149780644
 30
0.0
 11
517.8525971011506
 21
698.3779149780648
 31
0.0
  0
LINE
  5
1DF
330
19
100
AcDbEntity
  8
4
100
AcDbLine
 10
566.8754044862537
 20
725.8779149780644
 30
0.0
 11
567.8790353833149
 21
724.8742840810037
 31
0.0
  0
LINE
  5
1E0
330
19
100
AcDbEntity
  8
4
100
AcDbLine
 10
567.8790353833149
 20
701.8742840810037
 30
0.0
 11
566.8826662803765
 21
700.8779149780648
 31
0.0
  0
LINE
  5
1E1
330
19
100
AcDbEntity
  8
4
100
AcDbLine
 10
566.8790353833149
 20
709.8779149780648
 30
0.0
 11
566.8790353833149
 21
700.8779149780648
 31
0.0
  0
LINE
  5
1E2
330
19
100
AcDbEntity
  8
4
100
AcDbLine
 10
566.8790353833149
 20
725.8742840810037
 30
0.0
 11
566.8790353833149
 21
716.8779149780648
 31
0.0
  0
LINE
  5
1E3
330
19
100
AcDbEntity
  8
4
100
AcDbLine
 10
567.8790353833149
 20
724.8742840810037
 30
0.0
 11
567.8790353833149
 21
701.8742840810037
 31
0.0
  0
LINE
  5
1E4
330
19
100
AcDbEntity
  8
4
100
AcDbLine
 10
517.8525971011506
 20
728.3779149780644
 30
0.0
 11
509.8790353833149
 21
728.3779149780644
 31
0.0
  0
LINE
  5
1E5
330
19
100
AcDbEntity
  8
4
100
AcDbLine
 10
517.8525971011506
 20
698.3779149780648
 30
0.0
 11
509.8790353833149
 21
698.3779149780648
 31
0.0
  0
CIRCLE
  5
1E6
330
19
100
AcDbEntity
  8
4
100
AcDbCircle
 10
193.8790353833151
 20
634.3779149780645
 30
0.0
 40
6.5
  0
CIRCLE
  5
1E7
330
19
100
AcDbEntity
  8
4
100
AcDbCircle
 10
193.8790353833151
 20
634.3779149780645
 30
0.0
 40
7.25
  0
LINE
  5
1E8
330
19
100
AcDbEntity
  8
2
100
AcDbLine
 10
192.146984575746
 20
637.3779149780644
 30
0.0
 11
190.4149337681772
 21
634.3779149780645
 31
0.0
  0
LINE
  5
1E9
330
19
100
AcDbEntity
  8
2
100
AcDbLine
 10
197.3431369984526
 20
634.3779149780643
 30
0.0
 11
195.611086190884
 21
631.3779149780647
 31
0.0
  0
LINE
  5
1EA
330
19
100
AcDbEntity
  8
2
100
AcDbLine
 10
195.6110861908837
 20
637.3779149780644
 30
0.0
 11
192.146984575746
 21
637.3779149780644
 31
0.0
  0
LINE
  5
1EB
330
19
100
AcDbEntity
  8
2
100
AcDbLine
 10
195.611086190884
 20
631.3779149780647
 30
0.0
 11
192.146984575746
 21
631.3779149780645
 31
0.0
  0
LINE
  5
1EC
330
19
100
AcDbEntity
  8
2
100
AcDbLine
 10
192.146984575746
 20
631.3779149780645
 30
0.0
 11
190.4149337681772
 21
634.3779149780645
 31
0.0
  0
LINE
  5
1ED
330
19
100
AcDbEntity
  8
2
100
AcDbLine
 10
197.3431369984526
 20
634.3779149780643
 30
0.0
 11
195.6110861908837
 21
637.3779149780644
 31
0.0
  0
LINE
  5
1EE
330
19
100
AcDbEntity
  8
2
100
AcDbLine
 10
268.3431369984526
 20
511.4023076406746
 30
0.0
 11
266.6110861908835
 21
514.4023076406746
 31
0.0
  0
LINE
  5
1EF
330
19
100
AcDbEntity
  8
2
100
AcDbLine
 10
268.3431369984526
 20
511.4023076406746
 30
0.0
 11
266.6110861908837
 21
508.4023076406748
 31
0.0
  0
CIRCLE
  5
1F0
330
19
100
AcDbEntity
  8
4
100
AcDbCircle
 10
264.8790353833151
 20
511.4023076406746
 30
0.0
 40
7.25
  0
CIRCLE
  5
1F1
330
19
100
AcDbEntity
  8
4
100
AcDbCircle
 10
264.8790353833151
 20
511.4023076406746
 30
0.0
 40
6.5
  0
LINE
  5
1F2
330
19
100
AcDbEntity
  8
2
100
AcDbLine
 10
266.6110861908835
 20
514.4023076406746
 30
0.0
 11
263.146984575746
 21
514.4023076406746
 31
0.0
  0
LINE
  5
1F3
330
19
100
AcDbEntity
  8
2
100
AcDbLine
 10
263.146984575746
 20
514.4023076406746
 30
0.0
 11
261.414933768177
 21
511.4023076406746
 31
0.0
  0
LINE
  5
1F4
330
19
100
AcDbEntity
  8
2
100
AcDbLine
 10
263.1469845757458
 20
508.4023076406746
 30
0.0
 11
261.414933768177
 21
511.4023076406746
 31
0.0
  0
LINE
  5
1F5
330
19
100
AcDbEntity
  8
2
100
AcDbLine
 10
266.6110861908837
 20
508.4023076406748
 30
0.0
 11
263.1469845757458
 21
508.4023076406746
 31
0.0
  0
LINE
  5
1F6
330
19
100
AcDbEntity
  8
2
100
AcDbLine
 10
474.414933768177
 20
634.3779149780643
 30
0.0
 11
476.146984575746
 21
637.3779149780644
 31
0.0
  0
LINE
  5
1F7
330
19
100
AcDbEntity
  8
2
100
AcDbLine
 10
474.414933768177
 20
634.3779149780643
 30
0.0
 11
476.1469845757458
 21
631.3779149780647
 31
0.0
  0
CIRCLE
  5
1F8
330
19
100
AcDbEntity
  8
4
100
AcDbCircle
 10
477.8790353833147
 20
634.3779149780645
 30
0.0
 40
7.25
  0
CIRCLE
  5
1F9
330
19
100
AcDbEntity
  8
4
100
AcDbCircle
 10
477.8790353833147
 20
634.3779149780645
 30
0.0
 40
6.5
  0
LINE
  5
1FA
330
19
100
AcDbEntity
  8
2
100
AcDbLine
 10
476.146984575746
 20
637.3779149780644
 30
0.0
 11
479.6110861908837
 21
637.3779149780644
 31
0.0
  0
LINE
  5
1FB
330
19
100
AcDbEntity
  8
2
100
AcDbLine
 10
479.6110861908837
 20
637.3779149780644
 30
0.0
 11
481.3431369984526
 21
634.3779149780645
 31
0.0
  0
LINE
  5
1FC
330
19
100
AcDbEntity
  8
2
100
AcDbLine
 10
479.6110861908837
 20
631.3779149780645
 30
0.0
 11
481.3431369984526
 21
634.3779149780645
 31
0.0
  0
LINE
  5
1FD
330
19
100
AcDbEntity
  8
2
100
AcDbLine
 10
476.1469845757458
 20
631.3779149780647
 30
0.0
 11
479.6110861908837
 21
631.3779149780645
 31
0.0
  0
LINE
  5
1FE
330
19
100
AcDbEntity
  8
2
100
AcDbLine
 10
405.146984575746
 20
508.4023076406748
 30
0.0
 11
408.611086190884
 21
508.4023076406746
 31
0.0
  0
LINE
  5
1FF
330
19
100
AcDbEntity
  8
2
100
AcDbLine
 10
405.1469845757463
 20
514.4023076406746
 30
0.0
 11
408.6110861908837
 21
514.4023076406746
 31
0.0
  0
CIRCLE
  5
200
330
19
100
AcDbEntity
  8
4
100
AcDbCircle
 10
406.8790353833147
 20
511.4023076406746
 30
0.0
 40
6.5
  0
CIRCLE
  5
201
330
19
100
AcDbEntity
  8
4
100
AcDbCircle
 10
406.8790353833147
 20
511.4023076406746
 30
0.0
 40
7.25
  0
LINE
  5
202
330
19
100
AcDbEntity
  8
L-CENTER
 48
2.0
100
AcDbLine
 10
399.3790353833151
 20
524.3926886974408
 30
0.0
 11
414.3790353833147
 21
498.411926583908
 31
0.0
  0
LINE
  5
203
330
19
100
AcDbEntity
  8
2
100
AcDbLine
 10
408.611086190884
 20
508.4023076406746
 30
0.0
 11
410.3431369984528
 21
511.4023076406746
 31
0.0
  0
LINE
  5
204
330
19
100
AcDbEntity
  8
2
100
AcDbLine
 10
408.6110861908837
 20
514.4023076406746
 30
0.0
 11
410.3431369984528
 21
511.4023076406746
 31
0.0
  0
LINE
  5
205
330
19
100
AcDbEntity
  8
2
100
AcDbLine
 10
403.4149337681772
 20
511.4023076406746
 30
0.0
 11
405.146984575746
 21
508.4023076406748
 31
0.0
  0
LINE
  5
206
330
19
100
AcDbEntity
  8
2
100
AcDbLine
 10
403.4149337681772
 20
511.4023076406746
 30
0.0
 11
405.1469845757463
 21
514.4023076406746
 31
0.0
  0
LINE
  5
207
330
19
100
AcDbEntity
  8
2
100
AcDbLine
 10
266.6110861908837
 20
760.3535223154545
 30
0.0
 11
263.1469845757458
 21
760.3535223154545
 31
0.0
  0
LINE
  5
208
330
19
100
AcDbEntity
  8
2
100
AcDbLine
 10
266.6110861908835
 20
754.3535223154545
 30
0.0
 11
263.146984575746
 21
754.3535223154545
 31
0.0
  0
CIRCLE
  5
209
330
19
100
AcDbEntity
  8
4
100
AcDbCircle
 10
264.8790353833151
 20
757.3535223154545
 30
0.0
 40
6.5
  0
CIRCLE
  5
20A
330
19
100
AcDbEntity
  8
4
100
AcDbCircle
 10
264.8790353833151
 20
757.3535223154545
 30
0.0
 40
7.25
  0
LINE
  5
20B
330
19
100
AcDbEntity
  8
L-CENTER
 48
2.0
100
AcDbLine
 10
272.3790353833147
 20
744.3631412586883
 30
0.0
 11
257.3790353833151
 21
770.3439033722211
 31
0.0
  0
LINE
  5
20C
330
19
100
AcDbEntity
  8
2
100
AcDbLine
 10
263.1469845757458
 20
760.3535223154545
 30
0.0
 11
261.414933768177
 21
757.3535223154545
 31
0.0
  0
LINE
  5
20D
330
19
100
AcDbEntity
  8
2
100
AcDbLine
 10
263.146984575746
 20
754.3535223154545
 30
0.0
 11
261.414933768177
 21
757.3535223154545
 31
0.0
  0
LINE
  5
20E
330
19
100
AcDbEntity
  8
2
100
AcDbLine
 10
268.3431369984526
 20
757.3535223154545
 30
0.0
 11
266.6110861908837
 21
760.3535223154545
 31
0.0
  0
LINE
  5
20F
330
19
100
AcDbEntity
  8
2
100
AcDbLine
 10
268.3431369984526
 20
757.3535223154545
 30
0.0
 11
266.6110861908835
 21
754.3535223154545
 31
0.0
  0
LINE
  5
210
330
19
100
AcDbEntity
  8
L-CENTER
 48
2.0
100
AcDbLine
 10
399.3790353833151
 20
744.3631412586883
 30
0.0
 11
414.3790353833147
 21
770.3439033722211
 31
0.0
  0
CIRCLE
  5
211
330
19
100
AcDbEntity
  8
4
100
AcDbCircle
 10
406.8790353833147
 20
757.3535223154545
 30
0.0
 40
7.25
  0
CIRCLE
  5
212
330
19
100
AcDbEntity
  8
4
100
AcDbCircle
 10
406.8790353833147
 20
757.3535223154545
 30
0.0
 40
6.5
  0
LINE
  5
213
330
19
100
AcDbEntity
  8
2
100
AcDbLine
 10
405.1469845757463
 20
754.3535223154545
 30
0.0
 11
408.6110861908837
 21
754.3535223154545
 31
0.0
  0
LINE
  5
214
330
19
100
AcDbEntity
  8
2
100
AcDbLine
 10
405.146984575746
 20
760.3535223154545
 30
0.0
 11
408.611086190884
 21
760.3535223154545
 31
0.0
  0
LINE
  5
215
330
19
100
AcDbEntity
  8
2
100
AcDbLine
 10
403.4149337681772
 20
757.3535223154545
 30
0.0
 11
405.1469845757463
 21
754.3535223154545
 31
0.0
  0
LINE
  5
216
330
19
100
AcDbEntity
  8
2
100
AcDbLine
 10
403.4149337681772
 20
757.3535223154545
 30
0.0
 11
405.146984575746
 21
760.3535223154545
 31
0.0
  0
LINE
  5
217
330
19
100
AcDbEntity
  8
2
100
AcDbLine
 10
408.6110861908837
 20
754.3535223154545
 30
0.0
 11
410.3431369984528
 21
757.3535223154545
 31
0.0
  0
LINE
  5
218
330
19
100
AcDbEntity
  8
2
100
AcDbLine
 10
408.611086190884
 20
760.3535223154545
 30
0.0
 11
410.3431369984528
 21
757.3535223154545
 31
0.0
  0
LINE
  5
219
330
19
100
AcDbEntity
  8
4
100
AcDbLine
 10
201.1290353833151
 20
182.3759470406892
 30
0.0
 11
186.6290353833151
 21
182.3759470406892
 31
0.0
  0
LINE
  5
21A
330
19
100
AcDbEntity
  8
4
100
AcDbLine
 10
201.1290353833151
 20
182.3759470406892
 30
0.0
 11
201.1290353833151
 21
180.3759470406892
 31
0.0
  0
LINE
  5
21B
330
19
100
AcDbEntity
  8
4
100
AcDbLine
 10
186.6290353833151
 20
182.3759470406892
 30
0.0
 11
186.6290353833151
 21
180.3759470406892
 31
0.0
  0
LINE
  5
21C
330
19
100
AcDbEntity
  8
2
100
AcDbLine
 10
195.8790353833151
 20
182.3759470406892
 30
0.0
 11
193.8790353833151
 21
180.3759470406892
 31
0.0
  0
LINE
  5
21D
330
19
100
AcDbEntity
  8
2
100
AcDbLine
 10
193.0506082585689
 20
182.3759470406892
 30
0.0
 11
191.0506082585689
 21
180.3759470406892
 31
0.0
  0
LINE
  5
21E
330
19
100
AcDbEntity
  8
4
100
AcDbLine
 10
200.3790353833151
 20
190.3759470406892
 30
0.0
 11
187.3790353833151
 21
190.3759470406892
 31
0.0
  0
LINE
  5
21F
330
19
100
AcDbEntity
  8
4
100
AcDbLine
 10
187.3790353833151
 20
190.3759470406892
 30
0.0
 11
187.3790353833151
 21
182.3759470406892
 31
0.0
  0
LINE
  5
220
330
19
100
AcDbEntity
  8
4
100
AcDbLine
 10
200.3790353833151
 20
190.3759470406892
 30
0.0
 11
200.3790353833151
 21
182.3759470406892
 31
0.0
  0
LINE
  5
221
330
19
100
AcDbEntity
  8
4
100
AcDbLine
 10
271.3790353833151
 20
190.3759470406892
 30
0.0
 11
258.3790353833151
 21
190.3759470406892
 31
0.0
  0
LINE
  5
222
330
19
100
AcDbEntity
  8
4
100
AcDbLine
 10
272.1290353833151
 20
182.3759470406892
 30
0.0
 11
257.6290353833151
 21
182.3759470406892
 31
0.0
  0
LINE
  5
223
330
19
100
AcDbEntity
  8
4
100
AcDbLine
 10
258.3790353833151
 20
190.3759470406892
 30
0.0
 11
258.3790353833151
 21
182.3759470406892
 31
0.0
  0
LINE
  5
224
330
19
100
AcDbEntity
  8
2
100
AcDbLine
 10
264.0506082585689
 20
182.3759470406892
 30
0.0
 11
262.0506082585689
 21
180.3759470406892
 31
0.0
  0
LINE
  5
225
330
19
100
AcDbEntity
  8
2
100
AcDbLine
 10
266.8790353833151
 20
182.3759470406892
 30
0.0
 11
264.8790353833151
 21
180.3759470406892
 31
0.0
  0
LINE
  5
226
330
19
100
AcDbEntity
  8
4
100
AcDbLine
 10
257.6290353833151
 20
182.3759470406892
 30
0.0
 11
257.6290353833151
 21
180.3759470406892
 31
0.0
  0
LINE
  5
227
330
19
100
AcDbEntity
  8
4
100
AcDbLine
 10
271.3790353833151
 20
190.3759470406892
 30
0.0
 11
271.3790353833151
 21
182.3759470406892
 31
0.0
  0
LINE
  5
228
330
19
100
AcDbEntity
  8
4
100
AcDbLine
 10
272.1290353833151
 20
182.3759470406892
 30
0.0
 11
272.1290353833151
 21
180.3759470406892
 31
0.0
  0
LINE
  5
229
330
19
100
AcDbEntity
  8
4
100
AcDbLine
 10
471.3788153833148
 20
190.3759470406892
 30
0.0
 11
484.3788153833148
 21
190.3759470406892
 31
0.0
  0
LINE
  5
22A
330
19
100
AcDbEntity
  8
4
100
AcDbLine
 10
484.3788153833148
 20
190.3759470406892
 30
0.0
 11
484.3788153833148
 21
182.3759470406892
 31
0.0
  0
LINE
  5
22B
330
19
100
AcDbEntity
  8
2
100
AcDbLine
 10
478.707242508061
 20
182.3759470406892
 30
0.0
 11
480.707242508061
 21
180.3759470406892
 31
0.0
  0
LINE
  5
22C
330
19
100
AcDbEntity
  8
2
100
AcDbLine
 10
475.8788153833148
 20
182.3759470406892
 30
0.0
 11
477.8788153833148
 21
180.3759470406892
 31
0.0
  0
LINE
  5
22D
330
19
100
AcDbEntity
  8
4
100
AcDbLine
 10
485.1288153833148
 20
182.3759470406892
 30
0.0
 11
485.1288153833148
 21
180.3759470406892
 31
0.0
  0
LINE
  5
22E
330
19
100
AcDbEntity
  8
4
100
AcDbLine
 10
471.3788153833148
 20
190.3759470406892
 30
0.0
 11
471.3788153833148
 21
182.3759470406892
 31
0.0
  0
LINE
  5
22F
330
19
100
AcDbEntity
  8
L-CENTER
 48
2.0
100
AcDbLine
 10
477.8788153833148
 20
193.737355058608
 30
0.0
 11
477.8788153833148
 21
159.0573434428064
 31
0.0
  0
LINE
  5
230
330
19
100
AcDbEntity
  8
4
100
AcDbLine
 10
470.6288153833148
 20
182.3759470406892
 30
0.0
 11
485.1288153833148
 21
182.3759470406892
 31
0.0
  0
LINE
  5
231
330
19
100
AcDbEntity
  8
4
100
AcDbLine
 10
470.6288153833148
 20
182.3759470406892
 30
0.0
 11
470.6288153833148
 21
180.3759470406892
 31
0.0
  0
LINE
  5
232
330
19
100
AcDbEntity
  8
2
100
AcDbLine
 10
407.707242508061
 20
182.3759470406892
 30
0.0
 11
409.707242508061
 21
180.3759470406892
 31
0.0
  0
LINE
  5
233
330
19
100
AcDbEntity
  8
4
100
AcDbLine
 10
399.6288153833148
 20
182.3759470406892
 30
0.0
 11
414.1288153833148
 21
182.3759470406892
 31
0.0
  0
LINE
  5
234
330
19
100
AcDbEntity
  8
4
100
AcDbLine
 10
400.3788153833148
 20
190.3759470406892
 30
0.0
 11
413.3788153833148
 21
190.3759470406892
 31
0.0
  0
LINE
  5
235
330
19
100
AcDbEntity
  8
4
100
AcDbLine
 10
414.1288153833148
 20
182.3759470406892
 30
0.0
 11
414.1288153833148
 21
180.3759470406892
 31
0.0
  0
LINE
  5
236
330
19
100
AcDbEntity
  8
4
100
AcDbLine
 10
413.3788153833148
 20
190.3759470406892
 30
0.0
 11
413.3788153833148
 21
182.3759470406892
 31
0.0
  0
LINE
  5
237
330
19
100
AcDbEntity
  8
4
100
AcDbLine
 10
399.6288153833148
 20
182.3759470406892
 30
0.0
 11
399.6288153833148
 21
180.3759470406892
 31
0.0
  0
LINE
  5
238
330
19
100
AcDbEntity
  8
4
100
AcDbLine
 10
400.3788153833148
 20
190.3759470406892
 30
0.0
 11
400.3788153833148
 21
182.3759470406892
 31
0.0
  0
LINE
  5
239
330
19
100
AcDbEntity
  8
2
100
AcDbLine
 10
404.8788153833148
 20
182.3759470406892
 30
0.0
 11
406.8788153833148
 21
180.3759470406892
 31
0.0
  0
LINE
  5
23A
330
19
100
AcDbEntity
  8
L-CENTER
 48
2.0
100
AcDbLine
 10
406.8788153833148
 20
193.737355058608
 30
0.0
 11
406.8788153833148
 21
159.0573434428064
 31
0.0
  0
LINE
  5
23B
330
19
100
AcDbEntity
  8
4
100
AcDbLine
 10
727.6274643639199
 20
190.3759470406892
 30
0.0
 11
714.6274643639199
 21
190.3759470406892
 31
0.0
  0
LINE
  5
23C
330
19
100
AcDbEntity
  8
4
100
AcDbLine
 10
728.3774643639199
 20
182.3759470406892
 30
0.0
 11
713.8774643639199
 21
182.3759470406892
 31
0.0
  0
LINE
  5
23D
330
19
100
AcDbEntity
  8
4
100
AcDbLine
 10
714.6274643639199
 20
190.3759470406892
 30
0.0
 11
714.6274643639199
 21
182.3759470406892
 31
0.0
  0
LINE
  5
23E
330
19
100
AcDbEntity
  8
4
100
AcDbLine
 10
713.8774643639199
 20
182.3759470406892
 30
0.0
 11
713.8774643639199
 21
180.3759470406892
 31
0.0
  0
LINE
  5
23F
330
19
100
AcDbEntity
  8
4
100
AcDbLine
 10
727.6274643639199
 20
190.3759470406892
 30
0.0
 11
727.6274643639199
 21
182.3759470406892
 31
0.0
  0
LINE
  5
240
330
19
100
AcDbEntity
  8
4
100
AcDbLine
 10
728.3774643639199
 20
182.3759470406892
 30
0.0
 11
728.3774643639199
 21
180.3759470406892
 31
0.0
  0
LINE
  5
241
330
19
100
AcDbEntity
  8
L-CENTER
100
AcDbLine
 10
823.10307170131
 20
193.737355058608
 30
0.0
 11
823.10307170131
 21
159.0573434428064
 31
0.0
  0
LINE
  5
242
330
19
100
AcDbEntity
  8
4
100
AcDbLine
 10
850.60307170131
 20
190.3759470406892
 30
0.0
 11
837.60307170131
 21
190.3759470406892
 31
0.0
  0
LINE
  5
243
330
19
100
AcDbEntity
  8
4
100
AcDbLine
 10
851.35307170131
 20
182.3759470406892
 30
0.0
 11
836.85307170131
 21
182.3759470406892
 31
0.0
  0
LINE
  5
244
330
19
100
AcDbEntity
  8
4
100
AcDbLine
 10
837.60307170131
 20
190.3759470406892
 30
0.0
 11
837.60307170131
 21
182.3759470406892
 31
0.0
  0
LINE
  5
245
330
19
100
AcDbEntity
  8
4
100
AcDbLine
 10
836.85307170131
 20
182.3759470406892
 30
0.0
 11
836.85307170131
 21
180.3759470406892
 31
0.0
  0
LINE
  5
246
330
19
100
AcDbEntity
  8
4
100
AcDbLine
 10
850.60307170131
 20
190.3759470406892
 30
0.0
 11
850.60307170131
 21
182.3759470406892
 31
0.0
  0
LINE
  5
247
330
19
100
AcDbEntity
  8
4
100
AcDbLine
 10
851.35307170131
 20
182.3759470406892
 30
0.0
 11
851.35307170131
 21
180.3759470406892
 31
0.0
  0
LINE
  5
248
330
19
100
AcDbEntity
  8
4
100
AcDbLine
 10
960.5786790387001
 20
190.3759470406892
 30
0.0
 11
973.5786790387001
 21
190.3759470406892
 31
0.0
  0
LINE
  5
249
330
19
100
AcDbEntity
  8
4
100
AcDbLine
 10
959.8286790387001
 20
182.3759470406892
 30
0.0
 11
974.3286790387001
 21
182.3759470406892
 31
0.0
  0
LINE
  5
24A
330
19
100
AcDbEntity
  8
4
100
AcDbLine
 10
973.5786790387001
 20
190.3759470406892
 30
0.0
 11
973.5786790387001
 21
182.3759470406892
 31
0.0
  0
LINE
  5
24B
330
19
100
AcDbEntity
  8
4
100
AcDbLine
 10
974.3286790387001
 20
182.3759470406892
 30
0.0
 11
974.3286790387001
 21
180.3759470406892
 31
0.0
  0
LINE
  5
24C
330
19
100
AcDbEntity
  8
4
100
AcDbLine
 10
960.5786790387001
 20
190.3759470406892
 30
0.0
 11
960.5786790387001
 21
182.3759470406892
 31
0.0
  0
LINE
  5
24D
330
19
100
AcDbEntity
  8
4
100
AcDbLine
 10
959.8286790387001
 20
182.3759470406892
 30
0.0
 11
959.8286790387001
 21
180.3759470406892
 31
0.0
  0
LINE
  5
24E
330
19
100
AcDbEntity
  8
L-CENTER
 48
2.0
100
AcDbLine
 10
967.0786790387001
 20
193.737355058608
 30
0.0
 11
967.0786790387001
 21
159.0573434428064
 31
0.0
  0
TEXT
  5
330
330
19
100
AcDbEntity
  8
3
100
AcDbText
 10
584.2645213946657
 20
15.1152755254073
 30
0.0
 40
9.0
  1
LDC4-04
  7
KANJI
 72
     1
 11
613.5145213946657
 21
15.1152755254073
 31
0.0
100
AcDbText
  0
CIRCLE
  5
3FF
330
19
100
AcDbEntity
  8
4
100
AcDbCircle
 10
335.8790353833151
 20
543.3779149780643
 30
0.0
 40
18.0
  0
LINE
  5
400
330
19
100
AcDbEntity
  8
L-CENTER
 48
2.0
100
AcDbLine
 10
307.8790353833151
 20
543.3779149780647
 30
0.0
 11
363.8790353833151
 21
543.3779149780647
 31
0.0
  0
CIRCLE
  5
401
330
19
100
AcDbEntity
  8
4
100
AcDbCircle
 10
335.8790353833149
 20
543.3779149780647
 30
0.0
 40
12.5
  0
LWPOLYLINE
  5
402
330
19
100
AcDbEntity
  8
4
100
AcDbPolyline
 90
        6
 70
     1
 43
0.0
 10
335.8790353833149
 20
555.8779149780647
 10
346.7043529306204
 20
549.6279149780647
 10
346.7043529306204
 20
537.1279149780647
 10
335.8790353833149
 20
530.8779149780647
 10
325.0537178360094
 20
537.1279149780647
 10
325.0537178360094
 20
549.6279149780647
  0
LINE
  5
403
330
19
100
AcDbEntity
  8
4
100
AcDbLine
 10
765.60307170131
 20
190.5112020406895
 30
0.0
 11
740.60307170131
 21
190.5112020406896
 31
0.0
  0
LINE
  5
404
330
19
100
AcDbEntity
  8
4
100
AcDbLine
 10
765.60307170131
 20
192.5112020406895
 30
0.0
 11
740.60307170131
 21
192.5112020406896
 31
0.0
  0
LINE
  5
405
330
19
100
AcDbEntity
  8
4
100
AcDbLine
 10
740.60307170131
 20
196.5112020406896
 30
0.0
 11
765.60307170131
 21
196.5112020406895
 31
0.0
  0
LINE
  5
406
330
19
100
AcDbEntity
  8
4
100
AcDbLine
 10
735.10307170131
 20
189.0112020406896
 30
0.0
 11
771.10307170131
 21
189.0112020406893
 31
0.0
  0
LINE
  5
407
330
19
100
AcDbEntity
  8
4
100
AcDbLine
 10
764.60307170131
 20
190.5112020406895
 30
0.0
 11
764.60307170131
 21
189.0112020406895
 31
0.0
  0
LINE
  5
408
330
19
100
AcDbEntity
  8
4
100
AcDbLine
 10
765.60307170131
 20
190.5112020406895
 30
0.0
 11
765.60307170131
 21
196.5112020406895
 31
0.0
  0
LINE
  5
409
330
19
100
AcDbEntity
  8
4
100
AcDbLine
 10
771.10307170131
 20
189.0112020406893
 30
0.0
 11
771.10307170131
 21
187.9325415338931
 31
0.0
  0
LINE
  5
40A
330
19
100
AcDbEntity
  8
L-CENTER
 48
2.0
100
AcDbLine
 10
753.10307170131
 20
197.8962120406895
 30
0.0
 11
753.10307170131
 21
171.5532245953574
 31
0.0
  0
LINE
  5
40B
330
19
100
AcDbEntity
  8
4
100
AcDbLine
 10
760.60307170131
 20
192.5112020406895
 30
0.0
 11
760.60307170131
 21
196.5112020406895
 31
0.0
  0
LINE
  5
40C
330
19
100
AcDbEntity
  8
4
100
AcDbLine
 10
745.60307170131
 20
192.5112020406896
 30
0.0
 11
745.60307170131
 21
196.5112020406896
 31
0.0
  0
LINE
  5
40D
330
19
100
AcDbEntity
  8
4
100
AcDbLine
 10
741.60307170131
 20
190.5112020406896
 30
0.0
 11
741.60307170131
 21
189.0112020406896
 31
0.0
  0
LINE
  5
40E
330
19
100
AcDbEntity
  8
4
100
AcDbLine
 10
740.60307170131
 20
190.5112020406896
 30
0.0
 11
740.60307170131
 21
196.5112020406896
 31
0.0
  0
LINE
  5
40F
330
19
100
AcDbEntity
  8
4
100
AcDbLine
 10
735.10307170131
 20
189.0112020406896
 30
0.0
 11
735.10307170131
 21
185.845879912792
 31
0.0
  0
ARC
  5
410
330
19
100
AcDbEntity
  8
4
100
AcDbCircle
 10
733.10307170131
 20
185.845879912792
 30
0.0
 40
2.0
100
AcDbArc
 50
273.6430930086149
 51
0.0
  0
ARC
  5
411
330
19
100
AcDbEntity
  8
4
100
AcDbCircle
 10
773.10307170131
 20
187.9325415338931
 30
0.0
 40
2.0
100
AcDbArc
 50
180.0
 51
272.3293384374012
  0
ARC
  5
412
330
19
100
AcDbEntity
  8
4
100
AcDbCircle
 10
897.10307170131
 20
189.0112020406891
 30
0.0
 40
2.0
100
AcDbArc
 50
90.0
 51
180.0
  0
ARC
  5
413
330
19
100
AcDbEntity
  8
4
100
AcDbCircle
 10
929.10307170131
 20
189.0112020406891
 30
0.0
 40
2.0
100
AcDbArc
 50
0.0
 51
90.0
  0
LINE
  5
414
330
19
100
AcDbEntity
  8
4
100
AcDbLine
 10
317.8789253833149
 20
185.0014484160906
 30
0.0
 11
317.8789253833149
 21
189.0112020406891
 31
0.0
  0
ARC
  5
415
330
19
100
AcDbEntity
  8
4
100
AcDbCircle
 10
335.8789253833152
 20
341.2655915611904
 30
0.0
 40
157.2974330142493
100
AcDbArc
 50
263.4290838414149
 51
276.5709161585848
  0
LINE
  5
416
330
19
100
AcDbEntity
  8
4
100
AcDbLine
 10
324.3789253833149
 20
190.5112020406891
 30
0.0
 11
324.3789253833149
 21
189.0112020406891
 31
0.0
  0
LINE
  5
417
330
19
100
AcDbEntity
  8
4
100
AcDbLine
 10
323.3789253833149
 20
192.5112020406891
 30
0.0
 11
323.3789253833149
 21
190.5112020406891
 31
0.0
  0
LINE
  5
418
330
19
100
AcDbEntity
  8
4
100
AcDbLine
 10
335.8789253833149
 20
196.5112020406891
 30
0.0
 11
335.8789253833149
 21
192.5112020406891
 31
0.0
  0
LINE
  5
4B1
330
19
100
AcDbEntity
  8
4
100
AcDbLine
 10
103.8789253833149
 20
117.1759970406891
 30
0.0
 11
148.8789253833149
 21
117.1759970406891
 31
0.0
  0
LINE
  5
4B2
330
19
100
AcDbEntity
  8
4
100
AcDbLine
 10
104.8789253833149
 20
114.1759970406891
 30
0.0
 11
153.8789253833149
 21
114.1759970406891
 31
0.0
  0
LINE
  5
4B3
330
19
100
AcDbEntity
  8
4
100
AcDbLine
 10
104.8789253833149
 20
89.17599704068914
 30
0.0
 11
153.8789253833149
 21
89.17599704068914
 31
0.0
  0
LINE
  5
4B4
330
19
100
AcDbEntity
  8
4
100
AcDbLine
 10
153.8789253833149
 20
86.67599704068914
 30
0.0
 11
153.8789253833149
 21
116.6759970406891
 31
0.0
  0
LINE
  5
4B5
330
19
100
AcDbEntity
  8
4
100
AcDbLine
 10
153.8789253833149
 20
86.67599704068914
 30
0.0
 11
161.8789253833149
 21
86.67599704068914
 31
0.0
  0
LINE
  5
4B6
330
19
100
AcDbEntity
  8
4
100
AcDbLine
 10
153.8789253833149
 20
116.6759970406891
 30
0.0
 11
161.8789253833149
 21
116.6759970406891
 31
0.0
  0
LINE
  5
4B7
330
19
100
AcDbEntity
  8
4
100
AcDbLine
 10
148.8789253833149
 20
117.1759970406891
 30
0.0
 11
148.8789253833149
 21
114.1759970406891
 31
0.0
  0
LINE
  5
4B8
330
19
100
AcDbEntity
  8
4
100
AcDbLine
 10
104.8789253833149
 20
114.1759970406891
 30
0.0
 11
103.8789253833149
 21
113.1759970406891
 31
0.0
  0
LINE
  5
4B9
330
19
100
AcDbEntity
  8
4
100
AcDbLine
 10
103.8789253833149
 20
90.17599704068914
 30
0.0
 11
103.8789253833149
 21
117.1759970406891
 31
0.0
  0
LINE
  5
4BA
330
19
100
AcDbEntity
  8
4
100
AcDbLine
 10
104.8789253833149
 20
114.1759970406891
 30
0.0
 11
104.8789253833149
 21
89.17599704068914
 31
0.0
  0
LINE
  5
4BB
330
19
100
AcDbEntity
  8
4
100
AcDbLine
 10
104.8789253833149
 20
89.17599704068914
 30
0.0
 11
103.8789253833149
 21
90.17599704068914
 31
0.0
  0
LINE
  5
4BE
330
19
100
AcDbEntity
  8
4
100
AcDbLine
 10
103.8790353833147
 20
709.8779149780644
 30
0.0
 11
145.4054736654789
 21
709.8779149780644
 31
0.0
  0
LINE
  5
4BF
330
19
100
AcDbEntity
  8
4
100
AcDbLine
 10
103.8790353833147
 20
716.8779149780644
 30
0.0
 11
145.4054736654789
 21
716.8779149780644
 31
0.0
  0
LINE
  5
4C0
330
19
100
AcDbEntity
  8
4
100
AcDbLine
 10
152.9054736654789
 20
725.8779149780644
 30
0.0
 11
104.8826662803758
 21
725.8779149780639
 31
0.0
  0
LINE
  5
4C1
330
19
100
AcDbEntity
  8
4
100
AcDbLine
 10
152.905473665479
 20
700.8779149780644
 30
0.0
 11
104.8790353833148
 21
700.8779149780644
 31
0.0
  0
ARC
  5
4C2
330
19
100
AcDbEntity
  8
4
100
AcDbCircle
 10
152.9054736654789
 20
726.8779149780644
 30
0.0
 40
1.0
100
AcDbArc
 50
270.0
 51
0.0
  0
LINE
  5
4C3
330
19
100
AcDbEntity
  8
4
100
AcDbLine
 10
148.9054736654789
 20
713.3779149780644
 30
0.0
 11
148.9054736654789
 21
713.3779149780644
 31
0.0
  0
ARC
  5
4C4
330
19
100
AcDbEntity
  8
4
100
AcDbCircle
 10
145.4054736654789
 20
713.3779149780644
 30
0.0
 40
3.5
100
AcDbArc
 50
270.0
 51
0.0
  0
ARC
  5
4C5
330
19
100
AcDbEntity
  8
4
100
AcDbCircle
 10
145.4054736654789
 20
713.3779149780644
 30
0.0
 40
3.5
100
AcDbArc
 50
0.0
 51
90.0
  0
ARC
  5
4C6
330
19
100
AcDbEntity
  8
4
100
AcDbCircle
 10
152.905473665479
 20
699.8779149780644
 30
0.0
 40
1.0
100
AcDbArc
 50
0.0
 51
90.0
  0
LINE
  5
4C7
330
19
100
AcDbEntity
  8
4
100
AcDbLine
 10
153.9054736654789
 20
728.3779149780644
 30
0.0
 11
153.905473665479
 21
698.3779149780644
 31
0.0
  0
LINE
  5
4C8
330
19
100
AcDbEntity
  8
4
100
AcDbLine
 10
104.8826662803758
 20
725.8779149780639
 30
0.0
 11
103.8790353833147
 21
724.8742840810032
 31
0.0
  0
LINE
  5
4C9
330
19
100
AcDbEntity
  8
4
100
AcDbLine
 10
103.8790353833148
 20
701.8742840810032
 30
0.0
 11
104.8754044862532
 21
700.8779149780644
 31
0.0
  0
LINE
  5
4CA
330
19
100
AcDbEntity
  8
4
100
AcDbLine
 10
104.8790353833147
 20
709.8779149780644
 30
0.0
 11
104.8790353833148
 21
700.8779149780644
 31
0.0
  0
LINE
  5
4CB
330
19
100
AcDbEntity
  8
4
100
AcDbLine
 10
104.8790353833147
 20
725.8742840810032
 30
0.0
 11
104.8790353833147
 21
716.8779149780644
 31
0.0
  0
LINE
  5
4CC
330
19
100
AcDbEntity
  8
4
100
AcDbLine
 10
103.8790353833147
 20
724.8742840810032
 30
0.0
 11
103.8790353833148
 21
701.8742840810032
 31
0.0
  0
LINE
  5
4CD
330
19
100
AcDbEntity
  8
4
100
AcDbLine
 10
153.9054736654789
 20
728.3779149780644
 30
0.0
 11
161.8790353833147
 21
728.3779149780644
 31
0.0
  0
LINE
  5
4CE
330
19
100
AcDbEntity
  8
4
100
AcDbLine
 10
153.905473665479
 20
698.3779149780644
 30
0.0
 11
161.8790353833147
 21
698.3779149780644
 31
0.0
  0
ENDSEC
  0
SECTION
  2
OBJECTS
  0
DICTIONARY
  5
9
330
0
100
AcDbDictionary
281
     1
  3
ACAD_COLOR
350
2E
  3
ACAD_GROUP
350
2C
  3
ACAD_LAYOUT
350
22
  3
ACAD_MATERIAL
350
B
  3
ACAD_MLEADERSTYLE
350
48F
  3
ACAD_MLINESTYLE
350
17
  3
ACAD_PLOTSETTINGS
350
2D
  3
ACAD_PLOTSTYLENAME
350
8
  3
ACAD_SCALELIST
350
34
  3
ACAD_TABLESTYLE
350
48E
  3
ACAD_VISUALSTYLE
350
2F
  3
ACDBHEADERROUNDTRIPXREC
350
4E9
  3
AcDbVariableDictionary
350
48C
  3
DWGPROPS
350
4EC
  0
DICTIONARY
  5
4ED
330
2B
100
AcDbDictionary
280
     1
281
     1
  3
ACAD_XREC_ROUNDTRIP
360
4EE
  0
DICTIONARY
  5
3
330
2
100
AcDbDictionary
280
     1
281
     1
  3
ACAD_LAYERSTATES
360
4
  0
DICTIONARY
  5
1E
330
1D
100
AcDbDictionary
280
     1
281
     1
  3
ADSK_XREC_LAYER_RECONCILED
360
1F
  0
DICTIONARY
  5
260
330
25F
100
AcDbDictionary
280
     1
281
     1
  3
ADSK_XREC_LAYER_RECONCILED
360
261
  0
DICTIONARY
  5
5
330
1
100
AcDbDictionary
280
     1
281
     1
  3
ADSK_XREC_LAYER_RECONCILED
360
6
  0
DICTIONARY
  5
6F
330
6E
100
AcDbDictionary
280
     1
281
     1
  3
ADSK_XREC_LAYER_RECONCILED
360
70
  0
DICTIONARY
  5
6A
330
69
100
AcDbDictionary
280
     1
281
     1
  3
ADSK_XREC_LAYER_RECONCILED
360
6B
  0
DICTIONARY
  5
F8
330
F7
100
AcDbDictionary
280
     1
281
     1
  3
ADSK_XREC_LAYER_RECONCILED
360
F9
  0
DICTIONARY
  5
1A
330
19
100
AcDbDictionary
280
     1
281
     1
  3
ACAD_SORTENTS
360
1B
  0
DICTIONARY
  5
2E
102
{ACAD_REACTORS
330
9
102
}
330
9
100
AcDbDictionary
281
     1
  0
DICTIONARY
  5
2C
102
{ACAD_REACTORS
330
9
102
}
330
9
100
AcDbDictionary
281
     1
  0
DICTIONARY
  5
22
102
{ACAD_REACTORS
330
9
102
}
330
9
100
AcDbDictionary
281
     1
  3
Model
350
21
  3
ﾚｲｱｳﾄ1
350
28
  0
DICTIONARY
  5
B
102
{ACAD_REACTORS
330
9
102
}
330
9
100
AcDbDictionary
281
     1
  3
ByBlock
350
67
  3
ByLayer
350
12
  3
Global
350
A
  0
DICTIONARY
  5
48F
102
{ACAD_REACTORS
330
9
102
}
330
9
100
AcDbDictionary
281
     1
  3
Standard
350
4AB
  0
DICTIONARY
  5
17
102
{ACAD_REACTORS
330
9
102
}
330
9
100
AcDbDictionary
281
     1
  3
STANDARD
350
16
  0
DICTIONARY
  5
2D
102
{ACAD_REACTORS
330
9
102
}
330
9
100
AcDbDictionary
281
     1
  0
ACDBDICTIONARYWDFLT
  5
8
102
{ACAD_REACTORS
330
9
102
}
330
9
100
AcDbDictionary
281
     1
  3
Normal
350
7
100
AcDbDictionaryWithDefault
340
7
  0
DICTIONARY
  5
34
102
{ACAD_REACTORS
330
9
102
}
330
9
100
AcDbDictionary
281
     1
  3
*A1
350
56
  3
*A10
350
5F
  3
*A11
350
60
  3
*A12
350
61
  3
*A13
350
62
  3
*A14
350
63
  3
*A15
350
64
  3
*A16
350
65
  3
*A17
350
66
  3
*A2
350
57
  3
*A3
350
58
  3
*A4
350
59
  3
*A5
350
5A
  3
*A6
350
5B
  3
*A7
350
5C
  3
*A8
350
5D
  3
*A9
350
5E
  0
DICTIONARY
  5
48E
102
{ACAD_REACTORS
330
9
102
}
330
9
100
AcDbDictionary
281
     1
  3
Standard
350
4AA
  0
DICTIONARY
  5
2F
102
{ACAD_REACTORS
330
9
102
}
330
9
100
AcDbDictionary
281
     1
  3
2dWireframe
350
496
  3
Basic
350
499
  3
Brighten
350
49D
  3
ColorChange
350
4A1
  3
Conceptual
350
49B
  3
Dim
350
49C
  3
EdgeColorOff
350
4A4
  3
Facepattern
350
4A0
  3
Flat
350
492
  3
FlatWithEdges
350
493
  3
Gouraud
350
494
  3
GouraudWithEdges
350
495
  3
Hidden
350
498
  3
JitterOff
350
4A2
  3
Linepattern
350
49F
  3
OverhangOff
350
4A3
  3
Realistic
350
49A
  3
Shaded
350
4A9
  3
Shaded with edges
350
4A8
  3
Shades of Gray
350
4A5
  3
Sketchy
350
4A6
  3
Thicken
350
49E
  3
Wireframe
350
497
  3
X-Ray
350
4A7
  0
DICTIONARY
  5
4E9
102
{ACAD_REACTORS
330
9
102
}
330
9
100
AcDbDictionary
281
     1
  3
COLORDICT
350
4EA
  3
MATERIALDICT
350
4EB
  0
DICTIONARY
  5
48C
102
{ACAD_REACTORS
330
9
102
}
330
9
100
AcDbDictionary
281
     1
  3
CANNOSCALE
350
48D
  3
CMLEADERSTYLE
350
4AE
  3
CTABLESTYLE
350
4AD
  3
DIMASSOC
350
4E7
  3
HIDETEXT
350
4E8
  3
MSLTSCALE
350
4EF
  3
SORTENTS
350
4E6
  0
XRECORD
  5
4EC
102
{ACAD_REACTORS
330
9
102
}
330
9
100
AcDbXrecord
280
     1
  1
DWGPROPS COOKIE
  2

  3

  4

  6

  7

  8
sg-d03
  9

300
=
301
=
302
=
303
=
304
=
305
=
306
=
307
=
308
=
309
=
 40
0.0
 41
2449812.381805555
 42
2458115.171816296
  1

 90
        0
  0
XRECORD
  5
4EE
102
{ACAD_REACTORS
330
4ED
102
}
330
4ED
100
AcDbXrecord
280
     1
102
VTR_0.000_0.000_1.000_1.000_GRIDDISPLAY
 70
     3
102
VTR_0.000_0.000_1.000_1.000_GRIDMAJOR
 70
     5
102
VTR_0.000_0.000_1.000_1.000_DEFAULTLIGHTING
280
     1
102
VTR_0.000_0.000_1.000_1.000_DEFAULTLIGHTINGTYPE
 70
     1
102
VTR_0.000_0.000_1.000_1.000_BRIGHTNESS
141
0.0
102
VTR_0.000_0.000_1.000_1.000_CONTRAST
142
0.0
  0
DICTIONARY
  5
4
102
{ACAD_REACTORS
330
3
102
}
330
3
100
AcDbDictionary
281
     1
  0
XRECORD
  5
1F
102
{ACAD_REACTORS
330
1E
102
}
330
1E
100
AcDbXrecord
280
     1
290
     1
  0
XRECORD
  5
261
102
{ACAD_REACTORS
330
260
102
}
330
260
100
AcDbXrecord
280
     1
290
     1
  0
XRECORD
  5
6
102
{ACAD_REACTORS
330
5
102
}
330
5
100
AcDbXrecord
280
     1
290
     1
  0
XRECORD
  5
70
102
{ACAD_REACTORS
330
6F
102
}
330
6F
100
AcDbXrecord
280
     1
290
     1
  0
XRECORD
  5
6B
102
{ACAD_REACTORS
330
6A
102
}
330
6A
100
AcDbXrecord
280
     1
290
     1
  0
XRECORD
  5
F9
102
{ACAD_REACTORS
330
F8
102
}
330
F8
100
AcDbXrecord
280
     1
290
     1
  0
SORTENTSTABLE
  5
1B
102
{ACAD_REACTORS
330
1A
102
}
330
1A
100
AcDbSortentsTable
330
19
  0
LAYOUT
  5
21
102
{ACAD_REACTORS
330
22
102
}
330
22
100
AcDbPlotSettings
  1

  2
Bullzip PDF Printer.pc3
  4
A3
  6

 40
0.2
 41
0.0
 42
0.0
 43
0.0
 44
420.2
 45
297.1
 46
25.0
 47
12.0
 48
49.99999988333343
 49
0.0
140
1195.999997258333
141
817.4999980924998
142
1.0
143
3.0
 70
 11936
 72
     1
 73
     0
 74
     4
  7
monochrome.ctb
 75
     0
147
0.3333333333333333
148
-49.99999988333343
149
0.0
100
AcDbLayout
  1
Model
 70
     0
 71
     0
 10
0.0
 20
0.0
 11
12.0
 21
9.0
 12
0.0
 22
0.0
 32
0.0
 14
100.7624053502026
 24
11.67599704068914
 34
0.0
 15
1021.09550420131
 25
820.9725335722649
 35
0.0
146
0.0
 13
0.0
 23
0.0
 33
0.0
 16
1.0
 26
0.0
 36
0.0
 17
0.0
 27
1.0
 37
0.0
 76
     0
330
19
331
31
1001
ACAD_PSEXT
1000
Bullzip PDF Printer.pc3
1000
Bullzip PDF Printer
1000
BULLZIP
1000
Bullzip PDF Printer 10.1.0.1871
1070
     0
  0
LAYOUT
  5
28
102
{ACAD_REACTORS
330
22
102
}
330
22
100
AcDbPlotSettings
  1

  2
SR-LP8300F
  4

  6

 40
0.0
 41
0.0
 42
0.0
 43
0.0
 44
0.0
 45
0.0
 46
0.0
 47
0.0
 48
0.0
 49
0.0
140
0.0
141
0.0
142
1.0
143
1.0
 70
   688
 72
     0
 73
     0
 74
     5
  7
monochrome.ctb
 75
    16
147
1.0
148
0.0
149
0.0
100
AcDbLayout
  1
ﾚｲｱｳﾄ1
 70
     0
 71
     1
 10
0.0
 20
0.0
 11
12.0
 21
9.0
 12
0.0
 22
0.0
 32
0.0
 14
1000000000000000E+20
 24
1000000000000000E+20
 34
1000000000000000E+20
 15
-1000000000000000E+20
 25
-1000000000000000E+20
 35
-1000000000000000E+20
146
0.0
 13
0.0
 23
0.0
 33
0.0
 16
1.0
 26
0.0
 36
0.0
 17
0.0
 27
1.0
 37
0.0
 76
     0
330
25
  0
MATERIAL
  5
67
102
{ACAD_REACTORS
330
B
102
}
102
{ACAD_XDICTIONARY
360
4F4
102
}
330
B
100
AcDbMaterial
  1
ByBlock
 72
     0
 73
     2
 43
0.0208333333333333
 43
0.0
 43
0.0
 43
0.0
 43
0.0
 43
0.0208333333333333
 43
0.0
 43
0.0
 43
0.0
 43
0.0
 43
1.0
 43
0.0
 43
0.0
 43
0.0
 43
0.0
 43
1.0
 77
     0
 78
     2
 47
0.0208333333333333
 47
0.0
 47
0.0
 47
0.0
 47
0.0
 47
0.0208333333333333
 47
0.0
 47
0.0
 47
0.0
 47
0.0
 47
1.0
 47
0.0
 47
0.0
 47
0.0
 47
0.0
 47
1.0
171
     0
172
     2
 49
0.0208333333333333
 49
0.0
 49
0.0
 49
0.0
 49
0.0
 49
0.0208333333333333
 49
0.0
 49
0.0
 49
0.0
 49
0.0
 49
1.0
 49
0.0
 49
0.0
 49
0.0
 49
0.0
 49
1.0
175
     0
176
     2
142
0.0208333333333333
142
0.0
142
0.0
142
0.0
142
0.0
142
0.0208333333333333
142
0.0
142
0.0
142
0.0
142
0.0
142
1.0
142
0.0
142
0.0
142
0.0
142
0.0
142
1.0
179
     0
270
     2
144
0.0208333333333333
144
0.0
144
0.0
144
0.0
144
0.0
144
0.0208333333333333
144
0.0
144
0.0
144
0.0
144
0.0
144
1.0
144
0.0
144
0.0
144
0.0
144
0.0
144
1.0
274
     2
147
0.0208333333333333
147
0.0
147
0.0
147
0.0
147
0.0
147
0.0208333333333333
147
0.0
147
0.0
147
0.0
147
0.0
147
1.0
147
0.0
147
0.0
147
0.0
147
0.0
147
1.0
  0
MATERIAL
  5
12
102
{ACAD_REACTORS
330
B
102
}
102
{ACAD_XDICTIONARY
360
4F0
102
}
330
B
100
AcDbMaterial
  1
ByLayer
 72
     0
 73
     2
 43
0.0208333333333333
 43
0.0
 43
0.0
 43
0.0
 43
0.0
 43
0.0208333333333333
 43
0.0
 43
0.0
 43
0.0
 43
0.0
 43
1.0
 43
0.0
 43
0.0
 43
0.0
 43
0.0
 43
1.0
 77
     0
 78
     2
 47
0.0208333333333333
 47
0.0
 47
0.0
 47
0.0
 47
0.0
 47
0.0208333333333333
 47
0.0
 47
0.0
 47
0.0
 47
0.0
 47
1.0
 47
0.0
 47
0.0
 47
0.0
 47
0.0
 47
1.0
171
     0
172
     2
 49
0.0208333333333333
 49
0.0
 49
0.0
 49
0.0
 49
0.0
 49
0.0208333333333333
 49
0.0
 49
0.0
 49
0.0
 49
0.0
 49
1.0
 49
0.0
 49
0.0
 49
0.0
 49
0.0
 49
1.0
175
     0
176
     2
142
0.0208333333333333
142
0.0
142
0.0
142
0.0
142
0.0
142
0.0208333333333333
142
0.0
142
0.0
142
0.0
142
0.0
142
1.0
142
0.0
142
0.0
142
0.0
142
0.0
142
1.0
179
     0
270
     2
144
0.0208333333333333
144
0.0
144
0.0
144
0.0
144
0.0
144
0.0208333333333333
144
0.0
144
0.0
144
0.0
144
0.0
144
1.0
144
0.0
144
0.0
144
0.0
144
0.0
144
1.0
274
     2
147
0.0208333333333333
147
0.0
147
0.0
147
0.0
147
0.0
147
0.0208333333333333
147
0.0
147
0.0
147
0.0
147
0.0
147
1.0
147
0.0
147
0.0
147
0.0
147
0.0
147
1.0
  0
MATERIAL
  5
A
102
{ACAD_REACTORS
330
B
102
}
102
{ACAD_XDICTIONARY
360
4F2
102
}
330
B
100
AcDbMaterial
  1
Global
 72
     0
 73
     2
 43
0.0208333333333333
 43
0.0
 43
0.0
 43
0.0
 43
0.0
 43
0.0208333333333333
 43
0.0
 43
0.0
 43
0.0
 43
0.0
 43
1.0
 43
0.0
 43
0.0
 43
0.0
 43
0.0
 43
1.0
 77
     0
 78
     2
 47
0.0208333333333333
 47
0.0
 47
0.0
 47
0.0
 47
0.0
 47
0.0208333333333333
 47
0.0
 47
0.0
 47
0.0
 47
0.0
 47
1.0
 47
0.0
 47
0.0
 47
0.0
 47
0.0
 47
1.0
171
     0
172
     2
 49
0.0208333333333333
 49
0.0
 49
0.0
 49
0.0
 49
0.0
 49
0.0208333333333333
 49
0.0
 49
0.0
 49
0.0
 49
0.0
 49
1.0
 49
0.0
 49
0.0
 49
0.0
 49
0.0
 49
1.0
175
     0
176
     2
142
0.0208333333333333
142
0.0
142
0.0
142
0.0
142
0.0
142
0.0208333333333333
142
0.0
142
0.0
142
0.0
142
0.0
142
1.0
142
0.0
142
0.0
142
0.0
142
0.0
142
1.0
179
     0
270
     2
144
0.0208333333333333
144
0.0
144
0.0
144
0.0
144
0.0
144
0.0208333333333333
144
0.0
144
0.0
144
0.0
144
0.0
144
1.0
144
0.0
144
0.0
144
0.0
144
0.0
144
1.0
274
     2
147
0.0208333333333333
147
0.0
147
0.0
147
0.0
147
0.0
147
0.0208333333333333
147
0.0
147
0.0
147
0.0
147
0.0
147
1.0
147
0.0
147
0.0
147
0.0
147
0.0
147
1.0
  0
MLEADERSTYLE
  5
4AB
102
{ACAD_REACTORS
330
48F
102
}
102
{ACAD_XDICTIONARY
360
526
102
}
330
48F
100
AcDbMLeaderStyle
170
     2
171
     1
172
     0
 90
        2
 40
0.0
 41
0.0
173
     1
 91
-1056964608
340
F
 92
       -2
290
     1
 42
0.09
291
     1
 43
0.36
  3
Standard
341
0
 44
0.18
300

342
10
174
     1
178
     6
175
     1
176
     0
 93
-1056964608
 45
0.18
292
     0
297
     0
 46
0.18
343
0
 94
-1056964608
 47
1.0
 49
1.0
140
1.0
293
     1
141
0.0
294
     1
177
     0
142
1.0
295
     0
296
     0
143
0.125
1001
ACAD_MLEADERVER
1070
     2
  0
MLINESTYLE
  5
16
102
{ACAD_REACTORS
330
17
102
}
330
17
100
AcDbMlineStyle
  2
STANDARD
 70
     0
  3

 62
     0
 51
90.0
 52
90.0
 71
     2
 49
0.5
 62
   256
  6
BYLAYER
 49
-0.5
 62
   256
  6
BYLAYER
  0
ACDBPLACEHOLDER
  5
7
102
{ACAD_REACTORS
330
8
102
}
330
8
  0
SCALE
  5
56
102
{ACAD_REACTORS
330
34
102
}
330
34
100
AcDbScale
 70
     0
300
1:1
140
1.0
141
1.0
290
     1
  0
SCALE
  5
5F
102
{ACAD_REACTORS
330
34
102
}
330
34
100
AcDbScale
 70
     0
300
3/8" = 1'-0"
140
0.375
141
12.0
290
     0
  0
SCALE
  5
60
102
{ACAD_REACTORS
330
34
102
}
330
34
100
AcDbScale
 70
     0
300
1/2" = 1'-0"
140
0.5
141
12.0
290
     0
  0
SCALE
  5
61
102
{ACAD_REACTORS
330
34
102
}
330
34
100
AcDbScale
 70
     0
300
3/4" = 1'-0"
140
0.75
141
12.0
290
     0
  0
SCALE
  5
62
102
{ACAD_REACTORS
330
34
102
}
330
34
100
AcDbScale
 70
     0
300
1" = 1'-0"
140
1.0
141
12.0
290
     0
  0
SCALE
  5
63
102
{ACAD_REACTORS
330
34
102
}
330
34
100
AcDbScale
 70
     0
300
1-1/2" = 1'-0"
140
1.5
141
12.0
290
     0
  0
SCALE
  5
64
102
{ACAD_REACTORS
330
34
102
}
330
34
100
AcDbScale
 70
     0
300
3" = 1'-0"
140
3.0
141
12.0
290
     0
  0
SCALE
  5
65
102
{ACAD_REACTORS
330
34
102
}
330
34
100
AcDbScale
 70
     0
300
6" = 1'-0"
140
6.0
141
12.0
290
     0
  0
SCALE
  5
66
102
{ACAD_REACTORS
330
34
102
}
330
34
100
AcDbScale
 70
     0
300
1'-0" = 1'-0"
140
12.0
141
12.0
290
     0
  0
SCALE
  5
57
102
{ACAD_REACTORS
330
34
102
}
330
34
100
AcDbScale
 70
     0
300
1/128" = 1'-0"
140
0.0078125
141
12.0
290
     0
  0
SCALE
  5
58
102
{ACAD_REACTORS
330
34
102
}
330
34
100
AcDbScale
 70
     0
300
1/64" = 1'-0"
140
0.015625
141
12.0
290
     0
  0
SCALE
  5
59
102
{ACAD_REACTORS
330
34
102
}
330
34
100
AcDbScale
 70
     0
300
1/32" = 1'-0"
140
0.03125
141
12.0
290
     0
  0
SCALE
  5
5A
102
{ACAD_REACTORS
330
34
102
}
330
34
100
AcDbScale
 70
     0
300
1/16" = 1'-0"
140
0.0625
141
12.0
290
     0
  0
SCALE
  5
5B
102
{ACAD_REACTORS
330
34
102
}
330
34
100
AcDbScale
 70
     0
300
3/32" = 1'-0"
140
0.09375
141
12.0
290
     0
  0
SCALE
  5
5C
102
{ACAD_REACTORS
330
34
102
}
330
34
100
AcDbScale
 70
     0
300
1/8" = 1'-0"
140
0.125
141
12.0
290
     0
  0
SCALE
  5
5D
102
{ACAD_REACTORS
330
34
102
}
330
34
100
AcDbScale
 70
     0
300
3/16" = 1'-0"
140
0.1875
141
12.0
290
     0
  0
SCALE
  5
5E
102
{ACAD_REACTORS
330
34
102
}
330
34
100
AcDbScale
 70
     0
300
1/4" = 1'-0"
140
0.25
141
12.0
290
     0
  0
TABLESTYLE
  5
4AA
102
{ACAD_REACTORS
330
48E
102
}
330
48E
100
AcDbTableStyle
  3
Standard
 70
     0
 71
     0
 40
0.06
 41
0.06
280
     0
281
     0
  7
STANDARD
140
0.18
170
     2
 62
     0
 63
   257
283
     0
274
    -2
284
     1
 64
     0
275
    -2
285
     1
 65
     0
276
    -2
286
     1
 66
     0
277
    -2
287
     1
 67
     0
278
    -2
288
     1
 68
     0
279
    -2
289
     1
 69
     0
  7
STANDARD
140
0.25
170
     5
 62
     0
 63
   257
283
     0
274
    -2
284
     1
 64
     0
275
    -2
285
     1
 65
     0
276
    -2
286
     1
 66
     0
277
    -2
287
     1
 67
     0
278
    -2
288
     1
 68
     0
279
    -2
289
     1
 69
     0
  7
STANDARD
140
0.18
170
     5
 62
     0
 63
   257
283
     0
274
    -2
284
     1
 64
     0
275
    -2
285
     1
 65
     0
276
    -2
286
     1
 66
     0
277
    -2
287
     1
 67
     0
278
    -2
288
     1
 68
     0
279
    -2
289
     1
 69
     0
  0
VISUALSTYLE
  5
496
102
{ACAD_REACTORS
330
2F
102
}
102
{ACAD_XDICTIONARY
360
4FE
102
}
330
2F
100
AcDbVisualStyle
  2
2dWireframe
 70
     4
 71
     0
 72
     2
 73
     0
 90
        0
 40
0.6
 41
30.0
 62
     5
 63
     7
 74
     1
 91
        4
 64
     7
 65
   257
 75
     1
175
     1
 42
1.0
 92
        0
 66
   257
 43
1.0
 76
     1
 77
     6
 78
     2
 67
     7
 79
     5
170
     0
171
     0
290
     0
174
     0
 93
        1
 44
0.0
173
     0
291
     0
 45
0.0
1001
ACAD
1000
AcDbSavedByObjectVersion
1070
     0
  0
VISUALSTYLE
  5
499
102
{ACAD_REACTORS
330
2F
102
}
102
{ACAD_XDICTIONARY
360
504
102
}
330
2F
100
AcDbVisualStyle
  2
Basic
 70
     7
 71
     1
 72
     0
 73
     1
 90
        0
 40
0.6
 41
30.0
 62
     5
 63
     7
 74
     0
 91
        4
 64
     7
 65
   257
 75
     1
175
     1
 42
1.0
 92
        8
 66
     7
 43
1.0
 76
     1
 77
     6
 78
     2
 67
     7
 79
     5
170
     0
171
     0
290
     0
174
     0
 93
        1
 44
0.0
173
     0
291
     1
 45
0.0
1001
ACAD
1000
AcDbSavedByObjectVersion
1070
     0
  0
VISUALSTYLE
  5
49D
102
{ACAD_REACTORS
330
2F
102
}
102
{ACAD_XDICTIONARY
360
50C
102
}
330
2F
100
AcDbVisualStyle
  2
Brighten
 70
    12
 71
     2
 72
     2
 73
     0
 90
        0
 40
0.6
 41
30.0
 62
     5
 63
     7
 74
     1
 91
        4
 64
     7
 65
   257
 75
     1
175
     1
 42
1.0
 92
        8
 66
     7
 43
1.0
 76
     1
 77
     6
 78
     2
 67
     7
 79
     5
170
     0
171
     0
290
     0
174
     0
 93
        1
 44
50.0
173
     0
291
     1
 45
0.0
1001
ACAD
1000
AcDbSavedByObjectVersion
1070
     0
  0
VISUALSTYLE
  5
4A1
102
{ACAD_REACTORS
330
2F
102
}
102
{ACAD_XDICTIONARY
360
514
102
}
330
2F
100
AcDbVisualStyle
  2
ColorChange
 70
    16
 71
     2
 72
     2
 73
     3
 90
        0
 40
0.6
 41
30.0
 62
     5
 63
     8
 74
     1
 91
        4
 64
     7
 65
   257
 75
     1
175
     1
 42
1.0
 92
        8
 66
     8
 43
1.0
 76
     1
 77
     6
 78
     2
 67
     7
 79
     5
170
     0
171
     0
290
     0
174
     0
 93
        1
 44
0.0
173
     0
291
     1
 45
0.0
1001
ACAD
1000
AcDbSavedByObjectVersion
1070
     0
  0
VISUALSTYLE
  5
49B
102
{ACAD_REACTORS
330
2F
102
}
102
{ACAD_XDICTIONARY
360
508
102
}
330
2F
100
AcDbVisualStyle
  2
Conceptual
 70
     9
 71
     3
 72
     2
 73
     0
 90
        0
 40
0.6
 41
30.0
 62
     5
 63
     7
 74
     2
 91
        2
 64
     7
 65
   257
 75
     1
175
     1
 42
40.0
 92
        8
 66
     7
 43
1.0
 76
     1
 77
     6
 78
     2
 67
     7
 79
     3
170
     0
171
     0
290
     0
174
     0
 93
        1
 44
0.0
173
     0
291
     0
 45
0.0
1001
ACAD
1000
AcDbSavedByObjectVersion
1070
     0
  0
VISUALSTYLE
  5
49C
102
{ACAD_REACTORS
330
2F
102
}
102
{ACAD_XDICTIONARY
360
50A
102
}
330
2F
100
AcDbVisualStyle
  2
Dim
 70
    11
 71
     2
 72
     2
 73
     0
 90
        0
 40
0.6
 41
30.0
 62
     5
 63
     7
 74
     1
 91
        4
 64
     7
 65
   257
 75
     1
175
     1
 42
1.0
 92
        8
 66
     7
 43
1.0
 76
     1
 77
     6
 78
     2
 67
     7
 79
     5
170
     0
171
     0
290
     0
174
     0
 93
        1
 44
-50.0
173
     0
291
     1
 45
0.0
1001
ACAD
1000
AcDbSavedByObjectVersion
1070
     0
  0
VISUALSTYLE
  5
4A4
102
{ACAD_REACTORS
330
2F
102
}
102
{ACAD_XDICTIONARY
360
51A
102
}
330
2F
100
AcDbVisualStyle
  2
EdgeColorOff
 70
    22
 71
     2
 72
     2
 73
     0
 90
        0
 40
0.6
 41
30.0
 62
     5
 63
     7
 74
     1
 91
        4
 64
     7
 65
   257
 75
     1
175
     1
 42
1.0
 92
        8
 66
     7
 43
1.0
 76
     1
 77
     6
 78
     2
 67
     7
 79
     5
170
     0
171
     0
290
     0
174
     0
 93
        1
 44
0.0
173
     0
291
     1
 45
0.0
1001
ACAD
1000
AcDbSavedByObjectVersion
1070
     0
  0
VISUALSTYLE
  5
4A0
102
{ACAD_REACTORS
330
2F
102
}
102
{ACAD_XDICTIONARY
360
512
102
}
330
2F
100
AcDbVisualStyle
  2
Facepattern
 70
    15
 71
     2
 72
     2
 73
     0
 90
        0
 40
0.6
 41
30.0
 62
     5
 63
     7
 74
     1
 91
        4
 64
     7
 65
   257
 75
     1
175
     1
 42
1.0
 92
        8
 66
     7
 43
1.0
 76
     1
 77
     6
 78
     2
 67
     7
 79
     5
170
     0
171
     0
290
     0
174
     0
 93
        1
 44
0.0
173
     0
291
     1
 45
0.0
1001
ACAD
1000
AcDbSavedByObjectVersion
1070
     0
  0
VISUALSTYLE
  5
492
102
{ACAD_REACTORS
330
2F
102
}
102
{ACAD_XDICTIONARY
360
4F6
102
}
330
2F
100
AcDbVisualStyle
  2
Flat
 70
     0
 71
     2
 72
     1
 73
     1
 90
        2
 40
0.6
 41
30.0
 62
     5
 63
     7
 74
     0
 91
        4
 64
     7
 65
   257
 75
     1
175
     1
 42
1.0
 92
        8
 66
     7
 43
1.0
 76
     1
 77
     6
 78
     2
 67
     7
 79
     5
170
     0
171
     0
290
     0
174
     0
 93
       13
 44
0.0
173
     0
291
     1
 45
0.0
1001
ACAD
1000
AcDbSavedByObjectVersion
1070
     0
  0
VISUALSTYLE
  5
493
102
{ACAD_REACTORS
330
2F
102
}
102
{ACAD_XDICTIONARY
360
4F8
102
}
330
2F
100
AcDbVisualStyle
  2
FlatWithEdges
 70
     1
 71
     2
 72
     1
 73
     1
 90
        2
 40
0.6
 41
30.0
 62
     5
 63
     7
 74
     1
 91
        4
 64
     7
 65
   257
 75
     1
175
     1
 42
1.0
 92
        0
 66
   257
 43
1.0
 76
     1
 77
     6
 78
     2
 67
     7
 79
     5
170
     0
171
     0
290
     0
174
     0
 93
       13
 44
0.0
173
     0
291
     1
 45
0.0
1001
ACAD
1000
AcDbSavedByObjectVersion
1070
     0
  0
VISUALSTYLE
  5
494
102
{ACAD_REACTORS
330
2F
102
}
102
{ACAD_XDICTIONARY
360
4FA
102
}
330
2F
100
AcDbVisualStyle
  2
Gouraud
 70
     2
 71
     2
 72
     2
 73
     1
 90
        2
 40
0.6
 41
30.0
 62
     5
 63
     7
 74
     0
 91
        4
 64
     7
 65
   257
 75
     1
175
     1
 42
1.0
 92
        0
 66
     7
 43
1.0
 76
     1
 77
     6
 78
     2
 67
     7
 79
     5
170
     0
171
     0
290
     0
174
     0
 93
       13
 44
0.0
173
     0
291
     1
 45
0.0
1001
ACAD
1000
AcDbSavedByObjectVersion
1070
     0
  0
VISUALSTYLE
  5
495
102
{ACAD_REACTORS
330
2F
102
}
102
{ACAD_XDICTIONARY
360
4FC
102
}
330
2F
100
AcDbVisualStyle
  2
GouraudWithEdges
 70
     3
 71
     2
 72
     2
 73
     1
 90
        2
 40
0.6
 41
30.0
 62
     5
 63
     7
 74
     1
 91
        4
 64
     7
 65
   257
 75
     1
175
     1
 42
1.0
 92
        0
 66
   257
 43
1.0
 76
     1
 77
     6
 78
     2
 67
     7
 79
     5
170
     0
171
     0
290
     0
174
     0
 93
       13
 44
0.0
173
     0
291
     1
 45
0.0
1001
ACAD
1000
AcDbSavedByObjectVersion
1070
     0
  0
VISUALSTYLE
  5
498
102
{ACAD_REACTORS
330
2F
102
}
102
{ACAD_XDICTIONARY
360
502
102
}
330
2F
100
AcDbVisualStyle
  2
Hidden
 70
     6
 71
     1
 72
     2
 73
     2
 90
        0
 40
0.6
 41
30.0
 62
     5
 63
     7
 74
     2
 91
        2
 64
     7
 65
   257
 75
     2
175
     1
 42
40.0
 92
        0
 66
   257
 43
1.0
 76
     1
 77
     6
 78
     2
 67
     7
 79
     3
170
     0
171
     0
290
     0
174
     0
 93
        1
 44
0.0
173
     0
291
     0
 45
0.0
1001
ACAD
1000
AcDbSavedByObjectVersion
1070
     0
  0
VISUALSTYLE
  5
4A2
102
{ACAD_REACTORS
330
2F
102
}
102
{ACAD_XDICTIONARY
360
516
102
}
330
2F
100
AcDbVisualStyle
  2
JitterOff
 70
    20
 71
     2
 72
     2
 73
     0
 90
        0
 40
0.6
 41
30.0
 62
     5
 63
     7
 74
     1
 91
        4
 64
     7
 65
   257
 75
     1
175
     1
 42
1.0
 92
       10
 66
     7
 43
1.0
 76
     1
 77
     6
 78
     2
 67
     7
 79
     5
170
     0
171
     0
290
     0
174
     0
 93
        1
 44
0.0
173
     0
291
     1
 45
0.0
1001
ACAD
1000
AcDbSavedByObjectVersion
1070
     0
  0
VISUALSTYLE
  5
49F
102
{ACAD_REACTORS
330
2F
102
}
102
{ACAD_XDICTIONARY
360
510
102
}
330
2F
100
AcDbVisualStyle
  2
Linepattern
 70
    14
 71
     2
 72
     2
 73
     0
 90
        0
 40
0.6
 41
30.0
 62
     5
 63
     7
 74
     1
 91
        4
 64
     7
 65
   257
 75
     7
175
     7
 42
1.0
 92
        8
 66
     7
 43
1.0
 76
     1
 77
     6
 78
     2
 67
     7
 79
     5
170
     0
171
     0
290
     0
174
     0
 93
        1
 44
0.0
173
     0
291
     1
 45
0.0
1001
ACAD
1000
AcDbSavedByObjectVersion
1070
     0
  0
VISUALSTYLE
  5
4A3
102
{ACAD_REACTORS
330
2F
102
}
102
{ACAD_XDICTIONARY
360
518
102
}
330
2F
100
AcDbVisualStyle
  2
OverhangOff
 70
    21
 71
     2
 72
     2
 73
     0
 90
        0
 40
0.6
 41
30.0
 62
     5
 63
     7
 74
     1
 91
        4
 64
     7
 65
   257
 75
     1
175
     1
 42
1.0
 92
        9
 66
     7
 43
1.0
 76
     1
 77
     6
 78
     2
 67
     7
 79
     5
170
     0
171
     0
290
     0
174
     0
 93
        1
 44
0.0
173
     0
291
     1
 45
0.0
1001
ACAD
1000
AcDbSavedByObjectVersion
1070
     0
  0
VISUALSTYLE
  5
49A
102
{ACAD_REACTORS
330
2F
102
}
102
{ACAD_XDICTIONARY
360
506
102
}
330
2F
100
AcDbVisualStyle
  2
Realistic
 70
     8
 71
     2
 72
     3
 73
     0
 90
        2
 40
0.6
 41
30.0
 62
     5
 63
     7
 74
     0
 91
        0
 64
     7
 65
   257
 75
     1
175
     1
 42
1.0
 92
        8
 66
   257
 43
1.0
 76
     1
 77
     6
 78
     2
 67
     7
 79
     3
170
     0
171
     0
290
     0
174
     0
 93
       13
 44
0.0
173
     0
291
     0
 45
0.0
1001
ACAD
1000
AcDbSavedByObjectVersion
1070
     0
  0
VISUALSTYLE
  5
4A9
102
{ACAD_REACTORS
330
2F
102
}
102
{ACAD_XDICTIONARY
360
524
102
}
330
2F
100
AcDbVisualStyle
  2
Shaded
 70
    27
 71
     2
 72
     2
 73
     1
 90
        2
 40
0.6
 41
30.0
 62
     5
 63
     7
 74
     0
 91
        4
 64
     7
 65
   257
 75
     1
175
     1
 42
1.0
 92
        8
 66
   257
 43
1.0
 76
     1
 77
     6
 78
     2
 67
   251
 79
     3
170
     0
171
     0
290
     0
174
     0
 93
        5
 44
0.0
173
     0
291
     0
 45
0.0
1001
ACAD
1000
AcDbSavedByObjectVersion
1070
     0
  0
VISUALSTYLE
  5
4A8
102
{ACAD_REACTORS
330
2F
102
}
102
{ACAD_XDICTIONARY
360
522
102
}
330
2F
100
AcDbVisualStyle
  2
Shaded with edges
 70
    26
 71
     2
 72
     2
 73
     1
 90
        2
 40
0.6
 41
30.0
 62
     5
 63
     7
 74
     1
 91
       10
 64
     7
 65
   257
 75
     2
175
     1
 42
1.0
 92
        8
 66
   257
 43
1.0
 76
     1
 77
     6
 78
     2
 67
     7
 79
     3
170
     0
171
     0
290
     0
174
     0
 93
        5
 44
0.0
173
     0
291
     0
 45
0.0
1001
ACAD
1000
AcDbSavedByObjectVersion
1070
     0
  0
VISUALSTYLE
  5
4A5
102
{ACAD_REACTORS
330
2F
102
}
102
{ACAD_XDICTIONARY
360
51C
102
}
330
2F
100
AcDbVisualStyle
  2
Shades of Gray
 70
    23
 71
     2
 72
     2
 73
     3
 90
        0
 40
0.6
 41
30.0
 62
     5
 63
     7
 74
     2
 91
        2
 64
     7
 65
     7
 75
     1
175
     1
 42
40.0
 92
        8
 66
     7
 43
1.0
 76
     1
 77
     6
 78
     2
 67
     7
 79
     3
170
     0
171
     0
290
     0
174
     0
 93
        1
 44
0.0
173
     0
291
     0
 45
0.0
1001
ACAD
1000
AcDbSavedByObjectVersion
1070
     0
  0
VISUALSTYLE
  5
4A6
102
{ACAD_REACTORS
330
2F
102
}
102
{ACAD_XDICTIONARY
360
51E
102
}
330
2F
100
AcDbVisualStyle
  2
Sketchy
 70
    24
 71
     1
 72
     2
 73
     2
 90
        0
 40
0.6
 41
30.0
 62
     5
 63
     7
 74
     2
 91
        2
 64
     7
 65
     7
 75
     1
175
     1
 42
40.0
 92
       11
 66
     7
 43
1.0
 76
     1
 77
     6
 78
     2
 67
     7
 79
     6
170
     0
171
     0
290
     0
174
     0
 93
        1
 44
0.0
173
     0
291
     0
 45
0.0
1001
ACAD
1000
AcDbSavedByObjectVersion
1070
     0
  0
VISUALSTYLE
  5
49E
102
{ACAD_REACTORS
330
2F
102
}
102
{ACAD_XDICTIONARY
360
50E
102
}
330
2F
100
AcDbVisualStyle
  2
Thicken
 70
    13
 71
     2
 72
     2
 73
     0
 90
        0
 40
0.6
 41
30.0
 62
     5
 63
     7
 74
     1
 91
        4
 64
     7
 65
   257
 75
     1
175
     1
 42
1.0
 92
       12
 66
     7
 43
1.0
 76
     1
 77
     6
 78
     2
 67
     7
 79
     5
170
     0
171
     0
290
     0
174
     0
 93
        1
 44
0.0
173
     0
291
     1
 45
0.0
1001
ACAD
1000
AcDbSavedByObjectVersion
1070
     0
  0
VISUALSTYLE
  5
497
102
{ACAD_REACTORS
330
2F
102
}
102
{ACAD_XDICTIONARY
360
500
102
}
330
2F
100
AcDbVisualStyle
  2
Wireframe
 70
     5
 71
     0
 72
     2
 73
     0
 90
        0
 40
0.6
 41
30.0
 62
     5
 63
     7
 74
     1
 91
        4
 64
     7
 65
   257
 75
     1
175
     1
 42
1.0
 92
        0
 66
   257
 43
1.0
 76
     1
 77
     6
 78
     2
 67
     7
 79
     5
170
     0
171
     0
290
     0
174
     0
 93
        1
 44
0.0
173
     0
291
     0
 45
0.0
1001
ACAD
1000
AcDbSavedByObjectVersion
1070
     0
  0
VISUALSTYLE
  5
4A7
102
{ACAD_REACTORS
330
2F
102
}
102
{ACAD_XDICTIONARY
360
520
102
}
330
2F
100
AcDbVisualStyle
  2
X-Ray
 70
    25
 71
     2
 72
     2
 73
     1
 90
        1
 40
0.5
 41
30.0
 62
     5
 63
     7
 74
     1
 91
        0
 64
     7
 65
   257
 75
     1
175
     1
 42
1.0
 92
        8
 66
     7
 43
1.0
 76
     1
 77
     6
 78
     2
 67
     7
 79
     3
170
     0
171
     0
290
     0
174
     0
 93
       13
 44
0.0
173
     0
291
     0
 45
0.0
1001
ACAD
1000
AcDbSavedByObjectVersion
1070
     0
  0
XRECORD
  5
4EA
102
{ACAD_REACTORS
330
4E9
102
}
330
4E9
100
AcDbXrecord
280
     1
340
2E
  0
XRECORD
  5
4EB
102
{ACAD_REACTORS
330
4E9
102
}
330
4E9
100
AcDbXrecord
280
     1
340
B
  0
DICTIONARYVAR
  5
48D
102
{ACAD_REACTORS
330
48C
102
}
330
48C
100
DictionaryVariables
280
     0
  1
1:1
  0
DICTIONARYVAR
  5
4AE
102
{ACAD_REACTORS
330
48C
102
}
330
48C
100
DictionaryVariables
280
     0
  1
Standard
  0
DICTIONARYVAR
  5
4AD
102
{ACAD_REACTORS
330
48C
102
}
330
48C
100
DictionaryVariables
280
     0
  1
Standard
  0
DICTIONARYVAR
  5
4E7
102
{ACAD_REACTORS
330
48C
102
}
330
48C
100
DictionaryVariables
280
     0
  1
0
  0
DICTIONARYVAR
  5
4E8
102
{ACAD_REACTORS
330
48C
102
}
330
48C
100
DictionaryVariables
280
     0
  1
0
  0
DICTIONARYVAR
  5
4EF
102
{ACAD_REACTORS
330
48C
102
}
330
48C
100
DictionaryVariables
280
     0
  1
1
  0
DICTIONARYVAR
  5
4E6
102
{ACAD_REACTORS
330
48C
102
}
330
48C
100
DictionaryVariables
280
     0
  1
96
  0
DICTIONARY
  5
4F4
330
67
100
AcDbDictionary
280
     1
281
     1
  3
ACAD_XREC_ROUNDTRIP
360
4F5
  0
DICTIONARY
  5
4F0
330
12
100
AcDbDictionary
280
     1
281
     1
  3
ACAD_XREC_ROUNDTRIP
360
4F1
  0
DICTIONARY
  5
4F2
330
A
100
AcDbDictionary
280
     1
281
     1
  3
ACAD_XREC_ROUNDTRIP
360
4F3
  0
DICTIONARY
  5
526
330
4AB
100
AcDbDictionary
280
     1
281
     1
  3
ACAD_XREC_ROUNDTRIP
360
527
  0
DICTIONARY
  5
4FE
330
496
100
AcDbDictionary
280
     1
281
     1
  3
ACAD_XREC_ROUNDTRIP
360
4FF
  0
DICTIONARY
  5
504
330
499
100
AcDbDictionary
280
     1
281
     1
  3
ACAD_XREC_ROUNDTRIP
360
505
  0
DICTIONARY
  5
50C
330
49D
100
AcDbDictionary
280
     1
281
     1
  3
ACAD_XREC_ROUNDTRIP
360
50D
  0
DICTIONARY
  5
514
330
4A1
100
AcDbDictionary
280
     1
281
     1
  3
ACAD_XREC_ROUNDTRIP
360
515
  0
DICTIONARY
  5
508
330
49B
100
AcDbDictionary
280
     1
281
     1
  3
ACAD_XREC_ROUNDTRIP
360
509
  0
DICTIONARY
  5
50A
330
49C
100
AcDbDictionary
280
     1
281
     1
  3
ACAD_XREC_ROUNDTRIP
360
50B
  0
DICTIONARY
  5
51A
330
4A4
100
AcDbDictionary
280
     1
281
     1
  3
ACAD_XREC_ROUNDTRIP
360
51B
  0
DICTIONARY
  5
512
330
4A0
100
AcDbDictionary
280
     1
281
     1
  3
ACAD_XREC_ROUNDTRIP
360
513
  0
DICTIONARY
  5
4F6
330
492
100
AcDbDictionary
280
     1
281
     1
  3
ACAD_XREC_ROUNDTRIP
360
4F7
  0
DICTIONARY
  5
4F8
330
493
100
AcDbDictionary
280
     1
281
     1
  3
ACAD_XREC_ROUNDTRIP
360
4F9
  0
DICTIONARY
  5
4FA
330
494
100
AcDbDictionary
280
     1
281
     1
  3
ACAD_XREC_ROUNDTRIP
360
4FB
  0
DICTIONARY
  5
4FC
330
495
100
AcDbDictionary
280
     1
281
     1
  3
ACAD_XREC_ROUNDTRIP
360
4FD
  0
DICTIONARY
  5
502
330
498
100
AcDbDictionary
280
     1
281
     1
  3
ACAD_XREC_ROUNDTRIP
360
503
  0
DICTIONARY
  5
516
330
4A2
100
AcDbDictionary
280
     1
281
     1
  3
ACAD_XREC_ROUNDTRIP
360
517
  0
DICTIONARY
  5
510
330
49F
100
AcDbDictionary
280
     1
281
     1
  3
ACAD_XREC_ROUNDTRIP
360
511
  0
DICTIONARY
  5
518
330
4A3
100
AcDbDictionary
280
     1
281
     1
  3
ACAD_XREC_ROUNDTRIP
360
519
  0
DICTIONARY
  5
506
330
49A
100
AcDbDictionary
280
     1
281
     1
  3
ACAD_XREC_ROUNDTRIP
360
507
  0
DICTIONARY
  5
524
330
4A9
100
AcDbDictionary
280
     1
281
     1
  3
ACAD_XREC_ROUNDTRIP
360
525
  0
DICTIONARY
  5
522
330
4A8
100
AcDbDictionary
280
     1
281
     1
  3
ACAD_XREC_ROUNDTRIP
360
523
  0
DICTIONARY
  5
51C
330
4A5
100
AcDbDictionary
280
     1
281
     1
  3
ACAD_XREC_ROUNDTRIP
360
51D
  0
DICTIONARY
  5
51E
330
4A6
100
AcDbDictionary
280
     1
281
     1
  3
ACAD_XREC_ROUNDTRIP
360
51F
  0
DICTIONARY
  5
50E
330
49E
100
AcDbDictionary
280
     1
281
     1
  3
ACAD_XREC_ROUNDTRIP
360
50F
  0
DICTIONARY
  5
500
330
497
100
AcDbDictionary
280
     1
281
     1
  3
ACAD_XREC_ROUNDTRIP
360
501
  0
DICTIONARY
  5
520
330
4A7
100
AcDbDictionary
280
     1
281
     1
  3
ACAD_XREC_ROUNDTRIP
360
521
  0
XRECORD
  5
4F5
102
{ACAD_REACTORS
330
4F4
102
}
330
4F4
100
AcDbXrecord
280
     1
102
MATERIAL
148
0.0
149
0.0
149
0.0
 93
        0
 94
      127
282
     0
 72
     0
 77
     0
171
     0
175
     0
179
     0
273
     0
  0
XRECORD
  5
4F1
102
{ACAD_REACTORS
330
4F0
102
}
330
4F0
100
AcDbXrecord
280
     1
102
MATERIAL
148
0.0
149
0.0
149
0.0
 93
        0
 94
      127
282
     0
 72
     0
 77
     0
171
     0
175
     0
179
     0
273
     0
  0
XRECORD
  5
4F3
102
{ACAD_REACTORS
330
4F2
102
}
330
4F2
100
AcDbXrecord
280
     1
102
MATERIAL
148
0.0
149
0.0
149
0.0
 93
        0
 94
      127
282
     0
 72
     0
 77
     0
171
     0
175
     0
179
     0
273
     0
  0
XRECORD
  5
527
102
{ACAD_REACTORS
330
526
102
}
330
526
100
AcDbXrecord
280
     1
102
ACAD_ROUNDTRIP_2010_MLEADER_STYLE
  0
XRECORD
  5
4FF
102
{ACAD_REACTORS
330
4FE
102
}
330
4FE
100
AcDbXrecord
280
     1
102
RTVSPropertyOp0
 70
     1
102
RTVSPropertyOp1
 70
     1
102
RTVSPropertyOp2
 70
     1
102
RTVSPropertyOp3
 70
     1
102
RTVSPropertyOp4
 70
     1
102
RTVSPropertyOp5
 70
     1
102
RTVSPropertyOp6
 70
     1
102
RTVSPropertyOp7
 70
     1
102
RTVSPropertyOp8
 70
     1
102
RTVSPropertyOp9
 70
     1
102
RTVSPropertyOp10
 70
     1
102
RTVSPropertyOp11
 70
     1
102
RTVSPropertyOp12
 70
     1
102
RTVSPropertyOp13
 70
     1
102
RTVSPropertyOp14
 70
     1
102
RTVSPropertyOp15
 70
     1
102
RTVSPropertyOp16
 70
     1
102
RTVSPropertyOp17
 70
     1
102
RTVSPropertyOp18
 70
     1
102
RTVSPropertyOp19
 70
     1
102
RTVSPropertyOp20
 70
     1
102
RTVSPropertyOp21
 70
     1
102
RTVSPropertyOp22
 70
     1
102
RTVSPropertyOp23
 70
     1
102
RTVSPropertyOp24
 70
     1
102
RTVSPropertyOp25
 70
     1
102
RTVSPropertyOp26
 70
     1
102
RTVSPropertyOp27
 70
     1
102
RTVSPropertyOp28
 70
     1
102
RTVSPropertyOp29
 70
     1
102
RTVSPropertyOp30
 70
     1
102
RTVSPropertyOp31
 70
     1
102
RTVSPropertyOp32
 70
     1
102
RTVSPropertyOp33
 70
     1
102
RTVSPropertyOp34
 70
     1
102
RTVSPropertyOp35
 70
     1
102
RTVSPropertyOp36
 70
     1
102
RTVSPropertyOp37
 70
     1
102
RTVSPropertyOp38
 70
     1
102
RTVSPropertyOp39
 70
     1
102
RTVSPropertyOp40
 70
     1
102
RTVSPropertyOp41
 70
     1
102
RTVSPropertyOp42
 70
     1
102
RTVSPropertyOp43
 70
     1
102
RTVSPropertyOp44
 70
     1
102
RTVSPropertyOp45
 70
     1
102
RTVSPropertyOp46
 70
     1
102
RTVSPropertyOp47
 70
     1
102
RTVSPropertyOp48
 70
     1
102
RTVSPropertyOp49
 70
     1
102
RTVSPropertyOp50
 70
     1
102
RTVSPropertyOp51
 70
     0
102
RTVSPropertyOp52
 70
     0
102
RTVSPropertyOp53
 70
     1
102
RTVSPropertyOp54
 70
     1
102
RTVSPropertyOp55
 70
     1
102
RTVSPropertyOp56
 70
     1
102
RTVSPropertyOp57
 70
     1
102
RTVSPost2010Prop28
280
     1
102
RTVSPost2010PropOp28
 70
     1
102
RTVSPost2010Prop29
280
     1
102
RTVSPost2010PropOp29
 70
     1
102
RTVSPost2010Prop30
280
     0
102
RTVSPost2010PropOp30
 70
     1
102
RTVSPost2010Prop31
280
     0
102
RTVSPost2010PropOp31
 70
     1
102
RTVSPost2010Prop32
280
     0
102
RTVSPost2010PropOp32
 70
     1
102
RTVSPost2010Prop33
280
     0
102
RTVSPost2010PropOp33
 70
     1
102
RTVSPost2010Prop34
280
     0
102
RTVSPost2010PropOp34
 70
     1
102
RTVSPost2010Prop35
280
     0
102
RTVSPost2010PropOp35
 70
     1
102
RTVSPost2010Prop36
280
     0
102
RTVSPost2010PropOp36
 70
     1
102
RTVSPost2010Prop37
 90
       50
102
RTVSPost2010PropOp37
 70
     1
102
RTVSPost2010Prop38
140
0.0
102
RTVSPost2010PropOp38
 70
     1
102
RTVSPost2010Prop39
140
1.0
102
RTVSPost2010PropOp39
 70
     1
102
RTVSPost2010Prop40
 90
        0
102
RTVSPost2010PropOp40
 70
     1
102
RTVSPost2010Prop41ColorIndex
 90
       18
102
RTVSPost2010Prop41ColorRGB
 90
        0
102
RTVSPost2010PropOp41
 70
     1
102
RTVSPost2010Prop42
 90
       50
102
RTVSPost2010PropOp42
 70
     1
102
RTVSPost2010Prop43
 90
        3
102
RTVSPost2010PropOp43
 70
     1
102
RTVSPost2010Prop44ColorIndex
 90
        5
102
RTVSPost2010Prop44ColorRGB
 90
      255
102
RTVSPost2010PropOp44
 70
     1
102
RTVSPost2010Prop45
280
     0
102
RTVSPost2010PropOp45
 70
     1
102
RTVSPost2010Prop46
 90
       50
102
RTVSPost2010PropOp46
 70
     1
102
RTVSPost2010Prop47
 90
       50
102
RTVSPost2010PropOp47
 70
     1
102
RTVSPost2010Prop48
 90
       50
102
RTVSPost2010PropOp48
 70
     1
102
RTVSPost2010Prop49
280
     0
102
RTVSPost2010PropOp49
 70
     1
102
RTVSPost2010Prop50
 90
       50
102
RTVSPost2010PropOp50
 70
     1
102
RTVSPost2010Prop51ColorIndex
 90
      256
102
RTVSPost2010Prop51ColorRGB
 90
-16777216
102
RTVSPost2010PropOp51
 70
     0
102
RTVSPost2010Prop52
140
1.0
102
RTVSPost2010PropOp52
 70
     0
102
RTVSPost2010Prop53
 90
        2
102
RTVSPost2010PropOp53
 70
     1
102
RTVSPost2010Prop54
  1
strokes_ogs.tif
102
RTVSPost2010PropOp54
 70
     1
102
RTVSPost2010Prop55
280
     0
102
RTVSPost2010PropOp55
 70
     1
102
RTVSPost2010Prop56
140
1.0
102
RTVSPost2010PropOp56
 70
     1
102
RTVSPost2010Prop57
140
1.0
102
RTVSPost2010PropOp57
 70
     1
  0
XRECORD
  5
505
102
{ACAD_REACTORS
330
504
102
}
330
504
100
AcDbXrecord
280
     1
102
RTVSPropertyOp0
 70
     1
102
RTVSPropertyOp1
 70
     1
102
RTVSPropertyOp2
 70
     1
102
RTVSPropertyOp3
 70
     1
102
RTVSPropertyOp4
 70
     1
102
RTVSPropertyOp5
 70
     1
102
RTVSPropertyOp6
 70
     1
102
RTVSPropertyOp7
 70
     1
102
RTVSPropertyOp8
 70
     1
102
RTVSPropertyOp9
 70
     1
102
RTVSPropertyOp10
 70
     1
102
RTVSPropertyOp11
 70
     1
102
RTVSPropertyOp12
 70
     1
102
RTVSPropertyOp13
 70
     1
102
RTVSPropertyOp14
 70
     1
102
RTVSPropertyOp15
 70
     1
102
RTVSPropertyOp16
 70
     1
102
RTVSPropertyOp17
 70
     1
102
RTVSPropertyOp18
 70
     1
102
RTVSPropertyOp19
 70
     1
102
RTVSPropertyOp20
 70
     1
102
RTVSPropertyOp21
 70
     1
102
RTVSPropertyOp22
 70
     1
102
RTVSPropertyOp23
 70
     1
102
RTVSPropertyOp24
 70
     1
102
RTVSPropertyOp25
 70
     1
102
RTVSPropertyOp26
 70
     1
102
RTVSPropertyOp27
 70
     1
102
RTVSPropertyOp28
 70
     1
102
RTVSPropertyOp29
 70
     1
102
RTVSPropertyOp30
 70
     1
102
RTVSPropertyOp31
 70
     1
102
RTVSPropertyOp32
 70
     1
102
RTVSPropertyOp33
 70
     1
102
RTVSPropertyOp34
 70
     1
102
RTVSPropertyOp35
 70
     1
102
RTVSPropertyOp36
 70
     1
102
RTVSPropertyOp37
 70
     1
102
RTVSPropertyOp38
 70
     1
102
RTVSPropertyOp39
 70
     1
102
RTVSPropertyOp40
 70
     1
102
RTVSPropertyOp41
 70
     1
102
RTVSPropertyOp42
 70
     1
102
RTVSPropertyOp43
 70
     1
102
RTVSPropertyOp44
 70
     1
102
RTVSPropertyOp45
 70
     1
102
RTVSPropertyOp46
 70
     1
102
RTVSPropertyOp47
 70
     1
102
RTVSPropertyOp48
 70
     1
102
RTVSPropertyOp49
 70
     1
102
RTVSPropertyOp50
 70
     1
102
RTVSPropertyOp51
 70
     0
102
RTVSPropertyOp52
 70
     0
102
RTVSPropertyOp53
 70
     1
102
RTVSPropertyOp54
 70
     1
102
RTVSPropertyOp55
 70
     1
102
RTVSPropertyOp56
 70
     1
102
RTVSPropertyOp57
 70
     1
102
RTVSPost2010Prop28
280
     0
102
RTVSPost2010PropOp28
 70
     1
102
RTVSPost2010Prop29
280
     1
102
RTVSPost2010PropOp29
 70
     1
102
RTVSPost2010Prop30
280
     1
102
RTVSPost2010PropOp30
 70
     1
102
RTVSPost2010Prop31
280
     0
102
RTVSPost2010PropOp31
 70
     1
102
RTVSPost2010Prop32
280
     0
102
RTVSPost2010PropOp32
 70
     1
102
RTVSPost2010Prop33
280
     0
102
RTVSPost2010PropOp33
 70
     1
102
RTVSPost2010Prop34
280
     0
102
RTVSPost2010PropOp34
 70
     1
102
RTVSPost2010Prop35
280
     0
102
RTVSPost2010PropOp35
 70
     1
102
RTVSPost2010Prop36
280
     0
102
RTVSPost2010PropOp36
 70
     1
102
RTVSPost2010Prop37
 90
       50
102
RTVSPost2010PropOp37
 70
     1
102
RTVSPost2010Prop38
140
0.0
102
RTVSPost2010PropOp38
 70
     1
102
RTVSPost2010Prop39
140
1.0
102
RTVSPost2010PropOp39
 70
     1
102
RTVSPost2010Prop40
 90
        0
102
RTVSPost2010PropOp40
 70
     1
102
RTVSPost2010Prop41ColorIndex
 90
       18
102
RTVSPost2010Prop41ColorRGB
 90
        0
102
RTVSPost2010PropOp41
 70
     1
102
RTVSPost2010Prop42
 90
       50
102
RTVSPost2010PropOp42
 70
     1
102
RTVSPost2010Prop43
 90
        3
102
RTVSPost2010PropOp43
 70
     1
102
RTVSPost2010Prop44ColorIndex
 90
        5
102
RTVSPost2010Prop44ColorRGB
 90
      255
102
RTVSPost2010PropOp44
 70
     1
102
RTVSPost2010Prop45
280
     0
102
RTVSPost2010PropOp45
 70
     1
102
RTVSPost2010Prop46
 90
       50
102
RTVSPost2010PropOp46
 70
     1
102
RTVSPost2010Prop47
 90
       50
102
RTVSPost2010PropOp47
 70
     1
102
RTVSPost2010Prop48
 90
       50
102
RTVSPost2010PropOp48
 70
     1
102
RTVSPost2010Prop49
280
     0
102
RTVSPost2010PropOp49
 70
     1
102
RTVSPost2010Prop50
 90
       50
102
RTVSPost2010PropOp50
 70
     1
102
RTVSPost2010Prop51ColorIndex
 90
      256
102
RTVSPost2010Prop51ColorRGB
 90
-16777216
102
RTVSPost2010PropOp51
 70
     0
102
RTVSPost2010Prop52
140
1.0
102
RTVSPost2010PropOp52
 70
     0
102
RTVSPost2010Prop53
 90
        2
102
RTVSPost2010PropOp53
 70
     1
102
RTVSPost2010Prop54
  1
strokes_ogs.tif
102
RTVSPost2010PropOp54
 70
     1
102
RTVSPost2010Prop55
280
     0
102
RTVSPost2010PropOp55
 70
     1
102
RTVSPost2010Prop56
140
1.0
102
RTVSPost2010PropOp56
 70
     1
102
RTVSPost2010Prop57
140
1.0
102
RTVSPost2010PropOp57
 70
     1
  0
XRECORD
  5
50D
102
{ACAD_REACTORS
330
50C
102
}
330
50C
100
AcDbXrecord
280
     1
102
RTVSPropertyOp0
 70
     1
102
RTVSPropertyOp1
 70
     1
102
RTVSPropertyOp2
 70
     1
102
RTVSPropertyOp3
 70
     1
102
RTVSPropertyOp4
 70
     1
102
RTVSPropertyOp5
 70
     1
102
RTVSPropertyOp6
 70
     1
102
RTVSPropertyOp7
 70
     1
102
RTVSPropertyOp8
 70
     1
102
RTVSPropertyOp9
 70
     1
102
RTVSPropertyOp10
 70
     1
102
RTVSPropertyOp11
 70
     1
102
RTVSPropertyOp12
 70
     1
102
RTVSPropertyOp13
 70
     1
102
RTVSPropertyOp14
 70
     1
102
RTVSPropertyOp15
 70
     1
102
RTVSPropertyOp16
 70
     1
102
RTVSPropertyOp17
 70
     1
102
RTVSPropertyOp18
 70
     1
102
RTVSPropertyOp19
 70
     1
102
RTVSPropertyOp20
 70
     1
102
RTVSPropertyOp21
 70
     1
102
RTVSPropertyOp22
 70
     1
102
RTVSPropertyOp23
 70
     1
102
RTVSPropertyOp24
 70
     1
102
RTVSPropertyOp25
 70
     1
102
RTVSPropertyOp26
 70
     1
102
RTVSPropertyOp27
 70
     1
102
RTVSPropertyOp28
 70
     1
102
RTVSPropertyOp29
 70
     1
102
RTVSPropertyOp30
 70
     1
102
RTVSPropertyOp31
 70
     1
102
RTVSPropertyOp32
 70
     1
102
RTVSPropertyOp33
 70
     1
102
RTVSPropertyOp34
 70
     1
102
RTVSPropertyOp35
 70
     1
102
RTVSPropertyOp36
 70
     1
102
RTVSPropertyOp37
 70
     1
102
RTVSPropertyOp38
 70
     1
102
RTVSPropertyOp39
 70
     1
102
RTVSPropertyOp40
 70
     1
102
RTVSPropertyOp41
 70
     1
102
RTVSPropertyOp42
 70
     1
102
RTVSPropertyOp43
 70
     1
102
RTVSPropertyOp44
 70
     1
102
RTVSPropertyOp45
 70
     1
102
RTVSPropertyOp46
 70
     1
102
RTVSPropertyOp47
 70
     1
102
RTVSPropertyOp48
 70
     1
102
RTVSPropertyOp49
 70
     1
102
RTVSPropertyOp50
 70
     1
102
RTVSPropertyOp51
 70
     0
102
RTVSPropertyOp52
 70
     0
102
RTVSPropertyOp53
 70
     1
102
RTVSPropertyOp54
 70
     1
102
RTVSPropertyOp55
 70
     1
102
RTVSPropertyOp56
 70
     1
102
RTVSPropertyOp57
 70
     1
102
RTVSPost2010Prop28
280
     0
102
RTVSPost2010PropOp28
 70
     1
102
RTVSPost2010Prop29
280
     1
102
RTVSPost2010PropOp29
 70
     1
102
RTVSPost2010Prop30
280
     1
102
RTVSPost2010PropOp30
 70
     1
102
RTVSPost2010Prop31
280
     0
102
RTVSPost2010PropOp31
 70
     1
102
RTVSPost2010Prop32
280
     0
102
RTVSPost2010PropOp32
 70
     1
102
RTVSPost2010Prop33
280
     0
102
RTVSPost2010PropOp33
 70
     1
102
RTVSPost2010Prop34
280
     0
102
RTVSPost2010PropOp34
 70
     1
102
RTVSPost2010Prop35
280
     0
102
RTVSPost2010PropOp35
 70
     1
102
RTVSPost2010Prop36
280
     0
102
RTVSPost2010PropOp36
 70
     1
102
RTVSPost2010Prop37
 90
       50
102
RTVSPost2010PropOp37
 70
     1
102
RTVSPost2010Prop38
140
0.0
102
RTVSPost2010PropOp38
 70
     1
102
RTVSPost2010Prop39
140
1.0
102
RTVSPost2010PropOp39
 70
     1
102
RTVSPost2010Prop40
 90
        0
102
RTVSPost2010PropOp40
 70
     1
102
RTVSPost2010Prop41ColorIndex
 90
       18
102
RTVSPost2010Prop41ColorRGB
 90
        0
102
RTVSPost2010PropOp41
 70
     1
102
RTVSPost2010Prop42
 90
       50
102
RTVSPost2010PropOp42
 70
     1
102
RTVSPost2010Prop43
 90
        3
102
RTVSPost2010PropOp43
 70
     1
102
RTVSPost2010Prop44ColorIndex
 90
        5
102
RTVSPost2010Prop44ColorRGB
 90
      255
102
RTVSPost2010PropOp44
 70
     1
102
RTVSPost2010Prop45
280
     0
102
RTVSPost2010PropOp45
 70
     1
102
RTVSPost2010Prop46
 90
       50
102
RTVSPost2010PropOp46
 70
     1
102
RTVSPost2010Prop47
 90
       50
102
RTVSPost2010PropOp47
 70
     1
102
RTVSPost2010Prop48
 90
       50
102
RTVSPost2010PropOp48
 70
     1
102
RTVSPost2010Prop49
280
     0
102
RTVSPost2010PropOp49
 70
     1
102
RTVSPost2010Prop50
 90
       50
102
RTVSPost2010PropOp50
 70
     1
102
RTVSPost2010Prop51ColorIndex
 90
      256
102
RTVSPost2010Prop51ColorRGB
 90
-16777216
102
RTVSPost2010PropOp51
 70
     0
102
RTVSPost2010Prop52
140
1.0
102
RTVSPost2010PropOp52
 70
     0
102
RTVSPost2010Prop53
 90
        2
102
RTVSPost2010PropOp53
 70
     1
102
RTVSPost2010Prop54
  1
strokes_ogs.tif
102
RTVSPost2010PropOp54
 70
     1
102
RTVSPost2010Prop55
280
     0
102
RTVSPost2010PropOp55
 70
     1
102
RTVSPost2010Prop56
140
1.0
102
RTVSPost2010PropOp56
 70
     1
102
RTVSPost2010Prop57
140
1.0
102
RTVSPost2010PropOp57
 70
     1
  0
XRECORD
  5
515
102
{ACAD_REACTORS
330
514
102
}
330
514
100
AcDbXrecord
280
     1
102
RTVSPropertyOp0
 70
     1
102
RTVSPropertyOp1
 70
     1
102
RTVSPropertyOp2
 70
     1
102
RTVSPropertyOp3
 70
     1
102
RTVSPropertyOp4
 70
     1
102
RTVSPropertyOp5
 70
     1
102
RTVSPropertyOp6
 70
     1
102
RTVSPropertyOp7
 70
     1
102
RTVSPropertyOp8
 70
     1
102
RTVSPropertyOp9
 70
     1
102
RTVSPropertyOp10
 70
     1
102
RTVSPropertyOp11
 70
     1
102
RTVSPropertyOp12
 70
     1
102
RTVSPropertyOp13
 70
     1
102
RTVSPropertyOp14
 70
     1
102
RTVSPropertyOp15
 70
     1
102
RTVSPropertyOp16
 70
     1
102
RTVSPropertyOp17
 70
     1
102
RTVSPropertyOp18
 70
     1
102
RTVSPropertyOp19
 70
     1
102
RTVSPropertyOp20
 70
     1
102
RTVSPropertyOp21
 70
     1
102
RTVSPropertyOp22
 70
     1
102
RTVSPropertyOp23
 70
     1
102
RTVSPropertyOp24
 70
     1
102
RTVSPropertyOp25
 70
     1
102
RTVSPropertyOp26
 70
     1
102
RTVSPropertyOp27
 70
     1
102
RTVSPropertyOp28
 70
     1
102
RTVSPropertyOp29
 70
     1
102
RTVSPropertyOp30
 70
     1
102
RTVSPropertyOp31
 70
     1
102
RTVSPropertyOp32
 70
     1
102
RTVSPropertyOp33
 70
     1
102
RTVSPropertyOp34
 70
     1
102
RTVSPropertyOp35
 70
     1
102
RTVSPropertyOp36
 70
     1
102
RTVSPropertyOp37
 70
     1
102
RTVSPropertyOp38
 70
     1
102
RTVSPropertyOp39
 70
     1
102
RTVSPropertyOp40
 70
     1
102
RTVSPropertyOp41
 70
     1
102
RTVSPropertyOp42
 70
     1
102
RTVSPropertyOp43
 70
     1
102
RTVSPropertyOp44
 70
     1
102
RTVSPropertyOp45
 70
     1
102
RTVSPropertyOp46
 70
     1
102
RTVSPropertyOp47
 70
     1
102
RTVSPropertyOp48
 70
     1
102
RTVSPropertyOp49
 70
     1
102
RTVSPropertyOp50
 70
     1
102
RTVSPropertyOp51
 70
     0
102
RTVSPropertyOp52
 70
     0
102
RTVSPropertyOp53
 70
     1
102
RTVSPropertyOp54
 70
     1
102
RTVSPropertyOp55
 70
     1
102
RTVSPropertyOp56
 70
     1
102
RTVSPropertyOp57
 70
     1
102
RTVSPost2010Prop28
280
     0
102
RTVSPost2010PropOp28
 70
     1
102
RTVSPost2010Prop29
280
     1
102
RTVSPost2010PropOp29
 70
     1
102
RTVSPost2010Prop30
280
     1
102
RTVSPost2010PropOp30
 70
     1
102
RTVSPost2010Prop31
280
     0
102
RTVSPost2010PropOp31
 70
     1
102
RTVSPost2010Prop32
280
     0
102
RTVSPost2010PropOp32
 70
     1
102
RTVSPost2010Prop33
280
     0
102
RTVSPost2010PropOp33
 70
     1
102
RTVSPost2010Prop34
280
     0
102
RTVSPost2010PropOp34
 70
     1
102
RTVSPost2010Prop35
280
     0
102
RTVSPost2010PropOp35
 70
     1
102
RTVSPost2010Prop36
280
     0
102
RTVSPost2010PropOp36
 70
     1
102
RTVSPost2010Prop37
 90
       50
102
RTVSPost2010PropOp37
 70
     1
102
RTVSPost2010Prop38
140
0.0
102
RTVSPost2010PropOp38
 70
     1
102
RTVSPost2010Prop39
140
1.0
102
RTVSPost2010PropOp39
 70
     1
102
RTVSPost2010Prop40
 90
        0
102
RTVSPost2010PropOp40
 70
     1
102
RTVSPost2010Prop41ColorIndex
 90
       18
102
RTVSPost2010Prop41ColorRGB
 90
        0
102
RTVSPost2010PropOp41
 70
     1
102
RTVSPost2010Prop42
 90
       50
102
RTVSPost2010PropOp42
 70
     1
102
RTVSPost2010Prop43
 90
        3
102
RTVSPost2010PropOp43
 70
     1
102
RTVSPost2010Prop44ColorIndex
 90
        5
102
RTVSPost2010Prop44ColorRGB
 90
      255
102
RTVSPost2010PropOp44
 70
     1
102
RTVSPost2010Prop45
280
     0
102
RTVSPost2010PropOp45
 70
     1
102
RTVSPost2010Prop46
 90
       50
102
RTVSPost2010PropOp46
 70
     1
102
RTVSPost2010Prop47
 90
       50
102
RTVSPost2010PropOp47
 70
     1
102
RTVSPost2010Prop48
 90
       50
102
RTVSPost2010PropOp48
 70
     1
102
RTVSPost2010Prop49
280
     0
102
RTVSPost2010PropOp49
 70
     1
102
RTVSPost2010Prop50
 90
       50
102
RTVSPost2010PropOp50
 70
     1
102
RTVSPost2010Prop51ColorIndex
 90
      256
102
RTVSPost2010Prop51ColorRGB
 90
-16777216
102
RTVSPost2010PropOp51
 70
     0
102
RTVSPost2010Prop52
140
1.0
102
RTVSPost2010PropOp52
 70
     0
102
RTVSPost2010Prop53
 90
        2
102
RTVSPost2010PropOp53
 70
     1
102
RTVSPost2010Prop54
  1
strokes_ogs.tif
102
RTVSPost2010PropOp54
 70
     1
102
RTVSPost2010Prop55
280
     0
102
RTVSPost2010PropOp55
 70
     1
102
RTVSPost2010Prop56
140
1.0
102
RTVSPost2010PropOp56
 70
     1
102
RTVSPost2010Prop57
140
1.0
102
RTVSPost2010PropOp57
 70
     1
  0
XRECORD
  5
509
102
{ACAD_REACTORS
330
508
102
}
330
508
100
AcDbXrecord
280
     1
102
RTVSPropertyOp0
 70
     1
102
RTVSPropertyOp1
 70
     1
102
RTVSPropertyOp2
 70
     1
102
RTVSPropertyOp3
 70
     1
102
RTVSPropertyOp4
 70
     1
102
RTVSPropertyOp5
 70
     1
102
RTVSPropertyOp6
 70
     1
102
RTVSPropertyOp7
 70
     1
102
RTVSPropertyOp8
 70
     1
102
RTVSPropertyOp9
 70
     1
102
RTVSPropertyOp10
 70
     1
102
RTVSPropertyOp11
 70
     1
102
RTVSPropertyOp12
 70
     1
102
RTVSPropertyOp13
 70
     1
102
RTVSPropertyOp14
 70
     1
102
RTVSPropertyOp15
 70
     1
102
RTVSPropertyOp16
 70
     1
102
RTVSPropertyOp17
 70
     1
102
RTVSPropertyOp18
 70
     1
102
RTVSPropertyOp19
 70
     1
102
RTVSPropertyOp20
 70
     1
102
RTVSPropertyOp21
 70
     1
102
RTVSPropertyOp22
 70
     1
102
RTVSPropertyOp23
 70
     1
102
RTVSPropertyOp24
 70
     1
102
RTVSPropertyOp25
 70
     1
102
RTVSPropertyOp26
 70
     1
102
RTVSPropertyOp27
 70
     1
102
RTVSPropertyOp28
 70
     1
102
RTVSPropertyOp29
 70
     1
102
RTVSPropertyOp30
 70
     1
102
RTVSPropertyOp31
 70
     1
102
RTVSPropertyOp32
 70
     1
102
RTVSPropertyOp33
 70
     1
102
RTVSPropertyOp34
 70
     1
102
RTVSPropertyOp35
 70
     1
102
RTVSPropertyOp36
 70
     1
102
RTVSPropertyOp37
 70
     1
102
RTVSPropertyOp38
 70
     1
102
RTVSPropertyOp39
 70
     1
102
RTVSPropertyOp40
 70
     1
102
RTVSPropertyOp41
 70
     1
102
RTVSPropertyOp42
 70
     1
102
RTVSPropertyOp43
 70
     1
102
RTVSPropertyOp44
 70
     1
102
RTVSPropertyOp45
 70
     1
102
RTVSPropertyOp46
 70
     1
102
RTVSPropertyOp47
 70
     1
102
RTVSPropertyOp48
 70
     1
102
RTVSPropertyOp49
 70
     1
102
RTVSPropertyOp50
 70
     1
102
RTVSPropertyOp51
 70
     0
102
RTVSPropertyOp52
 70
     0
102
RTVSPropertyOp53
 70
     1
102
RTVSPropertyOp54
 70
     1
102
RTVSPropertyOp55
 70
     1
102
RTVSPropertyOp56
 70
     1
102
RTVSPropertyOp57
 70
     1
102
RTVSPost2010Prop28
280
     0
102
RTVSPost2010PropOp28
 70
     1
102
RTVSPost2010Prop29
280
     1
102
RTVSPost2010PropOp29
 70
     1
102
RTVSPost2010Prop30
280
     1
102
RTVSPost2010PropOp30
 70
     1
102
RTVSPost2010Prop31
280
     0
102
RTVSPost2010PropOp31
 70
     1
102
RTVSPost2010Prop32
280
     0
102
RTVSPost2010PropOp32
 70
     1
102
RTVSPost2010Prop33
280
     0
102
RTVSPost2010PropOp33
 70
     1
102
RTVSPost2010Prop34
280
     0
102
RTVSPost2010PropOp34
 70
     1
102
RTVSPost2010Prop35
280
     0
102
RTVSPost2010PropOp35
 70
     1
102
RTVSPost2010Prop36
280
     0
102
RTVSPost2010PropOp36
 70
     1
102
RTVSPost2010Prop37
 90
       50
102
RTVSPost2010PropOp37
 70
     1
102
RTVSPost2010Prop38
140
0.0
102
RTVSPost2010PropOp38
 70
     1
102
RTVSPost2010Prop39
140
1.0
102
RTVSPost2010PropOp39
 70
     1
102
RTVSPost2010Prop40
 90
        0
102
RTVSPost2010PropOp40
 70
     1
102
RTVSPost2010Prop41ColorIndex
 90
       18
102
RTVSPost2010Prop41ColorRGB
 90
        0
102
RTVSPost2010PropOp41
 70
     1
102
RTVSPost2010Prop42
 90
       50
102
RTVSPost2010PropOp42
 70
     1
102
RTVSPost2010Prop43
 90
        3
102
RTVSPost2010PropOp43
 70
     1
102
RTVSPost2010Prop44ColorIndex
 90
        5
102
RTVSPost2010Prop44ColorRGB
 90
      255
102
RTVSPost2010PropOp44
 70
     1
102
RTVSPost2010Prop45
280
     0
102
RTVSPost2010PropOp45
 70
     1
102
RTVSPost2010Prop46
 90
       50
102
RTVSPost2010PropOp46
 70
     1
102
RTVSPost2010Prop47
 90
       50
102
RTVSPost2010PropOp47
 70
     1
102
RTVSPost2010Prop48
 90
       50
102
RTVSPost2010PropOp48
 70
     1
102
RTVSPost2010Prop49
280
     0
102
RTVSPost2010PropOp49
 70
     1
102
RTVSPost2010Prop50
 90
       50
102
RTVSPost2010PropOp50
 70
     1
102
RTVSPost2010Prop51ColorIndex
 90
      256
102
RTVSPost2010Prop51ColorRGB
 90
-16777216
102
RTVSPost2010PropOp51
 70
     0
102
RTVSPost2010Prop52
140
1.0
102
RTVSPost2010PropOp52
 70
     0
102
RTVSPost2010Prop53
 90
        2
102
RTVSPost2010PropOp53
 70
     1
102
RTVSPost2010Prop54
  1
strokes_ogs.tif
102
RTVSPost2010PropOp54
 70
     1
102
RTVSPost2010Prop55
280
     0
102
RTVSPost2010PropOp55
 70
     1
102
RTVSPost2010Prop56
140
1.0
102
RTVSPost2010PropOp56
 70
     1
102
RTVSPost2010Prop57
140
1.0
102
RTVSPost2010PropOp57
 70
     1
  0
XRECORD
  5
50B
102
{ACAD_REACTORS
330
50A
102
}
330
50A
100
AcDbXrecord
280
     1
102
RTVSPropertyOp0
 70
     1
102
RTVSPropertyOp1
 70
     1
102
RTVSPropertyOp2
 70
     1
102
RTVSPropertyOp3
 70
     1
102
RTVSPropertyOp4
 70
     1
102
RTVSPropertyOp5
 70
     1
102
RTVSPropertyOp6
 70
     1
102
RTVSPropertyOp7
 70
     1
102
RTVSPropertyOp8
 70
     1
102
RTVSPropertyOp9
 70
     1
102
RTVSPropertyOp10
 70
     1
102
RTVSPropertyOp11
 70
     1
102
RTVSPropertyOp12
 70
     1
102
RTVSPropertyOp13
 70
     1
102
RTVSPropertyOp14
 70
     1
102
RTVSPropertyOp15
 70
     1
102
RTVSPropertyOp16
 70
     1
102
RTVSPropertyOp17
 70
     1
102
RTVSPropertyOp18
 70
     1
102
RTVSPropertyOp19
 70
     1
102
RTVSPropertyOp20
 70
     1
102
RTVSPropertyOp21
 70
     1
102
RTVSPropertyOp22
 70
     1
102
RTVSPropertyOp23
 70
     1
102
RTVSPropertyOp24
 70
     1
102
RTVSPropertyOp25
 70
     1
102
RTVSPropertyOp26
 70
     1
102
RTVSPropertyOp27
 70
     1
102
RTVSPropertyOp28
 70
     1
102
RTVSPropertyOp29
 70
     1
102
RTVSPropertyOp30
 70
     1
102
RTVSPropertyOp31
 70
     1
102
RTVSPropertyOp32
 70
     1
102
RTVSPropertyOp33
 70
     1
102
RTVSPropertyOp34
 70
     1
102
RTVSPropertyOp35
 70
     1
102
RTVSPropertyOp36
 70
     1
102
RTVSPropertyOp37
 70
     1
102
RTVSPropertyOp38
 70
     1
102
RTVSPropertyOp39
 70
     1
102
RTVSPropertyOp40
 70
     1
102
RTVSPropertyOp41
 70
     1
102
RTVSPropertyOp42
 70
     1
102
RTVSPropertyOp43
 70
     1
102
RTVSPropertyOp44
 70
     1
102
RTVSPropertyOp45
 70
     1
102
RTVSPropertyOp46
 70
     1
102
RTVSPropertyOp47
 70
     1
102
RTVSPropertyOp48
 70
     1
102
RTVSPropertyOp49
 70
     1
102
RTVSPropertyOp50
 70
     1
102
RTVSPropertyOp51
 70
     0
102
RTVSPropertyOp52
 70
     0
102
RTVSPropertyOp53
 70
     1
102
RTVSPropertyOp54
 70
     1
102
RTVSPropertyOp55
 70
     1
102
RTVSPropertyOp56
 70
     1
102
RTVSPropertyOp57
 70
     1
102
RTVSPost2010Prop28
280
     0
102
RTVSPost2010PropOp28
 70
     1
102
RTVSPost2010Prop29
280
     1
102
RTVSPost2010PropOp29
 70
     1
102
RTVSPost2010Prop30
280
     1
102
RTVSPost2010PropOp30
 70
     1
102
RTVSPost2010Prop31
280
     0
102
RTVSPost2010PropOp31
 70
     1
102
RTVSPost2010Prop32
280
     0
102
RTVSPost2010PropOp32
 70
     1
102
RTVSPost2010Prop33
280
     0
102
RTVSPost2010PropOp33
 70
     1
102
RTVSPost2010Prop34
280
     0
102
RTVSPost2010PropOp34
 70
     1
102
RTVSPost2010Prop35
280
     0
102
RTVSPost2010PropOp35
 70
     1
102
RTVSPost2010Prop36
280
     0
102
RTVSPost2010PropOp36
 70
     1
102
RTVSPost2010Prop37
 90
       50
102
RTVSPost2010PropOp37
 70
     1
102
RTVSPost2010Prop38
140
0.0
102
RTVSPost2010PropOp38
 70
     1
102
RTVSPost2010Prop39
140
1.0
102
RTVSPost2010PropOp39
 70
     1
102
RTVSPost2010Prop40
 90
        0
102
RTVSPost2010PropOp40
 70
     1
102
RTVSPost2010Prop41ColorIndex
 90
       18
102
RTVSPost2010Prop41ColorRGB
 90
        0
102
RTVSPost2010PropOp41
 70
     1
102
RTVSPost2010Prop42
 90
       50
102
RTVSPost2010PropOp42
 70
     1
102
RTVSPost2010Prop43
 90
        3
102
RTVSPost2010PropOp43
 70
     1
102
RTVSPost2010Prop44ColorIndex
 90
        5
102
RTVSPost2010Prop44ColorRGB
 90
      255
102
RTVSPost2010PropOp44
 70
     1
102
RTVSPost2010Prop45
280
     0
102
RTVSPost2010PropOp45
 70
     1
102
RTVSPost2010Prop46
 90
       50
102
RTVSPost2010PropOp46
 70
     1
102
RTVSPost2010Prop47
 90
       50
102
RTVSPost2010PropOp47
 70
     1
102
RTVSPost2010Prop48
 90
       50
102
RTVSPost2010PropOp48
 70
     1
102
RTVSPost2010Prop49
280
     0
102
RTVSPost2010PropOp49
 70
     1
102
RTVSPost2010Prop50
 90
       50
102
RTVSPost2010PropOp50
 70
     1
102
RTVSPost2010Prop51ColorIndex
 90
      256
102
RTVSPost2010Prop51ColorRGB
 90
-16777216
102
RTVSPost2010PropOp51
 70
     0
102
RTVSPost2010Prop52
140
1.0
102
RTVSPost2010PropOp52
 70
     0
102
RTVSPost2010Prop53
 90
        2
102
RTVSPost2010PropOp53
 70
     1
102
RTVSPost2010Prop54
  1
strokes_ogs.tif
102
RTVSPost2010PropOp54
 70
     1
102
RTVSPost2010Prop55
280
     0
102
RTVSPost2010PropOp55
 70
     1
102
RTVSPost2010Prop56
140
1.0
102
RTVSPost2010PropOp56
 70
     1
102
RTVSPost2010Prop57
140
1.0
102
RTVSPost2010PropOp57
 70
     1
  0
XRECORD
  5
51B
102
{ACAD_REACTORS
330
51A
102
}
330
51A
100
AcDbXrecord
280
     1
102
RTVSPropertyOp0
 70
     0
102
RTVSPropertyOp1
 70
     0
102
RTVSPropertyOp2
 70
     0
102
RTVSPropertyOp3
 70
     0
102
RTVSPropertyOp4
 70
     0
102
RTVSPropertyOp5
 70
     0
102
RTVSPropertyOp6
 70
     0
102
RTVSPropertyOp7
 70
     0
102
RTVSPropertyOp8
 70
     0
102
RTVSPropertyOp9
 70
     0
102
RTVSPropertyOp10
 70
     0
102
RTVSPropertyOp11
 70
     0
102
RTVSPropertyOp12
 70
     0
102
RTVSPropertyOp13
 70
     0
102
RTVSPropertyOp14
 70
     0
102
RTVSPropertyOp15
 70
     0
102
RTVSPropertyOp16
 70
     0
102
RTVSPropertyOp17
 70
     0
102
RTVSPropertyOp18
 70
     0
102
RTVSPropertyOp19
 70
     0
102
RTVSPropertyOp20
 70
     0
102
RTVSPropertyOp21
 70
     0
102
RTVSPropertyOp22
 70
     0
102
RTVSPropertyOp23
 70
     0
102
RTVSPropertyOp24
 70
     0
102
RTVSPropertyOp25
 70
     0
102
RTVSPropertyOp26
 70
     0
102
RTVSPropertyOp27
 70
     0
102
RTVSPropertyOp28
 70
     1
102
RTVSPropertyOp29
 70
     1
102
RTVSPropertyOp30
 70
     1
102
RTVSPropertyOp31
 70
     1
102
RTVSPropertyOp32
 70
     1
102
RTVSPropertyOp33
 70
     1
102
RTVSPropertyOp34
 70
     1
102
RTVSPropertyOp35
 70
     1
102
RTVSPropertyOp36
 70
     1
102
RTVSPropertyOp37
 70
     1
102
RTVSPropertyOp38
 70
     1
102
RTVSPropertyOp39
 70
     1
102
RTVSPropertyOp40
 70
     1
102
RTVSPropertyOp41
 70
     1
102
RTVSPropertyOp42
 70
     1
102
RTVSPropertyOp43
 70
     1
102
RTVSPropertyOp44
 70
     1
102
RTVSPropertyOp45
 70
     1
102
RTVSPropertyOp46
 70
     1
102
RTVSPropertyOp47
 70
     1
102
RTVSPropertyOp48
 70
     1
102
RTVSPropertyOp49
 70
     1
102
RTVSPropertyOp50
 70
     1
102
RTVSPropertyOp51
 70
     0
102
RTVSPropertyOp52
 70
     0
102
RTVSPropertyOp53
 70
     1
102
RTVSPropertyOp54
 70
     1
102
RTVSPropertyOp55
 70
     1
102
RTVSPropertyOp56
 70
     1
102
RTVSPropertyOp57
 70
     1
102
RTVSPost2010Prop28
280
     0
102
RTVSPost2010PropOp28
 70
     1
102
RTVSPost2010Prop29
280
     1
102
RTVSPost2010PropOp29
 70
     1
102
RTVSPost2010Prop30
280
     1
102
RTVSPost2010PropOp30
 70
     1
102
RTVSPost2010Prop31
280
     0
102
RTVSPost2010PropOp31
 70
     1
102
RTVSPost2010Prop32
280
     0
102
RTVSPost2010PropOp32
 70
     1
102
RTVSPost2010Prop33
280
     0
102
RTVSPost2010PropOp33
 70
     1
102
RTVSPost2010Prop34
280
     0
102
RTVSPost2010PropOp34
 70
     1
102
RTVSPost2010Prop35
280
     0
102
RTVSPost2010PropOp35
 70
     1
102
RTVSPost2010Prop36
280
     0
102
RTVSPost2010PropOp36
 70
     1
102
RTVSPost2010Prop37
 90
       50
102
RTVSPost2010PropOp37
 70
     1
102
RTVSPost2010Prop38
140
0.0
102
RTVSPost2010PropOp38
 70
     1
102
RTVSPost2010Prop39
140
1.0
102
RTVSPost2010PropOp39
 70
     1
102
RTVSPost2010Prop40
 90
        0
102
RTVSPost2010PropOp40
 70
     1
102
RTVSPost2010Prop41ColorIndex
 90
       18
102
RTVSPost2010Prop41ColorRGB
 90
        0
102
RTVSPost2010PropOp41
 70
     1
102
RTVSPost2010Prop42
 90
       50
102
RTVSPost2010PropOp42
 70
     1
102
RTVSPost2010Prop43
 90
        3
102
RTVSPost2010PropOp43
 70
     1
102
RTVSPost2010Prop44ColorIndex
 90
        5
102
RTVSPost2010Prop44ColorRGB
 90
      255
102
RTVSPost2010PropOp44
 70
     1
102
RTVSPost2010Prop45
280
     0
102
RTVSPost2010PropOp45
 70
     1
102
RTVSPost2010Prop46
 90
       50
102
RTVSPost2010PropOp46
 70
     1
102
RTVSPost2010Prop47
 90
       50
102
RTVSPost2010PropOp47
 70
     1
102
RTVSPost2010Prop48
 90
       50
102
RTVSPost2010PropOp48
 70
     1
102
RTVSPost2010Prop49
280
     0
102
RTVSPost2010PropOp49
 70
     1
102
RTVSPost2010Prop50
 90
       50
102
RTVSPost2010PropOp50
 70
     1
102
RTVSPost2010Prop51ColorIndex
 90
      256
102
RTVSPost2010Prop51ColorRGB
 90
-16777216
102
RTVSPost2010PropOp51
 70
     0
102
RTVSPost2010Prop52
140
1.0
102
RTVSPost2010PropOp52
 70
     0
102
RTVSPost2010Prop53
 90
        2
102
RTVSPost2010PropOp53
 70
     1
102
RTVSPost2010Prop54
  1
strokes_ogs.tif
102
RTVSPost2010PropOp54
 70
     1
102
RTVSPost2010Prop55
280
     0
102
RTVSPost2010PropOp55
 70
     1
102
RTVSPost2010Prop56
140
1.0
102
RTVSPost2010PropOp56
 70
     1
102
RTVSPost2010Prop57
140
1.0
102
RTVSPost2010PropOp57
 70
     1
  0
XRECORD
  5
513
102
{ACAD_REACTORS
330
512
102
}
330
512
100
AcDbXrecord
280
     1
102
RTVSPropertyOp0
 70
     1
102
RTVSPropertyOp1
 70
     1
102
RTVSPropertyOp2
 70
     1
102
RTVSPropertyOp3
 70
     1
102
RTVSPropertyOp4
 70
     1
102
RTVSPropertyOp5
 70
     1
102
RTVSPropertyOp6
 70
     1
102
RTVSPropertyOp7
 70
     1
102
RTVSPropertyOp8
 70
     1
102
RTVSPropertyOp9
 70
     1
102
RTVSPropertyOp10
 70
     1
102
RTVSPropertyOp11
 70
     1
102
RTVSPropertyOp12
 70
     1
102
RTVSPropertyOp13
 70
     1
102
RTVSPropertyOp14
 70
     1
102
RTVSPropertyOp15
 70
     1
102
RTVSPropertyOp16
 70
     1
102
RTVSPropertyOp17
 70
     1
102
RTVSPropertyOp18
 70
     1
102
RTVSPropertyOp19
 70
     1
102
RTVSPropertyOp20
 70
     1
102
RTVSPropertyOp21
 70
     1
102
RTVSPropertyOp22
 70
     1
102
RTVSPropertyOp23
 70
     1
102
RTVSPropertyOp24
 70
     1
102
RTVSPropertyOp25
 70
     1
102
RTVSPropertyOp26
 70
     1
102
RTVSPropertyOp27
 70
     1
102
RTVSPropertyOp28
 70
     1
102
RTVSPropertyOp29
 70
     1
102
RTVSPropertyOp30
 70
     1
102
RTVSPropertyOp31
 70
     1
102
RTVSPropertyOp32
 70
     1
102
RTVSPropertyOp33
 70
     1
102
RTVSPropertyOp34
 70
     1
102
RTVSPropertyOp35
 70
     1
102
RTVSPropertyOp36
 70
     1
102
RTVSPropertyOp37
 70
     1
102
RTVSPropertyOp38
 70
     1
102
RTVSPropertyOp39
 70
     1
102
RTVSPropertyOp40
 70
     1
102
RTVSPropertyOp41
 70
     1
102
RTVSPropertyOp42
 70
     1
102
RTVSPropertyOp43
 70
     1
102
RTVSPropertyOp44
 70
     1
102
RTVSPropertyOp45
 70
     1
102
RTVSPropertyOp46
 70
     1
102
RTVSPropertyOp47
 70
     1
102
RTVSPropertyOp48
 70
     1
102
RTVSPropertyOp49
 70
     1
102
RTVSPropertyOp50
 70
     1
102
RTVSPropertyOp51
 70
     0
102
RTVSPropertyOp52
 70
     0
102
RTVSPropertyOp53
 70
     1
102
RTVSPropertyOp54
 70
     1
102
RTVSPropertyOp55
 70
     1
102
RTVSPropertyOp56
 70
     1
102
RTVSPropertyOp57
 70
     1
102
RTVSPost2010Prop28
280
     0
102
RTVSPost2010PropOp28
 70
     1
102
RTVSPost2010Prop29
280
     1
102
RTVSPost2010PropOp29
 70
     1
102
RTVSPost2010Prop30
280
     1
102
RTVSPost2010PropOp30
 70
     1
102
RTVSPost2010Prop31
280
     0
102
RTVSPost2010PropOp31
 70
     1
102
RTVSPost2010Prop32
280
     0
102
RTVSPost2010PropOp32
 70
     1
102
RTVSPost2010Prop33
280
     0
102
RTVSPost2010PropOp33
 70
     1
102
RTVSPost2010Prop34
280
     0
102
RTVSPost2010PropOp34
 70
     1
102
RTVSPost2010Prop35
280
     0
102
RTVSPost2010PropOp35
 70
     1
102
RTVSPost2010Prop36
280
     0
102
RTVSPost2010PropOp36
 70
     1
102
RTVSPost2010Prop37
 90
       50
102
RTVSPost2010PropOp37
 70
     1
102
RTVSPost2010Prop38
140
0.0
102
RTVSPost2010PropOp38
 70
     1
102
RTVSPost2010Prop39
140
1.0
102
RTVSPost2010PropOp39
 70
     1
102
RTVSPost2010Prop40
 90
        0
102
RTVSPost2010PropOp40
 70
     1
102
RTVSPost2010Prop41ColorIndex
 90
       18
102
RTVSPost2010Prop41ColorRGB
 90
        0
102
RTVSPost2010PropOp41
 70
     1
102
RTVSPost2010Prop42
 90
       50
102
RTVSPost2010PropOp42
 70
     1
102
RTVSPost2010Prop43
 90
        3
102
RTVSPost2010PropOp43
 70
     1
102
RTVSPost2010Prop44ColorIndex
 90
        5
102
RTVSPost2010Prop44ColorRGB
 90
      255
102
RTVSPost2010PropOp44
 70
     1
102
RTVSPost2010Prop45
280
     0
102
RTVSPost2010PropOp45
 70
     1
102
RTVSPost2010Prop46
 90
       50
102
RTVSPost2010PropOp46
 70
     1
102
RTVSPost2010Prop47
 90
       50
102
RTVSPost2010PropOp47
 70
     1
102
RTVSPost2010Prop48
 90
       50
102
RTVSPost2010PropOp48
 70
     1
102
RTVSPost2010Prop49
280
     0
102
RTVSPost2010PropOp49
 70
     1
102
RTVSPost2010Prop50
 90
       50
102
RTVSPost2010PropOp50
 70
     1
102
RTVSPost2010Prop51ColorIndex
 90
      256
102
RTVSPost2010Prop51ColorRGB
 90
-16777216
102
RTVSPost2010PropOp51
 70
     0
102
RTVSPost2010Prop52
140
1.0
102
RTVSPost2010PropOp52
 70
     0
102
RTVSPost2010Prop53
 90
        2
102
RTVSPost2010PropOp53
 70
     1
102
RTVSPost2010Prop54
  1
strokes_ogs.tif
102
RTVSPost2010PropOp54
 70
     1
102
RTVSPost2010Prop55
280
     0
102
RTVSPost2010PropOp55
 70
     1
102
RTVSPost2010Prop56
140
1.0
102
RTVSPost2010PropOp56
 70
     1
102
RTVSPost2010Prop57
140
1.0
102
RTVSPost2010PropOp57
 70
     1
  0
XRECORD
  5
4F7
102
{ACAD_REACTORS
330
4F6
102
}
330
4F6
100
AcDbXrecord
280
     1
102
RTVSPropertyOp0
 70
     1
102
RTVSPropertyOp1
 70
     1
102
RTVSPropertyOp2
 70
     1
102
RTVSPropertyOp3
 70
     1
102
RTVSPropertyOp4
 70
     1
102
RTVSPropertyOp5
 70
     1
102
RTVSPropertyOp6
 70
     1
102
RTVSPropertyOp7
 70
     1
102
RTVSPropertyOp8
 70
     1
102
RTVSPropertyOp9
 70
     1
102
RTVSPropertyOp10
 70
     1
102
RTVSPropertyOp11
 70
     1
102
RTVSPropertyOp12
 70
     1
102
RTVSPropertyOp13
 70
     1
102
RTVSPropertyOp14
 70
     1
102
RTVSPropertyOp15
 70
     1
102
RTVSPropertyOp16
 70
     1
102
RTVSPropertyOp17
 70
     1
102
RTVSPropertyOp18
 70
     1
102
RTVSPropertyOp19
 70
     1
102
RTVSPropertyOp20
 70
     1
102
RTVSPropertyOp21
 70
     1
102
RTVSPropertyOp22
 70
     1
102
RTVSPropertyOp23
 70
     1
102
RTVSPropertyOp24
 70
     1
102
RTVSPropertyOp25
 70
     1
102
RTVSPropertyOp26
 70
     1
102
RTVSPropertyOp27
 70
     1
102
RTVSPropertyOp28
 70
     1
102
RTVSPropertyOp29
 70
     1
102
RTVSPropertyOp30
 70
     1
102
RTVSPropertyOp31
 70
     1
102
RTVSPropertyOp32
 70
     1
102
RTVSPropertyOp33
 70
     1
102
RTVSPropertyOp34
 70
     1
102
RTVSPropertyOp35
 70
     1
102
RTVSPropertyOp36
 70
     1
102
RTVSPropertyOp37
 70
     1
102
RTVSPropertyOp38
 70
     1
102
RTVSPropertyOp39
 70
     1
102
RTVSPropertyOp40
 70
     1
102
RTVSPropertyOp41
 70
     1
102
RTVSPropertyOp42
 70
     1
102
RTVSPropertyOp43
 70
     1
102
RTVSPropertyOp44
 70
     1
102
RTVSPropertyOp45
 70
     1
102
RTVSPropertyOp46
 70
     1
102
RTVSPropertyOp47
 70
     1
102
RTVSPropertyOp48
 70
     1
102
RTVSPropertyOp49
 70
     1
102
RTVSPropertyOp50
 70
     1
102
RTVSPropertyOp51
 70
     0
102
RTVSPropertyOp52
 70
     0
102
RTVSPropertyOp53
 70
     1
102
RTVSPropertyOp54
 70
     1
102
RTVSPropertyOp55
 70
     1
102
RTVSPropertyOp56
 70
     1
102
RTVSPropertyOp57
 70
     1
102
RTVSPost2010Prop28
280
     0
102
RTVSPost2010PropOp28
 70
     1
102
RTVSPost2010Prop29
280
     1
102
RTVSPost2010PropOp29
 70
     1
102
RTVSPost2010Prop30
280
     1
102
RTVSPost2010PropOp30
 70
     1
102
RTVSPost2010Prop31
280
     0
102
RTVSPost2010PropOp31
 70
     1
102
RTVSPost2010Prop32
280
     0
102
RTVSPost2010PropOp32
 70
     1
102
RTVSPost2010Prop33
280
     0
102
RTVSPost2010PropOp33
 70
     1
102
RTVSPost2010Prop34
280
     0
102
RTVSPost2010PropOp34
 70
     1
102
RTVSPost2010Prop35
280
     0
102
RTVSPost2010PropOp35
 70
     1
102
RTVSPost2010Prop36
280
     0
102
RTVSPost2010PropOp36
 70
     1
102
RTVSPost2010Prop37
 90
       50
102
RTVSPost2010PropOp37
 70
     1
102
RTVSPost2010Prop38
140
0.0
102
RTVSPost2010PropOp38
 70
     1
102
RTVSPost2010Prop39
140
1.0
102
RTVSPost2010PropOp39
 70
     1
102
RTVSPost2010Prop40
 90
        0
102
RTVSPost2010PropOp40
 70
     1
102
RTVSPost2010Prop41ColorIndex
 90
       18
102
RTVSPost2010Prop41ColorRGB
 90
        0
102
RTVSPost2010PropOp41
 70
     1
102
RTVSPost2010Prop42
 90
       50
102
RTVSPost2010PropOp42
 70
     1
102
RTVSPost2010Prop43
 90
        3
102
RTVSPost2010PropOp43
 70
     1
102
RTVSPost2010Prop44ColorIndex
 90
        5
102
RTVSPost2010Prop44ColorRGB
 90
      255
102
RTVSPost2010PropOp44
 70
     1
102
RTVSPost2010Prop45
280
     0
102
RTVSPost2010PropOp45
 70
     1
102
RTVSPost2010Prop46
 90
       50
102
RTVSPost2010PropOp46
 70
     1
102
RTVSPost2010Prop47
 90
       50
102
RTVSPost2010PropOp47
 70
     1
102
RTVSPost2010Prop48
 90
       50
102
RTVSPost2010PropOp48
 70
     1
102
RTVSPost2010Prop49
280
     0
102
RTVSPost2010PropOp49
 70
     1
102
RTVSPost2010Prop50
 90
       50
102
RTVSPost2010PropOp50
 70
     1
102
RTVSPost2010Prop51ColorIndex
 90
      256
102
RTVSPost2010Prop51ColorRGB
 90
-16777216
102
RTVSPost2010PropOp51
 70
     0
102
RTVSPost2010Prop52
140
1.0
102
RTVSPost2010PropOp52
 70
     0
102
RTVSPost2010Prop53
 90
        2
102
RTVSPost2010PropOp53
 70
     1
102
RTVSPost2010Prop54
  1
strokes_ogs.tif
102
RTVSPost2010PropOp54
 70
     1
102
RTVSPost2010Prop55
280
     0
102
RTVSPost2010PropOp55
 70
     1
102
RTVSPost2010Prop56
140
1.0
102
RTVSPost2010PropOp56
 70
     1
102
RTVSPost2010Prop57
140
1.0
102
RTVSPost2010PropOp57
 70
     1
  0
XRECORD
  5
4F9
102
{ACAD_REACTORS
330
4F8
102
}
330
4F8
100
AcDbXrecord
280
     1
102
RTVSPropertyOp0
 70
     1
102
RTVSPropertyOp1
 70
     1
102
RTVSPropertyOp2
 70
     1
102
RTVSPropertyOp3
 70
     1
102
RTVSPropertyOp4
 70
     1
102
RTVSPropertyOp5
 70
     1
102
RTVSPropertyOp6
 70
     1
102
RTVSPropertyOp7
 70
     1
102
RTVSPropertyOp8
 70
     1
102
RTVSPropertyOp9
 70
     1
102
RTVSPropertyOp10
 70
     1
102
RTVSPropertyOp11
 70
     1
102
RTVSPropertyOp12
 70
     1
102
RTVSPropertyOp13
 70
     1
102
RTVSPropertyOp14
 70
     1
102
RTVSPropertyOp15
 70
     1
102
RTVSPropertyOp16
 70
     1
102
RTVSPropertyOp17
 70
     1
102
RTVSPropertyOp18
 70
     1
102
RTVSPropertyOp19
 70
     1
102
RTVSPropertyOp20
 70
     1
102
RTVSPropertyOp21
 70
     1
102
RTVSPropertyOp22
 70
     1
102
RTVSPropertyOp23
 70
     1
102
RTVSPropertyOp24
 70
     1
102
RTVSPropertyOp25
 70
     1
102
RTVSPropertyOp26
 70
     1
102
RTVSPropertyOp27
 70
     1
102
RTVSPropertyOp28
 70
     1
102
RTVSPropertyOp29
 70
     1
102
RTVSPropertyOp30
 70
     1
102
RTVSPropertyOp31
 70
     1
102
RTVSPropertyOp32
 70
     1
102
RTVSPropertyOp33
 70
     1
102
RTVSPropertyOp34
 70
     1
102
RTVSPropertyOp35
 70
     1
102
RTVSPropertyOp36
 70
     1
102
RTVSPropertyOp37
 70
     1
102
RTVSPropertyOp38
 70
     1
102
RTVSPropertyOp39
 70
     1
102
RTVSPropertyOp40
 70
     1
102
RTVSPropertyOp41
 70
     1
102
RTVSPropertyOp42
 70
     1
102
RTVSPropertyOp43
 70
     1
102
RTVSPropertyOp44
 70
     1
102
RTVSPropertyOp45
 70
     1
102
RTVSPropertyOp46
 70
     1
102
RTVSPropertyOp47
 70
     1
102
RTVSPropertyOp48
 70
     1
102
RTVSPropertyOp49
 70
     1
102
RTVSPropertyOp50
 70
     1
102
RTVSPropertyOp51
 70
     0
102
RTVSPropertyOp52
 70
     0
102
RTVSPropertyOp53
 70
     1
102
RTVSPropertyOp54
 70
     1
102
RTVSPropertyOp55
 70
     1
102
RTVSPropertyOp56
 70
     1
102
RTVSPropertyOp57
 70
     1
102
RTVSPost2010Prop28
280
     0
102
RTVSPost2010PropOp28
 70
     1
102
RTVSPost2010Prop29
280
     1
102
RTVSPost2010PropOp29
 70
     1
102
RTVSPost2010Prop30
280
     1
102
RTVSPost2010PropOp30
 70
     1
102
RTVSPost2010Prop31
280
     0
102
RTVSPost2010PropOp31
 70
     1
102
RTVSPost2010Prop32
280
     0
102
RTVSPost2010PropOp32
 70
     1
102
RTVSPost2010Prop33
280
     0
102
RTVSPost2010PropOp33
 70
     1
102
RTVSPost2010Prop34
280
     0
102
RTVSPost2010PropOp34
 70
     1
102
RTVSPost2010Prop35
280
     0
102
RTVSPost2010PropOp35
 70
     1
102
RTVSPost2010Prop36
280
     0
102
RTVSPost2010PropOp36
 70
     1
102
RTVSPost2010Prop37
 90
       50
102
RTVSPost2010PropOp37
 70
     1
102
RTVSPost2010Prop38
140
0.0
102
RTVSPost2010PropOp38
 70
     1
102
RTVSPost2010Prop39
140
1.0
102
RTVSPost2010PropOp39
 70
     1
102
RTVSPost2010Prop40
 90
        0
102
RTVSPost2010PropOp40
 70
     1
102
RTVSPost2010Prop41ColorIndex
 90
       18
102
RTVSPost2010Prop41ColorRGB
 90
        0
102
RTVSPost2010PropOp41
 70
     1
102
RTVSPost2010Prop42
 90
       50
102
RTVSPost2010PropOp42
 70
     1
102
RTVSPost2010Prop43
 90
        3
102
RTVSPost2010PropOp43
 70
     1
102
RTVSPost2010Prop44ColorIndex
 90
        5
102
RTVSPost2010Prop44ColorRGB
 90
      255
102
RTVSPost2010PropOp44
 70
     1
102
RTVSPost2010Prop45
280
     0
102
RTVSPost2010PropOp45
 70
     1
102
RTVSPost2010Prop46
 90
       50
102
RTVSPost2010PropOp46
 70
     1
102
RTVSPost2010Prop47
 90
       50
102
RTVSPost2010PropOp47
 70
     1
102
RTVSPost2010Prop48
 90
       50
102
RTVSPost2010PropOp48
 70
     1
102
RTVSPost2010Prop49
280
     0
102
RTVSPost2010PropOp49
 70
     1
102
RTVSPost2010Prop50
 90
       50
102
RTVSPost2010PropOp50
 70
     1
102
RTVSPost2010Prop51ColorIndex
 90
      256
102
RTVSPost2010Prop51ColorRGB
 90
-16777216
102
RTVSPost2010PropOp51
 70
     0
102
RTVSPost2010Prop52
140
1.0
102
RTVSPost2010PropOp52
 70
     0
102
RTVSPost2010Prop53
 90
        2
102
RTVSPost2010PropOp53
 70
     1
102
RTVSPost2010Prop54
  1
strokes_ogs.tif
102
RTVSPost2010PropOp54
 70
     1
102
RTVSPost2010Prop55
280
     0
102
RTVSPost2010PropOp55
 70
     1
102
RTVSPost2010Prop56
140
1.0
102
RTVSPost2010PropOp56
 70
     1
102
RTVSPost2010Prop57
140
1.0
102
RTVSPost2010PropOp57
 70
     1
  0
XRECORD
  5
4FB
102
{ACAD_REACTORS
330
4FA
102
}
330
4FA
100
AcDbXrecord
280
     1
102
RTVSPropertyOp0
 70
     1
102
RTVSPropertyOp1
 70
     1
102
RTVSPropertyOp2
 70
     1
102
RTVSPropertyOp3
 70
     1
102
RTVSPropertyOp4
 70
     1
102
RTVSPropertyOp5
 70
     1
102
RTVSPropertyOp6
 70
     1
102
RTVSPropertyOp7
 70
     1
102
RTVSPropertyOp8
 70
     1
102
RTVSPropertyOp9
 70
     1
102
RTVSPropertyOp10
 70
     1
102
RTVSPropertyOp11
 70
     1
102
RTVSPropertyOp12
 70
     1
102
RTVSPropertyOp13
 70
     1
102
RTVSPropertyOp14
 70
     1
102
RTVSPropertyOp15
 70
     1
102
RTVSPropertyOp16
 70
     1
102
RTVSPropertyOp17
 70
     1
102
RTVSPropertyOp18
 70
     1
102
RTVSPropertyOp19
 70
     1
102
RTVSPropertyOp20
 70
     1
102
RTVSPropertyOp21
 70
     1
102
RTVSPropertyOp22
 70
     1
102
RTVSPropertyOp23
 70
     1
102
RTVSPropertyOp24
 70
     1
102
RTVSPropertyOp25
 70
     1
102
RTVSPropertyOp26
 70
     1
102
RTVSPropertyOp27
 70
     1
102
RTVSPropertyOp28
 70
     1
102
RTVSPropertyOp29
 70
     1
102
RTVSPropertyOp30
 70
     1
102
RTVSPropertyOp31
 70
     1
102
RTVSPropertyOp32
 70
     1
102
RTVSPropertyOp33
 70
     1
102
RTVSPropertyOp34
 70
     1
102
RTVSPropertyOp35
 70
     1
102
RTVSPropertyOp36
 70
     1
102
RTVSPropertyOp37
 70
     1
102
RTVSPropertyOp38
 70
     1
102
RTVSPropertyOp39
 70
     1
102
RTVSPropertyOp40
 70
     1
102
RTVSPropertyOp41
 70
     1
102
RTVSPropertyOp42
 70
     1
102
RTVSPropertyOp43
 70
     1
102
RTVSPropertyOp44
 70
     1
102
RTVSPropertyOp45
 70
     1
102
RTVSPropertyOp46
 70
     1
102
RTVSPropertyOp47
 70
     1
102
RTVSPropertyOp48
 70
     1
102
RTVSPropertyOp49
 70
     1
102
RTVSPropertyOp50
 70
     1
102
RTVSPropertyOp51
 70
     0
102
RTVSPropertyOp52
 70
     0
102
RTVSPropertyOp53
 70
     1
102
RTVSPropertyOp54
 70
     1
102
RTVSPropertyOp55
 70
     1
102
RTVSPropertyOp56
 70
     1
102
RTVSPropertyOp57
 70
     1
102
RTVSPost2010Prop28
280
     0
102
RTVSPost2010PropOp28
 70
     1
102
RTVSPost2010Prop29
280
     1
102
RTVSPost2010PropOp29
 70
     1
102
RTVSPost2010Prop30
280
     1
102
RTVSPost2010PropOp30
 70
     1
102
RTVSPost2010Prop31
280
     0
102
RTVSPost2010PropOp31
 70
     1
102
RTVSPost2010Prop32
280
     0
102
RTVSPost2010PropOp32
 70
     1
102
RTVSPost2010Prop33
280
     0
102
RTVSPost2010PropOp33
 70
     1
102
RTVSPost2010Prop34
280
     0
102
RTVSPost2010PropOp34
 70
     1
102
RTVSPost2010Prop35
280
     0
102
RTVSPost2010PropOp35
 70
     1
102
RTVSPost2010Prop36
280
     0
102
RTVSPost2010PropOp36
 70
     1
102
RTVSPost2010Prop37
 90
       50
102
RTVSPost2010PropOp37
 70
     1
102
RTVSPost2010Prop38
140
0.0
102
RTVSPost2010PropOp38
 70
     1
102
RTVSPost2010Prop39
140
1.0
102
RTVSPost2010PropOp39
 70
     1
102
RTVSPost2010Prop40
 90
        0
102
RTVSPost2010PropOp40
 70
     1
102
RTVSPost2010Prop41ColorIndex
 90
       18
102
RTVSPost2010Prop41ColorRGB
 90
        0
102
RTVSPost2010PropOp41
 70
     1
102
RTVSPost2010Prop42
 90
       50
102
RTVSPost2010PropOp42
 70
     1
102
RTVSPost2010Prop43
 90
        3
102
RTVSPost2010PropOp43
 70
     1
102
RTVSPost2010Prop44ColorIndex
 90
        5
102
RTVSPost2010Prop44ColorRGB
 90
      255
102
RTVSPost2010PropOp44
 70
     1
102
RTVSPost2010Prop45
280
     0
102
RTVSPost2010PropOp45
 70
     1
102
RTVSPost2010Prop46
 90
       50
102
RTVSPost2010PropOp46
 70
     1
102
RTVSPost2010Prop47
 90
       50
102
RTVSPost2010PropOp47
 70
     1
102
RTVSPost2010Prop48
 90
       50
102
RTVSPost2010PropOp48
 70
     1
102
RTVSPost2010Prop49
280
     0
102
RTVSPost2010PropOp49
 70
     1
102
RTVSPost2010Prop50
 90
       50
102
RTVSPost2010PropOp50
 70
     1
102
RTVSPost2010Prop51ColorIndex
 90
      256
102
RTVSPost2010Prop51ColorRGB
 90
-16777216
102
RTVSPost2010PropOp51
 70
     0
102
RTVSPost2010Prop52
140
1.0
102
RTVSPost2010PropOp52
 70
     0
102
RTVSPost2010Prop53
 90
        2
102
RTVSPost2010PropOp53
 70
     1
102
RTVSPost2010Prop54
  1
strokes_ogs.tif
102
RTVSPost2010PropOp54
 70
     1
102
RTVSPost2010Prop55
280
     0
102
RTVSPost2010PropOp55
 70
     1
102
RTVSPost2010Prop56
140
1.0
102
RTVSPost2010PropOp56
 70
     1
102
RTVSPost2010Prop57
140
1.0
102
RTVSPost2010PropOp57
 70
     1
  0
XRECORD
  5
4FD
102
{ACAD_REACTORS
330
4FC
102
}
330
4FC
100
AcDbXrecord
280
     1
102
RTVSPropertyOp0
 70
     1
102
RTVSPropertyOp1
 70
     1
102
RTVSPropertyOp2
 70
     1
102
RTVSPropertyOp3
 70
     1
102
RTVSPropertyOp4
 70
     1
102
RTVSPropertyOp5
 70
     1
102
RTVSPropertyOp6
 70
     1
102
RTVSPropertyOp7
 70
     1
102
RTVSPropertyOp8
 70
     1
102
RTVSPropertyOp9
 70
     1
102
RTVSPropertyOp10
 70
     1
102
RTVSPropertyOp11
 70
     1
102
RTVSPropertyOp12
 70
     1
102
RTVSPropertyOp13
 70
     1
102
RTVSPropertyOp14
 70
     1
102
RTVSPropertyOp15
 70
     1
102
RTVSPropertyOp16
 70
     1
102
RTVSPropertyOp17
 70
     1
102
RTVSPropertyOp18
 70
     1
102
RTVSPropertyOp19
 70
     1
102
RTVSPropertyOp20
 70
     1
102
RTVSPropertyOp21
 70
     1
102
RTVSPropertyOp22
 70
     1
102
RTVSPropertyOp23
 70
     1
102
RTVSPropertyOp24
 70
     1
102
RTVSPropertyOp25
 70
     1
102
RTVSPropertyOp26
 70
     1
102
RTVSPropertyOp27
 70
     1
102
RTVSPropertyOp28
 70
     1
102
RTVSPropertyOp29
 70
     1
102
RTVSPropertyOp30
 70
     1
102
RTVSPropertyOp31
 70
     1
102
RTVSPropertyOp32
 70
     1
102
RTVSPropertyOp33
 70
     1
102
RTVSPropertyOp34
 70
     1
102
RTVSPropertyOp35
 70
     1
102
RTVSPropertyOp36
 70
     1
102
RTVSPropertyOp37
 70
     1
102
RTVSPropertyOp38
 70
     1
102
RTVSPropertyOp39
 70
     1
102
RTVSPropertyOp40
 70
     1
102
RTVSPropertyOp41
 70
     1
102
RTVSPropertyOp42
 70
     1
102
RTVSPropertyOp43
 70
     1
102
RTVSPropertyOp44
 70
     1
102
RTVSPropertyOp45
 70
     1
102
RTVSPropertyOp46
 70
     1
102
RTVSPropertyOp47
 70
     1
102
RTVSPropertyOp48
 70
     1
102
RTVSPropertyOp49
 70
     1
102
RTVSPropertyOp50
 70
     1
102
RTVSPropertyOp51
 70
     0
102
RTVSPropertyOp52
 70
     0
102
RTVSPropertyOp53
 70
     1
102
RTVSPropertyOp54
 70
     1
102
RTVSPropertyOp55
 70
     1
102
RTVSPropertyOp56
 70
     1
102
RTVSPropertyOp57
 70
     1
102
RTVSPost2010Prop28
280
     0
102
RTVSPost2010PropOp28
 70
     1
102
RTVSPost2010Prop29
280
     1
102
RTVSPost2010PropOp29
 70
     1
102
RTVSPost2010Prop30
280
     1
102
RTVSPost2010PropOp30
 70
     1
102
RTVSPost2010Prop31
280
     0
102
RTVSPost2010PropOp31
 70
     1
102
RTVSPost2010Prop32
280
     0
102
RTVSPost2010PropOp32
 70
     1
102
RTVSPost2010Prop33
280
     0
102
RTVSPost2010PropOp33
 70
     1
102
RTVSPost2010Prop34
280
     0
102
RTVSPost2010PropOp34
 70
     1
102
RTVSPost2010Prop35
280
     0
102
RTVSPost2010PropOp35
 70
     1
102
RTVSPost2010Prop36
280
     0
102
RTVSPost2010PropOp36
 70
     1
102
RTVSPost2010Prop37
 90
       50
102
RTVSPost2010PropOp37
 70
     1
102
RTVSPost2010Prop38
140
0.0
102
RTVSPost2010PropOp38
 70
     1
102
RTVSPost2010Prop39
140
1.0
102
RTVSPost2010PropOp39
 70
     1
102
RTVSPost2010Prop40
 90
        0
102
RTVSPost2010PropOp40
 70
     1
102
RTVSPost2010Prop41ColorIndex
 90
       18
102
RTVSPost2010Prop41ColorRGB
 90
        0
102
RTVSPost2010PropOp41
 70
     1
102
RTVSPost2010Prop42
 90
       50
102
RTVSPost2010PropOp42
 70
     1
102
RTVSPost2010Prop43
 90
        3
102
RTVSPost2010PropOp43
 70
     1
102
RTVSPost2010Prop44ColorIndex
 90
        5
102
RTVSPost2010Prop44ColorRGB
 90
      255
102
RTVSPost2010PropOp44
 70
     1
102
RTVSPost2010Prop45
280
     0
102
RTVSPost2010PropOp45
 70
     1
102
RTVSPost2010Prop46
 90
       50
102
RTVSPost2010PropOp46
 70
     1
102
RTVSPost2010Prop47
 90
       50
102
RTVSPost2010PropOp47
 70
     1
102
RTVSPost2010Prop48
 90
       50
102
RTVSPost2010PropOp48
 70
     1
102
RTVSPost2010Prop49
280
     0
102
RTVSPost2010PropOp49
 70
     1
102
RTVSPost2010Prop50
 90
       50
102
RTVSPost2010PropOp50
 70
     1
102
RTVSPost2010Prop51ColorIndex
 90
      256
102
RTVSPost2010Prop51ColorRGB
 90
-16777216
102
RTVSPost2010PropOp51
 70
     0
102
RTVSPost2010Prop52
140
1.0
102
RTVSPost2010PropOp52
 70
     0
102
RTVSPost2010Prop53
 90
        2
102
RTVSPost2010PropOp53
 70
     1
102
RTVSPost2010Prop54
  1
strokes_ogs.tif
102
RTVSPost2010PropOp54
 70
     1
102
RTVSPost2010Prop55
280
     0
102
RTVSPost2010PropOp55
 70
     1
102
RTVSPost2010Prop56
140
1.0
102
RTVSPost2010PropOp56
 70
     1
102
RTVSPost2010Prop57
140
1.0
102
RTVSPost2010PropOp57
 70
     1
  0
XRECORD
  5
503
102
{ACAD_REACTORS
330
502
102
}
330
502
100
AcDbXrecord
280
     1
102
RTVSPropertyOp0
 70
     1
102
RTVSPropertyOp1
 70
     1
102
RTVSPropertyOp2
 70
     1
102
RTVSPropertyOp3
 70
     1
102
RTVSPropertyOp4
 70
     1
102
RTVSPropertyOp5
 70
     1
102
RTVSPropertyOp6
 70
     1
102
RTVSPropertyOp7
 70
     1
102
RTVSPropertyOp8
 70
     1
102
RTVSPropertyOp9
 70
     1
102
RTVSPropertyOp10
 70
     1
102
RTVSPropertyOp11
 70
     1
102
RTVSPropertyOp12
 70
     1
102
RTVSPropertyOp13
 70
     1
102
RTVSPropertyOp14
 70
     1
102
RTVSPropertyOp15
 70
     1
102
RTVSPropertyOp16
 70
     1
102
RTVSPropertyOp17
 70
     1
102
RTVSPropertyOp18
 70
     1
102
RTVSPropertyOp19
 70
     1
102
RTVSPropertyOp20
 70
     1
102
RTVSPropertyOp21
 70
     1
102
RTVSPropertyOp22
 70
     1
102
RTVSPropertyOp23
 70
     1
102
RTVSPropertyOp24
 70
     1
102
RTVSPropertyOp25
 70
     1
102
RTVSPropertyOp26
 70
     1
102
RTVSPropertyOp27
 70
     1
102
RTVSPropertyOp28
 70
     1
102
RTVSPropertyOp29
 70
     1
102
RTVSPropertyOp30
 70
     1
102
RTVSPropertyOp31
 70
     1
102
RTVSPropertyOp32
 70
     1
102
RTVSPropertyOp33
 70
     1
102
RTVSPropertyOp34
 70
     1
102
RTVSPropertyOp35
 70
     1
102
RTVSPropertyOp36
 70
     1
102
RTVSPropertyOp37
 70
     1
102
RTVSPropertyOp38
 70
     1
102
RTVSPropertyOp39
 70
     1
102
RTVSPropertyOp40
 70
     1
102
RTVSPropertyOp41
 70
     1
102
RTVSPropertyOp42
 70
     1
102
RTVSPropertyOp43
 70
     1
102
RTVSPropertyOp44
 70
     1
102
RTVSPropertyOp45
 70
     1
102
RTVSPropertyOp46
 70
     1
102
RTVSPropertyOp47
 70
     1
102
RTVSPropertyOp48
 70
     1
102
RTVSPropertyOp49
 70
     1
102
RTVSPropertyOp50
 70
     1
102
RTVSPropertyOp51
 70
     0
102
RTVSPropertyOp52
 70
     0
102
RTVSPropertyOp53
 70
     1
102
RTVSPropertyOp54
 70
     1
102
RTVSPropertyOp55
 70
     1
102
RTVSPropertyOp56
 70
     1
102
RTVSPropertyOp57
 70
     1
102
RTVSPost2010Prop28
280
     0
102
RTVSPost2010PropOp28
 70
     1
102
RTVSPost2010Prop29
280
     1
102
RTVSPost2010PropOp29
 70
     1
102
RTVSPost2010Prop30
280
     1
102
RTVSPost2010PropOp30
 70
     1
102
RTVSPost2010Prop31
280
     0
102
RTVSPost2010PropOp31
 70
     1
102
RTVSPost2010Prop32
280
     0
102
RTVSPost2010PropOp32
 70
     1
102
RTVSPost2010Prop33
280
     0
102
RTVSPost2010PropOp33
 70
     1
102
RTVSPost2010Prop34
280
     0
102
RTVSPost2010PropOp34
 70
     1
102
RTVSPost2010Prop35
280
     0
102
RTVSPost2010PropOp35
 70
     1
102
RTVSPost2010Prop36
280
     0
102
RTVSPost2010PropOp36
 70
     1
102
RTVSPost2010Prop37
 90
       50
102
RTVSPost2010PropOp37
 70
     1
102
RTVSPost2010Prop38
140
0.0
102
RTVSPost2010PropOp38
 70
     1
102
RTVSPost2010Prop39
140
1.0
102
RTVSPost2010PropOp39
 70
     1
102
RTVSPost2010Prop40
 90
        0
102
RTVSPost2010PropOp40
 70
     1
102
RTVSPost2010Prop41ColorIndex
 90
       18
102
RTVSPost2010Prop41ColorRGB
 90
        0
102
RTVSPost2010PropOp41
 70
     1
102
RTVSPost2010Prop42
 90
       50
102
RTVSPost2010PropOp42
 70
     1
102
RTVSPost2010Prop43
 90
        3
102
RTVSPost2010PropOp43
 70
     1
102
RTVSPost2010Prop44ColorIndex
 90
        5
102
RTVSPost2010Prop44ColorRGB
 90
      255
102
RTVSPost2010PropOp44
 70
     1
102
RTVSPost2010Prop45
280
     0
102
RTVSPost2010PropOp45
 70
     1
102
RTVSPost2010Prop46
 90
       50
102
RTVSPost2010PropOp46
 70
     1
102
RTVSPost2010Prop47
 90
       50
102
RTVSPost2010PropOp47
 70
     1
102
RTVSPost2010Prop48
 90
       50
102
RTVSPost2010PropOp48
 70
     1
102
RTVSPost2010Prop49
280
     0
102
RTVSPost2010PropOp49
 70
     1
102
RTVSPost2010Prop50
 90
       50
102
RTVSPost2010PropOp50
 70
     1
102
RTVSPost2010Prop51ColorIndex
 90
      256
102
RTVSPost2010Prop51ColorRGB
 90
-16777216
102
RTVSPost2010PropOp51
 70
     0
102
RTVSPost2010Prop52
140
1.0
102
RTVSPost2010PropOp52
 70
     0
102
RTVSPost2010Prop53
 90
        2
102
RTVSPost2010PropOp53
 70
     1
102
RTVSPost2010Prop54
  1
strokes_ogs.tif
102
RTVSPost2010PropOp54
 70
     1
102
RTVSPost2010Prop55
280
     0
102
RTVSPost2010PropOp55
 70
     1
102
RTVSPost2010Prop56
140
1.0
102
RTVSPost2010PropOp56
 70
     1
102
RTVSPost2010Prop57
140
1.0
102
RTVSPost2010PropOp57
 70
     1
  0
XRECORD
  5
517
102
{ACAD_REACTORS
330
516
102
}
330
516
100
AcDbXrecord
280
     1
102
RTVSPropertyOp0
 70
     0
102
RTVSPropertyOp1
 70
     0
102
RTVSPropertyOp2
 70
     0
102
RTVSPropertyOp3
 70
     0
102
RTVSPropertyOp4
 70
     0
102
RTVSPropertyOp5
 70
     0
102
RTVSPropertyOp6
 70
     0
102
RTVSPropertyOp7
 70
     0
102
RTVSPropertyOp8
 70
     0
102
RTVSPropertyOp9
 70
     0
102
RTVSPropertyOp10
 70
     0
102
RTVSPropertyOp11
 70
     0
102
RTVSPropertyOp12
 70
     0
102
RTVSPropertyOp13
 70
     0
102
RTVSPropertyOp14
 70
     0
102
RTVSPropertyOp15
 70
     0
102
RTVSPropertyOp16
 70
     0
102
RTVSPropertyOp17
 70
     0
102
RTVSPropertyOp18
 70
     0
102
RTVSPropertyOp19
 70
     0
102
RTVSPropertyOp20
 70
     0
102
RTVSPropertyOp21
 70
     0
102
RTVSPropertyOp22
 70
     0
102
RTVSPropertyOp23
 70
     0
102
RTVSPropertyOp24
 70
     0
102
RTVSPropertyOp25
 70
     0
102
RTVSPropertyOp26
 70
     0
102
RTVSPropertyOp27
 70
     0
102
RTVSPropertyOp28
 70
     1
102
RTVSPropertyOp29
 70
     1
102
RTVSPropertyOp30
 70
     1
102
RTVSPropertyOp31
 70
     1
102
RTVSPropertyOp32
 70
     1
102
RTVSPropertyOp33
 70
     1
102
RTVSPropertyOp34
 70
     1
102
RTVSPropertyOp35
 70
     1
102
RTVSPropertyOp36
 70
     1
102
RTVSPropertyOp37
 70
     1
102
RTVSPropertyOp38
 70
     1
102
RTVSPropertyOp39
 70
     1
102
RTVSPropertyOp40
 70
     1
102
RTVSPropertyOp41
 70
     1
102
RTVSPropertyOp42
 70
     1
102
RTVSPropertyOp43
 70
     1
102
RTVSPropertyOp44
 70
     1
102
RTVSPropertyOp45
 70
     1
102
RTVSPropertyOp46
 70
     1
102
RTVSPropertyOp47
 70
     1
102
RTVSPropertyOp48
 70
     1
102
RTVSPropertyOp49
 70
     1
102
RTVSPropertyOp50
 70
     1
102
RTVSPropertyOp51
 70
     0
102
RTVSPropertyOp52
 70
     0
102
RTVSPropertyOp53
 70
     1
102
RTVSPropertyOp54
 70
     1
102
RTVSPropertyOp55
 70
     1
102
RTVSPropertyOp56
 70
     1
102
RTVSPropertyOp57
 70
     1
102
RTVSPost2010Prop28
280
     0
102
RTVSPost2010PropOp28
 70
     1
102
RTVSPost2010Prop29
280
     1
102
RTVSPost2010PropOp29
 70
     1
102
RTVSPost2010Prop30
280
     1
102
RTVSPost2010PropOp30
 70
     1
102
RTVSPost2010Prop31
280
     0
102
RTVSPost2010PropOp31
 70
     1
102
RTVSPost2010Prop32
280
     0
102
RTVSPost2010PropOp32
 70
     1
102
RTVSPost2010Prop33
280
     0
102
RTVSPost2010PropOp33
 70
     1
102
RTVSPost2010Prop34
280
     0
102
RTVSPost2010PropOp34
 70
     1
102
RTVSPost2010Prop35
280
     0
102
RTVSPost2010PropOp35
 70
     1
102
RTVSPost2010Prop36
280
     0
102
RTVSPost2010PropOp36
 70
     1
102
RTVSPost2010Prop37
 90
       50
102
RTVSPost2010PropOp37
 70
     1
102
RTVSPost2010Prop38
140
0.0
102
RTVSPost2010PropOp38
 70
     1
102
RTVSPost2010Prop39
140
1.0
102
RTVSPost2010PropOp39
 70
     1
102
RTVSPost2010Prop40
 90
        0
102
RTVSPost2010PropOp40
 70
     1
102
RTVSPost2010Prop41ColorIndex
 90
       18
102
RTVSPost2010Prop41ColorRGB
 90
        0
102
RTVSPost2010PropOp41
 70
     1
102
RTVSPost2010Prop42
 90
       50
102
RTVSPost2010PropOp42
 70
     1
102
RTVSPost2010Prop43
 90
        3
102
RTVSPost2010PropOp43
 70
     1
102
RTVSPost2010Prop44ColorIndex
 90
        5
102
RTVSPost2010Prop44ColorRGB
 90
      255
102
RTVSPost2010PropOp44
 70
     1
102
RTVSPost2010Prop45
280
     0
102
RTVSPost2010PropOp45
 70
     1
102
RTVSPost2010Prop46
 90
       50
102
RTVSPost2010PropOp46
 70
     1
102
RTVSPost2010Prop47
 90
       50
102
RTVSPost2010PropOp47
 70
     1
102
RTVSPost2010Prop48
 90
       50
102
RTVSPost2010PropOp48
 70
     1
102
RTVSPost2010Prop49
280
     0
102
RTVSPost2010PropOp49
 70
     1
102
RTVSPost2010Prop50
 90
       50
102
RTVSPost2010PropOp50
 70
     1
102
RTVSPost2010Prop51ColorIndex
 90
      256
102
RTVSPost2010Prop51ColorRGB
 90
-16777216
102
RTVSPost2010PropOp51
 70
     0
102
RTVSPost2010Prop52
140
1.0
102
RTVSPost2010PropOp52
 70
     0
102
RTVSPost2010Prop53
 90
        2
102
RTVSPost2010PropOp53
 70
     1
102
RTVSPost2010Prop54
  1
strokes_ogs.tif
102
RTVSPost2010PropOp54
 70
     1
102
RTVSPost2010Prop55
280
     0
102
RTVSPost2010PropOp55
 70
     1
102
RTVSPost2010Prop56
140
1.0
102
RTVSPost2010PropOp56
 70
     1
102
RTVSPost2010Prop57
140
1.0
102
RTVSPost2010PropOp57
 70
     1
  0
XRECORD
  5
511
102
{ACAD_REACTORS
330
510
102
}
330
510
100
AcDbXrecord
280
     1
102
RTVSPropertyOp0
 70
     1
102
RTVSPropertyOp1
 70
     1
102
RTVSPropertyOp2
 70
     1
102
RTVSPropertyOp3
 70
     1
102
RTVSPropertyOp4
 70
     1
102
RTVSPropertyOp5
 70
     1
102
RTVSPropertyOp6
 70
     1
102
RTVSPropertyOp7
 70
     1
102
RTVSPropertyOp8
 70
     1
102
RTVSPropertyOp9
 70
     1
102
RTVSPropertyOp10
 70
     1
102
RTVSPropertyOp11
 70
     1
102
RTVSPropertyOp12
 70
     1
102
RTVSPropertyOp13
 70
     1
102
RTVSPropertyOp14
 70
     1
102
RTVSPropertyOp15
 70
     1
102
RTVSPropertyOp16
 70
     1
102
RTVSPropertyOp17
 70
     1
102
RTVSPropertyOp18
 70
     1
102
RTVSPropertyOp19
 70
     1
102
RTVSPropertyOp20
 70
     1
102
RTVSPropertyOp21
 70
     1
102
RTVSPropertyOp22
 70
     1
102
RTVSPropertyOp23
 70
     1
102
RTVSPropertyOp24
 70
     1
102
RTVSPropertyOp25
 70
     1
102
RTVSPropertyOp26
 70
     1
102
RTVSPropertyOp27
 70
     1
102
RTVSPropertyOp28
 70
     1
102
RTVSPropertyOp29
 70
     1
102
RTVSPropertyOp30
 70
     1
102
RTVSPropertyOp31
 70
     1
102
RTVSPropertyOp32
 70
     1
102
RTVSPropertyOp33
 70
     1
102
RTVSPropertyOp34
 70
     1
102
RTVSPropertyOp35
 70
     1
102
RTVSPropertyOp36
 70
     1
102
RTVSPropertyOp37
 70
     1
102
RTVSPropertyOp38
 70
     1
102
RTVSPropertyOp39
 70
     1
102
RTVSPropertyOp40
 70
     1
102
RTVSPropertyOp41
 70
     1
102
RTVSPropertyOp42
 70
     1
102
RTVSPropertyOp43
 70
     1
102
RTVSPropertyOp44
 70
     1
102
RTVSPropertyOp45
 70
     1
102
RTVSPropertyOp46
 70
     1
102
RTVSPropertyOp47
 70
     1
102
RTVSPropertyOp48
 70
     1
102
RTVSPropertyOp49
 70
     1
102
RTVSPropertyOp50
 70
     1
102
RTVSPropertyOp51
 70
     0
102
RTVSPropertyOp52
 70
     0
102
RTVSPropertyOp53
 70
     1
102
RTVSPropertyOp54
 70
     1
102
RTVSPropertyOp55
 70
     1
102
RTVSPropertyOp56
 70
     1
102
RTVSPropertyOp57
 70
     1
102
RTVSPost2010Prop28
280
     0
102
RTVSPost2010PropOp28
 70
     1
102
RTVSPost2010Prop29
280
     1
102
RTVSPost2010PropOp29
 70
     1
102
RTVSPost2010Prop30
280
     1
102
RTVSPost2010PropOp30
 70
     1
102
RTVSPost2010Prop31
280
     0
102
RTVSPost2010PropOp31
 70
     1
102
RTVSPost2010Prop32
280
     0
102
RTVSPost2010PropOp32
 70
     1
102
RTVSPost2010Prop33
280
     0
102
RTVSPost2010PropOp33
 70
     1
102
RTVSPost2010Prop34
280
     0
102
RTVSPost2010PropOp34
 70
     1
102
RTVSPost2010Prop35
280
     0
102
RTVSPost2010PropOp35
 70
     1
102
RTVSPost2010Prop36
280
     0
102
RTVSPost2010PropOp36
 70
     1
102
RTVSPost2010Prop37
 90
       50
102
RTVSPost2010PropOp37
 70
     1
102
RTVSPost2010Prop38
140
0.0
102
RTVSPost2010PropOp38
 70
     1
102
RTVSPost2010Prop39
140
1.0
102
RTVSPost2010PropOp39
 70
     1
102
RTVSPost2010Prop40
 90
        0
102
RTVSPost2010PropOp40
 70
     1
102
RTVSPost2010Prop41ColorIndex
 90
       18
102
RTVSPost2010Prop41ColorRGB
 90
        0
102
RTVSPost2010PropOp41
 70
     1
102
RTVSPost2010Prop42
 90
       50
102
RTVSPost2010PropOp42
 70
     1
102
RTVSPost2010Prop43
 90
        3
102
RTVSPost2010PropOp43
 70
     1
102
RTVSPost2010Prop44ColorIndex
 90
        5
102
RTVSPost2010Prop44ColorRGB
 90
      255
102
RTVSPost2010PropOp44
 70
     1
102
RTVSPost2010Prop45
280
     0
102
RTVSPost2010PropOp45
 70
     1
102
RTVSPost2010Prop46
 90
       50
102
RTVSPost2010PropOp46
 70
     1
102
RTVSPost2010Prop47
 90
       50
102
RTVSPost2010PropOp47
 70
     1
102
RTVSPost2010Prop48
 90
       50
102
RTVSPost2010PropOp48
 70
     1
102
RTVSPost2010Prop49
280
     0
102
RTVSPost2010PropOp49
 70
     1
102
RTVSPost2010Prop50
 90
       50
102
RTVSPost2010PropOp50
 70
     1
102
RTVSPost2010Prop51ColorIndex
 90
      256
102
RTVSPost2010Prop51ColorRGB
 90
-16777216
102
RTVSPost2010PropOp51
 70
     0
102
RTVSPost2010Prop52
140
1.0
102
RTVSPost2010PropOp52
 70
     0
102
RTVSPost2010Prop53
 90
        2
102
RTVSPost2010PropOp53
 70
     1
102
RTVSPost2010Prop54
  1
strokes_ogs.tif
102
RTVSPost2010PropOp54
 70
     1
102
RTVSPost2010Prop55
280
     0
102
RTVSPost2010PropOp55
 70
     1
102
RTVSPost2010Prop56
140
1.0
102
RTVSPost2010PropOp56
 70
     1
102
RTVSPost2010Prop57
140
1.0
102
RTVSPost2010PropOp57
 70
     1
  0
XRECORD
  5
519
102
{ACAD_REACTORS
330
518
102
}
330
518
100
AcDbXrecord
280
     1
102
RTVSPropertyOp0
 70
     0
102
RTVSPropertyOp1
 70
     0
102
RTVSPropertyOp2
 70
     0
102
RTVSPropertyOp3
 70
     0
102
RTVSPropertyOp4
 70
     0
102
RTVSPropertyOp5
 70
     0
102
RTVSPropertyOp6
 70
     0
102
RTVSPropertyOp7
 70
     0
102
RTVSPropertyOp8
 70
     0
102
RTVSPropertyOp9
 70
     0
102
RTVSPropertyOp10
 70
     0
102
RTVSPropertyOp11
 70
     0
102
RTVSPropertyOp12
 70
     0
102
RTVSPropertyOp13
 70
     0
102
RTVSPropertyOp14
 70
     0
102
RTVSPropertyOp15
 70
     0
102
RTVSPropertyOp16
 70
     0
102
RTVSPropertyOp17
 70
     0
102
RTVSPropertyOp18
 70
     0
102
RTVSPropertyOp19
 70
     0
102
RTVSPropertyOp20
 70
     0
102
RTVSPropertyOp21
 70
     0
102
RTVSPropertyOp22
 70
     0
102
RTVSPropertyOp23
 70
     0
102
RTVSPropertyOp24
 70
     0
102
RTVSPropertyOp25
 70
     0
102
RTVSPropertyOp26
 70
     0
102
RTVSPropertyOp27
 70
     0
102
RTVSPropertyOp28
 70
     1
102
RTVSPropertyOp29
 70
     1
102
RTVSPropertyOp30
 70
     1
102
RTVSPropertyOp31
 70
     1
102
RTVSPropertyOp32
 70
     1
102
RTVSPropertyOp33
 70
     1
102
RTVSPropertyOp34
 70
     1
102
RTVSPropertyOp35
 70
     1
102
RTVSPropertyOp36
 70
     1
102
RTVSPropertyOp37
 70
     1
102
RTVSPropertyOp38
 70
     1
102
RTVSPropertyOp39
 70
     1
102
RTVSPropertyOp40
 70
     1
102
RTVSPropertyOp41
 70
     1
102
RTVSPropertyOp42
 70
     1
102
RTVSPropertyOp43
 70
     1
102
RTVSPropertyOp44
 70
     1
102
RTVSPropertyOp45
 70
     1
102
RTVSPropertyOp46
 70
     1
102
RTVSPropertyOp47
 70
     1
102
RTVSPropertyOp48
 70
     1
102
RTVSPropertyOp49
 70
     1
102
RTVSPropertyOp50
 70
     1
102
RTVSPropertyOp51
 70
     0
102
RTVSPropertyOp52
 70
     0
102
RTVSPropertyOp53
 70
     1
102
RTVSPropertyOp54
 70
     1
102
RTVSPropertyOp55
 70
     1
102
RTVSPropertyOp56
 70
     1
102
RTVSPropertyOp57
 70
     1
102
RTVSPost2010Prop28
280
     0
102
RTVSPost2010PropOp28
 70
     1
102
RTVSPost2010Prop29
280
     1
102
RTVSPost2010PropOp29
 70
     1
102
RTVSPost2010Prop30
280
     1
102
RTVSPost2010PropOp30
 70
     1
102
RTVSPost2010Prop31
280
     0
102
RTVSPost2010PropOp31
 70
     1
102
RTVSPost2010Prop32
280
     0
102
RTVSPost2010PropOp32
 70
     1
102
RTVSPost2010Prop33
280
     0
102
RTVSPost2010PropOp33
 70
     1
102
RTVSPost2010Prop34
280
     0
102
RTVSPost2010PropOp34
 70
     1
102
RTVSPost2010Prop35
280
     0
102
RTVSPost2010PropOp35
 70
     1
102
RTVSPost2010Prop36
280
     0
102
RTVSPost2010PropOp36
 70
     1
102
RTVSPost2010Prop37
 90
       50
102
RTVSPost2010PropOp37
 70
     1
102
RTVSPost2010Prop38
140
0.0
102
RTVSPost2010PropOp38
 70
     1
102
RTVSPost2010Prop39
140
1.0
102
RTVSPost2010PropOp39
 70
     1
102
RTVSPost2010Prop40
 90
        0
102
RTVSPost2010PropOp40
 70
     1
102
RTVSPost2010Prop41ColorIndex
 90
       18
102
RTVSPost2010Prop41ColorRGB
 90
        0
102
RTVSPost2010PropOp41
 70
     1
102
RTVSPost2010Prop42
 90
       50
102
RTVSPost2010PropOp42
 70
     1
102
RTVSPost2010Prop43
 90
        3
102
RTVSPost2010PropOp43
 70
     1
102
RTVSPost2010Prop44ColorIndex
 90
        5
102
RTVSPost2010Prop44ColorRGB
 90
      255
102
RTVSPost2010PropOp44
 70
     1
102
RTVSPost2010Prop45
280
     0
102
RTVSPost2010PropOp45
 70
     1
102
RTVSPost2010Prop46
 90
       50
102
RTVSPost2010PropOp46
 70
     1
102
RTVSPost2010Prop47
 90
       50
102
RTVSPost2010PropOp47
 70
     1
102
RTVSPost2010Prop48
 90
       50
102
RTVSPost2010PropOp48
 70
     1
102
RTVSPost2010Prop49
280
     0
102
RTVSPost2010PropOp49
 70
     1
102
RTVSPost2010Prop50
 90
       50
102
RTVSPost2010PropOp50
 70
     1
102
RTVSPost2010Prop51ColorIndex
 90
      256
102
RTVSPost2010Prop51ColorRGB
 90
-16777216
102
RTVSPost2010PropOp51
 70
     0
102
RTVSPost2010Prop52
140
1.0
102
RTVSPost2010PropOp52
 70
     0
102
RTVSPost2010Prop53
 90
        2
102
RTVSPost2010PropOp53
 70
     1
102
RTVSPost2010Prop54
  1
strokes_ogs.tif
102
RTVSPost2010PropOp54
 70
     1
102
RTVSPost2010Prop55
280
     0
102
RTVSPost2010PropOp55
 70
     1
102
RTVSPost2010Prop56
140
1.0
102
RTVSPost2010PropOp56
 70
     1
102
RTVSPost2010Prop57
140
1.0
102
RTVSPost2010PropOp57
 70
     1
  0
XRECORD
  5
507
102
{ACAD_REACTORS
330
506
102
}
330
506
100
AcDbXrecord
280
     1
102
RTVSPropertyOp0
 70
     1
102
RTVSPropertyOp1
 70
     1
102
RTVSPropertyOp2
 70
     1
102
RTVSPropertyOp3
 70
     1
102
RTVSPropertyOp4
 70
     1
102
RTVSPropertyOp5
 70
     1
102
RTVSPropertyOp6
 70
     1
102
RTVSPropertyOp7
 70
     1
102
RTVSPropertyOp8
 70
     1
102
RTVSPropertyOp9
 70
     1
102
RTVSPropertyOp10
 70
     1
102
RTVSPropertyOp11
 70
     1
102
RTVSPropertyOp12
 70
     1
102
RTVSPropertyOp13
 70
     1
102
RTVSPropertyOp14
 70
     1
102
RTVSPropertyOp15
 70
     1
102
RTVSPropertyOp16
 70
     1
102
RTVSPropertyOp17
 70
     1
102
RTVSPropertyOp18
 70
     1
102
RTVSPropertyOp19
 70
     1
102
RTVSPropertyOp20
 70
     1
102
RTVSPropertyOp21
 70
     1
102
RTVSPropertyOp22
 70
     1
102
RTVSPropertyOp23
 70
     1
102
RTVSPropertyOp24
 70
     1
102
RTVSPropertyOp25
 70
     1
102
RTVSPropertyOp26
 70
     1
102
RTVSPropertyOp27
 70
     1
102
RTVSPropertyOp28
 70
     1
102
RTVSPropertyOp29
 70
     1
102
RTVSPropertyOp30
 70
     1
102
RTVSPropertyOp31
 70
     1
102
RTVSPropertyOp32
 70
     1
102
RTVSPropertyOp33
 70
     1
102
RTVSPropertyOp34
 70
     1
102
RTVSPropertyOp35
 70
     1
102
RTVSPropertyOp36
 70
     1
102
RTVSPropertyOp37
 70
     1
102
RTVSPropertyOp38
 70
     1
102
RTVSPropertyOp39
 70
     1
102
RTVSPropertyOp40
 70
     1
102
RTVSPropertyOp41
 70
     1
102
RTVSPropertyOp42
 70
     1
102
RTVSPropertyOp43
 70
     1
102
RTVSPropertyOp44
 70
     1
102
RTVSPropertyOp45
 70
     1
102
RTVSPropertyOp46
 70
     1
102
RTVSPropertyOp47
 70
     1
102
RTVSPropertyOp48
 70
     1
102
RTVSPropertyOp49
 70
     1
102
RTVSPropertyOp50
 70
     1
102
RTVSPropertyOp51
 70
     0
102
RTVSPropertyOp52
 70
     0
102
RTVSPropertyOp53
 70
     1
102
RTVSPropertyOp54
 70
     1
102
RTVSPropertyOp55
 70
     1
102
RTVSPropertyOp56
 70
     1
102
RTVSPropertyOp57
 70
     1
102
RTVSPost2010Prop28
280
     0
102
RTVSPost2010PropOp28
 70
     1
102
RTVSPost2010Prop29
280
     1
102
RTVSPost2010PropOp29
 70
     1
102
RTVSPost2010Prop30
280
     1
102
RTVSPost2010PropOp30
 70
     1
102
RTVSPost2010Prop31
280
     0
102
RTVSPost2010PropOp31
 70
     1
102
RTVSPost2010Prop32
280
     0
102
RTVSPost2010PropOp32
 70
     1
102
RTVSPost2010Prop33
280
     0
102
RTVSPost2010PropOp33
 70
     1
102
RTVSPost2010Prop34
280
     0
102
RTVSPost2010PropOp34
 70
     1
102
RTVSPost2010Prop35
280
     0
102
RTVSPost2010PropOp35
 70
     1
102
RTVSPost2010Prop36
280
     0
102
RTVSPost2010PropOp36
 70
     1
102
RTVSPost2010Prop37
 90
       50
102
RTVSPost2010PropOp37
 70
     1
102
RTVSPost2010Prop38
140
0.0
102
RTVSPost2010PropOp38
 70
     1
102
RTVSPost2010Prop39
140
1.0
102
RTVSPost2010PropOp39
 70
     1
102
RTVSPost2010Prop40
 90
        0
102
RTVSPost2010PropOp40
 70
     1
102
RTVSPost2010Prop41ColorIndex
 90
       18
102
RTVSPost2010Prop41ColorRGB
 90
        0
102
RTVSPost2010PropOp41
 70
     1
102
RTVSPost2010Prop42
 90
       50
102
RTVSPost2010PropOp42
 70
     1
102
RTVSPost2010Prop43
 90
        3
102
RTVSPost2010PropOp43
 70
     1
102
RTVSPost2010Prop44ColorIndex
 90
        5
102
RTVSPost2010Prop44ColorRGB
 90
      255
102
RTVSPost2010PropOp44
 70
     1
102
RTVSPost2010Prop45
280
     0
102
RTVSPost2010PropOp45
 70
     1
102
RTVSPost2010Prop46
 90
       50
102
RTVSPost2010PropOp46
 70
     1
102
RTVSPost2010Prop47
 90
       50
102
RTVSPost2010PropOp47
 70
     1
102
RTVSPost2010Prop48
 90
       50
102
RTVSPost2010PropOp48
 70
     1
102
RTVSPost2010Prop49
280
     0
102
RTVSPost2010PropOp49
 70
     1
102
RTVSPost2010Prop50
 90
       50
102
RTVSPost2010PropOp50
 70
     1
102
RTVSPost2010Prop51ColorIndex
 90
      256
102
RTVSPost2010Prop51ColorRGB
 90
-16777216
102
RTVSPost2010PropOp51
 70
     0
102
RTVSPost2010Prop52
140
1.0
102
RTVSPost2010PropOp52
 70
     0
102
RTVSPost2010Prop53
 90
        2
102
RTVSPost2010PropOp53
 70
     1
102
RTVSPost2010Prop54
  1
strokes_ogs.tif
102
RTVSPost2010PropOp54
 70
     1
102
RTVSPost2010Prop55
280
     0
102
RTVSPost2010PropOp55
 70
     1
102
RTVSPost2010Prop56
140
1.0
102
RTVSPost2010PropOp56
 70
     1
102
RTVSPost2010Prop57
140
1.0
102
RTVSPost2010PropOp57
 70
     1
  0
XRECORD
  5
525
102
{ACAD_REACTORS
330
524
102
}
330
524
100
AcDbXrecord
280
     1
102
RTVSPropertyOp0
 70
     1
102
RTVSPropertyOp1
 70
     1
102
RTVSPropertyOp2
 70
     1
102
RTVSPropertyOp3
 70
     1
102
RTVSPropertyOp4
 70
     1
102
RTVSPropertyOp5
 70
     1
102
RTVSPropertyOp6
 70
     1
102
RTVSPropertyOp7
 70
     1
102
RTVSPropertyOp8
 70
     1
102
RTVSPropertyOp9
 70
     1
102
RTVSPropertyOp10
 70
     1
102
RTVSPropertyOp11
 70
     1
102
RTVSPropertyOp12
 70
     1
102
RTVSPropertyOp13
 70
     1
102
RTVSPropertyOp14
 70
     1
102
RTVSPropertyOp15
 70
     1
102
RTVSPropertyOp16
 70
     1
102
RTVSPropertyOp17
 70
     1
102
RTVSPropertyOp18
 70
     1
102
RTVSPropertyOp19
 70
     1
102
RTVSPropertyOp20
 70
     1
102
RTVSPropertyOp21
 70
     1
102
RTVSPropertyOp22
 70
     1
102
RTVSPropertyOp23
 70
     1
102
RTVSPropertyOp24
 70
     1
102
RTVSPropertyOp25
 70
     1
102
RTVSPropertyOp26
 70
     1
102
RTVSPropertyOp27
 70
     1
102
RTVSPropertyOp28
 70
     1
102
RTVSPropertyOp29
 70
     1
102
RTVSPropertyOp30
 70
     1
102
RTVSPropertyOp31
 70
     1
102
RTVSPropertyOp32
 70
     1
102
RTVSPropertyOp33
 70
     1
102
RTVSPropertyOp34
 70
     1
102
RTVSPropertyOp35
 70
     1
102
RTVSPropertyOp36
 70
     1
102
RTVSPropertyOp37
 70
     1
102
RTVSPropertyOp38
 70
     1
102
RTVSPropertyOp39
 70
     1
102
RTVSPropertyOp40
 70
     1
102
RTVSPropertyOp41
 70
     1
102
RTVSPropertyOp42
 70
     1
102
RTVSPropertyOp43
 70
     1
102
RTVSPropertyOp44
 70
     1
102
RTVSPropertyOp45
 70
     1
102
RTVSPropertyOp46
 70
     1
102
RTVSPropertyOp47
 70
     1
102
RTVSPropertyOp48
 70
     1
102
RTVSPropertyOp49
 70
     1
102
RTVSPropertyOp50
 70
     1
102
RTVSPropertyOp51
 70
     0
102
RTVSPropertyOp52
 70
     0
102
RTVSPropertyOp53
 70
     1
102
RTVSPropertyOp54
 70
     1
102
RTVSPropertyOp55
 70
     1
102
RTVSPropertyOp56
 70
     1
102
RTVSPropertyOp57
 70
     1
102
RTVSPost2010Prop28
280
     0
102
RTVSPost2010PropOp28
 70
     1
102
RTVSPost2010Prop29
280
     1
102
RTVSPost2010PropOp29
 70
     1
102
RTVSPost2010Prop30
280
     1
102
RTVSPost2010PropOp30
 70
     1
102
RTVSPost2010Prop31
280
     0
102
RTVSPost2010PropOp31
 70
     1
102
RTVSPost2010Prop32
280
     0
102
RTVSPost2010PropOp32
 70
     1
102
RTVSPost2010Prop33
280
     0
102
RTVSPost2010PropOp33
 70
     1
102
RTVSPost2010Prop34
280
     0
102
RTVSPost2010PropOp34
 70
     1
102
RTVSPost2010Prop35
280
     0
102
RTVSPost2010PropOp35
 70
     1
102
RTVSPost2010Prop36
280
     0
102
RTVSPost2010PropOp36
 70
     1
102
RTVSPost2010Prop37
 90
       50
102
RTVSPost2010PropOp37
 70
     1
102
RTVSPost2010Prop38
140
0.0
102
RTVSPost2010PropOp38
 70
     1
102
RTVSPost2010Prop39
140
1.0
102
RTVSPost2010PropOp39
 70
     1
102
RTVSPost2010Prop40
 90
        0
102
RTVSPost2010PropOp40
 70
     1
102
RTVSPost2010Prop41ColorIndex
 90
       18
102
RTVSPost2010Prop41ColorRGB
 90
        0
102
RTVSPost2010PropOp41
 70
     1
102
RTVSPost2010Prop42
 90
       50
102
RTVSPost2010PropOp42
 70
     1
102
RTVSPost2010Prop43
 90
        3
102
RTVSPost2010PropOp43
 70
     1
102
RTVSPost2010Prop44ColorIndex
 90
        5
102
RTVSPost2010Prop44ColorRGB
 90
      255
102
RTVSPost2010PropOp44
 70
     1
102
RTVSPost2010Prop45
280
     0
102
RTVSPost2010PropOp45
 70
     1
102
RTVSPost2010Prop46
 90
       50
102
RTVSPost2010PropOp46
 70
     1
102
RTVSPost2010Prop47
 90
       50
102
RTVSPost2010PropOp47
 70
     1
102
RTVSPost2010Prop48
 90
       50
102
RTVSPost2010PropOp48
 70
     1
102
RTVSPost2010Prop49
280
     0
102
RTVSPost2010PropOp49
 70
     1
102
RTVSPost2010Prop50
 90
       50
102
RTVSPost2010PropOp50
 70
     1
102
RTVSPost2010Prop51ColorIndex
 90
      256
102
RTVSPost2010Prop51ColorRGB
 90
-16777216
102
RTVSPost2010PropOp51
 70
     0
102
RTVSPost2010Prop52
140
1.0
102
RTVSPost2010PropOp52
 70
     0
102
RTVSPost2010Prop53
 90
        2
102
RTVSPost2010PropOp53
 70
     1
102
RTVSPost2010Prop54
  1
strokes_ogs.tif
102
RTVSPost2010PropOp54
 70
     1
102
RTVSPost2010Prop55
280
     0
102
RTVSPost2010PropOp55
 70
     1
102
RTVSPost2010Prop56
140
1.0
102
RTVSPost2010PropOp56
 70
     1
102
RTVSPost2010Prop57
140
1.0
102
RTVSPost2010PropOp57
 70
     1
  0
XRECORD
  5
523
102
{ACAD_REACTORS
330
522
102
}
330
522
100
AcDbXrecord
280
     1
102
RTVSPropertyOp0
 70
     1
102
RTVSPropertyOp1
 70
     1
102
RTVSPropertyOp2
 70
     1
102
RTVSPropertyOp3
 70
     1
102
RTVSPropertyOp4
 70
     1
102
RTVSPropertyOp5
 70
     1
102
RTVSPropertyOp6
 70
     1
102
RTVSPropertyOp7
 70
     1
102
RTVSPropertyOp8
 70
     1
102
RTVSPropertyOp9
 70
     1
102
RTVSPropertyOp10
 70
     1
102
RTVSPropertyOp11
 70
     1
102
RTVSPropertyOp12
 70
     1
102
RTVSPropertyOp13
 70
     1
102
RTVSPropertyOp14
 70
     1
102
RTVSPropertyOp15
 70
     1
102
RTVSPropertyOp16
 70
     1
102
RTVSPropertyOp17
 70
     1
102
RTVSPropertyOp18
 70
     1
102
RTVSPropertyOp19
 70
     1
102
RTVSPropertyOp20
 70
     1
102
RTVSPropertyOp21
 70
     1
102
RTVSPropertyOp22
 70
     1
102
RTVSPropertyOp23
 70
     1
102
RTVSPropertyOp24
 70
     1
102
RTVSPropertyOp25
 70
     1
102
RTVSPropertyOp26
 70
     1
102
RTVSPropertyOp27
 70
     1
102
RTVSPropertyOp28
 70
     1
102
RTVSPropertyOp29
 70
     1
102
RTVSPropertyOp30
 70
     1
102
RTVSPropertyOp31
 70
     1
102
RTVSPropertyOp32
 70
     1
102
RTVSPropertyOp33
 70
     1
102
RTVSPropertyOp34
 70
     1
102
RTVSPropertyOp35
 70
     1
102
RTVSPropertyOp36
 70
     1
102
RTVSPropertyOp37
 70
     1
102
RTVSPropertyOp38
 70
     1
102
RTVSPropertyOp39
 70
     1
102
RTVSPropertyOp40
 70
     1
102
RTVSPropertyOp41
 70
     1
102
RTVSPropertyOp42
 70
     1
102
RTVSPropertyOp43
 70
     1
102
RTVSPropertyOp44
 70
     1
102
RTVSPropertyOp45
 70
     1
102
RTVSPropertyOp46
 70
     1
102
RTVSPropertyOp47
 70
     1
102
RTVSPropertyOp48
 70
     1
102
RTVSPropertyOp49
 70
     1
102
RTVSPropertyOp50
 70
     1
102
RTVSPropertyOp51
 70
     0
102
RTVSPropertyOp52
 70
     0
102
RTVSPropertyOp53
 70
     1
102
RTVSPropertyOp54
 70
     1
102
RTVSPropertyOp55
 70
     1
102
RTVSPropertyOp56
 70
     1
102
RTVSPropertyOp57
 70
     1
102
RTVSPost2010Prop28
280
     0
102
RTVSPost2010PropOp28
 70
     1
102
RTVSPost2010Prop29
280
     1
102
RTVSPost2010PropOp29
 70
     1
102
RTVSPost2010Prop30
280
     1
102
RTVSPost2010PropOp30
 70
     1
102
RTVSPost2010Prop31
280
     0
102
RTVSPost2010PropOp31
 70
     1
102
RTVSPost2010Prop32
280
     0
102
RTVSPost2010PropOp32
 70
     1
102
RTVSPost2010Prop33
280
     0
102
RTVSPost2010PropOp33
 70
     1
102
RTVSPost2010Prop34
280
     0
102
RTVSPost2010PropOp34
 70
     1
102
RTVSPost2010Prop35
280
     0
102
RTVSPost2010PropOp35
 70
     1
102
RTVSPost2010Prop36
280
     0
102
RTVSPost2010PropOp36
 70
     1
102
RTVSPost2010Prop37
 90
       50
102
RTVSPost2010PropOp37
 70
     1
102
RTVSPost2010Prop38
140
0.0
102
RTVSPost2010PropOp38
 70
     1
102
RTVSPost2010Prop39
140
1.0
102
RTVSPost2010PropOp39
 70
     1
102
RTVSPost2010Prop40
 90
        0
102
RTVSPost2010PropOp40
 70
     1
102
RTVSPost2010Prop41ColorIndex
 90
       18
102
RTVSPost2010Prop41ColorRGB
 90
        0
102
RTVSPost2010PropOp41
 70
     1
102
RTVSPost2010Prop42
 90
       50
102
RTVSPost2010PropOp42
 70
     1
102
RTVSPost2010Prop43
 90
        3
102
RTVSPost2010PropOp43
 70
     1
102
RTVSPost2010Prop44ColorIndex
 90
        5
102
RTVSPost2010Prop44ColorRGB
 90
      255
102
RTVSPost2010PropOp44
 70
     1
102
RTVSPost2010Prop45
280
     0
102
RTVSPost2010PropOp45
 70
     1
102
RTVSPost2010Prop46
 90
       50
102
RTVSPost2010PropOp46
 70
     1
102
RTVSPost2010Prop47
 90
       50
102
RTVSPost2010PropOp47
 70
     1
102
RTVSPost2010Prop48
 90
       50
102
RTVSPost2010PropOp48
 70
     1
102
RTVSPost2010Prop49
280
     0
102
RTVSPost2010PropOp49
 70
     1
102
RTVSPost2010Prop50
 90
       50
102
RTVSPost2010PropOp50
 70
     1
102
RTVSPost2010Prop51ColorIndex
 90
      256
102
RTVSPost2010Prop51ColorRGB
 90
-16777216
102
RTVSPost2010PropOp51
 70
     0
102
RTVSPost2010Prop52
140
1.0
102
RTVSPost2010PropOp52
 70
     0
102
RTVSPost2010Prop53
 90
        2
102
RTVSPost2010PropOp53
 70
     1
102
RTVSPost2010Prop54
  1
strokes_ogs.tif
102
RTVSPost2010PropOp54
 70
     1
102
RTVSPost2010Prop55
280
     0
102
RTVSPost2010PropOp55
 70
     1
102
RTVSPost2010Prop56
140
1.0
102
RTVSPost2010PropOp56
 70
     1
102
RTVSPost2010Prop57
140
1.0
102
RTVSPost2010PropOp57
 70
     1
  0
XRECORD
  5
51D
102
{ACAD_REACTORS
330
51C
102
}
330
51C
100
AcDbXrecord
280
     1
102
RTVSPropertyOp0
 70
     1
102
RTVSPropertyOp1
 70
     1
102
RTVSPropertyOp2
 70
     1
102
RTVSPropertyOp3
 70
     1
102
RTVSPropertyOp4
 70
     1
102
RTVSPropertyOp5
 70
     1
102
RTVSPropertyOp6
 70
     1
102
RTVSPropertyOp7
 70
     1
102
RTVSPropertyOp8
 70
     1
102
RTVSPropertyOp9
 70
     1
102
RTVSPropertyOp10
 70
     1
102
RTVSPropertyOp11
 70
     1
102
RTVSPropertyOp12
 70
     1
102
RTVSPropertyOp13
 70
     1
102
RTVSPropertyOp14
 70
     1
102
RTVSPropertyOp15
 70
     1
102
RTVSPropertyOp16
 70
     1
102
RTVSPropertyOp17
 70
     1
102
RTVSPropertyOp18
 70
     1
102
RTVSPropertyOp19
 70
     1
102
RTVSPropertyOp20
 70
     1
102
RTVSPropertyOp21
 70
     1
102
RTVSPropertyOp22
 70
     1
102
RTVSPropertyOp23
 70
     1
102
RTVSPropertyOp24
 70
     1
102
RTVSPropertyOp25
 70
     1
102
RTVSPropertyOp26
 70
     1
102
RTVSPropertyOp27
 70
     1
102
RTVSPropertyOp28
 70
     1
102
RTVSPropertyOp29
 70
     1
102
RTVSPropertyOp30
 70
     1
102
RTVSPropertyOp31
 70
     1
102
RTVSPropertyOp32
 70
     1
102
RTVSPropertyOp33
 70
     1
102
RTVSPropertyOp34
 70
     1
102
RTVSPropertyOp35
 70
     1
102
RTVSPropertyOp36
 70
     1
102
RTVSPropertyOp37
 70
     1
102
RTVSPropertyOp38
 70
     1
102
RTVSPropertyOp39
 70
     1
102
RTVSPropertyOp40
 70
     1
102
RTVSPropertyOp41
 70
     1
102
RTVSPropertyOp42
 70
     1
102
RTVSPropertyOp43
 70
     1
102
RTVSPropertyOp44
 70
     1
102
RTVSPropertyOp45
 70
     1
102
RTVSPropertyOp46
 70
     1
102
RTVSPropertyOp47
 70
     1
102
RTVSPropertyOp48
 70
     1
102
RTVSPropertyOp49
 70
     1
102
RTVSPropertyOp50
 70
     1
102
RTVSPropertyOp51
 70
     0
102
RTVSPropertyOp52
 70
     0
102
RTVSPropertyOp53
 70
     1
102
RTVSPropertyOp54
 70
     1
102
RTVSPropertyOp55
 70
     1
102
RTVSPropertyOp56
 70
     1
102
RTVSPropertyOp57
 70
     1
102
RTVSPost2010Prop28
280
     0
102
RTVSPost2010PropOp28
 70
     1
102
RTVSPost2010Prop29
280
     1
102
RTVSPost2010PropOp29
 70
     1
102
RTVSPost2010Prop30
280
     1
102
RTVSPost2010PropOp30
 70
     1
102
RTVSPost2010Prop31
280
     0
102
RTVSPost2010PropOp31
 70
     1
102
RTVSPost2010Prop32
280
     0
102
RTVSPost2010PropOp32
 70
     1
102
RTVSPost2010Prop33
280
     0
102
RTVSPost2010PropOp33
 70
     1
102
RTVSPost2010Prop34
280
     0
102
RTVSPost2010PropOp34
 70
     1
102
RTVSPost2010Prop35
280
     0
102
RTVSPost2010PropOp35
 70
     1
102
RTVSPost2010Prop36
280
     0
102
RTVSPost2010PropOp36
 70
     1
102
RTVSPost2010Prop37
 90
       50
102
RTVSPost2010PropOp37
 70
     1
102
RTVSPost2010Prop38
140
0.0
102
RTVSPost2010PropOp38
 70
     1
102
RTVSPost2010Prop39
140
1.0
102
RTVSPost2010PropOp39
 70
     1
102
RTVSPost2010Prop40
 90
        0
102
RTVSPost2010PropOp40
 70
     1
102
RTVSPost2010Prop41ColorIndex
 90
       18
102
RTVSPost2010Prop41ColorRGB
 90
        0
102
RTVSPost2010PropOp41
 70
     1
102
RTVSPost2010Prop42
 90
       50
102
RTVSPost2010PropOp42
 70
     1
102
RTVSPost2010Prop43
 90
        3
102
RTVSPost2010PropOp43
 70
     1
102
RTVSPost2010Prop44ColorIndex
 90
        5
102
RTVSPost2010Prop44ColorRGB
 90
      255
102
RTVSPost2010PropOp44
 70
     1
102
RTVSPost2010Prop45
280
     0
102
RTVSPost2010PropOp45
 70
     1
102
RTVSPost2010Prop46
 90
       50
102
RTVSPost2010PropOp46
 70
     1
102
RTVSPost2010Prop47
 90
       50
102
RTVSPost2010PropOp47
 70
     1
102
RTVSPost2010Prop48
 90
       50
102
RTVSPost2010PropOp48
 70
     1
102
RTVSPost2010Prop49
280
     0
102
RTVSPost2010PropOp49
 70
     1
102
RTVSPost2010Prop50
 90
       50
102
RTVSPost2010PropOp50
 70
     1
102
RTVSPost2010Prop51ColorIndex
 90
      256
102
RTVSPost2010Prop51ColorRGB
 90
-16777216
102
RTVSPost2010PropOp51
 70
     0
102
RTVSPost2010Prop52
140
1.0
102
RTVSPost2010PropOp52
 70
     0
102
RTVSPost2010Prop53
 90
        2
102
RTVSPost2010PropOp53
 70
     1
102
RTVSPost2010Prop54
  1
strokes_ogs.tif
102
RTVSPost2010PropOp54
 70
     1
102
RTVSPost2010Prop55
280
     0
102
RTVSPost2010PropOp55
 70
     1
102
RTVSPost2010Prop56
140
1.0
102
RTVSPost2010PropOp56
 70
     1
102
RTVSPost2010Prop57
140
1.0
102
RTVSPost2010PropOp57
 70
     1
  0
XRECORD
  5
51F
102
{ACAD_REACTORS
330
51E
102
}
330
51E
100
AcDbXrecord
280
     1
102
RTVSPropertyOp0
 70
     1
102
RTVSPropertyOp1
 70
     1
102
RTVSPropertyOp2
 70
     1
102
RTVSPropertyOp3
 70
     1
102
RTVSPropertyOp4
 70
     1
102
RTVSPropertyOp5
 70
     1
102
RTVSPropertyOp6
 70
     1
102
RTVSPropertyOp7
 70
     1
102
RTVSPropertyOp8
 70
     1
102
RTVSPropertyOp9
 70
     1
102
RTVSPropertyOp10
 70
     1
102
RTVSPropertyOp11
 70
     1
102
RTVSPropertyOp12
 70
     1
102
RTVSPropertyOp13
 70
     1
102
RTVSPropertyOp14
 70
     1
102
RTVSPropertyOp15
 70
     1
102
RTVSPropertyOp16
 70
     1
102
RTVSPropertyOp17
 70
     1
102
RTVSPropertyOp18
 70
     1
102
RTVSPropertyOp19
 70
     1
102
RTVSPropertyOp20
 70
     1
102
RTVSPropertyOp21
 70
     1
102
RTVSPropertyOp22
 70
     1
102
RTVSPropertyOp23
 70
     1
102
RTVSPropertyOp24
 70
     1
102
RTVSPropertyOp25
 70
     1
102
RTVSPropertyOp26
 70
     1
102
RTVSPropertyOp27
 70
     1
102
RTVSPropertyOp28
 70
     1
102
RTVSPropertyOp29
 70
     1
102
RTVSPropertyOp30
 70
     1
102
RTVSPropertyOp31
 70
     1
102
RTVSPropertyOp32
 70
     1
102
RTVSPropertyOp33
 70
     1
102
RTVSPropertyOp34
 70
     1
102
RTVSPropertyOp35
 70
     1
102
RTVSPropertyOp36
 70
     1
102
RTVSPropertyOp37
 70
     1
102
RTVSPropertyOp38
 70
     1
102
RTVSPropertyOp39
 70
     1
102
RTVSPropertyOp40
 70
     1
102
RTVSPropertyOp41
 70
     1
102
RTVSPropertyOp42
 70
     1
102
RTVSPropertyOp43
 70
     1
102
RTVSPropertyOp44
 70
     1
102
RTVSPropertyOp45
 70
     1
102
RTVSPropertyOp46
 70
     1
102
RTVSPropertyOp47
 70
     1
102
RTVSPropertyOp48
 70
     1
102
RTVSPropertyOp49
 70
     1
102
RTVSPropertyOp50
 70
     1
102
RTVSPropertyOp51
 70
     0
102
RTVSPropertyOp52
 70
     0
102
RTVSPropertyOp53
 70
     1
102
RTVSPropertyOp54
 70
     1
102
RTVSPropertyOp55
 70
     1
102
RTVSPropertyOp56
 70
     1
102
RTVSPropertyOp57
 70
     1
102
RTVSPost2010Prop28
280
     0
102
RTVSPost2010PropOp28
 70
     1
102
RTVSPost2010Prop29
280
     1
102
RTVSPost2010PropOp29
 70
     1
102
RTVSPost2010Prop30
280
     1
102
RTVSPost2010PropOp30
 70
     1
102
RTVSPost2010Prop31
280
     0
102
RTVSPost2010PropOp31
 70
     1
102
RTVSPost2010Prop32
280
     0
102
RTVSPost2010PropOp32
 70
     1
102
RTVSPost2010Prop33
280
     0
102
RTVSPost2010PropOp33
 70
     1
102
RTVSPost2010Prop34
280
     0
102
RTVSPost2010PropOp34
 70
     1
102
RTVSPost2010Prop35
280
     0
102
RTVSPost2010PropOp35
 70
     1
102
RTVSPost2010Prop36
280
     0
102
RTVSPost2010PropOp36
 70
     1
102
RTVSPost2010Prop37
 90
       50
102
RTVSPost2010PropOp37
 70
     1
102
RTVSPost2010Prop38
140
0.0
102
RTVSPost2010PropOp38
 70
     1
102
RTVSPost2010Prop39
140
1.0
102
RTVSPost2010PropOp39
 70
     1
102
RTVSPost2010Prop40
 90
        0
102
RTVSPost2010PropOp40
 70
     1
102
RTVSPost2010Prop41ColorIndex
 90
       18
102
RTVSPost2010Prop41ColorRGB
 90
        0
102
RTVSPost2010PropOp41
 70
     1
102
RTVSPost2010Prop42
 90
       50
102
RTVSPost2010PropOp42
 70
     1
102
RTVSPost2010Prop43
 90
        3
102
RTVSPost2010PropOp43
 70
     1
102
RTVSPost2010Prop44ColorIndex
 90
        5
102
RTVSPost2010Prop44ColorRGB
 90
      255
102
RTVSPost2010PropOp44
 70
     1
102
RTVSPost2010Prop45
280
     0
102
RTVSPost2010PropOp45
 70
     1
102
RTVSPost2010Prop46
 90
       50
102
RTVSPost2010PropOp46
 70
     1
102
RTVSPost2010Prop47
 90
       50
102
RTVSPost2010PropOp47
 70
     1
102
RTVSPost2010Prop48
 90
       50
102
RTVSPost2010PropOp48
 70
     1
102
RTVSPost2010Prop49
280
     0
102
RTVSPost2010PropOp49
 70
     1
102
RTVSPost2010Prop50
 90
       50
102
RTVSPost2010PropOp50
 70
     1
102
RTVSPost2010Prop51ColorIndex
 90
      256
102
RTVSPost2010Prop51ColorRGB
 90
-16777216
102
RTVSPost2010PropOp51
 70
     0
102
RTVSPost2010Prop52
140
1.0
102
RTVSPost2010PropOp52
 70
     0
102
RTVSPost2010Prop53
 90
        2
102
RTVSPost2010PropOp53
 70
     1
102
RTVSPost2010Prop54
  1
strokes_ogs.tif
102
RTVSPost2010PropOp54
 70
     1
102
RTVSPost2010Prop55
280
     0
102
RTVSPost2010PropOp55
 70
     1
102
RTVSPost2010Prop56
140
1.0
102
RTVSPost2010PropOp56
 70
     1
102
RTVSPost2010Prop57
140
1.0
102
RTVSPost2010PropOp57
 70
     1
  0
XRECORD
  5
50F
102
{ACAD_REACTORS
330
50E
102
}
330
50E
100
AcDbXrecord
280
     1
102
RTVSPropertyOp0
 70
     1
102
RTVSPropertyOp1
 70
     1
102
RTVSPropertyOp2
 70
     1
102
RTVSPropertyOp3
 70
     1
102
RTVSPropertyOp4
 70
     1
102
RTVSPropertyOp5
 70
     1
102
RTVSPropertyOp6
 70
     1
102
RTVSPropertyOp7
 70
     1
102
RTVSPropertyOp8
 70
     1
102
RTVSPropertyOp9
 70
     1
102
RTVSPropertyOp10
 70
     1
102
RTVSPropertyOp11
 70
     1
102
RTVSPropertyOp12
 70
     1
102
RTVSPropertyOp13
 70
     1
102
RTVSPropertyOp14
 70
     1
102
RTVSPropertyOp15
 70
     1
102
RTVSPropertyOp16
 70
     1
102
RTVSPropertyOp17
 70
     1
102
RTVSPropertyOp18
 70
     1
102
RTVSPropertyOp19
 70
     1
102
RTVSPropertyOp20
 70
     1
102
RTVSPropertyOp21
 70
     1
102
RTVSPropertyOp22
 70
     1
102
RTVSPropertyOp23
 70
     1
102
RTVSPropertyOp24
 70
     1
102
RTVSPropertyOp25
 70
     1
102
RTVSPropertyOp26
 70
     1
102
RTVSPropertyOp27
 70
     1
102
RTVSPropertyOp28
 70
     1
102
RTVSPropertyOp29
 70
     1
102
RTVSPropertyOp30
 70
     1
102
RTVSPropertyOp31
 70
     1
102
RTVSPropertyOp32
 70
     1
102
RTVSPropertyOp33
 70
     1
102
RTVSPropertyOp34
 70
     1
102
RTVSPropertyOp35
 70
     1
102
RTVSPropertyOp36
 70
     1
102
RTVSPropertyOp37
 70
     1
102
RTVSPropertyOp38
 70
     1
102
RTVSPropertyOp39
 70
     1
102
RTVSPropertyOp40
 70
     1
102
RTVSPropertyOp41
 70
     1
102
RTVSPropertyOp42
 70
     1
102
RTVSPropertyOp43
 70
     1
102
RTVSPropertyOp44
 70
     1
102
RTVSPropertyOp45
 70
     1
102
RTVSPropertyOp46
 70
     1
102
RTVSPropertyOp47
 70
     1
102
RTVSPropertyOp48
 70
     1
102
RTVSPropertyOp49
 70
     1
102
RTVSPropertyOp50
 70
     1
102
RTVSPropertyOp51
 70
     0
102
RTVSPropertyOp52
 70
     0
102
RTVSPropertyOp53
 70
     1
102
RTVSPropertyOp54
 70
     1
102
RTVSPropertyOp55
 70
     1
102
RTVSPropertyOp56
 70
     1
102
RTVSPropertyOp57
 70
     1
102
RTVSPost2010Prop28
280
     0
102
RTVSPost2010PropOp28
 70
     1
102
RTVSPost2010Prop29
280
     1
102
RTVSPost2010PropOp29
 70
     1
102
RTVSPost2010Prop30
280
     1
102
RTVSPost2010PropOp30
 70
     1
102
RTVSPost2010Prop31
280
     0
102
RTVSPost2010PropOp31
 70
     1
102
RTVSPost2010Prop32
280
     0
102
RTVSPost2010PropOp32
 70
     1
102
RTVSPost2010Prop33
280
     0
102
RTVSPost2010PropOp33
 70
     1
102
RTVSPost2010Prop34
280
     0
102
RTVSPost2010PropOp34
 70
     1
102
RTVSPost2010Prop35
280
     0
102
RTVSPost2010PropOp35
 70
     1
102
RTVSPost2010Prop36
280
     0
102
RTVSPost2010PropOp36
 70
     1
102
RTVSPost2010Prop37
 90
       50
102
RTVSPost2010PropOp37
 70
     1
102
RTVSPost2010Prop38
140
0.0
102
RTVSPost2010PropOp38
 70
     1
102
RTVSPost2010Prop39
140
1.0
102
RTVSPost2010PropOp39
 70
     1
102
RTVSPost2010Prop40
 90
        0
102
RTVSPost2010PropOp40
 70
     1
102
RTVSPost2010Prop41ColorIndex
 90
       18
102
RTVSPost2010Prop41ColorRGB
 90
        0
102
RTVSPost2010PropOp41
 70
     1
102
RTVSPost2010Prop42
 90
       50
102
RTVSPost2010PropOp42
 70
     1
102
RTVSPost2010Prop43
 90
        3
102
RTVSPost2010PropOp43
 70
     1
102
RTVSPost2010Prop44ColorIndex
 90
        5
102
RTVSPost2010Prop44ColorRGB
 90
      255
102
RTVSPost2010PropOp44
 70
     1
102
RTVSPost2010Prop45
280
     0
102
RTVSPost2010PropOp45
 70
     1
102
RTVSPost2010Prop46
 90
       50
102
RTVSPost2010PropOp46
 70
     1
102
RTVSPost2010Prop47
 90
       50
102
RTVSPost2010PropOp47
 70
     1
102
RTVSPost2010Prop48
 90
       50
102
RTVSPost2010PropOp48
 70
     1
102
RTVSPost2010Prop49
280
     0
102
RTVSPost2010PropOp49
 70
     1
102
RTVSPost2010Prop50
 90
       50
102
RTVSPost2010PropOp50
 70
     1
102
RTVSPost2010Prop51ColorIndex
 90
      256
102
RTVSPost2010Prop51ColorRGB
 90
-16777216
102
RTVSPost2010PropOp51
 70
     0
102
RTVSPost2010Prop52
140
1.0
102
RTVSPost2010PropOp52
 70
     0
102
RTVSPost2010Prop53
 90
        2
102
RTVSPost2010PropOp53
 70
     1
102
RTVSPost2010Prop54
  1
strokes_ogs.tif
102
RTVSPost2010PropOp54
 70
     1
102
RTVSPost2010Prop55
280
     0
102
RTVSPost2010PropOp55
 70
     1
102
RTVSPost2010Prop56
140
1.0
102
RTVSPost2010PropOp56
 70
     1
102
RTVSPost2010Prop57
140
1.0
102
RTVSPost2010PropOp57
 70
     1
  0
XRECORD
  5
501
102
{ACAD_REACTORS
330
500
102
}
330
500
100
AcDbXrecord
280
     1
102
RTVSPropertyOp0
 70
     1
102
RTVSPropertyOp1
 70
     1
102
RTVSPropertyOp2
 70
     1
102
RTVSPropertyOp3
 70
     1
102
RTVSPropertyOp4
 70
     1
102
RTVSPropertyOp5
 70
     1
102
RTVSPropertyOp6
 70
     1
102
RTVSPropertyOp7
 70
     1
102
RTVSPropertyOp8
 70
     1
102
RTVSPropertyOp9
 70
     1
102
RTVSPropertyOp10
 70
     1
102
RTVSPropertyOp11
 70
     1
102
RTVSPropertyOp12
 70
     1
102
RTVSPropertyOp13
 70
     1
102
RTVSPropertyOp14
 70
     1
102
RTVSPropertyOp15
 70
     1
102
RTVSPropertyOp16
 70
     1
102
RTVSPropertyOp17
 70
     1
102
RTVSPropertyOp18
 70
     1
102
RTVSPropertyOp19
 70
     1
102
RTVSPropertyOp20
 70
     1
102
RTVSPropertyOp21
 70
     1
102
RTVSPropertyOp22
 70
     1
102
RTVSPropertyOp23
 70
     1
102
RTVSPropertyOp24
 70
     1
102
RTVSPropertyOp25
 70
     1
102
RTVSPropertyOp26
 70
     1
102
RTVSPropertyOp27
 70
     1
102
RTVSPropertyOp28
 70
     1
102
RTVSPropertyOp29
 70
     1
102
RTVSPropertyOp30
 70
     1
102
RTVSPropertyOp31
 70
     1
102
RTVSPropertyOp32
 70
     1
102
RTVSPropertyOp33
 70
     1
102
RTVSPropertyOp34
 70
     1
102
RTVSPropertyOp35
 70
     1
102
RTVSPropertyOp36
 70
     1
102
RTVSPropertyOp37
 70
     1
102
RTVSPropertyOp38
 70
     1
102
RTVSPropertyOp39
 70
     1
102
RTVSPropertyOp40
 70
     1
102
RTVSPropertyOp41
 70
     1
102
RTVSPropertyOp42
 70
     1
102
RTVSPropertyOp43
 70
     1
102
RTVSPropertyOp44
 70
     1
102
RTVSPropertyOp45
 70
     1
102
RTVSPropertyOp46
 70
     1
102
RTVSPropertyOp47
 70
     1
102
RTVSPropertyOp48
 70
     1
102
RTVSPropertyOp49
 70
     1
102
RTVSPropertyOp50
 70
     1
102
RTVSPropertyOp51
 70
     0
102
RTVSPropertyOp52
 70
     0
102
RTVSPropertyOp53
 70
     1
102
RTVSPropertyOp54
 70
     1
102
RTVSPropertyOp55
 70
     1
102
RTVSPropertyOp56
 70
     1
102
RTVSPropertyOp57
 70
     1
102
RTVSPost2010Prop28
280
     0
102
RTVSPost2010PropOp28
 70
     1
102
RTVSPost2010Prop29
280
     1
102
RTVSPost2010PropOp29
 70
     1
102
RTVSPost2010Prop30
280
     1
102
RTVSPost2010PropOp30
 70
     1
102
RTVSPost2010Prop31
280
     0
102
RTVSPost2010PropOp31
 70
     1
102
RTVSPost2010Prop32
280
     0
102
RTVSPost2010PropOp32
 70
     1
102
RTVSPost2010Prop33
280
     0
102
RTVSPost2010PropOp33
 70
     1
102
RTVSPost2010Prop34
280
     0
102
RTVSPost2010PropOp34
 70
     1
102
RTVSPost2010Prop35
280
     0
102
RTVSPost2010PropOp35
 70
     1
102
RTVSPost2010Prop36
280
     0
102
RTVSPost2010PropOp36
 70
     1
102
RTVSPost2010Prop37
 90
       50
102
RTVSPost2010PropOp37
 70
     1
102
RTVSPost2010Prop38
140
0.0
102
RTVSPost2010PropOp38
 70
     1
102
RTVSPost2010Prop39
140
1.0
102
RTVSPost2010PropOp39
 70
     1
102
RTVSPost2010Prop40
 90
        0
102
RTVSPost2010PropOp40
 70
     1
102
RTVSPost2010Prop41ColorIndex
 90
       18
102
RTVSPost2010Prop41ColorRGB
 90
        0
102
RTVSPost2010PropOp41
 70
     1
102
RTVSPost2010Prop42
 90
       50
102
RTVSPost2010PropOp42
 70
     1
102
RTVSPost2010Prop43
 90
        3
102
RTVSPost2010PropOp43
 70
     1
102
RTVSPost2010Prop44ColorIndex
 90
        5
102
RTVSPost2010Prop44ColorRGB
 90
      255
102
RTVSPost2010PropOp44
 70
     1
102
RTVSPost2010Prop45
280
     0
102
RTVSPost2010PropOp45
 70
     1
102
RTVSPost2010Prop46
 90
       50
102
RTVSPost2010PropOp46
 70
     1
102
RTVSPost2010Prop47
 90
       50
102
RTVSPost2010PropOp47
 70
     1
102
RTVSPost2010Prop48
 90
       50
102
RTVSPost2010PropOp48
 70
     1
102
RTVSPost2010Prop49
280
     0
102
RTVSPost2010PropOp49
 70
     1
102
RTVSPost2010Prop50
 90
       50
102
RTVSPost2010PropOp50
 70
     1
102
RTVSPost2010Prop51ColorIndex
 90
      256
102
RTVSPost2010Prop51ColorRGB
 90
-16777216
102
RTVSPost2010PropOp51
 70
     0
102
RTVSPost2010Prop52
140
1.0
102
RTVSPost2010PropOp52
 70
     0
102
RTVSPost2010Prop53
 90
        2
102
RTVSPost2010PropOp53
 70
     1
102
RTVSPost2010Prop54
  1
strokes_ogs.tif
102
RTVSPost2010PropOp54
 70
     1
102
RTVSPost2010Prop55
280
     0
102
RTVSPost2010PropOp55
 70
     1
102
RTVSPost2010Prop56
140
1.0
102
RTVSPost2010PropOp56
 70
     1
102
RTVSPost2010Prop57
140
1.0
102
RTVSPost2010PropOp57
 70
     1
  0
XRECORD
  5
521
102
{ACAD_REACTORS
330
520
102
}
330
520
100
AcDbXrecord
280
     1
102
RTVSPropertyOp0
 70
     1
102
RTVSPropertyOp1
 70
     1
102
RTVSPropertyOp2
 70
     1
102
RTVSPropertyOp3
 70
     1
102
RTVSPropertyOp4
 70
     1
102
RTVSPropertyOp5
 70
     1
102
RTVSPropertyOp6
 70
     1
102
RTVSPropertyOp7
 70
     1
102
RTVSPropertyOp8
 70
     1
102
RTVSPropertyOp9
 70
     1
102
RTVSPropertyOp10
 70
     1
102
RTVSPropertyOp11
 70
     1
102
RTVSPropertyOp12
 70
     1
102
RTVSPropertyOp13
 70
     1
102
RTVSPropertyOp14
 70
     1
102
RTVSPropertyOp15
 70
     1
102
RTVSPropertyOp16
 70
     1
102
RTVSPropertyOp17
 70
     1
102
RTVSPropertyOp18
 70
     1
102
RTVSPropertyOp19
 70
     1
102
RTVSPropertyOp20
 70
     1
102
RTVSPropertyOp21
 70
     1
102
RTVSPropertyOp22
 70
     1
102
RTVSPropertyOp23
 70
     1
102
RTVSPropertyOp24
 70
     1
102
RTVSPropertyOp25
 70
     1
102
RTVSPropertyOp26
 70
     1
102
RTVSPropertyOp27
 70
     1
102
RTVSPropertyOp28
 70
     1
102
RTVSPropertyOp29
 70
     1
102
RTVSPropertyOp30
 70
     1
102
RTVSPropertyOp31
 70
     1
102
RTVSPropertyOp32
 70
     1
102
RTVSPropertyOp33
 70
     1
102
RTVSPropertyOp34
 70
     1
102
RTVSPropertyOp35
 70
     1
102
RTVSPropertyOp36
 70
     1
102
RTVSPropertyOp37
 70
     1
102
RTVSPropertyOp38
 70
     1
102
RTVSPropertyOp39
 70
     1
102
RTVSPropertyOp40
 70
     1
102
RTVSPropertyOp41
 70
     1
102
RTVSPropertyOp42
 70
     1
102
RTVSPropertyOp43
 70
     1
102
RTVSPropertyOp44
 70
     1
102
RTVSPropertyOp45
 70
     1
102
RTVSPropertyOp46
 70
     1
102
RTVSPropertyOp47
 70
     1
102
RTVSPropertyOp48
 70
     1
102
RTVSPropertyOp49
 70
     1
102
RTVSPropertyOp50
 70
     1
102
RTVSPropertyOp51
 70
     0
102
RTVSPropertyOp52
 70
     0
102
RTVSPropertyOp53
 70
     1
102
RTVSPropertyOp54
 70
     1
102
RTVSPropertyOp55
 70
     1
102
RTVSPropertyOp56
 70
     1
102
RTVSPropertyOp57
 70
     1
102
RTVSPost2010Prop28
280
     0
102
RTVSPost2010PropOp28
 70
     1
102
RTVSPost2010Prop29
280
     1
102
RTVSPost2010PropOp29
 70
     1
102
RTVSPost2010Prop30
280
     1
102
RTVSPost2010PropOp30
 70
     1
102
RTVSPost2010Prop31
280
     0
102
RTVSPost2010PropOp31
 70
     1
102
RTVSPost2010Prop32
280
     0
102
RTVSPost2010PropOp32
 70
     1
102
RTVSPost2010Prop33
280
     0
102
RTVSPost2010PropOp33
 70
     1
102
RTVSPost2010Prop34
280
     0
102
RTVSPost2010PropOp34
 70
     1
102
RTVSPost2010Prop35
280
     0
102
RTVSPost2010PropOp35
 70
     1
102
RTVSPost2010Prop36
280
     0
102
RTVSPost2010PropOp36
 70
     1
102
RTVSPost2010Prop37
 90
       50
102
RTVSPost2010PropOp37
 70
     1
102
RTVSPost2010Prop38
140
0.0
102
RTVSPost2010PropOp38
 70
     1
102
RTVSPost2010Prop39
140
1.0
102
RTVSPost2010PropOp39
 70
     1
102
RTVSPost2010Prop40
 90
        0
102
RTVSPost2010PropOp40
 70
     1
102
RTVSPost2010Prop41ColorIndex
 90
       18
102
RTVSPost2010Prop41ColorRGB
 90
        0
102
RTVSPost2010PropOp41
 70
     1
102
RTVSPost2010Prop42
 90
       50
102
RTVSPost2010PropOp42
 70
     1
102
RTVSPost2010Prop43
 90
        3
102
RTVSPost2010PropOp43
 70
     1
102
RTVSPost2010Prop44ColorIndex
 90
        5
102
RTVSPost2010Prop44ColorRGB
 90
      255
102
RTVSPost2010PropOp44
 70
     1
102
RTVSPost2010Prop45
280
     0
102
RTVSPost2010PropOp45
 70
     1
102
RTVSPost2010Prop46
 90
       50
102
RTVSPost2010PropOp46
 70
     1
102
RTVSPost2010Prop47
 90
       50
102
RTVSPost2010PropOp47
 70
     1
102
RTVSPost2010Prop48
 90
       50
102
RTVSPost2010PropOp48
 70
     1
102
RTVSPost2010Prop49
280
     0
102
RTVSPost2010PropOp49
 70
     1
102
RTVSPost2010Prop50
 90
       50
102
RTVSPost2010PropOp50
 70
     1
102
RTVSPost2010Prop51ColorIndex
 90
      256
102
RTVSPost2010Prop51ColorRGB
 90
-16777216
102
RTVSPost2010PropOp51
 70
     0
102
RTVSPost2010Prop52
140
1.0
102
RTVSPost2010PropOp52
 70
     0
102
RTVSPost2010Prop53
 90
        2
102
RTVSPost2010PropOp53
 70
     1
102
RTVSPost2010Prop54
  1
strokes_ogs.tif
102
RTVSPost2010PropOp54
 70
     1
102
RTVSPost2010Prop55
280
     0
102
RTVSPost2010PropOp55
 70
     1
102
RTVSPost2010Prop56
140
1.0
102
RTVSPost2010PropOp56
 70
     1
102
RTVSPost2010Prop57
140
1.0
102
RTVSPost2010PropOp57
 70
     1
  0
ENDSEC
  0
SECTION
  2
THUMBNAILIMAGE
 90
    16364
310
28000000B4000000550000000100080000000000C43B000000000000000000000001000000010000FFFFFF000000FF0000FFFF0000FF0000FFFF0000FF000000FF00FF000000000080808000C0C0C0000000FF007F7FFF000000A5005252A50000007F003F3F7F0000004C0026264C000000260013132600003FFF007F9FFF
310
000029A5005267A500001F7F003F4F7F0000134C00262F4C000009260013172600007FFF007FBFFF000052A500527CA500003F7F003F5F7F0000264C0026394C0000132600131C260000BFFF007FDFFF00007CA5005291A500005F7F003F6F7F0000394C0026424C00001C26001321260000FFFF007FFFFF0000A5A50052A5
310
A500007F7F003F7F7F00004C4C00264C4C00002626001326260000FFBF007FFFDF0000A57C0052A59100007F5F003F7F6F00004C3900264C420000261C001326210000FF7F007FFFBF0000A5520052A57C00007F3F003F7F5F00004C2600264C39000026130013261C0000FF3F007FFF9F0000A5290052A56700007F1F003F
310
7F4F00004C1300264C2F00002609001326170000FF00007FFF7F0000A5000052A55200007F00003F7F3F00004C0000264C260000260000132613003FFF00009FFF7F0029A5000067A552001F7F00004F7F3F00134C00002F4C260009260000172613007FFF0000BFFF7F0052A500007CA552003F7F00005F7F3F00264C0000
310
394C2600132600001C261300BFFF0000DFFF7F007CA5000091A552005F7F00006F7F3F00394C0000424C26001C26000021261300FFFF0000FFFF7F00A5A50000A5A552007F7F00007F7F3F004C4C00004C4C26002626000026261300FFBF0000FFDF7F00A57C0000A59152007F5F00007F6F3F004C3900004C422600261C00
310
0026211300FF7F0000FFBF7F00A5520000A57C52007F3F00007F5F3F004C2600004C39260026130000261C1300FF3F0000FF9F7F00A5290000A56752007F1F00007F4F3F004C1300004C2F26002609000026171300FF000000FF7F7F00A5000000A55252007F0000007F3F3F004C0000004C2626002600000026131300FF00
310
3F00FF7F9F00A5002900A55267007F001F007F3F4F004C0013004C262F002600090026131700FF007F00FF7FBF00A5005200A5527C007F003F007F3F5F004C0026004C2639002600130026131C00FF00BF00FF7FDF00A5007C00A55291007F005F007F3F6F004C0039004C26420026001C0026132100FF00FF00FF7FFF00A5
310
00A500A552A5007F007F007F3F7F004C004C004C264C002600260026132600BF00FF00DF7FFF007C00A5009152A5005F007F006F3F7F0039004C0042264C001C002600211326007F00FF00BF7FFF005200A5007C52A5003F007F005F3F7F0026004C0039264C00130026001C1326003F00FF009F7FFF002900A5006752A500
310
1F007F004F3F7F0013004C002F264C000900260017132600000000002D2D2D005B5B5B0089898900B7B7B700B3B3B30000000000000000000000000000000000000000000000000000000000000000000000000000000000000000000000000000000000000000000000000000000000000000000000000000000000000000
310
00000000000000000000000000000000000000000000000000000000000000000000000000000000000000000000000000000000000000000000000000000000000000000000000000000000000000000000000000000000000000000000000000000000000000000000000000000000000000000000000000000000000000
310
00000000000000000000000000000000000000000000000000000000000000000000000000000000000000000000000000000000000000000000000000000000000000000000000000000000000000000000000000000000000000000000000000000000000000000000000000000000000000000000000000000000000000
310
00000000000000000000000000000000000000000000000000000000000000000000000000000000000000000000000000000000000000000000000000000000000000000000000000000000000000000000000000000000000000000000000000000000000000000000000000000000000000000000000000000000000000
310
00000000000000000000000000000000000000000000000000000000000000000000000000000000000000000000000000000000000000000000000000000000000000000000000000000000000000000000000000000000000000000000000000000000000000000000000000000000000000000000000000000000000000
310
00000000000000000000000000000000000000000000000000000000000000000000000000000000000000000000000000000000000000000000000000000000000000000000000000000000000000000000000000000000000000000000000000000000000000000000000000000000000000000000000000000000000000
310
00000000000000000000000000000000000000000000000000000000000000000000000000000000000000000000000000000000000000000000000000000000000000000000000000000000000000000000000000000000000000000000000000000000000000000000000000000000000000000000000000000000000000
310
00000000000000000000000000000000000000000000000000000000000000000000000000000000000000000000000000000000000000000000000000000000000000000000000000000000000000000000000000000000000000000000000000000000000000000000000000000000000000000000000000000000000000
310
00000000000000000000000000000000000000000000000000000000000000000000000000000000000000000000000000000000000000000000000000000000000000000000000000000000000000000000000000000000000000000000000000000000000000000000000000000000000000000000000000000000000000
310
00000000000000000000000000000000000000000000000000000000000000000000000000000000000000000000000000000000000000000000000000000000000000000000000000000000000000000000000000000000000000000000000000000000000000000000000000000000000000000000000000000000000000
310
00000000000000000000000000000000000000000000000000000000000000000000000000000000000000000000000000000000000000000000000000000000000000000000000000000000000000000000000000000000000000000000000000000000000000000000000000000000000000000000000000000000000000
310
00000000000000000000000000000000000000000000000000000000000000000000000000000000000000000000000000000000000000000000000000000000000000000000000000000000000000000000000000000000000000000000000000000000000000000000000000000000000000000000000000000000000000
310
00000000000000000000000000000000000000000000000000000000000000000000000000000000000000000000000000000000000000000000000000000000000000000000000000000000000000000000000000000000000000000000000000000000000000000000000000000000000000000000000000000000000000
310
00000000000000000000000000000000000000000000000000000000000000000000000000000000000000000000000000000000000000000000000000000000000000000000000000000000000000000000000000000000000000000000000000000000000000000000000000000000000000000000000000000000000000
310
00000000000000000000000000000000000000000000000000000000000000000000000000000000000000000000000000000000000000000000000000000000000000000000000000000000000000000000000000000000000000000000000000000000000000000000000000000000000000000000000000000000000000
310
00000000000000000000000000000000000000000000000000000000000000000000000000000000000000000000000000000000000000000000000000000000000000000000000000000000000000000000000000000000000000000000000000000000000000000000000000000000000000000000000000000000000000
310
00000000000000000000000000000000000000000000000000000000000000000000000000000000000000000000000000000000000000000000000000000000000000000000000000000000000000000000000000000000000000000000000000000000000000000000000000000000000000000000000000000000000000
310
00000000000000000000000000000000000000000000000000000000000000000000000000000000000000000000000000000000000000000000000000000000000000000000000000000000000000000000000000000001000000000000000000000000000000000000000100000000000000000000000000000000000001
310
00000000000000000000000000000000000000000001000000000000000000000000000000000000000000000000000000000000000000000000000000000000000000000000000000000000000000000000000000000000000000000000000000000000000000000000000000000000000000000000000000000000000000
310
00000000000000000000030303030303030300000000000000000000000303030303030300000000000002020202020200000303030303030303000000000000000000000303030303030303030000000000000000000000000000000000000000000000000000000000000000000000000000000000000000000000000000
310
00000000000000000000000000000000000000000000000000000000000000000000000000000000000000000000000000000000000000000000000000000003000001000000030000000000000000000000030303030103030000000000000000000000000000030001000000000300000000000000000000030000000000
310
01000300000000000000000000000000000000000000000000000000000000000000000000000000000000000000000000000000000000000000000000000000000000000000000000000000000000000000000000000000000000000000000000000000000000000000000000000000000000000303030303030303030303
310
03030103030303010303030303030300000000000000000000000000000303030303030303030303010301030303000303030303030303030000000000000000000000000000000000000000000000000000000000000000000000000000000000000000000000000000000000000000000000000000000000000000000000
310
00000000000000000000000000000000000000000000000000000000000000000000000000000000000303030001000000030303030303010303030301030000000100030303000000000000000000000000030301000000000303030301030103030303030103030300010303000000000000000000000000000000000000
310
00000000000000000000000000000000000000000000000000000000000000000000000000000000000000000000000000000000000000000000000000000000000000000000000000000000000000000000000000000000000000000000030300000000000000000001000001000000000100000000000000030300000000
310
00000000000000000300000000000000000000010101000003000301030003000001010100000000000000000000000000000000000000000000000000000000000000000000000000000000000000000000000000000000000000000000000000000000000000000000000000000000000000000000000000000000000000
310
00000000000000000000000000000000030303030303000000000000000000010000010000000001000000000000000303030303030000000000000000030000000000000000000001010100000303030100030300000003000000000000000000000000000000000000000000000000000000000000000000000000000000
310
00000000000000000000000000000000000000000000000000000000000000000000000000000000000000000000000000000000000000000000000000000000000000000103010101030301010101010101010101010101010101010101010101010101030301010103000000000000000003000000000000000000000101
310
01000103030101010103010000030000000000000000000000000000000000000000000000000000000000000000000000000000000000000000000000000000000000000000000000000000000000000000000000000000000000000000000000000000000000000000000000000000000000000000000000000303030303
310
03000000000000000000010000010000000001000000000000000303030303030000000000000000030000000000000000000001010100000303030303000300000003000000000000000000000000000000000000000000000000000000000000000000000000000000000000000000000000000000000000000000000000
310
00000000000000000000000000000000000000000000000000000000000000000000000000000000000000000000000003030303030300000000000000000001000001000000000100000000000000030303030303000000000000000003000000000000000000000101010000030303030003030000000303000000000000
310
00000000000000000000000000000000000000000000000000000000000000000000000000000000000000000000000000000000000000000000000000000000000000000000000000000000000000000000000000000000000000000000000000000000000000000003030000000000000000000100000100000000010000
310
00000000000303000000000000000000000000030000000000000000000001010103030303030103000300000103030000000000000000000000000000000000000000000000000000000000000000000000000000000000000000000000000000000000000000000000000000000000000000000000000000000000000000
310
00000000000000000000000000000000000000000000000000000000000000030300000000000000000001000001000000000100000000000000030300000000000000000000000003000000000000000000000101010000000003010303000000000303000000000000000000000000000000000000000000000000000000
310
00000000000000000000000000000000000000000000000000000000000000000000000000000000000000000000000000000000000000000000000000000000000000000000000000000000000000000000000000030001000000000100000100000100000000010000000000010003000000000000000000000000000300
310
00010000000000000001010100000000000000000001000003030000000000000000000000000000000000000000000000000000000000000000000000000000000000000000000000000000000000000000000000000000000000000000000000000000000000000000000000000000000000000000000000000000000000
310
00000000000000000000000303010303030301030303030301030303030103030303030103030000000000000000000000000003030301030301030303030103010303030303030303030103030300000000000000000000000000000000000000000000000000000000000000000000000000000000000000000000000000
310
00000000000000000000000000000000000000000000000000000000000000000000000000000000000000000000000000000000000000000000000000000000000303030303030303030303030303030303010303030303030300000000000000000000000000000003030303030103030303010303030303030303030303
310
01030300000000000000000000000000000000000000000000000000000000000000000000000000000000000000000000000000000000000000000000000000000000000000000000000000000000000000000000000000000000000000000000000000000000000000000000000000000000000000000100000003010303
310
03030303030303030103030300000100000000000000000000000000000000000001000303030303030103010303030000000000000100000000000000000000000000000000000000000000000000000000000000000000000000000000000000000000000000000000000000000000000000000000000000000000000000
310
00000000000000000000000000000000000000000000000000000000000000000000000000000000000000000000000000000003030303000000000000000000000000000000000000000000000000000000000000000000000000000003030303030000000000000000000000000000000000000000000000000000000000
310
00000000000000000000000000000000000000000000000000000000000000000000000000000000000000000000000000000000000000000000000000000000000000000000000000000000000000000000000000000000000000000000000000000000000000000303030300000000000000000000000000000000000000
310
00000000000000000000000000000000000000030301000300000000000000000000000000000000000000000000000000000000000000000000000000000000000000000000000000000000000000000000000000000000000000000000000000000000000000000000000000000000000000000000000000000000000000
310
00000000000000000000000000000000000000000000000000000000000003030303000000000000000000000000000000000000000000000000000000000000000000000000000003030100030000000000000000000000000000000000000000000000000000000000000000000000000000000000000000000000000000
310
00000000000000000000000000000000000000000000000000000000000000000000000000000000000000000000000000000000000000000000000000000000000000000000000000000000000000000000000303030300000000000000000000000000000000000000000000000000000000000000000000000000000303
310
01000300000000000000000000000000000000000000000000000000000000000000000000000000000000000000000000000000000000000000000000000000000000000000000000000000000000000000000000000000000000000000000000000000000000000000000000000000000000000000000000000000000000
310
00000000000000000003030303000000000000000000000000000000000000000000000000000000000000000000000000000003030100030000000000000000000000000000000000000000000000000000000000000000000000000000000000000000000000000000000000000000000000000000000000000000000000
310
00000000000000000000000000000000000000000000000000000000000000000000000000000000000000000000000000000000000000000000000000000303030300000000000000000000000000000000000000000000000000000000000000000000000000000303010003000000000000000000000000000000000000
310
00000000000000000000000000000000000000000000000000000000000000000000000000000000000000000000000000000000000000000000000000000000000000000000000000000000000000000000000000000000000000000000000000000000000000000000000000000000000000030303030000000000000000
310
00000000000000000000000000000000000000000000000000000000000003030100030000000000000000000000000000000000000000000000000000000000000000000000000000000000000000000000000000000000000000000000000000000000000000000000000000000000000000000000000000000000000000
310
00000000000000000000000000000000000000000000000000000000000000000000000000000000000303030300000000000000000000000000000000000000000000000000000000000000000000000000000303030303000000000000000000000000000000000000000000000000000000000000000000000000000000
310
00000000000000000000000000000000000000000000000000000000000000000000000000000000000000000000000000000000000000000000000000000000000000000000000000000000000000000000000000000000000000000000000000000000000000000000000000000000000000000000000000000000000000
310
00000000000000000000000000000000000000000000000000000000000000000000000000000000000000000000000000000000000000000000000000000000000000000000000000000000000000000000000000000000000000000000000000000000000000000000000000000000000000000000000000000000000000
310
00000000000000000000000000000000000000000000000000000000000000000000000000000000000000000000000000000000000000000000000000000000000000000000000000000000000000000000000000000000000000000000000000000000000000000000000000000000000000000000000000000000000000
310
00000000000000000000000000000000000000000000000000000000000000000000000000000000000000000000000000000000000000000000000000000000000000000000000000000000000000000000000000000000000000000000000000000000000000000000000000000000000000000000000000000000000000
310
00000000000000000000000000000000000000000000000000000000000000000000000000000000000000000000000000000000000000000000000000000000000000000000000000000000000000000000000000000000000000000000000000000000000000000000000000000000000000000000000000000000000000
310
00000000000000000000000000000000000000000000000000000000000000000000000000000000000000000000000000000000000000000000000000000000000000000000000000000000000000000000000000000000000000000000000000000000000000000000000000000000000000000000000000000000000000
310
00000000000000000000000000000000000000000000000000000000000000000000000000000000000000000000000000000000000000000000000000000000000000000000000000000000000000000000000000000000000000000000000000000000000000000000000000000000000000000000000000000000000000
310
00000000000000000000000000000000000000000000000000000000000000000000000000000000000000000000000000000000000000000000000000000000000000000000000000000000000000000000000000000000000000000000000000000000000000000000000000000000000000000000000000000000000000
310
00000000000000000000000000000000000000000000000000000000000000000000000000000000000000000000000000000000000000000000000000000000000000000000000000000000000000000000000000000000000000000000000000000000000000000000000000000000000000000000000000000000000000
310
00000000000000000000000000000000000000000000000000000000000000000000000000000000000000000000000000000000000000000000000000000000000000000000000000000000000000000000000000000000000000000000000000000000000000000000000000000000000000000000000000000000000000
310
00000000000000000000000000000000000000000000000000000000000000000000000000000000000000000000000000000000000000000000000000000000000000000000000000000000000000000000000000000000000000000000000000000000000000000000000000000000000000000000000000000000000000
310
00000000000000000000000000000000000000000000000000000000000000000000000000000000000000000000000000000000000000000000000000000000000000000000000000000000000000000000000000000000000000000000000000000000000000000000000000000000000000000000000000000000000000
310
00000000000000000000000000000000000000000000000000000000000000000000000000000000000000000000000000000000000000000000000000000000000000000000000000000000000000000000000000000000000000000000000000000000000000000000000000000000000000000000000000000000000000
310
00000000000000000000000000000000000000000000000000000000000000000000000000000000000000000000000000000000000000000000000000000000000000000000000000000000000000000000000000000000000000000000000000000000000000000000000000000000000000000000000000000000000000
310
00000000000000000000000000000000000000000000000000000000000000000000000000000000000000000000000000000000000000000000000000000000000000000000000000000000000000000000000000000000000000000000000000000000000000000000000000000000000000000000000000000000000000
310
00000000000000000000000000000000000000000000000000000000000000000000000000000000000000000000000000000000000000000000000000000000000000000000000000000000000000000000000000000000000000000000000000000000000000000000000000000000000000000000000000000000000000
310
00000000000000000000000000000000000000000000000000000000000000000000000000000000000000000000000100000000000000000000000000000000000000000000000000000000000000000000000000000000000000000000000000000000000000000000000000000000000000000000000000000000000000
310
00000000000000000000000000000000000000000000000000000000000000000000000000000000000000000000000000000000000000000000000000000000000000000000000000000000000000000000000000000000030303030303000000000303030303000000000303030303030000000000000000000000000000
310
00000000000000000000000000000000000000000000000000000000000000000000000000000000000000000000000000000000000000000000000000000000000000000000000000000000000000000000000000000000000000000000000000000000000000000000000000000000000000000000000000000000000000
310
00000000000000000000000000030303010000030303030300000100000303030003000303000300000000000000000000000000000000000000000000000000000000000000000000000000000000000000000000000000000000000000000000000000000000000000000000000000000000000000000000000000000000
310
00000000000000000000000000000000000000000000000000000000000000000000000000000000000000000000000000000000000000000000000000000000000003010101010003030003030101010101030300030301010101030000000000000000000000000000000000000000000000000000000000000000000000
310
00000000000000000000000000000000000000000000000000000000000000000000000000000000000000000000000000000000000000000000000000000000000000000000000000000000000000000000000000000000000000000000000000000000000000000000000000000000000000000000000300000100030004
310
03010103030303010101040400030003000300000000000000000000000000000000000000000000000000000000000000000000000000000000000000000000000000000000000000000000000000000000000000000000000000000000000000000000000000000000000000000000000000000000000000000000000000
310
00000000000000000000000000000000000000000000000000000000000000000000000000000000000000000003000000030001040303000000010000000304040100030000030000000000000000000000000000000000000000000000000000000000000000000000000000000000000000000000000000000000000000
310
00000000000000000000000000000000000000000000000000000000000000000000000000000000000000000000000000000000000000000000000000000000000000000000000000000000000000000000000000000000000000000000000000000300000300010103010000000303030000000103010100030003000000
310
00000000000000000000000000000000000000000000000000000000000000000000000000000000000000000000000000000000000000000000000000000000000000000000000000000000000000000000000000000000000000000000000000000000000000000000000000000000000000000000000000000000000000
310
00000000000000000000000000000000000000000000000003000300010103000000000103010301000000000301010003030000000000000000000000000000000000000000000000000000000000000000000000000000000000000000000000000000000000000000000000000000000000000000000000000000000000
310
00000000000000000000000000000000000000000000000000000000000000000000000000000000000000000000000000000000000000000000000000000000000000000000000000000000000300030301030000000303030303030303030000000301030303000000000000000000000000000000000000000000000000
310
00000000000000000000000000000000000000000000000000000000000000000000000000000000000000000000000000000000000000000000000000000000000000000000000000000000000000000000000000000000000000000000000000000000000000000000000000000000000000000000000000000000000000
310
00000003030301030303030300010003030000000003030303030103030000000000000000000000000000000000000000000000000000000000000000000000000000000000000000000000000000000000000000000000000000000000000000000000000000000000000000000000000000000000000000000000000000
310
00000000000000000000000000000000000000000000000000000000000000000000000000000000000000000000000000000000000000000300010103000000030303030301000003030303030003010303000000000000000000000000000000000000000000000000000000000000000000000000000000000000000000
310
00000000000000000000000000000000000000000000000000000000000000000000000000000000000000000000000000000000000000000000000000000000000000000000000000000000000000000000000000000000000000000000000000000000000000000000000000030001030000030303000103030300030303
310
01030303000101030000000000000000000000000000000000000000000000000000000000000000000000000000000000000000000000000000000000000000000000000000000000000000000000000000000000000000000000000000000000000000000000000000000000000000000000000000000000000000000000
310
00000000000000000000000000000000000000000000000000000000000000000000000303010300000303000303030303000303000100030300030100030000000000000000000000000000000000000000000000000000000000000000000000000000000000000000000000000000000000000000000000000000000000
310
00000000000000000000000000000000000000000000000000000000000000000000000000000000000000000000000000000000000000000000000000000000000000000000000000000000000000000000000000000000030301030000030303030103000301030301010101030103010303000000000000000000000000
310
00000000000000000000000000000000000000000000000000000000000000000000000000000000000000000000000000000000000000000000000000000000000000000000000000000000000000000000000000000000000000000000000000000000000000000000000000000000000000000000000000000000000000
310
00000000000000000000000000010104040101010101030101030101010101010101010101010403010100000000000000000000000000000000000000000000000000000000000000000000000000000000000000000000000000000000000000000000000000000000000000000000000000000000000000000000000000
310
00000000000000000000000000000000000000000000000000000000000000000000000000000000000000000000000000000000000000000000000000000000000000030304030000030300030303000300000303030303030003040303000000000000000000000000000000000000000000000000000000000000000000
310
00000000000000000000000000000000000000000000000000000000000000000000000000000000000000000000000000000000000000000000000000000000000000000000000000000000000000000000000000000000000000000000000000000000000000000000000000000000000000000000000003030103000003
310
03030001030303000000030303030000030103030000000000000000000000000000000000000000000000000000000000000000000000000000000000000000000000000000000000000000000000000000000000000000000000000000000000000000000000000000000000000000000000000000000000000000000000
310
00000000000000000000000000000000000000000000000000000000000000000000000000000000000000000003030301030300000003030303030100000000010000000303010003030000000000000000000000000000000000000000000000000000000000000000000000000000000000000000000000000000000000
310
00000000000000000000000000000000000000000000000000000000000000000000000000000000000000000000000000000000000000000000000000000000000000000000000000000000000000000000000000000000000000000000000000000303000103000303030300010003030000000303030303000101030003
310
00000000000000000000000000000000000000000000000000000000000000000000000000000000000000000000000000000000000000000000000000000000000000000000000000000000000000000000000000000000000000000000000000000000000000000000000000000000000000000000000000000000000000
310
00000000000000000000000000000000000000000000000003030003010300000000030303030103030300000000000301030300030000000000000000000000000000000000000000000000000000000000000000000000000000000000000000000000000000000000000000000000000000000000000000000000000000
310
00000000000000000000000000000000000000000000000000000000000000000000000000000000000000000000000000000000000000000000000000000000000000000000000000030303030300030301030000000000000303010300000000000003000103030003030303030000000000000000000000000000000000
310
00000000000000000000000000000000000000000000000000000000000000000000000000000000000000000000000000000000000000000000000000000000000000000000000000000000000000000000000000000000000000000000000000000000000000000000000000000000000000000000000000000000000103
310
03030303010101010103010101010101030303010101010101030101010101030303030300000000000000000000000000000000000000000000000000000000000000000000000000000000000000000000000000000000000000000000000000000000000000000000000000000000000000000000000000000000000000
310
00000000000000000000000000000000000000000000000000000000000000000000000000000000000000000000000000000000030303030300000300010103000000000000010000000000000301030003000003030303030000000000000000000000000000000000000000000000000000000000000000000000000000
310
00000000000000000000000000000000000000000000000000000000000000000000000000000000000000000000000000000000000000000000000000000000000000000000000000000000000000000000000000000000000000000000000000000000000000000000000000030000000300010103010000000001000000
310
00010301010003000000030000000000000000000000000000000000000000000000000000000000000000000000000000000000000000000000000000000000000000000000000000000000000000000000000000000000000000000000000000000000000000000000000000000000000000000000000000000000000000
310
00000000000000000000000000000000000000000000000000000000000000000000000303030303030001040403000000010000030304040300030303030303000000000000000000000000000000000000000000000000000000000000000000000000000000000000000000000000000000000000000000000000000000
310
00000000000000000000000000000000000000000000000000000000000000000000000000000000000000000000000000000000000000000000000000000000000000000000000000000000000000000000000000000000000300030100030001030101010303030101010303030303030003000000000000000000000000
310
00000000000000000000000000000000000000000000000000000000000000000000000000000000000000000000000000000000000000000000000000000000000000000000000000000000000000000000000000000000000000000000000000000000000000000000000000000000000000000000000000000000000000
310
00000000000000000000000000000003010101010003030303030301010103030303030000010101030000000000000000000000000000000000000000000000000000000000000000000000000000000000000000000000000000000000000000000000000000000000000000000000000000000000000000000000000000
310
00000000000000000000000000000000000000000000000000000000000000000000000000000000000000000000000000000000000000000000000000000000000000000303030303030300000303030301030303030000030303030303000000000000000000000000000000000000000000000000000000000000000000
310
00000000000000000000000000000000000000000000000000000000000000000000000000000000000000000000000000000000000000000000000000000000000000000000000000000000000000000000000000000000000000000000000000000000000000000000000000000000000000000000000000000000000000
310
00000000000003030300000000000000000000000000000000000000000000000000000000000000000000000000000000000000000000000000000000000000000000000000000000000000000000000000000000000000000000000000000000000000000000000000000000000000000000000000000000000000000000
310
00000000000000000000000000000000000000000000000000000000000000000000000000000000000000000000000000000000000000000000000303030000000000000000000000000000000000000000000000000000000000000000000000000000000000000000000000000000000000000000000000000000000000
310
00000000000000000000000000000000000000000000000000000000000000000000000000000000000000000000000000000000000000000000000000000000000000000000000000000000000000000000000000000000000000000000000000000000000000000000000000000000000000000000000000000000000000
310
00000000000000000000000000000000000000000000000000000000000000000000000000000000000000000000000000000000000000000000000000000000000000000000000000000000000000000000000000000000000000000000000000000000000000000000000000000000000000000000000000000000000000
310
00000000000000000000000000000000000000000000000000000000000000000000000000000000000000000000000000000000000000000000000000000000000000000000000000000000000000000000000000000000000000000000000000000000000000000000000000000000000000000000000000000000000000
310
00000000000000000000000000000000000000000000000000000000000000000000000000000000000000000000000000000000000000000000000000000000000000000000000000000000000000000000000000000000000000000000000000000000000000000000000000000000000000000000000000000000000000
310
00000000000000000000000000000000000000000000000000000000000000000000000000000000000000000000000000000000000000000000000000000000000000000000000000000000000000000000000000000000000000000000000000000000000000000000000000000000000000000000000000000000000000
310
00000000000000000000000000000000000000000000000000000000000000000000000000000000000000000000000000000000000000000000000000000000000000000000000000000000000000000000000000000000000000000000000000000000000000000000000000000000000000000000000000000000000000
310
00000000000000000000000000000000000000000000000000000000000000000000000000000000000000000000000000000000000000000000000000000000000000000000000000000000000000000000000000000000000000000000000000000000000000000000000000000000000000000000000000000000000000
310
00000000000000000000000000000000000000000000000000000000000000000000000000000000000000000000000000000000000000000000000000000000000000000000000000000000000000000000000000000000000000000000000000000000000000000000000000000000000000000000000000000000000000
310
00000000000000000000000000000000000000000000000000000000000000000000000000000000000000000000000000000000000000000000000000000000000000000000000000000000000000000000000000000000000000000000000000000000000000000000000000000000000000000000000000000000000000
310
00000000000000000000000000000000000000000000000000000000000000000000000000000000000000000000000000000000000000000000000000000000000000000000000000000000000000000000000000000000000000000000000000000000000000000000000000000000000000000000000000000000000000
310
00000000000000000000000000000000000000000000000000000000000000000000000000000000000000000000000000000000000000000000000000000000000000000000000000000000000000000000000000000000000000000000000000000000000000000000000000000000000000000000000000000000000000
310
000000000000000000000000000000000000000000000000000000000000000000000000000000000000000000000000000000000000000000000000000000000000000000000000000000000000000000000000000000000000000000000000000000000000000000000000
  0
ENDSEC
  0
EOF
