  0
SECTION
  2
HEADER
  9
$ACADVER
  1
AC1015
  9
$ACADMAINTVER
 70
     6
  9
$DWGCODEPAGE
  3
ANSI_932
  9
$INSBASE
 10
1497.618578906829
 20
620.6477695927097
 30
0.0
  9
$EXTMIN
 10
212.2928070051088
 20
23.27442795771287
 30
0.0
  9
$EXTMAX
 10
1031.835291662091
 20
820.9646079217971
 30
0.0
  9
$LIMMIN
 10
0.0
 20
0.0
  9
$LIMMAX
 10
816.5000000000001
 20
565.0
  9
$ORTHOMODE
 70
     1
  9
$REGENMODE
 70
     1
  9
$FILLMODE
 70
     1
  9
$QTEXTMODE
 70
     0
  9
$MIRRTEXT
 70
     1
  9
$LTSCALE
 40
20.0
  9
$ATTMODE
 70
     1
  9
$TEXTSIZE
 40
9.0
  9
$TRACEWID
 40
0.05
  9
$TEXTSTYLE
  7
KANJI
  9
$CLAYER
  8
2
  9
$CELTYPE
  6
BYLAYER
  9
$CECOLOR
 62
   256
  9
$CELTSCALE
 40
1.0
  9
$DISPSILH
 70
     0
  9
$DIMSCALE
 40
3.0
  9
$DIMASZ
 40
2.0
  9
$DIMEXO
 40
0.5
  9
$DIMDLI
 40
0.0
  9
$DIMRND
 40
0.0
  9
$DIMDLE
 40
0.0
  9
$DIMEXE
 40
1.0
  9
$DIMTP
 40
0.0
  9
$DIMTM
 40
0.0
  9
$DIMTXT
 40
3.0
  9
$DIMCEN
 40
0.09
  9
$DIMTSZ
 40
0.0
  9
$DIMTOL
 70
     0
  9
$DIMLIM
 70
     0
  9
$DIMTIH
 70
     0
  9
$DIMTOH
 70
     0
  9
$DIMSE1
 70
     0
  9
$DIMSE2
 70
     0
  9
$DIMTAD
 70
     0
  9
$DIMZIN
 70
     8
  9
$DIMBLK
  1

  9
$DIMASO
 70
     0
  9
$DIMSHO
 70
     0
  9
$DIMPOST
  1

  9
$DIMAPOST
  1

  9
$DIMALT
 70
     0
  9
$DIMALTD
 70
     2
  9
$DIMALTF
 40
25.4
  9
$DIMLFAC
 40
1.0
  9
$DIMTOFL
 70
     1
  9
$DIMTVP
 40
1.0
  9
$DIMTIX
 70
     1
  9
$DIMSOXD
 70
     1
  9
$DIMSAH
 70
     0
  9
$DIMBLK1
  1

  9
$DIMBLK2
  1

  9
$DIMSTYLE
  2
STANDARD
  9
$DIMCLRD
 70
   256
  9
$DIMCLRE
 70
   256
  9
$DIMCLRT
 70
   256
  9
$DIMTFAC
 40
1.0
  9
$DIMGAP
 40
0.09
  9
$DIMJUST
 70
     0
  9
$DIMSD1
 70
     0
  9
$DIMSD2
 70
     0
  9
$DIMTOLJ
 70
     1
  9
$DIMTZIN
 70
     0
  9
$DIMALTZ
 70
     0
  9
$DIMALTTZ
 70
     0
  9
$DIMUPT
 70
     0
  9
$DIMDEC
 70
     1
  9
$DIMTDEC
 70
     4
  9
$DIMALTU
 70
     2
  9
$DIMALTTD
 70
     2
  9
$DIMTXSTY
  7
STANDARD
  9
$DIMAUNIT
 70
     0
  9
$DIMADEC
 70
     0
  9
$DIMALTRND
 40
0.0
  9
$DIMAZIN
 70
     0
  9
$DIMDSEP
 70
    46
  9
$DIMATFIT
 70
     3
  9
$DIMFRAC
 70
     0
  9
$DIMLDRBLK
  1

  9
$DIMLUNIT
 70
     2
  9
$DIMLWD
 70
    -2
  9
$DIMLWE
 70
    -2
  9
$DIMTMOVE
 70
     0
  9
$LUNITS
 70
     2
  9
$LUPREC
 70
     3
  9
$SKETCHINC
 40
0.1
  9
$FILLETRAD
 40
2.0
  9
$AUNITS
 70
     0
  9
$AUPREC
 70
     3
  9
$MENU
  1
C:\R13\WIN\SUPPORT\ACADFULL
  9
$ELEVATION
 40
0.0
  9
$PELEVATION
 40
0.0
  9
$THICKNESS
 40
0.0
  9
$LIMCHECK
 70
     0
  9
$CHAMFERA
 40
0.0
  9
$CHAMFERB
 40
0.0
  9
$CHAMFERC
 40
0.0
  9
$CHAMFERD
 40
0.0
  9
$SKPOLY
 70
     0
  9
$TDCREATE
 40
2449812.756805555
  9
$TDUCREATE
 40
2449812.381805555
  9
$TDUPDATE
 40
2458115.529216794
  9
$TDUUPDATE
 40
2458115.154216794
  9
$TDINDWG
 40
1.300181088
  9
$TDUSRTIMER
 40
1.3001801968
  9
$USRTIMER
 70
     1
  9
$ANGBASE
 50
0.0
  9
$ANGDIR
 70
     0
  9
$PDMODE
 70
     0
  9
$PDSIZE
 40
0.0
  9
$PLINEWID
 40
0.0
  9
$SPLFRAME
 70
     0
  9
$SPLINETYPE
 70
     6
  9
$SPLINESEGS
 70
     8
  9
$HANDSEED
  5
568
  9
$SURFTAB1
 70
     6
  9
$SURFTAB2
 70
     6
  9
$SURFTYPE
 70
     6
  9
$SURFU
 70
     6
  9
$SURFV
 70
     6
  9
$UCSBASE
  2

  9
$UCSNAME
  2

  9
$UCSORG
 10
0.0
 20
0.0
 30
0.0
  9
$UCSXDIR
 10
1.0
 20
0.0
 30
0.0
  9
$UCSYDIR
 10
0.0
 20
1.0
 30
0.0
  9
$UCSORTHOREF
  2

  9
$UCSORTHOVIEW
 70
     0
  9
$UCSORGTOP
 10
0.0
 20
0.0
 30
0.0
  9
$UCSORGBOTTOM
 10
0.0
 20
0.0
 30
0.0
  9
$UCSORGLEFT
 10
0.0
 20
0.0
 30
0.0
  9
$UCSORGRIGHT
 10
0.0
 20
0.0
 30
0.0
  9
$UCSORGFRONT
 10
0.0
 20
0.0
 30
0.0
  9
$UCSORGBACK
 10
0.0
 20
0.0
 30
0.0
  9
$PUCSBASE
  2

  9
$PUCSNAME
  2

  9
$PUCSORG
 10
0.0
 20
0.0
 30
0.0
  9
$PUCSXDIR
 10
1.0
 20
0.0
 30
0.0
  9
$PUCSYDIR
 10
0.0
 20
1.0
 30
0.0
  9
$PUCSORTHOREF
  2

  9
$PUCSORTHOVIEW
 70
     0
  9
$PUCSORGTOP
 10
0.0
 20
0.0
 30
0.0
  9
$PUCSORGBOTTOM
 10
0.0
 20
0.0
 30
0.0
  9
$PUCSORGLEFT
 10
0.0
 20
0.0
 30
0.0
  9
$PUCSORGRIGHT
 10
0.0
 20
0.0
 30
0.0
  9
$PUCSORGFRONT
 10
0.0
 20
0.0
 30
0.0
  9
$PUCSORGBACK
 10
0.0
 20
0.0
 30
0.0
  9
$USERI1
 70
     0
  9
$USERI2
 70
     0
  9
$USERI3
 70
     0
  9
$USERI4
 70
     0
  9
$USERI5
 70
     0
  9
$USERR1
 40
0.0
  9
$USERR2
 40
0.0
  9
$USERR3
 40
0.0
  9
$USERR4
 40
2448925.372986111
  9
$USERR5
 40
0.04166667
  9
$WORLDVIEW
 70
     1
  9
$SHADEDGE
 70
     3
  9
$SHADEDIF
 70
    70
  9
$TILEMODE
 70
     1
  9
$MAXACTVP
 70
    16
  9
$PINSBASE
 10
0.0
 20
0.0
 30
0.0
  9
$PLIMCHECK
 70
     0
  9
$PEXTMIN
 10
1000000000000000E+20
 20
1000000000000000E+20
 30
1000000000000000E+20
  9
$PEXTMAX
 10
-1000000000000000E+20
 20
-1000000000000000E+20
 30
-1000000000000000E+20
  9
$PLIMMIN
 10
0.0
 20
0.0
  9
$PLIMMAX
 10
12.0
 20
9.0
  9
$UNITMODE
 70
     0
  9
$VISRETAIN
 70
     0
  9
$PLINEGEN
 70
     0
  9
$PSLTSCALE
 70
     0
  9
$TREEDEPTH
 70
  3020
  9
$CMLSTYLE
  2
STANDARD
  9
$CMLJUST
 70
     0
  9
$CMLSCALE
 40
1.0
  9
$PROXYGRAPHICS
 70
     1
  9
$MEASUREMENT
 70
     0
  9
$CELWEIGHT
370
    -1
  9
$ENDCAPS
280
     0
  9
$JOINSTYLE
280
     0
  9
$LWDISPLAY
290
     0
  9
$INSUNITS
 70
     0
  9
$HYPERLINKBASE
  1

  9
$STYLESHEET
  1
monochrome.ctb
  9
$XEDIT
290
     1
  9
$CEPSNTYPE
380
     0
  9
$PSTYLEMODE
290
     1
  9
$FINGERPRINTGUID
  2
{66B3274B-A76B-4DEE-8F25-F11A7B80BEF4}
  9
$VERSIONGUID
  2
{C7A3A6DB-653E-4853-A44C-EF82CF91A535}
  9
$EXTNAMES
290
     1
  9
$PSVPSCALE
 40
0.0
  9
$OLESTARTUP
290
     0
  0
ENDSEC
  0
SECTION
  2
CLASSES
  0
CLASS
  1
ACDBDICTIONARYWDFLT
  2
AcDbDictionaryWithDefault
  3
ObjectDBX Classes
 90
        0
280
     0
281
     0
  0
CLASS
  1
MATERIAL
  2
AcDbMaterial
  3
ObjectDBX Classes
 90
     1153
280
     0
281
     0
  0
CLASS
  1
SORTENTSTABLE
  2
AcDbSortentsTable
  3
ObjectDBX Classes
 90
        0
280
     0
281
     0
  0
CLASS
  1
SCALE
  2
AcDbScale
  3
ObjectDBX Classes
 90
     1153
280
     0
281
     0
  0
CLASS
  1
DICTIONARYVAR
  2
AcDbDictionaryVar
  3
ObjectDBX Classes
 90
        0
280
     0
281
     0
  0
CLASS
  1
VISUALSTYLE
  2
AcDbVisualStyle
  3
ObjectDBX Classes
 90
     4095
280
     0
281
     0
  0
CLASS
  1
MLEADERSTYLE
  2
AcDbMLeaderStyle
  3
ACDB_MLEADERSTYLE_CLASS
 90
     4095
280
     0
281
     0
  0
CLASS
  1
TABLESTYLE
  2
AcDbTableStyle
  3
ObjectDBX Classes
 90
     4095
280
     0
281
     0
  0
CLASS
  1
ACDBPLACEHOLDER
  2
AcDbPlaceHolder
  3
ObjectDBX Classes
 90
        0
280
     0
281
     0
  0
CLASS
  1
LAYOUT
  2
AcDbLayout
  3
ObjectDBX Classes
 90
        0
280
     0
281
     0
  0
ENDSEC
  0
SECTION
  2
TABLES
  0
TABLE
  2
VPORT
  5
29
102
{ACAD_XDICTIONARY
360
52D
102
}
330
0
100
AcDbSymbolTable
 70
     1
  0
VPORT
  5
30
330
29
100
AcDbSymbolTableRecord
100
AcDbViewportTableRecord
  2
*ACTIVE
 70
     0
 10
0.0
 20
0.0
 11
1.0
 21
1.0
 12
839.8361011320854
 22
428.7153230010037
 13
0.0
 23
0.0
 14
1.0
 24
1.0
 15
50.0
 25
50.0
 16
0.0
 26
0.0
 36
1.0
 17
0.0
 27
0.0
 37
0.0
 40
889.0991223372007
 41
1.82716049382716
 42
50.0
 43
0.0
 44
0.0
 50
0.0
 51
0.0
 71
     0
 72
  5000
 73
     1
 74
     0
 75
     0
 76
     0
 77
     0
 78
     0
281
     0
 65
     1
110
0.0
120
0.0
130
0.0
111
1.0
121
0.0
131
0.0
112
0.0
122
1.0
132
0.0
 79
     0
146
0.0
1001
ACAD_NAV_VCDISPLAY
1070
     3
  0
ENDTAB
  0
TABLE
  2
LTYPE
  5
D
330
0
100
AcDbSymbolTable
 70
     2
  0
LTYPE
  5
E
330
D
100
AcDbSymbolTableRecord
100
AcDbLinetypeTableRecord
  2
BYBLOCK
 70
     0
  3

 72
    65
 73
     0
 40
0.0
  0
LTYPE
  5
F
330
D
100
AcDbSymbolTableRecord
100
AcDbLinetypeTableRecord
  2
BYLAYER
 70
     0
  3

 72
    65
 73
     0
 40
0.0
  0
LTYPE
  5
C
330
D
100
AcDbSymbolTableRecord
100
AcDbLinetypeTableRecord
  2
CONTINUOUS
 70
     0
  3
Solid line
 72
    65
 73
     0
 40
0.0
  0
LTYPE
  5
73
330
D
100
AcDbSymbolTableRecord
100
AcDbLinetypeTableRecord
  2
CENTER
 70
     0
  3
____ _ ____ _ ____ _ ____ _ ____ _ ____ _ ____
 72
    65
 73
     4
 40
2.0
 49
1.25
 74
     0
 49
-0.25
 74
     0
 49
0.25
 74
     0
 49
-0.25
 74
     0
  0
ENDTAB
  0
TABLE
  2
LAYER
  5
2
102
{ACAD_XDICTIONARY
360
3
102
}
330
0
100
AcDbSymbolTable
 70
     9
  0
LAYER
  5
1D
102
{ACAD_XDICTIONARY
360
1E
102
}
330
2
100
AcDbSymbolTableRecord
100
AcDbLayerTableRecord
  2
0
 70
     0
 62
     7
  6
CONTINUOUS
370
    -3
390
7
  0
LAYER
  5
2FB
102
{ACAD_XDICTIONARY
360
2FC
102
}
330
2
100
AcDbSymbolTableRecord
100
AcDbLayerTableRecord
  2
1
 70
     0
 62
     9
  6
CONTINUOUS
370
    -3
390
7
  0
LAYER
  5
1
102
{ACAD_XDICTIONARY
360
5
102
}
330
2
100
AcDbSymbolTableRecord
100
AcDbLayerTableRecord
  2
2
 70
     0
 62
     4
  6
CONTINUOUS
370
    -3
390
7
  0
LAYER
  5
75
102
{ACAD_XDICTIONARY
360
76
102
}
330
2
100
AcDbSymbolTableRecord
100
AcDbLayerTableRecord
  2
4
 70
     0
 62
     3
  6
CONTINUOUS
370
    -3
390
7
  0
LAYER
  5
70
102
{ACAD_XDICTIONARY
360
71
102
}
330
2
100
AcDbSymbolTableRecord
100
AcDbLayerTableRecord
  2
L-CENTER
 70
     0
 62
     1
  6
CENTER
370
    -3
390
7
  0
LAYER
  5
6A
102
{ACAD_XDICTIONARY
360
6B
102
}
330
2
100
AcDbSymbolTableRecord
100
AcDbLayerTableRecord
  2
3
 70
     0
 62
     2
  6
CONTINUOUS
370
    -3
390
7
  0
LAYER
  5
2F5
330
2
100
AcDbSymbolTableRecord
100
AcDbLayerTableRecord
  2
5
 70
     0
 62
     6
  6
CONTINUOUS
370
    -3
390
7
  0
LAYER
  5
4C1
330
2
100
AcDbSymbolTableRecord
100
AcDbLayerTableRecord
  2
Defpoints
 70
     0
 62
     7
  6
CONTINUOUS
290
     0
370
    -3
390
7
  0
ENDTAB
  0
TABLE
  2
STYLE
  5
11
330
0
100
AcDbSymbolTable
 70
     2
  0
STYLE
  5
15
330
11
100
AcDbSymbolTableRecord
100
AcDbTextStyleTableRecord
  2
STANDARD
 70
     0
 40
0.0
 41
1.0
 50
0.0
 71
     0
 42
5.4
  3
TXT
  4

  0
STYLE
  5
10
330
11
100
AcDbSymbolTableRecord
100
AcDbTextStyleTableRecord
  2
KANJI
 70
     0
 40
0.0
 41
1.0
 50
0.0
 71
     0
 42
9.0
  3
TXT
  4
BIGFONT
  0
ENDTAB
  0
TABLE
  2
VIEW
  5
27
330
0
100
AcDbSymbolTable
 70
     0
  0
ENDTAB
  0
TABLE
  2
UCS
  5
28
330
0
100
AcDbSymbolTable
 70
     0
  0
ENDTAB
  0
TABLE
  2
APPID
  5
2A
330
0
100
AcDbSymbolTable
 70
     5
  0
APPID
  5
2F
330
2A
100
AcDbSymbolTableRecord
100
AcDbRegAppTableRecord
  2
ACAD
 70
     0
  0
APPID
  5
31
330
2A
100
AcDbSymbolTableRecord
100
AcDbRegAppTableRecord
  2
ACAD_NAV_VCDISPLAY
 70
     0
  0
APPID
  5
499
330
2A
100
AcDbSymbolTableRecord
100
AcDbRegAppTableRecord
  2
ACAD_MLEADERVER
 70
     0
  0
APPID
  5
49A
330
2A
100
AcDbSymbolTableRecord
100
AcDbRegAppTableRecord
  2
ACAD_PSEXT
 70
     0
  0
ENDTAB
  0
TABLE
  2
DIMSTYLE
  5
14
330
0
100
AcDbSymbolTable
 70
     1
100
AcDbDimStyleTable
  0
DIMSTYLE
105
13
330
14
100
AcDbSymbolTableRecord
100
AcDbDimStyleTableRecord
  2
STANDARD
 70
     0
178
     0
340
15
  0
ENDTAB
  0
TABLE
  2
BLOCK_RECORD
  5
18
330
0
100
AcDbSymbolTable
 70
     0
  0
BLOCK_RECORD
  5
19
102
{ACAD_XDICTIONARY
360
1A
102
}
330
18
100
AcDbSymbolTableRecord
100
AcDbBlockTableRecord
  2
*MODEL_SPACE
340
21
  0
BLOCK_RECORD
  5
23
330
18
100
AcDbSymbolTableRecord
100
AcDbBlockTableRecord
  2
*PAPER_SPACE
340
26
  0
ENDTAB
  0
ENDSEC
  0
SECTION
  2
BLOCKS
  0
BLOCK
  5
1C
330
19
100
AcDbEntity
  8
0
100
AcDbBlockBegin
  2
*MODEL_SPACE
 70
     0
 10
0.0
 20
0.0
 30
0.0
  3
*MODEL_SPACE
  1

  0
ENDBLK
  5
20
330
19
100
AcDbEntity
  8
0
100
AcDbBlockEnd
  0
BLOCK
  5
24
330
23
100
AcDbEntity
 67
     1
  8
0
100
AcDbBlockBegin
  2
*PAPER_SPACE
 70
     0
 10
0.0
 20
0.0
 30
0.0
  3
*PAPER_SPACE
  1

  0
ENDBLK
  5
25
330
23
100
AcDbEntity
 67
     1
  8
0
100
AcDbBlockEnd
  0
ENDSEC
  0
SECTION
  2
ENTITIES
  0
LINE
  5
B9
330
19
100
AcDbEntity
  8
L-CENTER
100
AcDbLine
 10
263.2555765416294
 20
111.9257027694007
 30
0.0
 11
263.2555765416294
 21
73.92570176940075
 31
0.0
  0
LINE
  5
BA
330
19
100
AcDbEntity
  8
4
100
AcDbLine
 10
303.2553325416291
 20
102.9257027694007
 30
0.0
 11
303.2553325416291
 21
82.92570176940075
 31
0.0
  0
LINE
  5
BB
330
19
100
AcDbEntity
  8
4
100
AcDbLine
 10
448.2553315416292
 20
102.9257027694007
 30
0.0
 11
448.2553315416292
 21
82.92570176940075
 31
0.0
  0
LINE
  5
BC
330
19
100
AcDbEntity
  8
L-CENTER
100
AcDbLine
 10
488.2553335416289
 20
73.92570176940075
 30
0.0
 11
488.2553335416289
 21
111.9257027694007
 31
0.0
  0
ARC
  5
BD
330
19
100
AcDbEntity
  8
4
100
AcDbCircle
 10
241.2555775416292
 20
99.92570276940074
 30
0.0
 40
3.0
100
AcDbArc
 50
90.0
 51
180.0
  0
LINE
  5
BE
330
19
100
AcDbEntity
  8
4
100
AcDbLine
 10
238.2555775416292
 20
99.92570276940074
 30
0.0
 11
238.2555775416292
 21
82.92570176940075
 31
0.0
  0
ARC
  5
BF
330
19
100
AcDbEntity
  8
4
100
AcDbCircle
 10
510.2553325416291
 20
99.92570276940074
 30
0.0
 40
3.0
100
AcDbArc
 50
0.0
 51
90.0
  0
LINE
  5
C0
330
19
100
AcDbEntity
  8
4
100
AcDbLine
 10
513.2553325416291
 20
99.92570276940074
 30
0.0
 11
513.2553325416291
 21
82.92570176940075
 31
0.0
  0
ARC
  5
C1
330
19
100
AcDbEntity
  8
4
100
AcDbCircle
 10
323.2553335416289
 20
113.9257037694007
 30
0.0
 40
5.000000999999999
100
AcDbArc
 50
90.0
 51
180.0
  0
LINE
  5
C2
330
19
100
AcDbEntity
  8
4
100
AcDbLine
 10
318.2553325416291
 20
113.9257037694007
 30
0.0
 11
318.2553325416291
 21
82.92570176940075
 31
0.0
  0
ARC
  5
C3
330
19
100
AcDbEntity
  8
4
100
AcDbCircle
 10
428.2553335416289
 20
113.9257037694007
 30
0.0
 40
5.000000999999999
100
AcDbArc
 50
0.0
 51
90.0
  0
LINE
  5
C4
330
19
100
AcDbEntity
  8
4
100
AcDbLine
 10
433.2553315416292
 20
113.9257037694007
 30
0.0
 11
433.2553315416292
 21
82.92570176940075
 31
0.0
  0
LINE
  5
C5
330
19
100
AcDbEntity
  8
4
100
AcDbLine
 10
241.2555775416292
 20
102.9257027694007
 30
0.0
 11
318.2553325416291
 21
102.9257027694007
 31
0.0
  0
LINE
  5
C6
330
19
100
AcDbEntity
  8
4
100
AcDbLine
 10
433.2553315416292
 20
102.9257027694007
 30
0.0
 11
510.2553325416291
 21
102.9257027694007
 31
0.0
  0
LINE
  5
C7
330
19
100
AcDbEntity
  8
4
100
AcDbLine
 10
238.2555775416292
 20
82.92570176940075
 30
0.0
 11
318.2553325416291
 21
82.92570176940075
 31
0.0
  0
LINE
  5
C8
330
19
100
AcDbEntity
  8
4
100
AcDbLine
 10
433.2553315416292
 20
82.92570176940075
 30
0.0
 11
513.2553325416291
 21
82.92570176940075
 31
0.0
  0
LINE
  5
C9
330
19
100
AcDbEntity
  8
4
100
AcDbLine
 10
495.2553325416291
 20
102.9257027694007
 30
0.0
 11
495.2553325416291
 21
82.92570176940075
 31
0.0
  0
LINE
  5
CA
330
19
100
AcDbEntity
  8
4
100
AcDbLine
 10
481.2553315416292
 20
102.9257027694007
 30
0.0
 11
481.2553315416292
 21
82.92570176940075
 31
0.0
  0
ARC
  5
CB
330
19
100
AcDbEntity
  8
4
100
AcDbCircle
 10
466.9201285416291
 20
101.3426957694008
 30
0.0
 40
2.659026
100
AcDbArc
 50
294.635514000001
 51
36.53638199999865
  0
ARC
  5
CC
330
19
100
AcDbEntity
  8
4
100
AcDbCircle
 10
469.1371675416294
 20
96.5087117694008
 30
0.0
 40
2.659026
100
AcDbArc
 50
114.6355330000001
 51
216.536368999999
  0
ARC
  5
CD
330
19
100
AcDbEntity
  8
4
100
AcDbCircle
 10
464.8642195416292
 20
93.3426947694008
 30
0.0
 40
2.659026
100
AcDbArc
 50
294.6355330000001
 51
36.53636899999898
  0
ARC
  5
CE
330
19
100
AcDbEntity
  8
4
100
AcDbCircle
 10
467.0810155416291
 20
88.5087107694007
 30
0.0
 40
2.659026
100
AcDbArc
 50
114.635514000001
 51
216.5363819999986
  0
ARC
  5
CF
330
19
100
AcDbEntity
  8
4
100
AcDbCircle
 10
462.8080675416295
 20
85.34269376940068
 30
0.0
 40
2.659026
100
AcDbArc
 50
294.635514000001
 51
36.53636899999898
  0
ARC
  5
D0
330
19
100
AcDbEntity
  8
4
100
AcDbCircle
 10
462.8080675416295
 20
85.34269376940068
 30
0.0
 40
2.659026
100
AcDbArc
 50
294.635514000001
 51
36.53636899999898
  0
ARC
  5
D1
330
19
100
AcDbEntity
  8
4
100
AcDbCircle
 10
467.0810155416291
 20
88.5087107694007
 30
0.0
 40
2.659026
100
AcDbArc
 50
114.635514000001
 51
216.5363819999986
  0
ARC
  5
D2
330
19
100
AcDbEntity
  8
4
100
AcDbCircle
 10
464.8642195416292
 20
93.3426947694008
 30
0.0
 40
2.659026
100
AcDbArc
 50
294.6355330000001
 51
36.53636899999898
  0
ARC
  5
D3
330
19
100
AcDbEntity
  8
4
100
AcDbCircle
 10
469.1371675416294
 20
96.5087117694008
 30
0.0
 40
2.659026
100
AcDbArc
 50
114.6355330000001
 51
216.536368999999
  0
ARC
  5
D4
330
19
100
AcDbEntity
  8
4
100
AcDbCircle
 10
466.9201285416291
 20
101.3426957694008
 30
0.0
 40
2.659026
100
AcDbArc
 50
294.635514000001
 51
36.53638199999865
  0
LINE
  5
D5
330
19
100
AcDbEntity
  8
4
100
AcDbLine
 10
503.7553315416292
 20
224.9257037694008
 30
0.0
 11
247.7553325416291
 21
224.9257037694008
 31
0.0
  0
ARC
  5
D6
330
19
100
AcDbEntity
  8
4
100
AcDbCircle
 10
228.2553325416291
 20
123.9257027694007
 30
0.0
 40
5.000000999999999
100
AcDbArc
 50
180.0
 51
270.0005160000008
  0
ARC
  5
D7
330
19
100
AcDbEntity
  8
4
100
AcDbCircle
 10
523.2553315416292
 20
123.9257027694007
 30
0.0
 40
5.000000999999999
100
AcDbArc
 50
270.0
 51
0.0
  0
LINE
  5
D8
330
19
100
AcDbEntity
  8
4
100
AcDbLine
 10
523.2553315416292
 20
118.9257017694007
 30
0.0
 11
228.2553325416291
 21
118.9257017694007
 31
0.0
  0
LINE
  5
D9
330
19
100
AcDbEntity
  8
4
100
AcDbLine
 10
441.2553325416291
 20
102.9257027694007
 30
0.0
 11
441.2553325416291
 21
118.9257017694007
 31
0.0
  0
LINE
  5
DA
330
19
100
AcDbEntity
  8
4
100
AcDbLine
 10
310.2553315416292
 20
102.9257027694007
 30
0.0
 11
310.2553315416292
 21
118.9257017694007
 31
0.0
  0
ARC
  5
DB
330
19
100
AcDbEntity
  8
4
100
AcDbCircle
 10
225.2553325416291
 20
220.9257017694008
 30
0.0
 40
2.000001
100
AcDbArc
 50
90.0
 51
180.0
  0
LINE
  5
DC
330
19
100
AcDbEntity
  8
4
100
AcDbLine
 10
223.2553315416292
 20
220.9257017694008
 30
0.0
 11
223.2553315416292
 21
123.9257027694007
 31
0.0
  0
ARC
  5
DD
330
19
100
AcDbEntity
  8
4
100
AcDbCircle
 10
526.2553315416292
 20
220.9257017694008
 30
0.0
 40
2.000001
100
AcDbArc
 50
0.0
 51
90.0
  0
LINE
  5
DE
330
19
100
AcDbEntity
  8
4
100
AcDbLine
 10
526.2553315416292
 20
222.9257027694007
 30
0.0
 11
225.2553325416291
 21
222.9257027694007
 31
0.0
  0
LINE
  5
DF
330
19
100
AcDbEntity
  8
4
100
AcDbLine
 10
528.2553325416291
 20
220.9257017694008
 30
0.0
 11
528.2553325416291
 21
123.9257027694007
 31
0.0
  0
LINE
  5
E0
330
19
100
AcDbEntity
  8
4
100
AcDbLine
 10
262.5137095416289
 20
118.9257017694007
 30
0.0
 11
262.5137095416289
 21
102.9257027694007
 31
0.0
  0
LINE
  5
E1
330
19
100
AcDbEntity
  8
4
100
AcDbLine
 10
488.9970325416291
 20
118.9257017694007
 30
0.0
 11
488.9970325416291
 21
102.9257027694007
 31
0.0
  0
LINE
  5
E2
330
19
100
AcDbEntity
  8
4
100
AcDbLine
 10
318.2553325416291
 20
112.9257017694007
 30
0.0
 11
396.2834095416295
 21
112.9257017694007
 31
0.0
  0
LINE
  5
E3
330
19
100
AcDbEntity
  8
4
100
AcDbLine
 10
402.7553335416289
 20
112.9257017694007
 30
0.0
 11
433.2553315416292
 21
112.9257017694007
 31
0.0
  0
LINE
  5
E4
330
19
100
AcDbEntity
  8
4
100
AcDbLine
 10
402.7553335416289
 20
118.9257017694007
 30
0.0
 11
402.7553335416289
 21
112.9257017694007
 31
0.0
  0
LINE
  5
E5
330
19
100
AcDbEntity
  8
4
100
AcDbLine
 10
396.2834095416295
 20
118.9257017694007
 30
0.0
 11
396.2834095416295
 21
112.9257017694007
 31
0.0
  0
LINE
  5
E6
330
19
100
AcDbEntity
  8
4
100
AcDbLine
 10
390.2834095416295
 20
111.9257027694009
 30
0.0
 11
318.2553325416291
 21
111.9257027694009
 31
0.0
  0
LINE
  5
E7
330
19
100
AcDbEntity
  8
4
100
AcDbLine
 10
390.2834095416295
 20
112.9257017694007
 30
0.0
 11
390.2834095416295
 21
111.9257027694009
 31
0.0
  0
LINE
  5
E8
330
19
100
AcDbEntity
  8
4
100
AcDbLine
 10
407.7553315416292
 20
111.9257027694009
 30
0.0
 11
433.2553315416292
 21
111.9257027694009
 31
0.0
  0
LINE
  5
E9
330
19
100
AcDbEntity
  8
4
100
AcDbLine
 10
407.7553315416292
 20
111.9257027694009
 30
0.0
 11
407.7553315416292
 21
112.9257017694007
 31
0.0
  0
LINE
  5
EA
330
19
100
AcDbEntity
  8
4
100
AcDbLine
 10
223.2553315416292
 20
199.9257017694008
 30
0.0
 11
215.7553315416292
 21
199.9257017694008
 31
0.0
  0
LINE
  5
EB
330
19
100
AcDbEntity
  8
4
100
AcDbLine
 10
215.7553315416292
 20
125.9257037694008
 30
0.0
 11
215.7553315416292
 21
199.9257017694008
 31
0.0
  0
LINE
  5
EC
330
19
100
AcDbEntity
  8
4
100
AcDbLine
 10
215.7553315416292
 20
125.9257037694008
 30
0.0
 11
223.2553315416292
 21
125.9257037694008
 31
0.0
  0
LINE
  5
ED
330
19
100
AcDbEntity
  8
4
100
AcDbLine
 10
535.7553325416291
 20
199.9257017694008
 30
0.0
 11
528.2553325416291
 21
199.9257017694008
 31
0.0
  0
LINE
  5
EE
330
19
100
AcDbEntity
  8
4
100
AcDbLine
 10
535.7553325416288
 20
125.9257037694008
 30
0.0
 11
528.2553325416291
 21
125.9257037694008
 31
0.0
  0
LINE
  5
EF
330
19
100
AcDbEntity
  8
4
100
AcDbLine
 10
535.7553325416288
 20
125.9257037694008
 30
0.0
 11
535.7553325416291
 21
199.9257017694008
 31
0.0
  0
LINE
  5
F0
330
19
100
AcDbEntity
  8
4
100
AcDbLine
 10
503.7553315416292
 20
235.9257017694008
 30
0.0
 11
247.7553325416291
 21
235.9257017694008
 31
0.0
  0
LINE
  5
F1
330
19
100
AcDbEntity
  8
4
100
AcDbLine
 10
247.7553325416291
 20
222.9257027694007
 30
0.0
 11
247.7553325416291
 21
235.9257017694008
 31
0.0
  0
LINE
  5
F2
330
19
100
AcDbEntity
  8
4
100
AcDbLine
 10
503.7553315416292
 20
222.9257027694007
 30
0.0
 11
503.7553315416292
 21
235.9257017694008
 31
0.0
  0
ARC
  5
F3
330
19
100
AcDbEntity
  8
4
100
AcDbCircle
 10
375.7553335416289
 20
-957.0220512305993
 30
0.0
 40
1199.999964
100
AcDbArc
 50
84.740515
 51
86.82324536324145
  0
LINE
  5
F4
330
19
100
AcDbEntity
  8
4
100
AcDbLine
 10
265.7553325416291
 20
235.9257017694008
 30
0.0
 11
265.7553325416291
 21
237.9257027694007
 31
0.0
  0
LINE
  5
F5
330
19
100
AcDbEntity
  8
4
100
AcDbLine
 10
485.7553315416292
 20
237.9257027694007
 30
0.0
 11
443.0050414031728
 21
237.9257027694007
 31
0.0
  0
LINE
  5
F6
330
19
100
AcDbEntity
  8
4
100
AcDbLine
 10
485.7553315416292
 20
237.9257027694007
 30
0.0
 11
485.7553315416292
 21
235.9257017694008
 31
0.0
  0
LINE
  5
F7
330
19
100
AcDbEntity
  8
4
100
AcDbLine
 10
396.2834095416295
 20
242.8024127694007
 30
0.0
 11
396.2834095416295
 21
247.9257017694008
 31
0.0
  0
LINE
  5
F8
330
19
100
AcDbEntity
  8
4
100
AcDbLine
 10
402.7553335416289
 20
242.6742377694006
 30
0.0
 11
402.7553335416289
 21
247.9257017694008
 31
0.0
  0
LINE
  5
F9
330
19
100
AcDbEntity
  8
4
100
AcDbLine
 10
298.2834085416296
 20
240.4745297694008
 30
0.0
 11
298.2834085416296
 21
247.9257017694008
 31
0.0
  0
LINE
  5
FA
330
19
100
AcDbEntity
  8
4
100
AcDbLine
 10
480.7553335416289
 20
238.3754087694008
 30
0.0
 11
480.7553335416289
 21
247.9257017694008
 31
0.0
  0
LINE
  5
FB
330
19
100
AcDbEntity
  8
4
100
AcDbLine
 10
298.2834085416296
 20
247.9257017694008
 30
0.0
 11
396.2834095416295
 21
247.9257017694008
 31
0.0
  0
LINE
  5
FC
330
19
100
AcDbEntity
  8
4
100
AcDbLine
 10
402.7553335416289
 20
247.9257017694008
 30
0.0
 11
480.7553335416289
 21
247.9257017694008
 31
0.0
  0
LINE
  5
FD
330
19
100
AcDbEntity
  8
4
100
AcDbLine
 10
304.2834085416296
 20
247.9257017694008
 30
0.0
 11
304.2834085416296
 21
248.9257037694008
 31
0.0
  0
LINE
  5
FE
330
19
100
AcDbEntity
  8
4
100
AcDbLine
 10
390.2834095416295
 20
248.9257037694008
 30
0.0
 11
386.5806510889345
 21
248.9257037694008
 31
0.0
  0
LINE
  5
FF
330
19
100
AcDbEntity
  8
4
100
AcDbLine
 10
364.9300159943234
 20
248.9257037694008
 30
0.0
 11
304.2834085416296
 21
248.9257037694008
 31
0.0
  0
LINE
  5
100
330
19
100
AcDbEntity
  8
4
100
AcDbLine
 10
390.2834095416295
 20
248.9257037694008
 30
0.0
 11
390.2834095416295
 21
247.9257017694008
 31
0.0
  0
LINE
  5
101
330
19
100
AcDbEntity
  8
4
100
AcDbLine
 10
407.7553315416292
 20
247.9257017694008
 30
0.0
 11
407.7553315416292
 21
248.9257037694008
 31
0.0
  0
LINE
  5
102
330
19
100
AcDbEntity
  8
4
100
AcDbLine
 10
475.7553325416291
 20
248.9257037694008
 30
0.0
 11
407.7553315416292
 21
248.9257037694008
 31
0.0
  0
LINE
  5
103
330
19
100
AcDbEntity
  8
4
100
AcDbLine
 10
475.7553325416291
 20
248.9257037694008
 30
0.0
 11
475.7553325416291
 21
247.9257017694008
 31
0.0
  0
LINE
  5
104
330
19
100
AcDbEntity
  8
L-CENTER
100
AcDbLine
 10
347.283407541629
 20
337.5769795810885
 30
0.0
 11
347.283407541629
 21
23.27442795771287
 31
0.0
  0
LINE
  5
105
330
19
100
AcDbEntity
  8
L-CENTER
100
AcDbLine
 10
441.7553335416289
 20
252.1840037694008
 30
0.0
 11
441.7553335416289
 21
108.6705325906501
 31
0.0
  0
ARC
  5
106
330
19
100
AcDbEntity
  8
4
100
AcDbCircle
 10
904.253928629324
 20
194.3961617694008
 30
0.0
 40
2.999955
100
AcDbArc
 50
99.19172100000078
 51
170.807509999999
  0
ARC
  5
107
330
19
100
AcDbEntity
  8
4
100
AcDbCircle
 10
967.1970426293237
 20
194.3951837694008
 30
0.0
 40
3.000054
100
AcDbArc
 50
9.182544999997734
 51
80.80290999999775
  0
ARC
  5
108
330
19
100
AcDbEntity
  8
4
100
AcDbCircle
 10
935.7224346293242
 20
-0.0742962305992592
 30
0.0
 40
200.000025
100
AcDbArc
 50
80.80656499999999
 51
99.736424
  0
ARC
  5
109
330
19
100
AcDbEntity
  8
4
100
AcDbCircle
 10
967.1875206293244
 20
131.4518267694007
 30
0.0
 40
2.999973
100
AcDbArc
 50
279.1878889999914
 51
350.7983100000004
  0
ARC
  5
10A
330
19
100
AcDbEntity
  8
4
100
AcDbCircle
 10
772.7224326293242
 20
162.9530477694007
 30
0.0
 40
200.00007
100
AcDbArc
 50
350.7989880000001
 51
9.183936999999982
  0
ARC
  5
10B
330
19
100
AcDbEntity
  8
4
100
AcDbCircle
 10
904.2502656293245
 20
131.4589067694008
 30
0.0
 40
2.999955
100
AcDbArc
 50
189.1878889999985
 51
260.8028909999984
  0
ARC
  5
10C
330
19
100
AcDbEntity
  8
4
100
AcDbCircle
 10
935.7407436293242
 20
325.9257017694008
 30
0.0
 40
200.000061
100
AcDbArc
 50
260.2584060000001
 51
279.185639
  0
ARC
  5
10D
330
19
100
AcDbEntity
  8
4
100
AcDbCircle
 10
1098.722433629324
 20
162.9164237694008
 30
0.0
 40
200.000001
100
AcDbArc
 50
170.805002
 51
189.1886169999999
  0
LINE
  5
10E
330
19
100
AcDbEntity
  8
L-CENTER
100
AcDbLine
 10
730.7224326293242
 20
111.9257027694007
 30
0.0
 11
730.7224326293242
 21
73.92570176940075
 31
0.0
  0
ARC
  5
10F
330
19
100
AcDbEntity
  8
4
100
AcDbCircle
 10
713.722434629324
 20
99.92570276940074
 30
0.0
 40
3.0
100
AcDbArc
 50
90.0
 51
180.0
  0
LINE
  5
110
330
19
100
AcDbEntity
  8
4
100
AcDbLine
 10
710.722434629324
 20
99.92570276940074
 30
0.0
 11
710.722434629324
 21
82.92570176940075
 31
0.0
  0
ARC
  5
111
330
19
100
AcDbEntity
  8
4
100
AcDbCircle
 10
1017.722433629324
 20
99.92570276940074
 30
0.0
 40
3.0
100
AcDbArc
 50
0.0
 51
90.0
  0
LINE
  5
112
330
19
100
AcDbEntity
  8
4
100
AcDbLine
 10
1020.722433629324
 20
99.92570276940074
 30
0.0
 11
1020.722433629324
 21
82.92570176940075
 31
0.0
  0
LINE
  5
113
330
19
100
AcDbEntity
  8
4
100
AcDbLine
 10
710.722434629324
 20
82.92570176940075
 30
0.0
 11
790.7224326293242
 21
82.92570176940075
 31
0.0
  0
LINE
  5
114
330
19
100
AcDbEntity
  8
4
100
AcDbLine
 10
940.7224326293244
 20
82.92570176940075
 30
0.0
 11
1020.722433629324
 21
82.92570176940075
 31
0.0
  0
LINE
  5
115
330
19
100
AcDbEntity
  8
4
100
AcDbLine
 10
713.722434629324
 20
102.9257027694007
 30
0.0
 11
790.7224326293242
 21
102.9257027694007
 31
0.0
  0
LINE
  5
116
330
19
100
AcDbEntity
  8
4
100
AcDbLine
 10
940.7224326293244
 20
102.9257027694007
 30
0.0
 11
1017.722433629324
 21
102.9257027694007
 31
0.0
  0
ARC
  5
117
330
19
100
AcDbEntity
  8
4
100
AcDbCircle
 10
795.7224336293241
 20
113.9257037694007
 30
0.0
 40
5.000000999999999
100
AcDbArc
 50
90.0
 51
180.0
  0
LINE
  5
118
330
19
100
AcDbEntity
  8
4
100
AcDbLine
 10
790.7224326293242
 20
113.9257037694007
 30
0.0
 11
790.7224326293242
 21
82.92570176940075
 31
0.0
  0
ARC
  5
119
330
19
100
AcDbEntity
  8
4
100
AcDbCircle
 10
935.7224346293242
 20
113.9257037694007
 30
0.0
 40
5.000000999999999
100
AcDbArc
 50
0.0
 51
90.0
  0
LINE
  5
11A
330
19
100
AcDbEntity
  8
4
100
AcDbLine
 10
940.7224326293244
 20
113.9257037694007
 30
0.0
 11
940.7224326293244
 21
82.92570176940075
 31
0.0
  0
LINE
  5
11B
330
19
100
AcDbEntity
  8
4
100
AcDbLine
 10
806.722434629324
 20
118.9257017694007
 30
0.0
 11
806.722434629324
 21
112.9257017694007
 31
0.0
  0
LINE
  5
11C
330
19
100
AcDbEntity
  8
4
100
AcDbLine
 10
884.7224346293242
 20
118.9257017694007
 30
0.0
 11
884.7224346293242
 21
112.9257017694007
 31
0.0
  0
LINE
  5
11D
330
19
100
AcDbEntity
  8
4
100
AcDbLine
 10
904.7224326293244
 20
112.9257017694007
 30
0.0
 11
904.7224326293244
 21
118.9257017694007
 31
0.0
  0
LINE
  5
11E
330
19
100
AcDbEntity
  8
4
100
AcDbLine
 10
904.7224326293244
 20
112.9257017694007
 30
0.0
 11
806.722434629324
 21
112.9257017694007
 31
0.0
  0
LINE
  5
11F
330
19
100
AcDbEntity
  8
4
100
AcDbLine
 10
737.722434629324
 20
224.9257037694008
 30
0.0
 11
993.7224336293239
 21
224.9257037694008
 31
0.0
  0
ARC
  5
120
330
19
100
AcDbEntity
  8
4
100
AcDbCircle
 10
715.222434629324
 20
220.9257017694008
 30
0.0
 40
2.000001
100
AcDbArc
 50
90.0
 51
180.0
  0
ARC
  5
121
330
19
100
AcDbEntity
  8
4
100
AcDbCircle
 10
1016.222433629324
 20
220.9257017694008
 30
0.0
 40
2.000001
100
AcDbArc
 50
0.0
 51
90.0
  0
LINE
  5
122
330
19
100
AcDbEntity
  8
4
100
AcDbLine
 10
1016.222433629324
 20
222.9257027694007
 30
0.0
 11
715.222434629324
 21
222.9257027694007
 31
0.0
  0
ARC
  5
123
330
19
100
AcDbEntity
  8
4
100
AcDbCircle
 10
718.222434629324
 20
123.9257027694007
 30
0.0
 40
5.000000999999999
100
AcDbArc
 50
180.0
 51
270.0
  0
LINE
  5
124
330
19
100
AcDbEntity
  8
4
100
AcDbLine
 10
713.2224336293241
 20
123.9257027694007
 30
0.0
 11
713.2224336293241
 21
220.9257017694008
 31
0.0
  0
ARC
  5
125
330
19
100
AcDbEntity
  8
4
100
AcDbCircle
 10
1013.222433629324
 20
123.9257027694007
 30
0.0
 40
5.000000999999999
100
AcDbArc
 50
270.0
 51
0.0
  0
LINE
  5
126
330
19
100
AcDbEntity
  8
4
100
AcDbLine
 10
1018.222434629324
 20
123.9257027694007
 30
0.0
 11
1018.222434629324
 21
220.9257017694008
 31
0.0
  0
LINE
  5
127
330
19
100
AcDbEntity
  8
4
100
AcDbLine
 10
962.3954820834565
 20
237.9257027694007
 30
0.0
 11
769.0493851751917
 21
237.9257027694007
 31
0.0
  0
ARC
  5
128
330
19
100
AcDbEntity
  8
4
100
AcDbCircle
 10
865.7224326293244
 20
-957.0220512305993
 30
0.0
 40
1200.000015
100
AcDbArc
 50
85.34326697031995
 51
89.68964627557315
  0
LINE
  5
129
330
19
100
AcDbEntity
  8
4
100
AcDbLine
 10
993.7224336293239
 20
235.9257017694008
 30
0.0
 11
737.722434629324
 21
235.9257017694008
 31
0.0
  0
LINE
  5
12A
330
19
100
AcDbEntity
  8
4
100
AcDbLine
 10
737.722434629324
 20
235.9257017694008
 30
0.0
 11
737.722434629324
 21
222.9257027694007
 31
0.0
  0
LINE
  5
12B
330
19
100
AcDbEntity
  8
4
100
AcDbLine
 10
993.7224336293239
 20
235.9257017694008
 30
0.0
 11
993.7224336293239
 21
222.9257027694007
 31
0.0
  0
LINE
  5
12C
330
19
100
AcDbEntity
  8
4
100
AcDbLine
 10
806.722434629324
 20
247.9257017694008
 30
0.0
 11
904.7224326293244
 21
247.9257017694008
 31
0.0
  0
LINE
  5
12D
330
19
100
AcDbEntity
  8
4
100
AcDbLine
 10
898.7224326293244
 20
248.9257037694008
 30
0.0
 11
812.722434629324
 21
248.9257037694008
 31
0.0
  0
LINE
  5
12E
330
19
100
AcDbEntity
  8
4
100
AcDbLine
 10
898.7224326293244
 20
248.9257037694008
 30
0.0
 11
898.7224326293244
 21
247.9257017694008
 31
0.0
  0
LINE
  5
12F
330
19
100
AcDbEntity
  8
4
100
AcDbLine
 10
879.7224336293239
 20
248.9257037694008
 30
0.0
 11
879.7224336293239
 21
247.9257017694008
 31
0.0
  0
LINE
  5
130
330
19
100
AcDbEntity
  8
4
100
AcDbLine
 10
879.7224336293239
 20
248.9257037694008
 30
0.0
 11
811.7224326293242
 21
248.9257037694008
 31
0.0
  0
LINE
  5
131
330
19
100
AcDbEntity
  8
4
100
AcDbLine
 10
811.7224326293242
 20
247.9257017694008
 30
0.0
 11
811.7224326293242
 21
248.9257037694008
 31
0.0
  0
LINE
  5
132
330
19
100
AcDbEntity
  8
4
100
AcDbLine
 10
806.722434629324
 20
247.9257017694008
 30
0.0
 11
884.7224346293242
 21
247.9257017694008
 31
0.0
  0
LINE
  5
133
330
19
100
AcDbEntity
  8
4
100
AcDbLine
 10
884.7224346293242
 20
242.8275587694006
 30
0.0
 11
884.7224346293242
 21
247.9257017694008
 31
0.0
  0
LINE
  5
134
330
19
100
AcDbEntity
  8
4
100
AcDbLine
 10
806.722434629324
 20
241.5265337694007
 30
0.0
 11
806.722434629324
 21
247.9257017694008
 31
0.0
  0
LINE
  5
135
330
19
100
AcDbEntity
  8
4
100
AcDbLine
 10
904.7224326293244
 20
242.3439167694007
 30
0.0
 11
904.7224326293244
 21
247.9257017694008
 31
0.0
  0
LINE
  5
136
330
19
100
AcDbEntity
  8
L-CENTER
100
AcDbLine
 10
1000.722432629324
 20
73.92570176940075
 30
0.0
 11
1000.722432629324
 21
111.9257027694007
 31
0.0
  0
LINE
  5
137
330
19
100
AcDbEntity
  8
4
100
AcDbLine
 10
898.7224326293244
 20
111.9257027694009
 30
0.0
 11
898.7224326293244
 21
112.9257017694007
 31
0.0
  0
LINE
  5
138
330
19
100
AcDbEntity
  8
4
100
AcDbLine
 10
879.7224336293239
 20
112.9257017694007
 30
0.0
 11
879.7224336293239
 21
111.9257027694009
 31
0.0
  0
LINE
  5
139
330
19
100
AcDbEntity
  8
4
100
AcDbLine
 10
811.7224326293242
 20
111.9257027694009
 30
0.0
 11
898.7224326293244
 21
111.9257027694009
 31
0.0
  0
LINE
  5
13A
330
19
100
AcDbEntity
  8
4
100
AcDbLine
 10
811.7224326293242
 20
112.9257017694007
 30
0.0
 11
811.7224326293242
 21
111.9257027694009
 31
0.0
  0
LINE
  5
13B
330
19
100
AcDbEntity
  8
L-CENTER
100
AcDbLine
 10
845.7224346293242
 20
108.6705325906501
 30
0.0
 11
845.7224346293242
 21
253.0765817694007
 31
0.0
  0
LINE
  5
13C
330
19
100
AcDbEntity
  8
L-CENTER
100
AcDbLine
 10
855.7224336293239
 20
23.27442795771287
 30
0.0
 11
855.7224336293239
 21
337.5769795810885
 31
0.0
  0
LINE
  5
13D
330
19
100
AcDbEntity
  8
L-CENTER
100
AcDbLine
 10
935.7224346293242
 20
204.9678448717125
 30
0.0
 11
935.7224346293242
 21
120.883560667089
 31
0.0
  0
LINE
  5
13E
330
19
100
AcDbEntity
  8
L-CENTER
100
AcDbLine
 10
977.764576731636
 20
162.9257027694007
 30
0.0
 11
893.6802925270124
 21
162.9257027694007
 31
0.0
  0
LINE
  5
13F
330
19
100
AcDbEntity
  8
L-CENTER
100
AcDbLine
 10
212.2928070051088
 20
162.9257027694007
 30
0.0
 11
599.9341914825837
 21
162.9257027694007
 31
0.0
  0
LINE
  5
140
330
19
100
AcDbEntity
  8
4
100
AcDbLine
 10
740.3479206293241
 20
118.9257017694007
 30
0.0
 11
740.3479206293241
 21
102.9257027694007
 31
0.0
  0
LINE
  5
141
330
19
100
AcDbEntity
  8
4
100
AcDbLine
 10
991.0969446293243
 20
118.9257017694007
 30
0.0
 11
991.0969446293243
 21
102.9257027694007
 31
0.0
  0
LINE
  5
142
330
19
100
AcDbEntity
  8
4
100
AcDbLine
 10
910.7224346293242
 20
246.4264357694008
 30
0.0
 11
942.7224346293242
 21
246.4264357694008
 31
0.0
  0
LINE
  5
143
330
19
100
AcDbEntity
  8
4
100
AcDbLine
 10
908.7224346293242
 20
242.2071977694006
 30
0.0
 11
908.7224346293242
 21
244.4264357694008
 31
0.0
  0
LINE
  5
144
330
19
100
AcDbEntity
  8
4
100
AcDbLine
 10
944.7224346293242
 20
240.3746777694007
 30
0.0
 11
944.7224346293242
 21
244.4264357694008
 31
0.0
  0
LINE
  5
145
330
19
100
AcDbEntity
  8
4
100
AcDbLine
 10
1021.222434629324
 20
216.9257027694007
 30
0.0
 11
1018.222434629324
 21
216.9257027694007
 31
0.0
  0
LINE
  5
146
330
19
100
AcDbEntity
  8
4
100
AcDbLine
 10
1019.222433629324
 20
162.9257027694007
 30
0.0
 11
1021.222434629324
 21
162.9257027694007
 31
0.0
  0
LINE
  5
147
330
19
100
AcDbEntity
  8
4
100
AcDbLine
 10
1021.222434629324
 20
162.9257027694007
 30
0.0
 11
1021.222434629324
 21
216.9257027694007
 31
0.0
  0
LINE
  5
148
330
19
100
AcDbEntity
  8
4
100
AcDbLine
 10
1019.222433629324
 20
118.9257017694007
 30
0.0
 11
1019.222433629324
 21
162.9257027694007
 31
0.0
  0
LINE
  5
149
330
19
100
AcDbEntity
  8
4
100
AcDbLine
 10
1019.222433629324
 20
118.9257017694007
 30
0.0
 11
718.222434629324
 21
118.9257017694007
 31
0.0
  0
LINE
  5
14A
330
19
100
AcDbEntity
  8
4
100
AcDbLine
 10
385.9777435416293
 20
251.9264337694008
 30
0.0
 11
367.2834085416296
 21
251.9264337694008
 31
0.0
  0
LINE
  5
14B
330
19
100
AcDbEntity
  8
L-CENTER
100
AcDbLine
 10
375.7553335416289
 20
258.6671567694008
 30
0.0
 11
375.7553335416289
 21
108.6705325906501
 31
0.0
  0
LINE
  5
14C
330
19
100
AcDbEntity
  8
4
100
AcDbLine
 10
1024.722433629324
 20
193.4257037694008
 30
0.0
 11
1029.722434629324
 21
193.4257037694008
 31
0.0
  0
LINE
  5
14D
330
19
100
AcDbEntity
  8
4
100
AcDbLine
 10
1024.722433629324
 20
208.4257037694008
 30
0.0
 11
1029.722434629324
 21
208.4257037694008
 31
0.0
  0
LINE
  5
14E
330
19
100
AcDbEntity
  8
4
100
AcDbLine
 10
1021.222434629324
 20
214.9257017694008
 30
0.0
 11
1021.222434629324
 21
186.9257027694007
 31
0.0
  0
LINE
  5
14F
330
19
100
AcDbEntity
  8
4
100
AcDbLine
 10
1022.722432629324
 20
215.9257037694008
 30
0.0
 11
1022.722432629324
 21
185.9257037694008
 31
0.0
  0
LINE
  5
150
330
19
100
AcDbEntity
  8
4
100
AcDbLine
 10
1024.722433629324
 20
215.9257037694008
 30
0.0
 11
1024.722433629324
 21
185.9257037694008
 31
0.0
  0
LINE
  5
151
330
19
100
AcDbEntity
  8
4
100
AcDbLine
 10
1029.722434629324
 20
215.9257037694008
 30
0.0
 11
1029.722434629324
 21
185.9257037694008
 31
0.0
  0
LINE
  5
152
330
19
100
AcDbEntity
  8
4
100
AcDbLine
 10
1029.722434629324
 20
185.9257037694008
 30
0.0
 11
1022.722432629324
 21
185.9257037694008
 31
0.0
  0
LINE
  5
153
330
19
100
AcDbEntity
  8
4
100
AcDbLine
 10
1022.722432629324
 20
186.9257027694007
 30
0.0
 11
1021.222434629324
 21
186.9257027694007
 31
0.0
  0
LINE
  5
154
330
19
100
AcDbEntity
  8
4
100
AcDbLine
 10
1022.722432629324
 20
215.9257037694008
 30
0.0
 11
1029.722434629324
 21
215.9257037694008
 31
0.0
  0
LINE
  5
155
330
19
100
AcDbEntity
  8
4
100
AcDbLine
 10
1022.722432629324
 20
214.9257017694008
 30
0.0
 11
1021.222434629324
 21
214.9257017694008
 31
0.0
  0
LINE
  5
156
330
19
100
AcDbEntity
  8
4
100
AcDbLine
 10
1021.222334629324
 20
141.6637397694008
 30
0.0
 11
1021.222334629324
 21
128.1876647694007
 31
0.0
  0
LINE
  5
157
330
19
100
AcDbEntity
  8
4
100
AcDbLine
 10
1019.222433629324
 20
141.5013857694007
 30
0.0
 11
1021.222334629324
 21
141.6637397694008
 31
0.0
  0
LINE
  5
158
330
19
100
AcDbEntity
  8
4
100
AcDbLine
 10
1019.222433629324
 20
128.3500187694008
 30
0.0
 11
1021.222334629324
 21
128.1876647694007
 31
0.0
  0
LINE
  5
159
330
19
100
AcDbEntity
  8
L-CENTER
100
AcDbLine
 10
1031.835291662091
 20
200.9257037694008
 30
0.0
 11
1013.745870629324
 21
200.9257037694008
 31
0.0
  0
LINE
  5
15A
330
19
100
AcDbEntity
  8
L-CENTER
100
AcDbLine
 10
1024.288985629325
 20
134.9257037694008
 30
0.0
 11
1012.898214629325
 21
134.9257037694008
 31
0.0
  0
LINE
  5
15B
330
19
100
AcDbEntity
  8
4
100
AcDbLine
 10
327.2834095416295
 20
262.9257017694008
 30
0.0
 11
327.2834095416295
 21
248.9257037694008
 31
0.0
  0
LINE
  5
15C
330
19
100
AcDbEntity
  8
4
100
AcDbLine
 10
367.2834085416296
 20
262.9257017694008
 30
0.0
 11
367.2834085416296
 21
251.9264337694008
 31
0.0
  0
LINE
  5
15D
330
19
100
AcDbEntity
  8
4
100
AcDbLine
 10
330.2834095416295
 20
332.9257037694007
 30
0.0
 11
364.2834085416296
 21
332.9257037694007
 31
0.0
  0
LINE
  5
15E
330
19
100
AcDbEntity
  8
4
100
AcDbLine
 10
327.2834095416295
 20
262.9257017694008
 30
0.0
 11
367.2834085416296
 21
262.9257017694008
 31
0.0
  0
LINE
  5
15F
330
19
100
AcDbEntity
  8
4
100
AcDbLine
 10
329.283407541629
 20
331.9257017694008
 30
0.0
 11
329.283407541629
 21
262.9257017694008
 31
0.0
  0
LINE
  5
160
330
19
100
AcDbEntity
  8
4
100
AcDbLine
 10
365.283407541629
 20
331.9257017694008
 30
0.0
 11
365.283407541629
 21
262.9257017694008
 31
0.0
  0
LINE
  5
161
330
19
100
AcDbEntity
  8
4
100
AcDbLine
 10
330.2834095416295
 20
332.9257037694007
 30
0.0
 11
329.283407541629
 21
331.9257017694008
 31
0.0
  0
LINE
  5
162
330
19
100
AcDbEntity
  8
4
100
AcDbLine
 10
364.2834085416296
 20
332.9257037694007
 30
0.0
 11
365.283407541629
 21
331.9257017694008
 31
0.0
  0
LINE
  5
163
330
19
100
AcDbEntity
  8
4
100
AcDbLine
 10
342.2834095416295
 20
332.9257037694007
 30
0.0
 11
342.2834095416295
 21
272.9257037694008
 31
0.0
  0
LINE
  5
164
330
19
100
AcDbEntity
  8
4
100
AcDbLine
 10
352.2834085416296
 20
332.9257037694007
 30
0.0
 11
352.2834085416296
 21
272.9257037694008
 31
0.0
  0
LINE
  5
165
330
19
100
AcDbEntity
  8
4
100
AcDbLine
 10
347.283407541629
 20
267.9257027694007
 30
0.0
 11
347.283407541629
 21
267.9257027694007
 31
0.0
  0
ARC
  5
166
330
19
100
AcDbEntity
  8
4
100
AcDbCircle
 10
347.283407541629
 20
272.9257037694008
 30
0.0
 40
5.000000999999999
100
AcDbArc
 50
180.0
 51
270.0
  0
ARC
  5
167
330
19
100
AcDbEntity
  8
4
100
AcDbCircle
 10
347.283407541629
 20
272.9257037694008
 30
0.0
 40
5.000000999999999
100
AcDbArc
 50
270.0
 51
0.0
  0
LINE
  5
168
330
19
100
AcDbEntity
  8
4
100
AcDbLine
 10
329.283407541629
 20
331.9257017694008
 30
0.0
 11
342.2834095416295
 21
331.9257017694008
 31
0.0
  0
LINE
  5
169
330
19
100
AcDbEntity
  8
4
100
AcDbLine
 10
352.2834085416296
 20
331.9257017694008
 30
0.0
 11
365.283407541629
 21
331.9257017694008
 31
0.0
  0
LINE
  5
16A
330
19
100
AcDbEntity
  8
4
100
AcDbLine
 10
835.7222136293244
 20
262.9257017694008
 30
0.0
 11
835.7222136293244
 21
248.9257037694008
 31
0.0
  0
LINE
  5
16B
330
19
100
AcDbEntity
  8
4
100
AcDbLine
 10
875.7222156293242
 20
262.9257017694008
 30
0.0
 11
875.7222156293242
 21
248.9257037694008
 31
0.0
  0
LINE
  5
16C
330
19
100
AcDbEntity
  8
4
100
AcDbLine
 10
835.7222136293244
 20
262.9257017694008
 30
0.0
 11
875.7222156293242
 21
262.9257017694008
 31
0.0
  0
LINE
  5
16D
330
19
100
AcDbEntity
  8
4
100
AcDbLine
 10
837.7222146293243
 20
331.9257017694008
 30
0.0
 11
837.7222146293243
 21
262.9257017694008
 31
0.0
  0
LINE
  5
16E
330
19
100
AcDbEntity
  8
4
100
AcDbLine
 10
873.7222146293243
 20
331.9257017694008
 30
0.0
 11
873.7222146293243
 21
262.9257017694008
 31
0.0
  0
LINE
  5
16F
330
19
100
AcDbEntity
  8
4
100
AcDbLine
 10
838.7222136293244
 20
332.9257037694007
 30
0.0
 11
837.7222146293243
 21
331.9257017694008
 31
0.0
  0
LINE
  5
170
330
19
100
AcDbEntity
  8
4
100
AcDbLine
 10
872.7222156293242
 20
332.9257037694007
 30
0.0
 11
873.7222146293243
 21
331.9257017694008
 31
0.0
  0
LINE
  5
171
330
19
100
AcDbEntity
  8
4
100
AcDbLine
 10
837.7222146293243
 20
331.9257017694008
 30
0.0
 11
873.7222146293243
 21
331.9257017694008
 31
0.0
  0
LINE
  5
172
330
19
100
AcDbEntity
  8
4
100
AcDbLine
 10
834.2222136293244
 20
332.9257037694007
 30
0.0
 11
834.2222136293244
 21
267.9257027694007
 31
0.0
  0
LINE
  5
173
330
19
100
AcDbEntity
  8
4
100
AcDbLine
 10
834.2222136293244
 20
267.9257027694007
 30
0.0
 11
837.7222146293243
 21
267.9257027694007
 31
0.0
  0
LINE
  5
174
330
19
100
AcDbEntity
  8
4
100
AcDbLine
 10
834.2222136293244
 20
332.9257037694007
 30
0.0
 11
872.7222156293242
 21
332.9257037694007
 31
0.0
  0
CIRCLE
  5
175
330
19
100
AcDbEntity
  8
4
100
AcDbCircle
 10
935.7224346293242
 20
162.9257027694007
 30
0.0
 40
26.000001
  0
LINE
  5
176
330
19
100
AcDbEntity
  8
4
100
AcDbLine
 10
901.3918866293238
 20
197.0017487694008
 30
0.0
 11
858.7224336293239
 21
197.0017487694008
 31
0.0
  0
ARC
  5
177
330
19
100
AcDbEntity
  8
4
100
AcDbCircle
 10
901.3918866293238
 20
200.0017487694008
 30
0.0
 40
3.0
100
AcDbArc
 50
270.0
 51
279.736423999998
  0
LINE
  5
178
330
19
100
AcDbEntity
  8
4
100
AcDbLine
 10
901.3918866293238
 20
128.8496567694008
 30
0.0
 11
858.7224336293239
 21
128.8496567694008
 31
0.0
  0
ARC
  5
179
330
19
100
AcDbEntity
  8
4
100
AcDbCircle
 10
901.3918866293238
 20
125.8496567694008
 30
0.0
 40
3.0
100
AcDbArc
 50
80.26357600000208
 51
90.0
  0
ARC
  5
17A
330
19
100
AcDbEntity
  8
4
100
AcDbCircle
 10
858.7224336293239
 20
200.0017487694008
 30
0.0
 40
3.0
100
AcDbArc
 50
180.0
 51
270.0
  0
ARC
  5
17B
330
19
100
AcDbEntity
  8
4
100
AcDbCircle
 10
858.7224336293239
 20
125.8496567694008
 30
0.0
 40
3.0
100
AcDbArc
 50
90.0
 51
180.0
  0
LINE
  5
17C
330
19
100
AcDbEntity
  8
4
100
AcDbLine
 10
545.7553345416288
 20
174.4257017694008
 30
0.0
 11
594.7553335416283
 21
174.4257017694008
 31
0.0
  0
LINE
  5
17D
330
19
100
AcDbEntity
  8
4
100
AcDbLine
 10
550.7553355416287
 20
177.4257017694008
 30
0.0
 11
595.7553355416287
 21
177.4257017694008
 31
0.0
  0
LINE
  5
17E
330
19
100
AcDbEntity
  8
4
100
AcDbLine
 10
595.7553355416287
 20
177.4257017694008
 30
0.0
 11
595.7553355416287
 21
152.4257027694007
 31
0.0
  0
LINE
  5
17F
330
19
100
AcDbEntity
  8
4
100
AcDbLine
 10
594.7553335416283
 20
151.4257037694008
 30
0.0
 11
594.7553335416283
 21
174.4257017694008
 31
0.0
  0
LINE
  5
180
330
19
100
AcDbEntity
  8
4
100
AcDbLine
 10
595.7553355416287
 20
173.4257027694007
 30
0.0
 11
594.7553335416283
 21
174.4257017694008
 31
0.0
  0
LINE
  5
181
330
19
100
AcDbEntity
  8
4
100
AcDbLine
 10
545.7553345416288
 20
175.4257037694008
 30
0.0
 11
545.7553345416288
 21
150.4257017694008
 31
0.0
  0
LINE
  5
182
330
19
100
AcDbEntity
  8
4
100
AcDbLine
 10
536.7553325416288
 20
175.4257037694008
 30
0.0
 11
545.7553345416288
 21
175.4257037694008
 31
0.0
  0
LINE
  5
183
330
19
100
AcDbEntity
  8
4
100
AcDbLine
 10
550.7553355416287
 20
177.4257017694008
 30
0.0
 11
550.7553355416287
 21
174.4257017694008
 31
0.0
  0
LINE
  5
184
330
19
100
AcDbEntity
  8
4
100
AcDbLine
 10
545.7553345416288
 20
151.4257037694008
 30
0.0
 11
594.7553335416283
 21
151.4257037694008
 31
0.0
  0
LINE
  5
185
330
19
100
AcDbEntity
  8
4
100
AcDbLine
 10
594.7553335416283
 20
151.4257037694008
 30
0.0
 11
595.7553355416287
 21
152.4257027694007
 31
0.0
  0
LINE
  5
186
330
19
100
AcDbEntity
  8
4
100
AcDbLine
 10
536.7553325416288
 20
150.4257017694008
 30
0.0
 11
545.7553345416288
 21
150.4257017694008
 31
0.0
  0
LINE
  5
187
330
19
100
AcDbEntity
  8
4
100
AcDbLine
 10
939.2224346293242
 20
170.4257027694008
 30
0.0
 11
939.2224346293242
 21
177.4257027694008
 31
0.0
  0
ARC
  5
188
330
19
100
AcDbEntity
  8
4
100
AcDbCircle
 10
935.7224346293242
 20
162.9257027694007
 30
0.0
 40
11.5
100
AcDbArc
 50
107.7189318734094
 51
72.28107100000001
  0
LINE
  5
189
330
19
100
AcDbEntity
  8
4
100
AcDbLine
 10
939.2224346293242
 20
177.4257027694008
 30
0.0
 11
932.2224346293237
 21
177.4257027694008
 31
0.0
  0
LINE
  5
18A
330
19
100
AcDbEntity
  8
4
100
AcDbLine
 10
939.2224346293242
 20
170.4257027694008
 30
0.0
 11
932.2224346293237
 21
170.4257027694008
 31
0.0
  0
LINE
  5
18B
330
19
100
AcDbEntity
  8
4
100
AcDbLine
 10
932.2224346293237
 20
177.4257027694008
 30
0.0
 11
932.2224346293237
 21
170.4257027694008
 31
0.0
  0
LINE
  5
1F4
330
19
100
AcDbEntity
  8
4
100
AcDbLine
 10
513.2553335416289
 20
497.1890180010566
 30
0.0
 11
513.2553335416289
 21
571.1890180010566
 31
0.0
  0
LINE
  5
1F5
330
19
100
AcDbEntity
  8
4
100
AcDbLine
 10
238.2553335416285
 20
497.1890180010566
 30
0.0
 11
238.2553335416289
 21
571.1890180010566
 31
0.0
  0
LINE
  5
1F6
330
19
100
AcDbEntity
  8
L-CENTER
100
AcDbLine
 10
375.7553335416289
 20
486.6890180010566
 30
0.0
 11
375.7553335416289
 21
820.9646079217971
 31
0.0
  0
CIRCLE
  5
1F7
330
19
100
AcDbEntity
  8
4
100
AcDbCircle
 10
375.7553335416289
 20
649.1890180010566
 30
0.0
 40
152.5
  0
LINE
  5
1F8
330
19
100
AcDbEntity
  8
L-CENTER
100
AcDbLine
 10
505.2553335416289
 20
514.1890180010566
 30
0.0
 11
471.2553335416289
 21
514.1890180010566
 31
0.0
  0
LINE
  5
1F9
330
19
100
AcDbEntity
  8
4
100
AcDbLine
 10
450.2008286337061
 20
494.1890180010566
 30
0.0
 11
510.2553335416289
 21
494.1890180010566
 31
0.0
  0
LINE
  5
1FA
330
19
100
AcDbEntity
  8
4
100
AcDbLine
 10
304.6891999112338
 20
495.5039242286682
 30
0.0
 11
316.634695003311
 21
506.4583661637282
 31
0.0
  0
LINE
  5
1FB
330
19
100
AcDbEntity
  8
L-CENTER
100
AcDbLine
 10
263.2553335416285
 20
497.1890180010566
 30
0.0
 11
263.2553335416285
 21
531.1890180010566
 31
0.0
  0
LINE
  5
1FC
330
19
100
AcDbEntity
  8
4
100
AcDbLine
 10
241.2553335416285
 20
494.1890180010566
 30
0.0
 11
301.3098384495518
 21
494.1890180010566
 31
0.0
  0
ARC
  5
1FD
330
19
100
AcDbEntity
  8
4
100
AcDbCircle
 10
241.2553335416285
 20
497.1890180010566
 30
0.0
 40
3.0
100
AcDbArc
 50
180.0
 51
270.0
  0
ARC
  5
1FE
330
19
100
AcDbEntity
  8
4
100
AcDbCircle
 10
301.3098384495518
 20
499.1890180010566
 30
0.0
 40
5.0
100
AcDbArc
 50
270.0
 51
312.5219253973008
  0
LINE
  5
1FF
330
19
100
AcDbEntity
  8
L-CENTER
100
AcDbLine
 10
246.2553335416285
 20
514.1890180010566
 30
0.0
 11
280.2553335416285
 21
514.1890180010566
 31
0.0
  0
CIRCLE
  5
200
330
19
100
AcDbEntity
  8
4
100
AcDbCircle
 10
263.2553335416285
 20
514.1890180010566
 30
0.0
 40
7.0
  0
ARC
  5
201
330
19
100
AcDbEntity
  8
4
100
AcDbCircle
 10
313.2553335416289
 20
510.1434599361166
 30
0.0
 40
5.0
100
AcDbArc
 50
312.5219253972994
 51
336.1221703485127
  0
LINE
  5
202
330
19
100
AcDbEntity
  8
4
100
AcDbLine
 10
446.8214671720236
 20
495.5039242286682
 30
0.0
 11
434.8759720799469
 21
506.458366163728
 31
0.0
  0
ARC
  5
203
330
19
100
AcDbEntity
  8
4
100
AcDbCircle
 10
450.2008286337061
 20
499.1890180010566
 30
0.0
 40
5.0
100
AcDbArc
 50
227.4780746027006
 51
270.0
  0
ARC
  5
204
330
19
100
AcDbEntity
  8
4
100
AcDbCircle
 10
438.2553335416289
 20
510.1434599361164
 30
0.0
 40
5.0
100
AcDbArc
 50
203.8778296514859
 51
227.4780746027006
  0
LINE
  5
205
330
19
100
AcDbEntity
  8
L-CENTER
100
AcDbLine
 10
488.2553335416289
 20
497.1890180010566
 30
0.0
 11
488.2553335416289
 21
531.1890180010566
 31
0.0
  0
ARC
  5
206
330
19
100
AcDbEntity
  8
4
100
AcDbCircle
 10
510.2553335416289
 20
497.1890180010566
 30
0.0
 40
3.0
100
AcDbArc
 50
270.0
 51
0.0
  0
CIRCLE
  5
207
330
19
100
AcDbEntity
  8
4
100
AcDbCircle
 10
488.2553335416289
 20
514.1890180010566
 30
0.0
 40
7.0
  0
LINE
  5
208
330
19
100
AcDbEntity
  8
L-CENTER
100
AcDbLine
 10
505.2553335416285
 20
784.1890180010566
 30
0.0
 11
471.2553335416285
 21
784.1890180010566
 31
0.0
  0
LINE
  5
209
330
19
100
AcDbEntity
  8
4
100
AcDbLine
 10
450.2008286337061
 20
804.1890180010564
 30
0.0
 11
510.2553335416294
 21
804.1890180010564
 31
0.0
  0
LINE
  5
20A
330
19
100
AcDbEntity
  8
L-CENTER
100
AcDbLine
 10
213.2553335416289
 20
649.1890180010566
 30
0.0
 11
538.2553335416289
 21
649.1890180010566
 31
0.0
  0
LINE
  5
20B
330
19
100
AcDbEntity
  8
L-CENTER
100
AcDbLine
 10
599.9341914825837
 20
719.1890180010566
 30
0.0
 11
212.2928070051088
 21
719.1890180010566
 31
0.0
  0
LINE
  5
20C
330
19
100
AcDbEntity
  8
4
100
AcDbLine
 10
238.2553335416294
 20
756.1890180010566
 30
0.0
 11
238.2553335416294
 21
801.1890180010566
 31
0.0
  0
LINE
  5
20D
330
19
100
AcDbEntity
  8
4
100
AcDbLine
 10
223.2553335416289
 20
649.1890180010566
 30
0.0
 11
223.2553335416289
 21
682.1890180010566
 31
0.0
  0
LINE
  5
20E
330
19
100
AcDbEntity
  8
4
100
AcDbLine
 10
241.2553335416289
 20
574.1890180010566
 30
0.0
 11
242.9726162927338
 21
574.1890180010566
 31
0.0
  0
ARC
  5
20F
330
19
100
AcDbEntity
  8
4
100
AcDbCircle
 10
241.2553335416289
 20
571.1890180010566
 30
0.0
 40
3.0
100
AcDbArc
 50
90.0
 51
180.0
  0
LINE
  5
210
330
19
100
AcDbEntity
  8
4
100
AcDbLine
 10
267.0941629239699
 20
756.1890180010566
 30
0.0
 11
215.7553335416289
 21
756.1890180010566
 31
0.0
  0
LINE
  5
211
330
19
100
AcDbEntity
  8
4
100
AcDbLine
 10
215.7553335416289
 20
682.1890180010566
 30
0.0
 11
215.7553335416289
 21
756.1890180010566
 31
0.0
  0
LINE
  5
212
330
19
100
AcDbEntity
  8
4
100
AcDbLine
 10
224.3973142628345
 20
682.1890180010566
 30
0.0
 11
215.7553335416289
 21
682.1890180010566
 31
0.0
  0
ARC
  5
213
330
19
100
AcDbEntity
  8
4
100
AcDbCircle
 10
224.3973142628345
 20
680.1890180010566
 30
0.0
 40
2.0
100
AcDbArc
 50
348.4251890529296
 51
90.0
  0
LINE
  5
214
330
19
100
AcDbEntity
  8
4
100
AcDbLine
 10
304.6891999112343
 20
802.8741117734453
 30
0.0
 11
316.6346950033114
 21
791.919669838386
 31
0.0
  0
LINE
  5
215
330
19
100
AcDbEntity
  8
L-CENTER
100
AcDbLine
 10
246.2553335416294
 20
784.1890180010566
 30
0.0
 11
280.2553335416294
 21
784.1890180010566
 31
0.0
  0
LINE
  5
216
330
19
100
AcDbEntity
  8
4
100
AcDbLine
 10
241.2553335416294
 20
804.1890180010566
 30
0.0
 11
301.3098384495522
 21
804.1890180010566
 31
0.0
  0
ARC
  5
217
330
19
100
AcDbEntity
  8
4
100
AcDbCircle
 10
241.2553335416294
 20
801.1890180010566
 30
0.0
 40
3.0
100
AcDbArc
 50
90.0
 51
180.0
  0
CIRCLE
  5
218
330
19
100
AcDbEntity
  8
4
100
AcDbCircle
 10
263.2553335416294
 20
784.1890180010566
 30
0.0
 40
7.0
  0
LINE
  5
219
330
19
100
AcDbEntity
  8
L-CENTER
100
AcDbLine
 10
263.2553335416294
 20
767.1890180010566
 30
0.0
 11
263.2553335416294
 21
801.1890180010566
 31
0.0
  0
ARC
  5
21A
330
19
100
AcDbEntity
  8
4
100
AcDbCircle
 10
301.3098384495518
 20
799.1890180010566
 30
0.0
 40
5.0
100
AcDbArc
 50
47.4780746027024
 51
90.0
  0
ARC
  5
21B
330
19
100
AcDbEntity
  8
4
100
AcDbCircle
 10
313.2553335416289
 20
788.2345760659973
 30
0.0
 40
5.0
100
AcDbArc
 50
23.8778296514818
 51
47.4780746027024
  0
LINE
  5
21C
330
19
100
AcDbEntity
  8
4
100
AcDbLine
 10
391.7553335416289
 20
800.8473511054397
 30
0.0
 11
391.7553335416289
 21
805.6890180010566
 31
0.0
  0
LINE
  5
21D
330
19
100
AcDbEntity
  8
4
100
AcDbLine
 10
359.7553335416289
 20
800.8473511054397
 30
0.0
 11
359.7553335416289
 21
805.6890180010566
 31
0.0
  0
LINE
  5
21E
330
19
100
AcDbEntity
  8
4
100
AcDbLine
 10
359.7553335416289
 20
805.6890180010566
 30
0.0
 11
391.7553335416289
 21
805.6890180010566
 31
0.0
  0
ARC
  5
21F
330
19
100
AcDbEntity
  8
4
100
AcDbCircle
 10
450.2008286337061
 20
799.1890180010564
 30
0.0
 40
5.0
100
AcDbArc
 50
90.0
 51
132.5219253973008
  0
LINE
  5
220
330
19
100
AcDbEntity
  8
4
100
AcDbLine
 10
446.8214671720241
 20
802.8741117734448
 30
0.0
 11
434.8759720799469
 21
791.9196698383853
 31
0.0
  0
ARC
  5
221
330
19
100
AcDbEntity
  8
4
100
AcDbCircle
 10
438.2553335416294
 20
788.2345760659969
 30
0.0
 40
5.0
100
AcDbArc
 50
132.5219253973008
 51
156.1221703485156
  0
LINE
  5
222
330
19
100
AcDbEntity
  8
4
100
AcDbLine
 10
513.2553335416289
 20
756.1890180010566
 30
0.0
 11
513.2553335416294
 21
801.1890180010564
 31
0.0
  0
LINE
  5
223
330
19
100
AcDbEntity
  8
4
100
AcDbLine
 10
528.2553335416289
 20
649.1890180010566
 30
0.0
 11
528.2553335416289
 21
682.1890180010566
 31
0.0
  0
ARC
  5
224
330
19
100
AcDbEntity
  8
4
100
AcDbCircle
 10
510.2553335416285
 20
571.1890180010566
 30
0.0
 40
3.0
100
AcDbArc
 50
0.0
 51
90.0
  0
LINE
  5
225
330
19
100
AcDbEntity
  8
4
100
AcDbLine
 10
508.538050790524
 20
574.1890180010566
 30
0.0
 11
510.2553335416289
 21
574.1890180010566
 31
0.0
  0
LINE
  5
226
330
19
100
AcDbEntity
  8
4
100
AcDbLine
 10
535.7553335416292
 20
682.1890180010566
 30
0.0
 11
535.7553335416289
 21
756.1890180010566
 31
0.0
  0
ARC
  5
227
330
19
100
AcDbEntity
  8
4
100
AcDbCircle
 10
527.1133528204234
 20
680.1890180010566
 30
0.0
 40
2.0
100
AcDbArc
 50
90.0
 51
191.5748109470706
  0
LINE
  5
228
330
19
100
AcDbEntity
  8
4
100
AcDbLine
 10
535.7553335416292
 20
682.1890180010566
 30
0.0
 11
527.1133528204234
 21
682.1890180010566
 31
0.0
  0
LINE
  5
229
330
19
100
AcDbEntity
  8
4
100
AcDbLine
 10
535.7553335416289
 20
756.1890180010566
 30
0.0
 11
484.416504159288
 21
756.1890180010566
 31
0.0
  0
ARC
  5
22A
330
19
100
AcDbEntity
  8
4
100
AcDbCircle
 10
510.2553335416289
 20
801.1890180010562
 30
0.0
 40
3.0
100
AcDbArc
 50
0.0
 51
90.0
  0
CIRCLE
  5
22B
330
19
100
AcDbEntity
  8
4
100
AcDbCircle
 10
488.2553335416285
 20
784.1890180010566
 30
0.0
 40
7.0
  0
LINE
  5
22C
330
19
100
AcDbEntity
  8
L-CENTER
100
AcDbLine
 10
488.2553335416285
 20
767.1890180010566
 30
0.0
 11
488.2553335416285
 21
801.1890180010566
 31
0.0
  0
LINE
  5
22D
330
19
100
AcDbEntity
  8
L-CENTER
100
AcDbLine
 10
865.7224336293239
 20
108.6705325906501
 30
0.0
 11
865.7224336293239
 21
252.9739471308262
 31
0.0
  0
LINE
  5
22E
330
19
100
AcDbEntity
  8
L-CENTER
100
AcDbLine
 10
396.7553335416292
 20
629.1890180010566
 30
0.0
 11
486.7553335416292
 21
629.1890180010566
 31
0.0
  0
ARC
  5
22F
330
19
100
AcDbEntity
  8
4
100
AcDbCircle
 10
375.7553335416289
 20
302.1890180010566
 30
0.0
 40
400.0
100
AcDbArc
 50
75.13455496791134
 51
87.71293734639477
  0
CIRCLE
  5
230
330
19
100
AcDbEntity
  8
4
100
AcDbCircle
 10
441.7553335416292
 20
629.1890180010566
 30
0.0
 40
31.0
  0
ARC
  5
231
330
19
100
AcDbEntity
  8
4
100
AcDbCircle
 10
375.7553335416292
 20
976.1890180010566
 30
0.0
 40
400.0
100
AcDbArc
 50
256.9356928517014
 51
267.7129373463949
  0
ARC
  5
232
330
19
100
AcDbEntity
  8
4
100
AcDbCircle
 10
375.7553335416292
 20
976.1890180010566
 30
0.0
 40
400.0
100
AcDbArc
 50
272.2870626536051
 51
283.0643071482986
  0
CIRCLE
  5
233
330
19
100
AcDbEntity
  8
4
100
AcDbCircle
 10
375.7553335416292
 20
649.1890180010566
 30
0.0
 40
128.0
  0
CIRCLE
  5
234
330
19
100
AcDbEntity
  8
4
100
AcDbCircle
 10
375.7553335416292
 20
649.1890180010566
 30
0.0
 40
110.0
  0
CIRCLE
  5
236
330
19
100
AcDbEntity
  8
4
100
AcDbCircle
 10
441.7553335416292
 20
629.1890180010566
 30
0.0
 40
39.0
  0
LINE
  5
237
330
19
100
AcDbEntity
  8
L-CENTER
100
AcDbLine
 10
347.283115403173
 20
582.4989233048748
 30
0.0
 11
347.2831154031733
 21
695.8791126972385
 31
0.0
  0
LINE
  5
238
330
19
100
AcDbEntity
  8
L-CENTER
100
AcDbLine
 10
323.7866003941272
 20
559.1765317845943
 30
0.0
 11
307.7240666891312
 21
531.3554073092537
 31
0.0
  0
LINE
  5
239
330
19
100
AcDbEntity
  8
L-CENTER
100
AcDbLine
 10
290.5930207069912
 20
639.1890180010566
 30
0.0
 11
403.9732100993549
 21
639.1890180010566
 31
0.0
  0
CIRCLE
  5
23A
330
19
100
AcDbEntity
  8
4
100
AcDbCircle
 10
347.2831154031733
 20
639.1890180010566
 30
0.0
 40
40.0
  0
CIRCLE
  5
23B
330
19
100
AcDbEntity
  8
4
100
AcDbCircle
 10
347.2831154031733
 20
639.1890180010566
 30
0.0
 40
49.0
  0
ARC
  5
23C
330
19
100
AcDbEntity
  8
4
100
AcDbCircle
 10
375.7553335416289
 20
302.1890180010566
 30
0.0
 40
400.0
100
AcDbArc
 50
92.28706265360513
 51
104.8654450320886
  0
CIRCLE
  5
23D
330
19
100
AcDbEntity
  8
4
100
AcDbCircle
 10
375.7553335416292
 20
710.1890180010566
 30
0.0
 40
18.0
  0
LINE
  5
23E
330
19
100
AcDbEntity
  8
L-CENTER
100
AcDbLine
 10
441.7553335416292
 20
584.1890180010566
 30
0.0
 11
441.7553335416292
 21
674.1890180010566
 31
0.0
  0
LINE
  5
23F
330
19
100
AcDbEntity
  8
L-CENTER
100
AcDbLine
 10
255.7556256800849
 20
249.1939866070684
 30
0.0
 11
255.7556256800849
 21
215.1073441831123
 31
0.0
  0
LINE
  5
240
330
19
100
AcDbEntity
  8
L-CENTER
100
AcDbLine
 10
315.7556256800851
 20
249.1939866070684
 30
0.0
 11
315.7556256800851
 21
215.1073441831123
 31
0.0
  0
LINE
  5
241
330
19
100
AcDbEntity
  8
4
100
AcDbLine
 10
308.5056256800851
 20
237.9257027694007
 30
0.0
 11
265.7553325416291
 21
237.9257027694007
 31
0.0
  0
ARC
  5
242
330
19
100
AcDbEntity
  8
4
100
AcDbCircle
 10
375.7553335416289
 20
-957.0220512305993
 30
0.0
 40
1199.999964
100
AcDbArc
 50
93.17675463675855
 51
95.25966500000001
  0
LINE
  5
243
330
19
100
AcDbEntity
  8
4
100
AcDbLine
 10
503.7553345416288
 20
222.9257027694007
 30
0.0
 11
503.7553345416288
 21
235.9257017694008
 31
0.0
  0
LINE
  5
244
330
19
100
AcDbEntity
  8
4
100
AcDbLine
 10
428.5050414031728
 20
237.9257027694007
 30
0.0
 11
323.0056256800851
 21
237.9257027694007
 31
0.0
  0
ARC
  5
245
330
19
100
AcDbEntity
  8
4
100
AcDbCircle
 10
375.7553335416289
 20
-957.0220512305993
 30
0.0
 40
1199.999964
100
AcDbArc
 50
87.44473006020712
 51
89.14053104937804
  0
ARC
  5
246
330
19
100
AcDbEntity
  8
4
100
AcDbCircle
 10
375.7553335416289
 20
-957.0220512305993
 30
0.0
 40
1199.999964
100
AcDbArc
 50
90.85946895062189
 51
92.55526993979284
  0
LINE
  5
247
330
19
100
AcDbEntity
  8
L-CENTER
100
AcDbLine
 10
761.7993851751917
 20
248.114450698075
 30
0.0
 11
761.7993851751917
 21
215.1073441831123
 31
0.0
  0
LINE
  5
248
330
19
100
AcDbEntity
  8
L-CENTER
100
AcDbLine
 10
969.6454820834565
 20
248.114450698075
 30
0.0
 11
969.6454820834565
 21
215.1073441831123
 31
0.0
  0
ARC
  5
249
330
19
100
AcDbEntity
  8
4
100
AcDbCircle
 10
865.7224326293244
 20
-957.0220512305993
 30
0.0
 40
1200.000015
100
AcDbArc
 50
90.31035358118537
 51
94.65673293387069
  0
LINE
  5
24A
330
19
100
AcDbEntity
  8
4
100
AcDbLine
 10
214.7553315416292
 20
188.9257027694007
 30
0.0
 11
215.7553315416292
 21
188.9257027694007
 31
0.0
  0
LINE
  5
24B
330
19
100
AcDbEntity
  8
4
100
AcDbLine
 10
214.7553315416292
 20
136.9257027694007
 30
0.0
 11
215.7553315416292
 21
136.9257027694008
 31
0.0
  0
LINE
  5
24C
330
19
100
AcDbEntity
  8
4
100
AcDbLine
 10
214.7553315416292
 20
136.9257027694008
 30
0.0
 11
214.7553315416292
 21
188.9257027694007
 31
0.0
  0
LINE
  5
24D
330
19
100
AcDbEntity
  8
4
100
AcDbLine
 10
536.7553325416291
 20
136.9257027694008
 30
0.0
 11
536.7553325416291
 21
188.9257027694007
 31
0.0
  0
LINE
  5
24E
330
19
100
AcDbEntity
  8
4
100
AcDbLine
 10
535.7553325416291
 20
188.9257027694007
 30
0.0
 11
536.7553325416291
 21
188.9257027694007
 31
0.0
  0
LINE
  5
24F
330
19
100
AcDbEntity
  8
4
100
AcDbLine
 10
535.7553325416291
 20
136.9257027694008
 30
0.0
 11
536.7553325416291
 21
136.9257027694008
 31
0.0
  0
LINE
  5
25C
330
19
100
AcDbEntity
  8
4
100
AcDbLine
 10
594.7553335416292
 20
707.6890180010566
 30
0.0
 11
546.7553335416292
 21
707.6890180010566
 31
0.0
  0
LINE
  5
25D
330
19
100
AcDbEntity
  8
4
100
AcDbLine
 10
595.7553335416292
 20
715.6890180010566
 30
0.0
 11
554.2553335416292
 21
715.6890180010566
 31
0.0
  0
LINE
  5
25E
330
19
100
AcDbEntity
  8
4
100
AcDbLine
 10
595.7553335416292
 20
722.6890180010566
 30
0.0
 11
554.2553335416292
 21
722.6890180010566
 31
0.0
  0
LINE
  5
25F
330
19
100
AcDbEntity
  8
4
100
AcDbLine
 10
594.7553335416292
 20
730.6890180010566
 30
0.0
 11
546.7553335416292
 21
730.6890180010566
 31
0.0
  0
ARC
  5
260
330
19
100
AcDbEntity
  8
4
100
AcDbCircle
 10
546.7553335416292
 20
731.6890180010566
 30
0.0
 40
1.0
100
AcDbArc
 50
180.0
 51
270.0
  0
ARC
  5
261
330
19
100
AcDbEntity
  8
4
100
AcDbCircle
 10
546.7553335416292
 20
706.6890180010566
 30
0.0
 40
1.0
100
AcDbArc
 50
90.0
 51
180.0
  0
ARC
  5
262
330
19
100
AcDbEntity
  8
4
100
AcDbCircle
 10
554.2553335416292
 20
719.1890180010566
 30
0.0
 40
3.5
100
AcDbArc
 50
90.0
 51
270.0
  0
LINE
  5
263
330
19
100
AcDbEntity
  8
4
100
AcDbLine
 10
545.7553335416292
 20
731.6890180010566
 30
0.0
 11
545.7553335416292
 21
706.6890180010566
 31
0.0
  0
LINE
  5
264
330
19
100
AcDbEntity
  8
4
100
AcDbLine
 10
594.7553335416292
 20
730.6890180010566
 30
0.0
 11
595.7553335416292
 21
729.6890180010566
 31
0.0
  0
LINE
  5
265
330
19
100
AcDbEntity
  8
4
100
AcDbLine
 10
594.7553335416292
 20
707.6890180010566
 30
0.0
 11
595.7553335416292
 21
708.6890180010566
 31
0.0
  0
LINE
  5
266
330
19
100
AcDbEntity
  8
4
100
AcDbLine
 10
594.7553335416292
 20
715.6890180010566
 30
0.0
 11
594.7553335416292
 21
707.6890180010566
 31
0.0
  0
LINE
  5
267
330
19
100
AcDbEntity
  8
4
100
AcDbLine
 10
595.7553335416292
 20
729.6890180010566
 30
0.0
 11
595.7553335416292
 21
708.6890180010566
 31
0.0
  0
LINE
  5
268
330
19
100
AcDbEntity
  8
4
100
AcDbLine
 10
594.7553335416292
 20
730.6890180010566
 30
0.0
 11
594.7553335416292
 21
722.6890180010566
 31
0.0
  0
LINE
  5
269
330
19
100
AcDbEntity
  8
4
100
AcDbLine
 10
545.7553335416292
 20
731.6890180010566
 30
0.0
 11
536.7553325416291
 21
731.6890180010566
 31
0.0
  0
LINE
  5
26A
330
19
100
AcDbEntity
  8
4
100
AcDbLine
 10
545.7553335416292
 20
706.6890180010566
 30
0.0
 11
536.7553325416291
 21
706.6890180010566
 31
0.0
  0
LINE
  5
26B
330
19
100
AcDbEntity
  8
4
100
AcDbLine
 10
214.7553315416292
 20
693.1890180010566
 30
0.0
 11
214.7553315416292
 21
745.1890180010566
 31
0.0
  0
LINE
  5
26C
330
19
100
AcDbEntity
  8
4
100
AcDbLine
 10
214.7553315416292
 20
693.1890180010566
 30
0.0
 11
215.7553315416292
 21
693.1890180010566
 31
0.0
  0
LINE
  5
26D
330
19
100
AcDbEntity
  8
4
100
AcDbLine
 10
214.7553315416292
 20
745.1890180010566
 30
0.0
 11
215.7553315416292
 21
745.1890180010566
 31
0.0
  0
LINE
  5
26E
330
19
100
AcDbEntity
  8
4
100
AcDbLine
 10
536.7553325416291
 20
693.1890180010566
 30
0.0
 11
536.7553325416291
 21
745.1890180010566
 31
0.0
  0
LINE
  5
26F
330
19
100
AcDbEntity
  8
4
100
AcDbLine
 10
535.7553325416291
 20
693.1890180010566
 30
0.0
 11
536.7553325416291
 21
693.1890180010566
 31
0.0
  0
LINE
  5
270
330
19
100
AcDbEntity
  8
4
100
AcDbLine
 10
535.7553325416291
 20
745.1890180010566
 30
0.0
 11
536.7553325416291
 21
745.1890180010566
 31
0.0
  0
ARC
  5
271
330
19
100
AcDbEntity
  8
4
100
AcDbCircle
 10
347.283115403173
 20
639.1890180010566
 30
0.0
 40
17.999945
100
AcDbArc
 50
286.1276708362457
 51
253.8722799999999
  0
LINE
  5
272
330
19
100
AcDbEntity
  8
4
100
AcDbLine
 10
342.283115403173
 20
617.6890180010566
 30
0.0
 11
342.283115403173
 21
625.6890180010566
 31
0.0
  0
LINE
  5
273
330
19
100
AcDbEntity
  8
4
100
AcDbLine
 10
352.283115403173
 20
625.6890180010566
 30
0.0
 11
352.283115403173
 21
617.6890180010566
 31
0.0
  0
LINE
  5
274
330
19
100
AcDbEntity
  8
4
100
AcDbLine
 10
342.283115403173
 20
617.6890180010566
 30
0.0
 11
352.283115403173
 21
617.6890180010566
 31
0.0
  0
LINE
  5
275
330
19
100
AcDbEntity
  8
4
100
AcDbLine
 10
342.283115403173
 20
625.6890180010566
 30
0.0
 11
352.283115403173
 21
625.6890180010566
 31
0.0
  0
LINE
  5
276
330
19
100
AcDbEntity
  8
4
100
AcDbLine
 10
388.7457145983956
 20
814.1890180010562
 30
0.0
 11
362.7649524848623
 21
814.1890180010566
 31
0.0
  0
LINE
  5
277
330
19
100
AcDbEntity
  8
4
100
AcDbLine
 10
389.7553335416289
 20
805.6890180010566
 30
0.0
 11
361.7553335416289
 21
805.6890180010566
 31
0.0
  0
LINE
  5
278
330
19
100
AcDbEntity
  8
4
100
AcDbLine
 10
390.7553335416289
 20
809.1890180010566
 30
0.0
 11
360.7553335416289
 21
809.1890180010566
 31
0.0
  0
LINE
  5
279
330
19
100
AcDbEntity
  8
4
100
AcDbLine
 10
390.7553335416289
 20
807.1890180010566
 30
0.0
 11
360.7553335416289
 21
807.1890180010566
 31
0.0
  0
LINE
  5
27A
330
19
100
AcDbEntity
  8
4
100
AcDbLine
 10
390.7553335416289
 20
807.1890180010566
 30
0.0
 11
390.7553335416289
 21
809.1890180010562
 31
0.0
  0
LINE
  5
27B
330
19
100
AcDbEntity
  8
4
100
AcDbLine
 10
389.7553335416289
 20
807.1890180010566
 30
0.0
 11
389.7553335416289
 21
805.6890180010566
 31
0.0
  0
LINE
  5
27C
330
19
100
AcDbEntity
  8
4
100
AcDbLine
 10
388.7457145983956
 20
814.1890180010566
 30
0.0
 11
388.7457145983956
 21
809.1890180010566
 31
0.0
  0
LINE
  5
27D
330
19
100
AcDbEntity
  8
4
100
AcDbLine
 10
360.7553335416289
 20
809.1890180010562
 30
0.0
 11
360.7553335416289
 21
807.1890180010566
 31
0.0
  0
LINE
  5
27E
330
19
100
AcDbEntity
  8
4
100
AcDbLine
 10
361.7553335416289
 20
807.1890180010566
 30
0.0
 11
361.7553335416289
 21
805.6890180010566
 31
0.0
  0
LINE
  5
27F
330
19
100
AcDbEntity
  8
4
100
AcDbLine
 10
362.7649524848623
 20
814.1890180010566
 30
0.0
 11
362.7649524848623
 21
809.1890180010562
 31
0.0
  0
LINE
  5
280
330
19
100
AcDbEntity
  8
4
100
AcDbLine
 10
263.0056256800849
 20
237.9257017694008
 30
0.0
 11
248.5056256800849
 21
237.9257017694009
 31
0.0
  0
LINE
  5
281
330
19
100
AcDbEntity
  8
4
100
AcDbLine
 10
262.2556256800849
 20
245.9257017694008
 30
0.0
 11
249.2556256800849
 21
245.9257017694008
 31
0.0
  0
LINE
  5
282
330
19
100
AcDbEntity
  8
4
100
AcDbLine
 10
263.0056256800849
 20
237.9257017694008
 30
0.0
 11
263.0056256800849
 21
235.9257017694008
 31
0.0
  0
LINE
  5
283
330
19
100
AcDbEntity
  8
4
100
AcDbLine
 10
248.5056256800849
 20
237.9257017694009
 30
0.0
 11
248.5056256800849
 21
235.9257017694008
 31
0.0
  0
LINE
  5
284
330
19
100
AcDbEntity
  8
4
100
AcDbLine
 10
262.2556256800849
 20
245.9257017694008
 30
0.0
 11
262.2556256800849
 21
237.9257017694008
 31
0.0
  0
LINE
  5
285
330
19
100
AcDbEntity
  8
4
100
AcDbLine
 10
249.2556256800849
 20
245.9257017694008
 30
0.0
 11
249.2556256800849
 21
237.9257017694008
 31
0.0
  0
LINE
  5
286
330
19
100
AcDbEntity
  8
2
100
AcDbLine
 10
257.7556256800849
 20
237.9257017694008
 30
0.0
 11
255.7556256800849
 21
235.9257017694008
 31
0.0
  0
LINE
  5
287
330
19
100
AcDbEntity
  8
2
100
AcDbLine
 10
254.9271985553387
 20
237.9257017694009
 30
0.0
 11
252.9271985553387
 21
235.9257017694008
 31
0.0
  0
LINE
  5
288
330
19
100
AcDbEntity
  8
2
100
AcDbLine
 10
317.7556256800851
 20
237.9257017694008
 30
0.0
 11
315.7556256800851
 21
235.9257017694008
 31
0.0
  0
LINE
  5
289
330
19
100
AcDbEntity
  8
2
100
AcDbLine
 10
314.9271985553389
 20
237.9257017694009
 30
0.0
 11
312.9271985553389
 21
235.9257017694008
 31
0.0
  0
LINE
  5
28A
330
19
100
AcDbEntity
  8
4
100
AcDbLine
 10
323.0056256800851
 20
237.9257017694008
 30
0.0
 11
323.0056256800851
 21
235.9257017694008
 31
0.0
  0
LINE
  5
28B
330
19
100
AcDbEntity
  8
4
100
AcDbLine
 10
308.5056256800851
 20
237.9257017694009
 30
0.0
 11
308.5056256800851
 21
235.9257017694008
 31
0.0
  0
LINE
  5
28C
330
19
100
AcDbEntity
  8
4
100
AcDbLine
 10
323.0056256800851
 20
237.9257017694008
 30
0.0
 11
308.5056256800851
 21
237.9257017694009
 31
0.0
  0
LINE
  5
28D
330
19
100
AcDbEntity
  8
4
100
AcDbLine
 10
322.2556256800851
 20
245.9257017694008
 30
0.0
 11
309.2556256800851
 21
245.9257017694008
 31
0.0
  0
LINE
  5
28E
330
19
100
AcDbEntity
  8
4
100
AcDbLine
 10
309.2556256800851
 20
245.9257017694008
 30
0.0
 11
309.2556256800851
 21
237.9257017694008
 31
0.0
  0
LINE
  5
28F
330
19
100
AcDbEntity
  8
4
100
AcDbLine
 10
322.2556256800851
 20
245.9257017694008
 30
0.0
 11
322.2556256800851
 21
237.9257017694008
 31
0.0
  0
LINE
  5
290
330
19
100
AcDbEntity
  8
2
100
AcDbLine
 10
493.755041403173
 20
237.9257017694008
 30
0.0
 11
495.755041403173
 21
235.9257017694008
 31
0.0
  0
LINE
  5
291
330
19
100
AcDbEntity
  8
2
100
AcDbLine
 10
496.5834685279192
 20
237.9257017694009
 30
0.0
 11
498.5834685279192
 21
235.9257017694008
 31
0.0
  0
LINE
  5
292
330
19
100
AcDbEntity
  8
4
100
AcDbLine
 10
488.505041403173
 20
237.9257017694008
 30
0.0
 11
488.505041403173
 21
235.9257017694008
 31
0.0
  0
LINE
  5
293
330
19
100
AcDbEntity
  8
4
100
AcDbLine
 10
503.005041403173
 20
237.9257017694009
 30
0.0
 11
503.005041403173
 21
235.9257017694008
 31
0.0
  0
LINE
  5
294
330
19
100
AcDbEntity
  8
4
100
AcDbLine
 10
488.505041403173
 20
237.9257017694008
 30
0.0
 11
503.005041403173
 21
237.9257017694009
 31
0.0
  0
LINE
  5
295
330
19
100
AcDbEntity
  8
4
100
AcDbLine
 10
489.255041403173
 20
245.9257017694008
 30
0.0
 11
502.255041403173
 21
245.9257017694008
 31
0.0
  0
LINE
  5
296
330
19
100
AcDbEntity
  8
4
100
AcDbLine
 10
502.255041403173
 20
245.9257017694008
 30
0.0
 11
502.255041403173
 21
237.9257017694008
 31
0.0
  0
LINE
  5
297
330
19
100
AcDbEntity
  8
4
100
AcDbLine
 10
489.255041403173
 20
245.9257017694008
 30
0.0
 11
489.255041403173
 21
237.9257017694008
 31
0.0
  0
LINE
  5
298
330
19
100
AcDbEntity
  8
L-CENTER
100
AcDbLine
 10
495.755041403173
 20
249.1939866070684
 30
0.0
 11
495.755041403173
 21
215.1073441831123
 31
0.0
  0
LINE
  5
299
330
19
100
AcDbEntity
  8
4
100
AcDbLine
 10
443.0050414031728
 20
237.9257017694009
 30
0.0
 11
443.0050414031728
 21
235.9257017694008
 31
0.0
  0
LINE
  5
29A
330
19
100
AcDbEntity
  8
4
100
AcDbLine
 10
428.5050414031728
 20
237.9257017694008
 30
0.0
 11
428.5050414031728
 21
235.9257017694008
 31
0.0
  0
LINE
  5
29B
330
19
100
AcDbEntity
  8
2
100
AcDbLine
 10
436.583468527919
 20
237.9257017694009
 30
0.0
 11
438.583468527919
 21
235.9257017694008
 31
0.0
  0
LINE
  5
29C
330
19
100
AcDbEntity
  8
2
100
AcDbLine
 10
433.7550414031728
 20
237.9257017694008
 30
0.0
 11
435.7550414031728
 21
235.9257017694008
 31
0.0
  0
LINE
  5
29D
330
19
100
AcDbEntity
  8
4
100
AcDbLine
 10
429.2550414031728
 20
245.9257017694008
 30
0.0
 11
442.2550414031728
 21
245.9257017694008
 31
0.0
  0
LINE
  5
29E
330
19
100
AcDbEntity
  8
4
100
AcDbLine
 10
428.5050414031728
 20
237.9257017694008
 30
0.0
 11
443.0050414031728
 21
237.9257017694009
 31
0.0
  0
LINE
  5
29F
330
19
100
AcDbEntity
  8
4
100
AcDbLine
 10
442.2550414031728
 20
245.9257017694008
 30
0.0
 11
442.2550414031728
 21
237.9257017694008
 31
0.0
  0
LINE
  5
2A0
330
19
100
AcDbEntity
  8
4
100
AcDbLine
 10
429.2550414031728
 20
245.9257017694008
 30
0.0
 11
429.2550414031728
 21
237.9257017694008
 31
0.0
  0
LINE
  5
2A1
330
19
100
AcDbEntity
  8
L-CENTER
100
AcDbLine
 10
435.7550414031728
 20
249.1939866070684
 30
0.0
 11
435.7550414031728
 21
215.1073441831123
 31
0.0
  0
LINE
  5
2A2
330
19
100
AcDbEntity
  8
4
100
AcDbLine
 10
769.0493851751917
 20
237.9257017694009
 30
0.0
 11
769.0493851751917
 21
235.9257017694008
 31
0.0
  0
LINE
  5
2A3
330
19
100
AcDbEntity
  8
4
100
AcDbLine
 10
755.2993851751917
 20
245.9257017694008
 30
0.0
 11
768.2993851751917
 21
245.9257017694008
 31
0.0
  0
LINE
  5
2A4
330
19
100
AcDbEntity
  8
4
100
AcDbLine
 10
754.5493851751917
 20
237.9257017694008
 30
0.0
 11
769.0493851751917
 21
237.9257017694009
 31
0.0
  0
LINE
  5
2A5
330
19
100
AcDbEntity
  8
4
100
AcDbLine
 10
768.2993851751917
 20
245.9257017694008
 30
0.0
 11
768.2993851751917
 21
237.9257017694008
 31
0.0
  0
LINE
  5
2A6
330
19
100
AcDbEntity
  8
4
100
AcDbLine
 10
755.2993851751917
 20
245.9257017694008
 30
0.0
 11
755.2993851751917
 21
237.9257017694008
 31
0.0
  0
LINE
  5
2A7
330
19
100
AcDbEntity
  8
4
100
AcDbLine
 10
754.5493851751917
 20
237.9257017694008
 30
0.0
 11
754.5493851751917
 21
235.9257017694008
 31
0.0
  0
LINE
  5
2A8
330
19
100
AcDbEntity
  8
4
100
AcDbLine
 10
858.472434129324
 20
237.9257017694008
 30
0.0
 11
872.972434129324
 21
237.9257017694009
 31
0.0
  0
LINE
  5
2A9
330
19
100
AcDbEntity
  8
4
100
AcDbLine
 10
859.222434129324
 20
245.9257017694008
 30
0.0
 11
872.222434129324
 21
245.9257017694008
 31
0.0
  0
LINE
  5
2AA
330
19
100
AcDbEntity
  8
4
100
AcDbLine
 10
858.472434129324
 20
237.9257017694008
 30
0.0
 11
858.472434129324
 21
235.9257017694008
 31
0.0
  0
LINE
  5
2AB
330
19
100
AcDbEntity
  8
4
100
AcDbLine
 10
859.222434129324
 20
245.9257017694008
 30
0.0
 11
859.222434129324
 21
237.9257017694008
 31
0.0
  0
LINE
  5
2AC
330
19
100
AcDbEntity
  8
4
100
AcDbLine
 10
872.972434129324
 20
237.9257017694009
 30
0.0
 11
872.972434129324
 21
235.9257017694008
 31
0.0
  0
LINE
  5
2AD
330
19
100
AcDbEntity
  8
4
100
AcDbLine
 10
872.222434129324
 20
245.9257017694008
 30
0.0
 11
872.222434129324
 21
237.9257017694008
 31
0.0
  0
LINE
  5
2AE
330
19
100
AcDbEntity
  8
4
100
AcDbLine
 10
962.3954820834565
 20
237.9257017694008
 30
0.0
 11
976.8954820834565
 21
237.9257017694009
 31
0.0
  0
LINE
  5
2AF
330
19
100
AcDbEntity
  8
4
100
AcDbLine
 10
963.1454820834565
 20
245.9257017694008
 30
0.0
 11
976.1454820834565
 21
245.9257017694008
 31
0.0
  0
LINE
  5
2B0
330
19
100
AcDbEntity
  8
4
100
AcDbLine
 10
962.3954820834565
 20
237.9257017694008
 30
0.0
 11
962.3954820834565
 21
235.9257017694008
 31
0.0
  0
LINE
  5
2B1
330
19
100
AcDbEntity
  8
4
100
AcDbLine
 10
963.1454820834565
 20
245.9257017694008
 30
0.0
 11
963.1454820834565
 21
237.9257017694008
 31
0.0
  0
LINE
  5
2B2
330
19
100
AcDbEntity
  8
4
100
AcDbLine
 10
976.8954820834565
 20
237.9257017694009
 30
0.0
 11
976.8954820834565
 21
235.9257017694008
 31
0.0
  0
LINE
  5
2B3
330
19
100
AcDbEntity
  8
4
100
AcDbLine
 10
976.1454820834565
 20
245.9257017694008
 30
0.0
 11
976.1454820834565
 21
237.9257017694008
 31
0.0
  0
CIRCLE
  5
2B4
330
19
100
AcDbEntity
  8
4
100
AcDbCircle
 10
255.7553335416289
 20
649.1890180010566
 30
0.0
 40
7.25
  0
CIRCLE
  5
2B5
330
19
100
AcDbEntity
  8
4
100
AcDbCircle
 10
255.7553335416289
 20
649.1890180010566
 30
0.0
 40
6.5
  0
LINE
  5
2B6
330
19
100
AcDbEntity
  8
2
100
AcDbLine
 10
252.2912319264913
 20
649.1890180010569
 30
0.0
 11
254.0232827340601
 21
652.1890180010566
 31
0.0
  0
LINE
  5
2B7
330
19
100
AcDbEntity
  8
2
100
AcDbLine
 10
257.4873843491978
 20
646.1890180010566
 30
0.0
 11
259.2194351567666
 21
649.1890180010566
 31
0.0
  0
LINE
  5
2B8
330
19
100
AcDbEntity
  8
2
100
AcDbLine
 10
254.0232827340601
 20
652.1890180010566
 30
0.0
 11
257.4873843491978
 21
652.1890180010566
 31
0.0
  0
LINE
  5
2B9
330
19
100
AcDbEntity
  8
2
100
AcDbLine
 10
254.0232827340601
 20
646.1890180010566
 30
0.0
 11
257.4873843491978
 21
646.1890180010566
 31
0.0
  0
LINE
  5
2BA
330
19
100
AcDbEntity
  8
2
100
AcDbLine
 10
257.4873843491978
 20
652.1890180010566
 30
0.0
 11
259.2194351567666
 21
649.1890180010566
 31
0.0
  0
LINE
  5
2BB
330
19
100
AcDbEntity
  8
2
100
AcDbLine
 10
252.2912319264913
 20
649.1890180010569
 30
0.0
 11
254.0232827340601
 21
646.1890180010566
 31
0.0
  0
CIRCLE
  5
2BC
330
19
100
AcDbEntity
  8
4
100
AcDbCircle
 10
495.7553335416289
 20
649.1890180010566
 30
0.0
 40
6.5
  0
CIRCLE
  5
2BD
330
19
100
AcDbEntity
  8
4
100
AcDbCircle
 10
495.7553335416289
 20
649.1890180010566
 30
0.0
 40
7.25
  0
LINE
  5
2BE
330
19
100
AcDbEntity
  8
2
100
AcDbLine
 10
499.2194351567666
 20
649.1890180010569
 30
0.0
 11
497.4873843491978
 21
652.1890180010566
 31
0.0
  0
LINE
  5
2BF
330
19
100
AcDbEntity
  8
2
100
AcDbLine
 10
499.2194351567666
 20
649.1890180010569
 30
0.0
 11
497.4873843491978
 21
646.1890180010566
 31
0.0
  0
LINE
  5
2C0
330
19
100
AcDbEntity
  8
2
100
AcDbLine
 10
497.4873843491978
 20
646.1890180010566
 30
0.0
 11
494.0232827340601
 21
646.1890180010566
 31
0.0
  0
LINE
  5
2C1
330
19
100
AcDbEntity
  8
2
100
AcDbLine
 10
494.0232827340601
 20
646.1890180010566
 30
0.0
 11
492.2912319264913
 21
649.1890180010566
 31
0.0
  0
LINE
  5
2C2
330
19
100
AcDbEntity
  8
2
100
AcDbLine
 10
494.0232827340601
 20
652.1890180010566
 30
0.0
 11
492.2912319264913
 21
649.1890180010566
 31
0.0
  0
LINE
  5
2C3
330
19
100
AcDbEntity
  8
2
100
AcDbLine
 10
497.4873843491978
 20
652.1890180010566
 30
0.0
 11
494.0232827340601
 21
652.1890180010566
 31
0.0
  0
CIRCLE
  5
2C4
330
19
100
AcDbEntity
  8
4
100
AcDbCircle
 10
315.7553335416292
 20
545.265969546924
 30
0.0
 40
6.5
  0
CIRCLE
  5
2C5
330
19
100
AcDbEntity
  8
4
100
AcDbCircle
 10
315.7553335416292
 20
545.265969546924
 30
0.0
 40
7.25
  0
LINE
  5
2C6
330
19
100
AcDbEntity
  8
2
100
AcDbLine
 10
312.2912319264915
 20
545.2659695469242
 30
0.0
 11
314.0232827340603
 21
548.265969546924
 31
0.0
  0
LINE
  5
2C7
330
19
100
AcDbEntity
  8
2
100
AcDbLine
 10
312.2912319264915
 20
545.2659695469242
 30
0.0
 11
314.0232827340603
 21
542.265969546924
 31
0.0
  0
LINE
  5
2C8
330
19
100
AcDbEntity
  8
2
100
AcDbLine
 10
314.0232827340603
 20
542.265969546924
 30
0.0
 11
317.487384349198
 21
542.265969546924
 31
0.0
  0
LINE
  5
2C9
330
19
100
AcDbEntity
  8
2
100
AcDbLine
 10
317.487384349198
 20
542.265969546924
 30
0.0
 11
319.2194351567668
 21
545.265969546924
 31
0.0
  0
LINE
  5
2CA
330
19
100
AcDbEntity
  8
2
100
AcDbLine
 10
317.487384349198
 20
548.265969546924
 30
0.0
 11
319.2194351567668
 21
545.265969546924
 31
0.0
  0
LINE
  5
2CB
330
19
100
AcDbEntity
  8
2
100
AcDbLine
 10
314.0232827340603
 20
548.265969546924
 30
0.0
 11
317.487384349198
 21
548.265969546924
 31
0.0
  0
CIRCLE
  5
2CC
330
19
100
AcDbEntity
  8
4
100
AcDbCircle
 10
435.7553335416287
 20
545.2659695469234
 30
0.0
 40
7.25
  0
CIRCLE
  5
2CD
330
19
100
AcDbEntity
  8
4
100
AcDbCircle
 10
435.7553335416287
 20
545.2659695469234
 30
0.0
 40
6.5
  0
LINE
  5
2CE
330
19
100
AcDbEntity
  8
L-CENTER
100
AcDbLine
 10
427.7240666891307
 20
559.1765317845937
 30
0.0
 11
443.7866003941267
 21
531.355407309253
 31
0.0
  0
LINE
  5
2CF
330
19
100
AcDbEntity
  8
2
100
AcDbLine
 10
434.0232827340599
 20
542.2659695469234
 30
0.0
 11
432.291231926491
 21
545.2659695469234
 31
0.0
  0
LINE
  5
2D0
330
19
100
AcDbEntity
  8
2
100
AcDbLine
 10
439.2194351567664
 20
545.2659695469235
 30
0.0
 11
437.4873843491976
 21
542.2659695469234
 31
0.0
  0
LINE
  5
2D1
330
19
100
AcDbEntity
  8
2
100
AcDbLine
 10
437.4873843491976
 20
542.2659695469234
 30
0.0
 11
434.0232827340599
 21
542.2659695469234
 31
0.0
  0
LINE
  5
2D2
330
19
100
AcDbEntity
  8
2
100
AcDbLine
 10
437.4873843491976
 20
548.2659695469234
 30
0.0
 11
434.0232827340601
 21
548.2659695469234
 31
0.0
  0
LINE
  5
2D3
330
19
100
AcDbEntity
  8
2
100
AcDbLine
 10
434.0232827340601
 20
548.2659695469234
 30
0.0
 11
432.291231926491
 21
545.2659695469234
 31
0.0
  0
LINE
  5
2D4
330
19
100
AcDbEntity
  8
2
100
AcDbLine
 10
439.2194351567664
 20
545.2659695469235
 30
0.0
 11
437.4873843491976
 21
548.2659695469234
 31
0.0
  0
CIRCLE
  5
2D5
330
19
100
AcDbEntity
  8
4
100
AcDbCircle
 10
315.7553335416292
 20
753.1120664551893
 30
0.0
 40
7.25
  0
CIRCLE
  5
2D6
330
19
100
AcDbEntity
  8
4
100
AcDbCircle
 10
315.7553335416292
 20
753.1120664551893
 30
0.0
 40
6.5
  0
LINE
  5
2D7
330
19
100
AcDbEntity
  8
L-CENTER
100
AcDbLine
 10
323.7866003941272
 20
739.201504217519
 30
0.0
 11
307.7240666891312
 21
767.0226286928596
 31
0.0
  0
LINE
  5
2D8
330
19
100
AcDbEntity
  8
2
100
AcDbLine
 10
317.487384349198
 20
756.1120664551893
 30
0.0
 11
319.2194351567668
 21
753.1120664551893
 31
0.0
  0
LINE
  5
2D9
330
19
100
AcDbEntity
  8
2
100
AcDbLine
 10
312.2912319264915
 20
753.112066455189
 30
0.0
 11
314.0232827340603
 21
756.1120664551893
 31
0.0
  0
LINE
  5
2DA
330
19
100
AcDbEntity
  8
2
100
AcDbLine
 10
314.0232827340603
 20
756.1120664551893
 30
0.0
 11
317.487384349198
 21
756.1120664551893
 31
0.0
  0
LINE
  5
2DB
330
19
100
AcDbEntity
  8
2
100
AcDbLine
 10
314.0232827340603
 20
750.1120664551893
 30
0.0
 11
317.487384349198
 21
750.1120664551893
 31
0.0
  0
LINE
  5
2DC
330
19
100
AcDbEntity
  8
2
100
AcDbLine
 10
317.487384349198
 20
750.1120664551893
 30
0.0
 11
319.2194351567668
 21
753.1120664551893
 31
0.0
  0
LINE
  5
2DD
330
19
100
AcDbEntity
  8
2
100
AcDbLine
 10
312.2912319264915
 20
753.112066455189
 30
0.0
 11
314.0232827340603
 21
750.1120664551893
 31
0.0
  0
LINE
  5
2DE
330
19
100
AcDbEntity
  8
2
100
AcDbLine
 10
439.2194351567664
 20
753.1120664551897
 30
0.0
 11
437.4873843491976
 21
756.1120664551897
 31
0.0
  0
LINE
  5
2DF
330
19
100
AcDbEntity
  8
2
100
AcDbLine
 10
434.0232827340599
 20
756.1120664551897
 30
0.0
 11
432.291231926491
 21
753.1120664551897
 31
0.0
  0
LINE
  5
2E0
330
19
100
AcDbEntity
  8
L-CENTER
100
AcDbLine
 10
427.7240666891307
 20
739.2015042175196
 30
0.0
 11
443.7866003941267
 21
767.0226286928603
 31
0.0
  0
CIRCLE
  5
2E1
330
19
100
AcDbEntity
  8
4
100
AcDbCircle
 10
435.7553335416287
 20
753.1120664551897
 30
0.0
 40
6.5
  0
CIRCLE
  5
2E2
330
19
100
AcDbEntity
  8
4
100
AcDbCircle
 10
435.7553335416287
 20
753.1120664551897
 30
0.0
 40
7.25
  0
LINE
  5
2E3
330
19
100
AcDbEntity
  8
2
100
AcDbLine
 10
437.4873843491976
 20
756.1120664551897
 30
0.0
 11
434.0232827340599
 21
756.1120664551897
 31
0.0
  0
LINE
  5
2E4
330
19
100
AcDbEntity
  8
2
100
AcDbLine
 10
439.2194351567664
 20
753.1120664551897
 30
0.0
 11
437.4873843491976
 21
750.1120664551897
 31
0.0
  0
LINE
  5
2E5
330
19
100
AcDbEntity
  8
2
100
AcDbLine
 10
434.0232827340601
 20
750.1120664551897
 30
0.0
 11
432.291231926491
 21
753.1120664551897
 31
0.0
  0
LINE
  5
2E6
330
19
100
AcDbEntity
  8
2
100
AcDbLine
 10
437.4873843491976
 20
750.1120664551897
 30
0.0
 11
434.0232827340601
 21
750.1120664551897
 31
0.0
  0
TEXT
  5
3CC
330
19
100
AcDbEntity
  8
3
100
AcDbText
 10
607.6167254560194
 20
31.67660294326748
 30
0.0
 40
9.0
  1
LDC3-05
  7
KANJI
 72
     1
 11
636.8667254560194
 21
31.67660294326748
 31
0.0
100
AcDbText
  0
CIRCLE
  5
457
330
19
100
AcDbEntity
  8
4
100
AcDbCircle
 10
375.7553335416292
 20
568.1890180010566
 30
0.0
 40
18.0
  0
LINE
  5
458
330
19
100
AcDbEntity
  8
L-CENTER
100
AcDbLine
 10
353.2553335416292
 20
568.1890180010566
 30
0.0
 11
398.2553335416292
 21
568.1890180010566
 31
0.0
  0
CIRCLE
  5
459
330
19
100
AcDbEntity
  8
4
100
AcDbCircle
 10
375.7553335416289
 20
568.1890180010566
 30
0.0
 40
12.5
  0
LWPOLYLINE
  5
45A
330
19
100
AcDbEntity
  8
4
100
AcDbPolyline
 90
        6
 70
     1
 43
0.0
 10
375.7553335416289
 20
580.6890180010566
 10
364.9300159943234
 20
574.4390180010566
 10
364.9300159943234
 20
561.9390180010566
 10
375.7553335416289
 20
555.6890180010566
 10
386.5806510889345
 20
561.9390180010566
 10
386.5806510889345
 20
574.4390180010566
  0
LINE
  5
45B
330
19
100
AcDbEntity
  8
4
100
AcDbLine
 10
768.2993851751917
 20
244.4264357694008
 30
0.0
 11
802.7224336293241
 21
244.4264357694008
 31
0.0
  0
LINE
  5
45C
330
19
100
AcDbEntity
  8
4
100
AcDbLine
 10
802.7224336293241
 20
241.3230727324435
 30
0.0
 11
802.7224336293241
 21
244.4264357694008
 31
0.0
  0
LINE
  5
45D
330
19
100
AcDbEntity
  8
L-CENTER
100
AcDbLine
 10
784.7224336293241
 20
230.9457227694008
 30
0.0
 11
784.7224336293241
 21
254.3817089329718
 31
0.0
  0
LINE
  5
45E
330
19
100
AcDbEntity
  8
4
100
AcDbLine
 10
790.4724326293242
 20
247.9264347694007
 30
0.0
 11
790.4724326293242
 21
251.9264337694008
 31
0.0
  0
LINE
  5
45F
330
19
100
AcDbEntity
  8
4
100
AcDbLine
 10
778.9724316293243
 20
247.9264347694007
 30
0.0
 11
778.9724316293243
 21
251.9264337694008
 31
0.0
  0
LINE
  5
460
330
19
100
AcDbEntity
  8
4
100
AcDbLine
 10
772.2224326293242
 20
245.9264347694007
 30
0.0
 11
772.2224326293242
 21
251.9264337694008
 31
0.0
  0
LINE
  5
461
330
19
100
AcDbEntity
  8
4
100
AcDbLine
 10
772.2224326293242
 20
245.9264347694007
 30
0.0
 11
797.2224316293243
 21
245.9264347694007
 31
0.0
  0
LINE
  5
462
330
19
100
AcDbEntity
  8
4
100
AcDbLine
 10
772.2224326293242
 20
247.9264347694007
 30
0.0
 11
797.2224316293243
 21
247.9264347694007
 31
0.0
  0
LINE
  5
463
330
19
100
AcDbEntity
  8
4
100
AcDbLine
 10
772.2224326293242
 20
251.9264337694008
 30
0.0
 11
797.2224316293243
 21
251.9264337694008
 31
0.0
  0
LINE
  5
464
330
19
100
AcDbEntity
  8
4
100
AcDbLine
 10
773.2224316293243
 20
244.4264357694008
 30
0.0
 11
773.2224316293243
 21
245.9264347694007
 31
0.0
  0
LINE
  5
465
330
19
100
AcDbEntity
  8
4
100
AcDbLine
 10
797.2224316293243
 20
251.9264337694008
 30
0.0
 11
797.2224316293243
 21
245.9264347694007
 31
0.0
  0
LINE
  5
466
330
19
100
AcDbEntity
  8
4
100
AcDbLine
 10
796.2224326293242
 20
244.4264357694008
 30
0.0
 11
796.2224326293242
 21
245.9264347694007
 31
0.0
  0
ARC
  5
467
330
19
100
AcDbEntity
  8
4
100
AcDbCircle
 10
910.7224346293242
 20
244.4264357694008
 30
0.0
 40
2.0
100
AcDbArc
 50
90.0
 51
180.0
  0
ARC
  5
468
330
19
100
AcDbEntity
  8
4
100
AcDbCircle
 10
942.7224346293242
 20
244.4264357694008
 30
0.0
 40
2.0
100
AcDbArc
 50
0.0
 51
90.0
  0
LINE
  5
469
330
19
100
AcDbEntity
  8
4
100
AcDbLine
 10
357.7553335416289
 20
244.4264357694008
 30
0.0
 11
393.7553335416289
 21
244.4264357694008
 31
0.0
  0
LINE
  5
46A
330
19
100
AcDbEntity
  8
4
100
AcDbLine
 10
393.7553335416289
 20
240.2410928450881
 30
0.0
 11
393.7553335416289
 21
244.4264357694008
 31
0.0
  0
LINE
  5
46B
330
19
100
AcDbEntity
  8
4
100
AcDbLine
 10
363.2553325416291
 20
245.9264347694007
 30
0.0
 11
363.2553325416291
 21
247.9264347694007
 31
0.0
  0
LINE
  5
46C
330
19
100
AcDbEntity
  8
4
100
AcDbLine
 10
363.2553325416291
 20
245.9264347694007
 30
0.0
 11
388.2553315416292
 21
245.9264347694007
 31
0.0
  0
LINE
  5
46D
330
19
100
AcDbEntity
  8
4
100
AcDbLine
 10
363.2553325416291
 20
247.9264347694007
 30
0.0
 11
388.2553315416292
 21
247.9264347694007
 31
0.0
  0
LINE
  5
46E
330
19
100
AcDbEntity
  8
4
100
AcDbLine
 10
364.9300159943234
 20
251.9264337694008
 30
0.0
 11
386.5806510889345
 21
251.9264337694008
 31
0.0
  0
LINE
  5
46F
330
19
100
AcDbEntity
  8
4
100
AcDbLine
 10
364.2553315416292
 20
244.4264357694008
 30
0.0
 11
364.2553315416292
 21
245.9264347694007
 31
0.0
  0
LINE
  5
470
330
19
100
AcDbEntity
  8
4
100
AcDbLine
 10
388.2553315416292
 20
247.9264347694007
 30
0.0
 11
388.2553315416292
 21
245.9264347694007
 31
0.0
  0
LINE
  5
471
330
19
100
AcDbEntity
  8
4
100
AcDbLine
 10
387.2553325416291
 20
244.4264357694008
 30
0.0
 11
387.2553325416291
 21
245.9264347694007
 31
0.0
  0
LINE
  5
472
330
19
100
AcDbEntity
  8
4
100
AcDbLine
 10
357.7553335416289
 20
240.2410928450881
 30
0.0
 11
357.7553335416289
 21
244.4264357694008
 31
0.0
  0
ARC
  5
473
330
19
100
AcDbEntity
  8
4
100
AcDbCircle
 10
375.7553335416289
 20
359.2227902868735
 30
0.0
 40
120.3355488878019
100
AcDbArc
 50
261.3973118132374
 51
278.6026881867626
  0
LINE
  5
474
330
19
100
AcDbEntity
  8
4
100
AcDbLine
 10
364.9300159943234
 20
251.9264337694008
 30
0.0
 11
364.9300159943234
 21
247.9264347694007
 31
0.0
  0
LINE
  5
475
330
19
100
AcDbEntity
  8
4
100
AcDbLine
 10
386.5806510889345
 20
247.9264347694007
 30
0.0
 11
386.5806510889345
 21
251.9264337694008
 31
0.0
  0
LINE
  5
4DD
330
19
100
AcDbEntity
  8
4
100
AcDbLine
 10
327.2834095416295
 20
97.92570576940057
 30
0.0
 11
327.2834095416295
 21
111.9257037694006
 31
0.0
  0
LINE
  5
4DE
330
19
100
AcDbEntity
  8
4
100
AcDbLine
 10
367.2834085416296
 20
97.92570576940057
 30
0.0
 11
367.2834085416296
 21
111.9257027694009
 31
0.0
  0
LINE
  5
4DF
330
19
100
AcDbEntity
  8
4
100
AcDbLine
 10
330.2834095416295
 20
27.92570376940068
 30
0.0
 11
364.2834085416296
 21
27.92570376940068
 31
0.0
  0
LINE
  5
4E0
330
19
100
AcDbEntity
  8
4
100
AcDbLine
 10
327.2834095416295
 20
97.92570576940057
 30
0.0
 11
367.2834085416296
 21
97.92570576940057
 31
0.0
  0
LINE
  5
4E1
330
19
100
AcDbEntity
  8
4
100
AcDbLine
 10
329.283407541629
 20
28.92570576940057
 30
0.0
 11
329.283407541629
 21
97.92570576940057
 31
0.0
  0
LINE
  5
4E2
330
19
100
AcDbEntity
  8
4
100
AcDbLine
 10
365.283407541629
 20
28.92570576940057
 30
0.0
 11
365.283407541629
 21
97.92570576940057
 31
0.0
  0
LINE
  5
4E3
330
19
100
AcDbEntity
  8
4
100
AcDbLine
 10
330.2834095416295
 20
27.92570376940068
 30
0.0
 11
329.283407541629
 21
28.92570576940057
 31
0.0
  0
LINE
  5
4E4
330
19
100
AcDbEntity
  8
4
100
AcDbLine
 10
364.2834085416296
 20
27.92570376940068
 30
0.0
 11
365.283407541629
 21
28.92570576940057
 31
0.0
  0
LINE
  5
4E5
330
19
100
AcDbEntity
  8
4
100
AcDbLine
 10
342.2834095416295
 20
27.92570376940068
 30
0.0
 11
342.2834095416295
 21
87.92570376940057
 31
0.0
  0
LINE
  5
4E6
330
19
100
AcDbEntity
  8
4
100
AcDbLine
 10
352.2834085416296
 20
27.92570376940068
 30
0.0
 11
352.2834085416296
 21
87.92570376940057
 31
0.0
  0
LINE
  5
4E7
330
19
100
AcDbEntity
  8
4
100
AcDbLine
 10
347.283407541629
 20
92.92570476940068
 30
0.0
 11
347.283407541629
 21
92.92570476940068
 31
0.0
  0
ARC
  5
4E8
330
19
100
AcDbEntity
  8
4
100
AcDbCircle
 10
347.283407541629
 20
87.92570376940057
 30
0.0
 40
5.000000999999999
100
AcDbArc
 50
90.0
 51
180.0
  0
ARC
  5
4E9
330
19
100
AcDbEntity
  8
4
100
AcDbCircle
 10
347.283407541629
 20
87.92570376940057
 30
0.0
 40
5.000000999999999
100
AcDbArc
 50
0.0
 51
90.0
  0
LINE
  5
4EA
330
19
100
AcDbEntity
  8
4
100
AcDbLine
 10
329.283407541629
 20
28.92570576940057
 30
0.0
 11
342.2834095416295
 21
28.92570576940057
 31
0.0
  0
LINE
  5
4EB
330
19
100
AcDbEntity
  8
4
100
AcDbLine
 10
352.2834085416296
 20
28.92570576940057
 30
0.0
 11
365.283407541629
 21
28.92570576940057
 31
0.0
  0
LINE
  5
4EC
330
19
100
AcDbEntity
  8
4
100
AcDbLine
 10
835.7222136293244
 20
97.92570576940057
 30
0.0
 11
835.7222136293244
 21
111.9257037694006
 31
0.0
  0
LINE
  5
4ED
330
19
100
AcDbEntity
  8
4
100
AcDbLine
 10
875.7222156293242
 20
97.92570576940057
 30
0.0
 11
875.7222156293242
 21
111.9257037694006
 31
0.0
  0
LINE
  5
4EE
330
19
100
AcDbEntity
  8
4
100
AcDbLine
 10
835.7222136293244
 20
97.92570576940057
 30
0.0
 11
875.7222156293242
 21
97.92570576940057
 31
0.0
  0
LINE
  5
4EF
330
19
100
AcDbEntity
  8
4
100
AcDbLine
 10
837.7222146293243
 20
28.92570576940057
 30
0.0
 11
837.7222146293243
 21
97.92570576940057
 31
0.0
  0
LINE
  5
4F0
330
19
100
AcDbEntity
  8
4
100
AcDbLine
 10
873.7222146293243
 20
28.92570576940057
 30
0.0
 11
873.7222146293243
 21
97.92570576940057
 31
0.0
  0
LINE
  5
4F1
330
19
100
AcDbEntity
  8
4
100
AcDbLine
 10
838.7222136293244
 20
27.92570376940068
 30
0.0
 11
837.7222146293243
 21
28.92570576940057
 31
0.0
  0
LINE
  5
4F2
330
19
100
AcDbEntity
  8
4
100
AcDbLine
 10
872.7222156293242
 20
27.92570376940068
 30
0.0
 11
873.7222146293243
 21
28.92570576940057
 31
0.0
  0
LINE
  5
4F3
330
19
100
AcDbEntity
  8
4
100
AcDbLine
 10
837.7222146293243
 20
28.92570576940057
 30
0.0
 11
873.7222146293243
 21
28.92570576940057
 31
0.0
  0
LINE
  5
4F4
330
19
100
AcDbEntity
  8
4
100
AcDbLine
 10
834.2222136293244
 20
27.92570376940068
 30
0.0
 11
834.2222136293244
 21
92.92570476940068
 31
0.0
  0
LINE
  5
4F5
330
19
100
AcDbEntity
  8
4
100
AcDbLine
 10
834.2222136293244
 20
92.92570476940068
 30
0.0
 11
837.7222146293243
 21
92.92570476940068
 31
0.0
  0
LINE
  5
4F6
330
19
100
AcDbEntity
  8
4
100
AcDbLine
 10
834.2222136293244
 20
27.92570376940068
 30
0.0
 11
872.7222156293242
 21
27.92570376940068
 31
0.0
  0
CIRCLE
  5
526
330
19
100
AcDbEntity
  8
L-CENTER
100
AcDbCircle
 10
375.7553335416289
 20
649.1890180010566
 30
0.0
 40
120.0
  0
ENDSEC
  0
SECTION
  2
OBJECTS
  0
DICTIONARY
  5
9
330
0
100
AcDbDictionary
281
     1
  3
ACAD_COLOR
350
2D
  3
ACAD_GROUP
350
2B
  3
ACAD_LAYOUT
350
22
  3
ACAD_MATERIAL
350
B
  3
ACAD_MLEADERSTYLE
350
47D
  3
ACAD_MLINESTYLE
350
17
  3
ACAD_PLOTSETTINGS
350
2C
  3
ACAD_PLOTSTYLENAME
350
8
  3
ACAD_SCALELIST
350
33
  3
ACAD_TABLESTYLE
350
47C
  3
ACAD_VISUALSTYLE
350
2E
  3
ACDBHEADERROUNDTRIPXREC
350
529
  3
AcDbVariableDictionary
350
47A
  3
DWGPROPS
350
52C
  0
DICTIONARY
  5
52D
330
29
100
AcDbDictionary
280
     1
281
     1
  3
ACAD_XREC_ROUNDTRIP
360
52E
  0
DICTIONARY
  5
3
330
2
100
AcDbDictionary
280
     1
281
     1
  3
ACAD_LAYERSTATES
360
4
  0
DICTIONARY
  5
1E
330
1D
100
AcDbDictionary
280
     1
281
     1
  3
ADSK_XREC_LAYER_RECONCILED
360
1F
  0
DICTIONARY
  5
2FC
330
2FB
100
AcDbDictionary
280
     1
281
     1
  3
ADSK_XREC_LAYER_RECONCILED
360
2FD
  0
DICTIONARY
  5
5
330
1
100
AcDbDictionary
280
     1
281
     1
  3
ADSK_XREC_LAYER_RECONCILED
360
6
  0
DICTIONARY
  5
76
330
75
100
AcDbDictionary
280
     1
281
     1
  3
ADSK_XREC_LAYER_RECONCILED
360
77
  0
DICTIONARY
  5
71
330
70
100
AcDbDictionary
280
     1
281
     1
  3
ADSK_XREC_LAYER_RECONCILED
360
72
  0
DICTIONARY
  5
6B
330
6A
100
AcDbDictionary
280
     1
281
     1
  3
ADSK_XREC_LAYER_RECONCILED
360
6C
  0
DICTIONARY
  5
1A
330
19
100
AcDbDictionary
280
     1
281
     1
  3
ACAD_SORTENTS
360
1B
  0
DICTIONARY
  5
2D
102
{ACAD_REACTORS
330
9
102
}
330
9
100
AcDbDictionary
281
     1
  0
DICTIONARY
  5
2B
102
{ACAD_REACTORS
330
9
102
}
330
9
100
AcDbDictionary
281
     1
  0
DICTIONARY
  5
22
102
{ACAD_REACTORS
330
9
102
}
330
9
100
AcDbDictionary
281
     1
  3
Model
350
21
  3
ﾚｲｱｳﾄ1
350
26
  0
DICTIONARY
  5
B
102
{ACAD_REACTORS
330
9
102
}
330
9
100
AcDbDictionary
281
     1
  3
ByBlock
350
66
  3
ByLayer
350
12
  3
Global
350
A
  0
DICTIONARY
  5
47D
102
{ACAD_REACTORS
330
9
102
}
330
9
100
AcDbDictionary
281
     1
  3
Standard
350
498
  0
DICTIONARY
  5
17
102
{ACAD_REACTORS
330
9
102
}
330
9
100
AcDbDictionary
281
     1
  3
STANDARD
350
16
  0
DICTIONARY
  5
2C
102
{ACAD_REACTORS
330
9
102
}
330
9
100
AcDbDictionary
281
     1
  0
ACDBDICTIONARYWDFLT
  5
8
102
{ACAD_REACTORS
330
9
102
}
330
9
100
AcDbDictionary
281
     1
  3
Normal
350
7
100
AcDbDictionaryWithDefault
340
7
  0
DICTIONARY
  5
33
102
{ACAD_REACTORS
330
9
102
}
330
9
100
AcDbDictionary
281
     1
  3
*A1
350
55
  3
*A10
350
5E
  3
*A11
350
5F
  3
*A12
350
60
  3
*A13
350
61
  3
*A14
350
62
  3
*A15
350
63
  3
*A16
350
64
  3
*A17
350
65
  3
*A2
350
56
  3
*A3
350
57
  3
*A4
350
58
  3
*A5
350
59
  3
*A6
350
5A
  3
*A7
350
5B
  3
*A8
350
5C
  3
*A9
350
5D
  0
DICTIONARY
  5
47C
102
{ACAD_REACTORS
330
9
102
}
330
9
100
AcDbDictionary
281
     1
  3
Standard
350
49D
  0
DICTIONARY
  5
2E
102
{ACAD_REACTORS
330
9
102
}
330
9
100
AcDbDictionary
281
     1
  3
2dWireframe
350
484
  3
Basic
350
487
  3
Brighten
350
48B
  3
ColorChange
350
48F
  3
Conceptual
350
489
  3
Dim
350
48A
  3
EdgeColorOff
350
492
  3
Facepattern
350
48E
  3
Flat
350
480
  3
FlatWithEdges
350
481
  3
Gouraud
350
482
  3
GouraudWithEdges
350
483
  3
Hidden
350
486
  3
JitterOff
350
490
  3
Linepattern
350
48D
  3
OverhangOff
350
491
  3
Realistic
350
488
  3
Shaded
350
497
  3
Shaded with edges
350
496
  3
Shades of Gray
350
493
  3
Sketchy
350
494
  3
Thicken
350
48C
  3
Wireframe
350
485
  3
X-Ray
350
495
  0
DICTIONARY
  5
529
102
{ACAD_REACTORS
330
9
102
}
330
9
100
AcDbDictionary
281
     1
  3
COLORDICT
350
52A
  3
MATERIALDICT
350
52B
  0
DICTIONARY
  5
47A
102
{ACAD_REACTORS
330
9
102
}
330
9
100
AcDbDictionary
281
     1
  3
CANNOSCALE
350
47B
  3
CMLEADERSTYLE
350
49B
  3
CTABLESTYLE
350
49E
  3
DIMASSOC
350
527
  3
HIDETEXT
350
528
  3
MSLTSCALE
350
52F
  0
XRECORD
  5
52C
102
{ACAD_REACTORS
330
9
102
}
330
9
100
AcDbXrecord
280
     1
  1
DWGPROPS COOKIE
  2

  3

  4

  6

  7

  8
sg-d03
  9

300
=
301
=
302
=
303
=
304
=
305
=
306
=
307
=
308
=
309
=
 40
0.0
 41
2449812.381805555
 42
2458115.154216794
  1

 90
        0
  0
XRECORD
  5
52E
102
{ACAD_REACTORS
330
52D
102
}
330
52D
100
AcDbXrecord
280
     1
102
VTR_0.000_0.000_1.000_1.000_GRIDDISPLAY
 70
     3
102
VTR_0.000_0.000_1.000_1.000_GRIDMAJOR
 70
     5
102
VTR_0.000_0.000_1.000_1.000_DEFAULTLIGHTING
280
     1
102
VTR_0.000_0.000_1.000_1.000_DEFAULTLIGHTINGTYPE
 70
     1
102
VTR_0.000_0.000_1.000_1.000_BRIGHTNESS
141
0.0
102
VTR_0.000_0.000_1.000_1.000_CONTRAST
142
0.0
  0
DICTIONARY
  5
4
102
{ACAD_REACTORS
330
3
102
}
330
3
100
AcDbDictionary
281
     1
  0
XRECORD
  5
1F
102
{ACAD_REACTORS
330
1E
102
}
330
1E
100
AcDbXrecord
280
     1
290
     1
  0
XRECORD
  5
2FD
102
{ACAD_REACTORS
330
2FC
102
}
330
2FC
100
AcDbXrecord
280
     1
290
     1
  0
XRECORD
  5
6
102
{ACAD_REACTORS
330
5
102
}
330
5
100
AcDbXrecord
280
     1
290
     1
  0
XRECORD
  5
77
102
{ACAD_REACTORS
330
76
102
}
330
76
100
AcDbXrecord
280
     1
290
     1
  0
XRECORD
  5
72
102
{ACAD_REACTORS
330
71
102
}
330
71
100
AcDbXrecord
280
     1
290
     1
  0
XRECORD
  5
6C
102
{ACAD_REACTORS
330
6B
102
}
330
6B
100
AcDbXrecord
280
     1
290
     1
  0
SORTENTSTABLE
  5
1B
102
{ACAD_REACTORS
330
1A
102
}
330
1A
100
AcDbSortentsTable
330
19
331
0
  5
1E8
331
15E
  5
15F
331
15F
  5
160
331
160
  5
161
331
161
  5
162
331
162
  5
163
331
163
  5
164
331
164
  5
165
331
165
  5
166
331
166
  5
167
331
167
  5
168
331
168
  5
169
331
169
  5
16A
331
16A
  5
16B
331
16B
  5
16C
331
16C
  5
16D
331
16D
  5
16E
331
16E
  5
16F
331
16F
  5
170
331
170
  5
171
331
171
  5
172
331
172
  5
173
331
173
  5
174
331
174
  5
175
331
175
  5
176
331
176
  5
177
331
177
  5
178
331
178
  5
179
331
179
  5
17A
331
17A
  5
17B
331
17B
  5
17C
331
17C
  5
17D
331
17D
  5
17E
331
17E
  5
17F
331
17F
  5
180
331
180
  5
181
331
181
  5
182
331
182
  5
183
331
183
  5
184
331
184
  5
185
331
185
  5
186
331
186
  5
187
331
187
  5
188
331
188
  5
189
331
189
  5
18A
331
18A
  5
18B
331
18B
  5
18C
331
0
  5
18D
331
0
  5
18E
331
0
  5
18F
331
0
  5
190
331
0
  5
191
331
0
  5
192
331
0
  5
193
331
0
  5
194
331
0
  5
195
331
0
  5
196
331
0
  5
197
331
0
  5
198
331
0
  5
199
331
0
  5
19A
331
0
  5
19B
331
0
  5
19C
331
0
  5
19D
331
0
  5
19E
331
0
  5
19F
331
0
  5
1A0
331
0
  5
1A1
331
0
  5
1A2
331
0
  5
1A3
331
0
  5
1A4
331
0
  5
1A5
331
0
  5
1A6
331
0
  5
1A7
331
0
  5
1A8
331
0
  5
1A9
331
0
  5
1AA
331
0
  5
1AB
331
0
  5
1AC
331
0
  5
1AD
331
0
  5
1AE
331
0
  5
1AF
331
0
  5
1B0
331
0
  5
1B1
331
0
  5
1B2
331
0
  5
1B3
331
0
  5
1B4
331
0
  5
1B5
331
0
  5
1B6
331
0
  5
1B7
331
0
  5
1B8
331
0
  5
1B9
331
0
  5
1BA
331
0
  5
1BB
331
0
  5
1BC
331
0
  5
1BD
331
0
  5
1BE
331
0
  5
1BF
331
0
  5
1C0
331
0
  5
1C1
331
0
  5
1C2
331
0
  5
1C3
331
0
  5
1C4
331
0
  5
1C5
331
0
  5
1C6
331
0
  5
1C7
331
0
  5
1C8
331
0
  5
1C9
331
0
  5
1CA
331
0
  5
1CB
331
0
  5
1CC
331
0
  5
1CD
331
0
  5
1CE
331
0
  5
1CF
331
0
  5
1D0
331
0
  5
1D1
331
0
  5
1D2
331
0
  5
1D3
331
0
  5
1D4
331
0
  5
1D5
331
0
  5
1D6
331
0
  5
1D7
331
0
  5
1D8
331
0
  5
1D9
331
0
  5
1DA
331
0
  5
1DB
331
0
  5
1DC
331
0
  5
1DD
331
0
  5
1DE
331
0
  5
1DF
331
0
  5
1E0
331
0
  5
1E1
331
0
  5
1E2
331
0
  5
1E3
331
0
  5
1E4
331
0
  5
1E5
331
0
  5
1E6
331
0
  5
1E7
331
0
  5
1EE
331
0
  5
1EF
331
0
  5
1F0
331
0
  5
1F1
331
0
  5
1F2
331
0
  5
1F3
331
0
  5
1F4
331
1F4
  5
1F5
331
1F5
  5
1F6
331
1F6
  5
1F7
331
1F7
  5
1F8
331
1F8
  5
1F9
331
1F9
  5
1FA
331
1FA
  5
1FB
331
1FB
  5
1FC
331
1FC
  5
1FD
331
1FD
  5
1FE
331
1FE
  5
1FF
331
1FF
  5
200
331
200
  5
201
331
201
  5
202
331
202
  5
203
331
203
  5
204
331
204
  5
205
331
205
  5
206
331
206
  5
207
331
207
  5
208
331
208
  5
209
331
209
  5
20A
331
20A
  5
20B
331
20B
  5
20C
331
20C
  5
20D
331
20D
  5
20E
331
20E
  5
20F
331
20F
  5
210
331
210
  5
211
331
211
  5
212
331
212
  5
213
331
213
  5
214
331
214
  5
215
331
215
  5
216
331
216
  5
217
331
217
  5
218
331
218
  5
219
331
219
  5
21A
331
21A
  5
21B
331
21B
  5
21C
331
21C
  5
21D
331
21D
  5
21E
331
21E
  5
21F
331
21F
  5
220
331
220
  5
221
331
221
  5
222
331
222
  5
223
331
223
  5
224
331
224
  5
225
331
225
  5
226
331
226
  5
227
331
227
  5
228
331
228
  5
229
331
229
  5
22A
331
22A
  5
22B
331
22B
  5
22C
331
22C
  5
22D
331
22D
  5
22E
331
22E
  5
22F
331
22F
  5
230
331
230
  5
231
331
231
  5
232
331
232
  5
233
331
233
  5
234
331
234
  5
235
331
236
  5
237
331
237
  5
238
331
238
  5
239
331
239
  5
23A
331
23A
  5
23B
331
23B
  5
23C
331
23C
  5
23D
331
23D
  5
23E
331
23E
  5
23F
331
23F
  5
240
331
240
  5
241
331
241
  5
242
331
242
  5
243
331
243
  5
244
331
244
  5
245
331
245
  5
246
331
246
  5
247
331
247
  5
248
331
248
  5
249
331
249
  5
24A
331
24A
  5
24B
331
24B
  5
24C
331
24C
  5
24D
331
24D
  5
24E
331
24E
  5
24F
331
24F
  5
251
331
0
  5
25C
331
25C
  5
25D
331
25D
  5
25E
331
25E
  5
25F
331
25F
  5
260
331
260
  5
261
331
261
  5
262
331
262
  5
263
331
263
  5
264
331
264
  5
265
331
265
  5
266
331
266
  5
267
331
267
  5
268
331
268
  5
269
331
269
  5
26A
331
26A
  5
26B
331
26B
  5
26C
331
26C
  5
26D
331
26D
  5
26E
331
26E
  5
26F
331
26F
  5
270
331
270
  5
271
331
271
  5
272
331
272
  5
273
331
273
  5
274
331
274
  5
275
331
275
  5
276
331
276
  5
277
331
277
  5
278
331
278
  5
279
331
279
  5
27A
331
27A
  5
27B
331
27B
  5
27C
331
27C
  5
27D
331
27D
  5
27E
331
27E
  5
27F
331
27F
  5
280
331
280
  5
281
331
281
  5
282
331
282
  5
283
331
283
  5
284
331
284
  5
285
331
285
  5
286
331
286
  5
287
331
287
  5
288
331
288
  5
289
331
289
  5
28A
331
28A
  5
28B
331
28B
  5
28C
331
28C
  5
28D
331
28D
  5
28E
331
28E
  5
28F
331
28F
  5
290
331
290
  5
291
331
291
  5
292
331
292
  5
293
331
293
  5
294
331
294
  5
295
331
295
  5
296
331
296
  5
297
331
297
  5
298
331
298
  5
299
331
299
  5
29A
331
29A
  5
29B
331
29B
  5
29C
331
29C
  5
29D
331
29D
  5
29E
331
29E
  5
29F
331
29F
  5
2A0
331
2A0
  5
2A1
331
2A1
  5
2A2
331
2A2
  5
2A3
331
2A3
  5
2A4
331
2A4
  5
2A5
331
2A5
  5
2A6
331
2A6
  5
2A7
331
2A7
  5
2A8
331
2A8
  5
2A9
331
2A9
  5
2AA
331
2AA
  5
2AB
331
2AB
  5
2AC
331
2AC
  5
2AD
331
2AD
  5
2AE
331
2AE
  5
2AF
331
2AF
  5
2B0
331
2B0
  5
2B1
331
2B1
  5
2B2
331
2B2
  5
2B3
331
2B3
  5
2B4
331
2B4
  5
2B5
331
2B5
  5
2B6
331
2B6
  5
2B7
331
2B7
  5
2B8
331
2B8
  5
2B9
331
2B9
  5
2BA
331
2BA
  5
2BB
331
2BB
  5
2BC
331
2BC
  5
2BD
331
2BD
  5
2BE
331
2BE
  5
2BF
331
2BF
  5
2C0
331
2C0
  5
2C1
331
2C1
  5
2C2
331
2C2
  5
2C3
331
2C3
  5
2C4
331
2C4
  5
2C5
331
2C5
  5
2C6
331
2C6
  5
2C7
331
2C7
  5
2C8
331
2C8
  5
2C9
331
2C9
  5
2CA
331
2CA
  5
2CB
331
2CB
  5
2CC
331
2CC
  5
2CD
331
2CD
  5
2CE
331
2CE
  5
2CF
331
2CF
  5
2D0
331
2D0
  5
2D1
331
2D1
  5
2D2
331
2D2
  5
2D3
331
2D3
  5
2D4
331
2D4
  5
2D5
331
2D5
  5
2D6
331
2D6
  5
2D7
331
2D7
  5
2D8
331
2D8
  5
2D9
331
2D9
  5
2DA
331
2DA
  5
2DB
331
2DB
  5
2DC
331
2DC
  5
2DD
331
2DD
  5
2DE
331
2DE
  5
2DF
331
2DF
  5
2E0
331
2E0
  5
2E1
331
2E1
  5
2E2
331
2E2
  5
2E3
331
2E3
  5
2E4
331
2E4
  5
2E5
331
2E5
  5
2E6
331
2E6
  5
2E7
331
0
  5
2ED
331
0
  5
2EE
331
0
  5
2EF
331
0
  5
2F0
331
0
  5
2F1
331
0
  5
2F2
331
0
  5
2F3
331
0
  5
2F4
331
0
  5
2F6
331
0
  5
2F7
331
0
  5
2F8
331
0
  5
2F9
331
0
  5
2FA
331
0
  5
2FE
331
0
  5
2FF
331
0
  5
300
331
0
  5
301
331
0
  5
302
331
0
  5
303
331
0
  5
304
331
0
  5
305
331
0
  5
306
331
0
  5
307
331
0
  5
308
331
0
  5
309
331
0
  5
30A
331
0
  5
30B
331
0
  5
30C
331
0
  5
30D
331
0
  5
30E
331
0
  5
30F
331
0
  5
310
331
0
  5
311
331
0
  5
312
331
0
  5
313
331
0
  5
314
331
0
  5
315
331
0
  5
316
331
0
  5
317
331
0
  5
318
331
0
  5
319
331
0
  5
31A
331
0
  5
31B
331
0
  5
31C
331
0
  5
31D
331
0
  5
31E
331
0
  5
31F
331
0
  5
320
331
0
  5
321
331
0
  5
322
331
0
  5
323
331
0
  5
324
331
0
  5
325
331
0
  5
326
331
0
  5
327
331
0
  5
328
331
0
  5
329
331
0
  5
32A
331
0
  5
32B
331
0
  5
32C
331
0
  5
32D
331
0
  5
32E
331
0
  5
32F
331
0
  5
330
331
0
  5
331
331
0
  5
332
331
0
  5
333
331
0
  5
334
331
0
  5
335
331
0
  5
336
331
0
  5
337
331
0
  5
338
331
0
  5
339
331
0
  5
33A
331
0
  5
33B
331
0
  5
33C
331
0
  5
33D
331
0
  5
33E
331
0
  5
33F
331
0
  5
340
331
0
  5
341
331
0
  5
342
331
0
  5
343
331
0
  5
344
331
0
  5
345
331
0
  5
346
331
0
  5
347
331
0
  5
348
331
0
  5
349
331
0
  5
34A
331
0
  5
34B
331
0
  5
34C
331
0
  5
34D
331
0
  5
34E
331
0
  5
34F
331
0
  5
350
331
0
  5
351
331
0
  5
352
331
0
  5
353
331
0
  5
354
331
0
  5
355
331
0
  5
356
331
0
  5
357
331
0
  5
358
331
0
  5
359
331
0
  5
35A
331
0
  5
35B
331
0
  5
35C
331
0
  5
35D
331
0
  5
35E
331
0
  5
35F
331
0
  5
360
331
0
  5
361
331
0
  5
362
331
0
  5
363
331
0
  5
364
331
0
  5
365
331
0
  5
366
331
0
  5
367
331
0
  5
368
331
0
  5
369
331
0
  5
36A
331
0
  5
36B
331
0
  5
36C
331
0
  5
36D
331
0
  5
36E
331
0
  5
36F
331
0
  5
370
331
0
  5
371
331
0
  5
372
331
0
  5
373
331
0
  5
374
331
0
  5
375
331
0
  5
376
331
0
  5
377
331
0
  5
378
331
0
  5
379
331
0
  5
37A
331
0
  5
37B
331
0
  5
37C
331
0
  5
37D
331
0
  5
37E
331
0
  5
37F
331
0
  5
380
331
0
  5
381
331
0
  5
382
331
0
  5
383
331
0
  5
384
331
0
  5
385
331
0
  5
386
331
0
  5
387
331
0
  5
388
331
0
  5
389
331
0
  5
38A
331
0
  5
38B
331
0
  5
38C
331
0
  5
38D
331
0
  5
38E
331
0
  5
38F
331
0
  5
390
331
0
  5
391
331
0
  5
392
331
0
  5
393
331
0
  5
394
331
0
  5
395
331
0
  5
396
331
0
  5
397
331
0
  5
398
331
0
  5
399
331
0
  5
39A
331
0
  5
39B
331
0
  5
39C
331
0
  5
39D
331
0
  5
39E
331
0
  5
39F
331
0
  5
3A0
331
0
  5
3A1
331
0
  5
3A2
331
0
  5
3A3
331
0
  5
3A4
331
0
  5
3A5
331
0
  5
3A6
331
0
  5
3A7
331
0
  5
3A8
331
0
  5
3A9
331
0
  5
3AA
331
0
  5
3AB
331
0
  5
3AC
331
0
  5
3AD
331
0
  5
3AE
331
0
  5
3AF
331
0
  5
3B0
331
0
  5
3B1
331
0
  5
3B2
331
0
  5
3B3
331
0
  5
3B4
331
0
  5
3B5
331
0
  5
3B6
331
0
  5
3B7
331
0
  5
3B8
331
0
  5
3B9
331
0
  5
3BA
331
0
  5
3BB
331
0
  5
3BC
331
0
  5
3BD
331
0
  5
3BE
331
0
  5
3BF
331
0
  5
3C0
331
0
  5
3C1
331
0
  5
3C2
331
0
  5
3C3
331
0
  5
3C4
331
0
  5
3C5
331
0
  5
3C6
331
0
  5
3C7
331
0
  5
3C8
331
0
  5
3C9
331
0
  5
3CA
331
0
  5
3CB
331
0
  5
3CC
331
3CC
  5
3CD
331
0
  5
3CE
331
0
  5
3CF
331
0
  5
3D0
331
0
  5
3D1
331
0
  5
3D2
331
0
  5
3D3
331
0
  5
3D4
331
0
  5
3D5
331
0
  5
3D6
331
0
  5
3D7
331
0
  5
3D8
331
0
  5
3D9
331
0
  5
3DA
331
0
  5
3DB
331
0
  5
3DC
331
0
  5
3DD
331
0
  5
3DE
331
0
  5
3DF
331
0
  5
3E0
331
0
  5
3E1
331
0
  5
3E2
331
0
  5
3E3
331
0
  5
3E4
331
0
  5
3E5
331
0
  5
3E6
331
0
  5
3E7
331
0
  5
3E8
331
0
  5
3E9
331
0
  5
3EA
331
0
  5
3EB
331
0
  5
3EC
331
0
  5
3ED
331
0
  5
3EE
331
0
  5
3EF
331
0
  5
3F0
331
0
  5
3F1
331
0
  5
3F2
331
0
  5
3F3
331
0
  5
3F4
331
0
  5
3F5
331
0
  5
3F6
331
0
  5
3F7
331
0
  5
3F8
331
0
  5
3F9
331
0
  5
3FA
331
0
  5
3FB
331
0
  5
3FC
331
0
  5
3FD
331
0
  5
3FE
331
0
  5
3FF
331
0
  5
400
331
0
  5
401
331
0
  5
402
331
0
  5
403
331
0
  5
404
331
0
  5
405
331
0
  5
406
331
0
  5
407
331
0
  5
408
331
0
  5
409
331
0
  5
40A
331
0
  5
40B
331
0
  5
40C
331
0
  5
40D
331
0
  5
40E
331
0
  5
40F
331
0
  5
410
331
0
  5
411
331
0
  5
412
331
0
  5
413
331
0
  5
414
331
0
  5
415
331
0
  5
416
331
0
  5
417
331
0
  5
418
331
0
  5
419
331
0
  5
41A
331
0
  5
41B
331
0
  5
41C
331
0
  5
41D
331
0
  5
41E
331
0
  5
41F
331
0
  5
420
331
0
  5
421
331
0
  5
422
331
0
  5
423
331
0
  5
424
331
0
  5
425
331
0
  5
426
331
0
  5
427
331
0
  5
428
331
0
  5
429
331
0
  5
42A
331
0
  5
42B
331
0
  5
42C
331
0
  5
42D
331
0
  5
42E
331
0
  5
42F
331
0
  5
430
331
0
  5
431
331
0
  5
432
331
0
  5
433
331
0
  5
434
331
0
  5
435
331
0
  5
436
331
0
  5
437
331
0
  5
438
331
0
  5
439
331
0
  5
43A
331
0
  5
43B
331
0
  5
43C
331
0
  5
43D
331
0
  5
43E
331
0
  5
43F
331
0
  5
440
331
0
  5
441
331
0
  5
442
331
0
  5
443
331
0
  5
444
331
0
  5
445
331
0
  5
446
331
0
  5
447
331
0
  5
448
331
0
  5
449
331
0
  5
44A
331
0
  5
44B
331
0
  5
44C
331
0
  5
44D
331
0
  5
44E
331
0
  5
44F
331
0
  5
450
331
0
  5
451
331
0
  5
452
331
0
  5
453
331
0
  5
454
331
0
  5
455
331
0
  5
456
331
0
  5
457
331
457
  5
458
331
458
  5
459
331
459
  5
45A
331
45A
  5
45B
331
45B
  5
45C
331
45C
  5
45D
331
45D
  5
45E
331
45E
  5
45F
331
45F
  5
460
331
460
  5
461
331
461
  5
462
331
462
  5
463
331
463
  5
464
331
464
  5
465
331
465
  5
466
331
466
  5
467
331
467
  5
468
331
468
  5
469
331
469
  5
46A
331
46A
  5
46B
331
46B
  5
46C
331
46C
  5
46D
331
46D
  5
46E
331
46E
  5
46F
331
46F
  5
470
331
470
  5
471
331
471
  5
472
331
472
  5
473
331
473
  5
474
331
474
  5
475
331
475
  5
476
331
0
  5
477
331
0
  5
478
331
0
  5
479
331
0
  5
49F
331
0
  5
4D0
331
0
  5
4DB
331
0
  5
4DC
  0
LAYOUT
  5
21
102
{ACAD_REACTORS
330
22
102
}
330
22
100
AcDbPlotSettings
  1

  2
Bullzip PDF Printer.pc3
  4
A3
  6

 40
0.2
 41
0.0
 42
0.0
 43
0.0
 44
420.2
 45
297.1
 46
25.0
 47
12.0
 48
68.9999999050001
 49
10.0
140
1214.99999728
141
827.4999980924998
142
1.0
143
3.0
 70
 11936
 72
     1
 73
     0
 74
     4
  7
monochrome.ctb
 75
     0
147
0.3333333333333333
148
-68.9999999050001
149
-10.0
100
AcDbLayout
  1
Model
 70
     0
 71
     0
 10
0.0
 20
0.0
 11
12.0
 21
9.0
 12
0.0
 22
0.0
 32
0.0
 14
212.2928070051088
 24
23.27442795771287
 34
0.0
 15
1031.835291662091
 25
820.9646079217971
 35
0.0
146
0.0
 13
0.0
 23
0.0
 33
0.0
 16
1.0
 26
0.0
 36
0.0
 17
0.0
 27
1.0
 37
0.0
 76
     0
330
19
331
30
1001
ACAD_PSEXT
1000
Bullzip PDF Printer.pc3
1000
Bullzip PDF Printer
1000
BULLZIP
1000
Bullzip PDF Printer 10.1.0.1871
1070
     0
  0
LAYOUT
  5
26
102
{ACAD_REACTORS
330
22
102
}
330
22
100
AcDbPlotSettings
  1

  2
SR-LP8300F
  4

  6

 40
0.0
 41
0.0
 42
0.0
 43
0.0
 44
0.0
 45
0.0
 46
0.0
 47
0.0
 48
0.0
 49
0.0
140
0.0
141
0.0
142
1.0
143
1.0
 70
   688
 72
     0
 73
     0
 74
     5
  7
monochrome.ctb
 75
    16
147
1.0
148
0.0
149
0.0
100
AcDbLayout
  1
ﾚｲｱｳﾄ1
 70
     0
 71
     1
 10
0.0
 20
0.0
 11
12.0
 21
9.0
 12
0.0
 22
0.0
 32
0.0
 14
1000000000000000E+20
 24
1000000000000000E+20
 34
1000000000000000E+20
 15
-1000000000000000E+20
 25
-1000000000000000E+20
 35
-1000000000000000E+20
146
0.0
 13
0.0
 23
0.0
 33
0.0
 16
1.0
 26
0.0
 36
0.0
 17
0.0
 27
1.0
 37
0.0
 76
     0
330
23
  0
MATERIAL
  5
66
102
{ACAD_REACTORS
330
B
102
}
102
{ACAD_XDICTIONARY
360
534
102
}
330
B
100
AcDbMaterial
  1
ByBlock
 72
     0
 73
     2
 43
0.0208333333333333
 43
0.0
 43
0.0
 43
0.0
 43
0.0
 43
0.0208333333333333
 43
0.0
 43
0.0
 43
0.0
 43
0.0
 43
1.0
 43
0.0
 43
0.0
 43
0.0
 43
0.0
 43
1.0
 77
     0
 78
     2
 47
0.0208333333333333
 47
0.0
 47
0.0
 47
0.0
 47
0.0
 47
0.0208333333333333
 47
0.0
 47
0.0
 47
0.0
 47
0.0
 47
1.0
 47
0.0
 47
0.0
 47
0.0
 47
0.0
 47
1.0
171
     0
172
     2
 49
0.0208333333333333
 49
0.0
 49
0.0
 49
0.0
 49
0.0
 49
0.0208333333333333
 49
0.0
 49
0.0
 49
0.0
 49
0.0
 49
1.0
 49
0.0
 49
0.0
 49
0.0
 49
0.0
 49
1.0
175
     0
176
     2
142
0.0208333333333333
142
0.0
142
0.0
142
0.0
142
0.0
142
0.0208333333333333
142
0.0
142
0.0
142
0.0
142
0.0
142
1.0
142
0.0
142
0.0
142
0.0
142
0.0
142
1.0
179
     0
270
     2
144
0.0208333333333333
144
0.0
144
0.0
144
0.0
144
0.0
144
0.0208333333333333
144
0.0
144
0.0
144
0.0
144
0.0
144
1.0
144
0.0
144
0.0
144
0.0
144
0.0
144
1.0
274
     2
147
0.0208333333333333
147
0.0
147
0.0
147
0.0
147
0.0
147
0.0208333333333333
147
0.0
147
0.0
147
0.0
147
0.0
147
1.0
147
0.0
147
0.0
147
0.0
147
0.0
147
1.0
  0
MATERIAL
  5
12
102
{ACAD_REACTORS
330
B
102
}
102
{ACAD_XDICTIONARY
360
530
102
}
330
B
100
AcDbMaterial
  1
ByLayer
 72
     0
 73
     2
 43
0.0208333333333333
 43
0.0
 43
0.0
 43
0.0
 43
0.0
 43
0.0208333333333333
 43
0.0
 43
0.0
 43
0.0
 43
0.0
 43
1.0
 43
0.0
 43
0.0
 43
0.0
 43
0.0
 43
1.0
 77
     0
 78
     2
 47
0.0208333333333333
 47
0.0
 47
0.0
 47
0.0
 47
0.0
 47
0.0208333333333333
 47
0.0
 47
0.0
 47
0.0
 47
0.0
 47
1.0
 47
0.0
 47
0.0
 47
0.0
 47
0.0
 47
1.0
171
     0
172
     2
 49
0.0208333333333333
 49
0.0
 49
0.0
 49
0.0
 49
0.0
 49
0.0208333333333333
 49
0.0
 49
0.0
 49
0.0
 49
0.0
 49
1.0
 49
0.0
 49
0.0
 49
0.0
 49
0.0
 49
1.0
175
     0
176
     2
142
0.0208333333333333
142
0.0
142
0.0
142
0.0
142
0.0
142
0.0208333333333333
142
0.0
142
0.0
142
0.0
142
0.0
142
1.0
142
0.0
142
0.0
142
0.0
142
0.0
142
1.0
179
     0
270
     2
144
0.0208333333333333
144
0.0
144
0.0
144
0.0
144
0.0
144
0.0208333333333333
144
0.0
144
0.0
144
0.0
144
0.0
144
1.0
144
0.0
144
0.0
144
0.0
144
0.0
144
1.0
274
     2
147
0.0208333333333333
147
0.0
147
0.0
147
0.0
147
0.0
147
0.0208333333333333
147
0.0
147
0.0
147
0.0
147
0.0
147
1.0
147
0.0
147
0.0
147
0.0
147
0.0
147
1.0
  0
MATERIAL
  5
A
102
{ACAD_REACTORS
330
B
102
}
102
{ACAD_XDICTIONARY
360
532
102
}
330
B
100
AcDbMaterial
  1
Global
 72
     0
 73
     2
 43
0.0208333333333333
 43
0.0
 43
0.0
 43
0.0
 43
0.0
 43
0.0208333333333333
 43
0.0
 43
0.0
 43
0.0
 43
0.0
 43
1.0
 43
0.0
 43
0.0
 43
0.0
 43
0.0
 43
1.0
 77
     0
 78
     2
 47
0.0208333333333333
 47
0.0
 47
0.0
 47
0.0
 47
0.0
 47
0.0208333333333333
 47
0.0
 47
0.0
 47
0.0
 47
0.0
 47
1.0
 47
0.0
 47
0.0
 47
0.0
 47
0.0
 47
1.0
171
     0
172
     2
 49
0.0208333333333333
 49
0.0
 49
0.0
 49
0.0
 49
0.0
 49
0.0208333333333333
 49
0.0
 49
0.0
 49
0.0
 49
0.0
 49
1.0
 49
0.0
 49
0.0
 49
0.0
 49
0.0
 49
1.0
175
     0
176
     2
142
0.0208333333333333
142
0.0
142
0.0
142
0.0
142
0.0
142
0.0208333333333333
142
0.0
142
0.0
142
0.0
142
0.0
142
1.0
142
0.0
142
0.0
142
0.0
142
0.0
142
1.0
179
     0
270
     2
144
0.0208333333333333
144
0.0
144
0.0
144
0.0
144
0.0
144
0.0208333333333333
144
0.0
144
0.0
144
0.0
144
0.0
144
1.0
144
0.0
144
0.0
144
0.0
144
0.0
144
1.0
274
     2
147
0.0208333333333333
147
0.0
147
0.0
147
0.0
147
0.0
147
0.0208333333333333
147
0.0
147
0.0
147
0.0
147
0.0
147
1.0
147
0.0
147
0.0
147
0.0
147
0.0
147
1.0
  0
MLEADERSTYLE
  5
498
102
{ACAD_REACTORS
330
47D
102
}
102
{ACAD_XDICTIONARY
360
566
102
}
330
47D
100
AcDbMLeaderStyle
170
     2
171
     1
172
     0
 90
        2
 40
0.0
 41
0.0
173
     1
 91
-1056964608
340
F
 92
       -2
290
     1
 42
0.09
291
     1
 43
0.36
  3
Standard
341
0
 44
0.18
300

342
10
174
     1
178
     6
175
     1
176
     0
 93
-1056964608
 45
0.18
292
     0
297
     0
 46
0.18
343
0
 94
-1056964608
 47
1.0
 49
1.0
140
1.0
293
     1
141
0.0
294
     1
177
     0
142
1.0
295
     0
296
     0
143
0.125
1001
ACAD_MLEADERVER
1070
     2
  0
MLINESTYLE
  5
16
102
{ACAD_REACTORS
330
17
102
}
330
17
100
AcDbMlineStyle
  2
STANDARD
 70
     0
  3

 62
     0
 51
90.0
 52
90.0
 71
     2
 49
0.5
 62
   256
  6
BYLAYER
 49
-0.5
 62
   256
  6
BYLAYER
  0
ACDBPLACEHOLDER
  5
7
102
{ACAD_REACTORS
330
8
102
}
330
8
  0
SCALE
  5
55
102
{ACAD_REACTORS
330
33
102
}
330
33
100
AcDbScale
 70
     0
300
1:1
140
1.0
141
1.0
290
     1
  0
SCALE
  5
5E
102
{ACAD_REACTORS
330
33
102
}
330
33
100
AcDbScale
 70
     0
300
3/8" = 1'-0"
140
0.375
141
12.0
290
     0
  0
SCALE
  5
5F
102
{ACAD_REACTORS
330
33
102
}
330
33
100
AcDbScale
 70
     0
300
1/2" = 1'-0"
140
0.5
141
12.0
290
     0
  0
SCALE
  5
60
102
{ACAD_REACTORS
330
33
102
}
330
33
100
AcDbScale
 70
     0
300
3/4" = 1'-0"
140
0.75
141
12.0
290
     0
  0
SCALE
  5
61
102
{ACAD_REACTORS
330
33
102
}
330
33
100
AcDbScale
 70
     0
300
1" = 1'-0"
140
1.0
141
12.0
290
     0
  0
SCALE
  5
62
102
{ACAD_REACTORS
330
33
102
}
330
33
100
AcDbScale
 70
     0
300
1-1/2" = 1'-0"
140
1.5
141
12.0
290
     0
  0
SCALE
  5
63
102
{ACAD_REACTORS
330
33
102
}
330
33
100
AcDbScale
 70
     0
300
3" = 1'-0"
140
3.0
141
12.0
290
     0
  0
SCALE
  5
64
102
{ACAD_REACTORS
330
33
102
}
330
33
100
AcDbScale
 70
     0
300
6" = 1'-0"
140
6.0
141
12.0
290
     0
  0
SCALE
  5
65
102
{ACAD_REACTORS
330
33
102
}
330
33
100
AcDbScale
 70
     0
300
1'-0" = 1'-0"
140
12.0
141
12.0
290
     0
  0
SCALE
  5
56
102
{ACAD_REACTORS
330
33
102
}
330
33
100
AcDbScale
 70
     0
300
1/128" = 1'-0"
140
0.0078125
141
12.0
290
     0
  0
SCALE
  5
57
102
{ACAD_REACTORS
330
33
102
}
330
33
100
AcDbScale
 70
     0
300
1/64" = 1'-0"
140
0.015625
141
12.0
290
     0
  0
SCALE
  5
58
102
{ACAD_REACTORS
330
33
102
}
330
33
100
AcDbScale
 70
     0
300
1/32" = 1'-0"
140
0.03125
141
12.0
290
     0
  0
SCALE
  5
59
102
{ACAD_REACTORS
330
33
102
}
330
33
100
AcDbScale
 70
     0
300
1/16" = 1'-0"
140
0.0625
141
12.0
290
     0
  0
SCALE
  5
5A
102
{ACAD_REACTORS
330
33
102
}
330
33
100
AcDbScale
 70
     0
300
3/32" = 1'-0"
140
0.09375
141
12.0
290
     0
  0
SCALE
  5
5B
102
{ACAD_REACTORS
330
33
102
}
330
33
100
AcDbScale
 70
     0
300
1/8" = 1'-0"
140
0.125
141
12.0
290
     0
  0
SCALE
  5
5C
102
{ACAD_REACTORS
330
33
102
}
330
33
100
AcDbScale
 70
     0
300
3/16" = 1'-0"
140
0.1875
141
12.0
290
     0
  0
SCALE
  5
5D
102
{ACAD_REACTORS
330
33
102
}
330
33
100
AcDbScale
 70
     0
300
1/4" = 1'-0"
140
0.25
141
12.0
290
     0
  0
TABLESTYLE
  5
49D
102
{ACAD_REACTORS
330
47C
102
}
330
47C
100
AcDbTableStyle
  3
Standard
 70
     0
 71
     0
 40
0.06
 41
0.06
280
     0
281
     0
  7
STANDARD
140
0.18
170
     2
 62
     0
 63
   257
283
     0
274
    -2
284
     1
 64
     0
275
    -2
285
     1
 65
     0
276
    -2
286
     1
 66
     0
277
    -2
287
     1
 67
     0
278
    -2
288
     1
 68
     0
279
    -2
289
     1
 69
     0
  7
STANDARD
140
0.25
170
     5
 62
     0
 63
   257
283
     0
274
    -2
284
     1
 64
     0
275
    -2
285
     1
 65
     0
276
    -2
286
     1
 66
     0
277
    -2
287
     1
 67
     0
278
    -2
288
     1
 68
     0
279
    -2
289
     1
 69
     0
  7
STANDARD
140
0.18
170
     5
 62
     0
 63
   257
283
     0
274
    -2
284
     1
 64
     0
275
    -2
285
     1
 65
     0
276
    -2
286
     1
 66
     0
277
    -2
287
     1
 67
     0
278
    -2
288
     1
 68
     0
279
    -2
289
     1
 69
     0
  0
VISUALSTYLE
  5
484
102
{ACAD_REACTORS
330
2E
102
}
102
{ACAD_XDICTIONARY
360
53E
102
}
330
2E
100
AcDbVisualStyle
  2
2dWireframe
 70
     4
 71
     0
 72
     2
 73
     0
 90
        0
 40
0.6
 41
30.0
 62
     5
 63
     7
 74
     1
 91
        4
 64
     7
 65
   257
 75
     1
175
     1
 42
1.0
 92
        0
 66
   257
 43
1.0
 76
     1
 77
     6
 78
     2
 67
     7
 79
     5
170
     0
171
     0
290
     0
174
     0
 93
        1
 44
0.0
173
     0
291
     0
 45
0.0
1001
ACAD
1000
AcDbSavedByObjectVersion
1070
     0
  0
VISUALSTYLE
  5
487
102
{ACAD_REACTORS
330
2E
102
}
102
{ACAD_XDICTIONARY
360
544
102
}
330
2E
100
AcDbVisualStyle
  2
Basic
 70
     7
 71
     1
 72
     0
 73
     1
 90
        0
 40
0.6
 41
30.0
 62
     5
 63
     7
 74
     0
 91
        4
 64
     7
 65
   257
 75
     1
175
     1
 42
1.0
 92
        8
 66
     7
 43
1.0
 76
     1
 77
     6
 78
     2
 67
     7
 79
     5
170
     0
171
     0
290
     0
174
     0
 93
        1
 44
0.0
173
     0
291
     1
 45
0.0
1001
ACAD
1000
AcDbSavedByObjectVersion
1070
     0
  0
VISUALSTYLE
  5
48B
102
{ACAD_REACTORS
330
2E
102
}
102
{ACAD_XDICTIONARY
360
54C
102
}
330
2E
100
AcDbVisualStyle
  2
Brighten
 70
    12
 71
     2
 72
     2
 73
     0
 90
        0
 40
0.6
 41
30.0
 62
     5
 63
     7
 74
     1
 91
        4
 64
     7
 65
   257
 75
     1
175
     1
 42
1.0
 92
        8
 66
     7
 43
1.0
 76
     1
 77
     6
 78
     2
 67
     7
 79
     5
170
     0
171
     0
290
     0
174
     0
 93
        1
 44
50.0
173
     0
291
     1
 45
0.0
1001
ACAD
1000
AcDbSavedByObjectVersion
1070
     0
  0
VISUALSTYLE
  5
48F
102
{ACAD_REACTORS
330
2E
102
}
102
{ACAD_XDICTIONARY
360
554
102
}
330
2E
100
AcDbVisualStyle
  2
ColorChange
 70
    16
 71
     2
 72
     2
 73
     3
 90
        0
 40
0.6
 41
30.0
 62
     5
 63
     8
 74
     1
 91
        4
 64
     7
 65
   257
 75
     1
175
     1
 42
1.0
 92
        8
 66
     8
 43
1.0
 76
     1
 77
     6
 78
     2
 67
     7
 79
     5
170
     0
171
     0
290
     0
174
     0
 93
        1
 44
0.0
173
     0
291
     1
 45
0.0
1001
ACAD
1000
AcDbSavedByObjectVersion
1070
     0
  0
VISUALSTYLE
  5
489
102
{ACAD_REACTORS
330
2E
102
}
102
{ACAD_XDICTIONARY
360
548
102
}
330
2E
100
AcDbVisualStyle
  2
Conceptual
 70
     9
 71
     3
 72
     2
 73
     0
 90
        0
 40
0.6
 41
30.0
 62
     5
 63
     7
 74
     2
 91
        2
 64
     7
 65
   257
 75
     1
175
     1
 42
40.0
 92
        8
 66
     7
 43
1.0
 76
     1
 77
     6
 78
     2
 67
     7
 79
     3
170
     0
171
     0
290
     0
174
     0
 93
        1
 44
0.0
173
     0
291
     0
 45
0.0
1001
ACAD
1000
AcDbSavedByObjectVersion
1070
     0
  0
VISUALSTYLE
  5
48A
102
{ACAD_REACTORS
330
2E
102
}
102
{ACAD_XDICTIONARY
360
54A
102
}
330
2E
100
AcDbVisualStyle
  2
Dim
 70
    11
 71
     2
 72
     2
 73
     0
 90
        0
 40
0.6
 41
30.0
 62
     5
 63
     7
 74
     1
 91
        4
 64
     7
 65
   257
 75
     1
175
     1
 42
1.0
 92
        8
 66
     7
 43
1.0
 76
     1
 77
     6
 78
     2
 67
     7
 79
     5
170
     0
171
     0
290
     0
174
     0
 93
        1
 44
-50.0
173
     0
291
     1
 45
0.0
1001
ACAD
1000
AcDbSavedByObjectVersion
1070
     0
  0
VISUALSTYLE
  5
492
102
{ACAD_REACTORS
330
2E
102
}
102
{ACAD_XDICTIONARY
360
55A
102
}
330
2E
100
AcDbVisualStyle
  2
EdgeColorOff
 70
    22
 71
     2
 72
     2
 73
     0
 90
        0
 40
0.6
 41
30.0
 62
     5
 63
     7
 74
     1
 91
        4
 64
     7
 65
   257
 75
     1
175
     1
 42
1.0
 92
        8
 66
     7
 43
1.0
 76
     1
 77
     6
 78
     2
 67
     7
 79
     5
170
     0
171
     0
290
     0
174
     0
 93
        1
 44
0.0
173
     0
291
     1
 45
0.0
1001
ACAD
1000
AcDbSavedByObjectVersion
1070
     0
  0
VISUALSTYLE
  5
48E
102
{ACAD_REACTORS
330
2E
102
}
102
{ACAD_XDICTIONARY
360
552
102
}
330
2E
100
AcDbVisualStyle
  2
Facepattern
 70
    15
 71
     2
 72
     2
 73
     0
 90
        0
 40
0.6
 41
30.0
 62
     5
 63
     7
 74
     1
 91
        4
 64
     7
 65
   257
 75
     1
175
     1
 42
1.0
 92
        8
 66
     7
 43
1.0
 76
     1
 77
     6
 78
     2
 67
     7
 79
     5
170
     0
171
     0
290
     0
174
     0
 93
        1
 44
0.0
173
     0
291
     1
 45
0.0
1001
ACAD
1000
AcDbSavedByObjectVersion
1070
     0
  0
VISUALSTYLE
  5
480
102
{ACAD_REACTORS
330
2E
102
}
102
{ACAD_XDICTIONARY
360
536
102
}
330
2E
100
AcDbVisualStyle
  2
Flat
 70
     0
 71
     2
 72
     1
 73
     1
 90
        2
 40
0.6
 41
30.0
 62
     5
 63
     7
 74
     0
 91
        4
 64
     7
 65
   257
 75
     1
175
     1
 42
1.0
 92
        8
 66
     7
 43
1.0
 76
     1
 77
     6
 78
     2
 67
     7
 79
     5
170
     0
171
     0
290
     0
174
     0
 93
       13
 44
0.0
173
     0
291
     1
 45
0.0
1001
ACAD
1000
AcDbSavedByObjectVersion
1070
     0
  0
VISUALSTYLE
  5
481
102
{ACAD_REACTORS
330
2E
102
}
102
{ACAD_XDICTIONARY
360
538
102
}
330
2E
100
AcDbVisualStyle
  2
FlatWithEdges
 70
     1
 71
     2
 72
     1
 73
     1
 90
        2
 40
0.6
 41
30.0
 62
     5
 63
     7
 74
     1
 91
        4
 64
     7
 65
   257
 75
     1
175
     1
 42
1.0
 92
        0
 66
   257
 43
1.0
 76
     1
 77
     6
 78
     2
 67
     7
 79
     5
170
     0
171
     0
290
     0
174
     0
 93
       13
 44
0.0
173
     0
291
     1
 45
0.0
1001
ACAD
1000
AcDbSavedByObjectVersion
1070
     0
  0
VISUALSTYLE
  5
482
102
{ACAD_REACTORS
330
2E
102
}
102
{ACAD_XDICTIONARY
360
53A
102
}
330
2E
100
AcDbVisualStyle
  2
Gouraud
 70
     2
 71
     2
 72
     2
 73
     1
 90
        2
 40
0.6
 41
30.0
 62
     5
 63
     7
 74
     0
 91
        4
 64
     7
 65
   257
 75
     1
175
     1
 42
1.0
 92
        0
 66
     7
 43
1.0
 76
     1
 77
     6
 78
     2
 67
     7
 79
     5
170
     0
171
     0
290
     0
174
     0
 93
       13
 44
0.0
173
     0
291
     1
 45
0.0
1001
ACAD
1000
AcDbSavedByObjectVersion
1070
     0
  0
VISUALSTYLE
  5
483
102
{ACAD_REACTORS
330
2E
102
}
102
{ACAD_XDICTIONARY
360
53C
102
}
330
2E
100
AcDbVisualStyle
  2
GouraudWithEdges
 70
     3
 71
     2
 72
     2
 73
     1
 90
        2
 40
0.6
 41
30.0
 62
     5
 63
     7
 74
     1
 91
        4
 64
     7
 65
   257
 75
     1
175
     1
 42
1.0
 92
        0
 66
   257
 43
1.0
 76
     1
 77
     6
 78
     2
 67
     7
 79
     5
170
     0
171
     0
290
     0
174
     0
 93
       13
 44
0.0
173
     0
291
     1
 45
0.0
1001
ACAD
1000
AcDbSavedByObjectVersion
1070
     0
  0
VISUALSTYLE
  5
486
102
{ACAD_REACTORS
330
2E
102
}
102
{ACAD_XDICTIONARY
360
542
102
}
330
2E
100
AcDbVisualStyle
  2
Hidden
 70
     6
 71
     1
 72
     2
 73
     2
 90
        0
 40
0.6
 41
30.0
 62
     5
 63
     7
 74
     2
 91
        2
 64
     7
 65
   257
 75
     2
175
     1
 42
40.0
 92
        0
 66
   257
 43
1.0
 76
     1
 77
     6
 78
     2
 67
     7
 79
     3
170
     0
171
     0
290
     0
174
     0
 93
        1
 44
0.0
173
     0
291
     0
 45
0.0
1001
ACAD
1000
AcDbSavedByObjectVersion
1070
     0
  0
VISUALSTYLE
  5
490
102
{ACAD_REACTORS
330
2E
102
}
102
{ACAD_XDICTIONARY
360
556
102
}
330
2E
100
AcDbVisualStyle
  2
JitterOff
 70
    20
 71
     2
 72
     2
 73
     0
 90
        0
 40
0.6
 41
30.0
 62
     5
 63
     7
 74
     1
 91
        4
 64
     7
 65
   257
 75
     1
175
     1
 42
1.0
 92
       10
 66
     7
 43
1.0
 76
     1
 77
     6
 78
     2
 67
     7
 79
     5
170
     0
171
     0
290
     0
174
     0
 93
        1
 44
0.0
173
     0
291
     1
 45
0.0
1001
ACAD
1000
AcDbSavedByObjectVersion
1070
     0
  0
VISUALSTYLE
  5
48D
102
{ACAD_REACTORS
330
2E
102
}
102
{ACAD_XDICTIONARY
360
550
102
}
330
2E
100
AcDbVisualStyle
  2
Linepattern
 70
    14
 71
     2
 72
     2
 73
     0
 90
        0
 40
0.6
 41
30.0
 62
     5
 63
     7
 74
     1
 91
        4
 64
     7
 65
   257
 75
     7
175
     7
 42
1.0
 92
        8
 66
     7
 43
1.0
 76
     1
 77
     6
 78
     2
 67
     7
 79
     5
170
     0
171
     0
290
     0
174
     0
 93
        1
 44
0.0
173
     0
291
     1
 45
0.0
1001
ACAD
1000
AcDbSavedByObjectVersion
1070
     0
  0
VISUALSTYLE
  5
491
102
{ACAD_REACTORS
330
2E
102
}
102
{ACAD_XDICTIONARY
360
558
102
}
330
2E
100
AcDbVisualStyle
  2
OverhangOff
 70
    21
 71
     2
 72
     2
 73
     0
 90
        0
 40
0.6
 41
30.0
 62
     5
 63
     7
 74
     1
 91
        4
 64
     7
 65
   257
 75
     1
175
     1
 42
1.0
 92
        9
 66
     7
 43
1.0
 76
     1
 77
     6
 78
     2
 67
     7
 79
     5
170
     0
171
     0
290
     0
174
     0
 93
        1
 44
0.0
173
     0
291
     1
 45
0.0
1001
ACAD
1000
AcDbSavedByObjectVersion
1070
     0
  0
VISUALSTYLE
  5
488
102
{ACAD_REACTORS
330
2E
102
}
102
{ACAD_XDICTIONARY
360
546
102
}
330
2E
100
AcDbVisualStyle
  2
Realistic
 70
     8
 71
     2
 72
     3
 73
     0
 90
        2
 40
0.6
 41
30.0
 62
     5
 63
     7
 74
     0
 91
        0
 64
     7
 65
   257
 75
     1
175
     1
 42
1.0
 92
        8
 66
   257
 43
1.0
 76
     1
 77
     6
 78
     2
 67
     7
 79
     3
170
     0
171
     0
290
     0
174
     0
 93
       13
 44
0.0
173
     0
291
     0
 45
0.0
1001
ACAD
1000
AcDbSavedByObjectVersion
1070
     0
  0
VISUALSTYLE
  5
497
102
{ACAD_REACTORS
330
2E
102
}
102
{ACAD_XDICTIONARY
360
564
102
}
330
2E
100
AcDbVisualStyle
  2
Shaded
 70
    27
 71
     2
 72
     2
 73
     1
 90
        2
 40
0.6
 41
30.0
 62
     5
 63
     7
 74
     0
 91
        4
 64
     7
 65
   257
 75
     1
175
     1
 42
1.0
 92
        8
 66
   257
 43
1.0
 76
     1
 77
     6
 78
     2
 67
   251
 79
     3
170
     0
171
     0
290
     0
174
     0
 93
        5
 44
0.0
173
     0
291
     0
 45
0.0
1001
ACAD
1000
AcDbSavedByObjectVersion
1070
     0
  0
VISUALSTYLE
  5
496
102
{ACAD_REACTORS
330
2E
102
}
102
{ACAD_XDICTIONARY
360
562
102
}
330
2E
100
AcDbVisualStyle
  2
Shaded with edges
 70
    26
 71
     2
 72
     2
 73
     1
 90
        2
 40
0.6
 41
30.0
 62
     5
 63
     7
 74
     1
 91
       10
 64
     7
 65
   257
 75
     2
175
     1
 42
1.0
 92
        8
 66
   257
 43
1.0
 76
     1
 77
     6
 78
     2
 67
     7
 79
     3
170
     0
171
     0
290
     0
174
     0
 93
        5
 44
0.0
173
     0
291
     0
 45
0.0
1001
ACAD
1000
AcDbSavedByObjectVersion
1070
     0
  0
VISUALSTYLE
  5
493
102
{ACAD_REACTORS
330
2E
102
}
102
{ACAD_XDICTIONARY
360
55C
102
}
330
2E
100
AcDbVisualStyle
  2
Shades of Gray
 70
    23
 71
     2
 72
     2
 73
     3
 90
        0
 40
0.6
 41
30.0
 62
     5
 63
     7
 74
     2
 91
        2
 64
     7
 65
     7
 75
     1
175
     1
 42
40.0
 92
        8
 66
     7
 43
1.0
 76
     1
 77
     6
 78
     2
 67
     7
 79
     3
170
     0
171
     0
290
     0
174
     0
 93
        1
 44
0.0
173
     0
291
     0
 45
0.0
1001
ACAD
1000
AcDbSavedByObjectVersion
1070
     0
  0
VISUALSTYLE
  5
494
102
{ACAD_REACTORS
330
2E
102
}
102
{ACAD_XDICTIONARY
360
55E
102
}
330
2E
100
AcDbVisualStyle
  2
Sketchy
 70
    24
 71
     1
 72
     2
 73
     2
 90
        0
 40
0.6
 41
30.0
 62
     5
 63
     7
 74
     2
 91
        2
 64
     7
 65
     7
 75
     1
175
     1
 42
40.0
 92
       11
 66
     7
 43
1.0
 76
     1
 77
     6
 78
     2
 67
     7
 79
     6
170
     0
171
     0
290
     0
174
     0
 93
        1
 44
0.0
173
     0
291
     0
 45
0.0
1001
ACAD
1000
AcDbSavedByObjectVersion
1070
     0
  0
VISUALSTYLE
  5
48C
102
{ACAD_REACTORS
330
2E
102
}
102
{ACAD_XDICTIONARY
360
54E
102
}
330
2E
100
AcDbVisualStyle
  2
Thicken
 70
    13
 71
     2
 72
     2
 73
     0
 90
        0
 40
0.6
 41
30.0
 62
     5
 63
     7
 74
     1
 91
        4
 64
     7
 65
   257
 75
     1
175
     1
 42
1.0
 92
       12
 66
     7
 43
1.0
 76
     1
 77
     6
 78
     2
 67
     7
 79
     5
170
     0
171
     0
290
     0
174
     0
 93
        1
 44
0.0
173
     0
291
     1
 45
0.0
1001
ACAD
1000
AcDbSavedByObjectVersion
1070
     0
  0
VISUALSTYLE
  5
485
102
{ACAD_REACTORS
330
2E
102
}
102
{ACAD_XDICTIONARY
360
540
102
}
330
2E
100
AcDbVisualStyle
  2
Wireframe
 70
     5
 71
     0
 72
     2
 73
     0
 90
        0
 40
0.6
 41
30.0
 62
     5
 63
     7
 74
     1
 91
        4
 64
     7
 65
   257
 75
     1
175
     1
 42
1.0
 92
        0
 66
   257
 43
1.0
 76
     1
 77
     6
 78
     2
 67
     7
 79
     5
170
     0
171
     0
290
     0
174
     0
 93
        1
 44
0.0
173
     0
291
     0
 45
0.0
1001
ACAD
1000
AcDbSavedByObjectVersion
1070
     0
  0
VISUALSTYLE
  5
495
102
{ACAD_REACTORS
330
2E
102
}
102
{ACAD_XDICTIONARY
360
560
102
}
330
2E
100
AcDbVisualStyle
  2
X-Ray
 70
    25
 71
     2
 72
     2
 73
     1
 90
        1
 40
0.5
 41
30.0
 62
     5
 63
     7
 74
     1
 91
        0
 64
     7
 65
   257
 75
     1
175
     1
 42
1.0
 92
        8
 66
     7
 43
1.0
 76
     1
 77
     6
 78
     2
 67
     7
 79
     3
170
     0
171
     0
290
     0
174
     0
 93
       13
 44
0.0
173
     0
291
     0
 45
0.0
1001
ACAD
1000
AcDbSavedByObjectVersion
1070
     0
  0
XRECORD
  5
52A
102
{ACAD_REACTORS
330
529
102
}
330
529
100
AcDbXrecord
280
     1
340
2D
  0
XRECORD
  5
52B
102
{ACAD_REACTORS
330
529
102
}
330
529
100
AcDbXrecord
280
     1
340
B
  0
DICTIONARYVAR
  5
47B
102
{ACAD_REACTORS
330
47A
102
}
330
47A
100
DictionaryVariables
280
     0
  1
1:1
  0
DICTIONARYVAR
  5
49B
102
{ACAD_REACTORS
330
47A
102
}
330
47A
100
DictionaryVariables
280
     0
  1
Standard
  0
DICTIONARYVAR
  5
49E
102
{ACAD_REACTORS
330
47A
102
}
330
47A
100
DictionaryVariables
280
     0
  1
Standard
  0
DICTIONARYVAR
  5
527
102
{ACAD_REACTORS
330
47A
102
}
330
47A
100
DictionaryVariables
280
     0
  1
0
  0
DICTIONARYVAR
  5
528
102
{ACAD_REACTORS
330
47A
102
}
330
47A
100
DictionaryVariables
280
     0
  1
0
  0
DICTIONARYVAR
  5
52F
102
{ACAD_REACTORS
330
47A
102
}
330
47A
100
DictionaryVariables
280
     0
  1
1
  0
DICTIONARY
  5
534
330
66
100
AcDbDictionary
280
     1
281
     1
  3
ACAD_XREC_ROUNDTRIP
360
535
  0
DICTIONARY
  5
530
330
12
100
AcDbDictionary
280
     1
281
     1
  3
ACAD_XREC_ROUNDTRIP
360
531
  0
DICTIONARY
  5
532
330
A
100
AcDbDictionary
280
     1
281
     1
  3
ACAD_XREC_ROUNDTRIP
360
533
  0
DICTIONARY
  5
566
330
498
100
AcDbDictionary
280
     1
281
     1
  3
ACAD_XREC_ROUNDTRIP
360
567
  0
DICTIONARY
  5
53E
330
484
100
AcDbDictionary
280
     1
281
     1
  3
ACAD_XREC_ROUNDTRIP
360
53F
  0
DICTIONARY
  5
544
330
487
100
AcDbDictionary
280
     1
281
     1
  3
ACAD_XREC_ROUNDTRIP
360
545
  0
DICTIONARY
  5
54C
330
48B
100
AcDbDictionary
280
     1
281
     1
  3
ACAD_XREC_ROUNDTRIP
360
54D
  0
DICTIONARY
  5
554
330
48F
100
AcDbDictionary
280
     1
281
     1
  3
ACAD_XREC_ROUNDTRIP
360
555
  0
DICTIONARY
  5
548
330
489
100
AcDbDictionary
280
     1
281
     1
  3
ACAD_XREC_ROUNDTRIP
360
549
  0
DICTIONARY
  5
54A
330
48A
100
AcDbDictionary
280
     1
281
     1
  3
ACAD_XREC_ROUNDTRIP
360
54B
  0
DICTIONARY
  5
55A
330
492
100
AcDbDictionary
280
     1
281
     1
  3
ACAD_XREC_ROUNDTRIP
360
55B
  0
DICTIONARY
  5
552
330
48E
100
AcDbDictionary
280
     1
281
     1
  3
ACAD_XREC_ROUNDTRIP
360
553
  0
DICTIONARY
  5
536
330
480
100
AcDbDictionary
280
     1
281
     1
  3
ACAD_XREC_ROUNDTRIP
360
537
  0
DICTIONARY
  5
538
330
481
100
AcDbDictionary
280
     1
281
     1
  3
ACAD_XREC_ROUNDTRIP
360
539
  0
DICTIONARY
  5
53A
330
482
100
AcDbDictionary
280
     1
281
     1
  3
ACAD_XREC_ROUNDTRIP
360
53B
  0
DICTIONARY
  5
53C
330
483
100
AcDbDictionary
280
     1
281
     1
  3
ACAD_XREC_ROUNDTRIP
360
53D
  0
DICTIONARY
  5
542
330
486
100
AcDbDictionary
280
     1
281
     1
  3
ACAD_XREC_ROUNDTRIP
360
543
  0
DICTIONARY
  5
556
330
490
100
AcDbDictionary
280
     1
281
     1
  3
ACAD_XREC_ROUNDTRIP
360
557
  0
DICTIONARY
  5
550
330
48D
100
AcDbDictionary
280
     1
281
     1
  3
ACAD_XREC_ROUNDTRIP
360
551
  0
DICTIONARY
  5
558
330
491
100
AcDbDictionary
280
     1
281
     1
  3
ACAD_XREC_ROUNDTRIP
360
559
  0
DICTIONARY
  5
546
330
488
100
AcDbDictionary
280
     1
281
     1
  3
ACAD_XREC_ROUNDTRIP
360
547
  0
DICTIONARY
  5
564
330
497
100
AcDbDictionary
280
     1
281
     1
  3
ACAD_XREC_ROUNDTRIP
360
565
  0
DICTIONARY
  5
562
330
496
100
AcDbDictionary
280
     1
281
     1
  3
ACAD_XREC_ROUNDTRIP
360
563
  0
DICTIONARY
  5
55C
330
493
100
AcDbDictionary
280
     1
281
     1
  3
ACAD_XREC_ROUNDTRIP
360
55D
  0
DICTIONARY
  5
55E
330
494
100
AcDbDictionary
280
     1
281
     1
  3
ACAD_XREC_ROUNDTRIP
360
55F
  0
DICTIONARY
  5
54E
330
48C
100
AcDbDictionary
280
     1
281
     1
  3
ACAD_XREC_ROUNDTRIP
360
54F
  0
DICTIONARY
  5
540
330
485
100
AcDbDictionary
280
     1
281
     1
  3
ACAD_XREC_ROUNDTRIP
360
541
  0
DICTIONARY
  5
560
330
495
100
AcDbDictionary
280
     1
281
     1
  3
ACAD_XREC_ROUNDTRIP
360
561
  0
XRECORD
  5
535
102
{ACAD_REACTORS
330
534
102
}
330
534
100
AcDbXrecord
280
     1
102
MATERIAL
148
0.0
149
0.0
149
0.0
 93
        0
 94
      127
282
     0
 72
     0
 77
     0
171
     0
175
     0
179
     0
273
     0
  0
XRECORD
  5
531
102
{ACAD_REACTORS
330
530
102
}
330
530
100
AcDbXrecord
280
     1
102
MATERIAL
148
0.0
149
0.0
149
0.0
 93
        0
 94
      127
282
     0
 72
     0
 77
     0
171
     0
175
     0
179
     0
273
     0
  0
XRECORD
  5
533
102
{ACAD_REACTORS
330
532
102
}
330
532
100
AcDbXrecord
280
     1
102
MATERIAL
148
0.0
149
0.0
149
0.0
 93
        0
 94
      127
282
     0
 72
     0
 77
     0
171
     0
175
     0
179
     0
273
     0
  0
XRECORD
  5
567
102
{ACAD_REACTORS
330
566
102
}
330
566
100
AcDbXrecord
280
     1
102
ACAD_ROUNDTRIP_2010_MLEADER_STYLE
  0
XRECORD
  5
53F
102
{ACAD_REACTORS
330
53E
102
}
330
53E
100
AcDbXrecord
280
     1
102
RTVSPropertyOp0
 70
     1
102
RTVSPropertyOp1
 70
     1
102
RTVSPropertyOp2
 70
     1
102
RTVSPropertyOp3
 70
     1
102
RTVSPropertyOp4
 70
     1
102
RTVSPropertyOp5
 70
     1
102
RTVSPropertyOp6
 70
     1
102
RTVSPropertyOp7
 70
     1
102
RTVSPropertyOp8
 70
     1
102
RTVSPropertyOp9
 70
     1
102
RTVSPropertyOp10
 70
     1
102
RTVSPropertyOp11
 70
     1
102
RTVSPropertyOp12
 70
     1
102
RTVSPropertyOp13
 70
     1
102
RTVSPropertyOp14
 70
     1
102
RTVSPropertyOp15
 70
     1
102
RTVSPropertyOp16
 70
     1
102
RTVSPropertyOp17
 70
     1
102
RTVSPropertyOp18
 70
     1
102
RTVSPropertyOp19
 70
     1
102
RTVSPropertyOp20
 70
     1
102
RTVSPropertyOp21
 70
     1
102
RTVSPropertyOp22
 70
     1
102
RTVSPropertyOp23
 70
     1
102
RTVSPropertyOp24
 70
     1
102
RTVSPropertyOp25
 70
     1
102
RTVSPropertyOp26
 70
     1
102
RTVSPropertyOp27
 70
     1
102
RTVSPropertyOp28
 70
     1
102
RTVSPropertyOp29
 70
     1
102
RTVSPropertyOp30
 70
     1
102
RTVSPropertyOp31
 70
     1
102
RTVSPropertyOp32
 70
     1
102
RTVSPropertyOp33
 70
     1
102
RTVSPropertyOp34
 70
     1
102
RTVSPropertyOp35
 70
     1
102
RTVSPropertyOp36
 70
     1
102
RTVSPropertyOp37
 70
     1
102
RTVSPropertyOp38
 70
     1
102
RTVSPropertyOp39
 70
     1
102
RTVSPropertyOp40
 70
     1
102
RTVSPropertyOp41
 70
     1
102
RTVSPropertyOp42
 70
     1
102
RTVSPropertyOp43
 70
     1
102
RTVSPropertyOp44
 70
     1
102
RTVSPropertyOp45
 70
     1
102
RTVSPropertyOp46
 70
     1
102
RTVSPropertyOp47
 70
     1
102
RTVSPropertyOp48
 70
     1
102
RTVSPropertyOp49
 70
     1
102
RTVSPropertyOp50
 70
     1
102
RTVSPropertyOp51
 70
     0
102
RTVSPropertyOp52
 70
     0
102
RTVSPropertyOp53
 70
     1
102
RTVSPropertyOp54
 70
     1
102
RTVSPropertyOp55
 70
     1
102
RTVSPropertyOp56
 70
     1
102
RTVSPropertyOp57
 70
     1
102
RTVSPost2010Prop28
280
     1
102
RTVSPost2010PropOp28
 70
     1
102
RTVSPost2010Prop29
280
     1
102
RTVSPost2010PropOp29
 70
     1
102
RTVSPost2010Prop30
280
     0
102
RTVSPost2010PropOp30
 70
     1
102
RTVSPost2010Prop31
280
     0
102
RTVSPost2010PropOp31
 70
     1
102
RTVSPost2010Prop32
280
     0
102
RTVSPost2010PropOp32
 70
     1
102
RTVSPost2010Prop33
280
     0
102
RTVSPost2010PropOp33
 70
     1
102
RTVSPost2010Prop34
280
     0
102
RTVSPost2010PropOp34
 70
     1
102
RTVSPost2010Prop35
280
     0
102
RTVSPost2010PropOp35
 70
     1
102
RTVSPost2010Prop36
280
     0
102
RTVSPost2010PropOp36
 70
     1
102
RTVSPost2010Prop37
 90
       50
102
RTVSPost2010PropOp37
 70
     1
102
RTVSPost2010Prop38
140
0.0
102
RTVSPost2010PropOp38
 70
     1
102
RTVSPost2010Prop39
140
1.0
102
RTVSPost2010PropOp39
 70
     1
102
RTVSPost2010Prop40
 90
        0
102
RTVSPost2010PropOp40
 70
     1
102
RTVSPost2010Prop41ColorIndex
 90
       18
102
RTVSPost2010Prop41ColorRGB
 90
        0
102
RTVSPost2010PropOp41
 70
     1
102
RTVSPost2010Prop42
 90
       50
102
RTVSPost2010PropOp42
 70
     1
102
RTVSPost2010Prop43
 90
        3
102
RTVSPost2010PropOp43
 70
     1
102
RTVSPost2010Prop44ColorIndex
 90
        5
102
RTVSPost2010Prop44ColorRGB
 90
      255
102
RTVSPost2010PropOp44
 70
     1
102
RTVSPost2010Prop45
280
     0
102
RTVSPost2010PropOp45
 70
     1
102
RTVSPost2010Prop46
 90
       50
102
RTVSPost2010PropOp46
 70
     1
102
RTVSPost2010Prop47
 90
       50
102
RTVSPost2010PropOp47
 70
     1
102
RTVSPost2010Prop48
 90
       50
102
RTVSPost2010PropOp48
 70
     1
102
RTVSPost2010Prop49
280
     0
102
RTVSPost2010PropOp49
 70
     1
102
RTVSPost2010Prop50
 90
       50
102
RTVSPost2010PropOp50
 70
     1
102
RTVSPost2010Prop51ColorIndex
 90
      256
102
RTVSPost2010Prop51ColorRGB
 90
-16777216
102
RTVSPost2010PropOp51
 70
     0
102
RTVSPost2010Prop52
140
1.0
102
RTVSPost2010PropOp52
 70
     0
102
RTVSPost2010Prop53
 90
        2
102
RTVSPost2010PropOp53
 70
     1
102
RTVSPost2010Prop54
  1
strokes_ogs.tif
102
RTVSPost2010PropOp54
 70
     1
102
RTVSPost2010Prop55
280
     0
102
RTVSPost2010PropOp55
 70
     1
102
RTVSPost2010Prop56
140
1.0
102
RTVSPost2010PropOp56
 70
     1
102
RTVSPost2010Prop57
140
1.0
102
RTVSPost2010PropOp57
 70
     1
  0
XRECORD
  5
545
102
{ACAD_REACTORS
330
544
102
}
330
544
100
AcDbXrecord
280
     1
102
RTVSPropertyOp0
 70
     1
102
RTVSPropertyOp1
 70
     1
102
RTVSPropertyOp2
 70
     1
102
RTVSPropertyOp3
 70
     1
102
RTVSPropertyOp4
 70
     1
102
RTVSPropertyOp5
 70
     1
102
RTVSPropertyOp6
 70
     1
102
RTVSPropertyOp7
 70
     1
102
RTVSPropertyOp8
 70
     1
102
RTVSPropertyOp9
 70
     1
102
RTVSPropertyOp10
 70
     1
102
RTVSPropertyOp11
 70
     1
102
RTVSPropertyOp12
 70
     1
102
RTVSPropertyOp13
 70
     1
102
RTVSPropertyOp14
 70
     1
102
RTVSPropertyOp15
 70
     1
102
RTVSPropertyOp16
 70
     1
102
RTVSPropertyOp17
 70
     1
102
RTVSPropertyOp18
 70
     1
102
RTVSPropertyOp19
 70
     1
102
RTVSPropertyOp20
 70
     1
102
RTVSPropertyOp21
 70
     1
102
RTVSPropertyOp22
 70
     1
102
RTVSPropertyOp23
 70
     1
102
RTVSPropertyOp24
 70
     1
102
RTVSPropertyOp25
 70
     1
102
RTVSPropertyOp26
 70
     1
102
RTVSPropertyOp27
 70
     1
102
RTVSPropertyOp28
 70
     1
102
RTVSPropertyOp29
 70
     1
102
RTVSPropertyOp30
 70
     1
102
RTVSPropertyOp31
 70
     1
102
RTVSPropertyOp32
 70
     1
102
RTVSPropertyOp33
 70
     1
102
RTVSPropertyOp34
 70
     1
102
RTVSPropertyOp35
 70
     1
102
RTVSPropertyOp36
 70
     1
102
RTVSPropertyOp37
 70
     1
102
RTVSPropertyOp38
 70
     1
102
RTVSPropertyOp39
 70
     1
102
RTVSPropertyOp40
 70
     1
102
RTVSPropertyOp41
 70
     1
102
RTVSPropertyOp42
 70
     1
102
RTVSPropertyOp43
 70
     1
102
RTVSPropertyOp44
 70
     1
102
RTVSPropertyOp45
 70
     1
102
RTVSPropertyOp46
 70
     1
102
RTVSPropertyOp47
 70
     1
102
RTVSPropertyOp48
 70
     1
102
RTVSPropertyOp49
 70
     1
102
RTVSPropertyOp50
 70
     1
102
RTVSPropertyOp51
 70
     0
102
RTVSPropertyOp52
 70
     0
102
RTVSPropertyOp53
 70
     1
102
RTVSPropertyOp54
 70
     1
102
RTVSPropertyOp55
 70
     1
102
RTVSPropertyOp56
 70
     1
102
RTVSPropertyOp57
 70
     1
102
RTVSPost2010Prop28
280
     0
102
RTVSPost2010PropOp28
 70
     1
102
RTVSPost2010Prop29
280
     1
102
RTVSPost2010PropOp29
 70
     1
102
RTVSPost2010Prop30
280
     1
102
RTVSPost2010PropOp30
 70
     1
102
RTVSPost2010Prop31
280
     0
102
RTVSPost2010PropOp31
 70
     1
102
RTVSPost2010Prop32
280
     0
102
RTVSPost2010PropOp32
 70
     1
102
RTVSPost2010Prop33
280
     0
102
RTVSPost2010PropOp33
 70
     1
102
RTVSPost2010Prop34
280
     0
102
RTVSPost2010PropOp34
 70
     1
102
RTVSPost2010Prop35
280
     0
102
RTVSPost2010PropOp35
 70
     1
102
RTVSPost2010Prop36
280
     0
102
RTVSPost2010PropOp36
 70
     1
102
RTVSPost2010Prop37
 90
       50
102
RTVSPost2010PropOp37
 70
     1
102
RTVSPost2010Prop38
140
0.0
102
RTVSPost2010PropOp38
 70
     1
102
RTVSPost2010Prop39
140
1.0
102
RTVSPost2010PropOp39
 70
     1
102
RTVSPost2010Prop40
 90
        0
102
RTVSPost2010PropOp40
 70
     1
102
RTVSPost2010Prop41ColorIndex
 90
       18
102
RTVSPost2010Prop41ColorRGB
 90
        0
102
RTVSPost2010PropOp41
 70
     1
102
RTVSPost2010Prop42
 90
       50
102
RTVSPost2010PropOp42
 70
     1
102
RTVSPost2010Prop43
 90
        3
102
RTVSPost2010PropOp43
 70
     1
102
RTVSPost2010Prop44ColorIndex
 90
        5
102
RTVSPost2010Prop44ColorRGB
 90
      255
102
RTVSPost2010PropOp44
 70
     1
102
RTVSPost2010Prop45
280
     0
102
RTVSPost2010PropOp45
 70
     1
102
RTVSPost2010Prop46
 90
       50
102
RTVSPost2010PropOp46
 70
     1
102
RTVSPost2010Prop47
 90
       50
102
RTVSPost2010PropOp47
 70
     1
102
RTVSPost2010Prop48
 90
       50
102
RTVSPost2010PropOp48
 70
     1
102
RTVSPost2010Prop49
280
     0
102
RTVSPost2010PropOp49
 70
     1
102
RTVSPost2010Prop50
 90
       50
102
RTVSPost2010PropOp50
 70
     1
102
RTVSPost2010Prop51ColorIndex
 90
      256
102
RTVSPost2010Prop51ColorRGB
 90
-16777216
102
RTVSPost2010PropOp51
 70
     0
102
RTVSPost2010Prop52
140
1.0
102
RTVSPost2010PropOp52
 70
     0
102
RTVSPost2010Prop53
 90
        2
102
RTVSPost2010PropOp53
 70
     1
102
RTVSPost2010Prop54
  1
strokes_ogs.tif
102
RTVSPost2010PropOp54
 70
     1
102
RTVSPost2010Prop55
280
     0
102
RTVSPost2010PropOp55
 70
     1
102
RTVSPost2010Prop56
140
1.0
102
RTVSPost2010PropOp56
 70
     1
102
RTVSPost2010Prop57
140
1.0
102
RTVSPost2010PropOp57
 70
     1
  0
XRECORD
  5
54D
102
{ACAD_REACTORS
330
54C
102
}
330
54C
100
AcDbXrecord
280
     1
102
RTVSPropertyOp0
 70
     1
102
RTVSPropertyOp1
 70
     1
102
RTVSPropertyOp2
 70
     1
102
RTVSPropertyOp3
 70
     1
102
RTVSPropertyOp4
 70
     1
102
RTVSPropertyOp5
 70
     1
102
RTVSPropertyOp6
 70
     1
102
RTVSPropertyOp7
 70
     1
102
RTVSPropertyOp8
 70
     1
102
RTVSPropertyOp9
 70
     1
102
RTVSPropertyOp10
 70
     1
102
RTVSPropertyOp11
 70
     1
102
RTVSPropertyOp12
 70
     1
102
RTVSPropertyOp13
 70
     1
102
RTVSPropertyOp14
 70
     1
102
RTVSPropertyOp15
 70
     1
102
RTVSPropertyOp16
 70
     1
102
RTVSPropertyOp17
 70
     1
102
RTVSPropertyOp18
 70
     1
102
RTVSPropertyOp19
 70
     1
102
RTVSPropertyOp20
 70
     1
102
RTVSPropertyOp21
 70
     1
102
RTVSPropertyOp22
 70
     1
102
RTVSPropertyOp23
 70
     1
102
RTVSPropertyOp24
 70
     1
102
RTVSPropertyOp25
 70
     1
102
RTVSPropertyOp26
 70
     1
102
RTVSPropertyOp27
 70
     1
102
RTVSPropertyOp28
 70
     1
102
RTVSPropertyOp29
 70
     1
102
RTVSPropertyOp30
 70
     1
102
RTVSPropertyOp31
 70
     1
102
RTVSPropertyOp32
 70
     1
102
RTVSPropertyOp33
 70
     1
102
RTVSPropertyOp34
 70
     1
102
RTVSPropertyOp35
 70
     1
102
RTVSPropertyOp36
 70
     1
102
RTVSPropertyOp37
 70
     1
102
RTVSPropertyOp38
 70
     1
102
RTVSPropertyOp39
 70
     1
102
RTVSPropertyOp40
 70
     1
102
RTVSPropertyOp41
 70
     1
102
RTVSPropertyOp42
 70
     1
102
RTVSPropertyOp43
 70
     1
102
RTVSPropertyOp44
 70
     1
102
RTVSPropertyOp45
 70
     1
102
RTVSPropertyOp46
 70
     1
102
RTVSPropertyOp47
 70
     1
102
RTVSPropertyOp48
 70
     1
102
RTVSPropertyOp49
 70
     1
102
RTVSPropertyOp50
 70
     1
102
RTVSPropertyOp51
 70
     0
102
RTVSPropertyOp52
 70
     0
102
RTVSPropertyOp53
 70
     1
102
RTVSPropertyOp54
 70
     1
102
RTVSPropertyOp55
 70
     1
102
RTVSPropertyOp56
 70
     1
102
RTVSPropertyOp57
 70
     1
102
RTVSPost2010Prop28
280
     0
102
RTVSPost2010PropOp28
 70
     1
102
RTVSPost2010Prop29
280
     1
102
RTVSPost2010PropOp29
 70
     1
102
RTVSPost2010Prop30
280
     1
102
RTVSPost2010PropOp30
 70
     1
102
RTVSPost2010Prop31
280
     0
102
RTVSPost2010PropOp31
 70
     1
102
RTVSPost2010Prop32
280
     0
102
RTVSPost2010PropOp32
 70
     1
102
RTVSPost2010Prop33
280
     0
102
RTVSPost2010PropOp33
 70
     1
102
RTVSPost2010Prop34
280
     0
102
RTVSPost2010PropOp34
 70
     1
102
RTVSPost2010Prop35
280
     0
102
RTVSPost2010PropOp35
 70
     1
102
RTVSPost2010Prop36
280
     0
102
RTVSPost2010PropOp36
 70
     1
102
RTVSPost2010Prop37
 90
       50
102
RTVSPost2010PropOp37
 70
     1
102
RTVSPost2010Prop38
140
0.0
102
RTVSPost2010PropOp38
 70
     1
102
RTVSPost2010Prop39
140
1.0
102
RTVSPost2010PropOp39
 70
     1
102
RTVSPost2010Prop40
 90
        0
102
RTVSPost2010PropOp40
 70
     1
102
RTVSPost2010Prop41ColorIndex
 90
       18
102
RTVSPost2010Prop41ColorRGB
 90
        0
102
RTVSPost2010PropOp41
 70
     1
102
RTVSPost2010Prop42
 90
       50
102
RTVSPost2010PropOp42
 70
     1
102
RTVSPost2010Prop43
 90
        3
102
RTVSPost2010PropOp43
 70
     1
102
RTVSPost2010Prop44ColorIndex
 90
        5
102
RTVSPost2010Prop44ColorRGB
 90
      255
102
RTVSPost2010PropOp44
 70
     1
102
RTVSPost2010Prop45
280
     0
102
RTVSPost2010PropOp45
 70
     1
102
RTVSPost2010Prop46
 90
       50
102
RTVSPost2010PropOp46
 70
     1
102
RTVSPost2010Prop47
 90
       50
102
RTVSPost2010PropOp47
 70
     1
102
RTVSPost2010Prop48
 90
       50
102
RTVSPost2010PropOp48
 70
     1
102
RTVSPost2010Prop49
280
     0
102
RTVSPost2010PropOp49
 70
     1
102
RTVSPost2010Prop50
 90
       50
102
RTVSPost2010PropOp50
 70
     1
102
RTVSPost2010Prop51ColorIndex
 90
      256
102
RTVSPost2010Prop51ColorRGB
 90
-16777216
102
RTVSPost2010PropOp51
 70
     0
102
RTVSPost2010Prop52
140
1.0
102
RTVSPost2010PropOp52
 70
     0
102
RTVSPost2010Prop53
 90
        2
102
RTVSPost2010PropOp53
 70
     1
102
RTVSPost2010Prop54
  1
strokes_ogs.tif
102
RTVSPost2010PropOp54
 70
     1
102
RTVSPost2010Prop55
280
     0
102
RTVSPost2010PropOp55
 70
     1
102
RTVSPost2010Prop56
140
1.0
102
RTVSPost2010PropOp56
 70
     1
102
RTVSPost2010Prop57
140
1.0
102
RTVSPost2010PropOp57
 70
     1
  0
XRECORD
  5
555
102
{ACAD_REACTORS
330
554
102
}
330
554
100
AcDbXrecord
280
     1
102
RTVSPropertyOp0
 70
     1
102
RTVSPropertyOp1
 70
     1
102
RTVSPropertyOp2
 70
     1
102
RTVSPropertyOp3
 70
     1
102
RTVSPropertyOp4
 70
     1
102
RTVSPropertyOp5
 70
     1
102
RTVSPropertyOp6
 70
     1
102
RTVSPropertyOp7
 70
     1
102
RTVSPropertyOp8
 70
     1
102
RTVSPropertyOp9
 70
     1
102
RTVSPropertyOp10
 70
     1
102
RTVSPropertyOp11
 70
     1
102
RTVSPropertyOp12
 70
     1
102
RTVSPropertyOp13
 70
     1
102
RTVSPropertyOp14
 70
     1
102
RTVSPropertyOp15
 70
     1
102
RTVSPropertyOp16
 70
     1
102
RTVSPropertyOp17
 70
     1
102
RTVSPropertyOp18
 70
     1
102
RTVSPropertyOp19
 70
     1
102
RTVSPropertyOp20
 70
     1
102
RTVSPropertyOp21
 70
     1
102
RTVSPropertyOp22
 70
     1
102
RTVSPropertyOp23
 70
     1
102
RTVSPropertyOp24
 70
     1
102
RTVSPropertyOp25
 70
     1
102
RTVSPropertyOp26
 70
     1
102
RTVSPropertyOp27
 70
     1
102
RTVSPropertyOp28
 70
     1
102
RTVSPropertyOp29
 70
     1
102
RTVSPropertyOp30
 70
     1
102
RTVSPropertyOp31
 70
     1
102
RTVSPropertyOp32
 70
     1
102
RTVSPropertyOp33
 70
     1
102
RTVSPropertyOp34
 70
     1
102
RTVSPropertyOp35
 70
     1
102
RTVSPropertyOp36
 70
     1
102
RTVSPropertyOp37
 70
     1
102
RTVSPropertyOp38
 70
     1
102
RTVSPropertyOp39
 70
     1
102
RTVSPropertyOp40
 70
     1
102
RTVSPropertyOp41
 70
     1
102
RTVSPropertyOp42
 70
     1
102
RTVSPropertyOp43
 70
     1
102
RTVSPropertyOp44
 70
     1
102
RTVSPropertyOp45
 70
     1
102
RTVSPropertyOp46
 70
     1
102
RTVSPropertyOp47
 70
     1
102
RTVSPropertyOp48
 70
     1
102
RTVSPropertyOp49
 70
     1
102
RTVSPropertyOp50
 70
     1
102
RTVSPropertyOp51
 70
     0
102
RTVSPropertyOp52
 70
     0
102
RTVSPropertyOp53
 70
     1
102
RTVSPropertyOp54
 70
     1
102
RTVSPropertyOp55
 70
     1
102
RTVSPropertyOp56
 70
     1
102
RTVSPropertyOp57
 70
     1
102
RTVSPost2010Prop28
280
     0
102
RTVSPost2010PropOp28
 70
     1
102
RTVSPost2010Prop29
280
     1
102
RTVSPost2010PropOp29
 70
     1
102
RTVSPost2010Prop30
280
     1
102
RTVSPost2010PropOp30
 70
     1
102
RTVSPost2010Prop31
280
     0
102
RTVSPost2010PropOp31
 70
     1
102
RTVSPost2010Prop32
280
     0
102
RTVSPost2010PropOp32
 70
     1
102
RTVSPost2010Prop33
280
     0
102
RTVSPost2010PropOp33
 70
     1
102
RTVSPost2010Prop34
280
     0
102
RTVSPost2010PropOp34
 70
     1
102
RTVSPost2010Prop35
280
     0
102
RTVSPost2010PropOp35
 70
     1
102
RTVSPost2010Prop36
280
     0
102
RTVSPost2010PropOp36
 70
     1
102
RTVSPost2010Prop37
 90
       50
102
RTVSPost2010PropOp37
 70
     1
102
RTVSPost2010Prop38
140
0.0
102
RTVSPost2010PropOp38
 70
     1
102
RTVSPost2010Prop39
140
1.0
102
RTVSPost2010PropOp39
 70
     1
102
RTVSPost2010Prop40
 90
        0
102
RTVSPost2010PropOp40
 70
     1
102
RTVSPost2010Prop41ColorIndex
 90
       18
102
RTVSPost2010Prop41ColorRGB
 90
        0
102
RTVSPost2010PropOp41
 70
     1
102
RTVSPost2010Prop42
 90
       50
102
RTVSPost2010PropOp42
 70
     1
102
RTVSPost2010Prop43
 90
        3
102
RTVSPost2010PropOp43
 70
     1
102
RTVSPost2010Prop44ColorIndex
 90
        5
102
RTVSPost2010Prop44ColorRGB
 90
      255
102
RTVSPost2010PropOp44
 70
     1
102
RTVSPost2010Prop45
280
     0
102
RTVSPost2010PropOp45
 70
     1
102
RTVSPost2010Prop46
 90
       50
102
RTVSPost2010PropOp46
 70
     1
102
RTVSPost2010Prop47
 90
       50
102
RTVSPost2010PropOp47
 70
     1
102
RTVSPost2010Prop48
 90
       50
102
RTVSPost2010PropOp48
 70
     1
102
RTVSPost2010Prop49
280
     0
102
RTVSPost2010PropOp49
 70
     1
102
RTVSPost2010Prop50
 90
       50
102
RTVSPost2010PropOp50
 70
     1
102
RTVSPost2010Prop51ColorIndex
 90
      256
102
RTVSPost2010Prop51ColorRGB
 90
-16777216
102
RTVSPost2010PropOp51
 70
     0
102
RTVSPost2010Prop52
140
1.0
102
RTVSPost2010PropOp52
 70
     0
102
RTVSPost2010Prop53
 90
        2
102
RTVSPost2010PropOp53
 70
     1
102
RTVSPost2010Prop54
  1
strokes_ogs.tif
102
RTVSPost2010PropOp54
 70
     1
102
RTVSPost2010Prop55
280
     0
102
RTVSPost2010PropOp55
 70
     1
102
RTVSPost2010Prop56
140
1.0
102
RTVSPost2010PropOp56
 70
     1
102
RTVSPost2010Prop57
140
1.0
102
RTVSPost2010PropOp57
 70
     1
  0
XRECORD
  5
549
102
{ACAD_REACTORS
330
548
102
}
330
548
100
AcDbXrecord
280
     1
102
RTVSPropertyOp0
 70
     1
102
RTVSPropertyOp1
 70
     1
102
RTVSPropertyOp2
 70
     1
102
RTVSPropertyOp3
 70
     1
102
RTVSPropertyOp4
 70
     1
102
RTVSPropertyOp5
 70
     1
102
RTVSPropertyOp6
 70
     1
102
RTVSPropertyOp7
 70
     1
102
RTVSPropertyOp8
 70
     1
102
RTVSPropertyOp9
 70
     1
102
RTVSPropertyOp10
 70
     1
102
RTVSPropertyOp11
 70
     1
102
RTVSPropertyOp12
 70
     1
102
RTVSPropertyOp13
 70
     1
102
RTVSPropertyOp14
 70
     1
102
RTVSPropertyOp15
 70
     1
102
RTVSPropertyOp16
 70
     1
102
RTVSPropertyOp17
 70
     1
102
RTVSPropertyOp18
 70
     1
102
RTVSPropertyOp19
 70
     1
102
RTVSPropertyOp20
 70
     1
102
RTVSPropertyOp21
 70
     1
102
RTVSPropertyOp22
 70
     1
102
RTVSPropertyOp23
 70
     1
102
RTVSPropertyOp24
 70
     1
102
RTVSPropertyOp25
 70
     1
102
RTVSPropertyOp26
 70
     1
102
RTVSPropertyOp27
 70
     1
102
RTVSPropertyOp28
 70
     1
102
RTVSPropertyOp29
 70
     1
102
RTVSPropertyOp30
 70
     1
102
RTVSPropertyOp31
 70
     1
102
RTVSPropertyOp32
 70
     1
102
RTVSPropertyOp33
 70
     1
102
RTVSPropertyOp34
 70
     1
102
RTVSPropertyOp35
 70
     1
102
RTVSPropertyOp36
 70
     1
102
RTVSPropertyOp37
 70
     1
102
RTVSPropertyOp38
 70
     1
102
RTVSPropertyOp39
 70
     1
102
RTVSPropertyOp40
 70
     1
102
RTVSPropertyOp41
 70
     1
102
RTVSPropertyOp42
 70
     1
102
RTVSPropertyOp43
 70
     1
102
RTVSPropertyOp44
 70
     1
102
RTVSPropertyOp45
 70
     1
102
RTVSPropertyOp46
 70
     1
102
RTVSPropertyOp47
 70
     1
102
RTVSPropertyOp48
 70
     1
102
RTVSPropertyOp49
 70
     1
102
RTVSPropertyOp50
 70
     1
102
RTVSPropertyOp51
 70
     0
102
RTVSPropertyOp52
 70
     0
102
RTVSPropertyOp53
 70
     1
102
RTVSPropertyOp54
 70
     1
102
RTVSPropertyOp55
 70
     1
102
RTVSPropertyOp56
 70
     1
102
RTVSPropertyOp57
 70
     1
102
RTVSPost2010Prop28
280
     0
102
RTVSPost2010PropOp28
 70
     1
102
RTVSPost2010Prop29
280
     1
102
RTVSPost2010PropOp29
 70
     1
102
RTVSPost2010Prop30
280
     1
102
RTVSPost2010PropOp30
 70
     1
102
RTVSPost2010Prop31
280
     0
102
RTVSPost2010PropOp31
 70
     1
102
RTVSPost2010Prop32
280
     0
102
RTVSPost2010PropOp32
 70
     1
102
RTVSPost2010Prop33
280
     0
102
RTVSPost2010PropOp33
 70
     1
102
RTVSPost2010Prop34
280
     0
102
RTVSPost2010PropOp34
 70
     1
102
RTVSPost2010Prop35
280
     0
102
RTVSPost2010PropOp35
 70
     1
102
RTVSPost2010Prop36
280
     0
102
RTVSPost2010PropOp36
 70
     1
102
RTVSPost2010Prop37
 90
       50
102
RTVSPost2010PropOp37
 70
     1
102
RTVSPost2010Prop38
140
0.0
102
RTVSPost2010PropOp38
 70
     1
102
RTVSPost2010Prop39
140
1.0
102
RTVSPost2010PropOp39
 70
     1
102
RTVSPost2010Prop40
 90
        0
102
RTVSPost2010PropOp40
 70
     1
102
RTVSPost2010Prop41ColorIndex
 90
       18
102
RTVSPost2010Prop41ColorRGB
 90
        0
102
RTVSPost2010PropOp41
 70
     1
102
RTVSPost2010Prop42
 90
       50
102
RTVSPost2010PropOp42
 70
     1
102
RTVSPost2010Prop43
 90
        3
102
RTVSPost2010PropOp43
 70
     1
102
RTVSPost2010Prop44ColorIndex
 90
        5
102
RTVSPost2010Prop44ColorRGB
 90
      255
102
RTVSPost2010PropOp44
 70
     1
102
RTVSPost2010Prop45
280
     0
102
RTVSPost2010PropOp45
 70
     1
102
RTVSPost2010Prop46
 90
       50
102
RTVSPost2010PropOp46
 70
     1
102
RTVSPost2010Prop47
 90
       50
102
RTVSPost2010PropOp47
 70
     1
102
RTVSPost2010Prop48
 90
       50
102
RTVSPost2010PropOp48
 70
     1
102
RTVSPost2010Prop49
280
     0
102
RTVSPost2010PropOp49
 70
     1
102
RTVSPost2010Prop50
 90
       50
102
RTVSPost2010PropOp50
 70
     1
102
RTVSPost2010Prop51ColorIndex
 90
      256
102
RTVSPost2010Prop51ColorRGB
 90
-16777216
102
RTVSPost2010PropOp51
 70
     0
102
RTVSPost2010Prop52
140
1.0
102
RTVSPost2010PropOp52
 70
     0
102
RTVSPost2010Prop53
 90
        2
102
RTVSPost2010PropOp53
 70
     1
102
RTVSPost2010Prop54
  1
strokes_ogs.tif
102
RTVSPost2010PropOp54
 70
     1
102
RTVSPost2010Prop55
280
     0
102
RTVSPost2010PropOp55
 70
     1
102
RTVSPost2010Prop56
140
1.0
102
RTVSPost2010PropOp56
 70
     1
102
RTVSPost2010Prop57
140
1.0
102
RTVSPost2010PropOp57
 70
     1
  0
XRECORD
  5
54B
102
{ACAD_REACTORS
330
54A
102
}
330
54A
100
AcDbXrecord
280
     1
102
RTVSPropertyOp0
 70
     1
102
RTVSPropertyOp1
 70
     1
102
RTVSPropertyOp2
 70
     1
102
RTVSPropertyOp3
 70
     1
102
RTVSPropertyOp4
 70
     1
102
RTVSPropertyOp5
 70
     1
102
RTVSPropertyOp6
 70
     1
102
RTVSPropertyOp7
 70
     1
102
RTVSPropertyOp8
 70
     1
102
RTVSPropertyOp9
 70
     1
102
RTVSPropertyOp10
 70
     1
102
RTVSPropertyOp11
 70
     1
102
RTVSPropertyOp12
 70
     1
102
RTVSPropertyOp13
 70
     1
102
RTVSPropertyOp14
 70
     1
102
RTVSPropertyOp15
 70
     1
102
RTVSPropertyOp16
 70
     1
102
RTVSPropertyOp17
 70
     1
102
RTVSPropertyOp18
 70
     1
102
RTVSPropertyOp19
 70
     1
102
RTVSPropertyOp20
 70
     1
102
RTVSPropertyOp21
 70
     1
102
RTVSPropertyOp22
 70
     1
102
RTVSPropertyOp23
 70
     1
102
RTVSPropertyOp24
 70
     1
102
RTVSPropertyOp25
 70
     1
102
RTVSPropertyOp26
 70
     1
102
RTVSPropertyOp27
 70
     1
102
RTVSPropertyOp28
 70
     1
102
RTVSPropertyOp29
 70
     1
102
RTVSPropertyOp30
 70
     1
102
RTVSPropertyOp31
 70
     1
102
RTVSPropertyOp32
 70
     1
102
RTVSPropertyOp33
 70
     1
102
RTVSPropertyOp34
 70
     1
102
RTVSPropertyOp35
 70
     1
102
RTVSPropertyOp36
 70
     1
102
RTVSPropertyOp37
 70
     1
102
RTVSPropertyOp38
 70
     1
102
RTVSPropertyOp39
 70
     1
102
RTVSPropertyOp40
 70
     1
102
RTVSPropertyOp41
 70
     1
102
RTVSPropertyOp42
 70
     1
102
RTVSPropertyOp43
 70
     1
102
RTVSPropertyOp44
 70
     1
102
RTVSPropertyOp45
 70
     1
102
RTVSPropertyOp46
 70
     1
102
RTVSPropertyOp47
 70
     1
102
RTVSPropertyOp48
 70
     1
102
RTVSPropertyOp49
 70
     1
102
RTVSPropertyOp50
 70
     1
102
RTVSPropertyOp51
 70
     0
102
RTVSPropertyOp52
 70
     0
102
RTVSPropertyOp53
 70
     1
102
RTVSPropertyOp54
 70
     1
102
RTVSPropertyOp55
 70
     1
102
RTVSPropertyOp56
 70
     1
102
RTVSPropertyOp57
 70
     1
102
RTVSPost2010Prop28
280
     0
102
RTVSPost2010PropOp28
 70
     1
102
RTVSPost2010Prop29
280
     1
102
RTVSPost2010PropOp29
 70
     1
102
RTVSPost2010Prop30
280
     1
102
RTVSPost2010PropOp30
 70
     1
102
RTVSPost2010Prop31
280
     0
102
RTVSPost2010PropOp31
 70
     1
102
RTVSPost2010Prop32
280
     0
102
RTVSPost2010PropOp32
 70
     1
102
RTVSPost2010Prop33
280
     0
102
RTVSPost2010PropOp33
 70
     1
102
RTVSPost2010Prop34
280
     0
102
RTVSPost2010PropOp34
 70
     1
102
RTVSPost2010Prop35
280
     0
102
RTVSPost2010PropOp35
 70
     1
102
RTVSPost2010Prop36
280
     0
102
RTVSPost2010PropOp36
 70
     1
102
RTVSPost2010Prop37
 90
       50
102
RTVSPost2010PropOp37
 70
     1
102
RTVSPost2010Prop38
140
0.0
102
RTVSPost2010PropOp38
 70
     1
102
RTVSPost2010Prop39
140
1.0
102
RTVSPost2010PropOp39
 70
     1
102
RTVSPost2010Prop40
 90
        0
102
RTVSPost2010PropOp40
 70
     1
102
RTVSPost2010Prop41ColorIndex
 90
       18
102
RTVSPost2010Prop41ColorRGB
 90
        0
102
RTVSPost2010PropOp41
 70
     1
102
RTVSPost2010Prop42
 90
       50
102
RTVSPost2010PropOp42
 70
     1
102
RTVSPost2010Prop43
 90
        3
102
RTVSPost2010PropOp43
 70
     1
102
RTVSPost2010Prop44ColorIndex
 90
        5
102
RTVSPost2010Prop44ColorRGB
 90
      255
102
RTVSPost2010PropOp44
 70
     1
102
RTVSPost2010Prop45
280
     0
102
RTVSPost2010PropOp45
 70
     1
102
RTVSPost2010Prop46
 90
       50
102
RTVSPost2010PropOp46
 70
     1
102
RTVSPost2010Prop47
 90
       50
102
RTVSPost2010PropOp47
 70
     1
102
RTVSPost2010Prop48
 90
       50
102
RTVSPost2010PropOp48
 70
     1
102
RTVSPost2010Prop49
280
     0
102
RTVSPost2010PropOp49
 70
     1
102
RTVSPost2010Prop50
 90
       50
102
RTVSPost2010PropOp50
 70
     1
102
RTVSPost2010Prop51ColorIndex
 90
      256
102
RTVSPost2010Prop51ColorRGB
 90
-16777216
102
RTVSPost2010PropOp51
 70
     0
102
RTVSPost2010Prop52
140
1.0
102
RTVSPost2010PropOp52
 70
     0
102
RTVSPost2010Prop53
 90
        2
102
RTVSPost2010PropOp53
 70
     1
102
RTVSPost2010Prop54
  1
strokes_ogs.tif
102
RTVSPost2010PropOp54
 70
     1
102
RTVSPost2010Prop55
280
     0
102
RTVSPost2010PropOp55
 70
     1
102
RTVSPost2010Prop56
140
1.0
102
RTVSPost2010PropOp56
 70
     1
102
RTVSPost2010Prop57
140
1.0
102
RTVSPost2010PropOp57
 70
     1
  0
XRECORD
  5
55B
102
{ACAD_REACTORS
330
55A
102
}
330
55A
100
AcDbXrecord
280
     1
102
RTVSPropertyOp0
 70
     0
102
RTVSPropertyOp1
 70
     0
102
RTVSPropertyOp2
 70
     0
102
RTVSPropertyOp3
 70
     0
102
RTVSPropertyOp4
 70
     0
102
RTVSPropertyOp5
 70
     0
102
RTVSPropertyOp6
 70
     0
102
RTVSPropertyOp7
 70
     0
102
RTVSPropertyOp8
 70
     0
102
RTVSPropertyOp9
 70
     0
102
RTVSPropertyOp10
 70
     0
102
RTVSPropertyOp11
 70
     0
102
RTVSPropertyOp12
 70
     0
102
RTVSPropertyOp13
 70
     0
102
RTVSPropertyOp14
 70
     0
102
RTVSPropertyOp15
 70
     0
102
RTVSPropertyOp16
 70
     0
102
RTVSPropertyOp17
 70
     0
102
RTVSPropertyOp18
 70
     0
102
RTVSPropertyOp19
 70
     0
102
RTVSPropertyOp20
 70
     0
102
RTVSPropertyOp21
 70
     0
102
RTVSPropertyOp22
 70
     0
102
RTVSPropertyOp23
 70
     0
102
RTVSPropertyOp24
 70
     0
102
RTVSPropertyOp25
 70
     0
102
RTVSPropertyOp26
 70
     0
102
RTVSPropertyOp27
 70
     0
102
RTVSPropertyOp28
 70
     1
102
RTVSPropertyOp29
 70
     1
102
RTVSPropertyOp30
 70
     1
102
RTVSPropertyOp31
 70
     1
102
RTVSPropertyOp32
 70
     1
102
RTVSPropertyOp33
 70
     1
102
RTVSPropertyOp34
 70
     1
102
RTVSPropertyOp35
 70
     1
102
RTVSPropertyOp36
 70
     1
102
RTVSPropertyOp37
 70
     1
102
RTVSPropertyOp38
 70
     1
102
RTVSPropertyOp39
 70
     1
102
RTVSPropertyOp40
 70
     1
102
RTVSPropertyOp41
 70
     1
102
RTVSPropertyOp42
 70
     1
102
RTVSPropertyOp43
 70
     1
102
RTVSPropertyOp44
 70
     1
102
RTVSPropertyOp45
 70
     1
102
RTVSPropertyOp46
 70
     1
102
RTVSPropertyOp47
 70
     1
102
RTVSPropertyOp48
 70
     1
102
RTVSPropertyOp49
 70
     1
102
RTVSPropertyOp50
 70
     1
102
RTVSPropertyOp51
 70
     0
102
RTVSPropertyOp52
 70
     0
102
RTVSPropertyOp53
 70
     1
102
RTVSPropertyOp54
 70
     1
102
RTVSPropertyOp55
 70
     1
102
RTVSPropertyOp56
 70
     1
102
RTVSPropertyOp57
 70
     1
102
RTVSPost2010Prop28
280
     0
102
RTVSPost2010PropOp28
 70
     1
102
RTVSPost2010Prop29
280
     1
102
RTVSPost2010PropOp29
 70
     1
102
RTVSPost2010Prop30
280
     1
102
RTVSPost2010PropOp30
 70
     1
102
RTVSPost2010Prop31
280
     0
102
RTVSPost2010PropOp31
 70
     1
102
RTVSPost2010Prop32
280
     0
102
RTVSPost2010PropOp32
 70
     1
102
RTVSPost2010Prop33
280
     0
102
RTVSPost2010PropOp33
 70
     1
102
RTVSPost2010Prop34
280
     0
102
RTVSPost2010PropOp34
 70
     1
102
RTVSPost2010Prop35
280
     0
102
RTVSPost2010PropOp35
 70
     1
102
RTVSPost2010Prop36
280
     0
102
RTVSPost2010PropOp36
 70
     1
102
RTVSPost2010Prop37
 90
       50
102
RTVSPost2010PropOp37
 70
     1
102
RTVSPost2010Prop38
140
0.0
102
RTVSPost2010PropOp38
 70
     1
102
RTVSPost2010Prop39
140
1.0
102
RTVSPost2010PropOp39
 70
     1
102
RTVSPost2010Prop40
 90
        0
102
RTVSPost2010PropOp40
 70
     1
102
RTVSPost2010Prop41ColorIndex
 90
       18
102
RTVSPost2010Prop41ColorRGB
 90
        0
102
RTVSPost2010PropOp41
 70
     1
102
RTVSPost2010Prop42
 90
       50
102
RTVSPost2010PropOp42
 70
     1
102
RTVSPost2010Prop43
 90
        3
102
RTVSPost2010PropOp43
 70
     1
102
RTVSPost2010Prop44ColorIndex
 90
        5
102
RTVSPost2010Prop44ColorRGB
 90
      255
102
RTVSPost2010PropOp44
 70
     1
102
RTVSPost2010Prop45
280
     0
102
RTVSPost2010PropOp45
 70
     1
102
RTVSPost2010Prop46
 90
       50
102
RTVSPost2010PropOp46
 70
     1
102
RTVSPost2010Prop47
 90
       50
102
RTVSPost2010PropOp47
 70
     1
102
RTVSPost2010Prop48
 90
       50
102
RTVSPost2010PropOp48
 70
     1
102
RTVSPost2010Prop49
280
     0
102
RTVSPost2010PropOp49
 70
     1
102
RTVSPost2010Prop50
 90
       50
102
RTVSPost2010PropOp50
 70
     1
102
RTVSPost2010Prop51ColorIndex
 90
      256
102
RTVSPost2010Prop51ColorRGB
 90
-16777216
102
RTVSPost2010PropOp51
 70
     0
102
RTVSPost2010Prop52
140
1.0
102
RTVSPost2010PropOp52
 70
     0
102
RTVSPost2010Prop53
 90
        2
102
RTVSPost2010PropOp53
 70
     1
102
RTVSPost2010Prop54
  1
strokes_ogs.tif
102
RTVSPost2010PropOp54
 70
     1
102
RTVSPost2010Prop55
280
     0
102
RTVSPost2010PropOp55
 70
     1
102
RTVSPost2010Prop56
140
1.0
102
RTVSPost2010PropOp56
 70
     1
102
RTVSPost2010Prop57
140
1.0
102
RTVSPost2010PropOp57
 70
     1
  0
XRECORD
  5
553
102
{ACAD_REACTORS
330
552
102
}
330
552
100
AcDbXrecord
280
     1
102
RTVSPropertyOp0
 70
     1
102
RTVSPropertyOp1
 70
     1
102
RTVSPropertyOp2
 70
     1
102
RTVSPropertyOp3
 70
     1
102
RTVSPropertyOp4
 70
     1
102
RTVSPropertyOp5
 70
     1
102
RTVSPropertyOp6
 70
     1
102
RTVSPropertyOp7
 70
     1
102
RTVSPropertyOp8
 70
     1
102
RTVSPropertyOp9
 70
     1
102
RTVSPropertyOp10
 70
     1
102
RTVSPropertyOp11
 70
     1
102
RTVSPropertyOp12
 70
     1
102
RTVSPropertyOp13
 70
     1
102
RTVSPropertyOp14
 70
     1
102
RTVSPropertyOp15
 70
     1
102
RTVSPropertyOp16
 70
     1
102
RTVSPropertyOp17
 70
     1
102
RTVSPropertyOp18
 70
     1
102
RTVSPropertyOp19
 70
     1
102
RTVSPropertyOp20
 70
     1
102
RTVSPropertyOp21
 70
     1
102
RTVSPropertyOp22
 70
     1
102
RTVSPropertyOp23
 70
     1
102
RTVSPropertyOp24
 70
     1
102
RTVSPropertyOp25
 70
     1
102
RTVSPropertyOp26
 70
     1
102
RTVSPropertyOp27
 70
     1
102
RTVSPropertyOp28
 70
     1
102
RTVSPropertyOp29
 70
     1
102
RTVSPropertyOp30
 70
     1
102
RTVSPropertyOp31
 70
     1
102
RTVSPropertyOp32
 70
     1
102
RTVSPropertyOp33
 70
     1
102
RTVSPropertyOp34
 70
     1
102
RTVSPropertyOp35
 70
     1
102
RTVSPropertyOp36
 70
     1
102
RTVSPropertyOp37
 70
     1
102
RTVSPropertyOp38
 70
     1
102
RTVSPropertyOp39
 70
     1
102
RTVSPropertyOp40
 70
     1
102
RTVSPropertyOp41
 70
     1
102
RTVSPropertyOp42
 70
     1
102
RTVSPropertyOp43
 70
     1
102
RTVSPropertyOp44
 70
     1
102
RTVSPropertyOp45
 70
     1
102
RTVSPropertyOp46
 70
     1
102
RTVSPropertyOp47
 70
     1
102
RTVSPropertyOp48
 70
     1
102
RTVSPropertyOp49
 70
     1
102
RTVSPropertyOp50
 70
     1
102
RTVSPropertyOp51
 70
     0
102
RTVSPropertyOp52
 70
     0
102
RTVSPropertyOp53
 70
     1
102
RTVSPropertyOp54
 70
     1
102
RTVSPropertyOp55
 70
     1
102
RTVSPropertyOp56
 70
     1
102
RTVSPropertyOp57
 70
     1
102
RTVSPost2010Prop28
280
     0
102
RTVSPost2010PropOp28
 70
     1
102
RTVSPost2010Prop29
280
     1
102
RTVSPost2010PropOp29
 70
     1
102
RTVSPost2010Prop30
280
     1
102
RTVSPost2010PropOp30
 70
     1
102
RTVSPost2010Prop31
280
     0
102
RTVSPost2010PropOp31
 70
     1
102
RTVSPost2010Prop32
280
     0
102
RTVSPost2010PropOp32
 70
     1
102
RTVSPost2010Prop33
280
     0
102
RTVSPost2010PropOp33
 70
     1
102
RTVSPost2010Prop34
280
     0
102
RTVSPost2010PropOp34
 70
     1
102
RTVSPost2010Prop35
280
     0
102
RTVSPost2010PropOp35
 70
     1
102
RTVSPost2010Prop36
280
     0
102
RTVSPost2010PropOp36
 70
     1
102
RTVSPost2010Prop37
 90
       50
102
RTVSPost2010PropOp37
 70
     1
102
RTVSPost2010Prop38
140
0.0
102
RTVSPost2010PropOp38
 70
     1
102
RTVSPost2010Prop39
140
1.0
102
RTVSPost2010PropOp39
 70
     1
102
RTVSPost2010Prop40
 90
        0
102
RTVSPost2010PropOp40
 70
     1
102
RTVSPost2010Prop41ColorIndex
 90
       18
102
RTVSPost2010Prop41ColorRGB
 90
        0
102
RTVSPost2010PropOp41
 70
     1
102
RTVSPost2010Prop42
 90
       50
102
RTVSPost2010PropOp42
 70
     1
102
RTVSPost2010Prop43
 90
        3
102
RTVSPost2010PropOp43
 70
     1
102
RTVSPost2010Prop44ColorIndex
 90
        5
102
RTVSPost2010Prop44ColorRGB
 90
      255
102
RTVSPost2010PropOp44
 70
     1
102
RTVSPost2010Prop45
280
     0
102
RTVSPost2010PropOp45
 70
     1
102
RTVSPost2010Prop46
 90
       50
102
RTVSPost2010PropOp46
 70
     1
102
RTVSPost2010Prop47
 90
       50
102
RTVSPost2010PropOp47
 70
     1
102
RTVSPost2010Prop48
 90
       50
102
RTVSPost2010PropOp48
 70
     1
102
RTVSPost2010Prop49
280
     0
102
RTVSPost2010PropOp49
 70
     1
102
RTVSPost2010Prop50
 90
       50
102
RTVSPost2010PropOp50
 70
     1
102
RTVSPost2010Prop51ColorIndex
 90
      256
102
RTVSPost2010Prop51ColorRGB
 90
-16777216
102
RTVSPost2010PropOp51
 70
     0
102
RTVSPost2010Prop52
140
1.0
102
RTVSPost2010PropOp52
 70
     0
102
RTVSPost2010Prop53
 90
        2
102
RTVSPost2010PropOp53
 70
     1
102
RTVSPost2010Prop54
  1
strokes_ogs.tif
102
RTVSPost2010PropOp54
 70
     1
102
RTVSPost2010Prop55
280
     0
102
RTVSPost2010PropOp55
 70
     1
102
RTVSPost2010Prop56
140
1.0
102
RTVSPost2010PropOp56
 70
     1
102
RTVSPost2010Prop57
140
1.0
102
RTVSPost2010PropOp57
 70
     1
  0
XRECORD
  5
537
102
{ACAD_REACTORS
330
536
102
}
330
536
100
AcDbXrecord
280
     1
102
RTVSPropertyOp0
 70
     1
102
RTVSPropertyOp1
 70
     1
102
RTVSPropertyOp2
 70
     1
102
RTVSPropertyOp3
 70
     1
102
RTVSPropertyOp4
 70
     1
102
RTVSPropertyOp5
 70
     1
102
RTVSPropertyOp6
 70
     1
102
RTVSPropertyOp7
 70
     1
102
RTVSPropertyOp8
 70
     1
102
RTVSPropertyOp9
 70
     1
102
RTVSPropertyOp10
 70
     1
102
RTVSPropertyOp11
 70
     1
102
RTVSPropertyOp12
 70
     1
102
RTVSPropertyOp13
 70
     1
102
RTVSPropertyOp14
 70
     1
102
RTVSPropertyOp15
 70
     1
102
RTVSPropertyOp16
 70
     1
102
RTVSPropertyOp17
 70
     1
102
RTVSPropertyOp18
 70
     1
102
RTVSPropertyOp19
 70
     1
102
RTVSPropertyOp20
 70
     1
102
RTVSPropertyOp21
 70
     1
102
RTVSPropertyOp22
 70
     1
102
RTVSPropertyOp23
 70
     1
102
RTVSPropertyOp24
 70
     1
102
RTVSPropertyOp25
 70
     1
102
RTVSPropertyOp26
 70
     1
102
RTVSPropertyOp27
 70
     1
102
RTVSPropertyOp28
 70
     1
102
RTVSPropertyOp29
 70
     1
102
RTVSPropertyOp30
 70
     1
102
RTVSPropertyOp31
 70
     1
102
RTVSPropertyOp32
 70
     1
102
RTVSPropertyOp33
 70
     1
102
RTVSPropertyOp34
 70
     1
102
RTVSPropertyOp35
 70
     1
102
RTVSPropertyOp36
 70
     1
102
RTVSPropertyOp37
 70
     1
102
RTVSPropertyOp38
 70
     1
102
RTVSPropertyOp39
 70
     1
102
RTVSPropertyOp40
 70
     1
102
RTVSPropertyOp41
 70
     1
102
RTVSPropertyOp42
 70
     1
102
RTVSPropertyOp43
 70
     1
102
RTVSPropertyOp44
 70
     1
102
RTVSPropertyOp45
 70
     1
102
RTVSPropertyOp46
 70
     1
102
RTVSPropertyOp47
 70
     1
102
RTVSPropertyOp48
 70
     1
102
RTVSPropertyOp49
 70
     1
102
RTVSPropertyOp50
 70
     1
102
RTVSPropertyOp51
 70
     0
102
RTVSPropertyOp52
 70
     0
102
RTVSPropertyOp53
 70
     1
102
RTVSPropertyOp54
 70
     1
102
RTVSPropertyOp55
 70
     1
102
RTVSPropertyOp56
 70
     1
102
RTVSPropertyOp57
 70
     1
102
RTVSPost2010Prop28
280
     0
102
RTVSPost2010PropOp28
 70
     1
102
RTVSPost2010Prop29
280
     1
102
RTVSPost2010PropOp29
 70
     1
102
RTVSPost2010Prop30
280
     1
102
RTVSPost2010PropOp30
 70
     1
102
RTVSPost2010Prop31
280
     0
102
RTVSPost2010PropOp31
 70
     1
102
RTVSPost2010Prop32
280
     0
102
RTVSPost2010PropOp32
 70
     1
102
RTVSPost2010Prop33
280
     0
102
RTVSPost2010PropOp33
 70
     1
102
RTVSPost2010Prop34
280
     0
102
RTVSPost2010PropOp34
 70
     1
102
RTVSPost2010Prop35
280
     0
102
RTVSPost2010PropOp35
 70
     1
102
RTVSPost2010Prop36
280
     0
102
RTVSPost2010PropOp36
 70
     1
102
RTVSPost2010Prop37
 90
       50
102
RTVSPost2010PropOp37
 70
     1
102
RTVSPost2010Prop38
140
0.0
102
RTVSPost2010PropOp38
 70
     1
102
RTVSPost2010Prop39
140
1.0
102
RTVSPost2010PropOp39
 70
     1
102
RTVSPost2010Prop40
 90
        0
102
RTVSPost2010PropOp40
 70
     1
102
RTVSPost2010Prop41ColorIndex
 90
       18
102
RTVSPost2010Prop41ColorRGB
 90
        0
102
RTVSPost2010PropOp41
 70
     1
102
RTVSPost2010Prop42
 90
       50
102
RTVSPost2010PropOp42
 70
     1
102
RTVSPost2010Prop43
 90
        3
102
RTVSPost2010PropOp43
 70
     1
102
RTVSPost2010Prop44ColorIndex
 90
        5
102
RTVSPost2010Prop44ColorRGB
 90
      255
102
RTVSPost2010PropOp44
 70
     1
102
RTVSPost2010Prop45
280
     0
102
RTVSPost2010PropOp45
 70
     1
102
RTVSPost2010Prop46
 90
       50
102
RTVSPost2010PropOp46
 70
     1
102
RTVSPost2010Prop47
 90
       50
102
RTVSPost2010PropOp47
 70
     1
102
RTVSPost2010Prop48
 90
       50
102
RTVSPost2010PropOp48
 70
     1
102
RTVSPost2010Prop49
280
     0
102
RTVSPost2010PropOp49
 70
     1
102
RTVSPost2010Prop50
 90
       50
102
RTVSPost2010PropOp50
 70
     1
102
RTVSPost2010Prop51ColorIndex
 90
      256
102
RTVSPost2010Prop51ColorRGB
 90
-16777216
102
RTVSPost2010PropOp51
 70
     0
102
RTVSPost2010Prop52
140
1.0
102
RTVSPost2010PropOp52
 70
     0
102
RTVSPost2010Prop53
 90
        2
102
RTVSPost2010PropOp53
 70
     1
102
RTVSPost2010Prop54
  1
strokes_ogs.tif
102
RTVSPost2010PropOp54
 70
     1
102
RTVSPost2010Prop55
280
     0
102
RTVSPost2010PropOp55
 70
     1
102
RTVSPost2010Prop56
140
1.0
102
RTVSPost2010PropOp56
 70
     1
102
RTVSPost2010Prop57
140
1.0
102
RTVSPost2010PropOp57
 70
     1
  0
XRECORD
  5
539
102
{ACAD_REACTORS
330
538
102
}
330
538
100
AcDbXrecord
280
     1
102
RTVSPropertyOp0
 70
     1
102
RTVSPropertyOp1
 70
     1
102
RTVSPropertyOp2
 70
     1
102
RTVSPropertyOp3
 70
     1
102
RTVSPropertyOp4
 70
     1
102
RTVSPropertyOp5
 70
     1
102
RTVSPropertyOp6
 70
     1
102
RTVSPropertyOp7
 70
     1
102
RTVSPropertyOp8
 70
     1
102
RTVSPropertyOp9
 70
     1
102
RTVSPropertyOp10
 70
     1
102
RTVSPropertyOp11
 70
     1
102
RTVSPropertyOp12
 70
     1
102
RTVSPropertyOp13
 70
     1
102
RTVSPropertyOp14
 70
     1
102
RTVSPropertyOp15
 70
     1
102
RTVSPropertyOp16
 70
     1
102
RTVSPropertyOp17
 70
     1
102
RTVSPropertyOp18
 70
     1
102
RTVSPropertyOp19
 70
     1
102
RTVSPropertyOp20
 70
     1
102
RTVSPropertyOp21
 70
     1
102
RTVSPropertyOp22
 70
     1
102
RTVSPropertyOp23
 70
     1
102
RTVSPropertyOp24
 70
     1
102
RTVSPropertyOp25
 70
     1
102
RTVSPropertyOp26
 70
     1
102
RTVSPropertyOp27
 70
     1
102
RTVSPropertyOp28
 70
     1
102
RTVSPropertyOp29
 70
     1
102
RTVSPropertyOp30
 70
     1
102
RTVSPropertyOp31
 70
     1
102
RTVSPropertyOp32
 70
     1
102
RTVSPropertyOp33
 70
     1
102
RTVSPropertyOp34
 70
     1
102
RTVSPropertyOp35
 70
     1
102
RTVSPropertyOp36
 70
     1
102
RTVSPropertyOp37
 70
     1
102
RTVSPropertyOp38
 70
     1
102
RTVSPropertyOp39
 70
     1
102
RTVSPropertyOp40
 70
     1
102
RTVSPropertyOp41
 70
     1
102
RTVSPropertyOp42
 70
     1
102
RTVSPropertyOp43
 70
     1
102
RTVSPropertyOp44
 70
     1
102
RTVSPropertyOp45
 70
     1
102
RTVSPropertyOp46
 70
     1
102
RTVSPropertyOp47
 70
     1
102
RTVSPropertyOp48
 70
     1
102
RTVSPropertyOp49
 70
     1
102
RTVSPropertyOp50
 70
     1
102
RTVSPropertyOp51
 70
     0
102
RTVSPropertyOp52
 70
     0
102
RTVSPropertyOp53
 70
     1
102
RTVSPropertyOp54
 70
     1
102
RTVSPropertyOp55
 70
     1
102
RTVSPropertyOp56
 70
     1
102
RTVSPropertyOp57
 70
     1
102
RTVSPost2010Prop28
280
     0
102
RTVSPost2010PropOp28
 70
     1
102
RTVSPost2010Prop29
280
     1
102
RTVSPost2010PropOp29
 70
     1
102
RTVSPost2010Prop30
280
     1
102
RTVSPost2010PropOp30
 70
     1
102
RTVSPost2010Prop31
280
     0
102
RTVSPost2010PropOp31
 70
     1
102
RTVSPost2010Prop32
280
     0
102
RTVSPost2010PropOp32
 70
     1
102
RTVSPost2010Prop33
280
     0
102
RTVSPost2010PropOp33
 70
     1
102
RTVSPost2010Prop34
280
     0
102
RTVSPost2010PropOp34
 70
     1
102
RTVSPost2010Prop35
280
     0
102
RTVSPost2010PropOp35
 70
     1
102
RTVSPost2010Prop36
280
     0
102
RTVSPost2010PropOp36
 70
     1
102
RTVSPost2010Prop37
 90
       50
102
RTVSPost2010PropOp37
 70
     1
102
RTVSPost2010Prop38
140
0.0
102
RTVSPost2010PropOp38
 70
     1
102
RTVSPost2010Prop39
140
1.0
102
RTVSPost2010PropOp39
 70
     1
102
RTVSPost2010Prop40
 90
        0
102
RTVSPost2010PropOp40
 70
     1
102
RTVSPost2010Prop41ColorIndex
 90
       18
102
RTVSPost2010Prop41ColorRGB
 90
        0
102
RTVSPost2010PropOp41
 70
     1
102
RTVSPost2010Prop42
 90
       50
102
RTVSPost2010PropOp42
 70
     1
102
RTVSPost2010Prop43
 90
        3
102
RTVSPost2010PropOp43
 70
     1
102
RTVSPost2010Prop44ColorIndex
 90
        5
102
RTVSPost2010Prop44ColorRGB
 90
      255
102
RTVSPost2010PropOp44
 70
     1
102
RTVSPost2010Prop45
280
     0
102
RTVSPost2010PropOp45
 70
     1
102
RTVSPost2010Prop46
 90
       50
102
RTVSPost2010PropOp46
 70
     1
102
RTVSPost2010Prop47
 90
       50
102
RTVSPost2010PropOp47
 70
     1
102
RTVSPost2010Prop48
 90
       50
102
RTVSPost2010PropOp48
 70
     1
102
RTVSPost2010Prop49
280
     0
102
RTVSPost2010PropOp49
 70
     1
102
RTVSPost2010Prop50
 90
       50
102
RTVSPost2010PropOp50
 70
     1
102
RTVSPost2010Prop51ColorIndex
 90
      256
102
RTVSPost2010Prop51ColorRGB
 90
-16777216
102
RTVSPost2010PropOp51
 70
     0
102
RTVSPost2010Prop52
140
1.0
102
RTVSPost2010PropOp52
 70
     0
102
RTVSPost2010Prop53
 90
        2
102
RTVSPost2010PropOp53
 70
     1
102
RTVSPost2010Prop54
  1
strokes_ogs.tif
102
RTVSPost2010PropOp54
 70
     1
102
RTVSPost2010Prop55
280
     0
102
RTVSPost2010PropOp55
 70
     1
102
RTVSPost2010Prop56
140
1.0
102
RTVSPost2010PropOp56
 70
     1
102
RTVSPost2010Prop57
140
1.0
102
RTVSPost2010PropOp57
 70
     1
  0
XRECORD
  5
53B
102
{ACAD_REACTORS
330
53A
102
}
330
53A
100
AcDbXrecord
280
     1
102
RTVSPropertyOp0
 70
     1
102
RTVSPropertyOp1
 70
     1
102
RTVSPropertyOp2
 70
     1
102
RTVSPropertyOp3
 70
     1
102
RTVSPropertyOp4
 70
     1
102
RTVSPropertyOp5
 70
     1
102
RTVSPropertyOp6
 70
     1
102
RTVSPropertyOp7
 70
     1
102
RTVSPropertyOp8
 70
     1
102
RTVSPropertyOp9
 70
     1
102
RTVSPropertyOp10
 70
     1
102
RTVSPropertyOp11
 70
     1
102
RTVSPropertyOp12
 70
     1
102
RTVSPropertyOp13
 70
     1
102
RTVSPropertyOp14
 70
     1
102
RTVSPropertyOp15
 70
     1
102
RTVSPropertyOp16
 70
     1
102
RTVSPropertyOp17
 70
     1
102
RTVSPropertyOp18
 70
     1
102
RTVSPropertyOp19
 70
     1
102
RTVSPropertyOp20
 70
     1
102
RTVSPropertyOp21
 70
     1
102
RTVSPropertyOp22
 70
     1
102
RTVSPropertyOp23
 70
     1
102
RTVSPropertyOp24
 70
     1
102
RTVSPropertyOp25
 70
     1
102
RTVSPropertyOp26
 70
     1
102
RTVSPropertyOp27
 70
     1
102
RTVSPropertyOp28
 70
     1
102
RTVSPropertyOp29
 70
     1
102
RTVSPropertyOp30
 70
     1
102
RTVSPropertyOp31
 70
     1
102
RTVSPropertyOp32
 70
     1
102
RTVSPropertyOp33
 70
     1
102
RTVSPropertyOp34
 70
     1
102
RTVSPropertyOp35
 70
     1
102
RTVSPropertyOp36
 70
     1
102
RTVSPropertyOp37
 70
     1
102
RTVSPropertyOp38
 70
     1
102
RTVSPropertyOp39
 70
     1
102
RTVSPropertyOp40
 70
     1
102
RTVSPropertyOp41
 70
     1
102
RTVSPropertyOp42
 70
     1
102
RTVSPropertyOp43
 70
     1
102
RTVSPropertyOp44
 70
     1
102
RTVSPropertyOp45
 70
     1
102
RTVSPropertyOp46
 70
     1
102
RTVSPropertyOp47
 70
     1
102
RTVSPropertyOp48
 70
     1
102
RTVSPropertyOp49
 70
     1
102
RTVSPropertyOp50
 70
     1
102
RTVSPropertyOp51
 70
     0
102
RTVSPropertyOp52
 70
     0
102
RTVSPropertyOp53
 70
     1
102
RTVSPropertyOp54
 70
     1
102
RTVSPropertyOp55
 70
     1
102
RTVSPropertyOp56
 70
     1
102
RTVSPropertyOp57
 70
     1
102
RTVSPost2010Prop28
280
     0
102
RTVSPost2010PropOp28
 70
     1
102
RTVSPost2010Prop29
280
     1
102
RTVSPost2010PropOp29
 70
     1
102
RTVSPost2010Prop30
280
     1
102
RTVSPost2010PropOp30
 70
     1
102
RTVSPost2010Prop31
280
     0
102
RTVSPost2010PropOp31
 70
     1
102
RTVSPost2010Prop32
280
     0
102
RTVSPost2010PropOp32
 70
     1
102
RTVSPost2010Prop33
280
     0
102
RTVSPost2010PropOp33
 70
     1
102
RTVSPost2010Prop34
280
     0
102
RTVSPost2010PropOp34
 70
     1
102
RTVSPost2010Prop35
280
     0
102
RTVSPost2010PropOp35
 70
     1
102
RTVSPost2010Prop36
280
     0
102
RTVSPost2010PropOp36
 70
     1
102
RTVSPost2010Prop37
 90
       50
102
RTVSPost2010PropOp37
 70
     1
102
RTVSPost2010Prop38
140
0.0
102
RTVSPost2010PropOp38
 70
     1
102
RTVSPost2010Prop39
140
1.0
102
RTVSPost2010PropOp39
 70
     1
102
RTVSPost2010Prop40
 90
        0
102
RTVSPost2010PropOp40
 70
     1
102
RTVSPost2010Prop41ColorIndex
 90
       18
102
RTVSPost2010Prop41ColorRGB
 90
        0
102
RTVSPost2010PropOp41
 70
     1
102
RTVSPost2010Prop42
 90
       50
102
RTVSPost2010PropOp42
 70
     1
102
RTVSPost2010Prop43
 90
        3
102
RTVSPost2010PropOp43
 70
     1
102
RTVSPost2010Prop44ColorIndex
 90
        5
102
RTVSPost2010Prop44ColorRGB
 90
      255
102
RTVSPost2010PropOp44
 70
     1
102
RTVSPost2010Prop45
280
     0
102
RTVSPost2010PropOp45
 70
     1
102
RTVSPost2010Prop46
 90
       50
102
RTVSPost2010PropOp46
 70
     1
102
RTVSPost2010Prop47
 90
       50
102
RTVSPost2010PropOp47
 70
     1
102
RTVSPost2010Prop48
 90
       50
102
RTVSPost2010PropOp48
 70
     1
102
RTVSPost2010Prop49
280
     0
102
RTVSPost2010PropOp49
 70
     1
102
RTVSPost2010Prop50
 90
       50
102
RTVSPost2010PropOp50
 70
     1
102
RTVSPost2010Prop51ColorIndex
 90
      256
102
RTVSPost2010Prop51ColorRGB
 90
-16777216
102
RTVSPost2010PropOp51
 70
     0
102
RTVSPost2010Prop52
140
1.0
102
RTVSPost2010PropOp52
 70
     0
102
RTVSPost2010Prop53
 90
        2
102
RTVSPost2010PropOp53
 70
     1
102
RTVSPost2010Prop54
  1
strokes_ogs.tif
102
RTVSPost2010PropOp54
 70
     1
102
RTVSPost2010Prop55
280
     0
102
RTVSPost2010PropOp55
 70
     1
102
RTVSPost2010Prop56
140
1.0
102
RTVSPost2010PropOp56
 70
     1
102
RTVSPost2010Prop57
140
1.0
102
RTVSPost2010PropOp57
 70
     1
  0
XRECORD
  5
53D
102
{ACAD_REACTORS
330
53C
102
}
330
53C
100
AcDbXrecord
280
     1
102
RTVSPropertyOp0
 70
     1
102
RTVSPropertyOp1
 70
     1
102
RTVSPropertyOp2
 70
     1
102
RTVSPropertyOp3
 70
     1
102
RTVSPropertyOp4
 70
     1
102
RTVSPropertyOp5
 70
     1
102
RTVSPropertyOp6
 70
     1
102
RTVSPropertyOp7
 70
     1
102
RTVSPropertyOp8
 70
     1
102
RTVSPropertyOp9
 70
     1
102
RTVSPropertyOp10
 70
     1
102
RTVSPropertyOp11
 70
     1
102
RTVSPropertyOp12
 70
     1
102
RTVSPropertyOp13
 70
     1
102
RTVSPropertyOp14
 70
     1
102
RTVSPropertyOp15
 70
     1
102
RTVSPropertyOp16
 70
     1
102
RTVSPropertyOp17
 70
     1
102
RTVSPropertyOp18
 70
     1
102
RTVSPropertyOp19
 70
     1
102
RTVSPropertyOp20
 70
     1
102
RTVSPropertyOp21
 70
     1
102
RTVSPropertyOp22
 70
     1
102
RTVSPropertyOp23
 70
     1
102
RTVSPropertyOp24
 70
     1
102
RTVSPropertyOp25
 70
     1
102
RTVSPropertyOp26
 70
     1
102
RTVSPropertyOp27
 70
     1
102
RTVSPropertyOp28
 70
     1
102
RTVSPropertyOp29
 70
     1
102
RTVSPropertyOp30
 70
     1
102
RTVSPropertyOp31
 70
     1
102
RTVSPropertyOp32
 70
     1
102
RTVSPropertyOp33
 70
     1
102
RTVSPropertyOp34
 70
     1
102
RTVSPropertyOp35
 70
     1
102
RTVSPropertyOp36
 70
     1
102
RTVSPropertyOp37
 70
     1
102
RTVSPropertyOp38
 70
     1
102
RTVSPropertyOp39
 70
     1
102
RTVSPropertyOp40
 70
     1
102
RTVSPropertyOp41
 70
     1
102
RTVSPropertyOp42
 70
     1
102
RTVSPropertyOp43
 70
     1
102
RTVSPropertyOp44
 70
     1
102
RTVSPropertyOp45
 70
     1
102
RTVSPropertyOp46
 70
     1
102
RTVSPropertyOp47
 70
     1
102
RTVSPropertyOp48
 70
     1
102
RTVSPropertyOp49
 70
     1
102
RTVSPropertyOp50
 70
     1
102
RTVSPropertyOp51
 70
     0
102
RTVSPropertyOp52
 70
     0
102
RTVSPropertyOp53
 70
     1
102
RTVSPropertyOp54
 70
     1
102
RTVSPropertyOp55
 70
     1
102
RTVSPropertyOp56
 70
     1
102
RTVSPropertyOp57
 70
     1
102
RTVSPost2010Prop28
280
     0
102
RTVSPost2010PropOp28
 70
     1
102
RTVSPost2010Prop29
280
     1
102
RTVSPost2010PropOp29
 70
     1
102
RTVSPost2010Prop30
280
     1
102
RTVSPost2010PropOp30
 70
     1
102
RTVSPost2010Prop31
280
     0
102
RTVSPost2010PropOp31
 70
     1
102
RTVSPost2010Prop32
280
     0
102
RTVSPost2010PropOp32
 70
     1
102
RTVSPost2010Prop33
280
     0
102
RTVSPost2010PropOp33
 70
     1
102
RTVSPost2010Prop34
280
     0
102
RTVSPost2010PropOp34
 70
     1
102
RTVSPost2010Prop35
280
     0
102
RTVSPost2010PropOp35
 70
     1
102
RTVSPost2010Prop36
280
     0
102
RTVSPost2010PropOp36
 70
     1
102
RTVSPost2010Prop37
 90
       50
102
RTVSPost2010PropOp37
 70
     1
102
RTVSPost2010Prop38
140
0.0
102
RTVSPost2010PropOp38
 70
     1
102
RTVSPost2010Prop39
140
1.0
102
RTVSPost2010PropOp39
 70
     1
102
RTVSPost2010Prop40
 90
        0
102
RTVSPost2010PropOp40
 70
     1
102
RTVSPost2010Prop41ColorIndex
 90
       18
102
RTVSPost2010Prop41ColorRGB
 90
        0
102
RTVSPost2010PropOp41
 70
     1
102
RTVSPost2010Prop42
 90
       50
102
RTVSPost2010PropOp42
 70
     1
102
RTVSPost2010Prop43
 90
        3
102
RTVSPost2010PropOp43
 70
     1
102
RTVSPost2010Prop44ColorIndex
 90
        5
102
RTVSPost2010Prop44ColorRGB
 90
      255
102
RTVSPost2010PropOp44
 70
     1
102
RTVSPost2010Prop45
280
     0
102
RTVSPost2010PropOp45
 70
     1
102
RTVSPost2010Prop46
 90
       50
102
RTVSPost2010PropOp46
 70
     1
102
RTVSPost2010Prop47
 90
       50
102
RTVSPost2010PropOp47
 70
     1
102
RTVSPost2010Prop48
 90
       50
102
RTVSPost2010PropOp48
 70
     1
102
RTVSPost2010Prop49
280
     0
102
RTVSPost2010PropOp49
 70
     1
102
RTVSPost2010Prop50
 90
       50
102
RTVSPost2010PropOp50
 70
     1
102
RTVSPost2010Prop51ColorIndex
 90
      256
102
RTVSPost2010Prop51ColorRGB
 90
-16777216
102
RTVSPost2010PropOp51
 70
     0
102
RTVSPost2010Prop52
140
1.0
102
RTVSPost2010PropOp52
 70
     0
102
RTVSPost2010Prop53
 90
        2
102
RTVSPost2010PropOp53
 70
     1
102
RTVSPost2010Prop54
  1
strokes_ogs.tif
102
RTVSPost2010PropOp54
 70
     1
102
RTVSPost2010Prop55
280
     0
102
RTVSPost2010PropOp55
 70
     1
102
RTVSPost2010Prop56
140
1.0
102
RTVSPost2010PropOp56
 70
     1
102
RTVSPost2010Prop57
140
1.0
102
RTVSPost2010PropOp57
 70
     1
  0
XRECORD
  5
543
102
{ACAD_REACTORS
330
542
102
}
330
542
100
AcDbXrecord
280
     1
102
RTVSPropertyOp0
 70
     1
102
RTVSPropertyOp1
 70
     1
102
RTVSPropertyOp2
 70
     1
102
RTVSPropertyOp3
 70
     1
102
RTVSPropertyOp4
 70
     1
102
RTVSPropertyOp5
 70
     1
102
RTVSPropertyOp6
 70
     1
102
RTVSPropertyOp7
 70
     1
102
RTVSPropertyOp8
 70
     1
102
RTVSPropertyOp9
 70
     1
102
RTVSPropertyOp10
 70
     1
102
RTVSPropertyOp11
 70
     1
102
RTVSPropertyOp12
 70
     1
102
RTVSPropertyOp13
 70
     1
102
RTVSPropertyOp14
 70
     1
102
RTVSPropertyOp15
 70
     1
102
RTVSPropertyOp16
 70
     1
102
RTVSPropertyOp17
 70
     1
102
RTVSPropertyOp18
 70
     1
102
RTVSPropertyOp19
 70
     1
102
RTVSPropertyOp20
 70
     1
102
RTVSPropertyOp21
 70
     1
102
RTVSPropertyOp22
 70
     1
102
RTVSPropertyOp23
 70
     1
102
RTVSPropertyOp24
 70
     1
102
RTVSPropertyOp25
 70
     1
102
RTVSPropertyOp26
 70
     1
102
RTVSPropertyOp27
 70
     1
102
RTVSPropertyOp28
 70
     1
102
RTVSPropertyOp29
 70
     1
102
RTVSPropertyOp30
 70
     1
102
RTVSPropertyOp31
 70
     1
102
RTVSPropertyOp32
 70
     1
102
RTVSPropertyOp33
 70
     1
102
RTVSPropertyOp34
 70
     1
102
RTVSPropertyOp35
 70
     1
102
RTVSPropertyOp36
 70
     1
102
RTVSPropertyOp37
 70
     1
102
RTVSPropertyOp38
 70
     1
102
RTVSPropertyOp39
 70
     1
102
RTVSPropertyOp40
 70
     1
102
RTVSPropertyOp41
 70
     1
102
RTVSPropertyOp42
 70
     1
102
RTVSPropertyOp43
 70
     1
102
RTVSPropertyOp44
 70
     1
102
RTVSPropertyOp45
 70
     1
102
RTVSPropertyOp46
 70
     1
102
RTVSPropertyOp47
 70
     1
102
RTVSPropertyOp48
 70
     1
102
RTVSPropertyOp49
 70
     1
102
RTVSPropertyOp50
 70
     1
102
RTVSPropertyOp51
 70
     0
102
RTVSPropertyOp52
 70
     0
102
RTVSPropertyOp53
 70
     1
102
RTVSPropertyOp54
 70
     1
102
RTVSPropertyOp55
 70
     1
102
RTVSPropertyOp56
 70
     1
102
RTVSPropertyOp57
 70
     1
102
RTVSPost2010Prop28
280
     0
102
RTVSPost2010PropOp28
 70
     1
102
RTVSPost2010Prop29
280
     1
102
RTVSPost2010PropOp29
 70
     1
102
RTVSPost2010Prop30
280
     1
102
RTVSPost2010PropOp30
 70
     1
102
RTVSPost2010Prop31
280
     0
102
RTVSPost2010PropOp31
 70
     1
102
RTVSPost2010Prop32
280
     0
102
RTVSPost2010PropOp32
 70
     1
102
RTVSPost2010Prop33
280
     0
102
RTVSPost2010PropOp33
 70
     1
102
RTVSPost2010Prop34
280
     0
102
RTVSPost2010PropOp34
 70
     1
102
RTVSPost2010Prop35
280
     0
102
RTVSPost2010PropOp35
 70
     1
102
RTVSPost2010Prop36
280
     0
102
RTVSPost2010PropOp36
 70
     1
102
RTVSPost2010Prop37
 90
       50
102
RTVSPost2010PropOp37
 70
     1
102
RTVSPost2010Prop38
140
0.0
102
RTVSPost2010PropOp38
 70
     1
102
RTVSPost2010Prop39
140
1.0
102
RTVSPost2010PropOp39
 70
     1
102
RTVSPost2010Prop40
 90
        0
102
RTVSPost2010PropOp40
 70
     1
102
RTVSPost2010Prop41ColorIndex
 90
       18
102
RTVSPost2010Prop41ColorRGB
 90
        0
102
RTVSPost2010PropOp41
 70
     1
102
RTVSPost2010Prop42
 90
       50
102
RTVSPost2010PropOp42
 70
     1
102
RTVSPost2010Prop43
 90
        3
102
RTVSPost2010PropOp43
 70
     1
102
RTVSPost2010Prop44ColorIndex
 90
        5
102
RTVSPost2010Prop44ColorRGB
 90
      255
102
RTVSPost2010PropOp44
 70
     1
102
RTVSPost2010Prop45
280
     0
102
RTVSPost2010PropOp45
 70
     1
102
RTVSPost2010Prop46
 90
       50
102
RTVSPost2010PropOp46
 70
     1
102
RTVSPost2010Prop47
 90
       50
102
RTVSPost2010PropOp47
 70
     1
102
RTVSPost2010Prop48
 90
       50
102
RTVSPost2010PropOp48
 70
     1
102
RTVSPost2010Prop49
280
     0
102
RTVSPost2010PropOp49
 70
     1
102
RTVSPost2010Prop50
 90
       50
102
RTVSPost2010PropOp50
 70
     1
102
RTVSPost2010Prop51ColorIndex
 90
      256
102
RTVSPost2010Prop51ColorRGB
 90
-16777216
102
RTVSPost2010PropOp51
 70
     0
102
RTVSPost2010Prop52
140
1.0
102
RTVSPost2010PropOp52
 70
     0
102
RTVSPost2010Prop53
 90
        2
102
RTVSPost2010PropOp53
 70
     1
102
RTVSPost2010Prop54
  1
strokes_ogs.tif
102
RTVSPost2010PropOp54
 70
     1
102
RTVSPost2010Prop55
280
     0
102
RTVSPost2010PropOp55
 70
     1
102
RTVSPost2010Prop56
140
1.0
102
RTVSPost2010PropOp56
 70
     1
102
RTVSPost2010Prop57
140
1.0
102
RTVSPost2010PropOp57
 70
     1
  0
XRECORD
  5
557
102
{ACAD_REACTORS
330
556
102
}
330
556
100
AcDbXrecord
280
     1
102
RTVSPropertyOp0
 70
     0
102
RTVSPropertyOp1
 70
     0
102
RTVSPropertyOp2
 70
     0
102
RTVSPropertyOp3
 70
     0
102
RTVSPropertyOp4
 70
     0
102
RTVSPropertyOp5
 70
     0
102
RTVSPropertyOp6
 70
     0
102
RTVSPropertyOp7
 70
     0
102
RTVSPropertyOp8
 70
     0
102
RTVSPropertyOp9
 70
     0
102
RTVSPropertyOp10
 70
     0
102
RTVSPropertyOp11
 70
     0
102
RTVSPropertyOp12
 70
     0
102
RTVSPropertyOp13
 70
     0
102
RTVSPropertyOp14
 70
     0
102
RTVSPropertyOp15
 70
     0
102
RTVSPropertyOp16
 70
     0
102
RTVSPropertyOp17
 70
     0
102
RTVSPropertyOp18
 70
     0
102
RTVSPropertyOp19
 70
     0
102
RTVSPropertyOp20
 70
     0
102
RTVSPropertyOp21
 70
     0
102
RTVSPropertyOp22
 70
     0
102
RTVSPropertyOp23
 70
     0
102
RTVSPropertyOp24
 70
     0
102
RTVSPropertyOp25
 70
     0
102
RTVSPropertyOp26
 70
     0
102
RTVSPropertyOp27
 70
     0
102
RTVSPropertyOp28
 70
     1
102
RTVSPropertyOp29
 70
     1
102
RTVSPropertyOp30
 70
     1
102
RTVSPropertyOp31
 70
     1
102
RTVSPropertyOp32
 70
     1
102
RTVSPropertyOp33
 70
     1
102
RTVSPropertyOp34
 70
     1
102
RTVSPropertyOp35
 70
     1
102
RTVSPropertyOp36
 70
     1
102
RTVSPropertyOp37
 70
     1
102
RTVSPropertyOp38
 70
     1
102
RTVSPropertyOp39
 70
     1
102
RTVSPropertyOp40
 70
     1
102
RTVSPropertyOp41
 70
     1
102
RTVSPropertyOp42
 70
     1
102
RTVSPropertyOp43
 70
     1
102
RTVSPropertyOp44
 70
     1
102
RTVSPropertyOp45
 70
     1
102
RTVSPropertyOp46
 70
     1
102
RTVSPropertyOp47
 70
     1
102
RTVSPropertyOp48
 70
     1
102
RTVSPropertyOp49
 70
     1
102
RTVSPropertyOp50
 70
     1
102
RTVSPropertyOp51
 70
     0
102
RTVSPropertyOp52
 70
     0
102
RTVSPropertyOp53
 70
     1
102
RTVSPropertyOp54
 70
     1
102
RTVSPropertyOp55
 70
     1
102
RTVSPropertyOp56
 70
     1
102
RTVSPropertyOp57
 70
     1
102
RTVSPost2010Prop28
280
     0
102
RTVSPost2010PropOp28
 70
     1
102
RTVSPost2010Prop29
280
     1
102
RTVSPost2010PropOp29
 70
     1
102
RTVSPost2010Prop30
280
     1
102
RTVSPost2010PropOp30
 70
     1
102
RTVSPost2010Prop31
280
     0
102
RTVSPost2010PropOp31
 70
     1
102
RTVSPost2010Prop32
280
     0
102
RTVSPost2010PropOp32
 70
     1
102
RTVSPost2010Prop33
280
     0
102
RTVSPost2010PropOp33
 70
     1
102
RTVSPost2010Prop34
280
     0
102
RTVSPost2010PropOp34
 70
     1
102
RTVSPost2010Prop35
280
     0
102
RTVSPost2010PropOp35
 70
     1
102
RTVSPost2010Prop36
280
     0
102
RTVSPost2010PropOp36
 70
     1
102
RTVSPost2010Prop37
 90
       50
102
RTVSPost2010PropOp37
 70
     1
102
RTVSPost2010Prop38
140
0.0
102
RTVSPost2010PropOp38
 70
     1
102
RTVSPost2010Prop39
140
1.0
102
RTVSPost2010PropOp39
 70
     1
102
RTVSPost2010Prop40
 90
        0
102
RTVSPost2010PropOp40
 70
     1
102
RTVSPost2010Prop41ColorIndex
 90
       18
102
RTVSPost2010Prop41ColorRGB
 90
        0
102
RTVSPost2010PropOp41
 70
     1
102
RTVSPost2010Prop42
 90
       50
102
RTVSPost2010PropOp42
 70
     1
102
RTVSPost2010Prop43
 90
        3
102
RTVSPost2010PropOp43
 70
     1
102
RTVSPost2010Prop44ColorIndex
 90
        5
102
RTVSPost2010Prop44ColorRGB
 90
      255
102
RTVSPost2010PropOp44
 70
     1
102
RTVSPost2010Prop45
280
     0
102
RTVSPost2010PropOp45
 70
     1
102
RTVSPost2010Prop46
 90
       50
102
RTVSPost2010PropOp46
 70
     1
102
RTVSPost2010Prop47
 90
       50
102
RTVSPost2010PropOp47
 70
     1
102
RTVSPost2010Prop48
 90
       50
102
RTVSPost2010PropOp48
 70
     1
102
RTVSPost2010Prop49
280
     0
102
RTVSPost2010PropOp49
 70
     1
102
RTVSPost2010Prop50
 90
       50
102
RTVSPost2010PropOp50
 70
     1
102
RTVSPost2010Prop51ColorIndex
 90
      256
102
RTVSPost2010Prop51ColorRGB
 90
-16777216
102
RTVSPost2010PropOp51
 70
     0
102
RTVSPost2010Prop52
140
1.0
102
RTVSPost2010PropOp52
 70
     0
102
RTVSPost2010Prop53
 90
        2
102
RTVSPost2010PropOp53
 70
     1
102
RTVSPost2010Prop54
  1
strokes_ogs.tif
102
RTVSPost2010PropOp54
 70
     1
102
RTVSPost2010Prop55
280
     0
102
RTVSPost2010PropOp55
 70
     1
102
RTVSPost2010Prop56
140
1.0
102
RTVSPost2010PropOp56
 70
     1
102
RTVSPost2010Prop57
140
1.0
102
RTVSPost2010PropOp57
 70
     1
  0
XRECORD
  5
551
102
{ACAD_REACTORS
330
550
102
}
330
550
100
AcDbXrecord
280
     1
102
RTVSPropertyOp0
 70
     1
102
RTVSPropertyOp1
 70
     1
102
RTVSPropertyOp2
 70
     1
102
RTVSPropertyOp3
 70
     1
102
RTVSPropertyOp4
 70
     1
102
RTVSPropertyOp5
 70
     1
102
RTVSPropertyOp6
 70
     1
102
RTVSPropertyOp7
 70
     1
102
RTVSPropertyOp8
 70
     1
102
RTVSPropertyOp9
 70
     1
102
RTVSPropertyOp10
 70
     1
102
RTVSPropertyOp11
 70
     1
102
RTVSPropertyOp12
 70
     1
102
RTVSPropertyOp13
 70
     1
102
RTVSPropertyOp14
 70
     1
102
RTVSPropertyOp15
 70
     1
102
RTVSPropertyOp16
 70
     1
102
RTVSPropertyOp17
 70
     1
102
RTVSPropertyOp18
 70
     1
102
RTVSPropertyOp19
 70
     1
102
RTVSPropertyOp20
 70
     1
102
RTVSPropertyOp21
 70
     1
102
RTVSPropertyOp22
 70
     1
102
RTVSPropertyOp23
 70
     1
102
RTVSPropertyOp24
 70
     1
102
RTVSPropertyOp25
 70
     1
102
RTVSPropertyOp26
 70
     1
102
RTVSPropertyOp27
 70
     1
102
RTVSPropertyOp28
 70
     1
102
RTVSPropertyOp29
 70
     1
102
RTVSPropertyOp30
 70
     1
102
RTVSPropertyOp31
 70
     1
102
RTVSPropertyOp32
 70
     1
102
RTVSPropertyOp33
 70
     1
102
RTVSPropertyOp34
 70
     1
102
RTVSPropertyOp35
 70
     1
102
RTVSPropertyOp36
 70
     1
102
RTVSPropertyOp37
 70
     1
102
RTVSPropertyOp38
 70
     1
102
RTVSPropertyOp39
 70
     1
102
RTVSPropertyOp40
 70
     1
102
RTVSPropertyOp41
 70
     1
102
RTVSPropertyOp42
 70
     1
102
RTVSPropertyOp43
 70
     1
102
RTVSPropertyOp44
 70
     1
102
RTVSPropertyOp45
 70
     1
102
RTVSPropertyOp46
 70
     1
102
RTVSPropertyOp47
 70
     1
102
RTVSPropertyOp48
 70
     1
102
RTVSPropertyOp49
 70
     1
102
RTVSPropertyOp50
 70
     1
102
RTVSPropertyOp51
 70
     0
102
RTVSPropertyOp52
 70
     0
102
RTVSPropertyOp53
 70
     1
102
RTVSPropertyOp54
 70
     1
102
RTVSPropertyOp55
 70
     1
102
RTVSPropertyOp56
 70
     1
102
RTVSPropertyOp57
 70
     1
102
RTVSPost2010Prop28
280
     0
102
RTVSPost2010PropOp28
 70
     1
102
RTVSPost2010Prop29
280
     1
102
RTVSPost2010PropOp29
 70
     1
102
RTVSPost2010Prop30
280
     1
102
RTVSPost2010PropOp30
 70
     1
102
RTVSPost2010Prop31
280
     0
102
RTVSPost2010PropOp31
 70
     1
102
RTVSPost2010Prop32
280
     0
102
RTVSPost2010PropOp32
 70
     1
102
RTVSPost2010Prop33
280
     0
102
RTVSPost2010PropOp33
 70
     1
102
RTVSPost2010Prop34
280
     0
102
RTVSPost2010PropOp34
 70
     1
102
RTVSPost2010Prop35
280
     0
102
RTVSPost2010PropOp35
 70
     1
102
RTVSPost2010Prop36
280
     0
102
RTVSPost2010PropOp36
 70
     1
102
RTVSPost2010Prop37
 90
       50
102
RTVSPost2010PropOp37
 70
     1
102
RTVSPost2010Prop38
140
0.0
102
RTVSPost2010PropOp38
 70
     1
102
RTVSPost2010Prop39
140
1.0
102
RTVSPost2010PropOp39
 70
     1
102
RTVSPost2010Prop40
 90
        0
102
RTVSPost2010PropOp40
 70
     1
102
RTVSPost2010Prop41ColorIndex
 90
       18
102
RTVSPost2010Prop41ColorRGB
 90
        0
102
RTVSPost2010PropOp41
 70
     1
102
RTVSPost2010Prop42
 90
       50
102
RTVSPost2010PropOp42
 70
     1
102
RTVSPost2010Prop43
 90
        3
102
RTVSPost2010PropOp43
 70
     1
102
RTVSPost2010Prop44ColorIndex
 90
        5
102
RTVSPost2010Prop44ColorRGB
 90
      255
102
RTVSPost2010PropOp44
 70
     1
102
RTVSPost2010Prop45
280
     0
102
RTVSPost2010PropOp45
 70
     1
102
RTVSPost2010Prop46
 90
       50
102
RTVSPost2010PropOp46
 70
     1
102
RTVSPost2010Prop47
 90
       50
102
RTVSPost2010PropOp47
 70
     1
102
RTVSPost2010Prop48
 90
       50
102
RTVSPost2010PropOp48
 70
     1
102
RTVSPost2010Prop49
280
     0
102
RTVSPost2010PropOp49
 70
     1
102
RTVSPost2010Prop50
 90
       50
102
RTVSPost2010PropOp50
 70
     1
102
RTVSPost2010Prop51ColorIndex
 90
      256
102
RTVSPost2010Prop51ColorRGB
 90
-16777216
102
RTVSPost2010PropOp51
 70
     0
102
RTVSPost2010Prop52
140
1.0
102
RTVSPost2010PropOp52
 70
     0
102
RTVSPost2010Prop53
 90
        2
102
RTVSPost2010PropOp53
 70
     1
102
RTVSPost2010Prop54
  1
strokes_ogs.tif
102
RTVSPost2010PropOp54
 70
     1
102
RTVSPost2010Prop55
280
     0
102
RTVSPost2010PropOp55
 70
     1
102
RTVSPost2010Prop56
140
1.0
102
RTVSPost2010PropOp56
 70
     1
102
RTVSPost2010Prop57
140
1.0
102
RTVSPost2010PropOp57
 70
     1
  0
XRECORD
  5
559
102
{ACAD_REACTORS
330
558
102
}
330
558
100
AcDbXrecord
280
     1
102
RTVSPropertyOp0
 70
     0
102
RTVSPropertyOp1
 70
     0
102
RTVSPropertyOp2
 70
     0
102
RTVSPropertyOp3
 70
     0
102
RTVSPropertyOp4
 70
     0
102
RTVSPropertyOp5
 70
     0
102
RTVSPropertyOp6
 70
     0
102
RTVSPropertyOp7
 70
     0
102
RTVSPropertyOp8
 70
     0
102
RTVSPropertyOp9
 70
     0
102
RTVSPropertyOp10
 70
     0
102
RTVSPropertyOp11
 70
     0
102
RTVSPropertyOp12
 70
     0
102
RTVSPropertyOp13
 70
     0
102
RTVSPropertyOp14
 70
     0
102
RTVSPropertyOp15
 70
     0
102
RTVSPropertyOp16
 70
     0
102
RTVSPropertyOp17
 70
     0
102
RTVSPropertyOp18
 70
     0
102
RTVSPropertyOp19
 70
     0
102
RTVSPropertyOp20
 70
     0
102
RTVSPropertyOp21
 70
     0
102
RTVSPropertyOp22
 70
     0
102
RTVSPropertyOp23
 70
     0
102
RTVSPropertyOp24
 70
     0
102
RTVSPropertyOp25
 70
     0
102
RTVSPropertyOp26
 70
     0
102
RTVSPropertyOp27
 70
     0
102
RTVSPropertyOp28
 70
     1
102
RTVSPropertyOp29
 70
     1
102
RTVSPropertyOp30
 70
     1
102
RTVSPropertyOp31
 70
     1
102
RTVSPropertyOp32
 70
     1
102
RTVSPropertyOp33
 70
     1
102
RTVSPropertyOp34
 70
     1
102
RTVSPropertyOp35
 70
     1
102
RTVSPropertyOp36
 70
     1
102
RTVSPropertyOp37
 70
     1
102
RTVSPropertyOp38
 70
     1
102
RTVSPropertyOp39
 70
     1
102
RTVSPropertyOp40
 70
     1
102
RTVSPropertyOp41
 70
     1
102
RTVSPropertyOp42
 70
     1
102
RTVSPropertyOp43
 70
     1
102
RTVSPropertyOp44
 70
     1
102
RTVSPropertyOp45
 70
     1
102
RTVSPropertyOp46
 70
     1
102
RTVSPropertyOp47
 70
     1
102
RTVSPropertyOp48
 70
     1
102
RTVSPropertyOp49
 70
     1
102
RTVSPropertyOp50
 70
     1
102
RTVSPropertyOp51
 70
     0
102
RTVSPropertyOp52
 70
     0
102
RTVSPropertyOp53
 70
     1
102
RTVSPropertyOp54
 70
     1
102
RTVSPropertyOp55
 70
     1
102
RTVSPropertyOp56
 70
     1
102
RTVSPropertyOp57
 70
     1
102
RTVSPost2010Prop28
280
     0
102
RTVSPost2010PropOp28
 70
     1
102
RTVSPost2010Prop29
280
     1
102
RTVSPost2010PropOp29
 70
     1
102
RTVSPost2010Prop30
280
     1
102
RTVSPost2010PropOp30
 70
     1
102
RTVSPost2010Prop31
280
     0
102
RTVSPost2010PropOp31
 70
     1
102
RTVSPost2010Prop32
280
     0
102
RTVSPost2010PropOp32
 70
     1
102
RTVSPost2010Prop33
280
     0
102
RTVSPost2010PropOp33
 70
     1
102
RTVSPost2010Prop34
280
     0
102
RTVSPost2010PropOp34
 70
     1
102
RTVSPost2010Prop35
280
     0
102
RTVSPost2010PropOp35
 70
     1
102
RTVSPost2010Prop36
280
     0
102
RTVSPost2010PropOp36
 70
     1
102
RTVSPost2010Prop37
 90
       50
102
RTVSPost2010PropOp37
 70
     1
102
RTVSPost2010Prop38
140
0.0
102
RTVSPost2010PropOp38
 70
     1
102
RTVSPost2010Prop39
140
1.0
102
RTVSPost2010PropOp39
 70
     1
102
RTVSPost2010Prop40
 90
        0
102
RTVSPost2010PropOp40
 70
     1
102
RTVSPost2010Prop41ColorIndex
 90
       18
102
RTVSPost2010Prop41ColorRGB
 90
        0
102
RTVSPost2010PropOp41
 70
     1
102
RTVSPost2010Prop42
 90
       50
102
RTVSPost2010PropOp42
 70
     1
102
RTVSPost2010Prop43
 90
        3
102
RTVSPost2010PropOp43
 70
     1
102
RTVSPost2010Prop44ColorIndex
 90
        5
102
RTVSPost2010Prop44ColorRGB
 90
      255
102
RTVSPost2010PropOp44
 70
     1
102
RTVSPost2010Prop45
280
     0
102
RTVSPost2010PropOp45
 70
     1
102
RTVSPost2010Prop46
 90
       50
102
RTVSPost2010PropOp46
 70
     1
102
RTVSPost2010Prop47
 90
       50
102
RTVSPost2010PropOp47
 70
     1
102
RTVSPost2010Prop48
 90
       50
102
RTVSPost2010PropOp48
 70
     1
102
RTVSPost2010Prop49
280
     0
102
RTVSPost2010PropOp49
 70
     1
102
RTVSPost2010Prop50
 90
       50
102
RTVSPost2010PropOp50
 70
     1
102
RTVSPost2010Prop51ColorIndex
 90
      256
102
RTVSPost2010Prop51ColorRGB
 90
-16777216
102
RTVSPost2010PropOp51
 70
     0
102
RTVSPost2010Prop52
140
1.0
102
RTVSPost2010PropOp52
 70
     0
102
RTVSPost2010Prop53
 90
        2
102
RTVSPost2010PropOp53
 70
     1
102
RTVSPost2010Prop54
  1
strokes_ogs.tif
102
RTVSPost2010PropOp54
 70
     1
102
RTVSPost2010Prop55
280
     0
102
RTVSPost2010PropOp55
 70
     1
102
RTVSPost2010Prop56
140
1.0
102
RTVSPost2010PropOp56
 70
     1
102
RTVSPost2010Prop57
140
1.0
102
RTVSPost2010PropOp57
 70
     1
  0
XRECORD
  5
547
102
{ACAD_REACTORS
330
546
102
}
330
546
100
AcDbXrecord
280
     1
102
RTVSPropertyOp0
 70
     1
102
RTVSPropertyOp1
 70
     1
102
RTVSPropertyOp2
 70
     1
102
RTVSPropertyOp3
 70
     1
102
RTVSPropertyOp4
 70
     1
102
RTVSPropertyOp5
 70
     1
102
RTVSPropertyOp6
 70
     1
102
RTVSPropertyOp7
 70
     1
102
RTVSPropertyOp8
 70
     1
102
RTVSPropertyOp9
 70
     1
102
RTVSPropertyOp10
 70
     1
102
RTVSPropertyOp11
 70
     1
102
RTVSPropertyOp12
 70
     1
102
RTVSPropertyOp13
 70
     1
102
RTVSPropertyOp14
 70
     1
102
RTVSPropertyOp15
 70
     1
102
RTVSPropertyOp16
 70
     1
102
RTVSPropertyOp17
 70
     1
102
RTVSPropertyOp18
 70
     1
102
RTVSPropertyOp19
 70
     1
102
RTVSPropertyOp20
 70
     1
102
RTVSPropertyOp21
 70
     1
102
RTVSPropertyOp22
 70
     1
102
RTVSPropertyOp23
 70
     1
102
RTVSPropertyOp24
 70
     1
102
RTVSPropertyOp25
 70
     1
102
RTVSPropertyOp26
 70
     1
102
RTVSPropertyOp27
 70
     1
102
RTVSPropertyOp28
 70
     1
102
RTVSPropertyOp29
 70
     1
102
RTVSPropertyOp30
 70
     1
102
RTVSPropertyOp31
 70
     1
102
RTVSPropertyOp32
 70
     1
102
RTVSPropertyOp33
 70
     1
102
RTVSPropertyOp34
 70
     1
102
RTVSPropertyOp35
 70
     1
102
RTVSPropertyOp36
 70
     1
102
RTVSPropertyOp37
 70
     1
102
RTVSPropertyOp38
 70
     1
102
RTVSPropertyOp39
 70
     1
102
RTVSPropertyOp40
 70
     1
102
RTVSPropertyOp41
 70
     1
102
RTVSPropertyOp42
 70
     1
102
RTVSPropertyOp43
 70
     1
102
RTVSPropertyOp44
 70
     1
102
RTVSPropertyOp45
 70
     1
102
RTVSPropertyOp46
 70
     1
102
RTVSPropertyOp47
 70
     1
102
RTVSPropertyOp48
 70
     1
102
RTVSPropertyOp49
 70
     1
102
RTVSPropertyOp50
 70
     1
102
RTVSPropertyOp51
 70
     0
102
RTVSPropertyOp52
 70
     0
102
RTVSPropertyOp53
 70
     1
102
RTVSPropertyOp54
 70
     1
102
RTVSPropertyOp55
 70
     1
102
RTVSPropertyOp56
 70
     1
102
RTVSPropertyOp57
 70
     1
102
RTVSPost2010Prop28
280
     0
102
RTVSPost2010PropOp28
 70
     1
102
RTVSPost2010Prop29
280
     1
102
RTVSPost2010PropOp29
 70
     1
102
RTVSPost2010Prop30
280
     1
102
RTVSPost2010PropOp30
 70
     1
102
RTVSPost2010Prop31
280
     0
102
RTVSPost2010PropOp31
 70
     1
102
RTVSPost2010Prop32
280
     0
102
RTVSPost2010PropOp32
 70
     1
102
RTVSPost2010Prop33
280
     0
102
RTVSPost2010PropOp33
 70
     1
102
RTVSPost2010Prop34
280
     0
102
RTVSPost2010PropOp34
 70
     1
102
RTVSPost2010Prop35
280
     0
102
RTVSPost2010PropOp35
 70
     1
102
RTVSPost2010Prop36
280
     0
102
RTVSPost2010PropOp36
 70
     1
102
RTVSPost2010Prop37
 90
       50
102
RTVSPost2010PropOp37
 70
     1
102
RTVSPost2010Prop38
140
0.0
102
RTVSPost2010PropOp38
 70
     1
102
RTVSPost2010Prop39
140
1.0
102
RTVSPost2010PropOp39
 70
     1
102
RTVSPost2010Prop40
 90
        0
102
RTVSPost2010PropOp40
 70
     1
102
RTVSPost2010Prop41ColorIndex
 90
       18
102
RTVSPost2010Prop41ColorRGB
 90
        0
102
RTVSPost2010PropOp41
 70
     1
102
RTVSPost2010Prop42
 90
       50
102
RTVSPost2010PropOp42
 70
     1
102
RTVSPost2010Prop43
 90
        3
102
RTVSPost2010PropOp43
 70
     1
102
RTVSPost2010Prop44ColorIndex
 90
        5
102
RTVSPost2010Prop44ColorRGB
 90
      255
102
RTVSPost2010PropOp44
 70
     1
102
RTVSPost2010Prop45
280
     0
102
RTVSPost2010PropOp45
 70
     1
102
RTVSPost2010Prop46
 90
       50
102
RTVSPost2010PropOp46
 70
     1
102
RTVSPost2010Prop47
 90
       50
102
RTVSPost2010PropOp47
 70
     1
102
RTVSPost2010Prop48
 90
       50
102
RTVSPost2010PropOp48
 70
     1
102
RTVSPost2010Prop49
280
     0
102
RTVSPost2010PropOp49
 70
     1
102
RTVSPost2010Prop50
 90
       50
102
RTVSPost2010PropOp50
 70
     1
102
RTVSPost2010Prop51ColorIndex
 90
      256
102
RTVSPost2010Prop51ColorRGB
 90
-16777216
102
RTVSPost2010PropOp51
 70
     0
102
RTVSPost2010Prop52
140
1.0
102
RTVSPost2010PropOp52
 70
     0
102
RTVSPost2010Prop53
 90
        2
102
RTVSPost2010PropOp53
 70
     1
102
RTVSPost2010Prop54
  1
strokes_ogs.tif
102
RTVSPost2010PropOp54
 70
     1
102
RTVSPost2010Prop55
280
     0
102
RTVSPost2010PropOp55
 70
     1
102
RTVSPost2010Prop56
140
1.0
102
RTVSPost2010PropOp56
 70
     1
102
RTVSPost2010Prop57
140
1.0
102
RTVSPost2010PropOp57
 70
     1
  0
XRECORD
  5
565
102
{ACAD_REACTORS
330
564
102
}
330
564
100
AcDbXrecord
280
     1
102
RTVSPropertyOp0
 70
     1
102
RTVSPropertyOp1
 70
     1
102
RTVSPropertyOp2
 70
     1
102
RTVSPropertyOp3
 70
     1
102
RTVSPropertyOp4
 70
     1
102
RTVSPropertyOp5
 70
     1
102
RTVSPropertyOp6
 70
     1
102
RTVSPropertyOp7
 70
     1
102
RTVSPropertyOp8
 70
     1
102
RTVSPropertyOp9
 70
     1
102
RTVSPropertyOp10
 70
     1
102
RTVSPropertyOp11
 70
     1
102
RTVSPropertyOp12
 70
     1
102
RTVSPropertyOp13
 70
     1
102
RTVSPropertyOp14
 70
     1
102
RTVSPropertyOp15
 70
     1
102
RTVSPropertyOp16
 70
     1
102
RTVSPropertyOp17
 70
     1
102
RTVSPropertyOp18
 70
     1
102
RTVSPropertyOp19
 70
     1
102
RTVSPropertyOp20
 70
     1
102
RTVSPropertyOp21
 70
     1
102
RTVSPropertyOp22
 70
     1
102
RTVSPropertyOp23
 70
     1
102
RTVSPropertyOp24
 70
     1
102
RTVSPropertyOp25
 70
     1
102
RTVSPropertyOp26
 70
     1
102
RTVSPropertyOp27
 70
     1
102
RTVSPropertyOp28
 70
     1
102
RTVSPropertyOp29
 70
     1
102
RTVSPropertyOp30
 70
     1
102
RTVSPropertyOp31
 70
     1
102
RTVSPropertyOp32
 70
     1
102
RTVSPropertyOp33
 70
     1
102
RTVSPropertyOp34
 70
     1
102
RTVSPropertyOp35
 70
     1
102
RTVSPropertyOp36
 70
     1
102
RTVSPropertyOp37
 70
     1
102
RTVSPropertyOp38
 70
     1
102
RTVSPropertyOp39
 70
     1
102
RTVSPropertyOp40
 70
     1
102
RTVSPropertyOp41
 70
     1
102
RTVSPropertyOp42
 70
     1
102
RTVSPropertyOp43
 70
     1
102
RTVSPropertyOp44
 70
     1
102
RTVSPropertyOp45
 70
     1
102
RTVSPropertyOp46
 70
     1
102
RTVSPropertyOp47
 70
     1
102
RTVSPropertyOp48
 70
     1
102
RTVSPropertyOp49
 70
     1
102
RTVSPropertyOp50
 70
     1
102
RTVSPropertyOp51
 70
     0
102
RTVSPropertyOp52
 70
     0
102
RTVSPropertyOp53
 70
     1
102
RTVSPropertyOp54
 70
     1
102
RTVSPropertyOp55
 70
     1
102
RTVSPropertyOp56
 70
     1
102
RTVSPropertyOp57
 70
     1
102
RTVSPost2010Prop28
280
     0
102
RTVSPost2010PropOp28
 70
     1
102
RTVSPost2010Prop29
280
     1
102
RTVSPost2010PropOp29
 70
     1
102
RTVSPost2010Prop30
280
     1
102
RTVSPost2010PropOp30
 70
     1
102
RTVSPost2010Prop31
280
     0
102
RTVSPost2010PropOp31
 70
     1
102
RTVSPost2010Prop32
280
     0
102
RTVSPost2010PropOp32
 70
     1
102
RTVSPost2010Prop33
280
     0
102
RTVSPost2010PropOp33
 70
     1
102
RTVSPost2010Prop34
280
     0
102
RTVSPost2010PropOp34
 70
     1
102
RTVSPost2010Prop35
280
     0
102
RTVSPost2010PropOp35
 70
     1
102
RTVSPost2010Prop36
280
     0
102
RTVSPost2010PropOp36
 70
     1
102
RTVSPost2010Prop37
 90
       50
102
RTVSPost2010PropOp37
 70
     1
102
RTVSPost2010Prop38
140
0.0
102
RTVSPost2010PropOp38
 70
     1
102
RTVSPost2010Prop39
140
1.0
102
RTVSPost2010PropOp39
 70
     1
102
RTVSPost2010Prop40
 90
        0
102
RTVSPost2010PropOp40
 70
     1
102
RTVSPost2010Prop41ColorIndex
 90
       18
102
RTVSPost2010Prop41ColorRGB
 90
        0
102
RTVSPost2010PropOp41
 70
     1
102
RTVSPost2010Prop42
 90
       50
102
RTVSPost2010PropOp42
 70
     1
102
RTVSPost2010Prop43
 90
        3
102
RTVSPost2010PropOp43
 70
     1
102
RTVSPost2010Prop44ColorIndex
 90
        5
102
RTVSPost2010Prop44ColorRGB
 90
      255
102
RTVSPost2010PropOp44
 70
     1
102
RTVSPost2010Prop45
280
     0
102
RTVSPost2010PropOp45
 70
     1
102
RTVSPost2010Prop46
 90
       50
102
RTVSPost2010PropOp46
 70
     1
102
RTVSPost2010Prop47
 90
       50
102
RTVSPost2010PropOp47
 70
     1
102
RTVSPost2010Prop48
 90
       50
102
RTVSPost2010PropOp48
 70
     1
102
RTVSPost2010Prop49
280
     0
102
RTVSPost2010PropOp49
 70
     1
102
RTVSPost2010Prop50
 90
       50
102
RTVSPost2010PropOp50
 70
     1
102
RTVSPost2010Prop51ColorIndex
 90
      256
102
RTVSPost2010Prop51ColorRGB
 90
-16777216
102
RTVSPost2010PropOp51
 70
     0
102
RTVSPost2010Prop52
140
1.0
102
RTVSPost2010PropOp52
 70
     0
102
RTVSPost2010Prop53
 90
        2
102
RTVSPost2010PropOp53
 70
     1
102
RTVSPost2010Prop54
  1
strokes_ogs.tif
102
RTVSPost2010PropOp54
 70
     1
102
RTVSPost2010Prop55
280
     0
102
RTVSPost2010PropOp55
 70
     1
102
RTVSPost2010Prop56
140
1.0
102
RTVSPost2010PropOp56
 70
     1
102
RTVSPost2010Prop57
140
1.0
102
RTVSPost2010PropOp57
 70
     1
  0
XRECORD
  5
563
102
{ACAD_REACTORS
330
562
102
}
330
562
100
AcDbXrecord
280
     1
102
RTVSPropertyOp0
 70
     1
102
RTVSPropertyOp1
 70
     1
102
RTVSPropertyOp2
 70
     1
102
RTVSPropertyOp3
 70
     1
102
RTVSPropertyOp4
 70
     1
102
RTVSPropertyOp5
 70
     1
102
RTVSPropertyOp6
 70
     1
102
RTVSPropertyOp7
 70
     1
102
RTVSPropertyOp8
 70
     1
102
RTVSPropertyOp9
 70
     1
102
RTVSPropertyOp10
 70
     1
102
RTVSPropertyOp11
 70
     1
102
RTVSPropertyOp12
 70
     1
102
RTVSPropertyOp13
 70
     1
102
RTVSPropertyOp14
 70
     1
102
RTVSPropertyOp15
 70
     1
102
RTVSPropertyOp16
 70
     1
102
RTVSPropertyOp17
 70
     1
102
RTVSPropertyOp18
 70
     1
102
RTVSPropertyOp19
 70
     1
102
RTVSPropertyOp20
 70
     1
102
RTVSPropertyOp21
 70
     1
102
RTVSPropertyOp22
 70
     1
102
RTVSPropertyOp23
 70
     1
102
RTVSPropertyOp24
 70
     1
102
RTVSPropertyOp25
 70
     1
102
RTVSPropertyOp26
 70
     1
102
RTVSPropertyOp27
 70
     1
102
RTVSPropertyOp28
 70
     1
102
RTVSPropertyOp29
 70
     1
102
RTVSPropertyOp30
 70
     1
102
RTVSPropertyOp31
 70
     1
102
RTVSPropertyOp32
 70
     1
102
RTVSPropertyOp33
 70
     1
102
RTVSPropertyOp34
 70
     1
102
RTVSPropertyOp35
 70
     1
102
RTVSPropertyOp36
 70
     1
102
RTVSPropertyOp37
 70
     1
102
RTVSPropertyOp38
 70
     1
102
RTVSPropertyOp39
 70
     1
102
RTVSPropertyOp40
 70
     1
102
RTVSPropertyOp41
 70
     1
102
RTVSPropertyOp42
 70
     1
102
RTVSPropertyOp43
 70
     1
102
RTVSPropertyOp44
 70
     1
102
RTVSPropertyOp45
 70
     1
102
RTVSPropertyOp46
 70
     1
102
RTVSPropertyOp47
 70
     1
102
RTVSPropertyOp48
 70
     1
102
RTVSPropertyOp49
 70
     1
102
RTVSPropertyOp50
 70
     1
102
RTVSPropertyOp51
 70
     0
102
RTVSPropertyOp52
 70
     0
102
RTVSPropertyOp53
 70
     1
102
RTVSPropertyOp54
 70
     1
102
RTVSPropertyOp55
 70
     1
102
RTVSPropertyOp56
 70
     1
102
RTVSPropertyOp57
 70
     1
102
RTVSPost2010Prop28
280
     0
102
RTVSPost2010PropOp28
 70
     1
102
RTVSPost2010Prop29
280
     1
102
RTVSPost2010PropOp29
 70
     1
102
RTVSPost2010Prop30
280
     1
102
RTVSPost2010PropOp30
 70
     1
102
RTVSPost2010Prop31
280
     0
102
RTVSPost2010PropOp31
 70
     1
102
RTVSPost2010Prop32
280
     0
102
RTVSPost2010PropOp32
 70
     1
102
RTVSPost2010Prop33
280
     0
102
RTVSPost2010PropOp33
 70
     1
102
RTVSPost2010Prop34
280
     0
102
RTVSPost2010PropOp34
 70
     1
102
RTVSPost2010Prop35
280
     0
102
RTVSPost2010PropOp35
 70
     1
102
RTVSPost2010Prop36
280
     0
102
RTVSPost2010PropOp36
 70
     1
102
RTVSPost2010Prop37
 90
       50
102
RTVSPost2010PropOp37
 70
     1
102
RTVSPost2010Prop38
140
0.0
102
RTVSPost2010PropOp38
 70
     1
102
RTVSPost2010Prop39
140
1.0
102
RTVSPost2010PropOp39
 70
     1
102
RTVSPost2010Prop40
 90
        0
102
RTVSPost2010PropOp40
 70
     1
102
RTVSPost2010Prop41ColorIndex
 90
       18
102
RTVSPost2010Prop41ColorRGB
 90
        0
102
RTVSPost2010PropOp41
 70
     1
102
RTVSPost2010Prop42
 90
       50
102
RTVSPost2010PropOp42
 70
     1
102
RTVSPost2010Prop43
 90
        3
102
RTVSPost2010PropOp43
 70
     1
102
RTVSPost2010Prop44ColorIndex
 90
        5
102
RTVSPost2010Prop44ColorRGB
 90
      255
102
RTVSPost2010PropOp44
 70
     1
102
RTVSPost2010Prop45
280
     0
102
RTVSPost2010PropOp45
 70
     1
102
RTVSPost2010Prop46
 90
       50
102
RTVSPost2010PropOp46
 70
     1
102
RTVSPost2010Prop47
 90
       50
102
RTVSPost2010PropOp47
 70
     1
102
RTVSPost2010Prop48
 90
       50
102
RTVSPost2010PropOp48
 70
     1
102
RTVSPost2010Prop49
280
     0
102
RTVSPost2010PropOp49
 70
     1
102
RTVSPost2010Prop50
 90
       50
102
RTVSPost2010PropOp50
 70
     1
102
RTVSPost2010Prop51ColorIndex
 90
      256
102
RTVSPost2010Prop51ColorRGB
 90
-16777216
102
RTVSPost2010PropOp51
 70
     0
102
RTVSPost2010Prop52
140
1.0
102
RTVSPost2010PropOp52
 70
     0
102
RTVSPost2010Prop53
 90
        2
102
RTVSPost2010PropOp53
 70
     1
102
RTVSPost2010Prop54
  1
strokes_ogs.tif
102
RTVSPost2010PropOp54
 70
     1
102
RTVSPost2010Prop55
280
     0
102
RTVSPost2010PropOp55
 70
     1
102
RTVSPost2010Prop56
140
1.0
102
RTVSPost2010PropOp56
 70
     1
102
RTVSPost2010Prop57
140
1.0
102
RTVSPost2010PropOp57
 70
     1
  0
XRECORD
  5
55D
102
{ACAD_REACTORS
330
55C
102
}
330
55C
100
AcDbXrecord
280
     1
102
RTVSPropertyOp0
 70
     1
102
RTVSPropertyOp1
 70
     1
102
RTVSPropertyOp2
 70
     1
102
RTVSPropertyOp3
 70
     1
102
RTVSPropertyOp4
 70
     1
102
RTVSPropertyOp5
 70
     1
102
RTVSPropertyOp6
 70
     1
102
RTVSPropertyOp7
 70
     1
102
RTVSPropertyOp8
 70
     1
102
RTVSPropertyOp9
 70
     1
102
RTVSPropertyOp10
 70
     1
102
RTVSPropertyOp11
 70
     1
102
RTVSPropertyOp12
 70
     1
102
RTVSPropertyOp13
 70
     1
102
RTVSPropertyOp14
 70
     1
102
RTVSPropertyOp15
 70
     1
102
RTVSPropertyOp16
 70
     1
102
RTVSPropertyOp17
 70
     1
102
RTVSPropertyOp18
 70
     1
102
RTVSPropertyOp19
 70
     1
102
RTVSPropertyOp20
 70
     1
102
RTVSPropertyOp21
 70
     1
102
RTVSPropertyOp22
 70
     1
102
RTVSPropertyOp23
 70
     1
102
RTVSPropertyOp24
 70
     1
102
RTVSPropertyOp25
 70
     1
102
RTVSPropertyOp26
 70
     1
102
RTVSPropertyOp27
 70
     1
102
RTVSPropertyOp28
 70
     1
102
RTVSPropertyOp29
 70
     1
102
RTVSPropertyOp30
 70
     1
102
RTVSPropertyOp31
 70
     1
102
RTVSPropertyOp32
 70
     1
102
RTVSPropertyOp33
 70
     1
102
RTVSPropertyOp34
 70
     1
102
RTVSPropertyOp35
 70
     1
102
RTVSPropertyOp36
 70
     1
102
RTVSPropertyOp37
 70
     1
102
RTVSPropertyOp38
 70
     1
102
RTVSPropertyOp39
 70
     1
102
RTVSPropertyOp40
 70
     1
102
RTVSPropertyOp41
 70
     1
102
RTVSPropertyOp42
 70
     1
102
RTVSPropertyOp43
 70
     1
102
RTVSPropertyOp44
 70
     1
102
RTVSPropertyOp45
 70
     1
102
RTVSPropertyOp46
 70
     1
102
RTVSPropertyOp47
 70
     1
102
RTVSPropertyOp48
 70
     1
102
RTVSPropertyOp49
 70
     1
102
RTVSPropertyOp50
 70
     1
102
RTVSPropertyOp51
 70
     0
102
RTVSPropertyOp52
 70
     0
102
RTVSPropertyOp53
 70
     1
102
RTVSPropertyOp54
 70
     1
102
RTVSPropertyOp55
 70
     1
102
RTVSPropertyOp56
 70
     1
102
RTVSPropertyOp57
 70
     1
102
RTVSPost2010Prop28
280
     0
102
RTVSPost2010PropOp28
 70
     1
102
RTVSPost2010Prop29
280
     1
102
RTVSPost2010PropOp29
 70
     1
102
RTVSPost2010Prop30
280
     1
102
RTVSPost2010PropOp30
 70
     1
102
RTVSPost2010Prop31
280
     0
102
RTVSPost2010PropOp31
 70
     1
102
RTVSPost2010Prop32
280
     0
102
RTVSPost2010PropOp32
 70
     1
102
RTVSPost2010Prop33
280
     0
102
RTVSPost2010PropOp33
 70
     1
102
RTVSPost2010Prop34
280
     0
102
RTVSPost2010PropOp34
 70
     1
102
RTVSPost2010Prop35
280
     0
102
RTVSPost2010PropOp35
 70
     1
102
RTVSPost2010Prop36
280
     0
102
RTVSPost2010PropOp36
 70
     1
102
RTVSPost2010Prop37
 90
       50
102
RTVSPost2010PropOp37
 70
     1
102
RTVSPost2010Prop38
140
0.0
102
RTVSPost2010PropOp38
 70
     1
102
RTVSPost2010Prop39
140
1.0
102
RTVSPost2010PropOp39
 70
     1
102
RTVSPost2010Prop40
 90
        0
102
RTVSPost2010PropOp40
 70
     1
102
RTVSPost2010Prop41ColorIndex
 90
       18
102
RTVSPost2010Prop41ColorRGB
 90
        0
102
RTVSPost2010PropOp41
 70
     1
102
RTVSPost2010Prop42
 90
       50
102
RTVSPost2010PropOp42
 70
     1
102
RTVSPost2010Prop43
 90
        3
102
RTVSPost2010PropOp43
 70
     1
102
RTVSPost2010Prop44ColorIndex
 90
        5
102
RTVSPost2010Prop44ColorRGB
 90
      255
102
RTVSPost2010PropOp44
 70
     1
102
RTVSPost2010Prop45
280
     0
102
RTVSPost2010PropOp45
 70
     1
102
RTVSPost2010Prop46
 90
       50
102
RTVSPost2010PropOp46
 70
     1
102
RTVSPost2010Prop47
 90
       50
102
RTVSPost2010PropOp47
 70
     1
102
RTVSPost2010Prop48
 90
       50
102
RTVSPost2010PropOp48
 70
     1
102
RTVSPost2010Prop49
280
     0
102
RTVSPost2010PropOp49
 70
     1
102
RTVSPost2010Prop50
 90
       50
102
RTVSPost2010PropOp50
 70
     1
102
RTVSPost2010Prop51ColorIndex
 90
      256
102
RTVSPost2010Prop51ColorRGB
 90
-16777216
102
RTVSPost2010PropOp51
 70
     0
102
RTVSPost2010Prop52
140
1.0
102
RTVSPost2010PropOp52
 70
     0
102
RTVSPost2010Prop53
 90
        2
102
RTVSPost2010PropOp53
 70
     1
102
RTVSPost2010Prop54
  1
strokes_ogs.tif
102
RTVSPost2010PropOp54
 70
     1
102
RTVSPost2010Prop55
280
     0
102
RTVSPost2010PropOp55
 70
     1
102
RTVSPost2010Prop56
140
1.0
102
RTVSPost2010PropOp56
 70
     1
102
RTVSPost2010Prop57
140
1.0
102
RTVSPost2010PropOp57
 70
     1
  0
XRECORD
  5
55F
102
{ACAD_REACTORS
330
55E
102
}
330
55E
100
AcDbXrecord
280
     1
102
RTVSPropertyOp0
 70
     1
102
RTVSPropertyOp1
 70
     1
102
RTVSPropertyOp2
 70
     1
102
RTVSPropertyOp3
 70
     1
102
RTVSPropertyOp4
 70
     1
102
RTVSPropertyOp5
 70
     1
102
RTVSPropertyOp6
 70
     1
102
RTVSPropertyOp7
 70
     1
102
RTVSPropertyOp8
 70
     1
102
RTVSPropertyOp9
 70
     1
102
RTVSPropertyOp10
 70
     1
102
RTVSPropertyOp11
 70
     1
102
RTVSPropertyOp12
 70
     1
102
RTVSPropertyOp13
 70
     1
102
RTVSPropertyOp14
 70
     1
102
RTVSPropertyOp15
 70
     1
102
RTVSPropertyOp16
 70
     1
102
RTVSPropertyOp17
 70
     1
102
RTVSPropertyOp18
 70
     1
102
RTVSPropertyOp19
 70
     1
102
RTVSPropertyOp20
 70
     1
102
RTVSPropertyOp21
 70
     1
102
RTVSPropertyOp22
 70
     1
102
RTVSPropertyOp23
 70
     1
102
RTVSPropertyOp24
 70
     1
102
RTVSPropertyOp25
 70
     1
102
RTVSPropertyOp26
 70
     1
102
RTVSPropertyOp27
 70
     1
102
RTVSPropertyOp28
 70
     1
102
RTVSPropertyOp29
 70
     1
102
RTVSPropertyOp30
 70
     1
102
RTVSPropertyOp31
 70
     1
102
RTVSPropertyOp32
 70
     1
102
RTVSPropertyOp33
 70
     1
102
RTVSPropertyOp34
 70
     1
102
RTVSPropertyOp35
 70
     1
102
RTVSPropertyOp36
 70
     1
102
RTVSPropertyOp37
 70
     1
102
RTVSPropertyOp38
 70
     1
102
RTVSPropertyOp39
 70
     1
102
RTVSPropertyOp40
 70
     1
102
RTVSPropertyOp41
 70
     1
102
RTVSPropertyOp42
 70
     1
102
RTVSPropertyOp43
 70
     1
102
RTVSPropertyOp44
 70
     1
102
RTVSPropertyOp45
 70
     1
102
RTVSPropertyOp46
 70
     1
102
RTVSPropertyOp47
 70
     1
102
RTVSPropertyOp48
 70
     1
102
RTVSPropertyOp49
 70
     1
102
RTVSPropertyOp50
 70
     1
102
RTVSPropertyOp51
 70
     0
102
RTVSPropertyOp52
 70
     0
102
RTVSPropertyOp53
 70
     1
102
RTVSPropertyOp54
 70
     1
102
RTVSPropertyOp55
 70
     1
102
RTVSPropertyOp56
 70
     1
102
RTVSPropertyOp57
 70
     1
102
RTVSPost2010Prop28
280
     0
102
RTVSPost2010PropOp28
 70
     1
102
RTVSPost2010Prop29
280
     1
102
RTVSPost2010PropOp29
 70
     1
102
RTVSPost2010Prop30
280
     1
102
RTVSPost2010PropOp30
 70
     1
102
RTVSPost2010Prop31
280
     0
102
RTVSPost2010PropOp31
 70
     1
102
RTVSPost2010Prop32
280
     0
102
RTVSPost2010PropOp32
 70
     1
102
RTVSPost2010Prop33
280
     0
102
RTVSPost2010PropOp33
 70
     1
102
RTVSPost2010Prop34
280
     0
102
RTVSPost2010PropOp34
 70
     1
102
RTVSPost2010Prop35
280
     0
102
RTVSPost2010PropOp35
 70
     1
102
RTVSPost2010Prop36
280
     0
102
RTVSPost2010PropOp36
 70
     1
102
RTVSPost2010Prop37
 90
       50
102
RTVSPost2010PropOp37
 70
     1
102
RTVSPost2010Prop38
140
0.0
102
RTVSPost2010PropOp38
 70
     1
102
RTVSPost2010Prop39
140
1.0
102
RTVSPost2010PropOp39
 70
     1
102
RTVSPost2010Prop40
 90
        0
102
RTVSPost2010PropOp40
 70
     1
102
RTVSPost2010Prop41ColorIndex
 90
       18
102
RTVSPost2010Prop41ColorRGB
 90
        0
102
RTVSPost2010PropOp41
 70
     1
102
RTVSPost2010Prop42
 90
       50
102
RTVSPost2010PropOp42
 70
     1
102
RTVSPost2010Prop43
 90
        3
102
RTVSPost2010PropOp43
 70
     1
102
RTVSPost2010Prop44ColorIndex
 90
        5
102
RTVSPost2010Prop44ColorRGB
 90
      255
102
RTVSPost2010PropOp44
 70
     1
102
RTVSPost2010Prop45
280
     0
102
RTVSPost2010PropOp45
 70
     1
102
RTVSPost2010Prop46
 90
       50
102
RTVSPost2010PropOp46
 70
     1
102
RTVSPost2010Prop47
 90
       50
102
RTVSPost2010PropOp47
 70
     1
102
RTVSPost2010Prop48
 90
       50
102
RTVSPost2010PropOp48
 70
     1
102
RTVSPost2010Prop49
280
     0
102
RTVSPost2010PropOp49
 70
     1
102
RTVSPost2010Prop50
 90
       50
102
RTVSPost2010PropOp50
 70
     1
102
RTVSPost2010Prop51ColorIndex
 90
      256
102
RTVSPost2010Prop51ColorRGB
 90
-16777216
102
RTVSPost2010PropOp51
 70
     0
102
RTVSPost2010Prop52
140
1.0
102
RTVSPost2010PropOp52
 70
     0
102
RTVSPost2010Prop53
 90
        2
102
RTVSPost2010PropOp53
 70
     1
102
RTVSPost2010Prop54
  1
strokes_ogs.tif
102
RTVSPost2010PropOp54
 70
     1
102
RTVSPost2010Prop55
280
     0
102
RTVSPost2010PropOp55
 70
     1
102
RTVSPost2010Prop56
140
1.0
102
RTVSPost2010PropOp56
 70
     1
102
RTVSPost2010Prop57
140
1.0
102
RTVSPost2010PropOp57
 70
     1
  0
XRECORD
  5
54F
102
{ACAD_REACTORS
330
54E
102
}
330
54E
100
AcDbXrecord
280
     1
102
RTVSPropertyOp0
 70
     1
102
RTVSPropertyOp1
 70
     1
102
RTVSPropertyOp2
 70
     1
102
RTVSPropertyOp3
 70
     1
102
RTVSPropertyOp4
 70
     1
102
RTVSPropertyOp5
 70
     1
102
RTVSPropertyOp6
 70
     1
102
RTVSPropertyOp7
 70
     1
102
RTVSPropertyOp8
 70
     1
102
RTVSPropertyOp9
 70
     1
102
RTVSPropertyOp10
 70
     1
102
RTVSPropertyOp11
 70
     1
102
RTVSPropertyOp12
 70
     1
102
RTVSPropertyOp13
 70
     1
102
RTVSPropertyOp14
 70
     1
102
RTVSPropertyOp15
 70
     1
102
RTVSPropertyOp16
 70
     1
102
RTVSPropertyOp17
 70
     1
102
RTVSPropertyOp18
 70
     1
102
RTVSPropertyOp19
 70
     1
102
RTVSPropertyOp20
 70
     1
102
RTVSPropertyOp21
 70
     1
102
RTVSPropertyOp22
 70
     1
102
RTVSPropertyOp23
 70
     1
102
RTVSPropertyOp24
 70
     1
102
RTVSPropertyOp25
 70
     1
102
RTVSPropertyOp26
 70
     1
102
RTVSPropertyOp27
 70
     1
102
RTVSPropertyOp28
 70
     1
102
RTVSPropertyOp29
 70
     1
102
RTVSPropertyOp30
 70
     1
102
RTVSPropertyOp31
 70
     1
102
RTVSPropertyOp32
 70
     1
102
RTVSPropertyOp33
 70
     1
102
RTVSPropertyOp34
 70
     1
102
RTVSPropertyOp35
 70
     1
102
RTVSPropertyOp36
 70
     1
102
RTVSPropertyOp37
 70
     1
102
RTVSPropertyOp38
 70
     1
102
RTVSPropertyOp39
 70
     1
102
RTVSPropertyOp40
 70
     1
102
RTVSPropertyOp41
 70
     1
102
RTVSPropertyOp42
 70
     1
102
RTVSPropertyOp43
 70
     1
102
RTVSPropertyOp44
 70
     1
102
RTVSPropertyOp45
 70
     1
102
RTVSPropertyOp46
 70
     1
102
RTVSPropertyOp47
 70
     1
102
RTVSPropertyOp48
 70
     1
102
RTVSPropertyOp49
 70
     1
102
RTVSPropertyOp50
 70
     1
102
RTVSPropertyOp51
 70
     0
102
RTVSPropertyOp52
 70
     0
102
RTVSPropertyOp53
 70
     1
102
RTVSPropertyOp54
 70
     1
102
RTVSPropertyOp55
 70
     1
102
RTVSPropertyOp56
 70
     1
102
RTVSPropertyOp57
 70
     1
102
RTVSPost2010Prop28
280
     0
102
RTVSPost2010PropOp28
 70
     1
102
RTVSPost2010Prop29
280
     1
102
RTVSPost2010PropOp29
 70
     1
102
RTVSPost2010Prop30
280
     1
102
RTVSPost2010PropOp30
 70
     1
102
RTVSPost2010Prop31
280
     0
102
RTVSPost2010PropOp31
 70
     1
102
RTVSPost2010Prop32
280
     0
102
RTVSPost2010PropOp32
 70
     1
102
RTVSPost2010Prop33
280
     0
102
RTVSPost2010PropOp33
 70
     1
102
RTVSPost2010Prop34
280
     0
102
RTVSPost2010PropOp34
 70
     1
102
RTVSPost2010Prop35
280
     0
102
RTVSPost2010PropOp35
 70
     1
102
RTVSPost2010Prop36
280
     0
102
RTVSPost2010PropOp36
 70
     1
102
RTVSPost2010Prop37
 90
       50
102
RTVSPost2010PropOp37
 70
     1
102
RTVSPost2010Prop38
140
0.0
102
RTVSPost2010PropOp38
 70
     1
102
RTVSPost2010Prop39
140
1.0
102
RTVSPost2010PropOp39
 70
     1
102
RTVSPost2010Prop40
 90
        0
102
RTVSPost2010PropOp40
 70
     1
102
RTVSPost2010Prop41ColorIndex
 90
       18
102
RTVSPost2010Prop41ColorRGB
 90
        0
102
RTVSPost2010PropOp41
 70
     1
102
RTVSPost2010Prop42
 90
       50
102
RTVSPost2010PropOp42
 70
     1
102
RTVSPost2010Prop43
 90
        3
102
RTVSPost2010PropOp43
 70
     1
102
RTVSPost2010Prop44ColorIndex
 90
        5
102
RTVSPost2010Prop44ColorRGB
 90
      255
102
RTVSPost2010PropOp44
 70
     1
102
RTVSPost2010Prop45
280
     0
102
RTVSPost2010PropOp45
 70
     1
102
RTVSPost2010Prop46
 90
       50
102
RTVSPost2010PropOp46
 70
     1
102
RTVSPost2010Prop47
 90
       50
102
RTVSPost2010PropOp47
 70
     1
102
RTVSPost2010Prop48
 90
       50
102
RTVSPost2010PropOp48
 70
     1
102
RTVSPost2010Prop49
280
     0
102
RTVSPost2010PropOp49
 70
     1
102
RTVSPost2010Prop50
 90
       50
102
RTVSPost2010PropOp50
 70
     1
102
RTVSPost2010Prop51ColorIndex
 90
      256
102
RTVSPost2010Prop51ColorRGB
 90
-16777216
102
RTVSPost2010PropOp51
 70
     0
102
RTVSPost2010Prop52
140
1.0
102
RTVSPost2010PropOp52
 70
     0
102
RTVSPost2010Prop53
 90
        2
102
RTVSPost2010PropOp53
 70
     1
102
RTVSPost2010Prop54
  1
strokes_ogs.tif
102
RTVSPost2010PropOp54
 70
     1
102
RTVSPost2010Prop55
280
     0
102
RTVSPost2010PropOp55
 70
     1
102
RTVSPost2010Prop56
140
1.0
102
RTVSPost2010PropOp56
 70
     1
102
RTVSPost2010Prop57
140
1.0
102
RTVSPost2010PropOp57
 70
     1
  0
XRECORD
  5
541
102
{ACAD_REACTORS
330
540
102
}
330
540
100
AcDbXrecord
280
     1
102
RTVSPropertyOp0
 70
     1
102
RTVSPropertyOp1
 70
     1
102
RTVSPropertyOp2
 70
     1
102
RTVSPropertyOp3
 70
     1
102
RTVSPropertyOp4
 70
     1
102
RTVSPropertyOp5
 70
     1
102
RTVSPropertyOp6
 70
     1
102
RTVSPropertyOp7
 70
     1
102
RTVSPropertyOp8
 70
     1
102
RTVSPropertyOp9
 70
     1
102
RTVSPropertyOp10
 70
     1
102
RTVSPropertyOp11
 70
     1
102
RTVSPropertyOp12
 70
     1
102
RTVSPropertyOp13
 70
     1
102
RTVSPropertyOp14
 70
     1
102
RTVSPropertyOp15
 70
     1
102
RTVSPropertyOp16
 70
     1
102
RTVSPropertyOp17
 70
     1
102
RTVSPropertyOp18
 70
     1
102
RTVSPropertyOp19
 70
     1
102
RTVSPropertyOp20
 70
     1
102
RTVSPropertyOp21
 70
     1
102
RTVSPropertyOp22
 70
     1
102
RTVSPropertyOp23
 70
     1
102
RTVSPropertyOp24
 70
     1
102
RTVSPropertyOp25
 70
     1
102
RTVSPropertyOp26
 70
     1
102
RTVSPropertyOp27
 70
     1
102
RTVSPropertyOp28
 70
     1
102
RTVSPropertyOp29
 70
     1
102
RTVSPropertyOp30
 70
     1
102
RTVSPropertyOp31
 70
     1
102
RTVSPropertyOp32
 70
     1
102
RTVSPropertyOp33
 70
     1
102
RTVSPropertyOp34
 70
     1
102
RTVSPropertyOp35
 70
     1
102
RTVSPropertyOp36
 70
     1
102
RTVSPropertyOp37
 70
     1
102
RTVSPropertyOp38
 70
     1
102
RTVSPropertyOp39
 70
     1
102
RTVSPropertyOp40
 70
     1
102
RTVSPropertyOp41
 70
     1
102
RTVSPropertyOp42
 70
     1
102
RTVSPropertyOp43
 70
     1
102
RTVSPropertyOp44
 70
     1
102
RTVSPropertyOp45
 70
     1
102
RTVSPropertyOp46
 70
     1
102
RTVSPropertyOp47
 70
     1
102
RTVSPropertyOp48
 70
     1
102
RTVSPropertyOp49
 70
     1
102
RTVSPropertyOp50
 70
     1
102
RTVSPropertyOp51
 70
     0
102
RTVSPropertyOp52
 70
     0
102
RTVSPropertyOp53
 70
     1
102
RTVSPropertyOp54
 70
     1
102
RTVSPropertyOp55
 70
     1
102
RTVSPropertyOp56
 70
     1
102
RTVSPropertyOp57
 70
     1
102
RTVSPost2010Prop28
280
     0
102
RTVSPost2010PropOp28
 70
     1
102
RTVSPost2010Prop29
280
     1
102
RTVSPost2010PropOp29
 70
     1
102
RTVSPost2010Prop30
280
     1
102
RTVSPost2010PropOp30
 70
     1
102
RTVSPost2010Prop31
280
     0
102
RTVSPost2010PropOp31
 70
     1
102
RTVSPost2010Prop32
280
     0
102
RTVSPost2010PropOp32
 70
     1
102
RTVSPost2010Prop33
280
     0
102
RTVSPost2010PropOp33
 70
     1
102
RTVSPost2010Prop34
280
     0
102
RTVSPost2010PropOp34
 70
     1
102
RTVSPost2010Prop35
280
     0
102
RTVSPost2010PropOp35
 70
     1
102
RTVSPost2010Prop36
280
     0
102
RTVSPost2010PropOp36
 70
     1
102
RTVSPost2010Prop37
 90
       50
102
RTVSPost2010PropOp37
 70
     1
102
RTVSPost2010Prop38
140
0.0
102
RTVSPost2010PropOp38
 70
     1
102
RTVSPost2010Prop39
140
1.0
102
RTVSPost2010PropOp39
 70
     1
102
RTVSPost2010Prop40
 90
        0
102
RTVSPost2010PropOp40
 70
     1
102
RTVSPost2010Prop41ColorIndex
 90
       18
102
RTVSPost2010Prop41ColorRGB
 90
        0
102
RTVSPost2010PropOp41
 70
     1
102
RTVSPost2010Prop42
 90
       50
102
RTVSPost2010PropOp42
 70
     1
102
RTVSPost2010Prop43
 90
        3
102
RTVSPost2010PropOp43
 70
     1
102
RTVSPost2010Prop44ColorIndex
 90
        5
102
RTVSPost2010Prop44ColorRGB
 90
      255
102
RTVSPost2010PropOp44
 70
     1
102
RTVSPost2010Prop45
280
     0
102
RTVSPost2010PropOp45
 70
     1
102
RTVSPost2010Prop46
 90
       50
102
RTVSPost2010PropOp46
 70
     1
102
RTVSPost2010Prop47
 90
       50
102
RTVSPost2010PropOp47
 70
     1
102
RTVSPost2010Prop48
 90
       50
102
RTVSPost2010PropOp48
 70
     1
102
RTVSPost2010Prop49
280
     0
102
RTVSPost2010PropOp49
 70
     1
102
RTVSPost2010Prop50
 90
       50
102
RTVSPost2010PropOp50
 70
     1
102
RTVSPost2010Prop51ColorIndex
 90
      256
102
RTVSPost2010Prop51ColorRGB
 90
-16777216
102
RTVSPost2010PropOp51
 70
     0
102
RTVSPost2010Prop52
140
1.0
102
RTVSPost2010PropOp52
 70
     0
102
RTVSPost2010Prop53
 90
        2
102
RTVSPost2010PropOp53
 70
     1
102
RTVSPost2010Prop54
  1
strokes_ogs.tif
102
RTVSPost2010PropOp54
 70
     1
102
RTVSPost2010Prop55
280
     0
102
RTVSPost2010PropOp55
 70
     1
102
RTVSPost2010Prop56
140
1.0
102
RTVSPost2010PropOp56
 70
     1
102
RTVSPost2010Prop57
140
1.0
102
RTVSPost2010PropOp57
 70
     1
  0
XRECORD
  5
561
102
{ACAD_REACTORS
330
560
102
}
330
560
100
AcDbXrecord
280
     1
102
RTVSPropertyOp0
 70
     1
102
RTVSPropertyOp1
 70
     1
102
RTVSPropertyOp2
 70
     1
102
RTVSPropertyOp3
 70
     1
102
RTVSPropertyOp4
 70
     1
102
RTVSPropertyOp5
 70
     1
102
RTVSPropertyOp6
 70
     1
102
RTVSPropertyOp7
 70
     1
102
RTVSPropertyOp8
 70
     1
102
RTVSPropertyOp9
 70
     1
102
RTVSPropertyOp10
 70
     1
102
RTVSPropertyOp11
 70
     1
102
RTVSPropertyOp12
 70
     1
102
RTVSPropertyOp13
 70
     1
102
RTVSPropertyOp14
 70
     1
102
RTVSPropertyOp15
 70
     1
102
RTVSPropertyOp16
 70
     1
102
RTVSPropertyOp17
 70
     1
102
RTVSPropertyOp18
 70
     1
102
RTVSPropertyOp19
 70
     1
102
RTVSPropertyOp20
 70
     1
102
RTVSPropertyOp21
 70
     1
102
RTVSPropertyOp22
 70
     1
102
RTVSPropertyOp23
 70
     1
102
RTVSPropertyOp24
 70
     1
102
RTVSPropertyOp25
 70
     1
102
RTVSPropertyOp26
 70
     1
102
RTVSPropertyOp27
 70
     1
102
RTVSPropertyOp28
 70
     1
102
RTVSPropertyOp29
 70
     1
102
RTVSPropertyOp30
 70
     1
102
RTVSPropertyOp31
 70
     1
102
RTVSPropertyOp32
 70
     1
102
RTVSPropertyOp33
 70
     1
102
RTVSPropertyOp34
 70
     1
102
RTVSPropertyOp35
 70
     1
102
RTVSPropertyOp36
 70
     1
102
RTVSPropertyOp37
 70
     1
102
RTVSPropertyOp38
 70
     1
102
RTVSPropertyOp39
 70
     1
102
RTVSPropertyOp40
 70
     1
102
RTVSPropertyOp41
 70
     1
102
RTVSPropertyOp42
 70
     1
102
RTVSPropertyOp43
 70
     1
102
RTVSPropertyOp44
 70
     1
102
RTVSPropertyOp45
 70
     1
102
RTVSPropertyOp46
 70
     1
102
RTVSPropertyOp47
 70
     1
102
RTVSPropertyOp48
 70
     1
102
RTVSPropertyOp49
 70
     1
102
RTVSPropertyOp50
 70
     1
102
RTVSPropertyOp51
 70
     0
102
RTVSPropertyOp52
 70
     0
102
RTVSPropertyOp53
 70
     1
102
RTVSPropertyOp54
 70
     1
102
RTVSPropertyOp55
 70
     1
102
RTVSPropertyOp56
 70
     1
102
RTVSPropertyOp57
 70
     1
102
RTVSPost2010Prop28
280
     0
102
RTVSPost2010PropOp28
 70
     1
102
RTVSPost2010Prop29
280
     1
102
RTVSPost2010PropOp29
 70
     1
102
RTVSPost2010Prop30
280
     1
102
RTVSPost2010PropOp30
 70
     1
102
RTVSPost2010Prop31
280
     0
102
RTVSPost2010PropOp31
 70
     1
102
RTVSPost2010Prop32
280
     0
102
RTVSPost2010PropOp32
 70
     1
102
RTVSPost2010Prop33
280
     0
102
RTVSPost2010PropOp33
 70
     1
102
RTVSPost2010Prop34
280
     0
102
RTVSPost2010PropOp34
 70
     1
102
RTVSPost2010Prop35
280
     0
102
RTVSPost2010PropOp35
 70
     1
102
RTVSPost2010Prop36
280
     0
102
RTVSPost2010PropOp36
 70
     1
102
RTVSPost2010Prop37
 90
       50
102
RTVSPost2010PropOp37
 70
     1
102
RTVSPost2010Prop38
140
0.0
102
RTVSPost2010PropOp38
 70
     1
102
RTVSPost2010Prop39
140
1.0
102
RTVSPost2010PropOp39
 70
     1
102
RTVSPost2010Prop40
 90
        0
102
RTVSPost2010PropOp40
 70
     1
102
RTVSPost2010Prop41ColorIndex
 90
       18
102
RTVSPost2010Prop41ColorRGB
 90
        0
102
RTVSPost2010PropOp41
 70
     1
102
RTVSPost2010Prop42
 90
       50
102
RTVSPost2010PropOp42
 70
     1
102
RTVSPost2010Prop43
 90
        3
102
RTVSPost2010PropOp43
 70
     1
102
RTVSPost2010Prop44ColorIndex
 90
        5
102
RTVSPost2010Prop44ColorRGB
 90
      255
102
RTVSPost2010PropOp44
 70
     1
102
RTVSPost2010Prop45
280
     0
102
RTVSPost2010PropOp45
 70
     1
102
RTVSPost2010Prop46
 90
       50
102
RTVSPost2010PropOp46
 70
     1
102
RTVSPost2010Prop47
 90
       50
102
RTVSPost2010PropOp47
 70
     1
102
RTVSPost2010Prop48
 90
       50
102
RTVSPost2010PropOp48
 70
     1
102
RTVSPost2010Prop49
280
     0
102
RTVSPost2010PropOp49
 70
     1
102
RTVSPost2010Prop50
 90
       50
102
RTVSPost2010PropOp50
 70
     1
102
RTVSPost2010Prop51ColorIndex
 90
      256
102
RTVSPost2010Prop51ColorRGB
 90
-16777216
102
RTVSPost2010PropOp51
 70
     0
102
RTVSPost2010Prop52
140
1.0
102
RTVSPost2010PropOp52
 70
     0
102
RTVSPost2010Prop53
 90
        2
102
RTVSPost2010PropOp53
 70
     1
102
RTVSPost2010Prop54
  1
strokes_ogs.tif
102
RTVSPost2010PropOp54
 70
     1
102
RTVSPost2010Prop55
280
     0
102
RTVSPost2010PropOp55
 70
     1
102
RTVSPost2010Prop56
140
1.0
102
RTVSPost2010PropOp56
 70
     1
102
RTVSPost2010Prop57
140
1.0
102
RTVSPost2010PropOp57
 70
     1
  0
ENDSEC
  0
SECTION
  2
THUMBNAILIMAGE
 90
    16364
310
28000000B4000000550000000100080000000000C43B000000000000000000000001000000010000FFFFFF000000FF0000FFFF0000FF0000FFFF0000FF000000FF00FF000000000080808000C0C0C0000000FF007F7FFF000000A5005252A50000007F003F3F7F0000004C0026264C000000260013132600003FFF007F9FFF
310
000029A5005267A500001F7F003F4F7F0000134C00262F4C000009260013172600007FFF007FBFFF000052A500527CA500003F7F003F5F7F0000264C0026394C0000132600131C260000BFFF007FDFFF00007CA5005291A500005F7F003F6F7F0000394C0026424C00001C26001321260000FFFF007FFFFF0000A5A50052A5
310
A500007F7F003F7F7F00004C4C00264C4C00002626001326260000FFBF007FFFDF0000A57C0052A59100007F5F003F7F6F00004C3900264C420000261C001326210000FF7F007FFFBF0000A5520052A57C00007F3F003F7F5F00004C2600264C39000026130013261C0000FF3F007FFF9F0000A5290052A56700007F1F003F
310
7F4F00004C1300264C2F00002609001326170000FF00007FFF7F0000A5000052A55200007F00003F7F3F00004C0000264C260000260000132613003FFF00009FFF7F0029A5000067A552001F7F00004F7F3F00134C00002F4C260009260000172613007FFF0000BFFF7F0052A500007CA552003F7F00005F7F3F00264C0000
310
394C2600132600001C261300BFFF0000DFFF7F007CA5000091A552005F7F00006F7F3F00394C0000424C26001C26000021261300FFFF0000FFFF7F00A5A50000A5A552007F7F00007F7F3F004C4C00004C4C26002626000026261300FFBF0000FFDF7F00A57C0000A59152007F5F00007F6F3F004C3900004C422600261C00
310
0026211300FF7F0000FFBF7F00A5520000A57C52007F3F00007F5F3F004C2600004C39260026130000261C1300FF3F0000FF9F7F00A5290000A56752007F1F00007F4F3F004C1300004C2F26002609000026171300FF000000FF7F7F00A5000000A55252007F0000007F3F3F004C0000004C2626002600000026131300FF00
310
3F00FF7F9F00A5002900A55267007F001F007F3F4F004C0013004C262F002600090026131700FF007F00FF7FBF00A5005200A5527C007F003F007F3F5F004C0026004C2639002600130026131C00FF00BF00FF7FDF00A5007C00A55291007F005F007F3F6F004C0039004C26420026001C0026132100FF00FF00FF7FFF00A5
310
00A500A552A5007F007F007F3F7F004C004C004C264C002600260026132600BF00FF00DF7FFF007C00A5009152A5005F007F006F3F7F0039004C0042264C001C002600211326007F00FF00BF7FFF005200A5007C52A5003F007F005F3F7F0026004C0039264C00130026001C1326003F00FF009F7FFF002900A5006752A500
310
1F007F004F3F7F0013004C002F264C000900260017132600000000002D2D2D005B5B5B0089898900B7B7B700B3B3B30000000000000000000000000000000000000000000000000000000000000000000000000000000000000000000000000000000000000000000000000000000000000000000000000000000000000000
310
00000000000000000000000000000000000000000000000000000000000000000000000000000000000000000000000000000000000000000000000000000000000000000000000000000000000000000000000000000000000000000000000000000000000000000000000000000000000000000000000000000000000000
310
00000000000000000000000000000000000000000000000000000000000000000000000000000000000000000000000000000000000000000000000000000000000000000000000000000000000000000000000000000000000000000000000000000000000000000000000000000000000000000000000000000000000000
310
00000000000000000000000000000000000000000000000000000000000000000000000000000000000000000000000000000000000000000000000000000000000000000000000000000000000000000000000000000000000000000000000000000000000000000000000000000000000000000000000000000000000000
310
00000000000000000000000000000000000000000000000000000000000000000000000000000000000000000000000000000000000000000000000000000000000000000000000000000000000000000000000000000000000000000000000000000000000000000000000000000000000000000000000000030303030300
310
00000000000000000000000000000000000000000000000000000000000000000000000000000000000003030303030000000000000000000000000000000000000000000000000000000000000000000000000000000000000000000000000000000000000000000000000000000000000000000000000000000000000000
310
00000000000000000000000000000000000000000000000000000000000000000000000000000000000000000000000303030003000000000000000000000000000000000000000000000202020202020000000000000000000000000000000303000103000000000000000000000000000000000000000000000000000000
310
00000000000000000000000000000000000000000000000000000000000000000000000000000000000000000000000000000000000000000000000000000000000000000000000000000000000000000000000000000000000000000000000000000000030303000300000000000000000000000000000000000000000000
310
00000000000000000000000000000000000000000003030001030000000000000000000000000000000000000000000000000000000000000000000000000000000000000000000000000000000000000000000000000000000000000000000000000000000000000000000000000000000000000000000000000000000000
310
00000000000000000000000000000000000000000000000000000303030003000000000000000000000000000000000000000000000000000000000000000000000000000000000000000303000103000000000000000000000000000000000000000000000000000000000000000000000000000000000000000000000000
310
00000000000000000000000000000000000000000000000000000000000000000000000000000000000000000000000000000000000000000000000000000000000000000000000000000000000000030303000300000000000000000000000000000000000000000000000000000000000000000000000000000000000000
310
03030001030000000000000000000000000000000000000000000000000000000000000000000000000000000000000000000000000000000000000000000000000000000000000000000000000000000000000000000000000000000000000000000000000000000000000000000000000000000000000000000003030303
310
03030303030303030003000000000003030303030303030300000000000000000000000000000000000003030303030303030000000303000103000000000000030303030301030300000000000000000000000000000000000000000000000000000000000000000000000000000000000000000000000000000000000000
310
00000000000000000000000000000000000000000000000000000000000000000000000000000000000000000000000000030000010000000303030303000300000000000300030300030300030000000000000000000000000000000000000300010000000003000000030300010300000000000003000000000100030000
310
00000000000000000000000000000000000000000000000000000000000000000000000000000000000000000000000000000000000000000000000000000000000000000000000000000000000000000000000000000000000000000000000000000000000003030303030303030303030303030000000000030303030303
310
03030300000000000000000000000000000000000003030303030303030000000003030303000000000000030303030301030300000000000000000000000000000000000000000000000000000000000000000000000000000000000000000000000000000000000000000000000000000000000000000000000000000000
310
00000000000000000000000000000000000000000000000000000000000000030000000303030301030301030303030301000000030000000000000000000000000000000000000000000000030000000003000303030301010303030300000003000000030100000000000000000000000000000000000000000000000000
310
00000000000000000000000000000000000000000000000000000000000000000000000000000000000000000000000000000000000000000000000000000000000000000000000000000000000000000303030303030303030303030103030103030303030103030303030303030000000000000000000000000000000000
310
03030303030303030303030303030103030303030303030303030303030300000000000000000000000000000000000000000000000000000000000000000000000000000000000000000000000000000000000000000000000000000000000000000000000000000000000000000000000000000000000000000000000000
310
00000000000303000000000000000000000001000001000000000001000000000000000303000000000000000000000000000000000300000000000000000000000001010303030303030103030300000000010100000000000000000000000000000000000000000000000000000000000000000000000000000000000000
310
00000000000000000000000000000000000000000000000000000000000000000000000000000000000000000000000000000000000000000000030300000000000000000000000100000100000000000100000000000000030300000000000000000000000000000000030000000000000000000000000101000000030003
310
03030303000000000300000000000000000000000000000000000000000000000000000000000000000000000000000000000000000000000000000000000000000000000000000000000000000000000000000000000000000000000000000000000000000000000000000000000003030000000000000000000000010000
310
01000000000001000000000000000303030303030303000000000000000000000300000000000000000000000001010000000303030303030003000000030000000000000000000000000000000000000000000000000000000000000000000000000000000000000000000000000000000000000000000000000000000000
310
00000000000000000000000000000000000000000000000000000000000000000000000000030101010101010101010101010101010101010101010101010101010101010303010101010300000000000000000000030000000000000000000000000101000001010303010301030100000003000000000000000000000000
310
00000000000000000000000000000000000000000000000000000000000000000000000000000000000000000000000000000000000000000000000000000000000000000000000000000000000000000000000000000000000003030000000000000000000000010000010000000000010000000000000003030303030303
310
03000000000000000000000300000000000000000000000001010000000303030303030303000000030000000000000000000000000000000000000000000000000000000000000000000000000000000000000000000000000000000000000000000000000000000000000000000000000000000000000000000000000000
310
00000000000000000000000000000000030300000000000000000000000100000100000000000100000000000000030300000000000000000000000000000000030000000000000000000000000101000000030303010303000300000003030000000000000000000000000000000000000000000000000000000000000000
310
00000000000000000000000000000000000000000000000000000000000000000000000000000000000000000000000000000000000000000000000000000000000000000003030000000000000000000000010000010000000000010000000000000003030000000000000000000000000000000003000000000000000000
310
00000001010303030303000303000300000000030300000000000000000000000000000000000000000000000000000000000000000000000000000000000000000000000000000000000000000000000000000000000000000000000000000000000000000000000000000000000000000000000000000000000303000000
310
00000000000000000100000100000000000100000000000000030300000000000000000000000000000000030000000000000000000000000101000000000003010303000000000001010000000000000000000000000000000000000000000000000000000000000000000000000000000000000000000000000000000000
310
00000000000000000000000000000000000000000000000000000000000000000000000000000000000000000000000000030000010000000000010000010000010000000001010000000001000003000000000000000000000000000000000003000000000100000000000000010100000000000000000001000000000303
310
00000000000000000000000000000000000000000000000000000000000000000000000000000000000000000000000000000000000000000000000000000000000000000000000000000000000000000000000000000000000000000000000000000000000003030301030303030301030301030301030303030101030303
310
03010303030000000000000000000000000000000000030303030301030303030303030101030303030303030303010303030303000000000000000000000000000000000000000000000000000000000000000000000000000000000000000000000000000000000000000000000000000000000000000000000000000000
310
00000000000000000000000000000000000000000000000000000000000003040303030303030303030303030303030301030303030301030000000000000000000000000000000000000000000303030303010303030303010303030303030303030303030303000000000000000000000000000000000000000000000000
310
00000000000000000000000000000000000000000000000000000000000000000000000000000000000000000000000000000000000000000000000000000000000000000000000000000000000000000000000003030000030303030303030303030303030103030303030103000000000000000000000000000000000000
310
00000000000303030303030303030303030303030303030300030300000000000000000000000000000000000000000000000000000000000000000000000000000000000000000000000000000000000000000000000000000000000000000000000000000000000000000000000000000000000000000000000000000000
310
00000000000000000000000000000000000300010003030300000000010000000000000000000000000000000000000000000000000000000000000003030300000003010103000000000000000000000000000000000000000000000000000000000000000000000000000000000000000000000000000000000000000000
310
00000000000000000000000000000000000000000000000000000000000000000000000000000000000000000000000000000000000000000000000000000000000000000000030303030300000000000000000000000000000000000000000000000000000000000000000000000000000000000000030303030300000000
310
00000000000000000000000000000000000000000000000000000000000000000000000000000000000000000000000000000000000000000000000000000000000000000000000000000000000000000000000000000000000000000000000000000000000000000000000000000000000000000000000000000003030300
310
03000000000000000000000000000000000000000000000000000000000000000000000000000000000000000303000103000000000000000000000000000000000000000000000000000000000000000000000000000000000000000000000000000000000000000000000000000000000000000000000000000000000000
310
00000000000000000000000000000000000000000000000000000000000000000000000000000000000000000000000000030303000300000000000000000000000000000000000000000000000000000000000000000000000000000000000000030300010300000000000000000000000000000000000000000000000000
310
00000000000000000000000000000000000000000000000000000000000000000000000000000000000000000000000000000000000000000000000000000000000000000000000000000000000000000000000000000000000000000000000000000000000003030300030000000000000000000000000000000000000000
310
00000000000000000000000000000000000000000000000303000103000000000000000000000000000000000000000000000000000000000000000000000000000000000000000000000000000000000000000000000000000000000000000000000000000000000000000000000000000000000000000000000000000000
310
00000000000000000000000000000000000000000000000000000000030303000300000000000000000000000000000000000000000000000000000000000000000000000000000000000000030300010300000000000000000000000000000000000000000000000000000000000000000000000000000000000000000000
310
00000000000000000000000000000000000000000000000000000000000000000000000000000000000000000000000000000000000000000000000000000000000000000000000000000000000000000003030300030000000000000000000000000000000000000000000000000000000000000000000000000000000000
310
00000303000103000000000000000000000000000000000000000000000000000000000000000000000000000000000000000000000000000000000000000000000000000000000000000000000000000000000000000000000000000000000000000000000000000000000000000000000000000000000000000000000000
310
00000000000000030303030300000000000000000000000000000000000000000000000000000000000000000000000000000000000000030303030300000000000000000000000000000000000000000000000000000000000000000000000000000000000000000000000000000000000000000000000000000000000000
310
00000000000000000000000000000000000000000000000000000000000000000000000000000000000000000000000000000000000000000000000000000100000000000000000000000000000000000000000000000000000000000000000000000000000000000000000000000001000000000000000000000000000000
310
00000000000000000000000000000000000000000000000000000000000000000000000000000000000000000000000000000000000000000000000000000000000000000000000000000000000000000000000000000000000000000000000000000000000000000000000000000000000000000000000000000000000000
310
00000000000000000000000000000000000000000000000000000000000000000000000000000000000000000000000000000000000000000000000000000000000000000000000000000000000000000000000000000000000000000000000000000000000000000000000000000000000000000000000000000000000000
310
00000000000000000000000000000000000000000000000000000000000000000000000000000000000000000000000000000000000000000000000000000000000000000000000000000000000000000000000000000000000000000000000000000000000000000000000000000000000000000000000000000000000000
310
00000000000000000000000000000000000000000000000000000000000000000000000000000000000000000000000000000000000000000000000000000000000000000000000000000000000000000000000000000000000000000000000000000000000000000000000000000000000000000000000000000000000000
310
00000000000000000000000000000000000000000000000000000000000000000000000000000000000000000000000000000000000000000000000000000000000000000000000000000000000000000000000000000000000000000000000000000000000000000000000000000000000000000000000000000000000000
310
00000000000000000000000000000000000000000000000000000000000000000000000000000000000000000000000000000000000000000000000000000000000000000000000000000000000000000000000000000000000000000000000000000000000000000000000000000000000000000000000000000000000000
310
00000000000000000000000000000000000000000000000000000000000000000000000000000000000000000000000000000000000000000000000000000000000000000000000000000000000000000000000000000000000000000000000000000000000000000000000000000000000000000000000000000000000000
310
00000000000000000000000000000000000000000000000000000000000000000000000000000000000000000000000000000000000000000000000000000000000000000000000000000000000000000000000000000000000000000000000000000000000000000000000000000000000000000000000000000000000000
310
00000000000000000000000000000000000000000000000000000000000000000000000000000000000000000000000000000000000000000000000000000000000000000000000000000000000000000000000000000000000000000000000000000000000000000000000000000000000000000000000000000000000000
310
00000000000000000000000000000000000000000000000000000000000000000000000000000000000000000000000000000000000000000000000000000000000000000000000000000000000000000000000000000000000000000000000000000000000000000000000000000000000000000000000000000000000000
310
00000000000000000000000000000000000000000000000000000000000000000000000000000000000000000000000000000000000000000000000000000000000000000000000000000000000000000000000000000000000000000000000000000000000000000000000000000000000000000000000000000000000000
310
00000000000000000000000000000000000000000000000000000000000000000000000000000000000000000000000000000000000000000000000000000000000000000000000000000000000000000000000000000000000000000000000000000000000000000000000000000000000000000000000000000000000000
310
00000000000000000000000000000000000000000000000000000000000000000000000000000000000000000000000000000000000000000000000000000000000000000000000000000000000000000000000000000000000000000000000000000000000000000000000000000000000000000000000000000000000000
310
00000000000000000000000000000000000000000000000000000000000000000000000000000000000000000000000000000000000000000000000000000000000000000000000000000000000000000000000000000000000000000000000000000000000000000000000000000000000000000000000000000000000000
310
00000000000000000000000000000000000000000000000000000000000000000000000000000000000000000000000000000000000000000000000000000000000000000000000000000000000000000000000000000000000000000000000000000000000000000000000000000000000000000000000000000000000000
310
00000000000000000000000000000000000000000000000000000000000000000000000000000000000000000000000000000000000000000000000000000000000000000000000000000000000000000000000000000000000000000000000000000000000000000000000000000000000000000000000000000000000000
310
00000000000000000000000000000000000000000000000000000000000000000000000000000000000000000000000000000000000000000000000000000000000000000000000000000000000000000000000000000000000000000000000000000000000000000000000000000000000000000000000000000000000000
310
00000000000000000000000000000000000000000000000000000000000000000000000000000000000000000000000000000000000000000000000000000000000000000000000000000000000000000000000000000000000000000000000000000000000000000000000000000000000000000000000000000000000000
310
00000000000000000000000000000000000000000000000000000000000000000000000000000000000000000000000000000000000000000000000000000000000000000000000000000000000000000000000000000000000000000000000000000000000000000000000000000000000000000000000000000000000000
310
00000000000000000000000000000000000000000000000000000000000000000000000000000000000000000001000000000000000000000000000000000000000000000000000000000000000000000000000000000000000000000000000000000000000000000000000000000000000000000000000000000000000000
310
00000000000000000000000000000000000000000000000000000000000000000000000000000000000000000000000000000000000000000000000000000000000000000000000000000000000000000000000003030303030303030000030303030303030300000303030301030303000000000000000000000000000000
310
00000000000000000000000000000000000000000000000000000000000000000000000000000000000000000000000000000000000000000000000000000000000000000000000000000000000000000000000000000000000000000000000000000000000000000000000000000000000000000000000000000000000000
310
00000000000000000000030003030000000303030000000001000000030303000000030300030000000000000000000000000000000000000000000000000000000000000000000000000000000000000000000000000000000000000000000000000000000000000000000000000000000000000000000000000000000000
310
00000000000000000000000000000000000000000000000000000000000000000000000000000000000000000000000000000000000000000000000000000003010303030103000000000003030303000000000003000103030103000000000000000000000000000000000000000000000000000000000000000000000000
310
00000000000000000000000000000000000000000000000000000000000000000000000000000000000000000000000000000000000000000000000000000000000000000000000000000000000000000000000000000000000000000000000000000000000000000000000000000000000000000300000100030001000303
310
01010101010103030001000300010000030000000000000000000000000000000000000000000000000000000000000000000000000000000000000000000000000000000000000000000000000000000000000000000000000000000000000000000000000000000000000000000000000000000000000000000000000000
310
00000000000000000000000000000000000000000000000000000000000000000000000000000000000003000000030000030101010103030303030101010400000300000003000000000000000000000000000000000000000000000000000000000000000000000000000000000000000000000000000000000000000000
310
00000000000000000000000000000000000000000000000000000000000000000000000000000000000000000000000000000000000000000000000000000000000000000000000000000000000000000000000000000000000000000000000300000300000301010303000003030000030304010300000300000300000000
310
00000000000000000000000000000000000000000000000000000000000000000000000000000000000000000000000000000000000000000000000000000000000000000000000000000000000000000000000000000000000000000000000000000000000000000000000000000000000000000000000000000000000000
310
00000000000000000000000000000000000000000003000300000301000301000003030303000000010301010000030003000000000000000000000000000000000000000000000000000000000000000000000000000000000000000000000000000000000000000000000000000000000000000000000000000000000000
310
00000000000000000000000000000000000000000000000000000000000000000000000000000000000000000000000000000000000000000000000000000000000000000000000000000303000003010003000000010303010301000000000301030000030300000000000000000000000000000000000000000000000000
310
00000000000000000000000000000000000000000000000000000000000000000000000000000000000000000000000000000000000000000000000000000000000000000000000000000000000000000000000000000000000000000000000000000000000000000000000000000000000000000000000000000000000000
310
00030003010003030303030103030303030303030103030103000300000000000000000000000000000000000000000000000000000000000000000000000000000000000000000000000000000000000000000000000000000000000000000000000000000000000000000000000000000000000000000000000000000000
310
00000000000000000000000000000000000000000000000000000000000000000000000000000000000000000000000000000000000300000301030000000303030303030000000003010303010103000300000000000000000000000000000000000000000000000000000000000000000000000000000000000000000000
310
00000000000000000000000000000000000000000000000000000000000000000000000000000000000000000000000000000000000000000000000000000000000000000000000000000000000000000000000000000000000000000000000000000000000000000000030000010300000003030303030303000003030301
310
03030301030003000000000000000000000000000000000000000000000000000000000000000000000000000000000000000000000000000000000000000000000000000000000000000000000000000000000000000000000000000000000000000000000000000000000000000000000000000000000000000000000000
310
00000000000000000000000000000000000000000000000000000000000000000300030103000003030000010000030303030300010003030101000300000000000000000000000000000000000000000000000000000000000000000000000000000000000000000000000000000000000000000000000000000000000000
310
00000000000000000000000000000000000000000000000000000000000000000000000000000000000000000000000000000000000000000000000000000000000000000000000000000000000000000000000003000001010000000300000303030003030303000001000003030103000300000000000000000000000000
310
00000000000000000000000000000000000000000000000000000000000000000000000000000000000000000000000000000000000000000000000000000000000000000000000000000000000000000000000000000000000000000000000000000000000000000000000000000000000000000000000000000000000000
310
00000000000000000000030003010300000303000300010303010303030101010101030301030003000000000000000000000000000000000000000000000000000000000000000000000000000000000000000000000000000000000000000000000000000000000000000000000000000000000000000000000000000000
310
00000000000000000000000000000000000000000000000000000000000000000000000000000000000000000000000000000000000000000000000000000003000301030001030301030101030301030303000001000003030103000300000000000000000000000000000000000000000000000000000000000000000000
310
00000000000000000000000000000000000000000000000000000000000000000000000000000000000000000000000000000000000000000000000000000000000000000000000000000000000000000000000000000000000000000000000000000000000000000000000000000000000000010301030103010101030101
310
03030301030301030303010303030301030103010000000000000000000000000000000000000000000000000000000000000000000000000000000000000000000000000000000000000000000000000000000000000000000000000000000000000000000000000000000000000000000000000000000000000000000000
310
00000000000000000000000000000000000000000000000000000000000000000000000000000000000003000301030000000303000001000003030000030301030300030103000300000000000000000000000000000000000000000000000000000000000000000000000000000000000000000000000000000000000000
310
00000000000000000000000000000000000000000000000000000000000000000000000000000000000000000000000000000000000000000000000000000000000000000000000000000000000000000000000000000000000000000000000300000101000000030303030303030300000000000100000003010300030000
310
00000000000000000000000000000000000000000000000000000000000000000000000000000000000000000000000000000000000000000000000000000000000000000000000000000000000000000000000000000000000000000000000000000000000000000000000000000000000000000000000000000000000000
310
00000000000000000000000000000000000000000303000003010303000000030303030301000000000000000303010103000303000000000000000000000000000000000000000000000000000000000000000000000000000000000000000000000000000000000000000000000000000000000000000000000000000000
310
00000000000000000000000000000000000000000000000000000000000000000000000000000000000000000000000000000000000000000000000000000000000000000000000000030003000301030003030303030303030303030303030303000301030003000300000000000000000000000000000000000000000000
310
00000000000000000000000000000000000000000000000000000000000000000000000000000000000000000000000000000000000000000000000000000000000000000000000000000000000000000000000000000000000000000000000000000000000000000000000000000000000000000000000000000000000003
310
00030000010100000000000000030001030000000000000001010300030003030303030303000000000000000000000000000000000000000000000000000000000000000000000000000000000000000000000000000000000000000000000000000000000000000000000000000000000000000000000000000000000000
310
00000000000000000000000000000000000000000000000000000000000000000000000000000000000000000000000000000000030101010103010301010101010103010103010101010101030103010101010303030303030300000000000000000000000000000000000000000000000000000000000000000000000000
310
00000000000000000000000000000000000000000000000000000000000000000000000000000000000000000000000000000000000000000000000000000000000000000000000000000000000000000000000000000000000000000000000000000000000000000003000003000003010303000000000303030300000000
310
00030101000003000003030303030303000000000000000000000000000000000000000000000000000000000000000000000000000000000000000000000000000000000000000000000000000000000000000000000000000000000000000000000000000000000000000000000000000000000000000000000000000000
310
00000000000000000000000000000000000000000000000000000000000000030000000300000101000301000000000100000000010301010000030000000300000000000000000000000000000000000000000000000000000000000000000000000000000000000000000000000000000000000000000000000000000000
310
00000000000000000000000000000000000000000000000000000000000000000000000000000000000000000000000000000000000000000000000000000000000000000000000000000000000000000000000003000000000300000101010303000000010000030304010100000300000000030000000000000000000000
310
00000000000000000000000000000000000000000000000000000000000000000000000000000000000000000000000000000000000000000000000000000000000000000000000000000000000000000000000000000000000000000000000000000000000000000000000000000000000000000000000000000000000000
310
00000000000000000000030303030303030000030101010303030303030101010400000303030303030300000000000000000000000000000000000000000000000000000000000000000000000000000000000000000000000000000000000000000000000000000000000000000000000000000000000000000000000000
310
00000000000000000000000000000000000000000000000000000000000000000000000000000000000000000000000000000000000000000000000000000000000300000100030001030301010101010101010303010003000100000300000000000000000000000000000000000000000000000000000000000000000000
310
00000000000000000000000000000000000000000000000000000000000000000000000000000000000000000000000000000000000000000000000000000000000000000000000000000000000000000000000000000000000000000000000000000000000000000000000000000000000000000000030103010301030300
310
00000303030303030000000003000101030103000000000000000000000000000000000000000000000000000000000000000000000000000000000000000000000000000000000000000000000000000000000000000000000000000000000000000000000000000000000000000000000000000000000000000000000000
310
00000000000000000000000000000000000000000000000000000000000000000000000000000000000000000300030100000000030303000000010000000303030000000103000300000000000000000000000000000000000000000000000000000000000000000000000000000000000000000000000000000000000000
310
00000000000000000000000000000000000000000000000000000000000000000000000000000000000000000000000000000000000000000000000000000000000000000000000000000000000000000000000000000000000000000000000000030303010303030300000003030303030303000003030303010303030000
310
00000000000000000000000000000000000000000000000000000000000000000000000000000000000000000000000000000000000000000000000000000000000000000000000000000000000000000000000000000000000000000000000000000000000000000000000000000000000000000000000000000000000000
310
00000000000000000000000000000000000000000000000000000000000000000000000303030300000000000000000000000000000000000000000000000000000000000000000000000000000000000000000000000000000000000000000000000000000000000000000000000000000000000000000000000000000000
310
00000000000000000000000000000000000000000000000000000000000000000000000000000000000000000000000000000000000000000000000000000000000000000000000000000000000000000000000000000000000001000000000000000000000000000000000000000000000000000000000000000000000000
310
00000000000000000000000000000000000000000000000000000000000000000000000000000000000000000000000000000000000000000000000000000000000000000000000000000000000000000000000000000000000000000000000000000000000000000000000000000000000000000000000000000000000000
310
00000000000000000000000000000000000000000000000000000000000000000000000000000000000000000000000000000000000000000000000000000000000000000000000000000000000000000000000000000000000000000000000000000000000000000000000000000000000000000000000000000000000000
310
00000000000000000000000000000000000000000000000000000000000000000000000000000000000000000000000000000000000000000000000000000000000000000000000000000000000000000000000000000000000000000000000000000000000000000000000000000000000000000000000000000000000000
310
00000000000000000000000000000000000000000000000000000000000000000000000000000000000000000000000000000000000000000000000000000000000000000000000000000000000000000000000000000000000000000000000000000000000000000000000000000000000000000000000000000000000000
310
00000000000000000000000000000000000000000000000000000000000000000000000000000000000000000000000000000000000000000000000000000000000000000000000000000000000000000000000000000000000000000000000000000000000000000000000000000000000000000000000000000000000000
310
00000000000000000000000000000000000000000000000000000000000000000000000000000000000000000000000000000000000000000000000000000000000000000000000000000000000000000000000000000000000000000000000000000000000000000000000000000000000000000000000000000000000000
310
00000000000000000000000000000000000000000000000000000000000000000000000000000000000000000000000000000000000000000000000000000000000000000000000000000000000000000000000000000000000000000000000000000000000000000000000000000000000000000000000000000000000000
310
000000000000000000000000000000000000000000000000000000000000000000000000000000000000000000000000000000000000000000000000000000000000000000000000000000000000000000000000000000000000000000000000000000000000000000000000
  0
ENDSEC
  0
EOF
