  0
SECTION
  2
HEADER
  9
$ACADVER
  1
AC1015
  9
$ACADMAINTVER
 70
     6
  9
$DWGCODEPAGE
  3
ANSI_932
  9
$INSBASE
 10
945.6854643028641
 20
791.6458869671409
 30
0.0
  9
$EXTMIN
 10
162.7961778424188
 20
23.43309309062727
 30
0.0
  9
$EXTMAX
 10
861.4206474980242
 20
696.6440241569052
 30
0.0
  9
$LIMMIN
 10
0.0
 20
0.0
  9
$LIMMAX
 10
816.5000000000001
 20
565.0
  9
$ORTHOMODE
 70
     1
  9
$REGENMODE
 70
     1
  9
$FILLMODE
 70
     1
  9
$QTEXTMODE
 70
     0
  9
$MIRRTEXT
 70
     1
  9
$LTSCALE
 40
8.0
  9
$ATTMODE
 70
     1
  9
$TEXTSIZE
 40
7.5
  9
$TRACEWID
 40
0.05
  9
$TEXTSTYLE
  7
KANJI
  9
$CLAYER
  8
2
  9
$CELTYPE
  6
BYLAYER
  9
$CECOLOR
 62
   256
  9
$CELTSCALE
 40
1.0
  9
$DISPSILH
 70
     0
  9
$DIMSCALE
 40
2.5
  9
$DIMASZ
 40
2.0
  9
$DIMEXO
 40
0.5
  9
$DIMDLI
 40
0.0
  9
$DIMRND
 40
0.0
  9
$DIMDLE
 40
0.0
  9
$DIMEXE
 40
1.0
  9
$DIMTP
 40
0.0
  9
$DIMTM
 40
0.0
  9
$DIMTXT
 40
3.0
  9
$DIMCEN
 40
0.09
  9
$DIMTSZ
 40
0.0
  9
$DIMTOL
 70
     0
  9
$DIMLIM
 70
     0
  9
$DIMTIH
 70
     0
  9
$DIMTOH
 70
     0
  9
$DIMSE1
 70
     0
  9
$DIMSE2
 70
     0
  9
$DIMTAD
 70
     0
  9
$DIMZIN
 70
     8
  9
$DIMBLK
  1

  9
$DIMASO
 70
     0
  9
$DIMSHO
 70
     0
  9
$DIMPOST
  1

  9
$DIMAPOST
  1

  9
$DIMALT
 70
     0
  9
$DIMALTD
 70
     2
  9
$DIMALTF
 40
25.4
  9
$DIMLFAC
 40
1.0
  9
$DIMTOFL
 70
     1
  9
$DIMTVP
 40
1.0
  9
$DIMTIX
 70
     1
  9
$DIMSOXD
 70
     1
  9
$DIMSAH
 70
     0
  9
$DIMBLK1
  1

  9
$DIMBLK2
  1

  9
$DIMSTYLE
  2
STANDARD
  9
$DIMCLRD
 70
   256
  9
$DIMCLRE
 70
   256
  9
$DIMCLRT
 70
   256
  9
$DIMTFAC
 40
1.0
  9
$DIMGAP
 40
0.09
  9
$DIMJUST
 70
     0
  9
$DIMSD1
 70
     0
  9
$DIMSD2
 70
     0
  9
$DIMTOLJ
 70
     1
  9
$DIMTZIN
 70
     0
  9
$DIMALTZ
 70
     0
  9
$DIMALTTZ
 70
     0
  9
$DIMUPT
 70
     0
  9
$DIMDEC
 70
     1
  9
$DIMTDEC
 70
     4
  9
$DIMALTU
 70
     2
  9
$DIMALTTD
 70
     2
  9
$DIMTXSTY
  7
STANDARD
  9
$DIMAUNIT
 70
     0
  9
$DIMADEC
 70
     0
  9
$DIMALTRND
 40
0.0
  9
$DIMAZIN
 70
     0
  9
$DIMDSEP
 70
    46
  9
$DIMATFIT
 70
     3
  9
$DIMFRAC
 70
     0
  9
$DIMLDRBLK
  1

  9
$DIMLUNIT
 70
     2
  9
$DIMLWD
 70
    -2
  9
$DIMLWE
 70
    -2
  9
$DIMTMOVE
 70
     0
  9
$LUNITS
 70
     2
  9
$LUPREC
 70
     3
  9
$SKETCHINC
 40
0.1
  9
$FILLETRAD
 40
1.0
  9
$AUNITS
 70
     0
  9
$AUPREC
 70
     3
  9
$MENU
  1
C:\R13\WIN\SUPPORT\ACADFULL
  9
$ELEVATION
 40
0.0
  9
$PELEVATION
 40
0.0
  9
$THICKNESS
 40
0.0
  9
$LIMCHECK
 70
     0
  9
$CHAMFERA
 40
0.0
  9
$CHAMFERB
 40
0.0
  9
$CHAMFERC
 40
0.0
  9
$CHAMFERD
 40
0.0
  9
$SKPOLY
 70
     0
  9
$TDCREATE
 40
2457464.448622396
  9
$TDUCREATE
 40
2457464.073622396
  9
$TDUPDATE
 40
2458115.475901007
  9
$TDUUPDATE
 40
2458115.100901007
  9
$TDINDWG
 40
0.0717668403
  9
$TDUSRTIMER
 40
0.0717664583
  9
$USRTIMER
 70
     1
  9
$ANGBASE
 50
0.0
  9
$ANGDIR
 70
     0
  9
$PDMODE
 70
     0
  9
$PDSIZE
 40
0.0
  9
$PLINEWID
 40
0.0
  9
$SPLFRAME
 70
     0
  9
$SPLINETYPE
 70
     6
  9
$SPLINESEGS
 70
     8
  9
$HANDSEED
  5
590
  9
$SURFTAB1
 70
     6
  9
$SURFTAB2
 70
     6
  9
$SURFTYPE
 70
     6
  9
$SURFU
 70
     6
  9
$SURFV
 70
     6
  9
$UCSBASE
  2

  9
$UCSNAME
  2

  9
$UCSORG
 10
0.0
 20
0.0
 30
0.0
  9
$UCSXDIR
 10
1.0
 20
0.0
 30
0.0
  9
$UCSYDIR
 10
0.0
 20
1.0
 30
0.0
  9
$UCSORTHOREF
  2

  9
$UCSORTHOVIEW
 70
     0
  9
$UCSORGTOP
 10
0.0
 20
0.0
 30
0.0
  9
$UCSORGBOTTOM
 10
0.0
 20
0.0
 30
0.0
  9
$UCSORGLEFT
 10
0.0
 20
0.0
 30
0.0
  9
$UCSORGRIGHT
 10
0.0
 20
0.0
 30
0.0
  9
$UCSORGFRONT
 10
0.0
 20
0.0
 30
0.0
  9
$UCSORGBACK
 10
0.0
 20
0.0
 30
0.0
  9
$PUCSBASE
  2

  9
$PUCSNAME
  2

  9
$PUCSORG
 10
0.0
 20
0.0
 30
0.0
  9
$PUCSXDIR
 10
1.0
 20
0.0
 30
0.0
  9
$PUCSYDIR
 10
0.0
 20
1.0
 30
0.0
  9
$PUCSORTHOREF
  2

  9
$PUCSORTHOVIEW
 70
     0
  9
$PUCSORGTOP
 10
0.0
 20
0.0
 30
0.0
  9
$PUCSORGBOTTOM
 10
0.0
 20
0.0
 30
0.0
  9
$PUCSORGLEFT
 10
0.0
 20
0.0
 30
0.0
  9
$PUCSORGRIGHT
 10
0.0
 20
0.0
 30
0.0
  9
$PUCSORGFRONT
 10
0.0
 20
0.0
 30
0.0
  9
$PUCSORGBACK
 10
0.0
 20
0.0
 30
0.0
  9
$USERI1
 70
     0
  9
$USERI2
 70
     0
  9
$USERI3
 70
     0
  9
$USERI4
 70
     0
  9
$USERI5
 70
     0
  9
$USERR1
 40
0.0
  9
$USERR2
 40
0.0
  9
$USERR3
 40
0.0
  9
$USERR4
 40
2448925.372986111
  9
$USERR5
 40
0.04166667
  9
$WORLDVIEW
 70
     1
  9
$SHADEDGE
 70
     3
  9
$SHADEDIF
 70
    70
  9
$TILEMODE
 70
     1
  9
$MAXACTVP
 70
    16
  9
$PINSBASE
 10
0.0
 20
0.0
 30
0.0
  9
$PLIMCHECK
 70
     0
  9
$PEXTMIN
 10
1000000000000000E+20
 20
1000000000000000E+20
 30
1000000000000000E+20
  9
$PEXTMAX
 10
-1000000000000000E+20
 20
-1000000000000000E+20
 30
-1000000000000000E+20
  9
$PLIMMIN
 10
0.0
 20
0.0
  9
$PLIMMAX
 10
12.0
 20
9.0
  9
$UNITMODE
 70
     0
  9
$VISRETAIN
 70
     0
  9
$PLINEGEN
 70
     0
  9
$PSLTSCALE
 70
     0
  9
$TREEDEPTH
 70
  3020
  9
$CMLSTYLE
  2
STANDARD
  9
$CMLJUST
 70
     0
  9
$CMLSCALE
 40
1.0
  9
$PROXYGRAPHICS
 70
     1
  9
$MEASUREMENT
 70
     0
  9
$CELWEIGHT
370
    -1
  9
$ENDCAPS
280
     0
  9
$JOINSTYLE
280
     0
  9
$LWDISPLAY
290
     0
  9
$INSUNITS
 70
     0
  9
$HYPERLINKBASE
  1

  9
$STYLESHEET
  1

  9
$XEDIT
290
     1
  9
$CEPSNTYPE
380
     0
  9
$PSTYLEMODE
290
     1
  9
$FINGERPRINTGUID
  2
{01C6B769-50E1-4D5A-BCF3-06747D025353}
  9
$VERSIONGUID
  2
{E1752A29-462D-4A30-BBD2-CF9AD4A8071F}
  9
$EXTNAMES
290
     1
  9
$PSVPSCALE
 40
0.0
  9
$OLESTARTUP
290
     0
  0
ENDSEC
  0
SECTION
  2
CLASSES
  0
CLASS
  1
ACDBDICTIONARYWDFLT
  2
AcDbDictionaryWithDefault
  3
ObjectDBX Classes
 90
        0
280
     0
281
     0
  0
CLASS
  1
MATERIAL
  2
AcDbMaterial
  3
ObjectDBX Classes
 90
     1153
280
     0
281
     0
  0
CLASS
  1
SORTENTSTABLE
  2
AcDbSortentsTable
  3
ObjectDBX Classes
 90
        0
280
     0
281
     0
  0
CLASS
  1
VISUALSTYLE
  2
AcDbVisualStyle
  3
ObjectDBX Classes
 90
     4095
280
     0
281
     0
  0
CLASS
  1
SCALE
  2
AcDbScale
  3
ObjectDBX Classes
 90
     1153
280
     0
281
     0
  0
CLASS
  1
DICTIONARYVAR
  2
AcDbDictionaryVar
  3
ObjectDBX Classes
 90
        0
280
     0
281
     0
  0
CLASS
  1
MLEADERSTYLE
  2
AcDbMLeaderStyle
  3
ACDB_MLEADERSTYLE_CLASS
 90
     4095
280
     0
281
     0
  0
CLASS
  1
TABLESTYLE
  2
AcDbTableStyle
  3
ObjectDBX Classes
 90
     4095
280
     0
281
     0
  0
CLASS
  1
ACDBPLACEHOLDER
  2
AcDbPlaceHolder
  3
ObjectDBX Classes
 90
        0
280
     0
281
     0
  0
CLASS
  1
LAYOUT
  2
AcDbLayout
  3
ObjectDBX Classes
 90
        0
280
     0
281
     0
  0
ENDSEC
  0
SECTION
  2
TABLES
  0
TABLE
  2
VPORT
  5
2B
102
{ACAD_XDICTIONARY
360
555
102
}
330
0
100
AcDbSymbolTable
 70
     1
  0
VPORT
  5
32
330
2B
100
AcDbSymbolTableRecord
100
AcDbViewportTableRecord
  2
*ACTIVE
 70
     0
 10
0.0
 20
0.0
 11
1.0
 21
1.0
 12
843.4995263848809
 22
383.9606499580618
 13
0.0
 23
0.0
 14
1.0
 24
1.0
 15
50.0
 25
50.0
 16
0.0
 26
0.0
 36
1.0
 17
0.0
 27
0.0
 37
0.0
 40
1107.084973830213
 41
1.82716049382716
 42
50.0
 43
0.0
 44
0.0
 50
0.0
 51
0.0
 71
     0
 72
  5000
 73
     1
 74
     0
 75
     0
 76
     0
 77
     0
 78
     0
281
     0
 65
     1
110
0.0
120
0.0
130
0.0
111
1.0
121
0.0
131
0.0
112
0.0
122
1.0
132
0.0
 79
     0
146
0.0
1001
ACAD_NAV_VCDISPLAY
1070
     3
  0
ENDTAB
  0
TABLE
  2
LTYPE
  5
F
330
0
100
AcDbSymbolTable
 70
     2
  0
LTYPE
  5
10
330
F
100
AcDbSymbolTableRecord
100
AcDbLinetypeTableRecord
  2
BYBLOCK
 70
     0
  3

 72
    65
 73
     0
 40
0.0
  0
LTYPE
  5
11
330
F
100
AcDbSymbolTableRecord
100
AcDbLinetypeTableRecord
  2
BYLAYER
 70
     0
  3

 72
    65
 73
     0
 40
0.0
  0
LTYPE
  5
E
330
F
100
AcDbSymbolTableRecord
100
AcDbLinetypeTableRecord
  2
CONTINUOUS
 70
     0
  3
Solid line
 72
    65
 73
     0
 40
0.0
  0
LTYPE
  5
5D
330
F
100
AcDbSymbolTableRecord
100
AcDbLinetypeTableRecord
  2
CENTER
 70
     0
  3
____ _ ____ _ ____ _ ____ _ ____ _ ____ _ ____
 72
    65
 73
     4
 40
2.0
 49
1.25
 74
     0
 49
-0.25
 74
     0
 49
0.25
 74
     0
 49
-0.25
 74
     0
  0
ENDTAB
  0
TABLE
  2
LAYER
  5
2
102
{ACAD_XDICTIONARY
360
3
102
}
330
0
100
AcDbSymbolTable
 70
     8
  0
LAYER
  5
1F
102
{ACAD_XDICTIONARY
360
20
102
}
330
2
100
AcDbSymbolTableRecord
100
AcDbLayerTableRecord
  2
0
 70
     0
 62
     7
  6
CONTINUOUS
370
    -3
390
7
  0
LAYER
  5
74
102
{ACAD_XDICTIONARY
360
75
102
}
330
2
100
AcDbSymbolTableRecord
100
AcDbLayerTableRecord
  2
1
 70
     0
 62
     9
  6
CONTINUOUS
370
    -3
390
7
  0
LAYER
  5
1
102
{ACAD_XDICTIONARY
360
5
102
}
330
2
100
AcDbSymbolTableRecord
100
AcDbLayerTableRecord
  2
2
 70
     0
 62
     4
  6
CONTINUOUS
370
    -3
390
7
  0
LAYER
  5
67
102
{ACAD_XDICTIONARY
360
68
102
}
330
2
100
AcDbSymbolTableRecord
100
AcDbLayerTableRecord
  2
4
 70
     0
 62
     3
  6
CONTINUOUS
370
    -3
390
7
  0
LAYER
  5
5A
102
{ACAD_XDICTIONARY
360
5B
102
}
330
2
100
AcDbSymbolTableRecord
100
AcDbLayerTableRecord
  2
L-CENTER
 70
     0
 62
     1
  6
CENTER
370
    -3
390
7
  0
LAYER
  5
62
102
{ACAD_XDICTIONARY
360
63
102
}
330
2
100
AcDbSymbolTableRecord
100
AcDbLayerTableRecord
  2
3
 70
     0
 62
     2
  6
CONTINUOUS
370
    -3
390
7
  0
LAYER
  5
6E
330
2
100
AcDbSymbolTableRecord
100
AcDbLayerTableRecord
  2
5
 70
     0
 62
     6
  6
CONTINUOUS
370
    -3
390
7
  0
LAYER
  5
491
330
2
100
AcDbSymbolTableRecord
100
AcDbLayerTableRecord
  2
Defpoints
 70
     0
 62
     7
  6
CONTINUOUS
290
     0
370
    -3
390
7
  0
ENDTAB
  0
TABLE
  2
STYLE
  5
13
330
0
100
AcDbSymbolTable
 70
     2
  0
STYLE
  5
17
330
13
100
AcDbSymbolTableRecord
100
AcDbTextStyleTableRecord
  2
STANDARD
 70
     0
 40
0.0
 41
1.0
 50
0.0
 71
     0
 42
4.5
  3
TXT
  4

  0
STYLE
  5
12
330
13
100
AcDbSymbolTableRecord
100
AcDbTextStyleTableRecord
  2
KANJI
 70
     0
 40
0.0
 41
1.0
 50
0.0
 71
     0
 42
7.5
  3
TXT
  4
BIGFONT
  0
ENDTAB
  0
TABLE
  2
VIEW
  5
29
330
0
100
AcDbSymbolTable
 70
     0
  0
ENDTAB
  0
TABLE
  2
UCS
  5
2A
330
0
100
AcDbSymbolTable
 70
     0
  0
ENDTAB
  0
TABLE
  2
APPID
  5
D
330
0
100
AcDbSymbolTable
 70
     4
  0
APPID
  5
C
330
D
100
AcDbSymbolTableRecord
100
AcDbRegAppTableRecord
  2
ACAD
 70
     0
  0
APPID
  5
33
330
D
100
AcDbSymbolTableRecord
100
AcDbRegAppTableRecord
  2
ACAD_NAV_VCDISPLAY
 70
     0
  0
APPID
  5
47F
330
D
100
AcDbSymbolTableRecord
100
AcDbRegAppTableRecord
  2
ACAD_PSEXT
 70
     0
  0
APPID
  5
499
330
D
100
AcDbSymbolTableRecord
100
AcDbRegAppTableRecord
  2
ACAD_MLEADERVER
 70
     0
  0
ENDTAB
  0
TABLE
  2
DIMSTYLE
  5
16
330
0
100
AcDbSymbolTable
 70
     1
100
AcDbDimStyleTable
  0
DIMSTYLE
105
15
330
16
100
AcDbSymbolTableRecord
100
AcDbDimStyleTableRecord
  2
STANDARD
 70
     0
178
     0
340
17
  0
ENDTAB
  0
TABLE
  2
BLOCK_RECORD
  5
1A
330
0
100
AcDbSymbolTable
 70
     0
  0
BLOCK_RECORD
  5
1B
102
{ACAD_XDICTIONARY
360
1C
102
}
330
1A
100
AcDbSymbolTableRecord
100
AcDbBlockTableRecord
  2
*MODEL_SPACE
340
23
  0
BLOCK_RECORD
  5
25
330
1A
100
AcDbSymbolTableRecord
100
AcDbBlockTableRecord
  2
*PAPER_SPACE
340
28
  0
ENDTAB
  0
ENDSEC
  0
SECTION
  2
BLOCKS
  0
BLOCK
  5
1E
330
1B
100
AcDbEntity
  8
0
100
AcDbBlockBegin
  2
*MODEL_SPACE
 70
     0
 10
0.0
 20
0.0
 30
0.0
  3
*MODEL_SPACE
  1

  0
ENDBLK
  5
22
330
1B
100
AcDbEntity
  8
0
100
AcDbBlockEnd
  0
BLOCK
  5
26
330
25
100
AcDbEntity
 67
     1
  8
0
100
AcDbBlockBegin
  2
*PAPER_SPACE
 70
     0
 10
0.0
 20
0.0
 30
0.0
  3
*PAPER_SPACE
  1

  0
ENDBLK
  5
27
330
25
100
AcDbEntity
 67
     1
  8
0
100
AcDbBlockEnd
  0
ENDSEC
  0
SECTION
  2
ENTITIES
  0
TEXT
  5
145
330
1B
100
AcDbEntity
  8
3
100
AcDbText
 10
486.3932155405017
 20
75.48708870144071
 30
0.0
 40
7.5
  1
LDC2-02
  7
KANJI
 72
     1
 11
510.7682155405017
 21
75.48708870144071
 31
0.0
100
AcDbText
  0
CIRCLE
  5
1CE
330
1B
100
AcDbEntity
  8
4
100
AcDbCircle
 10
248.755149989277
 20
447.6283888604752
 30
0.0
 40
5.633974596215559
  0
ARC
  5
1CF
330
1B
100
AcDbEntity
  8
4
100
AcDbCircle
 10
841.9604424980243
 20
274.8539628785597
 30
0.0
 40
1.0
100
AcDbArc
 50
0.0
 51
90.0
  0
ARC
  5
1D0
330
1B
100
AcDbEntity
  8
4
100
AcDbCircle
 10
587.9604424980243
 20
274.8539628785597
 30
0.0
 40
1.0
100
AcDbArc
 50
90.0
 51
180.0
  0
ARC
  5
1D1
330
1B
100
AcDbEntity
  8
4
100
AcDbCircle
 10
435.7555924086064
 20
274.8539628785597
 30
0.0
 40
1.0
100
AcDbArc
 50
0.0
 51
90.0
  0
ARC
  5
1D2
330
1B
100
AcDbEntity
  8
4
100
AcDbCircle
 10
181.7556524086067
 20
274.8539628785597
 30
0.0
 40
1.0
100
AcDbArc
 50
90.0
 51
180.0
  0
ARC
  5
1D3
330
1B
100
AcDbEntity
  8
4
100
AcDbCircle
 10
308.7555924086062
 20
468.0380843847911
 30
0.0
 40
187.6047765062312
100
AcDbArc
 50
264.647599089866
 51
275.3524009101343
  0
LINE
  5
1D4
330
1B
100
AcDbEntity
  8
4
100
AcDbLine
 10
640.4604424980243
 20
287.8539628785597
 30
0.0
 11
640.4604424980243
 21
289.3539628785597
 31
0.0
  0
LINE
  5
1D5
330
1B
100
AcDbEntity
  8
4
100
AcDbLine
 10
637.9604424980243
 20
280.4333078785598
 30
0.0
 11
637.9604424980243
 21
287.8539628785597
 31
0.0
  0
LINE
  5
1D6
330
1B
100
AcDbEntity
  8
4
100
AcDbLine
 10
663.4604424980243
 20
287.8539628785597
 30
0.0
 11
663.4604424980243
 21
289.3539628785597
 31
0.0
  0
LINE
  5
1D7
330
1B
100
AcDbEntity
  8
4
100
AcDbLine
 10
663.4604424980243
 20
287.8539628785597
 30
0.0
 11
640.4604424980243
 21
287.8539628785597
 31
0.0
  0
LINE
  5
1D8
330
1B
100
AcDbEntity
  8
L-CENTER
 48
2.0
100
AcDbLine
 10
651.9604424980243
 20
298.3616802660654
 30
0.0
 11
651.9604424980243
 21
270.2940952987519
 31
0.0
  0
LINE
  5
1D9
330
1B
100
AcDbEntity
  8
4
100
AcDbLine
 10
639.4604424980243
 20
289.3539628785597
 30
0.0
 11
639.4604424980243
 21
295.3539628785597
 31
0.0
  0
LINE
  5
1DA
330
1B
100
AcDbEntity
  8
4
100
AcDbLine
 10
658.2104424980243
 20
291.3539628785597
 30
0.0
 11
658.2104424980243
 21
295.3539628785597
 31
0.0
  0
LINE
  5
1DB
330
1B
100
AcDbEntity
  8
4
100
AcDbLine
 10
645.7104424980243
 20
291.3539628785597
 30
0.0
 11
645.7104424980243
 21
295.3539628785597
 31
0.0
  0
LINE
  5
1DC
330
1B
100
AcDbEntity
  8
4
100
AcDbLine
 10
665.9604424980243
 20
281.9054778785599
 30
0.0
 11
665.9604424980243
 21
287.8539628785597
 31
0.0
  0
LINE
  5
1DD
330
1B
100
AcDbEntity
  8
4
100
AcDbLine
 10
664.4604424980243
 20
289.3539628785597
 30
0.0
 11
664.4604424980243
 21
295.3539628785597
 31
0.0
  0
LINE
  5
1DE
330
1B
100
AcDbEntity
  8
4
100
AcDbLine
 10
664.4604424980243
 20
295.3539628785597
 30
0.0
 11
639.4604424980243
 21
295.3539628785597
 31
0.0
  0
LINE
  5
1DF
330
1B
100
AcDbEntity
  8
4
100
AcDbLine
 10
664.4604424980243
 20
291.3539628785597
 30
0.0
 11
639.4604424980243
 21
291.3539628785597
 31
0.0
  0
LINE
  5
1E0
330
1B
100
AcDbEntity
  8
4
100
AcDbLine
 10
664.4604424980243
 20
289.3539628785597
 30
0.0
 11
639.4604424980243
 21
289.3539628785597
 31
0.0
  0
LINE
  5
1E1
330
1B
100
AcDbEntity
  8
4
100
AcDbLine
 10
665.9604424980243
 20
287.8539628785597
 30
0.0
 11
637.9604424980243
 21
287.8539628785597
 31
0.0
  0
LWPOLYLINE
  5
1E2
330
1B
100
AcDbEntity
  8
4
100
AcDbPolyline
 90
        6
 70
     1
 43
0.0
 10
308.755149989277
 20
476.0514373146078
 10
297.9298324419715
 20
482.3014373146078
 10
297.9298324419715
 20
494.8014373146078
 10
308.755149989277
 20
501.0514373146078
 10
319.5804675365825
 20
494.8014373146078
 10
319.5804675365825
 20
482.3014373146078
  0
CIRCLE
  5
1E3
330
1B
100
AcDbEntity
  8
4
100
AcDbCircle
 10
308.755149989277
 20
488.5514373146078
 30
0.0
 40
12.5
  0
CIRCLE
  5
1E4
330
1B
100
AcDbEntity
  8
4
100
AcDbCircle
 10
308.7551499892772
 20
488.5514373146078
 30
0.0
 40
17.5
  0
LINE
  5
1E5
330
1B
100
AcDbEntity
  8
L-CENTER
 48
2.0
100
AcDbLine
 10
286.255149989277
 20
488.5514373146078
 30
0.0
 11
331.255149989277
 21
488.5514373146078
 31
0.0
  0
LINE
  5
1E6
330
1B
100
AcDbEntity
  8
4
100
AcDbLine
 10
371.755149989277
 20
653.7424349611716
 30
0.0
 11
371.755149989277
 21
657.2065365763093
 31
0.0
  0
LINE
  5
1E7
330
1B
100
AcDbEntity
  8
4
100
AcDbLine
 10
368.755149989277
 20
658.9385873838784
 30
0.0
 11
365.755149989277
 21
657.2065365763093
 31
0.0
  0
LINE
  5
1E8
330
1B
100
AcDbEntity
  8
4
100
AcDbLine
 10
365.755149989277
 20
657.2065365763093
 30
0.0
 11
365.755149989277
 21
653.7424349611716
 31
0.0
  0
LINE
  5
1E9
330
1B
100
AcDbEntity
  8
4
100
AcDbLine
 10
371.755149989277
 20
657.2065365763093
 30
0.0
 11
368.755149989277
 21
658.9385873838784
 31
0.0
  0
LINE
  5
1EA
330
1B
100
AcDbEntity
  8
4
100
AcDbLine
 10
368.755149989277
 20
652.0103841536026
 30
0.0
 11
371.755149989277
 21
653.7424349611716
 31
0.0
  0
LINE
  5
1EB
330
1B
100
AcDbEntity
  8
4
100
AcDbLine
 10
365.755149989277
 20
653.7424349611716
 30
0.0
 11
368.755149989277
 21
652.0103841536026
 31
0.0
  0
CIRCLE
  5
1EC
330
1B
100
AcDbEntity
  8
4
100
AcDbCircle
 10
368.755149989277
 20
655.4744857687405
 30
0.0
 40
6.5
  0
CIRCLE
  5
1ED
330
1B
100
AcDbEntity
  8
4
100
AcDbCircle
 10
368.755149989277
 20
655.4744857687405
 30
0.0
 40
5.633974596215559
  0
LINE
  5
1EE
330
1B
100
AcDbEntity
  8
4
100
AcDbLine
 10
251.755149989277
 20
653.7424349611716
 30
0.0
 11
251.755149989277
 21
657.2065365763093
 31
0.0
  0
LINE
  5
1EF
330
1B
100
AcDbEntity
  8
4
100
AcDbLine
 10
248.755149989277
 20
658.9385873838784
 30
0.0
 11
245.755149989277
 21
657.2065365763093
 31
0.0
  0
LINE
  5
1F0
330
1B
100
AcDbEntity
  8
4
100
AcDbLine
 10
245.755149989277
 20
657.2065365763093
 30
0.0
 11
245.755149989277
 21
653.7424349611716
 31
0.0
  0
LINE
  5
1F1
330
1B
100
AcDbEntity
  8
4
100
AcDbLine
 10
251.755149989277
 20
657.2065365763093
 30
0.0
 11
248.755149989277
 21
658.9385873838784
 31
0.0
  0
LINE
  5
1F2
330
1B
100
AcDbEntity
  8
4
100
AcDbLine
 10
248.755149989277
 20
652.0103841536026
 30
0.0
 11
251.755149989277
 21
653.7424349611716
 31
0.0
  0
LINE
  5
1F3
330
1B
100
AcDbEntity
  8
4
100
AcDbLine
 10
245.755149989277
 20
653.7424349611716
 30
0.0
 11
248.755149989277
 21
652.0103841536026
 31
0.0
  0
CIRCLE
  5
1F4
330
1B
100
AcDbEntity
  8
4
100
AcDbCircle
 10
248.755149989277
 20
655.4744857687405
 30
0.0
 40
6.5
  0
CIRCLE
  5
1F5
330
1B
100
AcDbEntity
  8
4
100
AcDbCircle
 10
248.755149989277
 20
655.4744857687405
 30
0.0
 40
5.633974596215559
  0
LINE
  5
1F6
330
1B
100
AcDbEntity
  8
4
100
AcDbLine
 10
191.755149989277
 20
549.819386507039
 30
0.0
 11
191.755149989277
 21
553.2834881221767
 31
0.0
  0
LINE
  5
1F7
330
1B
100
AcDbEntity
  8
4
100
AcDbLine
 10
188.755149989277
 20
555.0155389297457
 30
0.0
 11
185.755149989277
 21
553.2834881221767
 31
0.0
  0
LINE
  5
1F8
330
1B
100
AcDbEntity
  8
4
100
AcDbLine
 10
185.755149989277
 20
553.2834881221767
 30
0.0
 11
185.755149989277
 21
549.819386507039
 31
0.0
  0
LINE
  5
1F9
330
1B
100
AcDbEntity
  8
4
100
AcDbLine
 10
191.755149989277
 20
553.2834881221767
 30
0.0
 11
188.755149989277
 21
555.0155389297457
 31
0.0
  0
LINE
  5
1FA
330
1B
100
AcDbEntity
  8
4
100
AcDbLine
 10
188.755149989277
 20
548.0873356994699
 30
0.0
 11
191.755149989277
 21
549.819386507039
 31
0.0
  0
LINE
  5
1FB
330
1B
100
AcDbEntity
  8
4
100
AcDbLine
 10
185.755149989277
 20
549.819386507039
 30
0.0
 11
188.755149989277
 21
548.0873356994699
 31
0.0
  0
CIRCLE
  5
1FC
330
1B
100
AcDbEntity
  8
4
100
AcDbCircle
 10
188.755149989277
 20
551.5514373146078
 30
0.0
 40
6.5
  0
CIRCLE
  5
1FD
330
1B
100
AcDbEntity
  8
4
100
AcDbCircle
 10
188.755149989277
 20
551.5514373146078
 30
0.0
 40
5.633974596215559
  0
LINE
  5
1FE
330
1B
100
AcDbEntity
  8
L-CENTER
100
AcDbLine
 10
196.4656828647464
 20
551.5514373146078
 30
0.0
 11
180.8744258494189
 21
551.5514373146078
 31
0.0
  0
LINE
  5
1FF
330
1B
100
AcDbEntity
  8
4
100
AcDbLine
 10
431.755149989277
 20
549.819386507039
 30
0.0
 11
431.755149989277
 21
553.2834881221767
 31
0.0
  0
LINE
  5
200
330
1B
100
AcDbEntity
  8
4
100
AcDbLine
 10
428.755149989277
 20
555.0155389297457
 30
0.0
 11
425.755149989277
 21
553.2834881221767
 31
0.0
  0
LINE
  5
201
330
1B
100
AcDbEntity
  8
4
100
AcDbLine
 10
425.755149989277
 20
553.2834881221767
 30
0.0
 11
425.755149989277
 21
549.819386507039
 31
0.0
  0
LINE
  5
202
330
1B
100
AcDbEntity
  8
4
100
AcDbLine
 10
431.755149989277
 20
553.2834881221767
 30
0.0
 11
428.755149989277
 21
555.0155389297457
 31
0.0
  0
LINE
  5
203
330
1B
100
AcDbEntity
  8
4
100
AcDbLine
 10
428.755149989277
 20
548.0873356994699
 30
0.0
 11
431.755149989277
 21
549.819386507039
 31
0.0
  0
LINE
  5
204
330
1B
100
AcDbEntity
  8
4
100
AcDbLine
 10
425.755149989277
 20
549.819386507039
 30
0.0
 11
428.755149989277
 21
548.0873356994699
 31
0.0
  0
CIRCLE
  5
205
330
1B
100
AcDbEntity
  8
4
100
AcDbCircle
 10
428.755149989277
 20
551.5514373146078
 30
0.0
 40
6.5
  0
CIRCLE
  5
206
330
1B
100
AcDbEntity
  8
4
100
AcDbCircle
 10
428.755149989277
 20
551.5514373146078
 30
0.0
 40
5.633974596215559
  0
LINE
  5
207
330
1B
100
AcDbEntity
  8
L-CENTER
100
AcDbLine
 10
436.4656828647464
 20
551.5514373146078
 30
0.0
 11
420.8744258494189
 21
551.5514373146078
 31
0.0
  0
LINE
  5
208
330
1B
100
AcDbEntity
  8
4
100
AcDbLine
 10
371.755149989277
 20
445.8963380529063
 30
0.0
 11
371.755149989277
 21
449.360439668044
 31
0.0
  0
LINE
  5
209
330
1B
100
AcDbEntity
  8
4
100
AcDbLine
 10
368.755149989277
 20
451.0924904756131
 30
0.0
 11
365.755149989277
 21
449.360439668044
 31
0.0
  0
LINE
  5
20A
330
1B
100
AcDbEntity
  8
4
100
AcDbLine
 10
365.755149989277
 20
449.360439668044
 30
0.0
 11
365.755149989277
 21
445.8963380529063
 31
0.0
  0
LINE
  5
20B
330
1B
100
AcDbEntity
  8
4
100
AcDbLine
 10
371.755149989277
 20
449.360439668044
 30
0.0
 11
368.755149989277
 21
451.0924904756131
 31
0.0
  0
LINE
  5
20C
330
1B
100
AcDbEntity
  8
4
100
AcDbLine
 10
368.755149989277
 20
444.1642872453373
 30
0.0
 11
371.755149989277
 21
445.8963380529063
 31
0.0
  0
LINE
  5
20D
330
1B
100
AcDbEntity
  8
4
100
AcDbLine
 10
365.755149989277
 20
445.8963380529063
 30
0.0
 11
368.755149989277
 21
444.1642872453373
 31
0.0
  0
CIRCLE
  5
20E
330
1B
100
AcDbEntity
  8
4
100
AcDbCircle
 10
368.755149989277
 20
447.6283888604752
 30
0.0
 40
6.5
  0
CIRCLE
  5
20F
330
1B
100
AcDbEntity
  8
4
100
AcDbCircle
 10
368.755149989277
 20
447.6283888604752
 30
0.0
 40
5.633974596215559
  0
LINE
  5
210
330
1B
100
AcDbEntity
  8
4
100
AcDbLine
 10
251.755149989277
 20
445.8963380529063
 30
0.0
 11
251.755149989277
 21
449.360439668044
 31
0.0
  0
LINE
  5
211
330
1B
100
AcDbEntity
  8
4
100
AcDbLine
 10
248.755149989277
 20
451.0924904756131
 30
0.0
 11
245.755149989277
 21
449.360439668044
 31
0.0
  0
LINE
  5
212
330
1B
100
AcDbEntity
  8
4
100
AcDbLine
 10
245.755149989277
 20
449.360439668044
 30
0.0
 11
245.755149989277
 21
445.8963380529063
 31
0.0
  0
LINE
  5
213
330
1B
100
AcDbEntity
  8
4
100
AcDbLine
 10
251.755149989277
 20
449.360439668044
 30
0.0
 11
248.755149989277
 21
451.0924904756131
 31
0.0
  0
LINE
  5
214
330
1B
100
AcDbEntity
  8
4
100
AcDbLine
 10
248.755149989277
 20
444.1642872453373
 30
0.0
 11
251.755149989277
 21
445.8963380529063
 31
0.0
  0
LINE
  5
215
330
1B
100
AcDbEntity
  8
4
100
AcDbLine
 10
245.755149989277
 20
445.8963380529063
 30
0.0
 11
248.755149989277
 21
444.1642872453373
 31
0.0
  0
CIRCLE
  5
216
330
1B
100
AcDbEntity
  8
4
100
AcDbCircle
 10
248.755149989277
 20
447.6283888604752
 30
0.0
 40
6.5
  0
ARC
  5
217
330
1B
100
AcDbEntity
  8
4
100
AcDbCircle
 10
308.7555924086064
 20
-917.09379212144
 30
0.0
 40
1200.00005
100
AcDbArc
 50
90.83559303629774
 51
92.55530486400164
  0
ARC
  5
218
330
1B
100
AcDbEntity
  8
4
100
AcDbCircle
 10
308.7555924086064
 20
-917.09379212144
 30
0.0
 40
1200.00005
100
AcDbArc
 50
87.44469513599846
 51
89.16440696370195
  0
LINE
  5
219
330
1B
100
AcDbEntity
  8
2
100
AcDbLine
 10
191.5835771140232
 20
275.8539628785597
 30
0.0
 11
189.5835771140232
 21
277.8539628785597
 31
0.0
  0
LINE
  5
21A
330
1B
100
AcDbEntity
  8
4
100
AcDbLine
 10
196.005149989277
 20
275.8539628785597
 30
0.0
 11
196.005149989277
 21
277.8539628785597
 31
0.0
  0
LINE
  5
21B
330
1B
100
AcDbEntity
  8
4
100
AcDbLine
 10
195.255149989277
 20
277.8539628785597
 30
0.0
 11
195.255149989277
 21
285.8539628785597
 31
0.0
  0
LINE
  5
21C
330
1B
100
AcDbEntity
  8
4
100
AcDbLine
 10
181.505149989277
 20
275.8539628785597
 30
0.0
 11
181.505149989277
 21
277.8539628785597
 31
0.0
  0
LINE
  5
21D
330
1B
100
AcDbEntity
  8
4
100
AcDbLine
 10
182.255149989277
 20
277.8539628785597
 30
0.0
 11
182.255149989277
 21
285.8539628785597
 31
0.0
  0
LINE
  5
21E
330
1B
100
AcDbEntity
  8
4
100
AcDbLine
 10
196.005149989277
 20
277.8539628785597
 30
0.0
 11
181.505149989277
 21
277.8539628785597
 31
0.0
  0
LINE
  5
21F
330
1B
100
AcDbEntity
  8
4
100
AcDbLine
 10
195.255149989277
 20
285.8539628785597
 30
0.0
 11
182.255149989277
 21
285.8539628785597
 31
0.0
  0
LINE
  5
220
330
1B
100
AcDbEntity
  8
2
100
AcDbLine
 10
188.755149989277
 20
275.8539628785597
 30
0.0
 11
186.755149989277
 21
277.8539628785597
 31
0.0
  0
LINE
  5
221
330
1B
100
AcDbEntity
  8
2
100
AcDbLine
 10
251.5835771140232
 20
275.8539628785597
 30
0.0
 11
249.5835771140232
 21
277.8539628785597
 31
0.0
  0
LINE
  5
222
330
1B
100
AcDbEntity
  8
4
100
AcDbLine
 10
256.005149989277
 20
275.8539628785597
 30
0.0
 11
256.005149989277
 21
277.8539628785597
 31
0.0
  0
LINE
  5
223
330
1B
100
AcDbEntity
  8
4
100
AcDbLine
 10
255.255149989277
 20
277.8539628785597
 30
0.0
 11
255.255149989277
 21
285.8539628785597
 31
0.0
  0
LINE
  5
224
330
1B
100
AcDbEntity
  8
4
100
AcDbLine
 10
241.505149989277
 20
275.8539628785597
 30
0.0
 11
241.505149989277
 21
277.8539628785597
 31
0.0
  0
LINE
  5
225
330
1B
100
AcDbEntity
  8
4
100
AcDbLine
 10
242.255149989277
 20
277.8539628785597
 30
0.0
 11
242.255149989277
 21
285.8539628785597
 31
0.0
  0
LINE
  5
226
330
1B
100
AcDbEntity
  8
4
100
AcDbLine
 10
256.005149989277
 20
277.8539628785597
 30
0.0
 11
241.505149989277
 21
277.8539628785597
 31
0.0
  0
LINE
  5
227
330
1B
100
AcDbEntity
  8
4
100
AcDbLine
 10
255.255149989277
 20
285.8539628785597
 30
0.0
 11
242.255149989277
 21
285.8539628785597
 31
0.0
  0
LINE
  5
228
330
1B
100
AcDbEntity
  8
2
100
AcDbLine
 10
248.755149989277
 20
275.8539628785597
 30
0.0
 11
246.755149989277
 21
277.8539628785597
 31
0.0
  0
LINE
  5
229
330
1B
100
AcDbEntity
  8
2
100
AcDbLine
 10
371.584461952682
 20
275.8539628785597
 30
0.0
 11
369.584461952682
 21
277.8539628785597
 31
0.0
  0
LINE
  5
22A
330
1B
100
AcDbEntity
  8
4
100
AcDbLine
 10
376.0060348279358
 20
275.8539628785597
 30
0.0
 11
376.0060348279358
 21
277.8539628785597
 31
0.0
  0
LINE
  5
22B
330
1B
100
AcDbEntity
  8
4
100
AcDbLine
 10
375.2560348279358
 20
277.8539628785597
 30
0.0
 11
375.2560348279358
 21
285.8539628785597
 31
0.0
  0
LINE
  5
22C
330
1B
100
AcDbEntity
  8
4
100
AcDbLine
 10
361.5060348279358
 20
275.8539628785597
 30
0.0
 11
361.5060348279358
 21
277.8539628785597
 31
0.0
  0
LINE
  5
22D
330
1B
100
AcDbEntity
  8
4
100
AcDbLine
 10
362.2560348279358
 20
277.8539628785597
 30
0.0
 11
362.2560348279358
 21
285.8539628785597
 31
0.0
  0
LINE
  5
22E
330
1B
100
AcDbEntity
  8
4
100
AcDbLine
 10
376.0060348279358
 20
277.8539628785597
 30
0.0
 11
361.5060348279358
 21
277.8539628785597
 31
0.0
  0
LINE
  5
22F
330
1B
100
AcDbEntity
  8
4
100
AcDbLine
 10
375.2560348279358
 20
285.8539628785597
 30
0.0
 11
362.2560348279358
 21
285.8539628785597
 31
0.0
  0
LINE
  5
230
330
1B
100
AcDbEntity
  8
2
100
AcDbLine
 10
368.7560348279358
 20
275.8539628785597
 30
0.0
 11
366.7560348279358
 21
277.8539628785597
 31
0.0
  0
LINE
  5
231
330
1B
100
AcDbEntity
  8
4
100
AcDbLine
 10
435.256034827936
 20
277.8539628785597
 30
0.0
 11
435.256034827936
 21
285.8539628785597
 31
0.0
  0
LINE
  5
232
330
1B
100
AcDbEntity
  8
4
100
AcDbLine
 10
436.006034827936
 20
275.8539628785597
 30
0.0
 11
436.006034827936
 21
277.8539628785597
 31
0.0
  0
LINE
  5
233
330
1B
100
AcDbEntity
  8
2
100
AcDbLine
 10
431.5844619526822
 20
275.8539628785597
 30
0.0
 11
429.5844619526822
 21
277.8539628785597
 31
0.0
  0
LINE
  5
234
330
1B
100
AcDbEntity
  8
4
100
AcDbLine
 10
422.256034827936
 20
277.8539628785597
 30
0.0
 11
422.256034827936
 21
285.8539628785597
 31
0.0
  0
LINE
  5
235
330
1B
100
AcDbEntity
  8
2
100
AcDbLine
 10
428.756034827936
 20
275.8539628785597
 30
0.0
 11
426.756034827936
 21
277.8539628785597
 31
0.0
  0
LINE
  5
236
330
1B
100
AcDbEntity
  8
4
100
AcDbLine
 10
435.256034827936
 20
285.8539628785597
 30
0.0
 11
422.256034827936
 21
285.8539628785597
 31
0.0
  0
LINE
  5
237
330
1B
100
AcDbEntity
  8
4
100
AcDbLine
 10
421.506034827936
 20
275.8539628785597
 30
0.0
 11
421.506034827936
 21
277.8539628785597
 31
0.0
  0
LINE
  5
238
330
1B
100
AcDbEntity
  8
4
100
AcDbLine
 10
436.006034827936
 20
277.8539628785597
 30
0.0
 11
421.506034827936
 21
277.8539628785597
 31
0.0
  0
LINE
  5
239
330
1B
100
AcDbEntity
  8
4
100
AcDbLine
 10
618.2873940438917
 20
275.8539628785597
 30
0.0
 11
618.2873940438917
 21
277.8539628785597
 31
0.0
  0
LINE
  5
23A
330
1B
100
AcDbEntity
  8
4
100
AcDbLine
 10
617.5373940438917
 20
277.8539628785597
 30
0.0
 11
617.5373940438917
 21
285.8539628785597
 31
0.0
  0
LINE
  5
23B
330
1B
100
AcDbEntity
  8
4
100
AcDbLine
 10
604.5373940438917
 20
277.8539628785597
 30
0.0
 11
604.5373940438917
 21
285.8539628785597
 31
0.0
  0
LINE
  5
23C
330
1B
100
AcDbEntity
  8
4
100
AcDbLine
 10
603.7873940438917
 20
275.8539628785597
 30
0.0
 11
603.7873940438917
 21
277.8539628785597
 31
0.0
  0
LINE
  5
23D
330
1B
100
AcDbEntity
  8
4
100
AcDbLine
 10
618.2873940438917
 20
277.8539628785597
 30
0.0
 11
603.7873940438917
 21
277.8539628785597
 31
0.0
  0
LINE
  5
23E
330
1B
100
AcDbEntity
  8
4
100
AcDbLine
 10
617.5373940438917
 20
285.8539628785597
 30
0.0
 11
604.5373940438917
 21
285.8539628785597
 31
0.0
  0
LINE
  5
23F
330
1B
100
AcDbEntity
  8
4
100
AcDbLine
 10
722.2104424980243
 20
275.8539628785597
 30
0.0
 11
722.2104424980243
 21
277.8539628785597
 31
0.0
  0
LINE
  5
240
330
1B
100
AcDbEntity
  8
4
100
AcDbLine
 10
721.4604424980243
 20
277.8539628785597
 30
0.0
 11
721.4604424980243
 21
285.8539628785597
 31
0.0
  0
LINE
  5
241
330
1B
100
AcDbEntity
  8
4
100
AcDbLine
 10
708.4604424980243
 20
277.8539628785597
 30
0.0
 11
708.4604424980243
 21
285.8539628785597
 31
0.0
  0
LINE
  5
242
330
1B
100
AcDbEntity
  8
4
100
AcDbLine
 10
707.7104424980243
 20
275.8539628785597
 30
0.0
 11
707.7104424980243
 21
277.8539628785597
 31
0.0
  0
LINE
  5
243
330
1B
100
AcDbEntity
  8
4
100
AcDbLine
 10
722.2104424980243
 20
277.8539628785597
 30
0.0
 11
707.7104424980243
 21
277.8539628785597
 31
0.0
  0
LINE
  5
244
330
1B
100
AcDbEntity
  8
4
100
AcDbLine
 10
721.4604424980243
 20
285.8539628785597
 30
0.0
 11
708.4604424980243
 21
285.8539628785597
 31
0.0
  0
LINE
  5
245
330
1B
100
AcDbEntity
  8
4
100
AcDbLine
 10
825.383490952157
 20
285.8539628785597
 30
0.0
 11
812.383490952157
 21
285.8539628785597
 31
0.0
  0
LINE
  5
246
330
1B
100
AcDbEntity
  8
4
100
AcDbLine
 10
811.633490952157
 20
275.8539628785597
 30
0.0
 11
811.633490952157
 21
277.8539628785597
 31
0.0
  0
LINE
  5
247
330
1B
100
AcDbEntity
  8
4
100
AcDbLine
 10
826.133490952157
 20
275.8539628785597
 30
0.0
 11
826.133490952157
 21
277.8539628785597
 31
0.0
  0
LINE
  5
248
330
1B
100
AcDbEntity
  8
4
100
AcDbLine
 10
826.133490952157
 20
277.8539628785597
 30
0.0
 11
811.633490952157
 21
277.8539628785597
 31
0.0
  0
LINE
  5
249
330
1B
100
AcDbEntity
  8
4
100
AcDbLine
 10
812.383490952157
 20
277.8539628785597
 30
0.0
 11
812.383490952157
 21
285.8539628785597
 31
0.0
  0
LINE
  5
24A
330
1B
100
AcDbEntity
  8
4
100
AcDbLine
 10
825.383490952157
 20
277.8539628785597
 30
0.0
 11
825.383490952157
 21
285.8539628785597
 31
0.0
  0
LINE
  5
24B
330
1B
100
AcDbEntity
  8
4
100
AcDbLine
 10
450.755149989277
 20
607.5514373146078
 30
0.0
 11
458.755149989277
 21
607.5514373146078
 31
0.0
  0
LINE
  5
24C
330
1B
100
AcDbEntity
  8
4
100
AcDbLine
 10
450.755149989277
 20
627.5514373146078
 30
0.0
 11
458.755149989277
 21
627.5514373146078
 31
0.0
  0
LINE
  5
24D
330
1B
100
AcDbEntity
  8
4
100
AcDbLine
 10
498.755149989277
 20
625.5514373146078
 30
0.0
 11
498.755149989277
 21
609.5514373146078
 31
0.0
  0
LINE
  5
24E
330
1B
100
AcDbEntity
  8
4
100
AcDbLine
 10
497.755149989277
 20
626.5514373146078
 30
0.0
 11
497.755149989277
 21
620.0514373146078
 31
0.0
  0
LINE
  5
24F
330
1B
100
AcDbEntity
  8
4
100
AcDbLine
 10
497.755149989277
 20
615.0514373146078
 30
0.0
 11
497.755149989277
 21
608.5514373146078
 31
0.0
  0
LINE
  5
250
330
1B
100
AcDbEntity
  8
4
100
AcDbLine
 10
497.755149989277
 20
608.5514373146078
 30
0.0
 11
498.755149989277
 21
609.5514373146078
 31
0.0
  0
LINE
  5
251
330
1B
100
AcDbEntity
  8
4
100
AcDbLine
 10
497.755149989277
 20
626.5514373146078
 30
0.0
 11
498.755149989277
 21
625.5514373146078
 31
0.0
  0
LINE
  5
252
330
1B
100
AcDbEntity
  8
4
100
AcDbLine
 10
458.755149989277
 20
627.5514373146078
 30
0.0
 11
458.755149989277
 21
607.5514373146078
 31
0.0
  0
ARC
  5
253
330
1B
100
AcDbEntity
  8
4
100
AcDbCircle
 10
459.755149989277
 20
607.5514373146078
 30
0.0
 40
1.0
100
AcDbArc
 50
90.0
 51
180.0
  0
ARC
  5
254
330
1B
100
AcDbEntity
  8
4
100
AcDbCircle
 10
469.255149989277
 20
617.5514373146078
 30
0.0
 40
2.5
100
AcDbArc
 50
180.0
 51
270.0
  0
LINE
  5
255
330
1B
100
AcDbEntity
  8
4
100
AcDbLine
 10
466.755149989277
 20
617.5514373146078
 30
0.0
 11
466.755149989277
 21
617.5514373146078
 31
0.0
  0
ARC
  5
256
330
1B
100
AcDbEntity
  8
4
100
AcDbCircle
 10
469.255149989277
 20
617.5514373146078
 30
0.0
 40
2.5
100
AcDbArc
 50
90.0
 51
180.0
  0
ARC
  5
257
330
1B
100
AcDbEntity
  8
4
100
AcDbCircle
 10
459.755149989277
 20
627.5514373146078
 30
0.0
 40
1.0
100
AcDbArc
 50
180.0
 51
270.0
  0
LINE
  5
258
330
1B
100
AcDbEntity
  8
4
100
AcDbLine
 10
459.755149989277
 20
608.5514373146078
 30
0.0
 11
497.755149989277
 21
608.5514373146078
 31
0.0
  0
LINE
  5
259
330
1B
100
AcDbEntity
  8
4
100
AcDbLine
 10
498.755149989277
 20
620.0514373146078
 30
0.0
 11
469.255149989277
 21
620.0514373146078
 31
0.0
  0
LINE
  5
25A
330
1B
100
AcDbEntity
  8
4
100
AcDbLine
 10
498.755149989277
 20
615.0514373146078
 30
0.0
 11
469.255149989277
 21
615.0514373146078
 31
0.0
  0
LINE
  5
25B
330
1B
100
AcDbEntity
  8
4
100
AcDbLine
 10
459.755149989277
 20
626.5514373146078
 30
0.0
 11
497.755149989277
 21
626.5514373146078
 31
0.0
  0
LINE
  5
25C
330
1B
100
AcDbEntity
  8
4
100
AcDbLine
 10
296.255149989277
 20
689.0514373146076
 30
0.0
 11
296.255149989277
 21
687.0514373146076
 31
0.0
  0
LINE
  5
25D
330
1B
100
AcDbEntity
  8
4
100
AcDbLine
 10
297.255149989277
 20
687.0514373146076
 30
0.0
 11
297.255149989277
 21
685.5514373146076
 31
0.0
  0
LWPOLYLINE
  5
25E
330
1B
100
AcDbEntity
  8
4
100
AcDbPolyline
 90
        2
 70
     0
 43
0.0
 10
297.9298324419715
 20
694.0514373146076
 10
297.9298324419715
 20
689.0514373146076
  0
LINE
  5
25F
330
1B
100
AcDbEntity
  8
4
100
AcDbLine
 10
297.9298324419715
 20
694.0514373146076
 30
0.0
 11
319.5804675365825
 21
694.0514373146076
 31
0.0
  0
LINE
  5
260
330
1B
100
AcDbEntity
  8
4
100
AcDbLine
 10
296.255149989277
 20
687.0514373146076
 30
0.0
 11
321.255149989277
 21
687.0514373146076
 31
0.0
  0
LINE
  5
261
330
1B
100
AcDbEntity
  8
4
100
AcDbLine
 10
296.255149989277
 20
689.0514373146076
 30
0.0
 11
321.255149989277
 21
689.0514373146076
 31
0.0
  0
LINE
  5
262
330
1B
100
AcDbEntity
  8
4
100
AcDbLine
 10
297.255149989277
 20
685.5514373146076
 30
0.0
 11
320.255149989277
 21
685.5514373146076
 31
0.0
  0
LINE
  5
263
330
1B
100
AcDbEntity
  8
4
100
AcDbLine
 10
321.255149989277
 20
689.0514373146074
 30
0.0
 11
321.255149989277
 21
687.0514373146076
 31
0.0
  0
LINE
  5
264
330
1B
100
AcDbEntity
  8
4
100
AcDbLine
 10
320.255149989277
 20
687.0514373146076
 30
0.0
 11
320.255149989277
 21
685.5514373146076
 31
0.0
  0
LWPOLYLINE
  5
265
330
1B
100
AcDbEntity
  8
4
100
AcDbPolyline
 90
        2
 70
     0
 43
0.0
 10
319.5804675365825
 20
689.0514373146076
 10
319.5804675365825
 20
694.0514373146076
  0
LINE
  5
266
330
1B
100
AcDbEntity
  8
4
100
AcDbLine
 10
707.7104424980243
 20
277.8539628785597
 30
0.0
 11
618.2873940438917
 21
277.8539628785597
 31
0.0
  0
ARC
  5
267
330
1B
100
AcDbEntity
  8
4
100
AcDbCircle
 10
714.9604424980243
 20
-917.09379212144
 30
0.0
 40
1199.999985
100
AcDbArc
 50
90.310353660565
 51
94.65673309845077
  0
LINE
  5
268
330
1B
100
AcDbEntity
  8
L-CENTER
 48
2.0
100
AcDbLine
 10
818.883490952157
 20
287.8528013990658
 30
0.0
 11
818.883490952157
 21
253.7835377883285
 31
0.0
  0
LINE
  5
269
330
1B
100
AcDbEntity
  8
L-CENTER
 48
2.0
100
AcDbLine
 10
611.0373940438917
 20
287.8528013990658
 30
0.0
 11
611.0373940438917
 21
253.7835377883285
 31
0.0
  0
LINE
  5
26A
330
1B
100
AcDbEntity
  8
4
100
AcDbLine
 10
361.5060348279358
 20
277.8539628785597
 30
0.0
 11
256.005149989277
 21
277.8539628785597
 31
0.0
  0
ARC
  5
26B
330
1B
100
AcDbEntity
  8
4
100
AcDbCircle
 10
308.7555924086064
 20
-917.09379212144
 30
0.0
 40
1200.00005
100
AcDbArc
 50
93.17678953538535
 51
95.259883
  0
LINE
  5
26C
330
1B
100
AcDbEntity
  8
4
100
AcDbLine
 10
241.505149989277
 20
277.8539628785597
 30
0.0
 11
198.7556524086065
 21
277.8539628785597
 31
0.0
  0
LINE
  5
26D
330
1B
100
AcDbEntity
  8
L-CENTER
 48
2.0
100
AcDbLine
 10
428.756034827936
 20
287.8528013990658
 30
0.0
 11
428.756034827936
 21
253.7835377883285
 31
0.0
  0
LINE
  5
26E
330
1B
100
AcDbEntity
  8
L-CENTER
 48
2.0
100
AcDbLine
 10
368.7560348279358
 20
287.8528013990658
 30
0.0
 11
368.7560348279358
 21
253.7835377883285
 31
0.0
  0
LINE
  5
26F
330
1B
100
AcDbEntity
  8
L-CENTER
 48
2.0
100
AcDbLine
 10
248.755149989277
 20
287.8528013990658
 30
0.0
 11
248.755149989277
 21
253.7835377883285
 31
0.0
  0
LINE
  5
270
330
1B
100
AcDbEntity
  8
L-CENTER
 48
2.0
100
AcDbLine
 10
188.755149989277
 20
287.8528013990658
 30
0.0
 11
188.755149989277
 21
253.7835377883285
 31
0.0
  0
LINE
  5
271
330
1B
100
AcDbEntity
  8
4
100
AcDbLine
 10
450.755149989277
 20
641.0514373146078
 30
0.0
 11
449.755149989277
 21
641.0514373146078
 31
0.0
  0
LINE
  5
272
330
1B
100
AcDbEntity
  8
4
100
AcDbLine
 10
450.755149989277
 20
594.0514373146078
 30
0.0
 11
449.755149989277
 21
594.0514373146078
 31
0.0
  0
LINE
  5
273
330
1B
100
AcDbEntity
  8
4
100
AcDbLine
 10
450.755149989277
 20
594.0514373146078
 30
0.0
 11
450.755149989277
 21
641.0514373146078
 31
0.0
  0
LINE
  5
274
330
1B
100
AcDbEntity
  8
4
100
AcDbLine
 10
166.755149989277
 20
641.0514373146078
 30
0.0
 11
167.755149989277
 21
641.0514373146078
 31
0.0
  0
LINE
  5
275
330
1B
100
AcDbEntity
  8
4
100
AcDbLine
 10
166.755149989277
 20
594.0514373146078
 30
0.0
 11
167.755149989277
 21
594.0514373146078
 31
0.0
  0
LINE
  5
276
330
1B
100
AcDbEntity
  8
4
100
AcDbLine
 10
166.755149989277
 20
594.0514373146078
 30
0.0
 11
166.755149989277
 21
641.0514373146078
 31
0.0
  0
LINE
  5
27C
330
1B
100
AcDbEntity
  8
L-CENTER
 48
2.0
100
AcDbLine
 10
363.0135489258312
 20
645.5297410100608
 30
0.0
 11
374.4967510527229
 21
665.4192305274199
 31
0.0
  0
CIRCLE
  5
27D
330
1B
100
AcDbEntity
  8
4
100
AcDbCircle
 10
308.7551499892772
 20
614.5514373146078
 30
0.0
 40
17.5
  0
ARC
  5
27E
330
1B
100
AcDbEntity
  8
4
100
AcDbCircle
 10
308.755149989277
 20
321.5514373146078
 30
0.0
 40
300.0
100
AcDbArc
 50
71.41036349735421
 51
86.90002022946238
  0
CIRCLE
  5
27F
330
1B
100
AcDbEntity
  8
4
100
AcDbCircle
 10
355.7551499892772
 20
541.5514373146078
 30
0.0
 40
30.0
  0
CIRCLE
  5
280
330
1B
100
AcDbEntity
  8
4
100
AcDbCircle
 10
355.7551499892772
 20
541.5514373146078
 30
0.0
 40
23.5
  0
LINE
  5
281
330
1B
100
AcDbEntity
  8
L-CENTER
 48
2.0
100
AcDbLine
 10
254.4967510527229
 20
645.529741010061
 30
0.0
 11
243.0135489258314
 21
665.4192305274202
 31
0.0
  0
CIRCLE
  5
282
330
1B
100
AcDbEntity
  8
4
100
AcDbCircle
 10
271.3451499892772
 20
551.5514373146078
 30
0.0
 40
44.0
  0
CIRCLE
  5
283
330
1B
100
AcDbEntity
  8
4
100
AcDbCircle
 10
271.3451499892772
 20
551.5514373146078
 30
0.0
 40
36.0
  0
ARC
  5
284
330
1B
100
AcDbEntity
  8
4
100
AcDbCircle
 10
308.755149989277
 20
321.5514373146078
 30
0.0
 40
300.0
100
AcDbArc
 50
93.09997977053756
 51
108.5896365026457
  0
LINE
  5
285
330
1B
100
AcDbEntity
  8
L-CENTER
 48
2.0
100
AcDbLine
 10
363.0135489258309
 20
457.5731336191548
 30
0.0
 11
374.4967510527226
 21
437.6836441017956
 31
0.0
  0
LINE
  5
286
330
1B
100
AcDbEntity
  8
L-CENTER
 48
2.0
100
AcDbLine
 10
254.4967510527231
 20
457.5731336191548
 30
0.0
 11
243.0135489258314
 21
437.6836441017956
 31
0.0
  0
ARC
  5
287
330
1B
100
AcDbEntity
  8
4
100
AcDbCircle
 10
308.7551499892772
 20
781.5514373146079
 30
0.0
 40
300.0
100
AcDbArc
 50
273.0999797705375
 51
288.5896365026458
  0
ARC
  5
288
330
1B
100
AcDbEntity
  8
4
100
AcDbCircle
 10
308.7551499892772
 20
781.5514373146079
 30
0.0
 40
300.0
100
AcDbArc
 50
251.4103634973542
 51
266.9000202294625
  0
CIRCLE
  5
289
330
1B
100
AcDbEntity
  8
4
100
AcDbCircle
 10
308.7551499892772
 20
551.5514373146078
 30
0.0
 40
128.0
  0
CIRCLE
  5
28A
330
1B
100
AcDbEntity
  8
4
100
AcDbCircle
 10
308.7551499892772
 20
551.5514373146078
 30
0.0
 40
110.0
  0
CIRCLE
  5
28B
330
1B
100
AcDbEntity
  8
L-CENTER
 48
2.0
100
AcDbCircle
 10
308.755149989277
 20
551.5514373146078
 30
0.0
 40
120.0
  0
LINE
  5
28C
330
1B
100
AcDbEntity
  8
L-CENTER
 48
2.0
100
AcDbLine
 10
501.0501663976279
 20
617.5514373146078
 30
0.0
 11
162.7961778424188
 21
617.5514373146078
 31
0.0
  0
LINE
  5
28D
330
1B
100
AcDbEntity
  8
L-CENTER
 48
2.0
100
AcDbLine
 10
447.5660771715811
 20
551.5514373146078
 30
0.0
 11
169.9442228069729
 21
551.5514373146078
 31
0.0
  0
LINE
  5
28E
330
1B
100
AcDbEntity
  8
4
100
AcDbLine
 10
167.755149989277
 20
650.0514373146078
 30
0.0
 11
204.7551499892761
 21
650.0514373146078
 31
0.0
  0
LINE
  5
28F
330
1B
100
AcDbEntity
  8
4
100
AcDbLine
 10
183.1456360183997
 20
585.0514373146078
 30
0.0
 11
167.755149989277
 21
585.0514373146078
 31
0.0
  0
LINE
  5
290
330
1B
100
AcDbEntity
  8
4
100
AcDbLine
 10
167.755149989277
 20
650.0514373146078
 30
0.0
 11
167.755149989277
 21
585.0514373146078
 31
0.0
  0
ARC
  5
291
330
1B
100
AcDbEntity
  8
4
100
AcDbCircle
 10
428.255149989277
 20
688.5514373146078
 30
0.0
 40
3.0
100
AcDbArc
 50
0.0
 51
90.0
  0
CIRCLE
  5
292
330
1B
100
AcDbEntity
  8
4
100
AcDbCircle
 10
408.755149989277
 20
671.5514373146078
 30
0.0
 40
7.0
  0
LINE
  5
293
330
1B
100
AcDbEntity
  8
4
100
AcDbLine
 10
377.2682481270924
 20
689.3500483678205
 30
0.0
 11
364.6117484672379
 21
670.6118389642205
 31
0.0
  0
ARC
  5
294
330
1B
100
AcDbEntity
  8
4
100
AcDbCircle
 10
368.755149989277
 20
667.8132279110081
 30
0.0
 40
5.0
100
AcDbArc
 50
145.9634110648137
 51
163.3535109028056
  0
ARC
  5
295
330
1B
100
AcDbEntity
  8
4
100
AcDbCircle
 10
381.4116496491315
 20
686.5514373146078
 30
0.0
 40
5.0
100
AcDbArc
 50
90.0
 51
145.9634110648137
  0
LINE
  5
296
330
1B
100
AcDbEntity
  8
L-CENTER
 48
2.0
100
AcDbLine
 10
391.755149989277
 20
671.5514373146078
 30
0.0
 11
425.755149989277
 21
671.5514373146078
 31
0.0
  0
LINE
  5
297
330
1B
100
AcDbEntity
  8
4
100
AcDbLine
 10
381.4116496491315
 20
691.5514373146078
 30
0.0
 11
428.255149989277
 21
691.5514373146078
 31
0.0
  0
ARC
  5
298
330
1B
100
AcDbEntity
  8
4
100
AcDbCircle
 10
440.755149989277
 20
583.0514373146078
 30
0.0
 40
2.0
100
AcDbArc
 50
90.0
 51
180.0
  0
LINE
  5
299
330
1B
100
AcDbEntity
  8
4
100
AcDbLine
 10
449.755149989277
 20
585.0514373146078
 30
0.0
 11
434.3646639601543
 21
585.0514373146078
 31
0.0
  0
LINE
  5
29A
330
1B
100
AcDbEntity
  8
4
100
AcDbLine
 10
449.755149989277
 20
650.0514373146078
 30
0.0
 11
449.755149989277
 21
585.0514373146078
 31
0.0
  0
LINE
  5
29B
330
1B
100
AcDbEntity
  8
4
100
AcDbLine
 10
383.5566859808255
 20
657.8751421659016
 30
0.0
 11
412.7551499892779
 21
650.0514373146078
 31
0.0
  0
LINE
  5
29C
330
1B
100
AcDbEntity
  8
4
100
AcDbLine
 10
449.755149989277
 20
650.0514373146078
 30
0.0
 11
412.7551499892779
 21
650.0514373146078
 31
0.0
  0
ARC
  5
29D
330
1B
100
AcDbEntity
  8
4
100
AcDbCircle
 10
428.255149989277
 20
493.5514373146078
 30
0.0
 40
3.0
100
AcDbArc
 50
0.0
 51
90.0
  0
LINE
  5
29E
330
1B
100
AcDbEntity
  8
4
100
AcDbLine
 10
426.5473398831746
 20
496.5514373146078
 30
0.0
 11
428.255149989277
 21
496.5514373146078
 31
0.0
  0
LINE
  5
29F
330
1B
100
AcDbEntity
  8
4
100
AcDbLine
 10
438.755149989277
 20
551.5514373146078
 30
0.0
 11
438.755149989277
 21
583.0514373146078
 31
0.0
  0
LINE
  5
2A0
330
1B
100
AcDbEntity
  8
L-CENTER
 48
2.0
100
AcDbLine
 10
408.755149989277
 20
688.5514373146078
 30
0.0
 11
408.755149989277
 21
654.5514373146078
 31
0.0
  0
LINE
  5
2A1
330
1B
100
AcDbEntity
  8
4
100
AcDbLine
 10
431.255149989277
 20
688.5514373146078
 30
0.0
 11
431.255149989277
 21
650.0514373146078
 31
0.0
  0
ARC
  5
2A2
330
1B
100
AcDbEntity
  8
4
100
AcDbCircle
 10
428.255149989277
 20
419.5514373146078
 30
0.0
 40
3.0
100
AcDbArc
 50
270.0
 51
0.0
  0
LINE
  5
2A3
330
1B
100
AcDbEntity
  8
L-CENTER
 48
2.0
100
AcDbLine
 10
425.755149989277
 20
436.5514373146078
 30
0.0
 11
391.755149989277
 21
436.5514373146076
 31
0.0
  0
LINE
  5
2A4
330
1B
100
AcDbEntity
  8
4
100
AcDbLine
 10
377.2605962316852
 20
418.2659704648744
 30
0.0
 11
364.9861040119367
 21
432.3471125492923
 31
0.0
  0
ARC
  5
2A5
330
1B
100
AcDbEntity
  8
4
100
AcDbCircle
 10
381.0296422090255
 20
421.5514373146076
 30
0.0
 40
5.0
100
AcDbArc
 50
221.0785715935796
 51
270.0
  0
ARC
  5
2A6
330
1B
100
AcDbEntity
  8
4
100
AcDbCircle
 10
368.755149989277
 20
435.6325793990253
 30
0.0
 40
5.0
100
AcDbArc
 50
200.2286881265048
 51
221.0785715935796
  0
CIRCLE
  5
2A7
330
1B
100
AcDbEntity
  8
4
100
AcDbCircle
 10
408.755149989277
 20
436.5514373146078
 30
0.0
 40
7.0
  0
LINE
  5
2A8
330
1B
100
AcDbEntity
  8
L-CENTER
 48
2.0
100
AcDbLine
 10
408.755149989277
 20
453.5514373146078
 30
0.0
 11
408.755149989277
 21
419.5514373146078
 31
0.0
  0
LINE
  5
2A9
330
1B
100
AcDbEntity
  8
4
100
AcDbLine
 10
428.255149989277
 20
416.5514373146078
 30
0.0
 11
381.0296422090255
 21
416.5514373146076
 31
0.0
  0
LINE
  5
2AA
330
1B
100
AcDbEntity
  8
4
100
AcDbLine
 10
431.255149989277
 20
493.5514373146078
 30
0.0
 11
431.255149989277
 21
419.5514373146078
 31
0.0
  0
LINE
  5
2AB
330
1B
100
AcDbEntity
  8
4
100
AcDbLine
 10
295.755149989277
 20
685.5514373146076
 30
0.0
 11
321.755149989277
 21
685.5514373146078
 31
0.0
  0
LINE
  5
2AC
330
1B
100
AcDbEntity
  8
4
100
AcDbLine
 10
295.755149989277
 20
685.5514373146076
 30
0.0
 11
295.755149989277
 21
680.8998041384683
 31
0.0
  0
LINE
  5
2AD
330
1B
100
AcDbEntity
  8
4
100
AcDbLine
 10
321.755149989277
 20
685.5514373146078
 30
0.0
 11
321.755149989277
 21
680.8998041384683
 31
0.0
  0
LINE
  5
2AE
330
1B
100
AcDbEntity
  8
4
100
AcDbLine
 10
240.2420518514618
 20
689.3500483678202
 30
0.0
 11
252.8985515113161
 21
670.6118389642207
 31
0.0
  0
ARC
  5
2AF
330
1B
100
AcDbEntity
  8
4
100
AcDbCircle
 10
236.0986503294225
 20
686.5514373146078
 30
0.0
 40
5.0
100
AcDbArc
 50
34.03658893518632
 51
90.0
  0
ARC
  5
2B0
330
1B
100
AcDbEntity
  8
4
100
AcDbCircle
 10
248.755149989277
 20
667.8132279110081
 30
0.0
 40
5.0
100
AcDbArc
 50
16.64648909719167
 51
34.03658893518632
  0
CIRCLE
  5
2B1
330
1B
100
AcDbEntity
  8
4
100
AcDbCircle
 10
208.755149989277
 20
671.5514373146078
 30
0.0
 40
7.0
  0
ARC
  5
2B2
330
1B
100
AcDbEntity
  8
4
100
AcDbCircle
 10
189.255149989277
 20
688.5514373146078
 30
0.0
 40
3.0
100
AcDbArc
 50
90.0
 51
180.0
  0
LINE
  5
2B3
330
1B
100
AcDbEntity
  8
L-CENTER
 48
2.0
100
AcDbLine
 10
225.755149989277
 20
671.5514373146078
 30
0.0
 11
191.755149989277
 21
671.5514373146078
 31
0.0
  0
LINE
  5
2B4
330
1B
100
AcDbEntity
  8
4
100
AcDbLine
 10
189.255149989277
 20
691.5514373146078
 30
0.0
 11
236.0986503294225
 21
691.5514373146078
 31
0.0
  0
LINE
  5
2B5
330
1B
100
AcDbEntity
  8
L-CENTER
 48
2.0
100
AcDbLine
 10
271.3454349086064
 20
604.2772533347573
 30
0.0
 11
271.3454349086064
 21
498.8256212944583
 31
0.0
  0
LINE
  5
2B6
330
1B
100
AcDbEntity
  8
L-CENTER
 48
2.0
100
AcDbLine
 10
355.755149989277
 20
578.3241386507274
 30
0.0
 11
355.755149989277
 21
504.6559217810076
 31
0.0
  0
ARC
  5
2B7
330
1B
100
AcDbEntity
  8
4
100
AcDbCircle
 10
176.755149989277
 20
583.0514373146078
 30
0.0
 40
2.0
100
AcDbArc
 50
0.0
 51
90.0
  0
LINE
  5
2B8
330
1B
100
AcDbEntity
  8
4
100
AcDbLine
 10
189.255149989277
 20
496.5514373146078
 30
0.0
 11
190.9629600953795
 21
496.5514373146078
 31
0.0
  0
ARC
  5
2B9
330
1B
100
AcDbEntity
  8
4
100
AcDbCircle
 10
189.255149989277
 20
493.5514373146078
 30
0.0
 40
3.0
100
AcDbArc
 50
90.0
 51
180.0
  0
LINE
  5
2BA
330
1B
100
AcDbEntity
  8
4
100
AcDbLine
 10
178.755149989277
 20
551.5514373146078
 30
0.0
 11
178.755149989277
 21
583.0514373146078
 31
0.0
  0
LINE
  5
2BB
330
1B
100
AcDbEntity
  8
4
100
AcDbLine
 10
233.9536139977286
 20
657.8751421659016
 30
0.0
 11
204.7551499892761
 21
650.0514373146078
 31
0.0
  0
LINE
  5
2BC
330
1B
100
AcDbEntity
  8
4
100
AcDbLine
 10
186.255149989277
 20
688.5514373146078
 30
0.0
 11
186.255149989277
 21
650.0514373146078
 31
0.0
  0
LINE
  5
2BD
330
1B
100
AcDbEntity
  8
L-CENTER
 48
2.0
100
AcDbLine
 10
208.755149989277
 20
688.5514373146078
 30
0.0
 11
208.755149989277
 21
654.5514373146078
 31
0.0
  0
ARC
  5
2BE
330
1B
100
AcDbEntity
  8
4
100
AcDbCircle
 10
236.4806577695285
 20
421.5514373146076
 30
0.0
 40
5.0
100
AcDbArc
 50
270.0
 51
318.9214284064186
  0
LINE
  5
2BF
330
1B
100
AcDbEntity
  8
4
100
AcDbLine
 10
240.2497037468688
 20
418.2659704648744
 30
0.0
 11
252.5241959666173
 21
432.3471125492919
 31
0.0
  0
ARC
  5
2C0
330
1B
100
AcDbEntity
  8
4
100
AcDbCircle
 10
248.755149989277
 20
435.6325793990251
 30
0.0
 40
5.0
100
AcDbArc
 50
318.9214284064186
 51
339.7713118734993
  0
ARC
  5
2C1
330
1B
100
AcDbEntity
  8
4
100
AcDbCircle
 10
189.255149989277
 20
419.5514373146078
 30
0.0
 40
3.0
100
AcDbArc
 50
180.0
 51
270.0
  0
CIRCLE
  5
2C2
330
1B
100
AcDbEntity
  8
4
100
AcDbCircle
 10
208.755149989277
 20
436.5514373146078
 30
0.0
 40
7.0
  0
LINE
  5
2C3
330
1B
100
AcDbEntity
  8
L-CENTER
 48
2.0
100
AcDbLine
 10
208.755149989277
 20
453.5514373146078
 30
0.0
 11
208.755149989277
 21
419.5514373146078
 31
0.0
  0
LINE
  5
2C4
330
1B
100
AcDbEntity
  8
L-CENTER
 48
2.0
100
AcDbLine
 10
191.755149989277
 20
436.5514373146078
 30
0.0
 11
225.755149989277
 21
436.5514373146076
 31
0.0
  0
LINE
  5
2C5
330
1B
100
AcDbEntity
  8
4
100
AcDbLine
 10
189.255149989277
 20
416.5514373146078
 30
0.0
 11
236.4806577695285
 21
416.5514373146076
 31
0.0
  0
LINE
  5
2C6
330
1B
100
AcDbEntity
  8
L-CENTER
 48
2.0
100
AcDbLine
 10
308.755149989277
 20
696.6440241569052
 30
0.0
 11
308.755149989277
 21
412.7405101323037
 31
0.0
  0
LINE
  5
2C7
330
1B
100
AcDbEntity
  8
4
100
AcDbLine
 10
186.255149989277
 20
493.5514373146078
 30
0.0
 11
186.255149989277
 21
419.5514373146078
 31
0.0
  0
CIRCLE
  5
2C8
330
1B
100
AcDbEntity
  8
4
100
AcDbCircle
 10
308.755149989277
 20
551.5514373146078
 30
0.0
 40
130.0
  0
LINE
  5
2C9
330
1B
100
AcDbEntity
  8
L-CENTER
 48
2.0
100
AcDbLine
 10
318.8596344556768
 20
541.5514373146078
 30
0.0
 11
392.6506655228773
 21
541.5514373146078
 31
0.0
  0
LINE
  5
2F4
330
1B
100
AcDbEntity
  8
4
100
AcDbLine
 10
847.9604424980243
 20
255.3539628785597
 30
0.0
 11
849.4604424980243
 21
255.3539628785597
 31
0.0
  0
LINE
  5
2F5
330
1B
100
AcDbEntity
  8
4
100
AcDbLine
 10
856.4604424980243
 20
256.3539628785597
 30
0.0
 11
849.4604424980243
 21
256.3539628785597
 31
0.0
  0
LINE
  5
2F6
330
1B
100
AcDbEntity
  8
4
100
AcDbLine
 10
851.4604424980243
 20
250.1039628785597
 30
0.0
 11
856.4604424980243
 21
250.1039628785597
 31
0.0
  0
LINE
  5
2F8
330
1B
100
AcDbEntity
  8
4
100
AcDbLine
 10
842.9604424980243
 20
262.8539628785597
 30
0.0
 11
842.9604424980243
 21
274.8539628785597
 31
0.0
  0
LINE
  5
2F9
330
1B
100
AcDbEntity
  8
4
100
AcDbLine
 10
791.9604424980243
 20
280.4333078785598
 30
0.0
 11
791.9604424980243
 21
289.8539628785597
 31
0.0
  0
LINE
  5
2FA
330
1B
100
AcDbEntity
  8
4
100
AcDbLine
 10
844.9604424980243
 20
256.8539628785597
 30
0.0
 11
847.9604424980243
 21
256.8539628785597
 31
0.0
  0
LINE
  5
2FB
330
1B
100
AcDbEntity
  8
4
100
AcDbLine
 10
847.9604424980243
 20
232.3539628785598
 30
0.0
 11
849.4604424980243
 21
232.3539628785598
 31
0.0
  0
LINE
  5
2FC
330
1B
100
AcDbEntity
  8
4
100
AcDbLine
 10
849.4604424980243
 20
231.3539628785598
 30
0.0
 11
856.4604424980243
 21
231.3539628785598
 31
0.0
  0
LINE
  5
2FD
330
1B
100
AcDbEntity
  8
4
100
AcDbLine
 10
851.4604424980243
 20
237.6039628785598
 30
0.0
 11
856.4604424980243
 21
237.6039628785598
 31
0.0
  0
LINE
  5
302
330
1B
100
AcDbEntity
  8
4
100
AcDbLine
 10
846.9604724980245
 20
178.9628503785598
 30
0.0
 11
846.9604724980245
 21
183.8539628785598
 31
0.0
  0
LINE
  5
303
330
1B
100
AcDbEntity
  8
4
100
AcDbLine
 10
846.9604724980245
 20
188.7450753785598
 30
0.0
 11
846.9604724980245
 21
183.8539628785598
 31
0.0
  0
ARC
  5
304
330
1B
100
AcDbEntity
  8
4
100
AcDbCircle
 10
851.9604424980243
 20
160.8539628785598
 30
0.0
 40
3.0
100
AcDbArc
 50
0.0
 51
90.0
  0
ARC
  5
306
330
1B
100
AcDbEntity
  8
4
100
AcDbCircle
 10
808.5266049980241
 20
241.4157303785599
 30
0.0
 40
2.99996
100
AcDbArc
 50
8.03711199999968
 51
81.95364100000099
  0
LINE
  5
307
330
1B
100
AcDbEntity
  8
4
100
AcDbLine
 10
778.4604424980243
 20
224.8539628785598
 30
0.0
 11
783.4604424980243
 21
224.8539628785598
 31
0.0
  0
LINE
  5
308
330
1B
100
AcDbEntity
  8
4
100
AcDbLine
 10
778.4604424980243
 20
219.8539628785598
 30
0.0
 11
783.4604424980243
 21
219.8539628785598
 31
0.0
  0
LINE
  5
309
330
1B
100
AcDbEntity
  8
4
100
AcDbLine
 10
783.4604424980243
 20
224.8539628785598
 30
0.0
 11
783.4604424980243
 21
219.8539628785598
 31
0.0
  0
LINE
  5
30A
330
1B
100
AcDbEntity
  8
4
100
AcDbLine
 10
778.4604424980243
 20
219.8539628785598
 30
0.0
 11
778.4604424980243
 21
224.8539628785598
 31
0.0
  0
ARC
  5
30B
330
1B
100
AcDbEntity
  8
4
100
AcDbCircle
 10
780.9604424980243
 20
213.8539628785598
 30
0.0
 40
8.9999725
100
AcDbArc
 50
106.1276699999992
 51
73.87228000000023
  0
ARC
  5
30C
330
1B
100
AcDbEntity
  8
4
100
AcDbCircle
 10
808.5185474980244
 20
186.2885328785597
 30
0.0
 40
2.9999775
100
AcDbArc
 50
278.0324969999978
 51
351.9444130000001
  0
LINE
  5
30D
330
1B
100
AcDbEntity
  8
4
100
AcDbLine
 10
817.0944749980245
 20
170.8539628785598
 30
0.0
 11
817.0944749980245
 21
163.8539628785598
 31
0.0
  0
LINE
  5
30E
330
1B
100
AcDbEntity
  8
4
100
AcDbLine
 10
776.9604424980243
 20
163.8539628785598
 30
0.0
 11
776.9604424980243
 21
170.8539628785598
 31
0.0
  0
LINE
  5
30F
330
1B
100
AcDbEntity
  8
4
100
AcDbLine
 10
845.9604424980243
 20
213.8539628785598
 30
0.0
 11
845.9604424980243
 21
170.8539628785598
 31
0.0
  0
ARC
  5
310
330
1B
100
AcDbEntity
  8
4
100
AcDbCircle
 10
613.4604424980243
 20
213.8813078785598
 30
0.0
 40
199.9999675
100
AcDbArc
 50
351.9488289999999
 51
8.03449399999992
  0
LINE
  5
311
330
1B
100
AcDbEntity
  8
L-CENTER
 48
2.0
100
AcDbLine
 10
849.2621774980244
 20
183.8539628785598
 30
0.0
 11
840.3181074980243
 21
183.8539628785598
 31
0.0
  0
LINE
  5
312
330
1B
100
AcDbEntity
  8
4
100
AcDbLine
 10
846.9604724980245
 20
178.9628503785598
 30
0.0
 11
845.9604424980243
 21
179.1037178785598
 31
0.0
  0
LINE
  5
313
330
1B
100
AcDbEntity
  8
4
100
AcDbLine
 10
846.9604724980245
 20
188.7450753785598
 30
0.0
 11
845.9604424980243
 21
188.6044503785598
 31
0.0
  0
LINE
  5
314
330
1B
100
AcDbEntity
  8
L-CENTER
 48
2.0
100
AcDbLine
 10
861.4206474980242
 20
243.8539628785598
 30
0.0
 11
835.6717221857671
 21
243.8539628785598
 31
0.0
  0
LINE
  5
315
330
1B
100
AcDbEntity
  8
4
100
AcDbLine
 10
845.9604424980243
 20
213.8539628785598
 30
0.0
 11
847.9604424980243
 21
213.8539628785598
 31
0.0
  0
LINE
  5
316
330
1B
100
AcDbEntity
  8
4
100
AcDbLine
 10
769.9604424980243
 20
163.8539628785598
 30
0.0
 11
851.9604424980243
 21
163.8539628785598
 31
0.0
  0
LINE
  5
317
330
1B
100
AcDbEntity
  8
4
100
AcDbLine
 10
856.4604424980243
 20
256.3539628785597
 30
0.0
 11
856.4604424980243
 21
231.3539628785598
 31
0.0
  0
LINE
  5
318
330
1B
100
AcDbEntity
  8
4
100
AcDbLine
 10
851.4604424980243
 20
256.3539628785597
 30
0.0
 11
851.4604424980243
 21
231.3539628785598
 31
0.0
  0
LINE
  5
319
330
1B
100
AcDbEntity
  8
4
100
AcDbLine
 10
849.4604424980243
 20
256.3539628785597
 30
0.0
 11
849.4604424980243
 21
231.3539628785598
 31
0.0
  0
LINE
  5
31A
330
1B
100
AcDbEntity
  8
4
100
AcDbLine
 10
847.9604424980243
 20
255.3539628785597
 30
0.0
 11
847.9604424980243
 21
232.3539628785598
 31
0.0
  0
LINE
  5
31B
330
1B
100
AcDbEntity
  8
4
100
AcDbLine
 10
847.9604424980243
 20
213.8539628785598
 30
0.0
 11
847.9604424980243
 21
256.8539628785597
 31
0.0
  0
LINE
  5
31C
330
1B
100
AcDbEntity
  8
4
100
AcDbLine
 10
844.9604424980243
 20
170.8539628785598
 30
0.0
 11
844.9604424980243
 21
262.8539628785597
 31
0.0
  0
LINE
  5
320
330
1B
100
AcDbEntity
  8
4
100
AcDbLine
 10
763.9604424980243
 20
281.9054778785599
 30
0.0
 11
763.9604424980243
 21
289.8539628785597
 31
0.0
  0
LINE
  5
321
330
1B
100
AcDbEntity
  8
4
100
AcDbLine
 10
758.9604424980243
 20
282.0993228785596
 30
0.0
 11
758.9604424980243
 21
287.8539628785597
 31
0.0
  0
LINE
  5
322
330
1B
100
AcDbEntity
  8
4
100
AcDbLine
 10
750.9604424980243
 20
287.8539628785597
 30
0.0
 11
750.9604424980243
 21
288.8539628785597
 31
0.0
  0
LINE
  5
323
330
1B
100
AcDbEntity
  8
4
100
AcDbLine
 10
734.9604424980243
 20
282.7394603785597
 30
0.0
 11
734.9604424980243
 21
287.8539628785597
 31
0.0
  0
LINE
  5
324
330
1B
100
AcDbEntity
  8
4
100
AcDbLine
 10
728.4604424980243
 20
287.8539628785597
 30
0.0
 11
728.4604424980243
 21
288.8539628785597
 31
0.0
  0
LINE
  5
325
330
1B
100
AcDbEntity
  8
L-CENTER
 48
2.0
100
AcDbLine
 10
704.9604424980243
 20
290.3125860752725
 30
0.0
 11
704.9604424980243
 21
164.1403783990741
 31
0.0
  0
LINE
  5
328
330
1B
100
AcDbEntity
  8
4
100
AcDbLine
 10
670.9604424980243
 20
282.0993228785596
 30
0.0
 11
670.9604424980243
 21
287.8539628785597
 31
0.0
  0
LINE
  5
329
330
1B
100
AcDbEntity
  8
4
100
AcDbLine
 10
674.9604424980243
 20
282.2394603785597
 30
0.0
 11
674.9604424980243
 21
287.8539628785597
 31
0.0
  0
LINE
  5
32A
330
1B
100
AcDbEntity
  8
4
100
AcDbLine
 10
681.4604424980243
 20
287.8539628785597
 30
0.0
 11
681.4604424980243
 21
288.8539628785597
 31
0.0
  0
LINE
  5
32B
330
1B
100
AcDbEntity
  8
4
100
AcDbLine
 10
678.9604424980243
 20
287.8539628785597
 30
0.0
 11
678.9604424980243
 21
288.8539628785597
 31
0.0
  0
LINE
  5
32C
330
1B
100
AcDbEntity
  8
4
100
AcDbLine
 10
674.9604424980243
 20
287.8539628785597
 30
0.0
 11
734.9604424980243
 21
287.8539628785597
 31
0.0
  0
LINE
  5
32D
330
1B
100
AcDbEntity
  8
4
100
AcDbLine
 10
750.9604424980243
 20
288.8539628785597
 30
0.0
 11
678.9604424980243
 21
288.8539628785597
 31
0.0
  0
LINE
  5
32E
330
1B
100
AcDbEntity
  8
4
100
AcDbLine
 10
670.9604424980243
 20
287.8539628785597
 30
0.0
 11
758.9604424980243
 21
287.8539628785597
 31
0.0
  0
ARC
  5
32F
330
1B
100
AcDbEntity
  8
4
100
AcDbCircle
 10
753.3994074980244
 20
241.4164628785598
 30
0.0
 40
2.9999775
100
AcDbArc
 50
98.04174500000053
 51
171.9536410000001
  0
ARC
  5
330
330
1B
100
AcDbEntity
  8
4
100
AcDbCircle
 10
753.3964774980245
 20
186.2943928785599
 30
0.0
 40
2.9999775
100
AcDbArc
 50
188.0371309999994
 51
261.9490269999979
  0
LINE
  5
331
330
1B
100
AcDbEntity
  8
4
100
AcDbLine
 10
750.9604424980243
 20
167.8539628785598
 30
0.0
 11
750.9604424980243
 21
168.8539628785598
 31
0.0
  0
LINE
  5
332
330
1B
100
AcDbEntity
  8
4
100
AcDbLine
 10
758.9604424980243
 20
170.8539628785598
 30
0.0
 11
758.9604424980243
 21
168.8539628785598
 31
0.0
  0
LINE
  5
333
330
1B
100
AcDbEntity
  8
4
100
AcDbLine
 10
728.4604424980243
 20
168.8539628785598
 30
0.0
 11
728.4604424980243
 21
167.8539628785598
 31
0.0
  0
LINE
  5
334
330
1B
100
AcDbEntity
  8
4
100
AcDbLine
 10
734.9604424980243
 20
170.8539628785598
 30
0.0
 11
734.9604424980243
 21
168.8539628785598
 31
0.0
  0
ARC
  5
335
330
1B
100
AcDbEntity
  8
4
100
AcDbCircle
 10
948.4604424980243
 20
213.8449303785597
 30
0.0
 40
200.0001075
100
AcDbArc
 50
171.954912
 51
188.0391529999999
  0
LINE
  5
336
330
1B
100
AcDbEntity
  8
4
100
AcDbLine
 10
681.4604424980243
 20
168.8539628785598
 30
0.0
 11
681.4604424980243
 21
167.8539628785598
 31
0.0
  0
LINE
  5
337
330
1B
100
AcDbEntity
  8
4
100
AcDbLine
 10
678.9604424980243
 20
168.8539628785598
 30
0.0
 11
678.9604424980243
 21
167.8539628785598
 31
0.0
  0
LINE
  5
338
330
1B
100
AcDbEntity
  8
4
100
AcDbLine
 10
674.9604424980243
 20
168.8539628785598
 30
0.0
 11
674.9604424980243
 21
170.8539628785598
 31
0.0
  0
LINE
  5
339
330
1B
100
AcDbEntity
  8
4
100
AcDbLine
 10
670.9604424980243
 20
170.8539628785598
 30
0.0
 11
670.9604424980243
 21
168.8539628785598
 31
0.0
  0
LINE
  5
33A
330
1B
100
AcDbEntity
  8
4
100
AcDbLine
 10
652.9604424980243
 20
163.8539628785598
 30
0.0
 11
652.9604424980243
 21
170.8539628785598
 31
0.0
  0
ARC
  5
33B
330
1B
100
AcDbEntity
  8
4
100
AcDbCircle
 10
664.9604424980243
 20
165.8539628785598
 30
0.0
 40
5.0
100
AcDbArc
 50
90.0
 51
180.0
  0
LINE
  5
33C
330
1B
100
AcDbEntity
  8
4
100
AcDbLine
 10
612.8264099980242
 20
170.8539628785598
 30
0.0
 11
612.8264099980242
 21
163.8539628785598
 31
0.0
  0
LINE
  5
33D
330
1B
100
AcDbEntity
  8
4
100
AcDbLine
 10
750.9604424980243
 20
167.8539628785598
 30
0.0
 11
678.9604424980243
 21
167.8539628785598
 31
0.0
  0
LINE
  5
33E
330
1B
100
AcDbEntity
  8
4
100
AcDbLine
 10
758.9604424980243
 20
168.8539628785598
 30
0.0
 11
670.9604424980243
 21
168.8539628785598
 31
0.0
  0
LINE
  5
33F
330
1B
100
AcDbEntity
  8
4
100
AcDbLine
 10
763.9604424980243
 20
289.8539628785597
 30
0.0
 11
791.9604424980243
 21
289.8539628785597
 31
0.0
  0
ARC
  5
340
330
1B
100
AcDbEntity
  8
4
100
AcDbCircle
 10
764.9604424980243
 20
165.8539628785598
 30
0.0
 40
5.0
100
AcDbArc
 50
0.0
 51
90.0
  0
ARC
  5
341
330
1B
100
AcDbEntity
  8
4
100
AcDbCircle
 10
780.9787524980243
 20
381.3539628785597
 30
0.0
 40
199.999985
100
AcDbArc
 50
261.9516579999999
 51
278.036403
  0
ARC
  5
342
330
1B
100
AcDbEntity
  8
4
100
AcDbCircle
 10
780.9604424980243
 20
46.3539628785598
 30
0.0
 40
199.99993
100
AcDbArc
 50
81.95624799999999
 51
98.04226899999998
  0
CIRCLE
  5
343
330
1B
100
AcDbEntity
  8
4
100
AcDbCircle
 10
780.9604424980243
 20
213.8539628785598
 30
0.0
 40
23.5
  0
LINE
  5
34D
330
1B
100
AcDbEntity
  8
4
100
AcDbLine
 10
769.9604424980243
 20
143.8539628785598
 30
0.0
 11
854.9604424980243
 21
143.8539628785598
 31
0.0
  0
LINE
  5
356
330
1B
100
AcDbEntity
  8
L-CENTER
 48
2.0
100
AcDbLine
 10
780.9604424980243
 20
175.9935808594592
 30
0.0
 11
780.9604424980243
 21
251.7143448976603
 31
0.0
  0
LINE
  5
357
330
1B
100
AcDbEntity
  8
4
100
AcDbLine
 10
769.9604424980243
 20
165.8539628785598
 30
0.0
 11
769.9604424980243
 21
143.8539628785598
 31
0.0
  0
LINE
  5
358
330
1B
100
AcDbEntity
  8
4
100
AcDbLine
 10
659.9604424980243
 20
165.8539628785598
 30
0.0
 11
659.9604424980243
 21
143.8539628785598
 31
0.0
  0
LINE
  5
359
330
1B
100
AcDbEntity
  8
4
100
AcDbLine
 10
854.9604424980243
 20
143.8539628785598
 30
0.0
 11
854.9604424980243
 21
160.8539628785598
 31
0.0
  0
LINE
  5
35A
330
1B
100
AcDbEntity
  8
L-CENTER
 48
2.0
100
AcDbLine
 10
834.9604424980243
 20
135.8539628785598
 30
0.0
 11
834.9604424980243
 21
171.8539628785598
 31
0.0
  0
LINE
  5
35E
330
1B
100
AcDbEntity
  8
4
100
AcDbLine
 10
586.9604424980243
 20
262.8539628785597
 30
0.0
 11
586.9604424980243
 21
274.8539628785597
 31
0.0
  0
ARC
  5
360
330
1B
100
AcDbEntity
  8
4
100
AcDbCircle
 10
582.9604424980243
 20
160.8539628785598
 30
0.0
 40
3.0
100
AcDbArc
 50
90.0
 51
180.0
  0
LINE
  5
361
330
1B
100
AcDbEntity
  8
4
100
AcDbLine
 10
498.7555924086064
 20
205.8539628785598
 30
0.0
 11
497.7555924086064
 21
204.8539628785598
 31
0.0
  0
LINE
  5
363
330
1B
100
AcDbEntity
  8
4
100
AcDbLine
 10
497.7555924086064
 20
222.8539628785598
 30
0.0
 11
497.7555924086064
 21
204.8539628785598
 31
0.0
  0
LINE
  5
364
330
1B
100
AcDbEntity
  8
4
100
AcDbLine
 10
498.7555924086064
 20
205.8539628785598
 30
0.0
 11
498.7555924086064
 21
224.8539628785598
 31
0.0
  0
LINE
  5
365
330
1B
100
AcDbEntity
  8
4
100
AcDbLine
 10
497.7555924086064
 20
222.8539628785598
 30
0.0
 11
498.7555924086064
 21
221.8539628785598
 31
0.0
  0
LINE
  5
368
330
1B
100
AcDbEntity
  8
4
100
AcDbLine
 10
584.9604424980243
 20
170.8539628785598
 30
0.0
 11
584.9604424980243
 21
262.8539628785597
 31
0.0
  0
LINE
  5
36B
330
1B
100
AcDbEntity
  8
4
100
AcDbLine
 10
449.7555924086064
 20
246.3539628785598
 30
0.0
 11
438.7555924086064
 21
246.3539628785598
 31
0.0
  0
LINE
  5
36C
330
1B
100
AcDbEntity
  8
4
100
AcDbLine
 10
418.7555924086064
 20
277.8539628785597
 30
0.0
 11
418.7555924086064
 21
275.8539628785597
 31
0.0
  0
LINE
  5
36D
330
1B
100
AcDbEntity
  8
4
100
AcDbLine
 10
436.7555924086064
 20
274.8539628785597
 30
0.0
 11
436.7555924086064
 21
262.8539628785597
 31
0.0
  0
LINE
  5
36E
330
1B
100
AcDbEntity
  8
4
100
AcDbLine
 10
379.2555924086064
 20
287.8539628785597
 30
0.0
 11
379.2555924086064
 21
288.8539628785597
 31
0.0
  0
LINE
  5
36F
330
1B
100
AcDbEntity
  8
4
100
AcDbLine
 10
385.7555924086064
 20
280.4333078785598
 30
0.0
 11
385.7555924086064
 21
287.8539628785597
 31
0.0
  0
LINE
  5
370
330
1B
100
AcDbEntity
  8
4
100
AcDbLine
 10
321.2555924086064
 20
289.3539628785597
 30
0.0
 11
321.2555924086064
 21
291.3539628785597
 31
0.0
  0
LINE
  5
371
330
1B
100
AcDbEntity
  8
4
100
AcDbLine
 10
320.2555924086064
 20
287.8539628785597
 30
0.0
 11
320.2555924086064
 21
289.3539628785597
 31
0.0
  0
LINE
  5
372
330
1B
100
AcDbEntity
  8
4
100
AcDbLine
 10
332.2555924086064
 20
287.8539628785597
 30
0.0
 11
332.2555924086064
 21
288.8539628785597
 31
0.0
  0
LINE
  5
373
330
1B
100
AcDbEntity
  8
4
100
AcDbLine
 10
379.2555924086064
 20
288.8539628785597
 30
0.0
 11
332.2555924086064
 21
288.8539628785597
 31
0.0
  0
LINE
  5
374
330
1B
100
AcDbEntity
  8
4
100
AcDbLine
 10
325.7555924086064
 20
287.8539628785597
 30
0.0
 11
385.7555924086064
 21
287.8539628785597
 31
0.0
  0
LINE
  5
375
330
1B
100
AcDbEntity
  8
4
100
AcDbLine
 10
319.5807874086065
 20
291.3539628785597
 30
0.0
 11
319.5807874086065
 21
295.3539628785597
 31
0.0
  0
LINE
  5
376
330
1B
100
AcDbEntity
  8
4
100
AcDbLine
 10
463.7555924086064
 20
222.8539628785598
 30
0.0
 11
463.7555924086064
 21
224.8539628785598
 31
0.0
  0
LINE
  5
377
330
1B
100
AcDbEntity
  8
4
100
AcDbLine
 10
450.7555924086064
 20
237.3539628785598
 30
0.0
 11
449.7555924086064
 21
237.3539628785598
 31
0.0
  0
LINE
  5
378
330
1B
100
AcDbEntity
  8
4
100
AcDbLine
 10
450.7555924086064
 20
223.8539628785598
 30
0.0
 11
458.7555924086064
 21
223.8539628785598
 31
0.0
  0
LINE
  5
379
330
1B
100
AcDbEntity
  8
4
100
AcDbLine
 10
450.7555924086064
 20
203.8539628785598
 30
0.0
 11
458.7555924086064
 21
203.8539628785598
 31
0.0
  0
LINE
  5
37A
330
1B
100
AcDbEntity
  8
4
100
AcDbLine
 10
458.7555924086064
 20
203.8539628785598
 30
0.0
 11
458.7555924086064
 21
223.8539628785598
 31
0.0
  0
LINE
  5
37B
330
1B
100
AcDbEntity
  8
4
100
AcDbLine
 10
449.7555924086064
 20
181.3539628785598
 30
0.0
 11
438.7555924086064
 21
181.3539628785598
 31
0.0
  0
LINE
  5
37C
330
1B
100
AcDbEntity
  8
4
100
AcDbLine
 10
450.7555924086064
 20
190.3539628785598
 30
0.0
 11
449.7555924086064
 21
190.3539628785598
 31
0.0
  0
ARC
  5
37E
330
1B
100
AcDbEntity
  8
4
100
AcDbCircle
 10
428.2555924086064
 20
160.8539628785598
 30
0.0
 40
3.0
100
AcDbArc
 50
0.0
 51
90.0
  0
LINE
  5
37F
330
1B
100
AcDbEntity
  8
4
100
AcDbLine
 10
410.8898699086067
 20
163.8539628785598
 30
0.0
 11
410.8898699086067
 21
170.8539628785598
 31
0.0
  0
ARC
  5
380
330
1B
100
AcDbEntity
  8
4
100
AcDbCircle
 10
435.7555924086064
 20
173.8539628785598
 30
0.0
 40
3.0
100
AcDbArc
 50
270.0
 51
0.0
  0
LINE
  5
382
330
1B
100
AcDbEntity
  8
4
100
AcDbLine
 10
449.7555924086064
 20
181.3539628785598
 30
0.0
 11
449.7555924086064
 21
246.3539628785598
 31
0.0
  0
LINE
  5
383
330
1B
100
AcDbEntity
  8
4
100
AcDbLine
 10
450.7555924086064
 20
190.3539628785598
 30
0.0
 11
450.7555924086064
 21
237.3539628785598
 31
0.0
  0
ARC
  5
384
330
1B
100
AcDbEntity
  8
4
100
AcDbCircle
 10
392.9338149086066
 20
162.7086978785597
 30
0.0
 40
2.923875
100
AcDbArc
 50
282.4893679999993
 51
23.06038899999924
  0
ARC
  5
385
330
1B
100
AcDbEntity
  8
4
100
AcDbCircle
 10
394.1982174086065
 20
156.9992278785599
 30
0.0
 40
2.923875
100
AcDbArc
 50
102.4893680000039
 51
203.0603959999994
  0
ARC
  5
386
330
1B
100
AcDbEntity
  8
4
100
AcDbCircle
 10
394.1982174086065
 20
156.9992278785599
 30
0.0
 40
2.923875
100
AcDbArc
 50
102.4893680000039
 51
203.0603959999994
  0
ARC
  5
387
330
1B
100
AcDbEntity
  8
4
100
AcDbCircle
 10
392.9338149086066
 20
162.7086978785597
 30
0.0
 40
2.923875
100
AcDbArc
 50
282.4893679999993
 51
23.06038899999924
  0
LINE
  5
388
330
1B
100
AcDbEntity
  8
4
100
AcDbLine
 10
368.7558374086066
 20
165.8539628785598
 30
0.0
 11
368.7558374086066
 21
163.8539628785598
 31
0.0
  0
ARC
  5
389
330
1B
100
AcDbEntity
  8
4
100
AcDbCircle
 10
363.7558374086066
 20
165.8539628785598
 30
0.0
 40
5.0
100
AcDbArc
 50
0.0
 51
90.0
  0
LINE
  5
38A
330
1B
100
AcDbEntity
  8
4
100
AcDbLine
 10
332.2555924086064
 20
167.8539628785598
 30
0.0
 11
332.2555924086064
 21
168.8539628785598
 31
0.0
  0
LINE
  5
38B
330
1B
100
AcDbEntity
  8
4
100
AcDbLine
 10
325.7555924086064
 20
168.8539628785598
 30
0.0
 11
325.7555924086064
 21
170.8539628785598
 31
0.0
  0
LINE
  5
38C
330
1B
100
AcDbEntity
  8
4
100
AcDbLine
 10
332.2555924086064
 20
167.8539628785598
 30
0.0
 11
367.7558374086066
 21
167.8539628785598
 31
0.0
  0
LINE
  5
38D
330
1B
100
AcDbEntity
  8
4
100
AcDbLine
 10
325.7555924086064
 20
168.8539628785598
 30
0.0
 11
367.7558374086066
 21
168.8539628785598
 31
0.0
  0
LINE
  5
38E
330
1B
100
AcDbEntity
  8
4
100
AcDbLine
 10
435.7555924086064
 20
170.8539628785598
 30
0.0
 11
358.7555924086064
 21
170.8539628785598
 31
0.0
  0
LINE
  5
38F
330
1B
100
AcDbEntity
  8
4
100
AcDbLine
 10
363.7555924086064
 20
163.8539628785598
 30
0.0
 11
428.2555924086064
 21
163.8539628785598
 31
0.0
  0
LINE
  5
390
330
1B
100
AcDbEntity
  8
L-CENTER
 48
2.0
100
AcDbLine
 10
355.7555924086064
 20
163.9262302199541
 30
0.0
 11
355.7555924086064
 21
294.4740803785598
 31
0.0
  0
LINE
  5
391
330
1B
100
AcDbEntity
  8
4
100
AcDbLine
 10
438.7555924086064
 20
173.8539628785598
 30
0.0
 11
438.7555924086064
 21
262.8539628785597
 31
0.0
  0
LINE
  5
393
330
1B
100
AcDbEntity
  8
4
100
AcDbLine
 10
497.7555924086064
 20
204.8539628785598
 30
0.0
 11
458.7555924086064
 21
204.8539628785598
 31
0.0
  0
LINE
  5
394
330
1B
100
AcDbEntity
  8
4
100
AcDbLine
 10
497.7555924086064
 20
222.8539628785598
 30
0.0
 11
458.7555924086064
 21
222.8539628785598
 31
0.0
  0
LINE
  5
395
330
1B
100
AcDbEntity
  8
4
100
AcDbLine
 10
498.7555924086064
 20
224.8539628785598
 30
0.0
 11
463.7555924086064
 21
224.8539628785598
 31
0.0
  0
ARC
  5
3A6
330
1B
100
AcDbEntity
  8
4
100
AcDbCircle
 10
390.0824974086065
 20
148.9992278785599
 30
0.0
 40
2.923875
100
AcDbArc
 50
102.4893679999993
 51
203.0603889999992
  0
ARC
  5
3A7
330
1B
100
AcDbEntity
  8
4
100
AcDbCircle
 10
384.7021249086065
 20
146.7086978785597
 30
0.0
 40
2.923875
100
AcDbArc
 50
282.4893679999993
 51
23.06039599999936
  0
ARC
  5
3A8
330
1B
100
AcDbEntity
  8
4
100
AcDbCircle
 10
384.7021249086065
 20
146.7086978785597
 30
0.0
 40
2.923875
100
AcDbArc
 50
282.4893679999993
 51
23.06039599999936
  0
ARC
  5
3A9
330
1B
100
AcDbEntity
  8
4
100
AcDbCircle
 10
390.0824974086065
 20
148.9992278785599
 30
0.0
 40
2.923875
100
AcDbArc
 50
102.4893679999993
 51
203.0603889999992
  0
LINE
  5
3AA
330
1B
100
AcDbEntity
  8
4
100
AcDbLine
 10
363.7555924086064
 20
143.8539628785598
 30
0.0
 11
431.2555924086064
 21
143.8539628785598
 31
0.0
  0
LINE
  5
3AD
330
1B
100
AcDbEntity
  8
L-CENTER
 48
2.0
100
AcDbLine
 10
599.9604424980243
 20
171.8539628785598
 30
0.0
 11
599.9604424980243
 21
135.8539628785598
 31
0.0
  0
LINE
  5
3AE
330
1B
100
AcDbEntity
  8
4
100
AcDbLine
 10
579.9604424980243
 20
143.8539628785598
 30
0.0
 11
579.9604424980243
 21
160.8539628785598
 31
0.0
  0
LINE
  5
3AF
330
1B
100
AcDbEntity
  8
4
100
AcDbLine
 10
363.7555924086064
 20
163.8539628785598
 30
0.0
 11
363.7555924086064
 21
143.8539628785598
 31
0.0
  0
LINE
  5
3B0
330
1B
100
AcDbEntity
  8
4
100
AcDbLine
 10
431.2555924086064
 20
143.8539628785598
 30
0.0
 11
431.2555924086064
 21
160.8539628785598
 31
0.0
  0
LINE
  5
3B1
330
1B
100
AcDbEntity
  8
4
100
AcDbLine
 10
378.7555924086064
 20
163.8539628785598
 30
0.0
 11
378.7555924086064
 21
143.8539628785598
 31
0.0
  0
LINE
  5
3B2
330
1B
100
AcDbEntity
  8
L-CENTER
 48
2.0
100
AcDbLine
 10
408.7555924086064
 20
171.8539628785598
 30
0.0
 11
408.7555924086064
 21
135.8539628785598
 31
0.0
  0
LINE
  5
3B3
330
1B
100
AcDbEntity
  8
4
100
AcDbLine
 10
401.7555924086064
 20
143.8539628785598
 30
0.0
 11
401.7555924086064
 21
163.8539628785598
 31
0.0
  0
LINE
  5
3B4
330
1B
100
AcDbEntity
  8
4
100
AcDbLine
 10
415.7555924086064
 20
143.8539628785598
 30
0.0
 11
415.7555924086064
 21
163.8539628785598
 31
0.0
  0
ARC
  5
3B5
330
1B
100
AcDbEntity
  8
4
100
AcDbCircle
 10
388.8180924086064
 20
154.7086978785597
 30
0.0
 40
2.923875
100
AcDbArc
 50
282.489387000005
 51
23.06038899999924
  0
ARC
  5
3B6
330
1B
100
AcDbEntity
  8
4
100
AcDbCircle
 10
388.8180924086064
 20
154.7086978785597
 30
0.0
 40
2.923875
100
AcDbArc
 50
282.489387000005
 51
23.06038899999924
  0
LINE
  5
3B9
330
1B
100
AcDbEntity
  8
4
100
AcDbLine
 10
845.9604424980243
 20
170.8539628785598
 30
0.0
 11
584.9604424980243
 21
170.8539628785598
 31
0.0
  0
LINE
  5
3BA
330
1B
100
AcDbEntity
  8
4
100
AcDbLine
 10
841.9604424980243
 20
275.8539628785597
 30
0.0
 11
587.9604424980243
 21
275.8539628785597
 31
0.0
  0
ARC
  5
3BB
330
1B
100
AcDbEntity
  8
4
100
AcDbCircle
 10
714.9604424980243
 20
-917.09379212144
 30
0.0
 40
1199.999985
100
AcDbArc
 50
85.3432669015492
 51
89.68964633943499
  0
LINE
  5
3BC
330
1B
100
AcDbEntity
  8
4
100
AcDbLine
 10
811.633490952157
 20
277.8539628785597
 30
0.0
 11
722.2104424980243
 21
277.8539628785597
 31
0.0
  0
LINE
  5
3BD
330
1B
100
AcDbEntity
  8
L-CENTER
 48
2.0
100
AcDbLine
 10
818.820824517125
 20
213.8539628785598
 30
0.0
 11
743.1000604789238
 21
213.8539628785598
 31
0.0
  0
LINE
  5
3BE
330
1B
100
AcDbEntity
  8
2
100
AcDbLine
 10
842.9604424980243
 20
265.1539628785597
 30
0.0
 11
586.9604424980243
 21
265.1539628785597
 31
0.0
  0
LINE
  5
3BF
330
1B
100
AcDbEntity
  8
4
100
AcDbLine
 10
842.9604424980243
 20
264.8539628785597
 30
0.0
 11
586.9604424980243
 21
264.8539628785597
 31
0.0
  0
LINE
  5
3C0
330
1B
100
AcDbEntity
  8
4
100
AcDbLine
 10
844.9604424980243
 20
262.8539628785597
 30
0.0
 11
584.9604424980243
 21
262.8539628785597
 31
0.0
  0
LINE
  5
3C1
330
1B
100
AcDbEntity
  8
4
100
AcDbLine
 10
579.9604424980243
 20
143.8539628785598
 30
0.0
 11
659.9604424980243
 21
143.8539628785598
 31
0.0
  0
LINE
  5
3C2
330
1B
100
AcDbEntity
  8
4
100
AcDbLine
 10
582.9604424980243
 20
163.8539628785598
 30
0.0
 11
659.9604424980243
 21
163.8539628785598
 31
0.0
  0
LINE
  5
3DE
330
1B
100
AcDbEntity
  8
4
100
AcDbLine
 10
297.2555924086064
 20
287.8539628785597
 30
0.0
 11
297.2555924086064
 21
289.3539628785597
 31
0.0
  0
LINE
  5
3DF
330
1B
100
AcDbEntity
  8
4
100
AcDbLine
 10
296.2555924086064
 20
289.3539628785597
 30
0.0
 11
296.2555924086064
 21
291.3539628785597
 31
0.0
  0
LINE
  5
3E2
330
1B
100
AcDbEntity
  8
4
 48
2.5
100
AcDbLine
 10
326.2555924086064
 20
287.8539628785597
 30
0.0
 11
326.2555924086064
 21
281.251301747601
 31
0.0
  0
LINE
  5
3E3
330
1B
100
AcDbEntity
  8
4
 48
2.5
100
AcDbLine
 10
291.2555924086064
 20
287.8539628785597
 30
0.0
 11
291.2555924086064
 21
281.2513017476008
 31
0.0
  0
LINE
  5
3E4
330
1B
100
AcDbEntity
  8
L-CENTER
 48
2.0
100
AcDbLine
 10
308.7555924086064
 20
298.3410228785597
 30
0.0
 11
308.7555924086064
 21
161.688731486544
 31
0.0
  0
LINE
  5
3E5
330
1B
100
AcDbEntity
  8
4
100
AcDbLine
 10
297.9301524086063
 20
291.3539628785597
 30
0.0
 11
297.9301524086063
 21
295.3539628785597
 31
0.0
  0
LINE
  5
3E6
330
1B
100
AcDbEntity
  8
4
100
AcDbLine
 10
235.3456499086064
 20
287.8539628785597
 30
0.0
 11
235.3456499086064
 21
288.8539628785597
 31
0.0
  0
LINE
  5
3E7
330
1B
100
AcDbEntity
  8
4
100
AcDbLine
 10
227.3456499086064
 20
280.1415603785597
 30
0.0
 11
227.3456499086064
 21
287.8539628785597
 31
0.0
  0
LINE
  5
3E8
330
1B
100
AcDbEntity
  8
4
100
AcDbLine
 10
198.7556524086065
 20
275.8539628785597
 30
0.0
 11
198.7556524086065
 21
277.8539628785597
 31
0.0
  0
LINE
  5
3E9
330
1B
100
AcDbEntity
  8
4
100
AcDbLine
 10
167.7555924086064
 20
246.3539628785598
 30
0.0
 11
178.7556524086065
 21
246.3539628785598
 31
0.0
  0
LINE
  5
3EA
330
1B
100
AcDbEntity
  8
4
100
AcDbLine
 10
180.7556524086067
 20
262.8539628785597
 30
0.0
 11
180.7556524086067
 21
274.8539628785597
 31
0.0
  0
LINE
  5
3EB
330
1B
100
AcDbEntity
  8
4
100
AcDbLine
 10
297.2555924086064
 20
288.8539628785597
 30
0.0
 11
235.3456499086064
 21
288.8539628785597
 31
0.0
  0
LINE
  5
3EC
330
1B
100
AcDbEntity
  8
4
100
AcDbLine
 10
227.3456499086064
 20
287.8539628785597
 30
0.0
 11
315.3454349086064
 21
287.8539628785597
 31
0.0
  0
LINE
  5
3ED
330
1B
100
AcDbEntity
  8
4
100
AcDbLine
 10
307.3454349086064
 20
167.8539628785598
 30
0.0
 11
307.3454349086064
 21
168.8539628785598
 31
0.0
  0
LINE
  5
3EE
330
1B
100
AcDbEntity
  8
4
100
AcDbLine
 10
315.3454349086064
 20
168.8539628785598
 30
0.0
 11
315.3454349086064
 21
170.8539628785598
 31
0.0
  0
LINE
  5
3EF
330
1B
100
AcDbEntity
  8
4
100
AcDbLine
 10
248.7556524086067
 20
165.8539628785598
 30
0.0
 11
248.7556524086067
 21
163.8539628785598
 31
0.0
  0
ARC
  5
3F0
330
1B
100
AcDbEntity
  8
4
100
AcDbCircle
 10
253.7555924086064
 20
165.8539628785598
 30
0.0
 40
5.0
100
AcDbArc
 50
90.0
 51
180.0
  0
LINE
  5
3F1
330
1B
100
AcDbEntity
  8
4
100
AcDbLine
 10
307.3454349086064
 20
167.8539628785598
 30
0.0
 11
249.1730167136506
 21
167.8539628785598
 31
0.0
  0
LINE
  5
3F2
330
1B
100
AcDbEntity
  8
4
100
AcDbLine
 10
249.7556524086067
 20
168.8539628785598
 30
0.0
 11
315.3454349086064
 21
168.8539628785598
 31
0.0
  0
LINE
  5
3F3
330
1B
100
AcDbEntity
  8
4
100
AcDbLine
 10
166.7555924086064
 20
237.3539628785598
 30
0.0
 11
167.7555924086064
 21
237.3539628785598
 31
0.0
  0
LINE
  5
3F4
330
1B
100
AcDbEntity
  8
4
100
AcDbLine
 10
206.6217274086066
 20
163.8539628785598
 30
0.0
 11
206.6217274086066
 21
170.8539628785598
 31
0.0
  0
LINE
  5
3F5
330
1B
100
AcDbEntity
  8
4
100
AcDbLine
 10
166.7555924086064
 20
190.3539628785598
 30
0.0
 11
167.7555924086064
 21
190.3539628785598
 31
0.0
  0
LINE
  5
3F6
330
1B
100
AcDbEntity
  8
4
100
AcDbLine
 10
167.7555924086064
 20
181.3539628785598
 30
0.0
 11
178.7556524086065
 21
181.3539628785598
 31
0.0
  0
ARC
  5
3F7
330
1B
100
AcDbEntity
  8
4
100
AcDbCircle
 10
181.7556524086067
 20
173.8539628785598
 30
0.0
 40
3.0
100
AcDbArc
 50
180.0
 51
270.0008789999981
  0
ARC
  5
3F8
330
1B
100
AcDbEntity
  8
4
100
AcDbCircle
 10
189.2556524086067
 20
160.8539628785598
 30
0.0
 40
3.0
100
AcDbArc
 50
90.0
 51
180.0
  0
LINE
  5
3F9
330
1B
100
AcDbEntity
  8
4
100
AcDbLine
 10
166.7555924086064
 20
190.3539628785598
 30
0.0
 11
166.7555924086064
 21
237.3539628785598
 31
0.0
  0
LINE
  5
3FA
330
1B
100
AcDbEntity
  8
4
100
AcDbLine
 10
167.7555924086064
 20
181.3539628785598
 30
0.0
 11
167.7555924086064
 21
246.3539628785598
 31
0.0
  0
LINE
  5
3FB
330
1B
100
AcDbEntity
  8
4
100
AcDbLine
 10
181.7556524086067
 20
170.8539628785598
 30
0.0
 11
248.7556524086067
 21
170.8539628785598
 31
0.0
  0
LINE
  5
3FC
330
1B
100
AcDbEntity
  8
4
100
AcDbLine
 10
189.2556524086067
 20
163.8539628785598
 30
0.0
 11
253.7555924086064
 21
163.8539628785598
 31
0.0
  0
LINE
  5
3FD
330
1B
100
AcDbEntity
  8
4
100
AcDbLine
 10
178.7556524086065
 20
173.8539628785598
 30
0.0
 11
178.7556524086065
 21
262.8539628785597
 31
0.0
  0
LINE
  5
403
330
1B
100
AcDbEntity
  8
4
100
AcDbLine
 10
186.2556524086065
 20
143.8539628785598
 30
0.0
 11
253.7555924086064
 21
143.8539628785598
 31
0.0
  0
LINE
  5
408
330
1B
100
AcDbEntity
  8
4
100
AcDbLine
 10
253.7555924086064
 20
163.8539628785598
 30
0.0
 11
253.7555924086064
 21
143.8539628785598
 31
0.0
  0
LINE
  5
409
330
1B
100
AcDbEntity
  8
4
100
AcDbLine
 10
238.7556524086067
 20
163.8539628785598
 30
0.0
 11
238.7556524086067
 21
143.8539628785598
 31
0.0
  0
LINE
  5
40A
330
1B
100
AcDbEntity
  8
L-CENTER
 48
2.0
100
AcDbLine
 10
208.7556524086065
 20
135.8539628785598
 30
0.0
 11
208.7556524086065
 21
171.8539628785598
 31
0.0
  0
LINE
  5
40B
330
1B
100
AcDbEntity
  8
4
100
AcDbLine
 10
186.2556524086065
 20
143.8539628785598
 30
0.0
 11
186.2556524086065
 21
160.8539628785598
 31
0.0
  0
LINE
  5
436
330
1B
100
AcDbEntity
  8
L-CENTER
 48
2.0
100
AcDbLine
 10
162.7961778424188
 20
213.8539628785598
 30
0.0
 11
501.0506088169573
 21
213.8539628785598
 31
0.0
  0
LINE
  5
437
330
1B
100
AcDbEntity
  8
4
100
AcDbLine
 10
326.2555924086064
 20
287.8539628785597
 30
0.0
 11
297.2555924086064
 21
287.8539628785597
 31
0.0
  0
LINE
  5
438
330
1B
100
AcDbEntity
  8
4
100
AcDbLine
 10
319.5807874086065
 20
295.3539628785597
 30
0.0
 11
297.9301524086063
 21
295.3539628785597
 31
0.0
  0
LINE
  5
439
330
1B
100
AcDbEntity
  8
4
100
AcDbLine
 10
321.2555924086064
 20
291.3539628785597
 30
0.0
 11
296.2555924086064
 21
291.3539628785597
 31
0.0
  0
LINE
  5
43A
330
1B
100
AcDbEntity
  8
4
100
AcDbLine
 10
321.2555924086064
 20
289.3539628785597
 30
0.0
 11
296.2555924086064
 21
289.3539628785597
 31
0.0
  0
LINE
  5
43B
330
1B
100
AcDbEntity
  8
4
100
AcDbLine
 10
418.7555924086064
 20
277.8539628785597
 30
0.0
 11
376.0060348279358
 21
277.8539628785597
 31
0.0
  0
ARC
  5
43C
330
1B
100
AcDbEntity
  8
4
100
AcDbCircle
 10
308.7555924086064
 20
-917.09379212144
 30
0.0
 40
1200.00005
100
AcDbArc
 50
84.740515
 51
86.82321046461465
  0
LINE
  5
43D
330
1B
100
AcDbEntity
  8
4
100
AcDbLine
 10
435.7555924086064
 20
275.8539628785597
 30
0.0
 11
181.7556524086067
 21
275.8539628785597
 31
0.0
  0
LINE
  5
43E
330
1B
100
AcDbEntity
  8
4
100
AcDbLine
 10
358.7555924086064
 20
170.8539628785598
 30
0.0
 11
248.7556524086067
 21
170.8539628785598
 31
0.0
  0
LINE
  5
43F
330
1B
100
AcDbEntity
  8
4
100
AcDbLine
 10
438.7555924086064
 20
262.8539628785597
 30
0.0
 11
178.7556524086065
 21
262.8539628785597
 31
0.0
  0
LINE
  5
440
330
1B
100
AcDbEntity
  8
2
100
AcDbLine
 10
436.7555924086064
 20
265.1539628785597
 30
0.0
 11
180.7556524086067
 21
265.1539628785597
 31
0.0
  0
LINE
  5
441
330
1B
100
AcDbEntity
  8
4
100
AcDbLine
 10
436.7555924086064
 20
264.8539628785597
 30
0.0
 11
180.7556524086067
 21
264.8539628785597
 31
0.0
  0
LINE
  5
450
330
1B
100
AcDbEntity
  8
L-CENTER
 48
2.0
100
AcDbLine
 10
714.9604424980243
 20
294.4740803785598
 30
0.0
 11
714.9604424980243
 21
94.65938287855994
 31
0.0
  0
LINE
  5
455
330
1B
100
AcDbEntity
  8
L-CENTER
 48
2.0
100
AcDbLine
 10
271.3454349086064
 20
294.4740803785598
 30
0.0
 11
271.3454349086064
 21
94.65938287855994
 31
0.0
  0
LINE
  5
4F1
330
1B
100
AcDbEntity
  8
4
100
AcDbLine
 10
253.8454349086064
 20
167.8539628785598
 30
0.0
 11
253.8454349086064
 21
157.8539628785598
 31
0.0
  0
LINE
  5
4F2
330
1B
100
AcDbEntity
  8
4
100
AcDbLine
 10
288.8454349086064
 20
167.8539628785598
 30
0.0
 11
288.8454349086064
 21
157.8539628785598
 31
0.0
  0
ARC
  5
4F3
330
1B
100
AcDbEntity
  8
4
100
AcDbCircle
 10
271.3454349086064
 20
147.8539628785598
 30
0.0
 40
5.0
100
AcDbArc
 50
0.0
 51
90.0
  0
LINE
  5
4F4
330
1B
100
AcDbEntity
  8
4
100
AcDbLine
 10
288.8454349086064
 20
157.8539628785598
 30
0.0
 11
253.8454349086064
 21
157.8539628785598
 31
0.0
  0
ARC
  5
4F5
330
1B
100
AcDbEntity
  8
4
100
AcDbCircle
 10
271.3454349086064
 20
147.8539628785598
 30
0.0
 40
5.0
100
AcDbArc
 50
90.0
 51
180.0
  0
LINE
  5
4F6
330
1B
100
AcDbEntity
  8
4
100
AcDbLine
 10
271.3454349086064
 20
152.8539628785598
 30
0.0
 11
271.3454349086064
 21
152.8539628785598
 31
0.0
  0
LINE
  5
4F7
330
1B
100
AcDbEntity
  8
4
100
AcDbLine
 10
732.4604424980243
 20
167.8539628785598
 30
0.0
 11
732.4604424980243
 21
157.8539628785598
 31
0.0
  0
LINE
  5
4F8
330
1B
100
AcDbEntity
  8
4
100
AcDbLine
 10
697.4604424980243
 20
167.8539628785598
 30
0.0
 11
697.4604424980243
 21
157.8539628785598
 31
0.0
  0
LINE
  5
4F9
330
1B
100
AcDbEntity
  8
4
100
AcDbLine
 10
732.4604424980243
 20
157.8539628785598
 30
0.0
 11
697.4604424980243
 21
157.8539628785598
 31
0.0
  0
LINE
  5
4FA
330
1B
100
AcDbEntity
  8
4
100
AcDbLine
 10
695.4604424980243
 20
152.8539628785598
 30
0.0
 11
698.9604424980243
 21
152.8539628785598
 31
0.0
  0
LINE
  5
4FB
330
1B
100
AcDbEntity
  8
4
100
AcDbLine
 10
276.3454349086064
 20
98.8539628785598
 30
0.0
 11
287.3454349086064
 21
98.8539628785598
 31
0.0
  0
LINE
  5
4FC
330
1B
100
AcDbEntity
  8
4
100
AcDbLine
 10
256.3454349086064
 20
97.8539628785598
 30
0.0
 11
286.3454349086064
 21
97.8539628785598
 31
0.0
  0
LINE
  5
4FD
330
1B
100
AcDbEntity
  8
4
100
AcDbLine
 10
255.3454349086064
 20
98.8539628785598
 30
0.0
 11
266.3454349086064
 21
98.8539628785598
 31
0.0
  0
LINE
  5
4FE
330
1B
100
AcDbEntity
  8
4
100
AcDbLine
 10
256.3454349086064
 20
97.8539628785598
 30
0.0
 11
255.3454349086064
 21
98.8539628785598
 31
0.0
  0
LINE
  5
4FF
330
1B
100
AcDbEntity
  8
4
100
AcDbLine
 10
286.3454349086064
 20
97.8539628785598
 30
0.0
 11
287.3454349086064
 21
98.8539628785598
 31
0.0
  0
LINE
  5
500
330
1B
100
AcDbEntity
  8
4
100
AcDbLine
 10
698.9604424980243
 20
98.8539628785598
 30
0.0
 11
730.9604424980243
 21
98.8539628785598
 31
0.0
  0
LINE
  5
501
330
1B
100
AcDbEntity
  8
4
100
AcDbLine
 10
695.4604424980243
 20
97.8539628785598
 30
0.0
 11
729.9604424980243
 21
97.8539628785598
 31
0.0
  0
LINE
  5
502
330
1B
100
AcDbEntity
  8
4
100
AcDbLine
 10
699.9604424980243
 20
97.8539628785598
 30
0.0
 11
698.9604424980243
 21
98.8539628785598
 31
0.0
  0
LINE
  5
503
330
1B
100
AcDbEntity
  8
4
100
AcDbLine
 10
729.9604424980243
 20
97.8539628785598
 30
0.0
 11
730.9604424980243
 21
98.8539628785598
 31
0.0
  0
LINE
  5
504
330
1B
100
AcDbEntity
  8
4
100
AcDbLine
 10
730.9604424980243
 20
98.8539628785598
 30
0.0
 11
730.9604424980243
 21
157.8539628785598
 31
0.0
  0
LINE
  5
505
330
1B
100
AcDbEntity
  8
4
100
AcDbLine
 10
698.9604424980243
 20
98.8539628785598
 30
0.0
 11
698.9604424980243
 21
157.8539628785598
 31
0.0
  0
LINE
  5
506
330
1B
100
AcDbEntity
  8
4
100
AcDbLine
 10
287.3454349086064
 20
98.8539628785598
 30
0.0
 11
287.3454349086064
 21
157.8539628785598
 31
0.0
  0
LINE
  5
507
330
1B
100
AcDbEntity
  8
4
100
AcDbLine
 10
255.3454349086064
 20
98.8539628785598
 30
0.0
 11
255.3454349086064
 21
157.8539628785598
 31
0.0
  0
LINE
  5
508
330
1B
100
AcDbEntity
  8
4
100
AcDbLine
 10
266.3454349086064
 20
97.8539628785598
 30
0.0
 11
266.3454349086064
 21
147.8539628785598
 31
0.0
  0
LINE
  5
509
330
1B
100
AcDbEntity
  8
4
100
AcDbLine
 10
276.3454349086064
 20
97.8539628785598
 30
0.0
 11
276.3454349086064
 21
147.8539628785598
 31
0.0
  0
LINE
  5
50A
330
1B
100
AcDbEntity
  8
4
100
AcDbLine
 10
695.4604424980243
 20
97.8539628785598
 30
0.0
 11
695.4604424980243
 21
152.8539628785598
 31
0.0
  0
LINE
  5
545
330
1B
100
AcDbEntity
  8
L-CENTER
 48
2.0
100
AcDbLine
 10
271.3454349086064
 20
69.63304793050281
 30
0.0
 11
271.3454349086064
 21
23.43309309062727
 31
0.0
  0
LINE
  5
546
330
1B
100
AcDbEntity
  8
4
100
AcDbLine
 10
276.3454349086064
 20
58.03307051056515
 30
0.0
 11
276.3454349086064
 21
66.03307051056504
 31
0.0
  0
LINE
  5
547
330
1B
100
AcDbEntity
  8
4
100
AcDbLine
 10
266.3454349086064
 20
58.03307051056515
 30
0.0
 11
266.3454349086064
 21
66.03307051056504
 31
0.0
  0
LINE
  5
548
330
1B
100
AcDbEntity
  8
4
100
AcDbLine
 10
276.3454349086064
 20
58.03307051056515
 30
0.0
 11
266.3454349086064
 21
58.03307051056515
 31
0.0
  0
LINE
  5
54B
330
1B
100
AcDbEntity
  8
4
100
AcDbLine
 10
266.3454349086064
 20
66.03307051056504
 30
0.0
 11
276.3454349086064
 21
66.03307051056504
 31
0.0
  0
ARC
  5
54D
330
1B
100
AcDbEntity
  8
4
100
AcDbCircle
 10
271.3454349086064
 20
46.53307051056504
 30
0.0
 40
16.0000225
100
AcDbArc
 50
108.2099303580179
 51
71.79006900000009
  0
LINE
  5
54E
330
1B
100
AcDbEntity
  8
L-CENTER
 48
2.0
100
AcDbLine
 10
294.4454123285443
 20
46.53307051056504
 30
0.0
 11
248.2454574886688
 21
46.53307051056504
 31
0.0
  0
ENDSEC
  0
SECTION
  2
OBJECTS
  0
DICTIONARY
  5
9
330
0
100
AcDbDictionary
281
     1
  3
ACAD_COLOR
350
2E
  3
ACAD_GROUP
350
2C
  3
ACAD_LAYOUT
350
24
  3
ACAD_MATERIAL
350
B
  3
ACAD_MLEADERSTYLE
350
465
  3
ACAD_MLINESTYLE
350
19
  3
ACAD_PLOTSETTINGS
350
2D
  3
ACAD_PLOTSTYLENAME
350
8
  3
ACAD_SCALELIST
350
35
  3
ACAD_TABLESTYLE
350
464
  3
ACAD_VISUALSTYLE
350
2F
  3
ACDBHEADERROUNDTRIPXREC
350
551
  3
AcDbVariableDictionary
350
462
  3
DWGPROPS
350
554
  0
DICTIONARY
  5
555
330
2B
100
AcDbDictionary
280
     1
281
     1
  3
ACAD_XREC_ROUNDTRIP
360
556
  0
DICTIONARY
  5
3
330
2
100
AcDbDictionary
280
     1
281
     1
  3
ACAD_LAYERSTATES
360
4
  0
DICTIONARY
  5
20
330
1F
100
AcDbDictionary
280
     1
281
     1
  3
ADSK_XREC_LAYER_RECONCILED
360
21
  0
DICTIONARY
  5
75
330
74
100
AcDbDictionary
280
     1
281
     1
  3
ADSK_XREC_LAYER_RECONCILED
360
76
  0
DICTIONARY
  5
5
330
1
100
AcDbDictionary
280
     1
281
     1
  3
ADSK_XREC_LAYER_RECONCILED
360
6
  0
DICTIONARY
  5
68
330
67
100
AcDbDictionary
280
     1
281
     1
  3
ADSK_XREC_LAYER_RECONCILED
360
69
  0
DICTIONARY
  5
5B
330
5A
100
AcDbDictionary
280
     1
281
     1
  3
ADSK_XREC_LAYER_RECONCILED
360
5C
  0
DICTIONARY
  5
63
330
62
100
AcDbDictionary
280
     1
281
     1
  3
ADSK_XREC_LAYER_RECONCILED
360
64
  0
DICTIONARY
  5
1C
330
1B
100
AcDbDictionary
280
     1
281
     1
  3
ACAD_SORTENTS
360
1D
  0
DICTIONARY
  5
2E
102
{ACAD_REACTORS
330
9
102
}
330
9
100
AcDbDictionary
281
     1
  0
DICTIONARY
  5
2C
102
{ACAD_REACTORS
330
9
102
}
330
9
100
AcDbDictionary
281
     1
  0
DICTIONARY
  5
24
102
{ACAD_REACTORS
330
9
102
}
330
9
100
AcDbDictionary
281
     1
  3
Model
350
23
  3
ﾚｲｱｳﾄ1
350
28
  0
DICTIONARY
  5
B
102
{ACAD_REACTORS
330
9
102
}
330
9
100
AcDbDictionary
281
     1
  3
ByBlock
350
58
  3
ByLayer
350
14
  3
Global
350
A
  0
DICTIONARY
  5
465
102
{ACAD_REACTORS
330
9
102
}
330
9
100
AcDbDictionary
281
     1
  3
Standard
350
498
  0
DICTIONARY
  5
19
102
{ACAD_REACTORS
330
9
102
}
330
9
100
AcDbDictionary
281
     1
  3
STANDARD
350
18
  0
DICTIONARY
  5
2D
102
{ACAD_REACTORS
330
9
102
}
330
9
100
AcDbDictionary
281
     1
  0
ACDBDICTIONARYWDFLT
  5
8
102
{ACAD_REACTORS
330
9
102
}
330
9
100
AcDbDictionary
281
     1
  3
Normal
350
7
100
AcDbDictionaryWithDefault
340
7
  0
DICTIONARY
  5
35
102
{ACAD_REACTORS
330
9
102
}
330
9
100
AcDbDictionary
281
     1
  3
*A1
350
57
  0
DICTIONARY
  5
464
102
{ACAD_REACTORS
330
9
102
}
330
9
100
AcDbDictionary
281
     1
  3
Standard
350
49B
  0
DICTIONARY
  5
2F
102
{ACAD_REACTORS
330
9
102
}
330
9
100
AcDbDictionary
281
     1
  3
2dWireframe
350
46D
  3
Basic
350
46F
  3
Brighten
350
472
  3
ColorChange
350
476
  3
Conceptual
350
470
  3
Dim
350
471
  3
EdgeColorOff
350
479
  3
Facepattern
350
475
  3
Flat
350
469
  3
FlatWithEdges
350
46A
  3
Gouraud
350
46B
  3
GouraudWithEdges
350
46C
  3
Hidden
350
46E
  3
JitterOff
350
477
  3
Linepattern
350
474
  3
OverhangOff
350
478
  3
Realistic
350
30
  3
Shaded
350
47E
  3
Shaded with edges
350
47D
  3
Shades of Gray
350
47A
  3
Sketchy
350
47B
  3
Thicken
350
473
  3
Wireframe
350
31
  3
X-Ray
350
47C
  0
DICTIONARY
  5
551
102
{ACAD_REACTORS
330
9
102
}
330
9
100
AcDbDictionary
281
     1
  3
COLORDICT
350
552
  3
MATERIALDICT
350
553
  0
DICTIONARY
  5
462
102
{ACAD_REACTORS
330
9
102
}
330
9
100
AcDbDictionary
281
     1
  3
CANNOSCALE
350
463
  3
CMLEADERSTYLE
350
49A
  3
CTABLESTYLE
350
49C
  3
DIMASSOC
350
54F
  3
HIDETEXT
350
550
  3
MSLTSCALE
350
557
  3
XCLIPFRAME
350
466
  0
XRECORD
  5
554
102
{ACAD_REACTORS
330
9
102
}
330
9
100
AcDbXrecord
280
     1
  1
DWGPROPS COOKIE
  2

  3

  4

  6

  7

  8
sg-d03
  9

300
=
301
=
302
=
303
=
304
=
305
=
306
=
307
=
308
=
309
=
 40
0.0
 41
2457464.073622396
 42
2458115.100901007
  1

 90
        0
  0
XRECORD
  5
556
102
{ACAD_REACTORS
330
555
102
}
330
555
100
AcDbXrecord
280
     1
102
VTR_0.000_0.000_1.000_1.000_GRIDDISPLAY
 70
     3
102
VTR_0.000_0.000_1.000_1.000_GRIDMAJOR
 70
     5
102
VTR_0.000_0.000_1.000_1.000_DEFAULTLIGHTING
280
     1
102
VTR_0.000_0.000_1.000_1.000_DEFAULTLIGHTINGTYPE
 70
     1
102
VTR_0.000_0.000_1.000_1.000_BRIGHTNESS
141
0.0
102
VTR_0.000_0.000_1.000_1.000_CONTRAST
142
0.0
  0
DICTIONARY
  5
4
102
{ACAD_REACTORS
330
3
102
}
330
3
100
AcDbDictionary
281
     1
  0
XRECORD
  5
21
102
{ACAD_REACTORS
330
20
102
}
330
20
100
AcDbXrecord
280
     1
290
     1
  0
XRECORD
  5
76
102
{ACAD_REACTORS
330
75
102
}
330
75
100
AcDbXrecord
280
     1
290
     1
  0
XRECORD
  5
6
102
{ACAD_REACTORS
330
5
102
}
330
5
100
AcDbXrecord
280
     1
290
     1
  0
XRECORD
  5
69
102
{ACAD_REACTORS
330
68
102
}
330
68
100
AcDbXrecord
280
     1
290
     1
  0
XRECORD
  5
5C
102
{ACAD_REACTORS
330
5B
102
}
330
5B
100
AcDbXrecord
280
     1
290
     1
  0
XRECORD
  5
64
102
{ACAD_REACTORS
330
63
102
}
330
63
100
AcDbXrecord
280
     1
290
     1
  0
SORTENTSTABLE
  5
1D
102
{ACAD_REACTORS
330
1C
102
}
330
1C
100
AcDbSortentsTable
330
1B
331
0
  5
310
331
0
  5
449
331
0
  5
448
331
0
  5
447
331
0
  5
446
331
0
  5
445
331
0
  5
444
331
0
  5
443
331
0
  5
442
331
0
  5
441
331
0
  5
440
331
0
  5
43F
331
0
  5
43E
331
0
  5
43D
331
0
  5
43C
331
0
  5
43B
331
0
  5
43A
331
0
  5
439
331
0
  5
438
331
0
  5
437
331
0
  5
436
331
0
  5
435
331
0
  5
434
331
0
  5
433
331
0
  5
432
331
0
  5
431
331
0
  5
430
331
0
  5
42F
331
0
  5
42E
331
0
  5
42D
331
0
  5
42C
331
0
  5
42B
331
0
  5
42A
331
1CE
  5
429
331
1CF
  5
428
331
1D0
  5
427
331
1D1
  5
426
331
1D2
  5
425
331
1D3
  5
424
331
1D4
  5
423
331
1D5
  5
422
331
1D6
  5
421
331
1D7
  5
420
331
1D8
  5
41F
331
1D9
  5
41E
331
1DA
  5
41D
331
1DB
  5
41C
331
1DC
  5
41B
331
1DD
  5
41A
331
1DE
  5
419
331
1DF
  5
418
331
1E0
  5
417
331
1E1
  5
416
331
1E2
  5
415
331
1E3
  5
414
331
1E4
  5
413
331
1E5
  5
412
331
1E6
  5
411
331
1E7
  5
410
331
1E8
  5
40F
331
1E9
  5
40E
331
1EA
  5
40D
331
1EB
  5
40C
331
1EC
  5
40B
331
1ED
  5
40A
331
1EE
  5
409
331
1EF
  5
408
331
1F0
  5
407
331
1F1
  5
406
331
1F2
  5
405
331
1F3
  5
404
331
1F4
  5
403
331
1F5
  5
402
331
1F6
  5
401
331
1F7
  5
400
331
1F8
  5
3FF
331
1F9
  5
3FE
331
1FA
  5
3FD
331
1FB
  5
3FC
331
1FC
  5
3FB
331
1FD
  5
3FA
331
1FE
  5
3F9
331
1FF
  5
3F8
331
200
  5
3F7
331
201
  5
3F6
331
202
  5
3F5
331
203
  5
3F4
331
204
  5
3F3
331
205
  5
3F2
331
206
  5
3F1
331
207
  5
3F0
331
208
  5
3EF
331
209
  5
3EE
331
20A
  5
3ED
331
20B
  5
3EC
331
20C
  5
3EB
331
20D
  5
3EA
331
20E
  5
3E9
331
20F
  5
3E8
331
210
  5
3E7
331
211
  5
3E6
331
212
  5
3E5
331
213
  5
3E4
331
214
  5
3E3
331
215
  5
3E2
331
216
  5
3E1
331
217
  5
3E0
331
218
  5
3DF
331
219
  5
3DE
331
21A
  5
3DD
331
21B
  5
3DC
331
21C
  5
3DB
331
21D
  5
3DA
331
21E
  5
3D9
331
21F
  5
3D8
331
220
  5
3D7
331
221
  5
3D6
331
222
  5
3D5
331
223
  5
3D4
331
224
  5
3D3
331
225
  5
3D2
331
226
  5
3D1
331
227
  5
3D0
331
228
  5
3CF
331
229
  5
3CE
331
22A
  5
3CD
331
22B
  5
3CC
331
22C
  5
3CB
331
22D
  5
3CA
331
22E
  5
3C9
331
22F
  5
3C8
331
230
  5
3C7
331
231
  5
3C6
331
232
  5
3C5
331
233
  5
3C4
331
234
  5
3C3
331
235
  5
3C2
331
236
  5
3C1
331
237
  5
3C0
331
238
  5
3BF
331
239
  5
3BE
331
23A
  5
3BD
331
23B
  5
3BC
331
23C
  5
3BB
331
23D
  5
3BA
331
23E
  5
3B9
331
23F
  5
3B8
331
240
  5
3B7
331
241
  5
3B6
331
242
  5
3B5
331
243
  5
3B4
331
244
  5
3B3
331
245
  5
3B2
331
246
  5
3B1
331
247
  5
3B0
331
248
  5
3AF
331
249
  5
3AE
331
24A
  5
3AD
331
24B
  5
3AC
331
24C
  5
3AB
331
24D
  5
3AA
331
24E
  5
3A9
331
24F
  5
3A8
331
250
  5
3A7
331
251
  5
3A6
331
252
  5
3A5
331
253
  5
3A4
331
254
  5
3A3
331
255
  5
3A2
331
256
  5
3A1
331
257
  5
3A0
331
258
  5
39F
331
259
  5
39E
331
25A
  5
39D
331
25B
  5
39C
331
25C
  5
39B
331
25D
  5
39A
331
25E
  5
399
331
25F
  5
398
331
260
  5
397
331
261
  5
396
331
262
  5
395
331
263
  5
394
331
264
  5
393
331
265
  5
392
331
266
  5
391
331
267
  5
390
331
268
  5
38F
331
269
  5
38E
331
26A
  5
38D
331
26B
  5
38C
331
26C
  5
38B
331
26D
  5
38A
331
26E
  5
389
331
26F
  5
388
331
270
  5
387
331
271
  5
386
331
272
  5
385
331
273
  5
384
331
274
  5
383
331
275
  5
382
331
276
  5
381
331
27C
  5
37B
331
27D
  5
37A
331
27E
  5
379
331
27F
  5
378
331
280
  5
377
331
281
  5
376
331
282
  5
375
331
283
  5
374
331
284
  5
373
331
285
  5
372
331
286
  5
371
331
287
  5
370
331
288
  5
36F
331
289
  5
36E
331
28A
  5
36D
331
28B
  5
36C
331
28C
  5
36B
331
28D
  5
36A
331
28E
  5
369
331
28F
  5
368
331
290
  5
367
331
291
  5
366
331
292
  5
365
331
293
  5
364
331
294
  5
363
331
295
  5
362
331
296
  5
361
331
297
  5
360
331
298
  5
35F
331
299
  5
35E
331
29A
  5
35D
331
29B
  5
35C
331
29C
  5
35B
331
29D
  5
35A
331
29E
  5
359
331
29F
  5
358
331
2A0
  5
357
331
2A1
  5
356
331
2A2
  5
355
331
2A3
  5
354
331
2A4
  5
353
331
2A5
  5
352
331
2A6
  5
351
331
2A7
  5
350
331
2A8
  5
34F
331
2A9
  5
34E
331
2AA
  5
34D
331
2AB
  5
34C
331
2AC
  5
34B
331
2AD
  5
34A
331
2AE
  5
349
331
2AF
  5
348
331
2B0
  5
347
331
2B1
  5
346
331
2B2
  5
345
331
2B3
  5
344
331
2B4
  5
343
331
2B5
  5
342
331
2B6
  5
341
331
2B7
  5
340
331
2B8
  5
33F
331
2B9
  5
33E
331
2BA
  5
33D
331
2BB
  5
33C
331
2BC
  5
33B
331
2BD
  5
33A
331
2BE
  5
339
331
2BF
  5
338
331
2C0
  5
337
331
2C1
  5
336
331
2C2
  5
335
331
2C3
  5
334
331
2C4
  5
333
331
2C5
  5
332
331
2C6
  5
331
331
2C7
  5
330
331
2C8
  5
32F
331
2C9
  5
32E
331
0
  5
32D
331
0
  5
329
331
0
  5
328
331
0
  5
327
331
0
  5
322
331
0
  5
321
331
0
  5
31F
331
0
  5
31D
331
0
  5
31C
331
0
  5
31A
331
0
  5
319
331
0
  5
318
331
0
  5
30D
331
0
  5
30C
331
0
  5
306
331
0
  5
305
331
2F4
  5
302
331
2F5
  5
301
331
2F6
  5
300
331
2F8
  5
2FE
331
2F9
  5
2FD
331
2FA
  5
2FC
331
2FC
  5
2FA
331
2FD
  5
2F9
331
0
  5
2F8
331
0
  5
2F6
331
0
  5
2F5
331
302
  5
2F4
331
303
  5
2F3
331
304
  5
2F2
331
0
  5
2F1
331
306
  5
2F0
331
307
  5
2EF
331
308
  5
2EE
331
309
  5
2ED
331
30A
  5
2EC
331
30B
  5
2EB
331
30C
  5
2EA
331
30D
  5
2E9
331
30E
  5
2E8
331
30F
  5
2E7
331
310
  5
2E6
331
311
  5
2E5
331
312
  5
2E4
331
313
  5
2E3
331
314
  5
2E2
331
315
  5
2E1
331
316
  5
2E0
331
317
  5
2DF
331
318
  5
2DE
331
319
  5
2DD
331
31A
  5
2DC
331
31B
  5
2DB
331
31C
  5
2DA
331
320
  5
2D3
331
321
  5
2D2
331
322
  5
2D1
331
323
  5
2D0
331
324
  5
2CF
331
325
  5
2CE
331
328
  5
2CB
331
329
  5
2CA
331
32A
  5
2C9
331
32B
  5
2C8
331
32C
  5
2C7
331
32D
  5
2C6
331
32E
  5
2C5
331
32F
  5
2C4
331
330
  5
2C3
331
331
  5
2C2
331
332
  5
2C1
331
333
  5
2C0
331
334
  5
2BF
331
335
  5
2BE
331
336
  5
2BD
331
337
  5
2BC
331
338
  5
2BB
331
339
  5
2BA
331
33A
  5
2B9
331
33B
  5
2B8
331
33C
  5
2B7
331
33D
  5
2B6
331
33E
  5
2B5
331
33F
  5
2B4
331
340
  5
2B3
331
341
  5
2B2
331
342
  5
2B1
331
343
  5
2B0
331
0
  5
2AE
331
0
  5
2AD
331
0
  5
2AC
331
0
  5
2AB
331
0
  5
2AA
331
0
  5
2A9
331
0
  5
2A8
331
0
  5
2A7
331
34D
  5
2A6
331
0
  5
2A5
331
0
  5
2A4
331
0
  5
2A3
331
0
  5
2A2
331
0
  5
2A1
331
0
  5
2A0
331
0
  5
29F
331
0
  5
29E
331
356
  5
29D
331
357
  5
29C
331
358
  5
29B
331
359
  5
29A
331
35A
  5
299
331
0
  5
298
331
0
  5
297
331
0
  5
296
331
35E
  5
295
331
0
  5
294
331
360
  5
293
331
361
  5
292
331
0
  5
291
331
363
  5
290
331
364
  5
28F
331
365
  5
28E
331
0
  5
28D
331
0
  5
28C
331
368
  5
28B
331
0
  5
28A
331
0
  5
289
331
36B
  5
288
331
36C
  5
287
331
36D
  5
286
331
36E
  5
285
331
36F
  5
284
331
370
  5
283
331
371
  5
282
331
372
  5
281
331
373
  5
280
331
374
  5
27F
331
375
  5
27E
331
376
  5
27D
331
377
  5
27C
331
378
  5
27B
331
379
  5
27A
331
37A
  5
276
331
37B
  5
275
331
37C
  5
274
331
0
  5
273
331
37E
  5
272
331
37F
  5
271
331
380
  5
270
331
0
  5
26F
331
382
  5
26E
331
383
  5
26D
331
384
  5
26C
331
385
  5
26B
331
386
  5
26A
331
387
  5
269
331
388
  5
268
331
389
  5
267
331
38A
  5
266
331
38B
  5
265
331
38C
  5
264
331
38D
  5
263
331
38E
  5
262
331
38F
  5
261
331
390
  5
260
331
391
  5
25F
331
0
  5
25E
331
393
  5
25D
331
394
  5
25C
331
395
  5
25B
331
0
  5
25A
331
0
  5
259
331
0
  5
258
331
0
  5
257
331
0
  5
256
331
0
  5
255
331
0
  5
254
331
0
  5
253
331
0
  5
252
331
0
  5
251
331
0
  5
250
331
0
  5
24F
331
0
  5
24E
331
0
  5
24D
331
0
  5
24C
331
0
  5
24B
331
3A6
  5
24A
331
3A7
  5
249
331
3A8
  5
248
331
3A9
  5
247
331
3AA
  5
246
331
0
  5
245
331
0
  5
244
331
3AD
  5
243
331
3AE
  5
242
331
3AF
  5
241
331
3B0
  5
240
331
3B1
  5
23F
331
3B2
  5
23E
331
3B3
  5
23D
331
3B4
  5
23C
331
3B5
  5
23B
331
3B6
  5
23A
331
0
  5
239
331
0
  5
238
331
3B9
  5
237
331
3BA
  5
236
331
3BB
  5
235
331
3BC
  5
234
331
3BD
  5
233
331
3BE
  5
232
331
3BF
  5
231
331
3C0
  5
230
331
3C1
  5
22F
331
3C2
  5
22E
331
0
  5
22D
331
0
  5
22C
331
0
  5
22B
331
0
  5
22A
331
0
  5
229
331
0
  5
228
331
0
  5
227
331
0
  5
226
331
0
  5
225
331
0
  5
224
331
0
  5
223
331
0
  5
222
331
0
  5
221
331
0
  5
220
331
0
  5
21F
331
0
  5
21E
331
0
  5
21D
331
0
  5
21C
331
0
  5
21B
331
0
  5
21A
331
0
  5
219
331
0
  5
218
331
3DE
  5
212
331
3DF
  5
211
331
3E2
  5
20E
331
3E3
  5
20D
331
3E4
  5
20C
331
3E5
  5
20B
331
3E6
  5
20A
331
3E7
  5
209
331
3E8
  5
208
331
3E9
  5
207
331
3EA
  5
206
331
3EB
  5
205
331
3EC
  5
204
331
3ED
  5
203
331
3EE
  5
202
331
3EF
  5
201
331
3F0
  5
200
331
3F1
  5
1FF
331
3F2
  5
1FE
331
3F3
  5
1FD
331
3F4
  5
1FC
331
3F5
  5
1FB
331
3F6
  5
1FA
331
3F7
  5
1F9
331
3F8
  5
1F8
331
3F9
  5
1F7
331
3FA
  5
1F6
331
3FB
  5
1F5
331
3FC
  5
1F4
331
3FD
  5
1F3
331
0
  5
1F2
331
0
  5
1F1
331
0
  5
1F0
331
0
  5
1EF
331
0
  5
1EE
331
403
  5
1ED
331
0
  5
1EC
331
0
  5
1EB
331
0
  5
1EA
331
0
  5
1E9
331
408
  5
1E8
331
409
  5
1E7
331
40A
  5
1E6
331
40B
  5
1E5
331
0
  5
1E4
331
0
  5
1E3
331
0
  5
1E2
331
0
  5
1E1
331
0
  5
1E0
331
0
  5
1DF
331
0
  5
1DE
331
0
  5
1DD
331
0
  5
1DC
331
0
  5
1DB
331
0
  5
1DA
331
0
  5
1D9
331
0
  5
1D8
331
0
  5
1D7
331
0
  5
1D6
331
0
  5
1D5
331
0
  5
1D4
331
0
  5
1D3
331
0
  5
1D2
331
0
  5
1D1
331
0
  5
1D0
331
0
  5
1CF
331
0
  5
1CE
331
0
  5
1CD
331
0
  5
1CC
331
0
  5
1CB
331
0
  5
1CA
331
0
  5
1C9
331
0
  5
1C8
331
0
  5
1C7
331
0
  5
1C6
331
0
  5
1C5
331
0
  5
1C4
331
0
  5
1C3
331
0
  5
1C2
331
0
  5
1C1
331
0
  5
1C0
331
0
  5
1BF
331
0
  5
1BE
331
0
  5
1BD
331
0
  5
1BC
331
0
  5
1BB
331
436
  5
1B8
331
437
  5
1B7
331
438
  5
1B6
331
439
  5
1B5
331
43A
  5
1B4
331
43B
  5
1B3
331
43C
  5
1B2
331
43D
  5
1B1
331
43E
  5
1B0
331
43F
  5
1AF
331
440
  5
1AE
331
441
  5
44A
331
0
  5
44B
331
0
  5
44C
331
0
  5
44D
331
0
  5
450
331
0
  5
451
331
0
  5
452
331
0
  5
453
331
0
  5
454
331
0
  5
455
331
0
  5
456
331
0
  5
457
331
0
  5
458
331
450
  5
45B
331
455
  5
460
331
0
  5
484
331
0
  5
485
331
0
  5
487
331
0
  5
490
331
0
  5
492
331
0
  5
4B8
  0
LAYOUT
  5
23
102
{ACAD_REACTORS
330
24
102
}
330
24
100
AcDbPlotSettings
  1

  2
Bullzip PDF Printer.pc3
  4
A3
  6

 40
0.2
 41
0.0
 42
0.0
 43
0.0
 44
420.2
 45
297.1
 46
25.0
 47
12.0
 48
57.4999998833332
 49
10.0
140
1012.499997695833
141
691.2499984104165
142
1.0
143
2.5
 70
 11936
 72
     1
 73
     0
 74
     4
  7
monochrome.ctb
 75
     0
147
0.4
148
-57.4999998833332
149
-10.0
100
AcDbLayout
  1
Model
 70
     0
 71
     0
 10
0.0
 20
0.0
 11
12.0
 21
9.0
 12
0.0
 22
0.0
 32
0.0
 14
162.7961778424188
 24
23.43309309062727
 34
0.0
 15
861.4206474980242
 25
696.6440241569052
 35
0.0
146
0.0
 13
0.0
 23
0.0
 33
0.0
 16
1.0
 26
0.0
 36
0.0
 17
0.0
 27
1.0
 37
0.0
 76
     0
330
1B
331
32
1001
ACAD_PSEXT
1000
Bullzip PDF Printer.pc3
1000
Bullzip PDF Printer
1000
BULLZIP
1000
Bullzip PDF Printer 10.1.0.1871
1070
     0
  0
LAYOUT
  5
28
102
{ACAD_REACTORS
330
24
102
}
330
24
100
AcDbPlotSettings
  1

  2
SR-LP8300F
  4

  6

 40
0.0
 41
0.0
 42
0.0
 43
0.0
 44
0.0
 45
0.0
 46
0.0
 47
0.0
 48
0.0
 49
0.0
140
0.0
141
0.0
142
1.0
143
1.0
 70
   688
 72
     0
 73
     0
 74
     5
  7
monochrome.ctb
 75
    16
147
1.0
148
0.0
149
0.0
100
AcDbLayout
  1
ﾚｲｱｳﾄ1
 70
     0
 71
     1
 10
0.0
 20
0.0
 11
12.0
 21
9.0
 12
0.0
 22
0.0
 32
0.0
 14
1000000000000000E+20
 24
1000000000000000E+20
 34
1000000000000000E+20
 15
-1000000000000000E+20
 25
-1000000000000000E+20
 35
-1000000000000000E+20
146
0.0
 13
0.0
 23
0.0
 33
0.0
 16
1.0
 26
0.0
 36
0.0
 17
0.0
 27
1.0
 37
0.0
 76
     0
330
25
  0
MATERIAL
  5
58
102
{ACAD_REACTORS
330
B
102
}
102
{ACAD_XDICTIONARY
360
55C
102
}
330
B
100
AcDbMaterial
  1
ByBlock
 72
     0
 73
     2
 43
0.0208333333333333
 43
0.0
 43
0.0
 43
0.0
 43
0.0
 43
0.0208333333333333
 43
0.0
 43
0.0
 43
0.0
 43
0.0
 43
1.0
 43
0.0
 43
0.0
 43
0.0
 43
0.0
 43
1.0
 77
     0
 78
     2
 47
0.0208333333333333
 47
0.0
 47
0.0
 47
0.0
 47
0.0
 47
0.0208333333333333
 47
0.0
 47
0.0
 47
0.0
 47
0.0
 47
1.0
 47
0.0
 47
0.0
 47
0.0
 47
0.0
 47
1.0
171
     0
172
     2
 49
0.0208333333333333
 49
0.0
 49
0.0
 49
0.0
 49
0.0
 49
0.0208333333333333
 49
0.0
 49
0.0
 49
0.0
 49
0.0
 49
1.0
 49
0.0
 49
0.0
 49
0.0
 49
0.0
 49
1.0
175
     0
176
     2
142
0.0208333333333333
142
0.0
142
0.0
142
0.0
142
0.0
142
0.0208333333333333
142
0.0
142
0.0
142
0.0
142
0.0
142
1.0
142
0.0
142
0.0
142
0.0
142
0.0
142
1.0
179
     0
270
     2
144
0.0208333333333333
144
0.0
144
0.0
144
0.0
144
0.0
144
0.0208333333333333
144
0.0
144
0.0
144
0.0
144
0.0
144
1.0
144
0.0
144
0.0
144
0.0
144
0.0
144
1.0
274
     2
147
0.0208333333333333
147
0.0
147
0.0
147
0.0
147
0.0
147
0.0208333333333333
147
0.0
147
0.0
147
0.0
147
0.0
147
1.0
147
0.0
147
0.0
147
0.0
147
0.0
147
1.0
  0
MATERIAL
  5
14
102
{ACAD_REACTORS
330
B
102
}
102
{ACAD_XDICTIONARY
360
558
102
}
330
B
100
AcDbMaterial
  1
ByLayer
 72
     0
 73
     2
 43
0.0208333333333333
 43
0.0
 43
0.0
 43
0.0
 43
0.0
 43
0.0208333333333333
 43
0.0
 43
0.0
 43
0.0
 43
0.0
 43
1.0
 43
0.0
 43
0.0
 43
0.0
 43
0.0
 43
1.0
 77
     0
 78
     2
 47
0.0208333333333333
 47
0.0
 47
0.0
 47
0.0
 47
0.0
 47
0.0208333333333333
 47
0.0
 47
0.0
 47
0.0
 47
0.0
 47
1.0
 47
0.0
 47
0.0
 47
0.0
 47
0.0
 47
1.0
171
     0
172
     2
 49
0.0208333333333333
 49
0.0
 49
0.0
 49
0.0
 49
0.0
 49
0.0208333333333333
 49
0.0
 49
0.0
 49
0.0
 49
0.0
 49
1.0
 49
0.0
 49
0.0
 49
0.0
 49
0.0
 49
1.0
175
     0
176
     2
142
0.0208333333333333
142
0.0
142
0.0
142
0.0
142
0.0
142
0.0208333333333333
142
0.0
142
0.0
142
0.0
142
0.0
142
1.0
142
0.0
142
0.0
142
0.0
142
0.0
142
1.0
179
     0
270
     2
144
0.0208333333333333
144
0.0
144
0.0
144
0.0
144
0.0
144
0.0208333333333333
144
0.0
144
0.0
144
0.0
144
0.0
144
1.0
144
0.0
144
0.0
144
0.0
144
0.0
144
1.0
274
     2
147
0.0208333333333333
147
0.0
147
0.0
147
0.0
147
0.0
147
0.0208333333333333
147
0.0
147
0.0
147
0.0
147
0.0
147
1.0
147
0.0
147
0.0
147
0.0
147
0.0
147
1.0
  0
MATERIAL
  5
A
102
{ACAD_REACTORS
330
B
102
}
102
{ACAD_XDICTIONARY
360
55A
102
}
330
B
100
AcDbMaterial
  1
Global
 72
     0
 73
     2
 43
0.0208333333333333
 43
0.0
 43
0.0
 43
0.0
 43
0.0
 43
0.0208333333333333
 43
0.0
 43
0.0
 43
0.0
 43
0.0
 43
1.0
 43
0.0
 43
0.0
 43
0.0
 43
0.0
 43
1.0
 77
     0
 78
     2
 47
0.0208333333333333
 47
0.0
 47
0.0
 47
0.0
 47
0.0
 47
0.0208333333333333
 47
0.0
 47
0.0
 47
0.0
 47
0.0
 47
1.0
 47
0.0
 47
0.0
 47
0.0
 47
0.0
 47
1.0
171
     0
172
     2
 49
0.0208333333333333
 49
0.0
 49
0.0
 49
0.0
 49
0.0
 49
0.0208333333333333
 49
0.0
 49
0.0
 49
0.0
 49
0.0
 49
1.0
 49
0.0
 49
0.0
 49
0.0
 49
0.0
 49
1.0
175
     0
176
     2
142
0.0208333333333333
142
0.0
142
0.0
142
0.0
142
0.0
142
0.0208333333333333
142
0.0
142
0.0
142
0.0
142
0.0
142
1.0
142
0.0
142
0.0
142
0.0
142
0.0
142
1.0
179
     0
270
     2
144
0.0208333333333333
144
0.0
144
0.0
144
0.0
144
0.0
144
0.0208333333333333
144
0.0
144
0.0
144
0.0
144
0.0
144
1.0
144
0.0
144
0.0
144
0.0
144
0.0
144
1.0
274
     2
147
0.0208333333333333
147
0.0
147
0.0
147
0.0
147
0.0
147
0.0208333333333333
147
0.0
147
0.0
147
0.0
147
0.0
147
1.0
147
0.0
147
0.0
147
0.0
147
0.0
147
1.0
1001
ACAD
1070
    -1
1070
     3
1070
     0
1000

1071
        0
  0
MLEADERSTYLE
  5
498
102
{ACAD_REACTORS
330
465
102
}
102
{ACAD_XDICTIONARY
360
58E
102
}
330
465
100
AcDbMLeaderStyle
170
     2
171
     1
172
     0
 90
        2
 40
0.0
 41
0.0
173
     1
 91
-1056964608
340
11
 92
       -2
290
     1
 42
0.09
291
     1
 43
0.36
  3
Standard
341
0
 44
0.18
300

342
12
174
     1
178
     6
175
     1
176
     0
 93
-1056964608
 45
0.18
292
     0
297
     0
 46
0.18
343
0
 94
-1056964608
 47
1.0
 49
1.0
140
1.0
293
     1
141
0.0
294
     1
177
     0
142
1.0
295
     0
296
     0
143
0.125
1001
ACAD_MLEADERVER
1070
     2
  0
MLINESTYLE
  5
18
102
{ACAD_REACTORS
330
19
102
}
330
19
100
AcDbMlineStyle
  2
STANDARD
 70
     0
  3

 62
     0
 51
90.0
 52
90.0
 71
     2
 49
0.5
 62
   256
  6
BYLAYER
 49
-0.5
 62
   256
  6
BYLAYER
  0
ACDBPLACEHOLDER
  5
7
102
{ACAD_REACTORS
330
8
102
}
330
8
  0
SCALE
  5
57
102
{ACAD_REACTORS
330
35
102
}
330
35
100
AcDbScale
 70
     0
300
1:1
140
1.0
141
1.0
290
     1
  0
TABLESTYLE
  5
49B
102
{ACAD_REACTORS
330
464
102
}
330
464
100
AcDbTableStyle
  3
Standard
 70
     0
 71
     0
 40
0.06
 41
0.06
280
     0
281
     0
  7
STANDARD
140
0.18
170
     2
 62
     0
 63
   257
283
     0
274
    -2
284
     1
 64
     0
275
    -2
285
     1
 65
     0
276
    -2
286
     1
 66
     0
277
    -2
287
     1
 67
     0
278
    -2
288
     1
 68
     0
279
    -2
289
     1
 69
     0
  7
STANDARD
140
0.25
170
     5
 62
     0
 63
   257
283
     0
274
    -2
284
     1
 64
     0
275
    -2
285
     1
 65
     0
276
    -2
286
     1
 66
     0
277
    -2
287
     1
 67
     0
278
    -2
288
     1
 68
     0
279
    -2
289
     1
 69
     0
  7
STANDARD
140
0.18
170
     5
 62
     0
 63
   257
283
     0
274
    -2
284
     1
 64
     0
275
    -2
285
     1
 65
     0
276
    -2
286
     1
 66
     0
277
    -2
287
     1
 67
     0
278
    -2
288
     1
 68
     0
279
    -2
289
     1
 69
     0
  0
VISUALSTYLE
  5
46D
102
{ACAD_REACTORS
330
2F
102
}
102
{ACAD_XDICTIONARY
360
56A
102
}
330
2F
100
AcDbVisualStyle
  2
2dWireframe
 70
     4
 71
     0
 72
     2
 73
     0
 90
        0
 40
0.6
 41
30.0
 62
     5
 63
     7
 74
     1
 91
        4
 64
     7
 65
   257
 75
     1
175
     1
 42
1.0
 92
        0
 66
   257
 43
1.0
 76
     1
 77
     6
 78
     2
 67
     7
 79
     5
170
     0
171
     0
290
     0
174
     0
 93
        1
 44
0.0
173
     0
291
     0
 45
0.0
1001
ACAD
1000
AcDbSavedByObjectVersion
1070
     0
  0
VISUALSTYLE
  5
46F
102
{ACAD_REACTORS
330
2F
102
}
102
{ACAD_XDICTIONARY
360
56E
102
}
330
2F
100
AcDbVisualStyle
  2
Basic
 70
     7
 71
     1
 72
     0
 73
     1
 90
        0
 40
0.6
 41
30.0
 62
     5
 63
     7
 74
     0
 91
        4
 64
     7
 65
   257
 75
     1
175
     1
 42
1.0
 92
        8
 66
     7
 43
1.0
 76
     1
 77
     6
 78
     2
 67
     7
 79
     5
170
     0
171
     0
290
     0
174
     0
 93
        1
 44
0.0
173
     0
291
     1
 45
0.0
1001
ACAD
1000
AcDbSavedByObjectVersion
1070
     0
  0
VISUALSTYLE
  5
472
102
{ACAD_REACTORS
330
2F
102
}
102
{ACAD_XDICTIONARY
360
574
102
}
330
2F
100
AcDbVisualStyle
  2
Brighten
 70
    12
 71
     2
 72
     2
 73
     0
 90
        0
 40
0.6
 41
30.0
 62
     5
 63
     7
 74
     1
 91
        4
 64
     7
 65
   257
 75
     1
175
     1
 42
1.0
 92
        8
 66
     7
 43
1.0
 76
     1
 77
     6
 78
     2
 67
     7
 79
     5
170
     0
171
     0
290
     0
174
     0
 93
        1
 44
50.0
173
     0
291
     1
 45
0.0
1001
ACAD
1000
AcDbSavedByObjectVersion
1070
     0
  0
VISUALSTYLE
  5
476
102
{ACAD_REACTORS
330
2F
102
}
102
{ACAD_XDICTIONARY
360
57C
102
}
330
2F
100
AcDbVisualStyle
  2
ColorChange
 70
    16
 71
     2
 72
     2
 73
     3
 90
        0
 40
0.6
 41
30.0
 62
     5
 63
     8
 74
     1
 91
        4
 64
     7
 65
   257
 75
     1
175
     1
 42
1.0
 92
        8
 66
     8
 43
1.0
 76
     1
 77
     6
 78
     2
 67
     7
 79
     5
170
     0
171
     0
290
     0
174
     0
 93
        1
 44
0.0
173
     0
291
     1
 45
0.0
1001
ACAD
1000
AcDbSavedByObjectVersion
1070
     0
  0
VISUALSTYLE
  5
470
102
{ACAD_REACTORS
330
2F
102
}
102
{ACAD_XDICTIONARY
360
570
102
}
330
2F
100
AcDbVisualStyle
  2
Conceptual
 70
     9
 71
     3
 72
     2
 73
     0
 90
        0
 40
0.6
 41
30.0
 62
     5
 63
     7
 74
     2
 91
        2
 64
     7
 65
   257
 75
     1
175
     1
 42
40.0
 92
        8
 66
     7
 43
1.0
 76
     1
 77
     6
 78
     2
 67
     7
 79
     3
170
     0
171
     0
290
     0
174
     0
 93
        1
 44
0.0
173
     0
291
     0
 45
0.0
1001
ACAD
1000
AcDbSavedByObjectVersion
1070
     0
  0
VISUALSTYLE
  5
471
102
{ACAD_REACTORS
330
2F
102
}
102
{ACAD_XDICTIONARY
360
572
102
}
330
2F
100
AcDbVisualStyle
  2
Dim
 70
    11
 71
     2
 72
     2
 73
     0
 90
        0
 40
0.6
 41
30.0
 62
     5
 63
     7
 74
     1
 91
        4
 64
     7
 65
   257
 75
     1
175
     1
 42
1.0
 92
        8
 66
     7
 43
1.0
 76
     1
 77
     6
 78
     2
 67
     7
 79
     5
170
     0
171
     0
290
     0
174
     0
 93
        1
 44
-50.0
173
     0
291
     1
 45
0.0
1001
ACAD
1000
AcDbSavedByObjectVersion
1070
     0
  0
VISUALSTYLE
  5
479
102
{ACAD_REACTORS
330
2F
102
}
102
{ACAD_XDICTIONARY
360
582
102
}
330
2F
100
AcDbVisualStyle
  2
EdgeColorOff
 70
    22
 71
     2
 72
     2
 73
     0
 90
        0
 40
0.6
 41
30.0
 62
     5
 63
     7
 74
     1
 91
        4
 64
     7
 65
   257
 75
     1
175
     1
 42
1.0
 92
        8
 66
     7
 43
1.0
 76
     1
 77
     6
 78
     2
 67
     7
 79
     5
170
     0
171
     0
290
     0
174
     0
 93
        1
 44
0.0
173
     0
291
     1
 45
0.0
1001
ACAD
1000
AcDbSavedByObjectVersion
1070
     0
  0
VISUALSTYLE
  5
475
102
{ACAD_REACTORS
330
2F
102
}
102
{ACAD_XDICTIONARY
360
57A
102
}
330
2F
100
AcDbVisualStyle
  2
Facepattern
 70
    15
 71
     2
 72
     2
 73
     0
 90
        0
 40
0.6
 41
30.0
 62
     5
 63
     7
 74
     1
 91
        4
 64
     7
 65
   257
 75
     1
175
     1
 42
1.0
 92
        8
 66
     7
 43
1.0
 76
     1
 77
     6
 78
     2
 67
     7
 79
     5
170
     0
171
     0
290
     0
174
     0
 93
        1
 44
0.0
173
     0
291
     1
 45
0.0
1001
ACAD
1000
AcDbSavedByObjectVersion
1070
     0
  0
VISUALSTYLE
  5
469
102
{ACAD_REACTORS
330
2F
102
}
102
{ACAD_XDICTIONARY
360
562
102
}
330
2F
100
AcDbVisualStyle
  2
Flat
 70
     0
 71
     2
 72
     1
 73
     1
 90
        2
 40
0.6
 41
30.0
 62
     5
 63
     7
 74
     0
 91
        4
 64
     7
 65
   257
 75
     1
175
     1
 42
1.0
 92
        8
 66
     7
 43
1.0
 76
     1
 77
     6
 78
     2
 67
     7
 79
     5
170
     0
171
     0
290
     0
174
     0
 93
       13
 44
0.0
173
     0
291
     1
 45
0.0
1001
ACAD
1000
AcDbSavedByObjectVersion
1070
     0
  0
VISUALSTYLE
  5
46A
102
{ACAD_REACTORS
330
2F
102
}
102
{ACAD_XDICTIONARY
360
564
102
}
330
2F
100
AcDbVisualStyle
  2
FlatWithEdges
 70
     1
 71
     2
 72
     1
 73
     1
 90
        2
 40
0.6
 41
30.0
 62
     5
 63
     7
 74
     1
 91
        4
 64
     7
 65
   257
 75
     1
175
     1
 42
1.0
 92
        0
 66
   257
 43
1.0
 76
     1
 77
     6
 78
     2
 67
     7
 79
     5
170
     0
171
     0
290
     0
174
     0
 93
       13
 44
0.0
173
     0
291
     1
 45
0.0
1001
ACAD
1000
AcDbSavedByObjectVersion
1070
     0
  0
VISUALSTYLE
  5
46B
102
{ACAD_REACTORS
330
2F
102
}
102
{ACAD_XDICTIONARY
360
566
102
}
330
2F
100
AcDbVisualStyle
  2
Gouraud
 70
     2
 71
     2
 72
     2
 73
     1
 90
        2
 40
0.6
 41
30.0
 62
     5
 63
     7
 74
     0
 91
        4
 64
     7
 65
   257
 75
     1
175
     1
 42
1.0
 92
        0
 66
     7
 43
1.0
 76
     1
 77
     6
 78
     2
 67
     7
 79
     5
170
     0
171
     0
290
     0
174
     0
 93
       13
 44
0.0
173
     0
291
     1
 45
0.0
1001
ACAD
1000
AcDbSavedByObjectVersion
1070
     0
  0
VISUALSTYLE
  5
46C
102
{ACAD_REACTORS
330
2F
102
}
102
{ACAD_XDICTIONARY
360
568
102
}
330
2F
100
AcDbVisualStyle
  2
GouraudWithEdges
 70
     3
 71
     2
 72
     2
 73
     1
 90
        2
 40
0.6
 41
30.0
 62
     5
 63
     7
 74
     1
 91
        4
 64
     7
 65
   257
 75
     1
175
     1
 42
1.0
 92
        0
 66
   257
 43
1.0
 76
     1
 77
     6
 78
     2
 67
     7
 79
     5
170
     0
171
     0
290
     0
174
     0
 93
       13
 44
0.0
173
     0
291
     1
 45
0.0
1001
ACAD
1000
AcDbSavedByObjectVersion
1070
     0
  0
VISUALSTYLE
  5
46E
102
{ACAD_REACTORS
330
2F
102
}
102
{ACAD_XDICTIONARY
360
56C
102
}
330
2F
100
AcDbVisualStyle
  2
Hidden
 70
     6
 71
     1
 72
     2
 73
     2
 90
        0
 40
0.6
 41
30.0
 62
     5
 63
     7
 74
     2
 91
        2
 64
     7
 65
   257
 75
     2
175
     1
 42
40.0
 92
        0
 66
   257
 43
1.0
 76
     1
 77
     6
 78
     2
 67
     7
 79
     3
170
     0
171
     0
290
     0
174
     0
 93
        1
 44
0.0
173
     0
291
     0
 45
0.0
1001
ACAD
1000
AcDbSavedByObjectVersion
1070
     0
  0
VISUALSTYLE
  5
477
102
{ACAD_REACTORS
330
2F
102
}
102
{ACAD_XDICTIONARY
360
57E
102
}
330
2F
100
AcDbVisualStyle
  2
JitterOff
 70
    20
 71
     2
 72
     2
 73
     0
 90
        0
 40
0.6
 41
30.0
 62
     5
 63
     7
 74
     1
 91
        4
 64
     7
 65
   257
 75
     1
175
     1
 42
1.0
 92
       10
 66
     7
 43
1.0
 76
     1
 77
     6
 78
     2
 67
     7
 79
     5
170
     0
171
     0
290
     0
174
     0
 93
        1
 44
0.0
173
     0
291
     1
 45
0.0
1001
ACAD
1000
AcDbSavedByObjectVersion
1070
     0
  0
VISUALSTYLE
  5
474
102
{ACAD_REACTORS
330
2F
102
}
102
{ACAD_XDICTIONARY
360
578
102
}
330
2F
100
AcDbVisualStyle
  2
Linepattern
 70
    14
 71
     2
 72
     2
 73
     0
 90
        0
 40
0.6
 41
30.0
 62
     5
 63
     7
 74
     1
 91
        4
 64
     7
 65
   257
 75
     7
175
     7
 42
1.0
 92
        8
 66
     7
 43
1.0
 76
     1
 77
     6
 78
     2
 67
     7
 79
     5
170
     0
171
     0
290
     0
174
     0
 93
        1
 44
0.0
173
     0
291
     1
 45
0.0
1001
ACAD
1000
AcDbSavedByObjectVersion
1070
     0
  0
VISUALSTYLE
  5
478
102
{ACAD_REACTORS
330
2F
102
}
102
{ACAD_XDICTIONARY
360
580
102
}
330
2F
100
AcDbVisualStyle
  2
OverhangOff
 70
    21
 71
     2
 72
     2
 73
     0
 90
        0
 40
0.6
 41
30.0
 62
     5
 63
     7
 74
     1
 91
        4
 64
     7
 65
   257
 75
     1
175
     1
 42
1.0
 92
        9
 66
     7
 43
1.0
 76
     1
 77
     6
 78
     2
 67
     7
 79
     5
170
     0
171
     0
290
     0
174
     0
 93
        1
 44
0.0
173
     0
291
     1
 45
0.0
1001
ACAD
1000
AcDbSavedByObjectVersion
1070
     0
  0
VISUALSTYLE
  5
30
102
{ACAD_REACTORS
330
2F
102
}
102
{ACAD_XDICTIONARY
360
55E
102
}
330
2F
100
AcDbVisualStyle
  2
Realistic
 70
     8
 71
     2
 72
     3
 73
     0
 90
        2
 40
0.6
 41
30.0
 62
     5
 63
     7
 74
     0
 91
        0
 64
     7
 65
   257
 75
     1
175
     1
 42
1.0
 92
        8
 66
   257
 43
1.0
 76
     1
 77
     6
 78
     2
 67
     7
 79
     3
170
     0
171
     0
290
     0
174
     0
 93
       13
 44
0.0
173
     0
291
     0
 45
0.0
1001
ACAD
1000
AcDbSavedByObjectVersion
1070
     0
  0
VISUALSTYLE
  5
47E
102
{ACAD_REACTORS
330
2F
102
}
102
{ACAD_XDICTIONARY
360
58C
102
}
330
2F
100
AcDbVisualStyle
  2
Shaded
 70
    27
 71
     2
 72
     2
 73
     1
 90
        2
 40
0.6
 41
30.0
 62
     5
 63
     7
 74
     0
 91
        4
 64
     7
 65
   257
 75
     1
175
     1
 42
1.0
 92
        8
 66
   257
 43
1.0
 76
     1
 77
     6
 78
     2
 67
   251
 79
     3
170
     0
171
     0
290
     0
174
     0
 93
        5
 44
0.0
173
     0
291
     0
 45
0.0
1001
ACAD
1000
AcDbSavedByObjectVersion
1070
     0
  0
VISUALSTYLE
  5
47D
102
{ACAD_REACTORS
330
2F
102
}
102
{ACAD_XDICTIONARY
360
58A
102
}
330
2F
100
AcDbVisualStyle
  2
Shaded with edges
 70
    26
 71
     2
 72
     2
 73
     1
 90
        2
 40
0.6
 41
30.0
 62
     5
 63
     7
 74
     1
 91
       10
 64
     7
 65
   257
 75
     2
175
     1
 42
1.0
 92
        8
 66
   257
 43
1.0
 76
     1
 77
     6
 78
     2
 67
     7
 79
     3
170
     0
171
     0
290
     0
174
     0
 93
        5
 44
0.0
173
     0
291
     0
 45
0.0
1001
ACAD
1000
AcDbSavedByObjectVersion
1070
     0
  0
VISUALSTYLE
  5
47A
102
{ACAD_REACTORS
330
2F
102
}
102
{ACAD_XDICTIONARY
360
584
102
}
330
2F
100
AcDbVisualStyle
  2
Shades of Gray
 70
    23
 71
     2
 72
     2
 73
     3
 90
        0
 40
0.6
 41
30.0
 62
     5
 63
     7
 74
     2
 91
        2
 64
     7
 65
     7
 75
     1
175
     1
 42
40.0
 92
        8
 66
     7
 43
1.0
 76
     1
 77
     6
 78
     2
 67
     7
 79
     3
170
     0
171
     0
290
     0
174
     0
 93
        1
 44
0.0
173
     0
291
     0
 45
0.0
1001
ACAD
1000
AcDbSavedByObjectVersion
1070
     0
  0
VISUALSTYLE
  5
47B
102
{ACAD_REACTORS
330
2F
102
}
102
{ACAD_XDICTIONARY
360
586
102
}
330
2F
100
AcDbVisualStyle
  2
Sketchy
 70
    24
 71
     1
 72
     2
 73
     2
 90
        0
 40
0.6
 41
30.0
 62
     5
 63
     7
 74
     2
 91
        2
 64
     7
 65
     7
 75
     1
175
     1
 42
40.0
 92
       11
 66
     7
 43
1.0
 76
     1
 77
     6
 78
     2
 67
     7
 79
     6
170
     0
171
     0
290
     0
174
     0
 93
        1
 44
0.0
173
     0
291
     0
 45
0.0
1001
ACAD
1000
AcDbSavedByObjectVersion
1070
     0
  0
VISUALSTYLE
  5
473
102
{ACAD_REACTORS
330
2F
102
}
102
{ACAD_XDICTIONARY
360
576
102
}
330
2F
100
AcDbVisualStyle
  2
Thicken
 70
    13
 71
     2
 72
     2
 73
     0
 90
        0
 40
0.6
 41
30.0
 62
     5
 63
     7
 74
     1
 91
        4
 64
     7
 65
   257
 75
     1
175
     1
 42
1.0
 92
       12
 66
     7
 43
1.0
 76
     1
 77
     6
 78
     2
 67
     7
 79
     5
170
     0
171
     0
290
     0
174
     0
 93
        1
 44
0.0
173
     0
291
     1
 45
0.0
1001
ACAD
1000
AcDbSavedByObjectVersion
1070
     0
  0
VISUALSTYLE
  5
31
102
{ACAD_REACTORS
330
2F
102
}
102
{ACAD_XDICTIONARY
360
560
102
}
330
2F
100
AcDbVisualStyle
  2
Wireframe
 70
     5
 71
     0
 72
     2
 73
     0
 90
        0
 40
0.6
 41
30.0
 62
     5
 63
     7
 74
     1
 91
        4
 64
     7
 65
   257
 75
     1
175
     1
 42
1.0
 92
        0
 66
   257
 43
1.0
 76
     1
 77
     6
 78
     2
 67
     7
 79
     3
170
     0
171
     0
290
     0
174
     0
 93
        1
 44
0.0
173
     0
291
     0
 45
0.0
1001
ACAD
1000
AcDbSavedByObjectVersion
1070
     0
  0
VISUALSTYLE
  5
47C
102
{ACAD_REACTORS
330
2F
102
}
102
{ACAD_XDICTIONARY
360
588
102
}
330
2F
100
AcDbVisualStyle
  2
X-Ray
 70
    25
 71
     2
 72
     2
 73
     1
 90
        1
 40
0.5
 41
30.0
 62
     5
 63
     7
 74
     1
 91
        0
 64
     7
 65
   257
 75
     1
175
     1
 42
1.0
 92
        8
 66
     7
 43
1.0
 76
     1
 77
     6
 78
     2
 67
     7
 79
     3
170
     0
171
     0
290
     0
174
     0
 93
       13
 44
0.0
173
     0
291
     0
 45
0.0
1001
ACAD
1000
AcDbSavedByObjectVersion
1070
     0
  0
XRECORD
  5
552
102
{ACAD_REACTORS
330
551
102
}
330
551
100
AcDbXrecord
280
     1
340
2E
  0
XRECORD
  5
553
102
{ACAD_REACTORS
330
551
102
}
330
551
100
AcDbXrecord
280
     1
340
B
  0
DICTIONARYVAR
  5
463
102
{ACAD_REACTORS
330
462
102
}
330
462
100
DictionaryVariables
280
     0
  1
1:1
  0
DICTIONARYVAR
  5
49A
102
{ACAD_REACTORS
330
462
102
}
330
462
100
DictionaryVariables
280
     0
  1
Standard
  0
DICTIONARYVAR
  5
49C
102
{ACAD_REACTORS
330
462
102
}
330
462
100
DictionaryVariables
280
     0
  1
Standard
  0
DICTIONARYVAR
  5
54F
102
{ACAD_REACTORS
330
462
102
}
330
462
100
DictionaryVariables
280
     0
  1
0
  0
DICTIONARYVAR
  5
550
102
{ACAD_REACTORS
330
462
102
}
330
462
100
DictionaryVariables
280
     0
  1
1
  0
DICTIONARYVAR
  5
557
102
{ACAD_REACTORS
330
462
102
}
330
462
100
DictionaryVariables
280
     0
  1
1
  0
DICTIONARYVAR
  5
466
102
{ACAD_REACTORS
330
462
102
}
330
462
100
DictionaryVariables
280
     0
  1
0
  0
DICTIONARY
  5
55C
330
58
100
AcDbDictionary
280
     1
281
     1
  3
ACAD_XREC_ROUNDTRIP
360
55D
  0
DICTIONARY
  5
558
330
14
100
AcDbDictionary
280
     1
281
     1
  3
ACAD_XREC_ROUNDTRIP
360
559
  0
DICTIONARY
  5
55A
330
A
100
AcDbDictionary
280
     1
281
     1
  3
ACAD_XREC_ROUNDTRIP
360
55B
  0
DICTIONARY
  5
58E
330
498
100
AcDbDictionary
280
     1
281
     1
  3
ACAD_XREC_ROUNDTRIP
360
58F
  0
DICTIONARY
  5
56A
330
46D
100
AcDbDictionary
280
     1
281
     1
  3
ACAD_XREC_ROUNDTRIP
360
56B
  0
DICTIONARY
  5
56E
330
46F
100
AcDbDictionary
280
     1
281
     1
  3
ACAD_XREC_ROUNDTRIP
360
56F
  0
DICTIONARY
  5
574
330
472
100
AcDbDictionary
280
     1
281
     1
  3
ACAD_XREC_ROUNDTRIP
360
575
  0
DICTIONARY
  5
57C
330
476
100
AcDbDictionary
280
     1
281
     1
  3
ACAD_XREC_ROUNDTRIP
360
57D
  0
DICTIONARY
  5
570
330
470
100
AcDbDictionary
280
     1
281
     1
  3
ACAD_XREC_ROUNDTRIP
360
571
  0
DICTIONARY
  5
572
330
471
100
AcDbDictionary
280
     1
281
     1
  3
ACAD_XREC_ROUNDTRIP
360
573
  0
DICTIONARY
  5
582
330
479
100
AcDbDictionary
280
     1
281
     1
  3
ACAD_XREC_ROUNDTRIP
360
583
  0
DICTIONARY
  5
57A
330
475
100
AcDbDictionary
280
     1
281
     1
  3
ACAD_XREC_ROUNDTRIP
360
57B
  0
DICTIONARY
  5
562
330
469
100
AcDbDictionary
280
     1
281
     1
  3
ACAD_XREC_ROUNDTRIP
360
563
  0
DICTIONARY
  5
564
330
46A
100
AcDbDictionary
280
     1
281
     1
  3
ACAD_XREC_ROUNDTRIP
360
565
  0
DICTIONARY
  5
566
330
46B
100
AcDbDictionary
280
     1
281
     1
  3
ACAD_XREC_ROUNDTRIP
360
567
  0
DICTIONARY
  5
568
330
46C
100
AcDbDictionary
280
     1
281
     1
  3
ACAD_XREC_ROUNDTRIP
360
569
  0
DICTIONARY
  5
56C
330
46E
100
AcDbDictionary
280
     1
281
     1
  3
ACAD_XREC_ROUNDTRIP
360
56D
  0
DICTIONARY
  5
57E
330
477
100
AcDbDictionary
280
     1
281
     1
  3
ACAD_XREC_ROUNDTRIP
360
57F
  0
DICTIONARY
  5
578
330
474
100
AcDbDictionary
280
     1
281
     1
  3
ACAD_XREC_ROUNDTRIP
360
579
  0
DICTIONARY
  5
580
330
478
100
AcDbDictionary
280
     1
281
     1
  3
ACAD_XREC_ROUNDTRIP
360
581
  0
DICTIONARY
  5
55E
330
30
100
AcDbDictionary
280
     1
281
     1
  3
ACAD_XREC_ROUNDTRIP
360
55F
  0
DICTIONARY
  5
58C
330
47E
100
AcDbDictionary
280
     1
281
     1
  3
ACAD_XREC_ROUNDTRIP
360
58D
  0
DICTIONARY
  5
58A
330
47D
100
AcDbDictionary
280
     1
281
     1
  3
ACAD_XREC_ROUNDTRIP
360
58B
  0
DICTIONARY
  5
584
330
47A
100
AcDbDictionary
280
     1
281
     1
  3
ACAD_XREC_ROUNDTRIP
360
585
  0
DICTIONARY
  5
586
330
47B
100
AcDbDictionary
280
     1
281
     1
  3
ACAD_XREC_ROUNDTRIP
360
587
  0
DICTIONARY
  5
576
330
473
100
AcDbDictionary
280
     1
281
     1
  3
ACAD_XREC_ROUNDTRIP
360
577
  0
DICTIONARY
  5
560
330
31
100
AcDbDictionary
280
     1
281
     1
  3
ACAD_XREC_ROUNDTRIP
360
561
  0
DICTIONARY
  5
588
330
47C
100
AcDbDictionary
280
     1
281
     1
  3
ACAD_XREC_ROUNDTRIP
360
589
  0
XRECORD
  5
55D
102
{ACAD_REACTORS
330
55C
102
}
330
55C
100
AcDbXrecord
280
     1
102
MATERIAL
148
0.0
149
0.0
149
0.0
 93
        0
 94
      127
282
     0
 72
     0
 77
     0
171
     0
175
     0
179
     0
273
     0
  0
XRECORD
  5
559
102
{ACAD_REACTORS
330
558
102
}
330
558
100
AcDbXrecord
280
     1
102
MATERIAL
148
0.0
149
0.0
149
0.0
 93
        0
 94
      127
282
     0
 72
     0
 77
     0
171
     0
175
     0
179
     0
273
     0
  0
XRECORD
  5
55B
102
{ACAD_REACTORS
330
55A
102
}
330
55A
100
AcDbXrecord
280
     1
102
MATERIAL
148
0.0
149
0.0
149
0.0
 93
        0
 94
      127
282
     0
 72
     0
 77
     0
171
     0
175
     0
179
     0
273
     0
  0
XRECORD
  5
58F
102
{ACAD_REACTORS
330
58E
102
}
330
58E
100
AcDbXrecord
280
     1
102
ACAD_ROUNDTRIP_2010_MLEADER_STYLE
  0
XRECORD
  5
56B
102
{ACAD_REACTORS
330
56A
102
}
330
56A
100
AcDbXrecord
280
     1
102
RTVSPropertyOp0
 70
     1
102
RTVSPropertyOp1
 70
     1
102
RTVSPropertyOp2
 70
     1
102
RTVSPropertyOp3
 70
     1
102
RTVSPropertyOp4
 70
     1
102
RTVSPropertyOp5
 70
     1
102
RTVSPropertyOp6
 70
     1
102
RTVSPropertyOp7
 70
     1
102
RTVSPropertyOp8
 70
     1
102
RTVSPropertyOp9
 70
     1
102
RTVSPropertyOp10
 70
     1
102
RTVSPropertyOp11
 70
     1
102
RTVSPropertyOp12
 70
     1
102
RTVSPropertyOp13
 70
     1
102
RTVSPropertyOp14
 70
     1
102
RTVSPropertyOp15
 70
     1
102
RTVSPropertyOp16
 70
     1
102
RTVSPropertyOp17
 70
     1
102
RTVSPropertyOp18
 70
     1
102
RTVSPropertyOp19
 70
     1
102
RTVSPropertyOp20
 70
     1
102
RTVSPropertyOp21
 70
     1
102
RTVSPropertyOp22
 70
     1
102
RTVSPropertyOp23
 70
     1
102
RTVSPropertyOp24
 70
     1
102
RTVSPropertyOp25
 70
     1
102
RTVSPropertyOp26
 70
     1
102
RTVSPropertyOp27
 70
     1
102
RTVSPropertyOp28
 70
     1
102
RTVSPropertyOp29
 70
     1
102
RTVSPropertyOp30
 70
     1
102
RTVSPropertyOp31
 70
     1
102
RTVSPropertyOp32
 70
     1
102
RTVSPropertyOp33
 70
     1
102
RTVSPropertyOp34
 70
     1
102
RTVSPropertyOp35
 70
     1
102
RTVSPropertyOp36
 70
     1
102
RTVSPropertyOp37
 70
     1
102
RTVSPropertyOp38
 70
     1
102
RTVSPropertyOp39
 70
     1
102
RTVSPropertyOp40
 70
     1
102
RTVSPropertyOp41
 70
     1
102
RTVSPropertyOp42
 70
     1
102
RTVSPropertyOp43
 70
     1
102
RTVSPropertyOp44
 70
     1
102
RTVSPropertyOp45
 70
     1
102
RTVSPropertyOp46
 70
     1
102
RTVSPropertyOp47
 70
     1
102
RTVSPropertyOp48
 70
     1
102
RTVSPropertyOp49
 70
     1
102
RTVSPropertyOp50
 70
     1
102
RTVSPropertyOp51
 70
     0
102
RTVSPropertyOp52
 70
     0
102
RTVSPropertyOp53
 70
     1
102
RTVSPropertyOp54
 70
     1
102
RTVSPropertyOp55
 70
     1
102
RTVSPropertyOp56
 70
     1
102
RTVSPropertyOp57
 70
     1
102
RTVSPost2010Prop28
280
     1
102
RTVSPost2010PropOp28
 70
     1
102
RTVSPost2010Prop29
280
     1
102
RTVSPost2010PropOp29
 70
     1
102
RTVSPost2010Prop30
280
     0
102
RTVSPost2010PropOp30
 70
     1
102
RTVSPost2010Prop31
280
     0
102
RTVSPost2010PropOp31
 70
     1
102
RTVSPost2010Prop32
280
     0
102
RTVSPost2010PropOp32
 70
     1
102
RTVSPost2010Prop33
280
     0
102
RTVSPost2010PropOp33
 70
     1
102
RTVSPost2010Prop34
280
     0
102
RTVSPost2010PropOp34
 70
     1
102
RTVSPost2010Prop35
280
     0
102
RTVSPost2010PropOp35
 70
     1
102
RTVSPost2010Prop36
280
     0
102
RTVSPost2010PropOp36
 70
     1
102
RTVSPost2010Prop37
 90
       50
102
RTVSPost2010PropOp37
 70
     1
102
RTVSPost2010Prop38
140
0.0
102
RTVSPost2010PropOp38
 70
     1
102
RTVSPost2010Prop39
140
1.0
102
RTVSPost2010PropOp39
 70
     1
102
RTVSPost2010Prop40
 90
        0
102
RTVSPost2010PropOp40
 70
     1
102
RTVSPost2010Prop41ColorIndex
 90
       18
102
RTVSPost2010Prop41ColorRGB
 90
        0
102
RTVSPost2010PropOp41
 70
     1
102
RTVSPost2010Prop42
 90
       50
102
RTVSPost2010PropOp42
 70
     1
102
RTVSPost2010Prop43
 90
        3
102
RTVSPost2010PropOp43
 70
     1
102
RTVSPost2010Prop44ColorIndex
 90
        5
102
RTVSPost2010Prop44ColorRGB
 90
      255
102
RTVSPost2010PropOp44
 70
     1
102
RTVSPost2010Prop45
280
     0
102
RTVSPost2010PropOp45
 70
     1
102
RTVSPost2010Prop46
 90
       50
102
RTVSPost2010PropOp46
 70
     1
102
RTVSPost2010Prop47
 90
       50
102
RTVSPost2010PropOp47
 70
     1
102
RTVSPost2010Prop48
 90
       50
102
RTVSPost2010PropOp48
 70
     1
102
RTVSPost2010Prop49
280
     0
102
RTVSPost2010PropOp49
 70
     1
102
RTVSPost2010Prop50
 90
       50
102
RTVSPost2010PropOp50
 70
     1
102
RTVSPost2010Prop51ColorIndex
 90
      256
102
RTVSPost2010Prop51ColorRGB
 90
-16777216
102
RTVSPost2010PropOp51
 70
     0
102
RTVSPost2010Prop52
140
1.0
102
RTVSPost2010PropOp52
 70
     0
102
RTVSPost2010Prop53
 90
        2
102
RTVSPost2010PropOp53
 70
     1
102
RTVSPost2010Prop54
  1
strokes_ogs.tif
102
RTVSPost2010PropOp54
 70
     1
102
RTVSPost2010Prop55
280
     0
102
RTVSPost2010PropOp55
 70
     1
102
RTVSPost2010Prop56
140
1.0
102
RTVSPost2010PropOp56
 70
     1
102
RTVSPost2010Prop57
140
1.0
102
RTVSPost2010PropOp57
 70
     1
  0
XRECORD
  5
56F
102
{ACAD_REACTORS
330
56E
102
}
330
56E
100
AcDbXrecord
280
     1
102
RTVSPropertyOp0
 70
     1
102
RTVSPropertyOp1
 70
     1
102
RTVSPropertyOp2
 70
     1
102
RTVSPropertyOp3
 70
     1
102
RTVSPropertyOp4
 70
     1
102
RTVSPropertyOp5
 70
     1
102
RTVSPropertyOp6
 70
     1
102
RTVSPropertyOp7
 70
     1
102
RTVSPropertyOp8
 70
     1
102
RTVSPropertyOp9
 70
     1
102
RTVSPropertyOp10
 70
     1
102
RTVSPropertyOp11
 70
     1
102
RTVSPropertyOp12
 70
     1
102
RTVSPropertyOp13
 70
     1
102
RTVSPropertyOp14
 70
     1
102
RTVSPropertyOp15
 70
     1
102
RTVSPropertyOp16
 70
     1
102
RTVSPropertyOp17
 70
     1
102
RTVSPropertyOp18
 70
     1
102
RTVSPropertyOp19
 70
     1
102
RTVSPropertyOp20
 70
     1
102
RTVSPropertyOp21
 70
     1
102
RTVSPropertyOp22
 70
     1
102
RTVSPropertyOp23
 70
     1
102
RTVSPropertyOp24
 70
     1
102
RTVSPropertyOp25
 70
     1
102
RTVSPropertyOp26
 70
     1
102
RTVSPropertyOp27
 70
     1
102
RTVSPropertyOp28
 70
     1
102
RTVSPropertyOp29
 70
     1
102
RTVSPropertyOp30
 70
     1
102
RTVSPropertyOp31
 70
     1
102
RTVSPropertyOp32
 70
     1
102
RTVSPropertyOp33
 70
     1
102
RTVSPropertyOp34
 70
     1
102
RTVSPropertyOp35
 70
     1
102
RTVSPropertyOp36
 70
     1
102
RTVSPropertyOp37
 70
     1
102
RTVSPropertyOp38
 70
     1
102
RTVSPropertyOp39
 70
     1
102
RTVSPropertyOp40
 70
     1
102
RTVSPropertyOp41
 70
     1
102
RTVSPropertyOp42
 70
     1
102
RTVSPropertyOp43
 70
     1
102
RTVSPropertyOp44
 70
     1
102
RTVSPropertyOp45
 70
     1
102
RTVSPropertyOp46
 70
     1
102
RTVSPropertyOp47
 70
     1
102
RTVSPropertyOp48
 70
     1
102
RTVSPropertyOp49
 70
     1
102
RTVSPropertyOp50
 70
     1
102
RTVSPropertyOp51
 70
     0
102
RTVSPropertyOp52
 70
     0
102
RTVSPropertyOp53
 70
     1
102
RTVSPropertyOp54
 70
     1
102
RTVSPropertyOp55
 70
     1
102
RTVSPropertyOp56
 70
     1
102
RTVSPropertyOp57
 70
     1
102
RTVSPost2010Prop28
280
     0
102
RTVSPost2010PropOp28
 70
     1
102
RTVSPost2010Prop29
280
     1
102
RTVSPost2010PropOp29
 70
     1
102
RTVSPost2010Prop30
280
     1
102
RTVSPost2010PropOp30
 70
     1
102
RTVSPost2010Prop31
280
     0
102
RTVSPost2010PropOp31
 70
     1
102
RTVSPost2010Prop32
280
     0
102
RTVSPost2010PropOp32
 70
     1
102
RTVSPost2010Prop33
280
     0
102
RTVSPost2010PropOp33
 70
     1
102
RTVSPost2010Prop34
280
     0
102
RTVSPost2010PropOp34
 70
     1
102
RTVSPost2010Prop35
280
     0
102
RTVSPost2010PropOp35
 70
     1
102
RTVSPost2010Prop36
280
     0
102
RTVSPost2010PropOp36
 70
     1
102
RTVSPost2010Prop37
 90
       50
102
RTVSPost2010PropOp37
 70
     1
102
RTVSPost2010Prop38
140
0.0
102
RTVSPost2010PropOp38
 70
     1
102
RTVSPost2010Prop39
140
1.0
102
RTVSPost2010PropOp39
 70
     1
102
RTVSPost2010Prop40
 90
        0
102
RTVSPost2010PropOp40
 70
     1
102
RTVSPost2010Prop41ColorIndex
 90
       18
102
RTVSPost2010Prop41ColorRGB
 90
        0
102
RTVSPost2010PropOp41
 70
     1
102
RTVSPost2010Prop42
 90
       50
102
RTVSPost2010PropOp42
 70
     1
102
RTVSPost2010Prop43
 90
        3
102
RTVSPost2010PropOp43
 70
     1
102
RTVSPost2010Prop44ColorIndex
 90
        5
102
RTVSPost2010Prop44ColorRGB
 90
      255
102
RTVSPost2010PropOp44
 70
     1
102
RTVSPost2010Prop45
280
     0
102
RTVSPost2010PropOp45
 70
     1
102
RTVSPost2010Prop46
 90
       50
102
RTVSPost2010PropOp46
 70
     1
102
RTVSPost2010Prop47
 90
       50
102
RTVSPost2010PropOp47
 70
     1
102
RTVSPost2010Prop48
 90
       50
102
RTVSPost2010PropOp48
 70
     1
102
RTVSPost2010Prop49
280
     0
102
RTVSPost2010PropOp49
 70
     1
102
RTVSPost2010Prop50
 90
       50
102
RTVSPost2010PropOp50
 70
     1
102
RTVSPost2010Prop51ColorIndex
 90
      256
102
RTVSPost2010Prop51ColorRGB
 90
-16777216
102
RTVSPost2010PropOp51
 70
     0
102
RTVSPost2010Prop52
140
1.0
102
RTVSPost2010PropOp52
 70
     0
102
RTVSPost2010Prop53
 90
        2
102
RTVSPost2010PropOp53
 70
     1
102
RTVSPost2010Prop54
  1
strokes_ogs.tif
102
RTVSPost2010PropOp54
 70
     1
102
RTVSPost2010Prop55
280
     0
102
RTVSPost2010PropOp55
 70
     1
102
RTVSPost2010Prop56
140
1.0
102
RTVSPost2010PropOp56
 70
     1
102
RTVSPost2010Prop57
140
1.0
102
RTVSPost2010PropOp57
 70
     1
  0
XRECORD
  5
575
102
{ACAD_REACTORS
330
574
102
}
330
574
100
AcDbXrecord
280
     1
102
RTVSPropertyOp0
 70
     1
102
RTVSPropertyOp1
 70
     1
102
RTVSPropertyOp2
 70
     1
102
RTVSPropertyOp3
 70
     1
102
RTVSPropertyOp4
 70
     1
102
RTVSPropertyOp5
 70
     1
102
RTVSPropertyOp6
 70
     1
102
RTVSPropertyOp7
 70
     1
102
RTVSPropertyOp8
 70
     1
102
RTVSPropertyOp9
 70
     1
102
RTVSPropertyOp10
 70
     1
102
RTVSPropertyOp11
 70
     1
102
RTVSPropertyOp12
 70
     1
102
RTVSPropertyOp13
 70
     1
102
RTVSPropertyOp14
 70
     1
102
RTVSPropertyOp15
 70
     1
102
RTVSPropertyOp16
 70
     1
102
RTVSPropertyOp17
 70
     1
102
RTVSPropertyOp18
 70
     1
102
RTVSPropertyOp19
 70
     1
102
RTVSPropertyOp20
 70
     1
102
RTVSPropertyOp21
 70
     1
102
RTVSPropertyOp22
 70
     1
102
RTVSPropertyOp23
 70
     1
102
RTVSPropertyOp24
 70
     1
102
RTVSPropertyOp25
 70
     1
102
RTVSPropertyOp26
 70
     1
102
RTVSPropertyOp27
 70
     1
102
RTVSPropertyOp28
 70
     1
102
RTVSPropertyOp29
 70
     1
102
RTVSPropertyOp30
 70
     1
102
RTVSPropertyOp31
 70
     1
102
RTVSPropertyOp32
 70
     1
102
RTVSPropertyOp33
 70
     1
102
RTVSPropertyOp34
 70
     1
102
RTVSPropertyOp35
 70
     1
102
RTVSPropertyOp36
 70
     1
102
RTVSPropertyOp37
 70
     1
102
RTVSPropertyOp38
 70
     1
102
RTVSPropertyOp39
 70
     1
102
RTVSPropertyOp40
 70
     1
102
RTVSPropertyOp41
 70
     1
102
RTVSPropertyOp42
 70
     1
102
RTVSPropertyOp43
 70
     1
102
RTVSPropertyOp44
 70
     1
102
RTVSPropertyOp45
 70
     1
102
RTVSPropertyOp46
 70
     1
102
RTVSPropertyOp47
 70
     1
102
RTVSPropertyOp48
 70
     1
102
RTVSPropertyOp49
 70
     1
102
RTVSPropertyOp50
 70
     1
102
RTVSPropertyOp51
 70
     0
102
RTVSPropertyOp52
 70
     0
102
RTVSPropertyOp53
 70
     1
102
RTVSPropertyOp54
 70
     1
102
RTVSPropertyOp55
 70
     1
102
RTVSPropertyOp56
 70
     1
102
RTVSPropertyOp57
 70
     1
102
RTVSPost2010Prop28
280
     0
102
RTVSPost2010PropOp28
 70
     1
102
RTVSPost2010Prop29
280
     1
102
RTVSPost2010PropOp29
 70
     1
102
RTVSPost2010Prop30
280
     1
102
RTVSPost2010PropOp30
 70
     1
102
RTVSPost2010Prop31
280
     0
102
RTVSPost2010PropOp31
 70
     1
102
RTVSPost2010Prop32
280
     0
102
RTVSPost2010PropOp32
 70
     1
102
RTVSPost2010Prop33
280
     0
102
RTVSPost2010PropOp33
 70
     1
102
RTVSPost2010Prop34
280
     0
102
RTVSPost2010PropOp34
 70
     1
102
RTVSPost2010Prop35
280
     0
102
RTVSPost2010PropOp35
 70
     1
102
RTVSPost2010Prop36
280
     0
102
RTVSPost2010PropOp36
 70
     1
102
RTVSPost2010Prop37
 90
       50
102
RTVSPost2010PropOp37
 70
     1
102
RTVSPost2010Prop38
140
0.0
102
RTVSPost2010PropOp38
 70
     1
102
RTVSPost2010Prop39
140
1.0
102
RTVSPost2010PropOp39
 70
     1
102
RTVSPost2010Prop40
 90
        0
102
RTVSPost2010PropOp40
 70
     1
102
RTVSPost2010Prop41ColorIndex
 90
       18
102
RTVSPost2010Prop41ColorRGB
 90
        0
102
RTVSPost2010PropOp41
 70
     1
102
RTVSPost2010Prop42
 90
       50
102
RTVSPost2010PropOp42
 70
     1
102
RTVSPost2010Prop43
 90
        3
102
RTVSPost2010PropOp43
 70
     1
102
RTVSPost2010Prop44ColorIndex
 90
        5
102
RTVSPost2010Prop44ColorRGB
 90
      255
102
RTVSPost2010PropOp44
 70
     1
102
RTVSPost2010Prop45
280
     0
102
RTVSPost2010PropOp45
 70
     1
102
RTVSPost2010Prop46
 90
       50
102
RTVSPost2010PropOp46
 70
     1
102
RTVSPost2010Prop47
 90
       50
102
RTVSPost2010PropOp47
 70
     1
102
RTVSPost2010Prop48
 90
       50
102
RTVSPost2010PropOp48
 70
     1
102
RTVSPost2010Prop49
280
     0
102
RTVSPost2010PropOp49
 70
     1
102
RTVSPost2010Prop50
 90
       50
102
RTVSPost2010PropOp50
 70
     1
102
RTVSPost2010Prop51ColorIndex
 90
      256
102
RTVSPost2010Prop51ColorRGB
 90
-16777216
102
RTVSPost2010PropOp51
 70
     0
102
RTVSPost2010Prop52
140
1.0
102
RTVSPost2010PropOp52
 70
     0
102
RTVSPost2010Prop53
 90
        2
102
RTVSPost2010PropOp53
 70
     1
102
RTVSPost2010Prop54
  1
strokes_ogs.tif
102
RTVSPost2010PropOp54
 70
     1
102
RTVSPost2010Prop55
280
     0
102
RTVSPost2010PropOp55
 70
     1
102
RTVSPost2010Prop56
140
1.0
102
RTVSPost2010PropOp56
 70
     1
102
RTVSPost2010Prop57
140
1.0
102
RTVSPost2010PropOp57
 70
     1
  0
XRECORD
  5
57D
102
{ACAD_REACTORS
330
57C
102
}
330
57C
100
AcDbXrecord
280
     1
102
RTVSPropertyOp0
 70
     1
102
RTVSPropertyOp1
 70
     1
102
RTVSPropertyOp2
 70
     1
102
RTVSPropertyOp3
 70
     1
102
RTVSPropertyOp4
 70
     1
102
RTVSPropertyOp5
 70
     1
102
RTVSPropertyOp6
 70
     1
102
RTVSPropertyOp7
 70
     1
102
RTVSPropertyOp8
 70
     1
102
RTVSPropertyOp9
 70
     1
102
RTVSPropertyOp10
 70
     1
102
RTVSPropertyOp11
 70
     1
102
RTVSPropertyOp12
 70
     1
102
RTVSPropertyOp13
 70
     1
102
RTVSPropertyOp14
 70
     1
102
RTVSPropertyOp15
 70
     1
102
RTVSPropertyOp16
 70
     1
102
RTVSPropertyOp17
 70
     1
102
RTVSPropertyOp18
 70
     1
102
RTVSPropertyOp19
 70
     1
102
RTVSPropertyOp20
 70
     1
102
RTVSPropertyOp21
 70
     1
102
RTVSPropertyOp22
 70
     1
102
RTVSPropertyOp23
 70
     1
102
RTVSPropertyOp24
 70
     1
102
RTVSPropertyOp25
 70
     1
102
RTVSPropertyOp26
 70
     1
102
RTVSPropertyOp27
 70
     1
102
RTVSPropertyOp28
 70
     1
102
RTVSPropertyOp29
 70
     1
102
RTVSPropertyOp30
 70
     1
102
RTVSPropertyOp31
 70
     1
102
RTVSPropertyOp32
 70
     1
102
RTVSPropertyOp33
 70
     1
102
RTVSPropertyOp34
 70
     1
102
RTVSPropertyOp35
 70
     1
102
RTVSPropertyOp36
 70
     1
102
RTVSPropertyOp37
 70
     1
102
RTVSPropertyOp38
 70
     1
102
RTVSPropertyOp39
 70
     1
102
RTVSPropertyOp40
 70
     1
102
RTVSPropertyOp41
 70
     1
102
RTVSPropertyOp42
 70
     1
102
RTVSPropertyOp43
 70
     1
102
RTVSPropertyOp44
 70
     1
102
RTVSPropertyOp45
 70
     1
102
RTVSPropertyOp46
 70
     1
102
RTVSPropertyOp47
 70
     1
102
RTVSPropertyOp48
 70
     1
102
RTVSPropertyOp49
 70
     1
102
RTVSPropertyOp50
 70
     1
102
RTVSPropertyOp51
 70
     0
102
RTVSPropertyOp52
 70
     0
102
RTVSPropertyOp53
 70
     1
102
RTVSPropertyOp54
 70
     1
102
RTVSPropertyOp55
 70
     1
102
RTVSPropertyOp56
 70
     1
102
RTVSPropertyOp57
 70
     1
102
RTVSPost2010Prop28
280
     0
102
RTVSPost2010PropOp28
 70
     1
102
RTVSPost2010Prop29
280
     1
102
RTVSPost2010PropOp29
 70
     1
102
RTVSPost2010Prop30
280
     1
102
RTVSPost2010PropOp30
 70
     1
102
RTVSPost2010Prop31
280
     0
102
RTVSPost2010PropOp31
 70
     1
102
RTVSPost2010Prop32
280
     0
102
RTVSPost2010PropOp32
 70
     1
102
RTVSPost2010Prop33
280
     0
102
RTVSPost2010PropOp33
 70
     1
102
RTVSPost2010Prop34
280
     0
102
RTVSPost2010PropOp34
 70
     1
102
RTVSPost2010Prop35
280
     0
102
RTVSPost2010PropOp35
 70
     1
102
RTVSPost2010Prop36
280
     0
102
RTVSPost2010PropOp36
 70
     1
102
RTVSPost2010Prop37
 90
       50
102
RTVSPost2010PropOp37
 70
     1
102
RTVSPost2010Prop38
140
0.0
102
RTVSPost2010PropOp38
 70
     1
102
RTVSPost2010Prop39
140
1.0
102
RTVSPost2010PropOp39
 70
     1
102
RTVSPost2010Prop40
 90
        0
102
RTVSPost2010PropOp40
 70
     1
102
RTVSPost2010Prop41ColorIndex
 90
       18
102
RTVSPost2010Prop41ColorRGB
 90
        0
102
RTVSPost2010PropOp41
 70
     1
102
RTVSPost2010Prop42
 90
       50
102
RTVSPost2010PropOp42
 70
     1
102
RTVSPost2010Prop43
 90
        3
102
RTVSPost2010PropOp43
 70
     1
102
RTVSPost2010Prop44ColorIndex
 90
        5
102
RTVSPost2010Prop44ColorRGB
 90
      255
102
RTVSPost2010PropOp44
 70
     1
102
RTVSPost2010Prop45
280
     0
102
RTVSPost2010PropOp45
 70
     1
102
RTVSPost2010Prop46
 90
       50
102
RTVSPost2010PropOp46
 70
     1
102
RTVSPost2010Prop47
 90
       50
102
RTVSPost2010PropOp47
 70
     1
102
RTVSPost2010Prop48
 90
       50
102
RTVSPost2010PropOp48
 70
     1
102
RTVSPost2010Prop49
280
     0
102
RTVSPost2010PropOp49
 70
     1
102
RTVSPost2010Prop50
 90
       50
102
RTVSPost2010PropOp50
 70
     1
102
RTVSPost2010Prop51ColorIndex
 90
      256
102
RTVSPost2010Prop51ColorRGB
 90
-16777216
102
RTVSPost2010PropOp51
 70
     0
102
RTVSPost2010Prop52
140
1.0
102
RTVSPost2010PropOp52
 70
     0
102
RTVSPost2010Prop53
 90
        2
102
RTVSPost2010PropOp53
 70
     1
102
RTVSPost2010Prop54
  1
strokes_ogs.tif
102
RTVSPost2010PropOp54
 70
     1
102
RTVSPost2010Prop55
280
     0
102
RTVSPost2010PropOp55
 70
     1
102
RTVSPost2010Prop56
140
1.0
102
RTVSPost2010PropOp56
 70
     1
102
RTVSPost2010Prop57
140
1.0
102
RTVSPost2010PropOp57
 70
     1
  0
XRECORD
  5
571
102
{ACAD_REACTORS
330
570
102
}
330
570
100
AcDbXrecord
280
     1
102
RTVSPropertyOp0
 70
     1
102
RTVSPropertyOp1
 70
     1
102
RTVSPropertyOp2
 70
     1
102
RTVSPropertyOp3
 70
     1
102
RTVSPropertyOp4
 70
     1
102
RTVSPropertyOp5
 70
     1
102
RTVSPropertyOp6
 70
     1
102
RTVSPropertyOp7
 70
     1
102
RTVSPropertyOp8
 70
     1
102
RTVSPropertyOp9
 70
     1
102
RTVSPropertyOp10
 70
     1
102
RTVSPropertyOp11
 70
     1
102
RTVSPropertyOp12
 70
     1
102
RTVSPropertyOp13
 70
     1
102
RTVSPropertyOp14
 70
     1
102
RTVSPropertyOp15
 70
     1
102
RTVSPropertyOp16
 70
     1
102
RTVSPropertyOp17
 70
     1
102
RTVSPropertyOp18
 70
     1
102
RTVSPropertyOp19
 70
     1
102
RTVSPropertyOp20
 70
     1
102
RTVSPropertyOp21
 70
     1
102
RTVSPropertyOp22
 70
     1
102
RTVSPropertyOp23
 70
     1
102
RTVSPropertyOp24
 70
     1
102
RTVSPropertyOp25
 70
     1
102
RTVSPropertyOp26
 70
     1
102
RTVSPropertyOp27
 70
     1
102
RTVSPropertyOp28
 70
     1
102
RTVSPropertyOp29
 70
     1
102
RTVSPropertyOp30
 70
     1
102
RTVSPropertyOp31
 70
     1
102
RTVSPropertyOp32
 70
     1
102
RTVSPropertyOp33
 70
     1
102
RTVSPropertyOp34
 70
     1
102
RTVSPropertyOp35
 70
     1
102
RTVSPropertyOp36
 70
     1
102
RTVSPropertyOp37
 70
     1
102
RTVSPropertyOp38
 70
     1
102
RTVSPropertyOp39
 70
     1
102
RTVSPropertyOp40
 70
     1
102
RTVSPropertyOp41
 70
     1
102
RTVSPropertyOp42
 70
     1
102
RTVSPropertyOp43
 70
     1
102
RTVSPropertyOp44
 70
     1
102
RTVSPropertyOp45
 70
     1
102
RTVSPropertyOp46
 70
     1
102
RTVSPropertyOp47
 70
     1
102
RTVSPropertyOp48
 70
     1
102
RTVSPropertyOp49
 70
     1
102
RTVSPropertyOp50
 70
     1
102
RTVSPropertyOp51
 70
     0
102
RTVSPropertyOp52
 70
     0
102
RTVSPropertyOp53
 70
     1
102
RTVSPropertyOp54
 70
     1
102
RTVSPropertyOp55
 70
     1
102
RTVSPropertyOp56
 70
     1
102
RTVSPropertyOp57
 70
     1
102
RTVSPost2010Prop28
280
     0
102
RTVSPost2010PropOp28
 70
     1
102
RTVSPost2010Prop29
280
     1
102
RTVSPost2010PropOp29
 70
     1
102
RTVSPost2010Prop30
280
     1
102
RTVSPost2010PropOp30
 70
     1
102
RTVSPost2010Prop31
280
     0
102
RTVSPost2010PropOp31
 70
     1
102
RTVSPost2010Prop32
280
     0
102
RTVSPost2010PropOp32
 70
     1
102
RTVSPost2010Prop33
280
     0
102
RTVSPost2010PropOp33
 70
     1
102
RTVSPost2010Prop34
280
     0
102
RTVSPost2010PropOp34
 70
     1
102
RTVSPost2010Prop35
280
     0
102
RTVSPost2010PropOp35
 70
     1
102
RTVSPost2010Prop36
280
     0
102
RTVSPost2010PropOp36
 70
     1
102
RTVSPost2010Prop37
 90
       50
102
RTVSPost2010PropOp37
 70
     1
102
RTVSPost2010Prop38
140
0.0
102
RTVSPost2010PropOp38
 70
     1
102
RTVSPost2010Prop39
140
1.0
102
RTVSPost2010PropOp39
 70
     1
102
RTVSPost2010Prop40
 90
        0
102
RTVSPost2010PropOp40
 70
     1
102
RTVSPost2010Prop41ColorIndex
 90
       18
102
RTVSPost2010Prop41ColorRGB
 90
        0
102
RTVSPost2010PropOp41
 70
     1
102
RTVSPost2010Prop42
 90
       50
102
RTVSPost2010PropOp42
 70
     1
102
RTVSPost2010Prop43
 90
        3
102
RTVSPost2010PropOp43
 70
     1
102
RTVSPost2010Prop44ColorIndex
 90
        5
102
RTVSPost2010Prop44ColorRGB
 90
      255
102
RTVSPost2010PropOp44
 70
     1
102
RTVSPost2010Prop45
280
     0
102
RTVSPost2010PropOp45
 70
     1
102
RTVSPost2010Prop46
 90
       50
102
RTVSPost2010PropOp46
 70
     1
102
RTVSPost2010Prop47
 90
       50
102
RTVSPost2010PropOp47
 70
     1
102
RTVSPost2010Prop48
 90
       50
102
RTVSPost2010PropOp48
 70
     1
102
RTVSPost2010Prop49
280
     0
102
RTVSPost2010PropOp49
 70
     1
102
RTVSPost2010Prop50
 90
       50
102
RTVSPost2010PropOp50
 70
     1
102
RTVSPost2010Prop51ColorIndex
 90
      256
102
RTVSPost2010Prop51ColorRGB
 90
-16777216
102
RTVSPost2010PropOp51
 70
     0
102
RTVSPost2010Prop52
140
1.0
102
RTVSPost2010PropOp52
 70
     0
102
RTVSPost2010Prop53
 90
        2
102
RTVSPost2010PropOp53
 70
     1
102
RTVSPost2010Prop54
  1
strokes_ogs.tif
102
RTVSPost2010PropOp54
 70
     1
102
RTVSPost2010Prop55
280
     0
102
RTVSPost2010PropOp55
 70
     1
102
RTVSPost2010Prop56
140
1.0
102
RTVSPost2010PropOp56
 70
     1
102
RTVSPost2010Prop57
140
1.0
102
RTVSPost2010PropOp57
 70
     1
  0
XRECORD
  5
573
102
{ACAD_REACTORS
330
572
102
}
330
572
100
AcDbXrecord
280
     1
102
RTVSPropertyOp0
 70
     1
102
RTVSPropertyOp1
 70
     1
102
RTVSPropertyOp2
 70
     1
102
RTVSPropertyOp3
 70
     1
102
RTVSPropertyOp4
 70
     1
102
RTVSPropertyOp5
 70
     1
102
RTVSPropertyOp6
 70
     1
102
RTVSPropertyOp7
 70
     1
102
RTVSPropertyOp8
 70
     1
102
RTVSPropertyOp9
 70
     1
102
RTVSPropertyOp10
 70
     1
102
RTVSPropertyOp11
 70
     1
102
RTVSPropertyOp12
 70
     1
102
RTVSPropertyOp13
 70
     1
102
RTVSPropertyOp14
 70
     1
102
RTVSPropertyOp15
 70
     1
102
RTVSPropertyOp16
 70
     1
102
RTVSPropertyOp17
 70
     1
102
RTVSPropertyOp18
 70
     1
102
RTVSPropertyOp19
 70
     1
102
RTVSPropertyOp20
 70
     1
102
RTVSPropertyOp21
 70
     1
102
RTVSPropertyOp22
 70
     1
102
RTVSPropertyOp23
 70
     1
102
RTVSPropertyOp24
 70
     1
102
RTVSPropertyOp25
 70
     1
102
RTVSPropertyOp26
 70
     1
102
RTVSPropertyOp27
 70
     1
102
RTVSPropertyOp28
 70
     1
102
RTVSPropertyOp29
 70
     1
102
RTVSPropertyOp30
 70
     1
102
RTVSPropertyOp31
 70
     1
102
RTVSPropertyOp32
 70
     1
102
RTVSPropertyOp33
 70
     1
102
RTVSPropertyOp34
 70
     1
102
RTVSPropertyOp35
 70
     1
102
RTVSPropertyOp36
 70
     1
102
RTVSPropertyOp37
 70
     1
102
RTVSPropertyOp38
 70
     1
102
RTVSPropertyOp39
 70
     1
102
RTVSPropertyOp40
 70
     1
102
RTVSPropertyOp41
 70
     1
102
RTVSPropertyOp42
 70
     1
102
RTVSPropertyOp43
 70
     1
102
RTVSPropertyOp44
 70
     1
102
RTVSPropertyOp45
 70
     1
102
RTVSPropertyOp46
 70
     1
102
RTVSPropertyOp47
 70
     1
102
RTVSPropertyOp48
 70
     1
102
RTVSPropertyOp49
 70
     1
102
RTVSPropertyOp50
 70
     1
102
RTVSPropertyOp51
 70
     0
102
RTVSPropertyOp52
 70
     0
102
RTVSPropertyOp53
 70
     1
102
RTVSPropertyOp54
 70
     1
102
RTVSPropertyOp55
 70
     1
102
RTVSPropertyOp56
 70
     1
102
RTVSPropertyOp57
 70
     1
102
RTVSPost2010Prop28
280
     0
102
RTVSPost2010PropOp28
 70
     1
102
RTVSPost2010Prop29
280
     1
102
RTVSPost2010PropOp29
 70
     1
102
RTVSPost2010Prop30
280
     1
102
RTVSPost2010PropOp30
 70
     1
102
RTVSPost2010Prop31
280
     0
102
RTVSPost2010PropOp31
 70
     1
102
RTVSPost2010Prop32
280
     0
102
RTVSPost2010PropOp32
 70
     1
102
RTVSPost2010Prop33
280
     0
102
RTVSPost2010PropOp33
 70
     1
102
RTVSPost2010Prop34
280
     0
102
RTVSPost2010PropOp34
 70
     1
102
RTVSPost2010Prop35
280
     0
102
RTVSPost2010PropOp35
 70
     1
102
RTVSPost2010Prop36
280
     0
102
RTVSPost2010PropOp36
 70
     1
102
RTVSPost2010Prop37
 90
       50
102
RTVSPost2010PropOp37
 70
     1
102
RTVSPost2010Prop38
140
0.0
102
RTVSPost2010PropOp38
 70
     1
102
RTVSPost2010Prop39
140
1.0
102
RTVSPost2010PropOp39
 70
     1
102
RTVSPost2010Prop40
 90
        0
102
RTVSPost2010PropOp40
 70
     1
102
RTVSPost2010Prop41ColorIndex
 90
       18
102
RTVSPost2010Prop41ColorRGB
 90
        0
102
RTVSPost2010PropOp41
 70
     1
102
RTVSPost2010Prop42
 90
       50
102
RTVSPost2010PropOp42
 70
     1
102
RTVSPost2010Prop43
 90
        3
102
RTVSPost2010PropOp43
 70
     1
102
RTVSPost2010Prop44ColorIndex
 90
        5
102
RTVSPost2010Prop44ColorRGB
 90
      255
102
RTVSPost2010PropOp44
 70
     1
102
RTVSPost2010Prop45
280
     0
102
RTVSPost2010PropOp45
 70
     1
102
RTVSPost2010Prop46
 90
       50
102
RTVSPost2010PropOp46
 70
     1
102
RTVSPost2010Prop47
 90
       50
102
RTVSPost2010PropOp47
 70
     1
102
RTVSPost2010Prop48
 90
       50
102
RTVSPost2010PropOp48
 70
     1
102
RTVSPost2010Prop49
280
     0
102
RTVSPost2010PropOp49
 70
     1
102
RTVSPost2010Prop50
 90
       50
102
RTVSPost2010PropOp50
 70
     1
102
RTVSPost2010Prop51ColorIndex
 90
      256
102
RTVSPost2010Prop51ColorRGB
 90
-16777216
102
RTVSPost2010PropOp51
 70
     0
102
RTVSPost2010Prop52
140
1.0
102
RTVSPost2010PropOp52
 70
     0
102
RTVSPost2010Prop53
 90
        2
102
RTVSPost2010PropOp53
 70
     1
102
RTVSPost2010Prop54
  1
strokes_ogs.tif
102
RTVSPost2010PropOp54
 70
     1
102
RTVSPost2010Prop55
280
     0
102
RTVSPost2010PropOp55
 70
     1
102
RTVSPost2010Prop56
140
1.0
102
RTVSPost2010PropOp56
 70
     1
102
RTVSPost2010Prop57
140
1.0
102
RTVSPost2010PropOp57
 70
     1
  0
XRECORD
  5
583
102
{ACAD_REACTORS
330
582
102
}
330
582
100
AcDbXrecord
280
     1
102
RTVSPropertyOp0
 70
     0
102
RTVSPropertyOp1
 70
     0
102
RTVSPropertyOp2
 70
     0
102
RTVSPropertyOp3
 70
     0
102
RTVSPropertyOp4
 70
     0
102
RTVSPropertyOp5
 70
     0
102
RTVSPropertyOp6
 70
     0
102
RTVSPropertyOp7
 70
     0
102
RTVSPropertyOp8
 70
     0
102
RTVSPropertyOp9
 70
     0
102
RTVSPropertyOp10
 70
     0
102
RTVSPropertyOp11
 70
     0
102
RTVSPropertyOp12
 70
     0
102
RTVSPropertyOp13
 70
     0
102
RTVSPropertyOp14
 70
     0
102
RTVSPropertyOp15
 70
     0
102
RTVSPropertyOp16
 70
     0
102
RTVSPropertyOp17
 70
     0
102
RTVSPropertyOp18
 70
     0
102
RTVSPropertyOp19
 70
     0
102
RTVSPropertyOp20
 70
     0
102
RTVSPropertyOp21
 70
     0
102
RTVSPropertyOp22
 70
     0
102
RTVSPropertyOp23
 70
     0
102
RTVSPropertyOp24
 70
     0
102
RTVSPropertyOp25
 70
     0
102
RTVSPropertyOp26
 70
     0
102
RTVSPropertyOp27
 70
     0
102
RTVSPropertyOp28
 70
     1
102
RTVSPropertyOp29
 70
     1
102
RTVSPropertyOp30
 70
     1
102
RTVSPropertyOp31
 70
     1
102
RTVSPropertyOp32
 70
     1
102
RTVSPropertyOp33
 70
     1
102
RTVSPropertyOp34
 70
     1
102
RTVSPropertyOp35
 70
     1
102
RTVSPropertyOp36
 70
     1
102
RTVSPropertyOp37
 70
     1
102
RTVSPropertyOp38
 70
     1
102
RTVSPropertyOp39
 70
     1
102
RTVSPropertyOp40
 70
     1
102
RTVSPropertyOp41
 70
     1
102
RTVSPropertyOp42
 70
     1
102
RTVSPropertyOp43
 70
     1
102
RTVSPropertyOp44
 70
     1
102
RTVSPropertyOp45
 70
     1
102
RTVSPropertyOp46
 70
     1
102
RTVSPropertyOp47
 70
     1
102
RTVSPropertyOp48
 70
     1
102
RTVSPropertyOp49
 70
     1
102
RTVSPropertyOp50
 70
     1
102
RTVSPropertyOp51
 70
     0
102
RTVSPropertyOp52
 70
     0
102
RTVSPropertyOp53
 70
     1
102
RTVSPropertyOp54
 70
     1
102
RTVSPropertyOp55
 70
     1
102
RTVSPropertyOp56
 70
     1
102
RTVSPropertyOp57
 70
     1
102
RTVSPost2010Prop28
280
     0
102
RTVSPost2010PropOp28
 70
     1
102
RTVSPost2010Prop29
280
     1
102
RTVSPost2010PropOp29
 70
     1
102
RTVSPost2010Prop30
280
     1
102
RTVSPost2010PropOp30
 70
     1
102
RTVSPost2010Prop31
280
     0
102
RTVSPost2010PropOp31
 70
     1
102
RTVSPost2010Prop32
280
     0
102
RTVSPost2010PropOp32
 70
     1
102
RTVSPost2010Prop33
280
     0
102
RTVSPost2010PropOp33
 70
     1
102
RTVSPost2010Prop34
280
     0
102
RTVSPost2010PropOp34
 70
     1
102
RTVSPost2010Prop35
280
     0
102
RTVSPost2010PropOp35
 70
     1
102
RTVSPost2010Prop36
280
     0
102
RTVSPost2010PropOp36
 70
     1
102
RTVSPost2010Prop37
 90
       50
102
RTVSPost2010PropOp37
 70
     1
102
RTVSPost2010Prop38
140
0.0
102
RTVSPost2010PropOp38
 70
     1
102
RTVSPost2010Prop39
140
1.0
102
RTVSPost2010PropOp39
 70
     1
102
RTVSPost2010Prop40
 90
        0
102
RTVSPost2010PropOp40
 70
     1
102
RTVSPost2010Prop41ColorIndex
 90
       18
102
RTVSPost2010Prop41ColorRGB
 90
        0
102
RTVSPost2010PropOp41
 70
     1
102
RTVSPost2010Prop42
 90
       50
102
RTVSPost2010PropOp42
 70
     1
102
RTVSPost2010Prop43
 90
        3
102
RTVSPost2010PropOp43
 70
     1
102
RTVSPost2010Prop44ColorIndex
 90
        5
102
RTVSPost2010Prop44ColorRGB
 90
      255
102
RTVSPost2010PropOp44
 70
     1
102
RTVSPost2010Prop45
280
     0
102
RTVSPost2010PropOp45
 70
     1
102
RTVSPost2010Prop46
 90
       50
102
RTVSPost2010PropOp46
 70
     1
102
RTVSPost2010Prop47
 90
       50
102
RTVSPost2010PropOp47
 70
     1
102
RTVSPost2010Prop48
 90
       50
102
RTVSPost2010PropOp48
 70
     1
102
RTVSPost2010Prop49
280
     0
102
RTVSPost2010PropOp49
 70
     1
102
RTVSPost2010Prop50
 90
       50
102
RTVSPost2010PropOp50
 70
     1
102
RTVSPost2010Prop51ColorIndex
 90
      256
102
RTVSPost2010Prop51ColorRGB
 90
-16777216
102
RTVSPost2010PropOp51
 70
     0
102
RTVSPost2010Prop52
140
1.0
102
RTVSPost2010PropOp52
 70
     0
102
RTVSPost2010Prop53
 90
        2
102
RTVSPost2010PropOp53
 70
     1
102
RTVSPost2010Prop54
  1
strokes_ogs.tif
102
RTVSPost2010PropOp54
 70
     1
102
RTVSPost2010Prop55
280
     0
102
RTVSPost2010PropOp55
 70
     1
102
RTVSPost2010Prop56
140
1.0
102
RTVSPost2010PropOp56
 70
     1
102
RTVSPost2010Prop57
140
1.0
102
RTVSPost2010PropOp57
 70
     1
  0
XRECORD
  5
57B
102
{ACAD_REACTORS
330
57A
102
}
330
57A
100
AcDbXrecord
280
     1
102
RTVSPropertyOp0
 70
     1
102
RTVSPropertyOp1
 70
     1
102
RTVSPropertyOp2
 70
     1
102
RTVSPropertyOp3
 70
     1
102
RTVSPropertyOp4
 70
     1
102
RTVSPropertyOp5
 70
     1
102
RTVSPropertyOp6
 70
     1
102
RTVSPropertyOp7
 70
     1
102
RTVSPropertyOp8
 70
     1
102
RTVSPropertyOp9
 70
     1
102
RTVSPropertyOp10
 70
     1
102
RTVSPropertyOp11
 70
     1
102
RTVSPropertyOp12
 70
     1
102
RTVSPropertyOp13
 70
     1
102
RTVSPropertyOp14
 70
     1
102
RTVSPropertyOp15
 70
     1
102
RTVSPropertyOp16
 70
     1
102
RTVSPropertyOp17
 70
     1
102
RTVSPropertyOp18
 70
     1
102
RTVSPropertyOp19
 70
     1
102
RTVSPropertyOp20
 70
     1
102
RTVSPropertyOp21
 70
     1
102
RTVSPropertyOp22
 70
     1
102
RTVSPropertyOp23
 70
     1
102
RTVSPropertyOp24
 70
     1
102
RTVSPropertyOp25
 70
     1
102
RTVSPropertyOp26
 70
     1
102
RTVSPropertyOp27
 70
     1
102
RTVSPropertyOp28
 70
     1
102
RTVSPropertyOp29
 70
     1
102
RTVSPropertyOp30
 70
     1
102
RTVSPropertyOp31
 70
     1
102
RTVSPropertyOp32
 70
     1
102
RTVSPropertyOp33
 70
     1
102
RTVSPropertyOp34
 70
     1
102
RTVSPropertyOp35
 70
     1
102
RTVSPropertyOp36
 70
     1
102
RTVSPropertyOp37
 70
     1
102
RTVSPropertyOp38
 70
     1
102
RTVSPropertyOp39
 70
     1
102
RTVSPropertyOp40
 70
     1
102
RTVSPropertyOp41
 70
     1
102
RTVSPropertyOp42
 70
     1
102
RTVSPropertyOp43
 70
     1
102
RTVSPropertyOp44
 70
     1
102
RTVSPropertyOp45
 70
     1
102
RTVSPropertyOp46
 70
     1
102
RTVSPropertyOp47
 70
     1
102
RTVSPropertyOp48
 70
     1
102
RTVSPropertyOp49
 70
     1
102
RTVSPropertyOp50
 70
     1
102
RTVSPropertyOp51
 70
     0
102
RTVSPropertyOp52
 70
     0
102
RTVSPropertyOp53
 70
     1
102
RTVSPropertyOp54
 70
     1
102
RTVSPropertyOp55
 70
     1
102
RTVSPropertyOp56
 70
     1
102
RTVSPropertyOp57
 70
     1
102
RTVSPost2010Prop28
280
     0
102
RTVSPost2010PropOp28
 70
     1
102
RTVSPost2010Prop29
280
     1
102
RTVSPost2010PropOp29
 70
     1
102
RTVSPost2010Prop30
280
     1
102
RTVSPost2010PropOp30
 70
     1
102
RTVSPost2010Prop31
280
     0
102
RTVSPost2010PropOp31
 70
     1
102
RTVSPost2010Prop32
280
     0
102
RTVSPost2010PropOp32
 70
     1
102
RTVSPost2010Prop33
280
     0
102
RTVSPost2010PropOp33
 70
     1
102
RTVSPost2010Prop34
280
     0
102
RTVSPost2010PropOp34
 70
     1
102
RTVSPost2010Prop35
280
     0
102
RTVSPost2010PropOp35
 70
     1
102
RTVSPost2010Prop36
280
     0
102
RTVSPost2010PropOp36
 70
     1
102
RTVSPost2010Prop37
 90
       50
102
RTVSPost2010PropOp37
 70
     1
102
RTVSPost2010Prop38
140
0.0
102
RTVSPost2010PropOp38
 70
     1
102
RTVSPost2010Prop39
140
1.0
102
RTVSPost2010PropOp39
 70
     1
102
RTVSPost2010Prop40
 90
        0
102
RTVSPost2010PropOp40
 70
     1
102
RTVSPost2010Prop41ColorIndex
 90
       18
102
RTVSPost2010Prop41ColorRGB
 90
        0
102
RTVSPost2010PropOp41
 70
     1
102
RTVSPost2010Prop42
 90
       50
102
RTVSPost2010PropOp42
 70
     1
102
RTVSPost2010Prop43
 90
        3
102
RTVSPost2010PropOp43
 70
     1
102
RTVSPost2010Prop44ColorIndex
 90
        5
102
RTVSPost2010Prop44ColorRGB
 90
      255
102
RTVSPost2010PropOp44
 70
     1
102
RTVSPost2010Prop45
280
     0
102
RTVSPost2010PropOp45
 70
     1
102
RTVSPost2010Prop46
 90
       50
102
RTVSPost2010PropOp46
 70
     1
102
RTVSPost2010Prop47
 90
       50
102
RTVSPost2010PropOp47
 70
     1
102
RTVSPost2010Prop48
 90
       50
102
RTVSPost2010PropOp48
 70
     1
102
RTVSPost2010Prop49
280
     0
102
RTVSPost2010PropOp49
 70
     1
102
RTVSPost2010Prop50
 90
       50
102
RTVSPost2010PropOp50
 70
     1
102
RTVSPost2010Prop51ColorIndex
 90
      256
102
RTVSPost2010Prop51ColorRGB
 90
-16777216
102
RTVSPost2010PropOp51
 70
     0
102
RTVSPost2010Prop52
140
1.0
102
RTVSPost2010PropOp52
 70
     0
102
RTVSPost2010Prop53
 90
        2
102
RTVSPost2010PropOp53
 70
     1
102
RTVSPost2010Prop54
  1
strokes_ogs.tif
102
RTVSPost2010PropOp54
 70
     1
102
RTVSPost2010Prop55
280
     0
102
RTVSPost2010PropOp55
 70
     1
102
RTVSPost2010Prop56
140
1.0
102
RTVSPost2010PropOp56
 70
     1
102
RTVSPost2010Prop57
140
1.0
102
RTVSPost2010PropOp57
 70
     1
  0
XRECORD
  5
563
102
{ACAD_REACTORS
330
562
102
}
330
562
100
AcDbXrecord
280
     1
102
RTVSPropertyOp0
 70
     1
102
RTVSPropertyOp1
 70
     1
102
RTVSPropertyOp2
 70
     1
102
RTVSPropertyOp3
 70
     1
102
RTVSPropertyOp4
 70
     1
102
RTVSPropertyOp5
 70
     1
102
RTVSPropertyOp6
 70
     1
102
RTVSPropertyOp7
 70
     1
102
RTVSPropertyOp8
 70
     1
102
RTVSPropertyOp9
 70
     1
102
RTVSPropertyOp10
 70
     1
102
RTVSPropertyOp11
 70
     1
102
RTVSPropertyOp12
 70
     1
102
RTVSPropertyOp13
 70
     1
102
RTVSPropertyOp14
 70
     1
102
RTVSPropertyOp15
 70
     1
102
RTVSPropertyOp16
 70
     1
102
RTVSPropertyOp17
 70
     1
102
RTVSPropertyOp18
 70
     1
102
RTVSPropertyOp19
 70
     1
102
RTVSPropertyOp20
 70
     1
102
RTVSPropertyOp21
 70
     1
102
RTVSPropertyOp22
 70
     1
102
RTVSPropertyOp23
 70
     1
102
RTVSPropertyOp24
 70
     1
102
RTVSPropertyOp25
 70
     1
102
RTVSPropertyOp26
 70
     1
102
RTVSPropertyOp27
 70
     1
102
RTVSPropertyOp28
 70
     1
102
RTVSPropertyOp29
 70
     1
102
RTVSPropertyOp30
 70
     1
102
RTVSPropertyOp31
 70
     1
102
RTVSPropertyOp32
 70
     1
102
RTVSPropertyOp33
 70
     1
102
RTVSPropertyOp34
 70
     1
102
RTVSPropertyOp35
 70
     1
102
RTVSPropertyOp36
 70
     1
102
RTVSPropertyOp37
 70
     1
102
RTVSPropertyOp38
 70
     1
102
RTVSPropertyOp39
 70
     1
102
RTVSPropertyOp40
 70
     1
102
RTVSPropertyOp41
 70
     1
102
RTVSPropertyOp42
 70
     1
102
RTVSPropertyOp43
 70
     1
102
RTVSPropertyOp44
 70
     1
102
RTVSPropertyOp45
 70
     1
102
RTVSPropertyOp46
 70
     1
102
RTVSPropertyOp47
 70
     1
102
RTVSPropertyOp48
 70
     1
102
RTVSPropertyOp49
 70
     1
102
RTVSPropertyOp50
 70
     1
102
RTVSPropertyOp51
 70
     0
102
RTVSPropertyOp52
 70
     0
102
RTVSPropertyOp53
 70
     1
102
RTVSPropertyOp54
 70
     1
102
RTVSPropertyOp55
 70
     1
102
RTVSPropertyOp56
 70
     1
102
RTVSPropertyOp57
 70
     1
102
RTVSPost2010Prop28
280
     0
102
RTVSPost2010PropOp28
 70
     1
102
RTVSPost2010Prop29
280
     1
102
RTVSPost2010PropOp29
 70
     1
102
RTVSPost2010Prop30
280
     1
102
RTVSPost2010PropOp30
 70
     1
102
RTVSPost2010Prop31
280
     0
102
RTVSPost2010PropOp31
 70
     1
102
RTVSPost2010Prop32
280
     0
102
RTVSPost2010PropOp32
 70
     1
102
RTVSPost2010Prop33
280
     0
102
RTVSPost2010PropOp33
 70
     1
102
RTVSPost2010Prop34
280
     0
102
RTVSPost2010PropOp34
 70
     1
102
RTVSPost2010Prop35
280
     0
102
RTVSPost2010PropOp35
 70
     1
102
RTVSPost2010Prop36
280
     0
102
RTVSPost2010PropOp36
 70
     1
102
RTVSPost2010Prop37
 90
       50
102
RTVSPost2010PropOp37
 70
     1
102
RTVSPost2010Prop38
140
0.0
102
RTVSPost2010PropOp38
 70
     1
102
RTVSPost2010Prop39
140
1.0
102
RTVSPost2010PropOp39
 70
     1
102
RTVSPost2010Prop40
 90
        0
102
RTVSPost2010PropOp40
 70
     1
102
RTVSPost2010Prop41ColorIndex
 90
       18
102
RTVSPost2010Prop41ColorRGB
 90
        0
102
RTVSPost2010PropOp41
 70
     1
102
RTVSPost2010Prop42
 90
       50
102
RTVSPost2010PropOp42
 70
     1
102
RTVSPost2010Prop43
 90
        3
102
RTVSPost2010PropOp43
 70
     1
102
RTVSPost2010Prop44ColorIndex
 90
        5
102
RTVSPost2010Prop44ColorRGB
 90
      255
102
RTVSPost2010PropOp44
 70
     1
102
RTVSPost2010Prop45
280
     0
102
RTVSPost2010PropOp45
 70
     1
102
RTVSPost2010Prop46
 90
       50
102
RTVSPost2010PropOp46
 70
     1
102
RTVSPost2010Prop47
 90
       50
102
RTVSPost2010PropOp47
 70
     1
102
RTVSPost2010Prop48
 90
       50
102
RTVSPost2010PropOp48
 70
     1
102
RTVSPost2010Prop49
280
     0
102
RTVSPost2010PropOp49
 70
     1
102
RTVSPost2010Prop50
 90
       50
102
RTVSPost2010PropOp50
 70
     1
102
RTVSPost2010Prop51ColorIndex
 90
      256
102
RTVSPost2010Prop51ColorRGB
 90
-16777216
102
RTVSPost2010PropOp51
 70
     0
102
RTVSPost2010Prop52
140
1.0
102
RTVSPost2010PropOp52
 70
     0
102
RTVSPost2010Prop53
 90
        2
102
RTVSPost2010PropOp53
 70
     1
102
RTVSPost2010Prop54
  1
strokes_ogs.tif
102
RTVSPost2010PropOp54
 70
     1
102
RTVSPost2010Prop55
280
     0
102
RTVSPost2010PropOp55
 70
     1
102
RTVSPost2010Prop56
140
1.0
102
RTVSPost2010PropOp56
 70
     1
102
RTVSPost2010Prop57
140
1.0
102
RTVSPost2010PropOp57
 70
     1
  0
XRECORD
  5
565
102
{ACAD_REACTORS
330
564
102
}
330
564
100
AcDbXrecord
280
     1
102
RTVSPropertyOp0
 70
     1
102
RTVSPropertyOp1
 70
     1
102
RTVSPropertyOp2
 70
     1
102
RTVSPropertyOp3
 70
     1
102
RTVSPropertyOp4
 70
     1
102
RTVSPropertyOp5
 70
     1
102
RTVSPropertyOp6
 70
     1
102
RTVSPropertyOp7
 70
     1
102
RTVSPropertyOp8
 70
     1
102
RTVSPropertyOp9
 70
     1
102
RTVSPropertyOp10
 70
     1
102
RTVSPropertyOp11
 70
     1
102
RTVSPropertyOp12
 70
     1
102
RTVSPropertyOp13
 70
     1
102
RTVSPropertyOp14
 70
     1
102
RTVSPropertyOp15
 70
     1
102
RTVSPropertyOp16
 70
     1
102
RTVSPropertyOp17
 70
     1
102
RTVSPropertyOp18
 70
     1
102
RTVSPropertyOp19
 70
     1
102
RTVSPropertyOp20
 70
     1
102
RTVSPropertyOp21
 70
     1
102
RTVSPropertyOp22
 70
     1
102
RTVSPropertyOp23
 70
     1
102
RTVSPropertyOp24
 70
     1
102
RTVSPropertyOp25
 70
     1
102
RTVSPropertyOp26
 70
     1
102
RTVSPropertyOp27
 70
     1
102
RTVSPropertyOp28
 70
     1
102
RTVSPropertyOp29
 70
     1
102
RTVSPropertyOp30
 70
     1
102
RTVSPropertyOp31
 70
     1
102
RTVSPropertyOp32
 70
     1
102
RTVSPropertyOp33
 70
     1
102
RTVSPropertyOp34
 70
     1
102
RTVSPropertyOp35
 70
     1
102
RTVSPropertyOp36
 70
     1
102
RTVSPropertyOp37
 70
     1
102
RTVSPropertyOp38
 70
     1
102
RTVSPropertyOp39
 70
     1
102
RTVSPropertyOp40
 70
     1
102
RTVSPropertyOp41
 70
     1
102
RTVSPropertyOp42
 70
     1
102
RTVSPropertyOp43
 70
     1
102
RTVSPropertyOp44
 70
     1
102
RTVSPropertyOp45
 70
     1
102
RTVSPropertyOp46
 70
     1
102
RTVSPropertyOp47
 70
     1
102
RTVSPropertyOp48
 70
     1
102
RTVSPropertyOp49
 70
     1
102
RTVSPropertyOp50
 70
     1
102
RTVSPropertyOp51
 70
     0
102
RTVSPropertyOp52
 70
     0
102
RTVSPropertyOp53
 70
     1
102
RTVSPropertyOp54
 70
     1
102
RTVSPropertyOp55
 70
     1
102
RTVSPropertyOp56
 70
     1
102
RTVSPropertyOp57
 70
     1
102
RTVSPost2010Prop28
280
     0
102
RTVSPost2010PropOp28
 70
     1
102
RTVSPost2010Prop29
280
     1
102
RTVSPost2010PropOp29
 70
     1
102
RTVSPost2010Prop30
280
     1
102
RTVSPost2010PropOp30
 70
     1
102
RTVSPost2010Prop31
280
     0
102
RTVSPost2010PropOp31
 70
     1
102
RTVSPost2010Prop32
280
     0
102
RTVSPost2010PropOp32
 70
     1
102
RTVSPost2010Prop33
280
     0
102
RTVSPost2010PropOp33
 70
     1
102
RTVSPost2010Prop34
280
     0
102
RTVSPost2010PropOp34
 70
     1
102
RTVSPost2010Prop35
280
     0
102
RTVSPost2010PropOp35
 70
     1
102
RTVSPost2010Prop36
280
     0
102
RTVSPost2010PropOp36
 70
     1
102
RTVSPost2010Prop37
 90
       50
102
RTVSPost2010PropOp37
 70
     1
102
RTVSPost2010Prop38
140
0.0
102
RTVSPost2010PropOp38
 70
     1
102
RTVSPost2010Prop39
140
1.0
102
RTVSPost2010PropOp39
 70
     1
102
RTVSPost2010Prop40
 90
        0
102
RTVSPost2010PropOp40
 70
     1
102
RTVSPost2010Prop41ColorIndex
 90
       18
102
RTVSPost2010Prop41ColorRGB
 90
        0
102
RTVSPost2010PropOp41
 70
     1
102
RTVSPost2010Prop42
 90
       50
102
RTVSPost2010PropOp42
 70
     1
102
RTVSPost2010Prop43
 90
        3
102
RTVSPost2010PropOp43
 70
     1
102
RTVSPost2010Prop44ColorIndex
 90
        5
102
RTVSPost2010Prop44ColorRGB
 90
      255
102
RTVSPost2010PropOp44
 70
     1
102
RTVSPost2010Prop45
280
     0
102
RTVSPost2010PropOp45
 70
     1
102
RTVSPost2010Prop46
 90
       50
102
RTVSPost2010PropOp46
 70
     1
102
RTVSPost2010Prop47
 90
       50
102
RTVSPost2010PropOp47
 70
     1
102
RTVSPost2010Prop48
 90
       50
102
RTVSPost2010PropOp48
 70
     1
102
RTVSPost2010Prop49
280
     0
102
RTVSPost2010PropOp49
 70
     1
102
RTVSPost2010Prop50
 90
       50
102
RTVSPost2010PropOp50
 70
     1
102
RTVSPost2010Prop51ColorIndex
 90
      256
102
RTVSPost2010Prop51ColorRGB
 90
-16777216
102
RTVSPost2010PropOp51
 70
     0
102
RTVSPost2010Prop52
140
1.0
102
RTVSPost2010PropOp52
 70
     0
102
RTVSPost2010Prop53
 90
        2
102
RTVSPost2010PropOp53
 70
     1
102
RTVSPost2010Prop54
  1
strokes_ogs.tif
102
RTVSPost2010PropOp54
 70
     1
102
RTVSPost2010Prop55
280
     0
102
RTVSPost2010PropOp55
 70
     1
102
RTVSPost2010Prop56
140
1.0
102
RTVSPost2010PropOp56
 70
     1
102
RTVSPost2010Prop57
140
1.0
102
RTVSPost2010PropOp57
 70
     1
  0
XRECORD
  5
567
102
{ACAD_REACTORS
330
566
102
}
330
566
100
AcDbXrecord
280
     1
102
RTVSPropertyOp0
 70
     1
102
RTVSPropertyOp1
 70
     1
102
RTVSPropertyOp2
 70
     1
102
RTVSPropertyOp3
 70
     1
102
RTVSPropertyOp4
 70
     1
102
RTVSPropertyOp5
 70
     1
102
RTVSPropertyOp6
 70
     1
102
RTVSPropertyOp7
 70
     1
102
RTVSPropertyOp8
 70
     1
102
RTVSPropertyOp9
 70
     1
102
RTVSPropertyOp10
 70
     1
102
RTVSPropertyOp11
 70
     1
102
RTVSPropertyOp12
 70
     1
102
RTVSPropertyOp13
 70
     1
102
RTVSPropertyOp14
 70
     1
102
RTVSPropertyOp15
 70
     1
102
RTVSPropertyOp16
 70
     1
102
RTVSPropertyOp17
 70
     1
102
RTVSPropertyOp18
 70
     1
102
RTVSPropertyOp19
 70
     1
102
RTVSPropertyOp20
 70
     1
102
RTVSPropertyOp21
 70
     1
102
RTVSPropertyOp22
 70
     1
102
RTVSPropertyOp23
 70
     1
102
RTVSPropertyOp24
 70
     1
102
RTVSPropertyOp25
 70
     1
102
RTVSPropertyOp26
 70
     1
102
RTVSPropertyOp27
 70
     1
102
RTVSPropertyOp28
 70
     1
102
RTVSPropertyOp29
 70
     1
102
RTVSPropertyOp30
 70
     1
102
RTVSPropertyOp31
 70
     1
102
RTVSPropertyOp32
 70
     1
102
RTVSPropertyOp33
 70
     1
102
RTVSPropertyOp34
 70
     1
102
RTVSPropertyOp35
 70
     1
102
RTVSPropertyOp36
 70
     1
102
RTVSPropertyOp37
 70
     1
102
RTVSPropertyOp38
 70
     1
102
RTVSPropertyOp39
 70
     1
102
RTVSPropertyOp40
 70
     1
102
RTVSPropertyOp41
 70
     1
102
RTVSPropertyOp42
 70
     1
102
RTVSPropertyOp43
 70
     1
102
RTVSPropertyOp44
 70
     1
102
RTVSPropertyOp45
 70
     1
102
RTVSPropertyOp46
 70
     1
102
RTVSPropertyOp47
 70
     1
102
RTVSPropertyOp48
 70
     1
102
RTVSPropertyOp49
 70
     1
102
RTVSPropertyOp50
 70
     1
102
RTVSPropertyOp51
 70
     0
102
RTVSPropertyOp52
 70
     0
102
RTVSPropertyOp53
 70
     1
102
RTVSPropertyOp54
 70
     1
102
RTVSPropertyOp55
 70
     1
102
RTVSPropertyOp56
 70
     1
102
RTVSPropertyOp57
 70
     1
102
RTVSPost2010Prop28
280
     0
102
RTVSPost2010PropOp28
 70
     1
102
RTVSPost2010Prop29
280
     1
102
RTVSPost2010PropOp29
 70
     1
102
RTVSPost2010Prop30
280
     1
102
RTVSPost2010PropOp30
 70
     1
102
RTVSPost2010Prop31
280
     0
102
RTVSPost2010PropOp31
 70
     1
102
RTVSPost2010Prop32
280
     0
102
RTVSPost2010PropOp32
 70
     1
102
RTVSPost2010Prop33
280
     0
102
RTVSPost2010PropOp33
 70
     1
102
RTVSPost2010Prop34
280
     0
102
RTVSPost2010PropOp34
 70
     1
102
RTVSPost2010Prop35
280
     0
102
RTVSPost2010PropOp35
 70
     1
102
RTVSPost2010Prop36
280
     0
102
RTVSPost2010PropOp36
 70
     1
102
RTVSPost2010Prop37
 90
       50
102
RTVSPost2010PropOp37
 70
     1
102
RTVSPost2010Prop38
140
0.0
102
RTVSPost2010PropOp38
 70
     1
102
RTVSPost2010Prop39
140
1.0
102
RTVSPost2010PropOp39
 70
     1
102
RTVSPost2010Prop40
 90
        0
102
RTVSPost2010PropOp40
 70
     1
102
RTVSPost2010Prop41ColorIndex
 90
       18
102
RTVSPost2010Prop41ColorRGB
 90
        0
102
RTVSPost2010PropOp41
 70
     1
102
RTVSPost2010Prop42
 90
       50
102
RTVSPost2010PropOp42
 70
     1
102
RTVSPost2010Prop43
 90
        3
102
RTVSPost2010PropOp43
 70
     1
102
RTVSPost2010Prop44ColorIndex
 90
        5
102
RTVSPost2010Prop44ColorRGB
 90
      255
102
RTVSPost2010PropOp44
 70
     1
102
RTVSPost2010Prop45
280
     0
102
RTVSPost2010PropOp45
 70
     1
102
RTVSPost2010Prop46
 90
       50
102
RTVSPost2010PropOp46
 70
     1
102
RTVSPost2010Prop47
 90
       50
102
RTVSPost2010PropOp47
 70
     1
102
RTVSPost2010Prop48
 90
       50
102
RTVSPost2010PropOp48
 70
     1
102
RTVSPost2010Prop49
280
     0
102
RTVSPost2010PropOp49
 70
     1
102
RTVSPost2010Prop50
 90
       50
102
RTVSPost2010PropOp50
 70
     1
102
RTVSPost2010Prop51ColorIndex
 90
      256
102
RTVSPost2010Prop51ColorRGB
 90
-16777216
102
RTVSPost2010PropOp51
 70
     0
102
RTVSPost2010Prop52
140
1.0
102
RTVSPost2010PropOp52
 70
     0
102
RTVSPost2010Prop53
 90
        2
102
RTVSPost2010PropOp53
 70
     1
102
RTVSPost2010Prop54
  1
strokes_ogs.tif
102
RTVSPost2010PropOp54
 70
     1
102
RTVSPost2010Prop55
280
     0
102
RTVSPost2010PropOp55
 70
     1
102
RTVSPost2010Prop56
140
1.0
102
RTVSPost2010PropOp56
 70
     1
102
RTVSPost2010Prop57
140
1.0
102
RTVSPost2010PropOp57
 70
     1
  0
XRECORD
  5
569
102
{ACAD_REACTORS
330
568
102
}
330
568
100
AcDbXrecord
280
     1
102
RTVSPropertyOp0
 70
     1
102
RTVSPropertyOp1
 70
     1
102
RTVSPropertyOp2
 70
     1
102
RTVSPropertyOp3
 70
     1
102
RTVSPropertyOp4
 70
     1
102
RTVSPropertyOp5
 70
     1
102
RTVSPropertyOp6
 70
     1
102
RTVSPropertyOp7
 70
     1
102
RTVSPropertyOp8
 70
     1
102
RTVSPropertyOp9
 70
     1
102
RTVSPropertyOp10
 70
     1
102
RTVSPropertyOp11
 70
     1
102
RTVSPropertyOp12
 70
     1
102
RTVSPropertyOp13
 70
     1
102
RTVSPropertyOp14
 70
     1
102
RTVSPropertyOp15
 70
     1
102
RTVSPropertyOp16
 70
     1
102
RTVSPropertyOp17
 70
     1
102
RTVSPropertyOp18
 70
     1
102
RTVSPropertyOp19
 70
     1
102
RTVSPropertyOp20
 70
     1
102
RTVSPropertyOp21
 70
     1
102
RTVSPropertyOp22
 70
     1
102
RTVSPropertyOp23
 70
     1
102
RTVSPropertyOp24
 70
     1
102
RTVSPropertyOp25
 70
     1
102
RTVSPropertyOp26
 70
     1
102
RTVSPropertyOp27
 70
     1
102
RTVSPropertyOp28
 70
     1
102
RTVSPropertyOp29
 70
     1
102
RTVSPropertyOp30
 70
     1
102
RTVSPropertyOp31
 70
     1
102
RTVSPropertyOp32
 70
     1
102
RTVSPropertyOp33
 70
     1
102
RTVSPropertyOp34
 70
     1
102
RTVSPropertyOp35
 70
     1
102
RTVSPropertyOp36
 70
     1
102
RTVSPropertyOp37
 70
     1
102
RTVSPropertyOp38
 70
     1
102
RTVSPropertyOp39
 70
     1
102
RTVSPropertyOp40
 70
     1
102
RTVSPropertyOp41
 70
     1
102
RTVSPropertyOp42
 70
     1
102
RTVSPropertyOp43
 70
     1
102
RTVSPropertyOp44
 70
     1
102
RTVSPropertyOp45
 70
     1
102
RTVSPropertyOp46
 70
     1
102
RTVSPropertyOp47
 70
     1
102
RTVSPropertyOp48
 70
     1
102
RTVSPropertyOp49
 70
     1
102
RTVSPropertyOp50
 70
     1
102
RTVSPropertyOp51
 70
     0
102
RTVSPropertyOp52
 70
     0
102
RTVSPropertyOp53
 70
     1
102
RTVSPropertyOp54
 70
     1
102
RTVSPropertyOp55
 70
     1
102
RTVSPropertyOp56
 70
     1
102
RTVSPropertyOp57
 70
     1
102
RTVSPost2010Prop28
280
     0
102
RTVSPost2010PropOp28
 70
     1
102
RTVSPost2010Prop29
280
     1
102
RTVSPost2010PropOp29
 70
     1
102
RTVSPost2010Prop30
280
     1
102
RTVSPost2010PropOp30
 70
     1
102
RTVSPost2010Prop31
280
     0
102
RTVSPost2010PropOp31
 70
     1
102
RTVSPost2010Prop32
280
     0
102
RTVSPost2010PropOp32
 70
     1
102
RTVSPost2010Prop33
280
     0
102
RTVSPost2010PropOp33
 70
     1
102
RTVSPost2010Prop34
280
     0
102
RTVSPost2010PropOp34
 70
     1
102
RTVSPost2010Prop35
280
     0
102
RTVSPost2010PropOp35
 70
     1
102
RTVSPost2010Prop36
280
     0
102
RTVSPost2010PropOp36
 70
     1
102
RTVSPost2010Prop37
 90
       50
102
RTVSPost2010PropOp37
 70
     1
102
RTVSPost2010Prop38
140
0.0
102
RTVSPost2010PropOp38
 70
     1
102
RTVSPost2010Prop39
140
1.0
102
RTVSPost2010PropOp39
 70
     1
102
RTVSPost2010Prop40
 90
        0
102
RTVSPost2010PropOp40
 70
     1
102
RTVSPost2010Prop41ColorIndex
 90
       18
102
RTVSPost2010Prop41ColorRGB
 90
        0
102
RTVSPost2010PropOp41
 70
     1
102
RTVSPost2010Prop42
 90
       50
102
RTVSPost2010PropOp42
 70
     1
102
RTVSPost2010Prop43
 90
        3
102
RTVSPost2010PropOp43
 70
     1
102
RTVSPost2010Prop44ColorIndex
 90
        5
102
RTVSPost2010Prop44ColorRGB
 90
      255
102
RTVSPost2010PropOp44
 70
     1
102
RTVSPost2010Prop45
280
     0
102
RTVSPost2010PropOp45
 70
     1
102
RTVSPost2010Prop46
 90
       50
102
RTVSPost2010PropOp46
 70
     1
102
RTVSPost2010Prop47
 90
       50
102
RTVSPost2010PropOp47
 70
     1
102
RTVSPost2010Prop48
 90
       50
102
RTVSPost2010PropOp48
 70
     1
102
RTVSPost2010Prop49
280
     0
102
RTVSPost2010PropOp49
 70
     1
102
RTVSPost2010Prop50
 90
       50
102
RTVSPost2010PropOp50
 70
     1
102
RTVSPost2010Prop51ColorIndex
 90
      256
102
RTVSPost2010Prop51ColorRGB
 90
-16777216
102
RTVSPost2010PropOp51
 70
     0
102
RTVSPost2010Prop52
140
1.0
102
RTVSPost2010PropOp52
 70
     0
102
RTVSPost2010Prop53
 90
        2
102
RTVSPost2010PropOp53
 70
     1
102
RTVSPost2010Prop54
  1
strokes_ogs.tif
102
RTVSPost2010PropOp54
 70
     1
102
RTVSPost2010Prop55
280
     0
102
RTVSPost2010PropOp55
 70
     1
102
RTVSPost2010Prop56
140
1.0
102
RTVSPost2010PropOp56
 70
     1
102
RTVSPost2010Prop57
140
1.0
102
RTVSPost2010PropOp57
 70
     1
  0
XRECORD
  5
56D
102
{ACAD_REACTORS
330
56C
102
}
330
56C
100
AcDbXrecord
280
     1
102
RTVSPropertyOp0
 70
     1
102
RTVSPropertyOp1
 70
     1
102
RTVSPropertyOp2
 70
     1
102
RTVSPropertyOp3
 70
     1
102
RTVSPropertyOp4
 70
     1
102
RTVSPropertyOp5
 70
     1
102
RTVSPropertyOp6
 70
     1
102
RTVSPropertyOp7
 70
     1
102
RTVSPropertyOp8
 70
     1
102
RTVSPropertyOp9
 70
     1
102
RTVSPropertyOp10
 70
     1
102
RTVSPropertyOp11
 70
     1
102
RTVSPropertyOp12
 70
     1
102
RTVSPropertyOp13
 70
     1
102
RTVSPropertyOp14
 70
     1
102
RTVSPropertyOp15
 70
     1
102
RTVSPropertyOp16
 70
     1
102
RTVSPropertyOp17
 70
     1
102
RTVSPropertyOp18
 70
     1
102
RTVSPropertyOp19
 70
     1
102
RTVSPropertyOp20
 70
     1
102
RTVSPropertyOp21
 70
     1
102
RTVSPropertyOp22
 70
     1
102
RTVSPropertyOp23
 70
     1
102
RTVSPropertyOp24
 70
     1
102
RTVSPropertyOp25
 70
     1
102
RTVSPropertyOp26
 70
     1
102
RTVSPropertyOp27
 70
     1
102
RTVSPropertyOp28
 70
     1
102
RTVSPropertyOp29
 70
     1
102
RTVSPropertyOp30
 70
     1
102
RTVSPropertyOp31
 70
     1
102
RTVSPropertyOp32
 70
     1
102
RTVSPropertyOp33
 70
     1
102
RTVSPropertyOp34
 70
     1
102
RTVSPropertyOp35
 70
     1
102
RTVSPropertyOp36
 70
     1
102
RTVSPropertyOp37
 70
     1
102
RTVSPropertyOp38
 70
     1
102
RTVSPropertyOp39
 70
     1
102
RTVSPropertyOp40
 70
     1
102
RTVSPropertyOp41
 70
     1
102
RTVSPropertyOp42
 70
     1
102
RTVSPropertyOp43
 70
     1
102
RTVSPropertyOp44
 70
     1
102
RTVSPropertyOp45
 70
     1
102
RTVSPropertyOp46
 70
     1
102
RTVSPropertyOp47
 70
     1
102
RTVSPropertyOp48
 70
     1
102
RTVSPropertyOp49
 70
     1
102
RTVSPropertyOp50
 70
     1
102
RTVSPropertyOp51
 70
     0
102
RTVSPropertyOp52
 70
     0
102
RTVSPropertyOp53
 70
     1
102
RTVSPropertyOp54
 70
     1
102
RTVSPropertyOp55
 70
     1
102
RTVSPropertyOp56
 70
     1
102
RTVSPropertyOp57
 70
     1
102
RTVSPost2010Prop28
280
     0
102
RTVSPost2010PropOp28
 70
     1
102
RTVSPost2010Prop29
280
     1
102
RTVSPost2010PropOp29
 70
     1
102
RTVSPost2010Prop30
280
     1
102
RTVSPost2010PropOp30
 70
     1
102
RTVSPost2010Prop31
280
     0
102
RTVSPost2010PropOp31
 70
     1
102
RTVSPost2010Prop32
280
     0
102
RTVSPost2010PropOp32
 70
     1
102
RTVSPost2010Prop33
280
     0
102
RTVSPost2010PropOp33
 70
     1
102
RTVSPost2010Prop34
280
     0
102
RTVSPost2010PropOp34
 70
     1
102
RTVSPost2010Prop35
280
     0
102
RTVSPost2010PropOp35
 70
     1
102
RTVSPost2010Prop36
280
     0
102
RTVSPost2010PropOp36
 70
     1
102
RTVSPost2010Prop37
 90
       50
102
RTVSPost2010PropOp37
 70
     1
102
RTVSPost2010Prop38
140
0.0
102
RTVSPost2010PropOp38
 70
     1
102
RTVSPost2010Prop39
140
1.0
102
RTVSPost2010PropOp39
 70
     1
102
RTVSPost2010Prop40
 90
        0
102
RTVSPost2010PropOp40
 70
     1
102
RTVSPost2010Prop41ColorIndex
 90
       18
102
RTVSPost2010Prop41ColorRGB
 90
        0
102
RTVSPost2010PropOp41
 70
     1
102
RTVSPost2010Prop42
 90
       50
102
RTVSPost2010PropOp42
 70
     1
102
RTVSPost2010Prop43
 90
        3
102
RTVSPost2010PropOp43
 70
     1
102
RTVSPost2010Prop44ColorIndex
 90
        5
102
RTVSPost2010Prop44ColorRGB
 90
      255
102
RTVSPost2010PropOp44
 70
     1
102
RTVSPost2010Prop45
280
     0
102
RTVSPost2010PropOp45
 70
     1
102
RTVSPost2010Prop46
 90
       50
102
RTVSPost2010PropOp46
 70
     1
102
RTVSPost2010Prop47
 90
       50
102
RTVSPost2010PropOp47
 70
     1
102
RTVSPost2010Prop48
 90
       50
102
RTVSPost2010PropOp48
 70
     1
102
RTVSPost2010Prop49
280
     0
102
RTVSPost2010PropOp49
 70
     1
102
RTVSPost2010Prop50
 90
       50
102
RTVSPost2010PropOp50
 70
     1
102
RTVSPost2010Prop51ColorIndex
 90
      256
102
RTVSPost2010Prop51ColorRGB
 90
-16777216
102
RTVSPost2010PropOp51
 70
     0
102
RTVSPost2010Prop52
140
1.0
102
RTVSPost2010PropOp52
 70
     0
102
RTVSPost2010Prop53
 90
        2
102
RTVSPost2010PropOp53
 70
     1
102
RTVSPost2010Prop54
  1
strokes_ogs.tif
102
RTVSPost2010PropOp54
 70
     1
102
RTVSPost2010Prop55
280
     0
102
RTVSPost2010PropOp55
 70
     1
102
RTVSPost2010Prop56
140
1.0
102
RTVSPost2010PropOp56
 70
     1
102
RTVSPost2010Prop57
140
1.0
102
RTVSPost2010PropOp57
 70
     1
  0
XRECORD
  5
57F
102
{ACAD_REACTORS
330
57E
102
}
330
57E
100
AcDbXrecord
280
     1
102
RTVSPropertyOp0
 70
     0
102
RTVSPropertyOp1
 70
     0
102
RTVSPropertyOp2
 70
     0
102
RTVSPropertyOp3
 70
     0
102
RTVSPropertyOp4
 70
     0
102
RTVSPropertyOp5
 70
     0
102
RTVSPropertyOp6
 70
     0
102
RTVSPropertyOp7
 70
     0
102
RTVSPropertyOp8
 70
     0
102
RTVSPropertyOp9
 70
     0
102
RTVSPropertyOp10
 70
     0
102
RTVSPropertyOp11
 70
     0
102
RTVSPropertyOp12
 70
     0
102
RTVSPropertyOp13
 70
     0
102
RTVSPropertyOp14
 70
     0
102
RTVSPropertyOp15
 70
     0
102
RTVSPropertyOp16
 70
     0
102
RTVSPropertyOp17
 70
     0
102
RTVSPropertyOp18
 70
     0
102
RTVSPropertyOp19
 70
     0
102
RTVSPropertyOp20
 70
     0
102
RTVSPropertyOp21
 70
     0
102
RTVSPropertyOp22
 70
     0
102
RTVSPropertyOp23
 70
     0
102
RTVSPropertyOp24
 70
     0
102
RTVSPropertyOp25
 70
     0
102
RTVSPropertyOp26
 70
     0
102
RTVSPropertyOp27
 70
     0
102
RTVSPropertyOp28
 70
     1
102
RTVSPropertyOp29
 70
     1
102
RTVSPropertyOp30
 70
     1
102
RTVSPropertyOp31
 70
     1
102
RTVSPropertyOp32
 70
     1
102
RTVSPropertyOp33
 70
     1
102
RTVSPropertyOp34
 70
     1
102
RTVSPropertyOp35
 70
     1
102
RTVSPropertyOp36
 70
     1
102
RTVSPropertyOp37
 70
     1
102
RTVSPropertyOp38
 70
     1
102
RTVSPropertyOp39
 70
     1
102
RTVSPropertyOp40
 70
     1
102
RTVSPropertyOp41
 70
     1
102
RTVSPropertyOp42
 70
     1
102
RTVSPropertyOp43
 70
     1
102
RTVSPropertyOp44
 70
     1
102
RTVSPropertyOp45
 70
     1
102
RTVSPropertyOp46
 70
     1
102
RTVSPropertyOp47
 70
     1
102
RTVSPropertyOp48
 70
     1
102
RTVSPropertyOp49
 70
     1
102
RTVSPropertyOp50
 70
     1
102
RTVSPropertyOp51
 70
     0
102
RTVSPropertyOp52
 70
     0
102
RTVSPropertyOp53
 70
     1
102
RTVSPropertyOp54
 70
     1
102
RTVSPropertyOp55
 70
     1
102
RTVSPropertyOp56
 70
     1
102
RTVSPropertyOp57
 70
     1
102
RTVSPost2010Prop28
280
     0
102
RTVSPost2010PropOp28
 70
     1
102
RTVSPost2010Prop29
280
     1
102
RTVSPost2010PropOp29
 70
     1
102
RTVSPost2010Prop30
280
     1
102
RTVSPost2010PropOp30
 70
     1
102
RTVSPost2010Prop31
280
     0
102
RTVSPost2010PropOp31
 70
     1
102
RTVSPost2010Prop32
280
     0
102
RTVSPost2010PropOp32
 70
     1
102
RTVSPost2010Prop33
280
     0
102
RTVSPost2010PropOp33
 70
     1
102
RTVSPost2010Prop34
280
     0
102
RTVSPost2010PropOp34
 70
     1
102
RTVSPost2010Prop35
280
     0
102
RTVSPost2010PropOp35
 70
     1
102
RTVSPost2010Prop36
280
     0
102
RTVSPost2010PropOp36
 70
     1
102
RTVSPost2010Prop37
 90
       50
102
RTVSPost2010PropOp37
 70
     1
102
RTVSPost2010Prop38
140
0.0
102
RTVSPost2010PropOp38
 70
     1
102
RTVSPost2010Prop39
140
1.0
102
RTVSPost2010PropOp39
 70
     1
102
RTVSPost2010Prop40
 90
        0
102
RTVSPost2010PropOp40
 70
     1
102
RTVSPost2010Prop41ColorIndex
 90
       18
102
RTVSPost2010Prop41ColorRGB
 90
        0
102
RTVSPost2010PropOp41
 70
     1
102
RTVSPost2010Prop42
 90
       50
102
RTVSPost2010PropOp42
 70
     1
102
RTVSPost2010Prop43
 90
        3
102
RTVSPost2010PropOp43
 70
     1
102
RTVSPost2010Prop44ColorIndex
 90
        5
102
RTVSPost2010Prop44ColorRGB
 90
      255
102
RTVSPost2010PropOp44
 70
     1
102
RTVSPost2010Prop45
280
     0
102
RTVSPost2010PropOp45
 70
     1
102
RTVSPost2010Prop46
 90
       50
102
RTVSPost2010PropOp46
 70
     1
102
RTVSPost2010Prop47
 90
       50
102
RTVSPost2010PropOp47
 70
     1
102
RTVSPost2010Prop48
 90
       50
102
RTVSPost2010PropOp48
 70
     1
102
RTVSPost2010Prop49
280
     0
102
RTVSPost2010PropOp49
 70
     1
102
RTVSPost2010Prop50
 90
       50
102
RTVSPost2010PropOp50
 70
     1
102
RTVSPost2010Prop51ColorIndex
 90
      256
102
RTVSPost2010Prop51ColorRGB
 90
-16777216
102
RTVSPost2010PropOp51
 70
     0
102
RTVSPost2010Prop52
140
1.0
102
RTVSPost2010PropOp52
 70
     0
102
RTVSPost2010Prop53
 90
        2
102
RTVSPost2010PropOp53
 70
     1
102
RTVSPost2010Prop54
  1
strokes_ogs.tif
102
RTVSPost2010PropOp54
 70
     1
102
RTVSPost2010Prop55
280
     0
102
RTVSPost2010PropOp55
 70
     1
102
RTVSPost2010Prop56
140
1.0
102
RTVSPost2010PropOp56
 70
     1
102
RTVSPost2010Prop57
140
1.0
102
RTVSPost2010PropOp57
 70
     1
  0
XRECORD
  5
579
102
{ACAD_REACTORS
330
578
102
}
330
578
100
AcDbXrecord
280
     1
102
RTVSPropertyOp0
 70
     1
102
RTVSPropertyOp1
 70
     1
102
RTVSPropertyOp2
 70
     1
102
RTVSPropertyOp3
 70
     1
102
RTVSPropertyOp4
 70
     1
102
RTVSPropertyOp5
 70
     1
102
RTVSPropertyOp6
 70
     1
102
RTVSPropertyOp7
 70
     1
102
RTVSPropertyOp8
 70
     1
102
RTVSPropertyOp9
 70
     1
102
RTVSPropertyOp10
 70
     1
102
RTVSPropertyOp11
 70
     1
102
RTVSPropertyOp12
 70
     1
102
RTVSPropertyOp13
 70
     1
102
RTVSPropertyOp14
 70
     1
102
RTVSPropertyOp15
 70
     1
102
RTVSPropertyOp16
 70
     1
102
RTVSPropertyOp17
 70
     1
102
RTVSPropertyOp18
 70
     1
102
RTVSPropertyOp19
 70
     1
102
RTVSPropertyOp20
 70
     1
102
RTVSPropertyOp21
 70
     1
102
RTVSPropertyOp22
 70
     1
102
RTVSPropertyOp23
 70
     1
102
RTVSPropertyOp24
 70
     1
102
RTVSPropertyOp25
 70
     1
102
RTVSPropertyOp26
 70
     1
102
RTVSPropertyOp27
 70
     1
102
RTVSPropertyOp28
 70
     1
102
RTVSPropertyOp29
 70
     1
102
RTVSPropertyOp30
 70
     1
102
RTVSPropertyOp31
 70
     1
102
RTVSPropertyOp32
 70
     1
102
RTVSPropertyOp33
 70
     1
102
RTVSPropertyOp34
 70
     1
102
RTVSPropertyOp35
 70
     1
102
RTVSPropertyOp36
 70
     1
102
RTVSPropertyOp37
 70
     1
102
RTVSPropertyOp38
 70
     1
102
RTVSPropertyOp39
 70
     1
102
RTVSPropertyOp40
 70
     1
102
RTVSPropertyOp41
 70
     1
102
RTVSPropertyOp42
 70
     1
102
RTVSPropertyOp43
 70
     1
102
RTVSPropertyOp44
 70
     1
102
RTVSPropertyOp45
 70
     1
102
RTVSPropertyOp46
 70
     1
102
RTVSPropertyOp47
 70
     1
102
RTVSPropertyOp48
 70
     1
102
RTVSPropertyOp49
 70
     1
102
RTVSPropertyOp50
 70
     1
102
RTVSPropertyOp51
 70
     0
102
RTVSPropertyOp52
 70
     0
102
RTVSPropertyOp53
 70
     1
102
RTVSPropertyOp54
 70
     1
102
RTVSPropertyOp55
 70
     1
102
RTVSPropertyOp56
 70
     1
102
RTVSPropertyOp57
 70
     1
102
RTVSPost2010Prop28
280
     0
102
RTVSPost2010PropOp28
 70
     1
102
RTVSPost2010Prop29
280
     1
102
RTVSPost2010PropOp29
 70
     1
102
RTVSPost2010Prop30
280
     1
102
RTVSPost2010PropOp30
 70
     1
102
RTVSPost2010Prop31
280
     0
102
RTVSPost2010PropOp31
 70
     1
102
RTVSPost2010Prop32
280
     0
102
RTVSPost2010PropOp32
 70
     1
102
RTVSPost2010Prop33
280
     0
102
RTVSPost2010PropOp33
 70
     1
102
RTVSPost2010Prop34
280
     0
102
RTVSPost2010PropOp34
 70
     1
102
RTVSPost2010Prop35
280
     0
102
RTVSPost2010PropOp35
 70
     1
102
RTVSPost2010Prop36
280
     0
102
RTVSPost2010PropOp36
 70
     1
102
RTVSPost2010Prop37
 90
       50
102
RTVSPost2010PropOp37
 70
     1
102
RTVSPost2010Prop38
140
0.0
102
RTVSPost2010PropOp38
 70
     1
102
RTVSPost2010Prop39
140
1.0
102
RTVSPost2010PropOp39
 70
     1
102
RTVSPost2010Prop40
 90
        0
102
RTVSPost2010PropOp40
 70
     1
102
RTVSPost2010Prop41ColorIndex
 90
       18
102
RTVSPost2010Prop41ColorRGB
 90
        0
102
RTVSPost2010PropOp41
 70
     1
102
RTVSPost2010Prop42
 90
       50
102
RTVSPost2010PropOp42
 70
     1
102
RTVSPost2010Prop43
 90
        3
102
RTVSPost2010PropOp43
 70
     1
102
RTVSPost2010Prop44ColorIndex
 90
        5
102
RTVSPost2010Prop44ColorRGB
 90
      255
102
RTVSPost2010PropOp44
 70
     1
102
RTVSPost2010Prop45
280
     0
102
RTVSPost2010PropOp45
 70
     1
102
RTVSPost2010Prop46
 90
       50
102
RTVSPost2010PropOp46
 70
     1
102
RTVSPost2010Prop47
 90
       50
102
RTVSPost2010PropOp47
 70
     1
102
RTVSPost2010Prop48
 90
       50
102
RTVSPost2010PropOp48
 70
     1
102
RTVSPost2010Prop49
280
     0
102
RTVSPost2010PropOp49
 70
     1
102
RTVSPost2010Prop50
 90
       50
102
RTVSPost2010PropOp50
 70
     1
102
RTVSPost2010Prop51ColorIndex
 90
      256
102
RTVSPost2010Prop51ColorRGB
 90
-16777216
102
RTVSPost2010PropOp51
 70
     0
102
RTVSPost2010Prop52
140
1.0
102
RTVSPost2010PropOp52
 70
     0
102
RTVSPost2010Prop53
 90
        2
102
RTVSPost2010PropOp53
 70
     1
102
RTVSPost2010Prop54
  1
strokes_ogs.tif
102
RTVSPost2010PropOp54
 70
     1
102
RTVSPost2010Prop55
280
     0
102
RTVSPost2010PropOp55
 70
     1
102
RTVSPost2010Prop56
140
1.0
102
RTVSPost2010PropOp56
 70
     1
102
RTVSPost2010Prop57
140
1.0
102
RTVSPost2010PropOp57
 70
     1
  0
XRECORD
  5
581
102
{ACAD_REACTORS
330
580
102
}
330
580
100
AcDbXrecord
280
     1
102
RTVSPropertyOp0
 70
     0
102
RTVSPropertyOp1
 70
     0
102
RTVSPropertyOp2
 70
     0
102
RTVSPropertyOp3
 70
     0
102
RTVSPropertyOp4
 70
     0
102
RTVSPropertyOp5
 70
     0
102
RTVSPropertyOp6
 70
     0
102
RTVSPropertyOp7
 70
     0
102
RTVSPropertyOp8
 70
     0
102
RTVSPropertyOp9
 70
     0
102
RTVSPropertyOp10
 70
     0
102
RTVSPropertyOp11
 70
     0
102
RTVSPropertyOp12
 70
     0
102
RTVSPropertyOp13
 70
     0
102
RTVSPropertyOp14
 70
     0
102
RTVSPropertyOp15
 70
     0
102
RTVSPropertyOp16
 70
     0
102
RTVSPropertyOp17
 70
     0
102
RTVSPropertyOp18
 70
     0
102
RTVSPropertyOp19
 70
     0
102
RTVSPropertyOp20
 70
     0
102
RTVSPropertyOp21
 70
     0
102
RTVSPropertyOp22
 70
     0
102
RTVSPropertyOp23
 70
     0
102
RTVSPropertyOp24
 70
     0
102
RTVSPropertyOp25
 70
     0
102
RTVSPropertyOp26
 70
     0
102
RTVSPropertyOp27
 70
     0
102
RTVSPropertyOp28
 70
     1
102
RTVSPropertyOp29
 70
     1
102
RTVSPropertyOp30
 70
     1
102
RTVSPropertyOp31
 70
     1
102
RTVSPropertyOp32
 70
     1
102
RTVSPropertyOp33
 70
     1
102
RTVSPropertyOp34
 70
     1
102
RTVSPropertyOp35
 70
     1
102
RTVSPropertyOp36
 70
     1
102
RTVSPropertyOp37
 70
     1
102
RTVSPropertyOp38
 70
     1
102
RTVSPropertyOp39
 70
     1
102
RTVSPropertyOp40
 70
     1
102
RTVSPropertyOp41
 70
     1
102
RTVSPropertyOp42
 70
     1
102
RTVSPropertyOp43
 70
     1
102
RTVSPropertyOp44
 70
     1
102
RTVSPropertyOp45
 70
     1
102
RTVSPropertyOp46
 70
     1
102
RTVSPropertyOp47
 70
     1
102
RTVSPropertyOp48
 70
     1
102
RTVSPropertyOp49
 70
     1
102
RTVSPropertyOp50
 70
     1
102
RTVSPropertyOp51
 70
     0
102
RTVSPropertyOp52
 70
     0
102
RTVSPropertyOp53
 70
     1
102
RTVSPropertyOp54
 70
     1
102
RTVSPropertyOp55
 70
     1
102
RTVSPropertyOp56
 70
     1
102
RTVSPropertyOp57
 70
     1
102
RTVSPost2010Prop28
280
     0
102
RTVSPost2010PropOp28
 70
     1
102
RTVSPost2010Prop29
280
     1
102
RTVSPost2010PropOp29
 70
     1
102
RTVSPost2010Prop30
280
     1
102
RTVSPost2010PropOp30
 70
     1
102
RTVSPost2010Prop31
280
     0
102
RTVSPost2010PropOp31
 70
     1
102
RTVSPost2010Prop32
280
     0
102
RTVSPost2010PropOp32
 70
     1
102
RTVSPost2010Prop33
280
     0
102
RTVSPost2010PropOp33
 70
     1
102
RTVSPost2010Prop34
280
     0
102
RTVSPost2010PropOp34
 70
     1
102
RTVSPost2010Prop35
280
     0
102
RTVSPost2010PropOp35
 70
     1
102
RTVSPost2010Prop36
280
     0
102
RTVSPost2010PropOp36
 70
     1
102
RTVSPost2010Prop37
 90
       50
102
RTVSPost2010PropOp37
 70
     1
102
RTVSPost2010Prop38
140
0.0
102
RTVSPost2010PropOp38
 70
     1
102
RTVSPost2010Prop39
140
1.0
102
RTVSPost2010PropOp39
 70
     1
102
RTVSPost2010Prop40
 90
        0
102
RTVSPost2010PropOp40
 70
     1
102
RTVSPost2010Prop41ColorIndex
 90
       18
102
RTVSPost2010Prop41ColorRGB
 90
        0
102
RTVSPost2010PropOp41
 70
     1
102
RTVSPost2010Prop42
 90
       50
102
RTVSPost2010PropOp42
 70
     1
102
RTVSPost2010Prop43
 90
        3
102
RTVSPost2010PropOp43
 70
     1
102
RTVSPost2010Prop44ColorIndex
 90
        5
102
RTVSPost2010Prop44ColorRGB
 90
      255
102
RTVSPost2010PropOp44
 70
     1
102
RTVSPost2010Prop45
280
     0
102
RTVSPost2010PropOp45
 70
     1
102
RTVSPost2010Prop46
 90
       50
102
RTVSPost2010PropOp46
 70
     1
102
RTVSPost2010Prop47
 90
       50
102
RTVSPost2010PropOp47
 70
     1
102
RTVSPost2010Prop48
 90
       50
102
RTVSPost2010PropOp48
 70
     1
102
RTVSPost2010Prop49
280
     0
102
RTVSPost2010PropOp49
 70
     1
102
RTVSPost2010Prop50
 90
       50
102
RTVSPost2010PropOp50
 70
     1
102
RTVSPost2010Prop51ColorIndex
 90
      256
102
RTVSPost2010Prop51ColorRGB
 90
-16777216
102
RTVSPost2010PropOp51
 70
     0
102
RTVSPost2010Prop52
140
1.0
102
RTVSPost2010PropOp52
 70
     0
102
RTVSPost2010Prop53
 90
        2
102
RTVSPost2010PropOp53
 70
     1
102
RTVSPost2010Prop54
  1
strokes_ogs.tif
102
RTVSPost2010PropOp54
 70
     1
102
RTVSPost2010Prop55
280
     0
102
RTVSPost2010PropOp55
 70
     1
102
RTVSPost2010Prop56
140
1.0
102
RTVSPost2010PropOp56
 70
     1
102
RTVSPost2010Prop57
140
1.0
102
RTVSPost2010PropOp57
 70
     1
  0
XRECORD
  5
55F
102
{ACAD_REACTORS
330
55E
102
}
330
55E
100
AcDbXrecord
280
     1
102
RTVSPropertyOp0
 70
     1
102
RTVSPropertyOp1
 70
     1
102
RTVSPropertyOp2
 70
     1
102
RTVSPropertyOp3
 70
     1
102
RTVSPropertyOp4
 70
     1
102
RTVSPropertyOp5
 70
     1
102
RTVSPropertyOp6
 70
     1
102
RTVSPropertyOp7
 70
     1
102
RTVSPropertyOp8
 70
     1
102
RTVSPropertyOp9
 70
     1
102
RTVSPropertyOp10
 70
     1
102
RTVSPropertyOp11
 70
     1
102
RTVSPropertyOp12
 70
     1
102
RTVSPropertyOp13
 70
     1
102
RTVSPropertyOp14
 70
     1
102
RTVSPropertyOp15
 70
     1
102
RTVSPropertyOp16
 70
     1
102
RTVSPropertyOp17
 70
     1
102
RTVSPropertyOp18
 70
     1
102
RTVSPropertyOp19
 70
     1
102
RTVSPropertyOp20
 70
     1
102
RTVSPropertyOp21
 70
     1
102
RTVSPropertyOp22
 70
     1
102
RTVSPropertyOp23
 70
     1
102
RTVSPropertyOp24
 70
     1
102
RTVSPropertyOp25
 70
     1
102
RTVSPropertyOp26
 70
     1
102
RTVSPropertyOp27
 70
     1
102
RTVSPropertyOp28
 70
     1
102
RTVSPropertyOp29
 70
     1
102
RTVSPropertyOp30
 70
     1
102
RTVSPropertyOp31
 70
     1
102
RTVSPropertyOp32
 70
     1
102
RTVSPropertyOp33
 70
     1
102
RTVSPropertyOp34
 70
     1
102
RTVSPropertyOp35
 70
     1
102
RTVSPropertyOp36
 70
     1
102
RTVSPropertyOp37
 70
     1
102
RTVSPropertyOp38
 70
     1
102
RTVSPropertyOp39
 70
     1
102
RTVSPropertyOp40
 70
     1
102
RTVSPropertyOp41
 70
     1
102
RTVSPropertyOp42
 70
     1
102
RTVSPropertyOp43
 70
     1
102
RTVSPropertyOp44
 70
     1
102
RTVSPropertyOp45
 70
     1
102
RTVSPropertyOp46
 70
     1
102
RTVSPropertyOp47
 70
     1
102
RTVSPropertyOp48
 70
     1
102
RTVSPropertyOp49
 70
     1
102
RTVSPropertyOp50
 70
     1
102
RTVSPropertyOp51
 70
     0
102
RTVSPropertyOp52
 70
     0
102
RTVSPropertyOp53
 70
     1
102
RTVSPropertyOp54
 70
     1
102
RTVSPropertyOp55
 70
     1
102
RTVSPropertyOp56
 70
     1
102
RTVSPropertyOp57
 70
     1
102
RTVSPost2010Prop28
280
     0
102
RTVSPost2010PropOp28
 70
     1
102
RTVSPost2010Prop29
280
     1
102
RTVSPost2010PropOp29
 70
     1
102
RTVSPost2010Prop30
280
     1
102
RTVSPost2010PropOp30
 70
     1
102
RTVSPost2010Prop31
280
     0
102
RTVSPost2010PropOp31
 70
     1
102
RTVSPost2010Prop32
280
     0
102
RTVSPost2010PropOp32
 70
     1
102
RTVSPost2010Prop33
280
     0
102
RTVSPost2010PropOp33
 70
     1
102
RTVSPost2010Prop34
280
     0
102
RTVSPost2010PropOp34
 70
     1
102
RTVSPost2010Prop35
280
     0
102
RTVSPost2010PropOp35
 70
     1
102
RTVSPost2010Prop36
280
     0
102
RTVSPost2010PropOp36
 70
     1
102
RTVSPost2010Prop37
 90
       50
102
RTVSPost2010PropOp37
 70
     1
102
RTVSPost2010Prop38
140
0.0
102
RTVSPost2010PropOp38
 70
     1
102
RTVSPost2010Prop39
140
1.0
102
RTVSPost2010PropOp39
 70
     1
102
RTVSPost2010Prop40
 90
        0
102
RTVSPost2010PropOp40
 70
     1
102
RTVSPost2010Prop41ColorIndex
 90
       18
102
RTVSPost2010Prop41ColorRGB
 90
        0
102
RTVSPost2010PropOp41
 70
     1
102
RTVSPost2010Prop42
 90
       50
102
RTVSPost2010PropOp42
 70
     1
102
RTVSPost2010Prop43
 90
        3
102
RTVSPost2010PropOp43
 70
     1
102
RTVSPost2010Prop44ColorIndex
 90
        5
102
RTVSPost2010Prop44ColorRGB
 90
      255
102
RTVSPost2010PropOp44
 70
     1
102
RTVSPost2010Prop45
280
     0
102
RTVSPost2010PropOp45
 70
     1
102
RTVSPost2010Prop46
 90
       50
102
RTVSPost2010PropOp46
 70
     1
102
RTVSPost2010Prop47
 90
       50
102
RTVSPost2010PropOp47
 70
     1
102
RTVSPost2010Prop48
 90
       50
102
RTVSPost2010PropOp48
 70
     1
102
RTVSPost2010Prop49
280
     0
102
RTVSPost2010PropOp49
 70
     1
102
RTVSPost2010Prop50
 90
       50
102
RTVSPost2010PropOp50
 70
     1
102
RTVSPost2010Prop51ColorIndex
 90
      256
102
RTVSPost2010Prop51ColorRGB
 90
-16777216
102
RTVSPost2010PropOp51
 70
     0
102
RTVSPost2010Prop52
140
1.0
102
RTVSPost2010PropOp52
 70
     0
102
RTVSPost2010Prop53
 90
        2
102
RTVSPost2010PropOp53
 70
     1
102
RTVSPost2010Prop54
  1
strokes_ogs.tif
102
RTVSPost2010PropOp54
 70
     1
102
RTVSPost2010Prop55
280
     0
102
RTVSPost2010PropOp55
 70
     1
102
RTVSPost2010Prop56
140
1.0
102
RTVSPost2010PropOp56
 70
     1
102
RTVSPost2010Prop57
140
1.0
102
RTVSPost2010PropOp57
 70
     1
  0
XRECORD
  5
58D
102
{ACAD_REACTORS
330
58C
102
}
330
58C
100
AcDbXrecord
280
     1
102
RTVSPropertyOp0
 70
     1
102
RTVSPropertyOp1
 70
     1
102
RTVSPropertyOp2
 70
     1
102
RTVSPropertyOp3
 70
     1
102
RTVSPropertyOp4
 70
     1
102
RTVSPropertyOp5
 70
     1
102
RTVSPropertyOp6
 70
     1
102
RTVSPropertyOp7
 70
     1
102
RTVSPropertyOp8
 70
     1
102
RTVSPropertyOp9
 70
     1
102
RTVSPropertyOp10
 70
     1
102
RTVSPropertyOp11
 70
     1
102
RTVSPropertyOp12
 70
     1
102
RTVSPropertyOp13
 70
     1
102
RTVSPropertyOp14
 70
     1
102
RTVSPropertyOp15
 70
     1
102
RTVSPropertyOp16
 70
     1
102
RTVSPropertyOp17
 70
     1
102
RTVSPropertyOp18
 70
     1
102
RTVSPropertyOp19
 70
     1
102
RTVSPropertyOp20
 70
     1
102
RTVSPropertyOp21
 70
     1
102
RTVSPropertyOp22
 70
     1
102
RTVSPropertyOp23
 70
     1
102
RTVSPropertyOp24
 70
     1
102
RTVSPropertyOp25
 70
     1
102
RTVSPropertyOp26
 70
     1
102
RTVSPropertyOp27
 70
     1
102
RTVSPropertyOp28
 70
     1
102
RTVSPropertyOp29
 70
     1
102
RTVSPropertyOp30
 70
     1
102
RTVSPropertyOp31
 70
     1
102
RTVSPropertyOp32
 70
     1
102
RTVSPropertyOp33
 70
     1
102
RTVSPropertyOp34
 70
     1
102
RTVSPropertyOp35
 70
     1
102
RTVSPropertyOp36
 70
     1
102
RTVSPropertyOp37
 70
     1
102
RTVSPropertyOp38
 70
     1
102
RTVSPropertyOp39
 70
     1
102
RTVSPropertyOp40
 70
     1
102
RTVSPropertyOp41
 70
     1
102
RTVSPropertyOp42
 70
     1
102
RTVSPropertyOp43
 70
     1
102
RTVSPropertyOp44
 70
     1
102
RTVSPropertyOp45
 70
     1
102
RTVSPropertyOp46
 70
     1
102
RTVSPropertyOp47
 70
     1
102
RTVSPropertyOp48
 70
     1
102
RTVSPropertyOp49
 70
     1
102
RTVSPropertyOp50
 70
     1
102
RTVSPropertyOp51
 70
     0
102
RTVSPropertyOp52
 70
     0
102
RTVSPropertyOp53
 70
     1
102
RTVSPropertyOp54
 70
     1
102
RTVSPropertyOp55
 70
     1
102
RTVSPropertyOp56
 70
     1
102
RTVSPropertyOp57
 70
     1
102
RTVSPost2010Prop28
280
     0
102
RTVSPost2010PropOp28
 70
     1
102
RTVSPost2010Prop29
280
     1
102
RTVSPost2010PropOp29
 70
     1
102
RTVSPost2010Prop30
280
     1
102
RTVSPost2010PropOp30
 70
     1
102
RTVSPost2010Prop31
280
     0
102
RTVSPost2010PropOp31
 70
     1
102
RTVSPost2010Prop32
280
     0
102
RTVSPost2010PropOp32
 70
     1
102
RTVSPost2010Prop33
280
     0
102
RTVSPost2010PropOp33
 70
     1
102
RTVSPost2010Prop34
280
     0
102
RTVSPost2010PropOp34
 70
     1
102
RTVSPost2010Prop35
280
     0
102
RTVSPost2010PropOp35
 70
     1
102
RTVSPost2010Prop36
280
     0
102
RTVSPost2010PropOp36
 70
     1
102
RTVSPost2010Prop37
 90
       50
102
RTVSPost2010PropOp37
 70
     1
102
RTVSPost2010Prop38
140
0.0
102
RTVSPost2010PropOp38
 70
     1
102
RTVSPost2010Prop39
140
1.0
102
RTVSPost2010PropOp39
 70
     1
102
RTVSPost2010Prop40
 90
        0
102
RTVSPost2010PropOp40
 70
     1
102
RTVSPost2010Prop41ColorIndex
 90
       18
102
RTVSPost2010Prop41ColorRGB
 90
        0
102
RTVSPost2010PropOp41
 70
     1
102
RTVSPost2010Prop42
 90
       50
102
RTVSPost2010PropOp42
 70
     1
102
RTVSPost2010Prop43
 90
        3
102
RTVSPost2010PropOp43
 70
     1
102
RTVSPost2010Prop44ColorIndex
 90
        5
102
RTVSPost2010Prop44ColorRGB
 90
      255
102
RTVSPost2010PropOp44
 70
     1
102
RTVSPost2010Prop45
280
     0
102
RTVSPost2010PropOp45
 70
     1
102
RTVSPost2010Prop46
 90
       50
102
RTVSPost2010PropOp46
 70
     1
102
RTVSPost2010Prop47
 90
       50
102
RTVSPost2010PropOp47
 70
     1
102
RTVSPost2010Prop48
 90
       50
102
RTVSPost2010PropOp48
 70
     1
102
RTVSPost2010Prop49
280
     0
102
RTVSPost2010PropOp49
 70
     1
102
RTVSPost2010Prop50
 90
       50
102
RTVSPost2010PropOp50
 70
     1
102
RTVSPost2010Prop51ColorIndex
 90
      256
102
RTVSPost2010Prop51ColorRGB
 90
-16777216
102
RTVSPost2010PropOp51
 70
     0
102
RTVSPost2010Prop52
140
1.0
102
RTVSPost2010PropOp52
 70
     0
102
RTVSPost2010Prop53
 90
        2
102
RTVSPost2010PropOp53
 70
     1
102
RTVSPost2010Prop54
  1
strokes_ogs.tif
102
RTVSPost2010PropOp54
 70
     1
102
RTVSPost2010Prop55
280
     0
102
RTVSPost2010PropOp55
 70
     1
102
RTVSPost2010Prop56
140
1.0
102
RTVSPost2010PropOp56
 70
     1
102
RTVSPost2010Prop57
140
1.0
102
RTVSPost2010PropOp57
 70
     1
  0
XRECORD
  5
58B
102
{ACAD_REACTORS
330
58A
102
}
330
58A
100
AcDbXrecord
280
     1
102
RTVSPropertyOp0
 70
     1
102
RTVSPropertyOp1
 70
     1
102
RTVSPropertyOp2
 70
     1
102
RTVSPropertyOp3
 70
     1
102
RTVSPropertyOp4
 70
     1
102
RTVSPropertyOp5
 70
     1
102
RTVSPropertyOp6
 70
     1
102
RTVSPropertyOp7
 70
     1
102
RTVSPropertyOp8
 70
     1
102
RTVSPropertyOp9
 70
     1
102
RTVSPropertyOp10
 70
     1
102
RTVSPropertyOp11
 70
     1
102
RTVSPropertyOp12
 70
     1
102
RTVSPropertyOp13
 70
     1
102
RTVSPropertyOp14
 70
     1
102
RTVSPropertyOp15
 70
     1
102
RTVSPropertyOp16
 70
     1
102
RTVSPropertyOp17
 70
     1
102
RTVSPropertyOp18
 70
     1
102
RTVSPropertyOp19
 70
     1
102
RTVSPropertyOp20
 70
     1
102
RTVSPropertyOp21
 70
     1
102
RTVSPropertyOp22
 70
     1
102
RTVSPropertyOp23
 70
     1
102
RTVSPropertyOp24
 70
     1
102
RTVSPropertyOp25
 70
     1
102
RTVSPropertyOp26
 70
     1
102
RTVSPropertyOp27
 70
     1
102
RTVSPropertyOp28
 70
     1
102
RTVSPropertyOp29
 70
     1
102
RTVSPropertyOp30
 70
     1
102
RTVSPropertyOp31
 70
     1
102
RTVSPropertyOp32
 70
     1
102
RTVSPropertyOp33
 70
     1
102
RTVSPropertyOp34
 70
     1
102
RTVSPropertyOp35
 70
     1
102
RTVSPropertyOp36
 70
     1
102
RTVSPropertyOp37
 70
     1
102
RTVSPropertyOp38
 70
     1
102
RTVSPropertyOp39
 70
     1
102
RTVSPropertyOp40
 70
     1
102
RTVSPropertyOp41
 70
     1
102
RTVSPropertyOp42
 70
     1
102
RTVSPropertyOp43
 70
     1
102
RTVSPropertyOp44
 70
     1
102
RTVSPropertyOp45
 70
     1
102
RTVSPropertyOp46
 70
     1
102
RTVSPropertyOp47
 70
     1
102
RTVSPropertyOp48
 70
     1
102
RTVSPropertyOp49
 70
     1
102
RTVSPropertyOp50
 70
     1
102
RTVSPropertyOp51
 70
     0
102
RTVSPropertyOp52
 70
     0
102
RTVSPropertyOp53
 70
     1
102
RTVSPropertyOp54
 70
     1
102
RTVSPropertyOp55
 70
     1
102
RTVSPropertyOp56
 70
     1
102
RTVSPropertyOp57
 70
     1
102
RTVSPost2010Prop28
280
     0
102
RTVSPost2010PropOp28
 70
     1
102
RTVSPost2010Prop29
280
     1
102
RTVSPost2010PropOp29
 70
     1
102
RTVSPost2010Prop30
280
     1
102
RTVSPost2010PropOp30
 70
     1
102
RTVSPost2010Prop31
280
     0
102
RTVSPost2010PropOp31
 70
     1
102
RTVSPost2010Prop32
280
     0
102
RTVSPost2010PropOp32
 70
     1
102
RTVSPost2010Prop33
280
     0
102
RTVSPost2010PropOp33
 70
     1
102
RTVSPost2010Prop34
280
     0
102
RTVSPost2010PropOp34
 70
     1
102
RTVSPost2010Prop35
280
     0
102
RTVSPost2010PropOp35
 70
     1
102
RTVSPost2010Prop36
280
     0
102
RTVSPost2010PropOp36
 70
     1
102
RTVSPost2010Prop37
 90
       50
102
RTVSPost2010PropOp37
 70
     1
102
RTVSPost2010Prop38
140
0.0
102
RTVSPost2010PropOp38
 70
     1
102
RTVSPost2010Prop39
140
1.0
102
RTVSPost2010PropOp39
 70
     1
102
RTVSPost2010Prop40
 90
        0
102
RTVSPost2010PropOp40
 70
     1
102
RTVSPost2010Prop41ColorIndex
 90
       18
102
RTVSPost2010Prop41ColorRGB
 90
        0
102
RTVSPost2010PropOp41
 70
     1
102
RTVSPost2010Prop42
 90
       50
102
RTVSPost2010PropOp42
 70
     1
102
RTVSPost2010Prop43
 90
        3
102
RTVSPost2010PropOp43
 70
     1
102
RTVSPost2010Prop44ColorIndex
 90
        5
102
RTVSPost2010Prop44ColorRGB
 90
      255
102
RTVSPost2010PropOp44
 70
     1
102
RTVSPost2010Prop45
280
     0
102
RTVSPost2010PropOp45
 70
     1
102
RTVSPost2010Prop46
 90
       50
102
RTVSPost2010PropOp46
 70
     1
102
RTVSPost2010Prop47
 90
       50
102
RTVSPost2010PropOp47
 70
     1
102
RTVSPost2010Prop48
 90
       50
102
RTVSPost2010PropOp48
 70
     1
102
RTVSPost2010Prop49
280
     0
102
RTVSPost2010PropOp49
 70
     1
102
RTVSPost2010Prop50
 90
       50
102
RTVSPost2010PropOp50
 70
     1
102
RTVSPost2010Prop51ColorIndex
 90
      256
102
RTVSPost2010Prop51ColorRGB
 90
-16777216
102
RTVSPost2010PropOp51
 70
     0
102
RTVSPost2010Prop52
140
1.0
102
RTVSPost2010PropOp52
 70
     0
102
RTVSPost2010Prop53
 90
        2
102
RTVSPost2010PropOp53
 70
     1
102
RTVSPost2010Prop54
  1
strokes_ogs.tif
102
RTVSPost2010PropOp54
 70
     1
102
RTVSPost2010Prop55
280
     0
102
RTVSPost2010PropOp55
 70
     1
102
RTVSPost2010Prop56
140
1.0
102
RTVSPost2010PropOp56
 70
     1
102
RTVSPost2010Prop57
140
1.0
102
RTVSPost2010PropOp57
 70
     1
  0
XRECORD
  5
585
102
{ACAD_REACTORS
330
584
102
}
330
584
100
AcDbXrecord
280
     1
102
RTVSPropertyOp0
 70
     1
102
RTVSPropertyOp1
 70
     1
102
RTVSPropertyOp2
 70
     1
102
RTVSPropertyOp3
 70
     1
102
RTVSPropertyOp4
 70
     1
102
RTVSPropertyOp5
 70
     1
102
RTVSPropertyOp6
 70
     1
102
RTVSPropertyOp7
 70
     1
102
RTVSPropertyOp8
 70
     1
102
RTVSPropertyOp9
 70
     1
102
RTVSPropertyOp10
 70
     1
102
RTVSPropertyOp11
 70
     1
102
RTVSPropertyOp12
 70
     1
102
RTVSPropertyOp13
 70
     1
102
RTVSPropertyOp14
 70
     1
102
RTVSPropertyOp15
 70
     1
102
RTVSPropertyOp16
 70
     1
102
RTVSPropertyOp17
 70
     1
102
RTVSPropertyOp18
 70
     1
102
RTVSPropertyOp19
 70
     1
102
RTVSPropertyOp20
 70
     1
102
RTVSPropertyOp21
 70
     1
102
RTVSPropertyOp22
 70
     1
102
RTVSPropertyOp23
 70
     1
102
RTVSPropertyOp24
 70
     1
102
RTVSPropertyOp25
 70
     1
102
RTVSPropertyOp26
 70
     1
102
RTVSPropertyOp27
 70
     1
102
RTVSPropertyOp28
 70
     1
102
RTVSPropertyOp29
 70
     1
102
RTVSPropertyOp30
 70
     1
102
RTVSPropertyOp31
 70
     1
102
RTVSPropertyOp32
 70
     1
102
RTVSPropertyOp33
 70
     1
102
RTVSPropertyOp34
 70
     1
102
RTVSPropertyOp35
 70
     1
102
RTVSPropertyOp36
 70
     1
102
RTVSPropertyOp37
 70
     1
102
RTVSPropertyOp38
 70
     1
102
RTVSPropertyOp39
 70
     1
102
RTVSPropertyOp40
 70
     1
102
RTVSPropertyOp41
 70
     1
102
RTVSPropertyOp42
 70
     1
102
RTVSPropertyOp43
 70
     1
102
RTVSPropertyOp44
 70
     1
102
RTVSPropertyOp45
 70
     1
102
RTVSPropertyOp46
 70
     1
102
RTVSPropertyOp47
 70
     1
102
RTVSPropertyOp48
 70
     1
102
RTVSPropertyOp49
 70
     1
102
RTVSPropertyOp50
 70
     1
102
RTVSPropertyOp51
 70
     0
102
RTVSPropertyOp52
 70
     0
102
RTVSPropertyOp53
 70
     1
102
RTVSPropertyOp54
 70
     1
102
RTVSPropertyOp55
 70
     1
102
RTVSPropertyOp56
 70
     1
102
RTVSPropertyOp57
 70
     1
102
RTVSPost2010Prop28
280
     0
102
RTVSPost2010PropOp28
 70
     1
102
RTVSPost2010Prop29
280
     1
102
RTVSPost2010PropOp29
 70
     1
102
RTVSPost2010Prop30
280
     1
102
RTVSPost2010PropOp30
 70
     1
102
RTVSPost2010Prop31
280
     0
102
RTVSPost2010PropOp31
 70
     1
102
RTVSPost2010Prop32
280
     0
102
RTVSPost2010PropOp32
 70
     1
102
RTVSPost2010Prop33
280
     0
102
RTVSPost2010PropOp33
 70
     1
102
RTVSPost2010Prop34
280
     0
102
RTVSPost2010PropOp34
 70
     1
102
RTVSPost2010Prop35
280
     0
102
RTVSPost2010PropOp35
 70
     1
102
RTVSPost2010Prop36
280
     0
102
RTVSPost2010PropOp36
 70
     1
102
RTVSPost2010Prop37
 90
       50
102
RTVSPost2010PropOp37
 70
     1
102
RTVSPost2010Prop38
140
0.0
102
RTVSPost2010PropOp38
 70
     1
102
RTVSPost2010Prop39
140
1.0
102
RTVSPost2010PropOp39
 70
     1
102
RTVSPost2010Prop40
 90
        0
102
RTVSPost2010PropOp40
 70
     1
102
RTVSPost2010Prop41ColorIndex
 90
       18
102
RTVSPost2010Prop41ColorRGB
 90
        0
102
RTVSPost2010PropOp41
 70
     1
102
RTVSPost2010Prop42
 90
       50
102
RTVSPost2010PropOp42
 70
     1
102
RTVSPost2010Prop43
 90
        3
102
RTVSPost2010PropOp43
 70
     1
102
RTVSPost2010Prop44ColorIndex
 90
        5
102
RTVSPost2010Prop44ColorRGB
 90
      255
102
RTVSPost2010PropOp44
 70
     1
102
RTVSPost2010Prop45
280
     0
102
RTVSPost2010PropOp45
 70
     1
102
RTVSPost2010Prop46
 90
       50
102
RTVSPost2010PropOp46
 70
     1
102
RTVSPost2010Prop47
 90
       50
102
RTVSPost2010PropOp47
 70
     1
102
RTVSPost2010Prop48
 90
       50
102
RTVSPost2010PropOp48
 70
     1
102
RTVSPost2010Prop49
280
     0
102
RTVSPost2010PropOp49
 70
     1
102
RTVSPost2010Prop50
 90
       50
102
RTVSPost2010PropOp50
 70
     1
102
RTVSPost2010Prop51ColorIndex
 90
      256
102
RTVSPost2010Prop51ColorRGB
 90
-16777216
102
RTVSPost2010PropOp51
 70
     0
102
RTVSPost2010Prop52
140
1.0
102
RTVSPost2010PropOp52
 70
     0
102
RTVSPost2010Prop53
 90
        2
102
RTVSPost2010PropOp53
 70
     1
102
RTVSPost2010Prop54
  1
strokes_ogs.tif
102
RTVSPost2010PropOp54
 70
     1
102
RTVSPost2010Prop55
280
     0
102
RTVSPost2010PropOp55
 70
     1
102
RTVSPost2010Prop56
140
1.0
102
RTVSPost2010PropOp56
 70
     1
102
RTVSPost2010Prop57
140
1.0
102
RTVSPost2010PropOp57
 70
     1
  0
XRECORD
  5
587
102
{ACAD_REACTORS
330
586
102
}
330
586
100
AcDbXrecord
280
     1
102
RTVSPropertyOp0
 70
     1
102
RTVSPropertyOp1
 70
     1
102
RTVSPropertyOp2
 70
     1
102
RTVSPropertyOp3
 70
     1
102
RTVSPropertyOp4
 70
     1
102
RTVSPropertyOp5
 70
     1
102
RTVSPropertyOp6
 70
     1
102
RTVSPropertyOp7
 70
     1
102
RTVSPropertyOp8
 70
     1
102
RTVSPropertyOp9
 70
     1
102
RTVSPropertyOp10
 70
     1
102
RTVSPropertyOp11
 70
     1
102
RTVSPropertyOp12
 70
     1
102
RTVSPropertyOp13
 70
     1
102
RTVSPropertyOp14
 70
     1
102
RTVSPropertyOp15
 70
     1
102
RTVSPropertyOp16
 70
     1
102
RTVSPropertyOp17
 70
     1
102
RTVSPropertyOp18
 70
     1
102
RTVSPropertyOp19
 70
     1
102
RTVSPropertyOp20
 70
     1
102
RTVSPropertyOp21
 70
     1
102
RTVSPropertyOp22
 70
     1
102
RTVSPropertyOp23
 70
     1
102
RTVSPropertyOp24
 70
     1
102
RTVSPropertyOp25
 70
     1
102
RTVSPropertyOp26
 70
     1
102
RTVSPropertyOp27
 70
     1
102
RTVSPropertyOp28
 70
     1
102
RTVSPropertyOp29
 70
     1
102
RTVSPropertyOp30
 70
     1
102
RTVSPropertyOp31
 70
     1
102
RTVSPropertyOp32
 70
     1
102
RTVSPropertyOp33
 70
     1
102
RTVSPropertyOp34
 70
     1
102
RTVSPropertyOp35
 70
     1
102
RTVSPropertyOp36
 70
     1
102
RTVSPropertyOp37
 70
     1
102
RTVSPropertyOp38
 70
     1
102
RTVSPropertyOp39
 70
     1
102
RTVSPropertyOp40
 70
     1
102
RTVSPropertyOp41
 70
     1
102
RTVSPropertyOp42
 70
     1
102
RTVSPropertyOp43
 70
     1
102
RTVSPropertyOp44
 70
     1
102
RTVSPropertyOp45
 70
     1
102
RTVSPropertyOp46
 70
     1
102
RTVSPropertyOp47
 70
     1
102
RTVSPropertyOp48
 70
     1
102
RTVSPropertyOp49
 70
     1
102
RTVSPropertyOp50
 70
     1
102
RTVSPropertyOp51
 70
     0
102
RTVSPropertyOp52
 70
     0
102
RTVSPropertyOp53
 70
     1
102
RTVSPropertyOp54
 70
     1
102
RTVSPropertyOp55
 70
     1
102
RTVSPropertyOp56
 70
     1
102
RTVSPropertyOp57
 70
     1
102
RTVSPost2010Prop28
280
     0
102
RTVSPost2010PropOp28
 70
     1
102
RTVSPost2010Prop29
280
     1
102
RTVSPost2010PropOp29
 70
     1
102
RTVSPost2010Prop30
280
     1
102
RTVSPost2010PropOp30
 70
     1
102
RTVSPost2010Prop31
280
     0
102
RTVSPost2010PropOp31
 70
     1
102
RTVSPost2010Prop32
280
     0
102
RTVSPost2010PropOp32
 70
     1
102
RTVSPost2010Prop33
280
     0
102
RTVSPost2010PropOp33
 70
     1
102
RTVSPost2010Prop34
280
     0
102
RTVSPost2010PropOp34
 70
     1
102
RTVSPost2010Prop35
280
     0
102
RTVSPost2010PropOp35
 70
     1
102
RTVSPost2010Prop36
280
     0
102
RTVSPost2010PropOp36
 70
     1
102
RTVSPost2010Prop37
 90
       50
102
RTVSPost2010PropOp37
 70
     1
102
RTVSPost2010Prop38
140
0.0
102
RTVSPost2010PropOp38
 70
     1
102
RTVSPost2010Prop39
140
1.0
102
RTVSPost2010PropOp39
 70
     1
102
RTVSPost2010Prop40
 90
        0
102
RTVSPost2010PropOp40
 70
     1
102
RTVSPost2010Prop41ColorIndex
 90
       18
102
RTVSPost2010Prop41ColorRGB
 90
        0
102
RTVSPost2010PropOp41
 70
     1
102
RTVSPost2010Prop42
 90
       50
102
RTVSPost2010PropOp42
 70
     1
102
RTVSPost2010Prop43
 90
        3
102
RTVSPost2010PropOp43
 70
     1
102
RTVSPost2010Prop44ColorIndex
 90
        5
102
RTVSPost2010Prop44ColorRGB
 90
      255
102
RTVSPost2010PropOp44
 70
     1
102
RTVSPost2010Prop45
280
     0
102
RTVSPost2010PropOp45
 70
     1
102
RTVSPost2010Prop46
 90
       50
102
RTVSPost2010PropOp46
 70
     1
102
RTVSPost2010Prop47
 90
       50
102
RTVSPost2010PropOp47
 70
     1
102
RTVSPost2010Prop48
 90
       50
102
RTVSPost2010PropOp48
 70
     1
102
RTVSPost2010Prop49
280
     0
102
RTVSPost2010PropOp49
 70
     1
102
RTVSPost2010Prop50
 90
       50
102
RTVSPost2010PropOp50
 70
     1
102
RTVSPost2010Prop51ColorIndex
 90
      256
102
RTVSPost2010Prop51ColorRGB
 90
-16777216
102
RTVSPost2010PropOp51
 70
     0
102
RTVSPost2010Prop52
140
1.0
102
RTVSPost2010PropOp52
 70
     0
102
RTVSPost2010Prop53
 90
        2
102
RTVSPost2010PropOp53
 70
     1
102
RTVSPost2010Prop54
  1
strokes_ogs.tif
102
RTVSPost2010PropOp54
 70
     1
102
RTVSPost2010Prop55
280
     0
102
RTVSPost2010PropOp55
 70
     1
102
RTVSPost2010Prop56
140
1.0
102
RTVSPost2010PropOp56
 70
     1
102
RTVSPost2010Prop57
140
1.0
102
RTVSPost2010PropOp57
 70
     1
  0
XRECORD
  5
577
102
{ACAD_REACTORS
330
576
102
}
330
576
100
AcDbXrecord
280
     1
102
RTVSPropertyOp0
 70
     1
102
RTVSPropertyOp1
 70
     1
102
RTVSPropertyOp2
 70
     1
102
RTVSPropertyOp3
 70
     1
102
RTVSPropertyOp4
 70
     1
102
RTVSPropertyOp5
 70
     1
102
RTVSPropertyOp6
 70
     1
102
RTVSPropertyOp7
 70
     1
102
RTVSPropertyOp8
 70
     1
102
RTVSPropertyOp9
 70
     1
102
RTVSPropertyOp10
 70
     1
102
RTVSPropertyOp11
 70
     1
102
RTVSPropertyOp12
 70
     1
102
RTVSPropertyOp13
 70
     1
102
RTVSPropertyOp14
 70
     1
102
RTVSPropertyOp15
 70
     1
102
RTVSPropertyOp16
 70
     1
102
RTVSPropertyOp17
 70
     1
102
RTVSPropertyOp18
 70
     1
102
RTVSPropertyOp19
 70
     1
102
RTVSPropertyOp20
 70
     1
102
RTVSPropertyOp21
 70
     1
102
RTVSPropertyOp22
 70
     1
102
RTVSPropertyOp23
 70
     1
102
RTVSPropertyOp24
 70
     1
102
RTVSPropertyOp25
 70
     1
102
RTVSPropertyOp26
 70
     1
102
RTVSPropertyOp27
 70
     1
102
RTVSPropertyOp28
 70
     1
102
RTVSPropertyOp29
 70
     1
102
RTVSPropertyOp30
 70
     1
102
RTVSPropertyOp31
 70
     1
102
RTVSPropertyOp32
 70
     1
102
RTVSPropertyOp33
 70
     1
102
RTVSPropertyOp34
 70
     1
102
RTVSPropertyOp35
 70
     1
102
RTVSPropertyOp36
 70
     1
102
RTVSPropertyOp37
 70
     1
102
RTVSPropertyOp38
 70
     1
102
RTVSPropertyOp39
 70
     1
102
RTVSPropertyOp40
 70
     1
102
RTVSPropertyOp41
 70
     1
102
RTVSPropertyOp42
 70
     1
102
RTVSPropertyOp43
 70
     1
102
RTVSPropertyOp44
 70
     1
102
RTVSPropertyOp45
 70
     1
102
RTVSPropertyOp46
 70
     1
102
RTVSPropertyOp47
 70
     1
102
RTVSPropertyOp48
 70
     1
102
RTVSPropertyOp49
 70
     1
102
RTVSPropertyOp50
 70
     1
102
RTVSPropertyOp51
 70
     0
102
RTVSPropertyOp52
 70
     0
102
RTVSPropertyOp53
 70
     1
102
RTVSPropertyOp54
 70
     1
102
RTVSPropertyOp55
 70
     1
102
RTVSPropertyOp56
 70
     1
102
RTVSPropertyOp57
 70
     1
102
RTVSPost2010Prop28
280
     0
102
RTVSPost2010PropOp28
 70
     1
102
RTVSPost2010Prop29
280
     1
102
RTVSPost2010PropOp29
 70
     1
102
RTVSPost2010Prop30
280
     1
102
RTVSPost2010PropOp30
 70
     1
102
RTVSPost2010Prop31
280
     0
102
RTVSPost2010PropOp31
 70
     1
102
RTVSPost2010Prop32
280
     0
102
RTVSPost2010PropOp32
 70
     1
102
RTVSPost2010Prop33
280
     0
102
RTVSPost2010PropOp33
 70
     1
102
RTVSPost2010Prop34
280
     0
102
RTVSPost2010PropOp34
 70
     1
102
RTVSPost2010Prop35
280
     0
102
RTVSPost2010PropOp35
 70
     1
102
RTVSPost2010Prop36
280
     0
102
RTVSPost2010PropOp36
 70
     1
102
RTVSPost2010Prop37
 90
       50
102
RTVSPost2010PropOp37
 70
     1
102
RTVSPost2010Prop38
140
0.0
102
RTVSPost2010PropOp38
 70
     1
102
RTVSPost2010Prop39
140
1.0
102
RTVSPost2010PropOp39
 70
     1
102
RTVSPost2010Prop40
 90
        0
102
RTVSPost2010PropOp40
 70
     1
102
RTVSPost2010Prop41ColorIndex
 90
       18
102
RTVSPost2010Prop41ColorRGB
 90
        0
102
RTVSPost2010PropOp41
 70
     1
102
RTVSPost2010Prop42
 90
       50
102
RTVSPost2010PropOp42
 70
     1
102
RTVSPost2010Prop43
 90
        3
102
RTVSPost2010PropOp43
 70
     1
102
RTVSPost2010Prop44ColorIndex
 90
        5
102
RTVSPost2010Prop44ColorRGB
 90
      255
102
RTVSPost2010PropOp44
 70
     1
102
RTVSPost2010Prop45
280
     0
102
RTVSPost2010PropOp45
 70
     1
102
RTVSPost2010Prop46
 90
       50
102
RTVSPost2010PropOp46
 70
     1
102
RTVSPost2010Prop47
 90
       50
102
RTVSPost2010PropOp47
 70
     1
102
RTVSPost2010Prop48
 90
       50
102
RTVSPost2010PropOp48
 70
     1
102
RTVSPost2010Prop49
280
     0
102
RTVSPost2010PropOp49
 70
     1
102
RTVSPost2010Prop50
 90
       50
102
RTVSPost2010PropOp50
 70
     1
102
RTVSPost2010Prop51ColorIndex
 90
      256
102
RTVSPost2010Prop51ColorRGB
 90
-16777216
102
RTVSPost2010PropOp51
 70
     0
102
RTVSPost2010Prop52
140
1.0
102
RTVSPost2010PropOp52
 70
     0
102
RTVSPost2010Prop53
 90
        2
102
RTVSPost2010PropOp53
 70
     1
102
RTVSPost2010Prop54
  1
strokes_ogs.tif
102
RTVSPost2010PropOp54
 70
     1
102
RTVSPost2010Prop55
280
     0
102
RTVSPost2010PropOp55
 70
     1
102
RTVSPost2010Prop56
140
1.0
102
RTVSPost2010PropOp56
 70
     1
102
RTVSPost2010Prop57
140
1.0
102
RTVSPost2010PropOp57
 70
     1
  0
XRECORD
  5
561
102
{ACAD_REACTORS
330
560
102
}
330
560
100
AcDbXrecord
280
     1
102
RTVSPropertyOp0
 70
     1
102
RTVSPropertyOp1
 70
     1
102
RTVSPropertyOp2
 70
     1
102
RTVSPropertyOp3
 70
     1
102
RTVSPropertyOp4
 70
     1
102
RTVSPropertyOp5
 70
     1
102
RTVSPropertyOp6
 70
     1
102
RTVSPropertyOp7
 70
     1
102
RTVSPropertyOp8
 70
     1
102
RTVSPropertyOp9
 70
     1
102
RTVSPropertyOp10
 70
     1
102
RTVSPropertyOp11
 70
     1
102
RTVSPropertyOp12
 70
     1
102
RTVSPropertyOp13
 70
     1
102
RTVSPropertyOp14
 70
     1
102
RTVSPropertyOp15
 70
     1
102
RTVSPropertyOp16
 70
     1
102
RTVSPropertyOp17
 70
     1
102
RTVSPropertyOp18
 70
     1
102
RTVSPropertyOp19
 70
     1
102
RTVSPropertyOp20
 70
     1
102
RTVSPropertyOp21
 70
     1
102
RTVSPropertyOp22
 70
     1
102
RTVSPropertyOp23
 70
     1
102
RTVSPropertyOp24
 70
     1
102
RTVSPropertyOp25
 70
     1
102
RTVSPropertyOp26
 70
     1
102
RTVSPropertyOp27
 70
     1
102
RTVSPropertyOp28
 70
     1
102
RTVSPropertyOp29
 70
     1
102
RTVSPropertyOp30
 70
     1
102
RTVSPropertyOp31
 70
     1
102
RTVSPropertyOp32
 70
     1
102
RTVSPropertyOp33
 70
     1
102
RTVSPropertyOp34
 70
     1
102
RTVSPropertyOp35
 70
     1
102
RTVSPropertyOp36
 70
     1
102
RTVSPropertyOp37
 70
     1
102
RTVSPropertyOp38
 70
     1
102
RTVSPropertyOp39
 70
     1
102
RTVSPropertyOp40
 70
     1
102
RTVSPropertyOp41
 70
     1
102
RTVSPropertyOp42
 70
     1
102
RTVSPropertyOp43
 70
     1
102
RTVSPropertyOp44
 70
     1
102
RTVSPropertyOp45
 70
     1
102
RTVSPropertyOp46
 70
     1
102
RTVSPropertyOp47
 70
     1
102
RTVSPropertyOp48
 70
     1
102
RTVSPropertyOp49
 70
     1
102
RTVSPropertyOp50
 70
     1
102
RTVSPropertyOp51
 70
     0
102
RTVSPropertyOp52
 70
     0
102
RTVSPropertyOp53
 70
     1
102
RTVSPropertyOp54
 70
     1
102
RTVSPropertyOp55
 70
     1
102
RTVSPropertyOp56
 70
     1
102
RTVSPropertyOp57
 70
     1
102
RTVSPost2010Prop28
280
     0
102
RTVSPost2010PropOp28
 70
     1
102
RTVSPost2010Prop29
280
     1
102
RTVSPost2010PropOp29
 70
     1
102
RTVSPost2010Prop30
280
     1
102
RTVSPost2010PropOp30
 70
     1
102
RTVSPost2010Prop31
280
     0
102
RTVSPost2010PropOp31
 70
     1
102
RTVSPost2010Prop32
280
     0
102
RTVSPost2010PropOp32
 70
     1
102
RTVSPost2010Prop33
280
     0
102
RTVSPost2010PropOp33
 70
     1
102
RTVSPost2010Prop34
280
     0
102
RTVSPost2010PropOp34
 70
     1
102
RTVSPost2010Prop35
280
     0
102
RTVSPost2010PropOp35
 70
     1
102
RTVSPost2010Prop36
280
     0
102
RTVSPost2010PropOp36
 70
     1
102
RTVSPost2010Prop37
 90
       50
102
RTVSPost2010PropOp37
 70
     1
102
RTVSPost2010Prop38
140
0.0
102
RTVSPost2010PropOp38
 70
     1
102
RTVSPost2010Prop39
140
1.0
102
RTVSPost2010PropOp39
 70
     1
102
RTVSPost2010Prop40
 90
        0
102
RTVSPost2010PropOp40
 70
     1
102
RTVSPost2010Prop41ColorIndex
 90
       18
102
RTVSPost2010Prop41ColorRGB
 90
        0
102
RTVSPost2010PropOp41
 70
     1
102
RTVSPost2010Prop42
 90
       50
102
RTVSPost2010PropOp42
 70
     1
102
RTVSPost2010Prop43
 90
        3
102
RTVSPost2010PropOp43
 70
     1
102
RTVSPost2010Prop44ColorIndex
 90
        5
102
RTVSPost2010Prop44ColorRGB
 90
      255
102
RTVSPost2010PropOp44
 70
     1
102
RTVSPost2010Prop45
280
     0
102
RTVSPost2010PropOp45
 70
     1
102
RTVSPost2010Prop46
 90
       50
102
RTVSPost2010PropOp46
 70
     1
102
RTVSPost2010Prop47
 90
       50
102
RTVSPost2010PropOp47
 70
     1
102
RTVSPost2010Prop48
 90
       50
102
RTVSPost2010PropOp48
 70
     1
102
RTVSPost2010Prop49
280
     0
102
RTVSPost2010PropOp49
 70
     1
102
RTVSPost2010Prop50
 90
       50
102
RTVSPost2010PropOp50
 70
     1
102
RTVSPost2010Prop51ColorIndex
 90
      256
102
RTVSPost2010Prop51ColorRGB
 90
-16777216
102
RTVSPost2010PropOp51
 70
     0
102
RTVSPost2010Prop52
140
1.0
102
RTVSPost2010PropOp52
 70
     0
102
RTVSPost2010Prop53
 90
        2
102
RTVSPost2010PropOp53
 70
     1
102
RTVSPost2010Prop54
  1
strokes_ogs.tif
102
RTVSPost2010PropOp54
 70
     1
102
RTVSPost2010Prop55
280
     0
102
RTVSPost2010PropOp55
 70
     1
102
RTVSPost2010Prop56
140
1.0
102
RTVSPost2010PropOp56
 70
     1
102
RTVSPost2010Prop57
140
1.0
102
RTVSPost2010PropOp57
 70
     1
  0
XRECORD
  5
589
102
{ACAD_REACTORS
330
588
102
}
330
588
100
AcDbXrecord
280
     1
102
RTVSPropertyOp0
 70
     1
102
RTVSPropertyOp1
 70
     1
102
RTVSPropertyOp2
 70
     1
102
RTVSPropertyOp3
 70
     1
102
RTVSPropertyOp4
 70
     1
102
RTVSPropertyOp5
 70
     1
102
RTVSPropertyOp6
 70
     1
102
RTVSPropertyOp7
 70
     1
102
RTVSPropertyOp8
 70
     1
102
RTVSPropertyOp9
 70
     1
102
RTVSPropertyOp10
 70
     1
102
RTVSPropertyOp11
 70
     1
102
RTVSPropertyOp12
 70
     1
102
RTVSPropertyOp13
 70
     1
102
RTVSPropertyOp14
 70
     1
102
RTVSPropertyOp15
 70
     1
102
RTVSPropertyOp16
 70
     1
102
RTVSPropertyOp17
 70
     1
102
RTVSPropertyOp18
 70
     1
102
RTVSPropertyOp19
 70
     1
102
RTVSPropertyOp20
 70
     1
102
RTVSPropertyOp21
 70
     1
102
RTVSPropertyOp22
 70
     1
102
RTVSPropertyOp23
 70
     1
102
RTVSPropertyOp24
 70
     1
102
RTVSPropertyOp25
 70
     1
102
RTVSPropertyOp26
 70
     1
102
RTVSPropertyOp27
 70
     1
102
RTVSPropertyOp28
 70
     1
102
RTVSPropertyOp29
 70
     1
102
RTVSPropertyOp30
 70
     1
102
RTVSPropertyOp31
 70
     1
102
RTVSPropertyOp32
 70
     1
102
RTVSPropertyOp33
 70
     1
102
RTVSPropertyOp34
 70
     1
102
RTVSPropertyOp35
 70
     1
102
RTVSPropertyOp36
 70
     1
102
RTVSPropertyOp37
 70
     1
102
RTVSPropertyOp38
 70
     1
102
RTVSPropertyOp39
 70
     1
102
RTVSPropertyOp40
 70
     1
102
RTVSPropertyOp41
 70
     1
102
RTVSPropertyOp42
 70
     1
102
RTVSPropertyOp43
 70
     1
102
RTVSPropertyOp44
 70
     1
102
RTVSPropertyOp45
 70
     1
102
RTVSPropertyOp46
 70
     1
102
RTVSPropertyOp47
 70
     1
102
RTVSPropertyOp48
 70
     1
102
RTVSPropertyOp49
 70
     1
102
RTVSPropertyOp50
 70
     1
102
RTVSPropertyOp51
 70
     0
102
RTVSPropertyOp52
 70
     0
102
RTVSPropertyOp53
 70
     1
102
RTVSPropertyOp54
 70
     1
102
RTVSPropertyOp55
 70
     1
102
RTVSPropertyOp56
 70
     1
102
RTVSPropertyOp57
 70
     1
102
RTVSPost2010Prop28
280
     0
102
RTVSPost2010PropOp28
 70
     1
102
RTVSPost2010Prop29
280
     1
102
RTVSPost2010PropOp29
 70
     1
102
RTVSPost2010Prop30
280
     1
102
RTVSPost2010PropOp30
 70
     1
102
RTVSPost2010Prop31
280
     0
102
RTVSPost2010PropOp31
 70
     1
102
RTVSPost2010Prop32
280
     0
102
RTVSPost2010PropOp32
 70
     1
102
RTVSPost2010Prop33
280
     0
102
RTVSPost2010PropOp33
 70
     1
102
RTVSPost2010Prop34
280
     0
102
RTVSPost2010PropOp34
 70
     1
102
RTVSPost2010Prop35
280
     0
102
RTVSPost2010PropOp35
 70
     1
102
RTVSPost2010Prop36
280
     0
102
RTVSPost2010PropOp36
 70
     1
102
RTVSPost2010Prop37
 90
       50
102
RTVSPost2010PropOp37
 70
     1
102
RTVSPost2010Prop38
140
0.0
102
RTVSPost2010PropOp38
 70
     1
102
RTVSPost2010Prop39
140
1.0
102
RTVSPost2010PropOp39
 70
     1
102
RTVSPost2010Prop40
 90
        0
102
RTVSPost2010PropOp40
 70
     1
102
RTVSPost2010Prop41ColorIndex
 90
       18
102
RTVSPost2010Prop41ColorRGB
 90
        0
102
RTVSPost2010PropOp41
 70
     1
102
RTVSPost2010Prop42
 90
       50
102
RTVSPost2010PropOp42
 70
     1
102
RTVSPost2010Prop43
 90
        3
102
RTVSPost2010PropOp43
 70
     1
102
RTVSPost2010Prop44ColorIndex
 90
        5
102
RTVSPost2010Prop44ColorRGB
 90
      255
102
RTVSPost2010PropOp44
 70
     1
102
RTVSPost2010Prop45
280
     0
102
RTVSPost2010PropOp45
 70
     1
102
RTVSPost2010Prop46
 90
       50
102
RTVSPost2010PropOp46
 70
     1
102
RTVSPost2010Prop47
 90
       50
102
RTVSPost2010PropOp47
 70
     1
102
RTVSPost2010Prop48
 90
       50
102
RTVSPost2010PropOp48
 70
     1
102
RTVSPost2010Prop49
280
     0
102
RTVSPost2010PropOp49
 70
     1
102
RTVSPost2010Prop50
 90
       50
102
RTVSPost2010PropOp50
 70
     1
102
RTVSPost2010Prop51ColorIndex
 90
      256
102
RTVSPost2010Prop51ColorRGB
 90
-16777216
102
RTVSPost2010PropOp51
 70
     0
102
RTVSPost2010Prop52
140
1.0
102
RTVSPost2010PropOp52
 70
     0
102
RTVSPost2010Prop53
 90
        2
102
RTVSPost2010PropOp53
 70
     1
102
RTVSPost2010Prop54
  1
strokes_ogs.tif
102
RTVSPost2010PropOp54
 70
     1
102
RTVSPost2010Prop55
280
     0
102
RTVSPost2010PropOp55
 70
     1
102
RTVSPost2010Prop56
140
1.0
102
RTVSPost2010PropOp56
 70
     1
102
RTVSPost2010Prop57
140
1.0
102
RTVSPost2010PropOp57
 70
     1
  0
ENDSEC
  0
SECTION
  2
THUMBNAILIMAGE
 90
    16364
310
28000000B4000000550000000100080000000000C43B000000000000000000000001000000010000FFFFFF000000FF0000FFFF0000FF0000FFFF0000FF000000FF00FF000000000080808000C0C0C0000000FF007F7FFF000000A5005252A50000007F003F3F7F0000004C0026264C000000260013132600003FFF007F9FFF
310
000029A5005267A500001F7F003F4F7F0000134C00262F4C000009260013172600007FFF007FBFFF000052A500527CA500003F7F003F5F7F0000264C0026394C0000132600131C260000BFFF007FDFFF00007CA5005291A500005F7F003F6F7F0000394C0026424C00001C26001321260000FFFF007FFFFF0000A5A50052A5
310
A500007F7F003F7F7F00004C4C00264C4C00002626001326260000FFBF007FFFDF0000A57C0052A59100007F5F003F7F6F00004C3900264C420000261C001326210000FF7F007FFFBF0000A5520052A57C00007F3F003F7F5F00004C2600264C39000026130013261C0000FF3F007FFF9F0000A5290052A56700007F1F003F
310
7F4F00004C1300264C2F00002609001326170000FF00007FFF7F0000A5000052A55200007F00003F7F3F00004C0000264C260000260000132613003FFF00009FFF7F0029A5000067A552001F7F00004F7F3F00134C00002F4C260009260000172613007FFF0000BFFF7F0052A500007CA552003F7F00005F7F3F00264C0000
310
394C2600132600001C261300BFFF0000DFFF7F007CA5000091A552005F7F00006F7F3F00394C0000424C26001C26000021261300FFFF0000FFFF7F00A5A50000A5A552007F7F00007F7F3F004C4C00004C4C26002626000026261300FFBF0000FFDF7F00A57C0000A59152007F5F00007F6F3F004C3900004C422600261C00
310
0026211300FF7F0000FFBF7F00A5520000A57C52007F3F00007F5F3F004C2600004C39260026130000261C1300FF3F0000FF9F7F00A5290000A56752007F1F00007F4F3F004C1300004C2F26002609000026171300FF000000FF7F7F00A5000000A55252007F0000007F3F3F004C0000004C2626002600000026131300FF00
310
3F00FF7F9F00A5002900A55267007F001F007F3F4F004C0013004C262F002600090026131700FF007F00FF7FBF00A5005200A5527C007F003F007F3F5F004C0026004C2639002600130026131C00FF00BF00FF7FDF00A5007C00A55291007F005F007F3F6F004C0039004C26420026001C0026132100FF00FF00FF7FFF00A5
310
00A500A552A5007F007F007F3F7F004C004C004C264C002600260026132600BF00FF00DF7FFF007C00A5009152A5005F007F006F3F7F0039004C0042264C001C002600211326007F00FF00BF7FFF005200A5007C52A5003F007F005F3F7F0026004C0039264C00130026001C1326003F00FF009F7FFF002900A5006752A500
310
1F007F004F3F7F0013004C002F264C000900260017132600000000002D2D2D005B5B5B0089898900B7B7B700B3B3B30000000000000000000000000000000000000000000000000000000000000000000000000000000000000000000000000000000000000000000000000000000000000000000000000000000000000000
310
00000000000000000000000000000000000000000000000000000000000000000000000000000000000000000000000000000000000000000000000000000000000000000000000000000000000000000000000000000000000000000000000000000000000000000000000000000000000000000000000000000000000000
310
00000000000000000000000000000000000000000000000000000000000000000000000000000000000000000000000000000000000000000000000000000000000000000000000000000000000000000000000000000000000000000000000000000000000000000000000000000000000000000000000000000000000000
310
00000000000000000000000000000000000000000000000000000000000000000000000000000000000000000000000000000000000000000000000000000000000000000000000000000000000000000000000000000000000000000000000000000000000000000000000000000000000000000000000000000000000000
310
00000000000000000000000000000000000000000000000000000000000000000000000000000000000000000000000000000000000000000000000000000000000000000000000000000000000000000000000000000000000000000000000000000000000000000000000000000000000000000000000000000000000000
310
00000000000000000000000000000000000000000000000000000000000000000000000000000000000000000000000000000000000000000000000000000000000000000000000000000000000000000000000000000000000000000000000000000000000000000000000000000000000000000000000000000000000000
310
00000000000000000000000000000000000000000000000000000000000000000000000000000000000000000000000000000000000000000000000000000000000000000000000000000000000000000000000000000000000000000000000000000000000000000000000000000000000000000000000000000000000000
310
00000000000000000000000000000000000000000000000000000000000000000000000000000000000000000000000000000000000000000000000000000000000000000000000000000000000000000000000000000000000000000000000000000000000000000000000000000000000000000000000000000000000000
310
00000000000000000000000000000000000000000000000000000000000000000000000000000000000000000000000000000000000000000000000000000000000000000000000000000000000000000000000000000000000000000000000000000000000000000000000000000000000000000000000000000000000000
310
00000000000000000000000000000000000000000000000000000000000000000000000000000000000000000000000000000000000000000000000000000000000000000000000000000000000000000000000000000000000000000000000000000000000000000000000000000000000000000000000000000000000000
310
00000000000000000000000000000000000000000000000000000000000000000000000000000000000000000000000000000000000000000000000000000000000000000000000000000000000000000000000000000000000000000000000000000000000000000000000000000000000000000000000000000000000000
310
00000000000000000000000000000000000000000000000000000000000000000000000000000000000000000000000000000000000000000000000000000000000000000000000000000000000000000000000000000000000000000000000000000000000000000000000000000000000000000000000000000000000000
310
00000000000000000000000000000000000000000000000000000000000000000000000000000000000000000000000000000000000000000000000000000000000000000000000000000000000000000000000000000000000000000000000000000000000000000000000000000000000000000000000000000000000000
310
00000000000000000000000000000000000000000000000000000000000000000000000000000000000000000000000000000000000000000000000000000000000000000000000000000000000000000000000000000000000000000000000000000000000000000000000000000000000000000000000000000000000000
310
00000000000000000000000000000000000000000000000000000000000000000000000000000000000000000000000000000000000000000000000000000000000000000000000000000000000000000000000000000000000000000000000000000000000000000000000000000000000000000000000000000000000000
310
00000000000000000000000000000000000000000000000000000000000000000000000000000000000000000000000000000000000000000000000000000000000000000000000000000000000000000000000000000000000000000000000000000000000000000000000000000000000000000000000000000000000000
310
00000000000000000000000000000000000000000000000000000000000000000000000000000000000000000000000000000000000000000000000000000000000000000000000000000000000000000000000000000000000000000000000000000000000000000000000000000000000000000000000000000000000000
310
00000000000000000000000000000000000000000000000000000000000000000000000000000000000000000000000000000000000000000000000000000000000000000000000000000000000000000000000000000000000000000000000000000000000000000000000000000000000000000000000000000000000000
310
00000000000000000000000000000000000000000000000000000000000000000000000000000000000000000000000000000000000000000000000000000000000000000000000000000000000000000000000000000000000000000000000000000000000000000000000000000000000000000000000000000000000000
310
00000000000000000000000000000000000000000000000000000000000000000000000000000000000000000000000000000000000000000000000000000000000000000000000000000000000000000000000000000000000000000000000000000000000000000000000000000000000000000000000000000000000000
310
00000000000000000000000000000000000000000000000000000000000000000000000000000000000000000000000000000000000000000000000000000000000000000000000000000300000000000000000000000000000000000000000000000000000000000000000000000000000000000000000000000000000000
310
00000000000000000000000000000000000000000000000000000000000000000000000000000000000000000000000000000000000000000000000000000000000000000000000000000000000000000000000000000000000000000000000000000000000000000000000000000000000000000000000000000000000003
310
01030000000000000000000000000000000000000000000000000000000000000000000000000000000000000000000000000000000000000000000000000000000000000000000000000000000000000000000000000000000000000000000000000000000000000000000000000000000000000000000000000000000000
310
00000000000000000000000000000000000000000000000000000000000000000000000000000000000000000000000000000001010101010000000000000000000000000000000000000000000000000000000000000000000000000000000000000000000000000000000000000000000000000000000000000000000000
310
00000000000000000000000000000000000000000000000000000000000000000000000000000000000000000000000000000000000000000000000000000000000000000000000000000000000000000000000000000000000000000000000000000000000000000000030300000000000000000000000000000000000000
310
00000000000000000000000000000000000000000000000000000000000000000000000000000000000000000000000000000000000000000000000000000000000000000000000000000000000000000000000000000000000000000000000000000000000000000000000000000000000000000000000000000000000000
310
00000000000000000000000000000000000000000000000000000000000000000000000000000000000000000000000000020202020000000000000000000000000000000000000000000000000000000000000000000000000000000000000000000000000000000000000000000000000000000000000000000000000000
310
00000000000000000000000000000000000000000000000000000000000000000000000000000000000000000000000000000000000000000000000000000000000000000000000000000000000000000000000000010000000000000000000000000000000000000000000000000000000000000000000100000000000000
310
00000000000000000000000000000000000000000000000000000000000000000000000000000000000000000000000000000000000000000000000000000000000000000000000000000000000000000000000000000000000000000000000000000000000000000000000000000000000000000000000000000000000000
310
00000000000000000000030303000000000000000000000000000000000000000000000000000000000000000303030000000000000000000000000000000000000000000000000000000000000000000000000000000000000000000000000000000000000000000000000000000000000000000000000000000000000000
310
00000000000000000000000000000000000000000000000000000000000000000000000000000000000000000000000000000000000000000000000000000003030300000000000000000000000000000000000000000000000000000000000000030103000000000000000000000000000000000000000000000000000000
310
00000000000000000000000000000000000000000000000000000000000000000000000000000000000000000000000000000000000000000000000000000000000000000000000000000000000000000000000000000000000000000000000000000000000000000000000000000000010000000303030000000000000000
310
00010000000000000000000000000001000000000000000301030000000000000001000000000000000000000000000000000000000000000000000000000000000000000000000000000000000000000000000000000000000000000000000000000000000000000000000000000000000000000000000000000000000000
310
00000000000000000000000000000000000000000000000000000000000000000000000000030303030303030300000000000303030303030000000000000000000000030103030303030000030103000003030303030303030000000000000000000000000000000000000000000000000000000000000000000000000000
310
00000000000000000000000000000000000000000000000000000000000000000000000000000000000000000000000000000000000000000000000000000000000000000000000000000000000000000000000000000000000003010000030303030001000000030303030103000000000000000000000003010000000003
310
00000303030000030000000001000300000000000000000000000000000000000000000000000000000000000000000000000000000000000000000000000000000000000000000000000000000000000000000000000000000000000000000000000000000000000000000000000000000000000000000000000000000000
310
00000000000000000000000000000003030303030303010303010303030303030303030300000000000000000000030103030303030303030103030303030303030303030000000000000000000000000000000000000000000000000000000000000000000000000000000000000000000000000000000000000000000000
310
00000000000000000000000000000000000000000000000000000000000000000000000000000000000000000000000000000000000000000000000000000000000000030300000000000001000001000000010000000000030300000000000000000003000000000000000001010000030303030303000300000000000000
310
00000000000000000000000000000000000000000000000000000000000000000000000000000000000000000000000000000000000000000000000000000000000000000000000000000000000000000000000000000000000000000000000000000000000000000000000000000000000000000000000003030000000000
310
00010000010000000100000000000303000000000000000000030000000000000000010100000303030300030003000000000000000000000000000000000000000000000000000000000000000000000000000000000000000000000000000000000000000000000000000000000000000000000000000000000000000000
310
00000000000000000000000000000000000000000000000000000000000000000000000000000000000000000000030301010101010101010101010101010101010101030303030303000000000003000000000000000001010001030303030303000300000000000000000000000000000000000000000000000000000000
310
00000000000000000000000000000000000000000000000000000000000000000000000000000000000000000000000000000000000000000000000000000000000000000000000000000000000000000000000000000000000000000000000000000003030000000000000100000100000001000000000003030303030300
310
00000000030000000000000000010100000303030303030003000000000000000000000000000000000000000000000000000000000000000000000000000000000000000000000000000000000000000000000000000000000000000000000000000000000000000000000000000000000000000000000000000000000000
310
00000000000000000000000000000000000000000000000000030300000000000001000001000000010000000000030300000000000000000003000000000000000001010000030303030003000303000000000000000000000000000000000000000000000000000000000000000000000000000000000000000000000000
310
00000000000000000000000000000000000000000000000000000000000000000000000000000000000000000000000000000000000000000000000000000000000000000000000000000000000003030000000000000100000100000001000000000003030000000000000000000300000000000000000101000003030303
310
03030101030000000000000000000000000000000000000000000000000000000000000000000000000000000000000000000000000000000000000000000000000000000000000000000000000000000000000000000000000000000000000000000000000000000000000000000000000000000000000000000000000000
310
00000000000303030303030301030303030303030303030303030000000000000000000003040104040404040401010404040404040401040303000000000000000000000000000000000000000000000000000000000000000000000000000000000000000000000000000000000000000000000000000000000000000000
310
00000000000000000000000000000000000000000000000000000000000000000000000000000000000000000000000000000000000000000000030403030304040103030303030303040303030403000000000000000000000303030303010303030301030303030303030303030000000000000000000000000000000000
310
00000000000000000000000000000000000000000000000000000000000000000000000000000000000000000000000000000000000000000000000000000000000000000000000000000000000000000000000000000000000000000000000000000000000000000000000000000003030000030303010303030303030303
310
03000003030000000000000000000000000303030303030303010303030303030003030000000000000000000000000000000000000000000000000000000000000000000000000000000000000000000000000000000000000000000000000000000000000000000000000000000000000000000000000000000000000000
310
00000000000000000000000000000000000000000000000000000000000000000000000000000000000000000100030103000001000000000000000000000000000000000000000003010300000001000000000000000000000000000000000000000000000000000000000000000000000000000000000000000000000000
310
00000000000000000000000000000000000000000000000000000000000000000000000000000000000000000000000000000000000000000000000000000000000000000000000000000000000000000000000000000000000000000000000000000000000000000000000000000000000000000000000000000000000000
310
00000000000000000000000000000000000000000000000000000000000000000000000000000000000000000000000000000000000000000000000000000000000000000000000000000000000000000000000000000000000000000000000000000000000000000000000000000000000000000000000000000000000000
310
00000000000000000000000000000000000000000000000000000000000000000000000000000000000000000000000000000000000000000000000000000000000000000000000000000000000000000000000000000000000000000000000000000000000000000000000000000000000000000000000000000000000000
310
00000000000000000000000000000000000000000000000000000000000000000000000000000000000000000000000000000000000000000000000000000000000000000000000000000000000000000000000000000000000000000000000000000000000000000000000000000000000000000000000000000000000000
310
00000000000000000000000000000000000000000000000000000000000000000000000000000000000000000000000000000000000000000000000000000000000000000000000000000000000000000000000000000000000000000000000000000000000000000000000000000000000000000000000000000000000000
310
00000000000000000000000000000000000000000000000000000000000000000000000000000000000000000000000000000000000000000000000000000000000000000000000000000000000000000000000000000000000000000000000000000000000000000000000000000000000000000000000000000000000000
310
00000000000000000000000000000000000000000000000000000000000000000000000000000000000000000000000000000000000000000000000000000000000000000000000000000000000000000000000000000000000000000000000000000000000000000000000000000000000000000000000000000000000000
310
00000000000000000000000000000000000000000000000000000000000000000000000000000000000000000000000000000000000000000000000000000000000000000000000000000000000000000000000000000000000000000000000000000000000000000000000000000000000000000000000000000000000000
310
00000000000000000000000000000000000000000000000000000000000000000000000000000000000000000000000000000000000000000000000000000000000000000000000000000000000000000000000000000000000000000000000000000000000000000000000000000000000000000000000000000000000000
310
00000000000000000000000000000000000000000000000000000000000000000000000000000000000000000000000000000000000000000000000000000000000000000000000000000000000000000000000000000000000000000000000000000000000000000000000000000000000000000000000000000000000000
310
00000000000000000000000000000000000000000000000000000000000000000000000000000000000000000000000000000000000000000000000000000000000000000000000000000000000000000000000000000000000000000000000000000000000000000000000000000000000000000000000000000000000000
310
00000000000000000000000000000000000000000000000000000000000000000000000000000000000000000000000000000000000000000000000000000000000000000000000000000000000000000000000000000000000000000000000000000000000000000000000000000000000000000000000000000000000000
310
00000000000000030103030300000003010300000003030301030000000000000000000000000000000000000000000000000000000000000000000000000000000000000000000000000000000000000000000000000000000000000000000000000000000000000000000000000000000000000000000000000000000000
310
00000000000000000000000000000000000000000000000000000000000000000000000000000000000000000000000000000000000000000000000003030300000303030303030303030000030303000000000000000000000000000000000000000000000000000000000000000000000000000000000000000000000000
310
00000000000000000000000000000000000000000000000000000000000000000000000000000000000000000000000000000000000000000000000000000000000000000000000000000000000000000000000000000000000000000000000000000000000000000000000000000000000103030303030103030303030103
310
03030101010000000000000000000000000000000000000000000000000000000000000000000000000000000000000000000000000000000000000000000000000000000000000000000000000000000000000000000000000000000000000000000000000000000000000000000000000000000000000000000000000000
310
00000000000000000000000000000000000000000000000000000000000000000000000000000003010301030303000001000003030303030103000000000000000000000000000000000000000000000000000000000000000000000000000000000000000000000000000000000000000000000000000000000000000000
310
00000000000000000000000000000000000000000000000000000000000000000000000000000000000000000000000000000000000000000000000000000000000000000000000000000000000000000000000000000000000000000303030303000000030303000000030303000300000000000000000000000000000000
310
00000000000000000000000000000000000000000000000000000000000000000000000000000000000000000000000000000000000000000000000000000000000000000000000000000000000000000000000000000000000000000000000000000000000000000000000000000000000000000000000000000000000000
310
00000000000000000000000000000000000003030300030303030303030303030300030303000000000000000000000000000000000000000000000000000000000000000000000000000000000000000000000000000000000000000000000000000000000000000000000000000000000000000000000000000000000000
310
00000000000000000000000000000000000000000000000000000000000000000000000000000000000000000000000000000000000000000000000000000000000000000000000301030300000101030303010000000303010300000000000000000000000000000000000000000000000000000000000000000000000000
310
00000000000000000000000000000000000000000000000000000000000000000000000000000000000000000000000000000000000000000000000000000000000000000000000000000000000000000000000000000000000000000000000000000000000000000000000000000000000000000000000000000000030300
310
00000303030303030003030000000303000000000000000000000000000000000000000000000000000000000000000000000000000000000000000000000000000000000000000000000000000000000000000000000000000000000000000000000000000000000000000000000000000000000000000000000000000000
310
00000000000000000000000000000000000000000000000000000000000000000000000000000000000000000000000000030103000303030303030300030303030300030303000000000000000000000000000000000000000000000000000000000000000000000000000000000000000000000000000000000000000000
310
00000000000000000000000000000000000000000000000000000000000000000000000000000000000000000000000000000000000000000000000000000000000000000000000000000000000000000000000000000000000000000000000000000000000003010300030300010003030303000103030003010300000000
310
00000000000000000000000000000000000000000000000000000000000000000000000000000000000000000000000000000000000000000000000000000000000000000000000000000000000000000000000000000000000000000000000000000000000000000000000000000000000000000000000000000000000000
310
00000000000000000000000000000000000000000000000000000001010303010301010101010303030101030301030301010000000000000000000000000000000000000000000000000000000000000000000000000000000000000000000000000000000000000000000000000000000000000000000000000000000000
310
00000000000000000000000000000000000000000000000000000000000000000000000000000000000000000000000000000000000000000000000000000000000000000000000000000000000000000003030300030000010000030003030303030003030300000000000000000000000000000000000000000000000000
310
00000000000000000000000000000000000000000000000000000000000000000000000000000000000000000000000000000000000000000000000000000000000000000000000000000000000000000000000000000000000000000000000000000000000000000000000000000000000000000000000000000000000000
310
00000000000000030103000303000100030300030303030000030103000000000000000000000000000000000000000000000000000000000000000000000000000000000000000000000000000000000000000000000000000000000000000000000000000000000000000000000000000000000000000000000000000000
310
00000000000000000000000000000000000000000000000000000000000000000000000000000000000000000000000000000000000000000000000303010300000303030303010000000000000003030303000000000000000000000000000000000000000000000000000000000000000000000000000000000000000000
310
00000000000000000000000000000000000000000000000000000000000000000000000000000000000000000000000000000000000000000000000000000000000000000000000000000000000000000000000000000000000000000000000000000000000000000000000000000000030003030000000303030303030000
310
00000000030300030000000000000000000000000000000000000000000000000000000000000000000000000000000000000000000000000000000000000000000000000000000000000000000000000000000000000000000000000000000000000000000000000000000000000000000000000000000000000000000000
310
00000000000000000000000000000000000000000000000000000000000000000000000000000301030103030303010103010301010303030301030103030303030000000000000000000000000000000000000000000000000000000000000000000000000000000000000000000000000000000000000000000000000000
310
00000000000000000000000000000000000000000000000000000000000000000000000000000000000000000000000000000000000000000000000000000000000000000000000000000000000000000000000000000000000000030000030303000003030303030303000003030300000303030303000000000000000000
310
00000000000000000000000000000000000000000000000000000000000000000000000000000000000000000000000000000000000000000000000000000000000000000000000000000000000000000000000000000000000000000000000000000000000000000000000000000000000000000000000000000000000000
310
00000000000000000000000000000000000300000303010300000000030000000003010300000003000000000000000000000000000000000000000000000000000000000000000000000000000000000000000000000000000000000000000000000000000000000000000000000000000000000000000000000000000000
310
00000000000000000000000000000000000000000000000000000000000000000000000000000000000000000000000000000000000000000000000000000000000000000000030303030303030303000001000003030303030303030300000000000000000000000000000000000000000000000000000000000000000000
310
00000000000000000000000000000000000000000000000000000000000000000000000000000000000000000000000000000000000000000000000000000000000000000000000000000000000000000000000000000000000000000000000000000000000000000000000000000000000000000000000000000000000303
310
03030301010303030303010303030303030000000000000000000000000000000000000000000000000000000000000000000000000000000000000000000000000000000000000000000000000000000000000000000000000000000000000000000000000000000000000000000000000000000000000000000000000000
310
00000000000000000000000000000000000000000000000000000000000000000000000000000000000000000000000000000001030301000303030303030303030001030301000000000000000000000000000000000000000000000000000000000000000000000000000000000000000000000000000000000000000000
310
00000000000000000000000000000000000000000000000000000000000000000000000000000000000000000000000000000000000000000000000000000000000000000000000000000000000000000000000000000000000000000000000000000000000000000303030303000000030303000000030303030300000000
310
00000000000000000000000000000000000000000000000000000000000000000000000000000000000000000000000000000000000000000000000000000000000000000000000000000000000000000000000000000000000000000000000000000000000000000000000000000000000000000000000000000000000000
310
00000000000000000000000000000000000000000000000000000000000000000000000000000001000000000000000000000000000000000000000000000000000000000000000000000000000000000000000000000000000000000000000000000000000000000000000000000000000000000000000000000000000000
310
00000000000000000000000000000000000000000000000000000000000000000000000000000000000000000000000000000000000000000000000000000000000000000000000000000000000000000000000000000000000000000000000000000000000000000000000000000000000000000000000000000000000000
310
00000000000000000000000000000000000000000000000000000000000000000000000000000000000000000000000000000000000000000000000000000000000000000000000000000000000000000000000000000000000000000000000000000000000000000000000000000000000000000000000000000000000000
310
00000000000000000000000000000000000000000000000000000000000000000000000000000000000000000000000000000000000000000000000000000000000000000000000000000000000000000000000000000000000000000000000000000000000000000000000000000000000000000000000000000000000000
310
00000000000000000000000000000000000000000000000000000000000000000000000000000000000000000000000000000000000000000000000000000000000000000000000000000000000000000000000000000000000000000000000000000000000000000000000000000000000000000000000000000000000000
310
00000000000000000000000000000000000000000000000000000000000000000000000000000000000000000000000000000000000000000000000000000000000000000000000000000000000000000000000000000000000000000000000000000000000000000000000000000000000000000000000000000000000000
310
00000000000000000000000000000000000000000000000000000000000000000000000000000000000000000000000000000000000000000000000000000000000000000000000000000000000000000000000000000000000000000000000000000000000000000000000000000000000000000000000000000000000000
310
00000000000000000000000000000000000000000000000000000000000000000000000000000000000000000000000000000000000000000000000000000000000000000000000000000000000000000000000000000000000000000000000000000000000000000000000000000000000000000000000000000000000000
310
00000000000000000000000000000000000000000000000000000000000000000000000000000000000000000000000000000000000000000000000000000000000000000000000000000000000000000000000000000000000000000000000000000000000000000000000000000000000000000000000000000000000000
310
00000000000000000000000000000000000000000000000000000000000000000000000000000000000000000000000000000000000000000000000000000000000000000000000000000000000000000000000000000000000000000000000000000000000000000000000000000000000000000000000000000000000000
310
00000000000000000000000000000000000000000000000000000000000000000000000000000000000000000000000000000000000000000000000000000000000000000000000000000000000000000000000000000000000000000000000000000000000000000000000000000000000000000000000000000000000000
310
00000000000000000000000000000000000000000000000000000000000000000000000000000000000000000000000000000000000000000000000000000000000000000000000000000000000000000000000000000000000000000000000000000000000000000000000000000000000000000000000000000000000000
310
00000000000000000000000000000000000000000000000000000000000000000000000000000000000000000000000000000000000000000000000000000000000000000000000000000000000000000000000000000000000000000000000000000000000000000000000000000000000000000000000000000000000000
310
00000000000000000000000000000000000000000000000000000000000000000000000000000000000000000000000000000000000000000000000000000000000000000000000000000000000000000000000000000000000000000000000000000000000000000000000000000000000000000000000000000000000000
310
00000000000000000000000000000000000000000000000000000000000000000000000000000000000000000000000000000000000000000000000000000000000000000000000000000000000000000000000000000000000000000000000000000000000000000000000000000000000000000000000000000000000000
310
00000000000000000000000000000000000000000000000000000000000000000000000000000000000000000000000000000000000000000000000000000000000000000000000000000000000000000000000000000000000000000000000000000000000000000000000000000000000000000000000000000000000000
310
00000000000000000000000000000000000000000000000000000000000000000000000000000000000000000000000000000000000000000000000000000000000000000000000000000000000000000000000000000000000000000000000000000000000000000000000000000000000000000000000000000000000000
310
00000000000000000000000000000000000000000000000000000000000000000000000000000000000000000000000000000000000000000000000000000000000000000000000000000000000000000000000000000000000000000000000000000000000000000000000000000000000000000000000000000000000000
310
00000000000000000000000000000000000000000000000000000000000000000000000000000000000000000000000000000000000000000000000000000000000000000000000000000000000000000000000000000000000000000000000000000000000000000000000000000000000000000000000000000000000000
310
00000000000000000000000000000000000000000000000000000000000000000000000000000000000000000000000000000000000000000000000000000000000000000000000000000000000000000000000000000000000000000000000000000000000000000000000000000000000000000000000000000000000000
310
00000000000000000000000000000000000000000000000000000000000000000000000000000000000000000000000000000000000000000000000000000000000000000000000000000000000000000000000000000000000000000000000000000000000000000000000000000000000000000000000000000000000000
310
00000000000000000000000000000000000000000000000000000000000000000000000000000000000000000000000000000000000000000000000000000000000000000000000000000000000000000000000000000000000000000000000000000000000000000000000000000000000000000000000000000000000000
310
00000000000000000000000000000000000000000000000000000000000000000000000000000000000000000000000000000000000000000000000000000000000000000000000000000000000000000000000000000000000000000000000000000000000000000000000000000000000000000000000000000000000000
310
00000000000000000000000000000000000000000000000000000000000000000000000000000000000000000000000000000000000000000000000000000000000000000000000000000000000000000000000000000000000000000000000000000000000000000000000000000000000000000000000000000000000000
310
00000000000000000000000000000000000000000000000000000000000000000000000000000000000000000000000000000000000000000000000000000000000000000000000000000000000000000000000000000000000000000000000000000000000000000000000000000000000000000000000000000000000000
310
00000000000000000000000000000000000000000000000000000000000000000000000000000000000000000000000000000000000000000000000000000000000000000000000000000000000000000000000000000000000000000000000000000000000000000000000000000000000000000000000000000000000000
310
000000000000000000000000000000000000000000000000000000000000000000000000000000000000000000000000000000000000000000000000000000000000000000000000000000000000000000000000000000000000000000000000000000000000000000000000
  0
ENDSEC
  0
EOF
