  0
SECTION
  2
HEADER
  9
$ACADVER
  1
AC1015
  9
$ACADMAINTVER
 70
     6
  9
$DWGCODEPAGE
  3
ANSI_932
  9
$INSBASE
 10
3317.288936485714
 20
2479.48433400707
 30
0.0
  9
$EXTMIN
 10
529.4815596442686
 20
48.92583696493409
 30
0.0
  9
$EXTMAX
 10
2842.884405241381
 20
2183.506839941316
 30
0.0
  9
$LIMMIN
 10
0.0
 20
0.0
  9
$LIMMAX
 10
816.5000000000001
 20
565.0
  9
$ORTHOMODE
 70
     1
  9
$REGENMODE
 70
     1
  9
$FILLMODE
 70
     1
  9
$QTEXTMODE
 70
     0
  9
$MIRRTEXT
 70
     1
  9
$LTSCALE
 40
20.0
  9
$ATTMODE
 70
     1
  9
$TEXTSIZE
 40
21.0
  9
$TRACEWID
 40
0.05
  9
$TEXTSTYLE
  7
KANJI
  9
$CLAYER
  8
2
  9
$CELTYPE
  6
BYLAYER
  9
$CECOLOR
 62
   256
  9
$CELTSCALE
 40
1.0
  9
$DISPSILH
 70
     0
  9
$DIMSCALE
 40
8.0
  9
$DIMASZ
 40
2.0
  9
$DIMEXO
 40
0.5
  9
$DIMDLI
 40
0.0
  9
$DIMRND
 40
0.0
  9
$DIMDLE
 40
0.0
  9
$DIMEXE
 40
1.0
  9
$DIMTP
 40
0.0
  9
$DIMTM
 40
0.0
  9
$DIMTXT
 40
3.0
  9
$DIMCEN
 40
0.09
  9
$DIMTSZ
 40
0.0
  9
$DIMTOL
 70
     0
  9
$DIMLIM
 70
     0
  9
$DIMTIH
 70
     0
  9
$DIMTOH
 70
     0
  9
$DIMSE1
 70
     0
  9
$DIMSE2
 70
     0
  9
$DIMTAD
 70
     0
  9
$DIMZIN
 70
     8
  9
$DIMBLK
  1

  9
$DIMASO
 70
     0
  9
$DIMSHO
 70
     0
  9
$DIMPOST
  1

  9
$DIMAPOST
  1

  9
$DIMALT
 70
     0
  9
$DIMALTD
 70
     2
  9
$DIMALTF
 40
25.4
  9
$DIMLFAC
 40
1.0
  9
$DIMTOFL
 70
     1
  9
$DIMTVP
 40
1.0
  9
$DIMTIX
 70
     1
  9
$DIMSOXD
 70
     1
  9
$DIMSAH
 70
     0
  9
$DIMBLK1
  1

  9
$DIMBLK2
  1

  9
$DIMSTYLE
  2
STANDARD
  9
$DIMCLRD
 70
   256
  9
$DIMCLRE
 70
   256
  9
$DIMCLRT
 70
   256
  9
$DIMTFAC
 40
1.0
  9
$DIMGAP
 40
0.09
  9
$DIMJUST
 70
     0
  9
$DIMSD1
 70
     0
  9
$DIMSD2
 70
     0
  9
$DIMTOLJ
 70
     1
  9
$DIMTZIN
 70
     0
  9
$DIMALTZ
 70
     0
  9
$DIMALTTZ
 70
     0
  9
$DIMUPT
 70
     0
  9
$DIMDEC
 70
     1
  9
$DIMTDEC
 70
     4
  9
$DIMALTU
 70
     2
  9
$DIMALTTD
 70
     2
  9
$DIMTXSTY
  7
STANDARD
  9
$DIMAUNIT
 70
     0
  9
$DIMADEC
 70
     0
  9
$DIMALTRND
 40
0.0
  9
$DIMAZIN
 70
     0
  9
$DIMDSEP
 70
    46
  9
$DIMATFIT
 70
     3
  9
$DIMFRAC
 70
     0
  9
$DIMLDRBLK
  1

  9
$DIMLUNIT
 70
     2
  9
$DIMLWD
 70
    -2
  9
$DIMLWE
 70
    -2
  9
$DIMTMOVE
 70
     0
  9
$LUNITS
 70
     2
  9
$LUPREC
 70
     3
  9
$SKETCHINC
 40
0.1
  9
$FILLETRAD
 40
1.0
  9
$AUNITS
 70
     0
  9
$AUPREC
 70
     3
  9
$MENU
  1
C:\R13\WIN\SUPPORT\ACADFULL
  9
$ELEVATION
 40
0.0
  9
$PELEVATION
 40
0.0
  9
$THICKNESS
 40
0.0
  9
$LIMCHECK
 70
     0
  9
$CHAMFERA
 40
0.0
  9
$CHAMFERB
 40
0.0
  9
$CHAMFERC
 40
0.0
  9
$CHAMFERD
 40
0.0
  9
$SKPOLY
 70
     0
  9
$TDCREATE
 40
2449813.131805555
  9
$TDUCREATE
 40
2449812.756805555
  9
$TDUPDATE
 40
2458114.747344514
  9
$TDUUPDATE
 40
2458114.372344514
  9
$TDINDWG
 40
1.3200441898
  9
$TDUSRTIMER
 40
1.3200438657
  9
$USRTIMER
 70
     1
  9
$ANGBASE
 50
0.0
  9
$ANGDIR
 70
     0
  9
$PDMODE
 70
     0
  9
$PDSIZE
 40
0.0
  9
$PLINEWID
 40
0.0
  9
$SPLFRAME
 70
     0
  9
$SPLINETYPE
 70
     6
  9
$SPLINESEGS
 70
     8
  9
$HANDSEED
  5
76A
  9
$SURFTAB1
 70
     6
  9
$SURFTAB2
 70
     6
  9
$SURFTYPE
 70
     6
  9
$SURFU
 70
     6
  9
$SURFV
 70
     6
  9
$UCSBASE
  2

  9
$UCSNAME
  2

  9
$UCSORG
 10
0.0
 20
0.0
 30
0.0
  9
$UCSXDIR
 10
1.0
 20
0.0
 30
0.0
  9
$UCSYDIR
 10
0.0
 20
1.0
 30
0.0
  9
$UCSORTHOREF
  2

  9
$UCSORTHOVIEW
 70
     0
  9
$UCSORGTOP
 10
0.0
 20
0.0
 30
0.0
  9
$UCSORGBOTTOM
 10
0.0
 20
0.0
 30
0.0
  9
$UCSORGLEFT
 10
0.0
 20
0.0
 30
0.0
  9
$UCSORGRIGHT
 10
0.0
 20
0.0
 30
0.0
  9
$UCSORGFRONT
 10
0.0
 20
0.0
 30
0.0
  9
$UCSORGBACK
 10
0.0
 20
0.0
 30
0.0
  9
$PUCSBASE
  2

  9
$PUCSNAME
  2

  9
$PUCSORG
 10
0.0
 20
0.0
 30
0.0
  9
$PUCSXDIR
 10
1.0
 20
0.0
 30
0.0
  9
$PUCSYDIR
 10
0.0
 20
1.0
 30
0.0
  9
$PUCSORTHOREF
  2

  9
$PUCSORTHOVIEW
 70
     0
  9
$PUCSORGTOP
 10
0.0
 20
0.0
 30
0.0
  9
$PUCSORGBOTTOM
 10
0.0
 20
0.0
 30
0.0
  9
$PUCSORGLEFT
 10
0.0
 20
0.0
 30
0.0
  9
$PUCSORGRIGHT
 10
0.0
 20
0.0
 30
0.0
  9
$PUCSORGFRONT
 10
0.0
 20
0.0
 30
0.0
  9
$PUCSORGBACK
 10
0.0
 20
0.0
 30
0.0
  9
$USERI1
 70
     0
  9
$USERI2
 70
     0
  9
$USERI3
 70
     0
  9
$USERI4
 70
     0
  9
$USERI5
 70
     0
  9
$USERR1
 40
0.0
  9
$USERR2
 40
0.0
  9
$USERR3
 40
0.0
  9
$USERR4
 40
2448925.372986111
  9
$USERR5
 40
0.04166667
  9
$WORLDVIEW
 70
     1
  9
$SHADEDGE
 70
     3
  9
$SHADEDIF
 70
    70
  9
$TILEMODE
 70
     1
  9
$MAXACTVP
 70
    16
  9
$PINSBASE
 10
0.0
 20
0.0
 30
0.0
  9
$PLIMCHECK
 70
     0
  9
$PEXTMIN
 10
1000000000000000E+20
 20
1000000000000000E+20
 30
1000000000000000E+20
  9
$PEXTMAX
 10
-1000000000000000E+20
 20
-1000000000000000E+20
 30
-1000000000000000E+20
  9
$PLIMMIN
 10
0.0
 20
0.0
  9
$PLIMMAX
 10
12.0
 20
9.0
  9
$UNITMODE
 70
     0
  9
$VISRETAIN
 70
     0
  9
$PLINEGEN
 70
     0
  9
$PSLTSCALE
 70
     0
  9
$TREEDEPTH
 70
  3020
  9
$CMLSTYLE
  2
STANDARD
  9
$CMLJUST
 70
     0
  9
$CMLSCALE
 40
1.0
  9
$PROXYGRAPHICS
 70
     1
  9
$MEASUREMENT
 70
     0
  9
$CELWEIGHT
370
    -1
  9
$ENDCAPS
280
     0
  9
$JOINSTYLE
280
     0
  9
$LWDISPLAY
290
     0
  9
$INSUNITS
 70
     0
  9
$HYPERLINKBASE
  1

  9
$STYLESHEET
  1
monochrome.ctb
  9
$XEDIT
290
     1
  9
$CEPSNTYPE
380
     0
  9
$PSTYLEMODE
290
     1
  9
$FINGERPRINTGUID
  2
{07528633-0641-4FB2-9331-EE77C6B48313}
  9
$VERSIONGUID
  2
{24E79080-B05A-4593-A4A5-E7A641596B18}
  9
$EXTNAMES
290
     1
  9
$PSVPSCALE
 40
0.0
  9
$OLESTARTUP
290
     0
  0
ENDSEC
  0
SECTION
  2
CLASSES
  0
CLASS
  1
ACDBDICTIONARYWDFLT
  2
AcDbDictionaryWithDefault
  3
ObjectDBX Classes
 90
        0
280
     0
281
     0
  0
CLASS
  1
MATERIAL
  2
AcDbMaterial
  3
ObjectDBX Classes
 90
     1153
280
     0
281
     0
  0
CLASS
  1
SORTENTSTABLE
  2
AcDbSortentsTable
  3
ObjectDBX Classes
 90
        0
280
     0
281
     0
  0
CLASS
  1
SCALE
  2
AcDbScale
  3
ObjectDBX Classes
 90
     1153
280
     0
281
     0
  0
CLASS
  1
DICTIONARYVAR
  2
AcDbDictionaryVar
  3
ObjectDBX Classes
 90
        0
280
     0
281
     0
  0
CLASS
  1
VISUALSTYLE
  2
AcDbVisualStyle
  3
ObjectDBX Classes
 90
     4095
280
     0
281
     0
  0
CLASS
  1
MLEADERSTYLE
  2
AcDbMLeaderStyle
  3
ACDB_MLEADERSTYLE_CLASS
 90
     4095
280
     0
281
     0
  0
CLASS
  1
ACDBPLACEHOLDER
  2
AcDbPlaceHolder
  3
ObjectDBX Classes
 90
        0
280
     0
281
     0
  0
CLASS
  1
LAYOUT
  2
AcDbLayout
  3
ObjectDBX Classes
 90
        0
280
     0
281
     0
  0
ENDSEC
  0
SECTION
  2
TABLES
  0
TABLE
  2
VPORT
  5
25
102
{ACAD_XDICTIONARY
360
72F
102
}
330
0
100
AcDbSymbolTable
 70
     2
  0
VPORT
  5
2B
330
25
100
AcDbSymbolTableRecord
100
AcDbViewportTableRecord
  2
*Active
 70
     0
 10
0.0
 20
0.0
 11
1.0
 21
1.0
 12
2864.383889998283
 22
956.4205396201568
 13
0.0
 23
0.0
 14
1.0
 24
1.0
 15
50.0
 25
50.0
 16
0.0
 26
0.0
 36
1.0
 17
0.0
 27
0.0
 37
0.0
 40
3453.758639900794
 41
1.82716049382716
 42
50.0
 43
0.0
 44
0.0
 50
0.0
 51
0.0
 71
     0
 72
  5000
 73
     1
 74
     0
 75
     0
 76
     0
 77
     0
 78
     0
281
     0
 65
     1
110
0.0
120
0.0
130
0.0
111
1.0
121
0.0
131
0.0
112
0.0
122
1.0
132
0.0
 79
     0
146
0.0
  0
ENDTAB
  0
TABLE
  2
LTYPE
  5
9
330
0
100
AcDbSymbolTable
 70
     2
  0
LTYPE
  5
A
330
9
100
AcDbSymbolTableRecord
100
AcDbLinetypeTableRecord
  2
BYBLOCK
 70
     0
  3

 72
    65
 73
     0
 40
0.0
  0
LTYPE
  5
B
330
9
100
AcDbSymbolTableRecord
100
AcDbLinetypeTableRecord
  2
BYLAYER
 70
     0
  3

 72
    65
 73
     0
 40
0.0
  0
LTYPE
  5
8
330
9
100
AcDbSymbolTableRecord
100
AcDbLinetypeTableRecord
  2
CONTINUOUS
 70
     0
  3
Solid line
 72
    65
 73
     0
 40
0.0
  0
LTYPE
  5
7B
330
9
100
AcDbSymbolTableRecord
100
AcDbLinetypeTableRecord
  2
CENTER
 70
     0
  3
____ _ ____ _ ____ _ ____ _ ____ _ ____ _ ____
 72
    65
 73
     4
 40
2.0
 49
1.25
 74
     0
 49
-0.25
 74
     0
 49
0.25
 74
     0
 49
-0.25
 74
     0
  0
ENDTAB
  0
TABLE
  2
LAYER
  5
2
330
0
100
AcDbSymbolTable
 70
     9
  0
LAYER
  5
19
330
2
100
AcDbSymbolTableRecord
100
AcDbLayerTableRecord
  2
0
 70
     0
 62
     7
  6
CONTINUOUS
370
    -3
390
3
  0
LAYER
  5
507
330
2
100
AcDbSymbolTableRecord
100
AcDbLayerTableRecord
  2
1
 70
     0
 62
     9
  6
CONTINUOUS
370
    -3
390
3
  0
LAYER
  5
1
330
2
100
AcDbSymbolTableRecord
100
AcDbLayerTableRecord
  2
2
 70
     0
 62
     4
  6
CONTINUOUS
370
    -3
390
3
  0
LAYER
  5
72
330
2
100
AcDbSymbolTableRecord
100
AcDbLayerTableRecord
  2
4
 70
     0
 62
     3
  6
CONTINUOUS
370
    -3
390
3
  0
LAYER
  5
7A
330
2
100
AcDbSymbolTableRecord
100
AcDbLayerTableRecord
  2
L-CENTER
 70
     0
 62
     1
  6
CENTER
370
    -3
390
3
  0
LAYER
  5
81
330
2
100
AcDbSymbolTableRecord
100
AcDbLayerTableRecord
  2
3
 70
     0
 62
     2
  6
CONTINUOUS
370
    -3
390
3
  0
LAYER
  5
501
330
2
100
AcDbSymbolTableRecord
100
AcDbLayerTableRecord
  2
5
 70
     0
 62
     6
  6
CONTINUOUS
370
    -3
390
3
  0
LAYER
  5
6DD
330
2
100
AcDbSymbolTableRecord
100
AcDbLayerTableRecord
  2
Defpoints
 70
     0
 62
     7
  6
CONTINUOUS
290
     0
370
    -3
390
3
  0
ENDTAB
  0
TABLE
  2
STYLE
  5
D
330
0
100
AcDbSymbolTable
 70
     2
  0
STYLE
  5
11
330
D
100
AcDbSymbolTableRecord
100
AcDbTextStyleTableRecord
  2
STANDARD
 70
     0
 40
0.0
 41
1.0
 50
0.0
 71
     0
 42
12.6
  3
TXT
  4

  0
STYLE
  5
C
330
D
100
AcDbSymbolTableRecord
100
AcDbTextStyleTableRecord
  2
KANJI
 70
     0
 40
0.0
 41
1.0
 50
0.0
 71
     0
 42
21.0
  3
TXT
  4
BIGFONT
  0
ENDTAB
  0
TABLE
  2
VIEW
  5
23
330
0
100
AcDbSymbolTable
 70
     0
  0
ENDTAB
  0
TABLE
  2
UCS
  5
24
330
0
100
AcDbSymbolTable
 70
     0
  0
ENDTAB
  0
TABLE
  2
APPID
  5
1E
330
0
100
AcDbSymbolTable
 70
     4
  0
APPID
  5
2A
330
1E
100
AcDbSymbolTableRecord
100
AcDbRegAppTableRecord
  2
ACAD
 70
     0
  0
APPID
  5
1D
330
1E
100
AcDbSymbolTableRecord
100
AcDbRegAppTableRecord
  2
ACAD_PSEXT
 70
     0
  0
APPID
  5
6DC
330
1E
100
AcDbSymbolTableRecord
100
AcDbRegAppTableRecord
  2
ACAD_MLEADERVER
 70
     0
  0
ENDTAB
  0
TABLE
  2
DIMSTYLE
  5
10
330
0
100
AcDbSymbolTable
 70
     1
100
AcDbDimStyleTable
  0
DIMSTYLE
105
F
330
10
100
AcDbSymbolTableRecord
100
AcDbDimStyleTableRecord
  2
STANDARD
 70
     0
178
     0
340
11
  0
ENDTAB
  0
TABLE
  2
BLOCK_RECORD
  5
14
330
0
100
AcDbSymbolTable
 70
     0
  0
BLOCK_RECORD
  5
15
102
{ACAD_XDICTIONARY
360
16
102
}
330
14
100
AcDbSymbolTableRecord
100
AcDbBlockTableRecord
  2
*MODEL_SPACE
340
1B
  0
BLOCK_RECORD
  5
1F
330
14
100
AcDbSymbolTableRecord
100
AcDbBlockTableRecord
  2
*PAPER_SPACE
340
22
  0
ENDTAB
  0
ENDSEC
  0
SECTION
  2
BLOCKS
  0
BLOCK
  5
18
330
15
100
AcDbEntity
  8
0
100
AcDbBlockBegin
  2
*MODEL_SPACE
 70
     0
 10
0.0
 20
0.0
 30
0.0
  3
*MODEL_SPACE
  1

  0
ENDBLK
  5
1A
330
15
100
AcDbEntity
  8
0
100
AcDbBlockEnd
  0
BLOCK
  5
20
330
1F
100
AcDbEntity
 67
     1
  8
0
100
AcDbBlockBegin
  2
*PAPER_SPACE
 70
     0
 10
0.0
 20
0.0
 30
0.0
  3
*PAPER_SPACE
  1

  0
ENDBLK
  5
21
330
1F
100
AcDbEntity
 67
     1
  8
0
100
AcDbBlockEnd
  0
ENDSEC
  0
SECTION
  2
ENTITIES
  0
LINE
  5
71
330
15
100
AcDbEntity
  8
4
100
AcDbLine
 10
1365.12803908009
 20
249.1964346780755
 30
0.0
 11
1365.12803908009
 21
139.1964396780754
 31
0.0
  0
ARC
  5
73
330
15
100
AcDbEntity
  8
4
100
AcDbCircle
 10
977.128042080089
 20
486.1964356780754
 30
0.0
 40
389.999974
100
AcDbArc
 50
225.245606
 51
314.755231
  0
LINE
  5
74
330
15
100
AcDbEntity
  8
4
100
AcDbLine
 10
589.1280450800891
 20
249.1964346780755
 30
0.0
 11
589.1280450800891
 21
139.1964396780754
 31
0.0
  0
ARC
  5
75
330
15
100
AcDbEntity
  8
4
100
AcDbCircle
 10
977.128042080089
 20
486.1964356780754
 30
0.0
 40
347.999953
100
AcDbArc
 50
271.6942290000001
 51
268.306615
  0
ARC
  5
76
330
15
100
AcDbEntity
  8
4
100
AcDbCircle
 10
977.128042080089
 20
486.1964356780754
 30
0.0
 40
390.000002
100
AcDbArc
 50
329.6524129999999
 51
210.348473
  0
LINE
  5
77
330
15
100
AcDbEntity
  8
4
100
AcDbLine
 10
571.1280420800895
 20
486.1964356780754
 30
0.0
 11
571.1280420800895
 21
74.19643467807555
 31
0.0
  0
LINE
  5
78
330
15
100
AcDbEntity
  8
4
100
AcDbLine
 10
1383.128035080089
 20
486.1964356780754
 30
0.0
 11
1383.128035080089
 21
74.19643467807555
 31
0.0
  0
LINE
  5
79
330
15
100
AcDbEntity
  8
L-CENTER
 48
2.0
100
AcDbLine
 10
977.128042080089
 20
75.19643367807521
 30
0.0
 11
977.128042080089
 21
988.170306678076
 31
0.0
  0
LINE
  5
7C
330
15
100
AcDbEntity
  8
4
100
AcDbLine
 10
796.1280410800896
 20
124.1964406780753
 30
0.0
 11
574.1280460800895
 21
124.1964406780753
 31
0.0
  0
LINE
  5
7D
330
15
100
AcDbEntity
  8
4
100
AcDbLine
 10
571.1280420800895
 20
74.19643467807555
 30
0.0
 11
799.1280450800891
 21
74.19643467807555
 31
0.0
  0
LINE
  5
7E
330
15
100
AcDbEntity
  8
4
100
AcDbLine
 10
772.4918130800893
 20
154.1964386780755
 30
0.0
 11
589.1280450800891
 21
154.1964386780755
 31
0.0
  0
ARC
  5
89
330
15
100
AcDbEntity
  8
4
100
AcDbCircle
 10
574.1280460800895
 20
121.1964366780753
 30
0.0
 40
2.999997
100
AcDbArc
 50
90.0
 51
180.0
  0
ARC
  5
8A
330
15
100
AcDbEntity
  8
4
100
AcDbCircle
 10
604.1280440800892
 20
139.1964396780754
 30
0.0
 40
14.999999
100
AcDbArc
 50
180.0
 51
270.0009319999996
  0
LINE
  5
8B
330
15
100
AcDbEntity
  8
L-CENTER
 48
2.0
100
AcDbLine
 10
657.1280400800892
 20
49.19643467807555
 30
0.0
 11
657.1280400800892
 21
149.1964406780753
 31
0.0
  0
LINE
  5
8E
330
15
100
AcDbEntity
  8
4
100
AcDbLine
 10
1181.764271080089
 20
154.1964386780755
 30
0.0
 11
1365.12803908009
 21
154.1964386780755
 31
0.0
  0
LINE
  5
8F
330
15
100
AcDbEntity
  8
4
100
AcDbLine
 10
1383.128035080089
 20
74.19643467807555
 30
0.0
 11
1155.12803908009
 21
74.19643467807555
 31
0.0
  0
LINE
  5
90
330
15
100
AcDbEntity
  8
4
100
AcDbLine
 10
1158.128043080089
 20
124.1964406780753
 30
0.0
 11
1380.128038080089
 21
124.1964406780753
 31
0.0
  0
LINE
  5
98
330
15
100
AcDbEntity
  8
4
100
AcDbLine
 10
805.1280390800898
 20
89.1964406780753
 30
0.0
 11
1149.128038080089
 21
89.1964406780753
 31
0.0
  0
LINE
  5
99
330
15
100
AcDbEntity
  8
4
100
AcDbLine
 10
769.1280400800892
 20
74.19643467807555
 30
0.0
 11
769.1280400800892
 21
121.1964366780753
 31
0.0
  0
LINE
  5
9A
330
15
100
AcDbEntity
  8
4
100
AcDbLine
 10
799.1280450800891
 20
74.19643467807555
 30
0.0
 11
799.1280450800891
 21
121.1964366780753
 31
0.0
  0
ARC
  5
9B
330
15
100
AcDbEntity
  8
4
100
AcDbCircle
 10
805.1280390800898
 20
83.19643967807542
 30
0.0
 40
6.000001
100
AcDbArc
 50
90.0
 51
180.0
  0
ARC
  5
9C
330
15
100
AcDbEntity
  8
4
100
AcDbCircle
 10
766.1280430800894
 20
121.1964366780753
 30
0.0
 40
2.999997
100
AcDbArc
 50
0.0
 51
90.0
  0
ARC
  5
9D
330
15
100
AcDbEntity
  8
4
100
AcDbCircle
 10
796.1280410800896
 20
121.1964366780753
 30
0.0
 40
2.999997
100
AcDbArc
 50
0.0
 51
90.0
  0
CIRCLE
  5
9E
330
15
100
AcDbEntity
  8
2
100
AcDbCircle
 10
977.128042080089
 20
121.1964366780753
 30
0.0
 40
8.331057
  0
CIRCLE
  5
9F
330
15
100
AcDbEntity
  8
4
100
AcDbCircle
 10
977.128042080089
 20
121.1964366780753
 30
0.0
 40
9.331057
  0
LINE
  5
A0
330
15
100
AcDbEntity
  8
2
100
AcDbLine
 10
970.9131690800891
 20
117.6082086780757
 30
0.0
 11
977.128042080089
 21
114.0200786780756
 31
0.0
  0
LINE
  5
A1
330
15
100
AcDbEntity
  8
2
100
AcDbLine
 10
983.3429150800898
 20
117.6082086780757
 30
0.0
 11
977.128042080089
 21
114.0200786780756
 31
0.0
  0
LINE
  5
A2
330
15
100
AcDbEntity
  8
2
100
AcDbLine
 10
977.128042080089
 20
128.3727946780755
 30
0.0
 11
970.9131690800891
 21
124.7846646780754
 31
0.0
  0
ARC
  5
A3
330
15
100
AcDbEntity
  8
4
100
AcDbCircle
 10
977.128042080089
 20
121.1964366780753
 30
0.0
 40
20.000099
100
AcDbArc
 50
59.04823900000044
 51
120.9517609999987
  0
LINE
  5
A4
330
15
100
AcDbEntity
  8
L-CENTER
 48
2.0
100
AcDbLine
 10
1002.55030816497
 20
121.1964366780753
 30
0.0
 11
951.7057759952081
 21
121.1964366780753
 31
0.0
  0
LINE
  5
A5
330
15
100
AcDbEntity
  8
2
100
AcDbLine
 10
970.9131690800891
 20
124.7846646780754
 30
0.0
 11
970.9131690800891
 21
117.6082086780757
 31
0.0
  0
LINE
  5
A6
330
15
100
AcDbEntity
  8
2
100
AcDbLine
 10
977.128042080089
 20
128.3727946780755
 30
0.0
 11
983.3429150800898
 21
124.7846646780754
 31
0.0
  0
LINE
  5
A7
330
15
100
AcDbEntity
  8
2
100
AcDbLine
 10
983.3429150800898
 20
124.7846646780754
 30
0.0
 11
983.3429150800898
 21
117.6082086780757
 31
0.0
  0
LINE
  5
A8
330
15
100
AcDbEntity
  8
4
100
AcDbLine
 10
1155.12803908009
 20
74.19643467807555
 30
0.0
 11
1155.12803908009
 21
121.1964366780753
 31
0.0
  0
LINE
  5
A9
330
15
100
AcDbEntity
  8
4
100
AcDbLine
 10
1185.128037080089
 20
74.19643467807555
 30
0.0
 11
1185.128037080089
 21
121.1964366780753
 31
0.0
  0
ARC
  5
AA
330
15
100
AcDbEntity
  8
4
100
AcDbCircle
 10
1149.128038080089
 20
83.19643967807542
 30
0.0
 40
6.000001
100
AcDbArc
 50
0.0
 51
90.0
  0
ARC
  5
AB
330
15
100
AcDbEntity
  8
4
100
AcDbCircle
 10
1158.128043080089
 20
121.1964366780753
 30
0.0
 40
2.999997
100
AcDbArc
 50
90.0
 51
180.0
  0
ARC
  5
AC
330
15
100
AcDbEntity
  8
4
100
AcDbCircle
 10
1188.12804108009
 20
121.1964366780753
 30
0.0
 40
2.999997
100
AcDbArc
 50
90.0
 51
180.0
  0
LINE
  5
AD
330
15
100
AcDbEntity
  8
L-CENTER
 48
2.0
100
AcDbLine
 10
1297.128037080089
 20
49.19643467807555
 30
0.0
 11
1297.128037080089
 21
149.1964406780753
 31
0.0
  0
ARC
  5
AE
330
15
100
AcDbEntity
  8
4
100
AcDbCircle
 10
1350.128040080089
 20
139.1964396780754
 30
0.0
 40
14.999999
100
AcDbArc
 50
270.0009319999996
 51
0.0
  0
ARC
  5
AF
330
15
100
AcDbEntity
  8
4
100
AcDbCircle
 10
1380.128038080089
 20
121.1964366780753
 30
0.0
 40
2.999997
100
AcDbArc
 50
0.0
 51
90.0
  0
LINE
  5
B0
330
15
100
AcDbEntity
  8
L-CENTER
 48
2.0
100
AcDbLine
 10
773.3966611173477
 20
527.3893805248449
 30
0.0
 11
732.4968738528137
 21
551.0028905158224
 31
0.0
  0
LINE
  5
B1
330
15
100
AcDbEntity
  8
L-CENTER
 48
2.0
100
AcDbLine
 10
773.397006202268
 20
431.0028931266747
 30
0.0
 11
732.4972180582918
 21
407.3893846589358
 31
0.0
  0
CIRCLE
  5
B2
330
15
100
AcDbEntity
  8
L-CENTER
 48
2.0
100
AcDbCircle
 10
856.8699880800891
 20
479.1964356780754
 30
0.0
 40
119.999999
  0
CIRCLE
  5
B3
330
15
100
AcDbEntity
  8
4
100
AcDbCircle
 10
856.8699880800891
 20
479.1964356780754
 30
0.0
 40
140.0
  0
LINE
  5
B4
330
15
100
AcDbEntity
  8
L-CENTER
 48
2.0
100
AcDbLine
 10
1020.857559485828
 20
479.1964356780754
 30
0.0
 11
692.8164153837452
 21
479.1964356780754
 31
0.0
  0
ARC
  5
B5
330
15
100
AcDbEntity
  8
4
100
AcDbCircle
 10
977.128042080089
 20
-538.8035613219245
 30
0.0
 40
1200.000025
100
AcDbArc
 50
74.41223299999999
 51
105.588059
  0
ARC
  5
B6
330
15
100
AcDbEntity
  8
4
100
AcDbCircle
 10
977.128042080089
 20
-913.8035643219246
 30
0.0
 40
1797.000002
100
AcDbArc
 50
78.96179199999999
 51
101.038208
  0
LINE
  5
B7
330
15
100
AcDbEntity
  8
L-CENTER
 48
2.0
100
AcDbLine
 10
1397.396072662212
 20
486.1964356780754
 30
0.0
 11
556.8600114979663
 21
486.1964356780754
 31
0.0
  0
LINE
  5
B8
330
15
100
AcDbEntity
  8
4
100
AcDbLine
 10
764.5933770800898
 20
159.1964406780753
 30
0.0
 11
589.1280450800891
 21
159.1964406780753
 31
0.0
  0
ARC
  5
B9
330
15
100
AcDbEntity
  8
4
100
AcDbCircle
 10
977.128042080089
 20
1497.196432678075
 30
0.0
 40
1200.000095
100
AcDbArc
 50
254.755403
 51
269.091313
  0
LINE
  5
BA
330
15
100
AcDbEntity
  8
L-CENTER
 48
2.0
100
AcDbLine
 10
1550.959580080089
 20
249.1964346780755
 30
0.0
 11
539.0880048594317
 21
249.1964346780755
 31
0.0
  0
ARC
  5
BB
330
15
100
AcDbEntity
  8
4
100
AcDbCircle
 10
1771.12803908009
 20
486.1964356780754
 30
0.0
 40
1199.999934
100
AcDbArc
 50
162.696777
 51
180.0003499992971
  0
LINE
  5
BC
330
15
100
AcDbEntity
  8
4
100
AcDbLine
 10
566.1280400800892
 20
159.1964406780753
 30
0.0
 11
566.1280400800892
 21
339.1964356780754
 31
0.0
  0
LINE
  5
BD
330
15
100
AcDbEntity
  8
2
100
AcDbLine
 10
565.8280400800893
 20
159.1964406780753
 30
0.0
 11
565.8280400800893
 21
339.1964356780754
 31
0.0
  0
LINE
  5
BE
330
15
100
AcDbEntity
  8
4
100
AcDbLine
 10
547.8280430800893
 20
159.1964406780753
 30
0.0
 11
547.8280430800893
 21
339.1964356780754
 31
0.0
  0
LINE
  5
BF
330
15
100
AcDbEntity
  8
4
100
AcDbLine
 10
547.8280430800893
 20
159.1964406780753
 30
0.0
 11
566.1280400800892
 21
159.1964406780753
 31
0.0
  0
ARC
  5
C0
330
15
100
AcDbEntity
  8
4
100
AcDbCircle
 10
596.1280450800891
 20
249.1964346780755
 30
0.0
 40
7.0
100
AcDbArc
 50
90.0
 51
180.0
  0
LINE
  5
C1
330
15
100
AcDbEntity
  8
4
100
AcDbLine
 10
547.8280430800893
 20
339.1964356780754
 30
0.0
 11
566.1280400800892
 21
339.1964356780754
 31
0.0
  0
LINE
  5
C2
330
15
100
AcDbEntity
  8
4
100
AcDbLine
 10
602.3641280800894
 20
344.1964376780757
 30
0.0
 11
571.1280420800895
 21
344.1964376780757
 31
0.0
  0
LINE
  5
C3
330
15
100
AcDbEntity
  8
4
100
AcDbLine
 10
604.1898120800893
 20
339.1964356780754
 30
0.0
 11
566.1280400800892
 21
339.1964356780754
 31
0.0
  0
ARC
  5
C4
330
15
100
AcDbEntity
  8
4
100
AcDbCircle
 10
602.3641280800894
 20
352.1964366780753
 30
0.0
 40
7.999991999999999
100
AcDbArc
 50
270.0
 51
19.67417600000242
  0
ARC
  5
C5
330
15
100
AcDbEntity
  8
4
100
AcDbCircle
 10
604.1898120800893
 20
347.1964346780755
 30
0.0
 40
8.000041
100
AcDbArc
 50
270.0
 51
20.44083299999911
  0
ARC
  5
C6
330
15
100
AcDbEntity
  8
4
100
AcDbCircle
 10
634.9826580800895
 20
840.1364346780751
 30
0.0
 40
9.999996999999999
100
AcDbArc
 50
101.0382080000015
 51
162.6967769999991
  0
LINE
  5
C7
330
15
100
AcDbEntity
  8
L-CENTER
 48
2.0
100
AcDbLine
 10
727.1280400800892
 20
851.2812606780753
 30
0.0
 11
727.1280400800892
 21
889.7041276780756
 31
0.0
  0
LINE
  5
C8
330
15
100
AcDbEntity
  8
4
100
AcDbLine
 10
704.1280420800895
 20
882.5547126780752
 30
0.0
 11
750.1280450800891
 21
882.5547126780752
 31
0.0
  0
LINE
  5
C9
330
15
100
AcDbEntity
  8
4
100
AcDbLine
 10
704.1280420800895
 20
877.5547106780755
 30
0.0
 11
750.1280450800891
 21
877.5547106780755
 31
0.0
  0
LINE
  5
CA
330
15
100
AcDbEntity
  8
4
100
AcDbLine
 10
704.1280420800895
 20
873.5547076780754
 30
0.0
 11
750.1280450800891
 21
873.5547076780754
 31
0.0
  0
LINE
  5
CB
330
15
100
AcDbEntity
  8
4
100
AcDbLine
 10
705.1280410800896
 20
872.0547126780752
 30
0.0
 11
749.1280390800898
 21
872.0547126780752
 31
0.0
  0
LINE
  5
CC
330
15
100
AcDbEntity
  8
4
100
AcDbLine
 10
752.1280430800894
 20
872.0549506780753
 30
0.0
 11
702.1280440800892
 21
872.0549506780753
 31
0.0
  0
LINE
  5
CD
330
15
100
AcDbEntity
  8
4
100
AcDbLine
 10
715.6280410800896
 20
877.5547106780755
 30
0.0
 11
715.6280410800896
 21
882.5547126780752
 31
0.0
  0
LINE
  5
CE
330
15
100
AcDbEntity
  8
4
100
AcDbLine
 10
704.1280420800895
 20
873.5547076780754
 30
0.0
 11
704.1280420800895
 21
882.5547126780752
 31
0.0
  0
LINE
  5
CF
330
15
100
AcDbEntity
  8
4
100
AcDbLine
 10
705.1280410800896
 20
873.5547076780754
 30
0.0
 11
705.1280410800896
 21
872.0547126780752
 31
0.0
  0
LINE
  5
D0
330
15
100
AcDbEntity
  8
4
100
AcDbLine
 10
702.1280440800892
 20
862.0297606780755
 30
0.0
 11
702.1280440800892
 21
872.0549506780753
 31
0.0
  0
LINE
  5
D1
330
15
100
AcDbEntity
  8
4
100
AcDbLine
 10
738.6280390800898
 20
877.5547106780755
 30
0.0
 11
738.6280390800898
 21
882.5547126780752
 31
0.0
  0
LINE
  5
D2
330
15
100
AcDbEntity
  8
4
100
AcDbLine
 10
750.1280450800891
 20
873.5547076780754
 30
0.0
 11
750.1280450800891
 21
882.5547126780752
 31
0.0
  0
LINE
  5
D3
330
15
100
AcDbEntity
  8
4
100
AcDbLine
 10
749.1280390800898
 20
873.5547076780754
 30
0.0
 11
749.1280390800898
 21
872.0547126780752
 31
0.0
  0
LINE
  5
D4
330
15
100
AcDbEntity
  8
4
100
AcDbLine
 10
752.1280430800894
 20
869.0549536780754
 30
0.0
 11
752.1280430800894
 21
872.0549506780753
 31
0.0
  0
ARC
  5
D5
330
15
100
AcDbEntity
  8
4
100
AcDbCircle
 10
183.1280450800891
 20
486.1964356780754
 30
0.0
 40
1199.999927
100
AcDbArc
 50
0.0
 51
17.30322399999999
  0
LINE
  5
D6
330
15
100
AcDbEntity
  8
L-CENTER
 48
2.0
100
AcDbLine
 10
995.433952080089
 20
499.1964366780753
 30
0.0
 11
1256.822128080089
 21
499.1964366780753
 31
0.0
  0
LINE
  5
D7
330
15
100
AcDbEntity
  8
4
100
AcDbLine
 10
1189.662707080089
 20
159.1964406780753
 30
0.0
 11
1365.12803908009
 21
159.1964406780753
 31
0.0
  0
ARC
  5
D8
330
15
100
AcDbEntity
  8
4
100
AcDbCircle
 10
977.128042080089
 20
1497.196432678075
 30
0.0
 40
1200.000095
100
AcDbArc
 50
270.908687
 51
285.2448720000001
  0
LINE
  5
D9
330
15
100
AcDbEntity
  8
L-CENTER
 48
2.0
100
AcDbLine
 10
1126.128040080089
 20
368.5023486780751
 30
0.0
 11
1126.128040080089
 21
629.8905246780755
 31
0.0
  0
CIRCLE
  5
DB
330
15
100
AcDbEntity
  8
4
100
AcDbCircle
 10
1126.128040080089
 20
499.1964366780753
 30
0.0
 40
60.000003
  0
LINE
  5
DC
330
15
100
AcDbEntity
  8
L-CENTER
 48
2.0
100
AcDbLine
 10
856.8699880800891
 20
315.2088642723365
 30
0.0
 11
856.8699880800891
 21
643.1840070838143
 31
0.0
  0
CIRCLE
  5
DD
330
15
100
AcDbEntity
  8
4
100
AcDbCircle
 10
1126.128040080089
 20
499.1964366780753
 30
0.0
 40
110.000002
  0
CIRCLE
  5
DE
330
15
100
AcDbEntity
  8
L-CENTER
 48
2.0
100
AcDbCircle
 10
1126.128040080089
 20
499.1964366780753
 30
0.0
 40
90.000001
  0
LINE
  5
DF
330
15
100
AcDbEntity
  8
L-CENTER
 48
2.0
100
AcDbLine
 10
1013.441032080088
 20
291.1964346780755
 30
0.0
 11
940.8150520800896
 21
291.1964346780755
 31
0.0
  0
LINE
  5
E0
330
15
100
AcDbEntity
  8
4
100
AcDbLine
 10
961.5394200800897
 20
282.1964366780753
 30
0.0
 11
977.128042080089
 21
273.1964386780755
 31
0.0
  0
LINE
  5
E1
330
15
100
AcDbEntity
  8
4
100
AcDbLine
 10
977.128042080089
 20
273.1964386780755
 30
0.0
 11
992.716419080089
 21
282.1964366780753
 31
0.0
  0
CIRCLE
  5
E2
330
15
100
AcDbEntity
  8
4
100
AcDbCircle
 10
977.128042080089
 20
291.1964346780755
 30
0.0
 40
20.000001
  0
LINE
  5
E3
330
15
100
AcDbEntity
  8
4
100
AcDbLine
 10
977.128042080089
 20
309.1964376780757
 30
0.0
 11
961.5394200800897
 21
300.1964396780754
 31
0.0
  0
LINE
  5
E4
330
15
100
AcDbEntity
  8
4
100
AcDbLine
 10
961.5394200800897
 20
282.1964366780753
 30
0.0
 11
961.5394200800897
 21
300.1964396780754
 31
0.0
  0
LINE
  5
E5
330
15
100
AcDbEntity
  8
4
100
AcDbLine
 10
992.716419080089
 20
282.1964366780753
 30
0.0
 11
992.716419080089
 21
300.1964396780754
 31
0.0
  0
LINE
  5
E6
330
15
100
AcDbEntity
  8
4
100
AcDbLine
 10
992.716419080089
 20
300.1964396780754
 30
0.0
 11
977.128042080089
 21
309.1964376780757
 31
0.0
  0
LINE
  5
E7
330
15
100
AcDbEntity
  8
L-CENTER
 48
2.0
100
AcDbLine
 10
940.3433138194655
 20
431.003488712367
 30
0.0
 11
981.2431024496927
 21
407.3899810868397
 31
0.0
  0
LINE
  5
E8
330
15
100
AcDbEntity
  8
L-CENTER
 48
2.0
100
AcDbLine
 10
1027.73594551212
 20
442.3895317572997
 30
0.0
 11
1068.635733358896
 21
466.003040739804
 31
0.0
  0
LINE
  5
E9
330
15
100
AcDbEntity
  8
L-CENTER
 48
2.0
100
AcDbLine
 10
1224.520308881259
 20
442.389833538055
 30
0.0
 11
1183.620519121311
 21
466.003339206849
 31
0.0
  0
LINE
  5
EA
330
15
100
AcDbEntity
  8
L-CENTER
 48
2.0
100
AcDbLine
 10
940.3429650800895
 20
527.3899866780753
 30
0.0
 11
981.2427567726638
 21
551.0034889994622
 31
0.0
  0
LINE
  5
EB
330
15
100
AcDbEntity
  8
L-CENTER
 48
2.0
100
AcDbLine
 10
1027.735771141503
 20
556.0030395800886
 30
0.0
 11
1068.635562697479
 21
532.3895370221067
 31
0.0
  0
LINE
  5
EC
330
15
100
AcDbEntity
  8
L-CENTER
 48
2.0
100
AcDbLine
 10
1224.520134702388
 20
556.0033415047483
 30
0.0
 11
1183.620346145511
 21
532.3898337521755
 31
0.0
  0
LINE
  5
ED
330
15
100
AcDbEntity
  8
4
100
AcDbLine
 10
1431.128036080089
 20
283.1964356780754
 30
0.0
 11
1541.128038080089
 21
283.1964356780754
 31
0.0
  0
LINE
  5
EE
330
15
100
AcDbEntity
  8
4
100
AcDbLine
 10
1421.12803908009
 20
278.1964336780752
 30
0.0
 11
1539.128040080089
 21
278.1964336780752
 31
0.0
  0
LINE
  5
EF
330
15
100
AcDbEntity
  8
4
100
AcDbLine
 10
1421.12803908009
 20
220.1964356780754
 30
0.0
 11
1539.128040080089
 21
220.1964356780754
 31
0.0
  0
LINE
  5
F0
330
15
100
AcDbEntity
  8
4
100
AcDbLine
 10
1406.428041080089
 20
159.1964406780753
 30
0.0
 11
1406.428041080089
 21
339.1964356780754
 31
0.0
  0
LINE
  5
F1
330
15
100
AcDbEntity
  8
4
100
AcDbLine
 10
1388.128037080089
 20
159.1964406780753
 30
0.0
 11
1388.128037080089
 21
339.1964356780754
 31
0.0
  0
LINE
  5
F2
330
15
100
AcDbEntity
  8
2
100
AcDbLine
 10
1388.428037080089
 20
159.1964406780753
 30
0.0
 11
1388.428037080089
 21
339.1964356780754
 31
0.0
  0
ARC
  5
F3
330
15
100
AcDbEntity
  8
4
100
AcDbCircle
 10
1358.12803908009
 20
249.1964346780755
 30
0.0
 40
7.0
100
AcDbArc
 50
0.0
 51
90.0
  0
LINE
  5
F4
330
15
100
AcDbEntity
  8
4
100
AcDbLine
 10
1421.12803908009
 20
216.6964356780754
 30
0.0
 11
1421.12803908009
 21
281.6964336780752
 31
0.0
  0
LINE
  5
F5
330
15
100
AcDbEntity
  8
4
100
AcDbLine
 10
1407.42804008009
 20
294.1964386780755
 30
0.0
 11
1407.42804008009
 21
204.1964376780757
 31
0.0
  0
LINE
  5
F6
330
15
100
AcDbEntity
  8
4
100
AcDbLine
 10
1406.428041080089
 20
159.1964406780753
 30
0.0
 11
1388.128037080089
 21
159.1964406780753
 31
0.0
  0
LINE
  5
F7
330
15
100
AcDbEntity
  8
4
100
AcDbLine
 10
1407.42804008009
 20
216.6964356780754
 30
0.0
 11
1421.12803908009
 21
216.6964356780754
 31
0.0
  0
LINE
  5
F8
330
15
100
AcDbEntity
  8
4
100
AcDbLine
 10
1431.128036080089
 20
283.1964356780754
 30
0.0
 11
1431.128036080089
 21
278.1964336780752
 31
0.0
  0
LINE
  5
F9
330
15
100
AcDbEntity
  8
4
100
AcDbLine
 10
1407.42804008009
 20
294.1964386780755
 30
0.0
 11
1406.428041080089
 21
294.1964386780755
 31
0.0
  0
LINE
  5
FA
330
15
100
AcDbEntity
  8
4
100
AcDbLine
 10
1407.42804008009
 20
281.6964336780752
 30
0.0
 11
1421.12803908009
 21
281.6964336780752
 31
0.0
  0
LINE
  5
FB
330
15
100
AcDbEntity
  8
4
100
AcDbLine
 10
1351.891956080089
 20
344.1964376780757
 30
0.0
 11
1383.128035080089
 21
344.1964376780757
 31
0.0
  0
LINE
  5
FC
330
15
100
AcDbEntity
  8
4
100
AcDbLine
 10
1350.066272080089
 20
339.1964356780754
 30
0.0
 11
1388.128037080089
 21
339.1964356780754
 31
0.0
  0
ARC
  5
FD
330
15
100
AcDbEntity
  8
4
100
AcDbCircle
 10
1351.891956080089
 20
352.1964366780753
 30
0.0
 40
7.999991999999999
100
AcDbArc
 50
160.3258239999976
 51
270.0
  0
ARC
  5
FE
330
15
100
AcDbEntity
  8
4
100
AcDbCircle
 10
1350.066272080089
 20
347.1964346780755
 30
0.0
 40
8.000041
100
AcDbArc
 50
159.5591670000012
 51
270.0
  0
LINE
  5
FF
330
15
100
AcDbEntity
  8
4
100
AcDbLine
 10
1406.428041080089
 20
339.1964356780754
 30
0.0
 11
1388.128034080089
 21
339.1964356780754
 31
0.0
  0
LINE
  5
100
330
15
100
AcDbEntity
  8
4
100
AcDbLine
 10
1541.128038080089
 20
222.1964406780753
 30
0.0
 11
1541.128038080089
 21
283.1964356780754
 31
0.0
  0
LINE
  5
101
330
15
100
AcDbEntity
  8
4
100
AcDbLine
 10
1539.128040080089
 20
278.1964336780752
 30
0.0
 11
1539.128040080089
 21
220.1964356780754
 31
0.0
  0
LINE
  5
102
330
15
100
AcDbEntity
  8
4
100
AcDbLine
 10
1541.128038080089
 20
222.1964406780753
 30
0.0
 11
1539.128040080089
 21
220.1964356780754
 31
0.0
  0
LINE
  5
103
330
15
100
AcDbEntity
  8
4
100
AcDbLine
 10
1539.128040080089
 20
278.1964336780752
 30
0.0
 11
1541.128038080089
 21
276.1964356780754
 31
0.0
  0
LINE
  5
106
330
15
100
AcDbEntity
  8
4
100
AcDbLine
 10
977.128042080089
 20
886.1964346780755
 30
0.0
 11
1007.128040080089
 21
886.1964346780755
 31
0.0
  0
ARC
  5
107
330
15
100
AcDbEntity
  8
4
100
AcDbCircle
 10
977.128042080089
 20
966.1964316780754
 30
0.0
 40
9.999996999999999
100
AcDbArc
 50
0.0
 51
180.0
  0
LINE
  5
108
330
15
100
AcDbEntity
  8
4
100
AcDbLine
 10
998.0533310800897
 20
904.1964306780756
 30
0.0
 11
999.6280440800897
 21
886.1964346780755
 31
0.0
  0
ARC
  5
109
330
15
100
AcDbEntity
  8
4
100
AcDbCircle
 10
963.128042080089
 20
894.1964336780752
 30
0.0
 40
4.000003
100
AcDbArc
 50
270.0
 51
0.0
  0
ARC
  5
10A
330
15
100
AcDbEntity
  8
4
100
AcDbCircle
 10
991.128042080089
 20
894.1964336780752
 30
0.0
 40
4.000003
100
AcDbArc
 50
180.0
 51
270.0
  0
LINE
  5
10B
330
15
100
AcDbEntity
  8
4
100
AcDbLine
 10
956.2027460800896
 20
904.1964306780756
 30
0.0
 11
954.6280400800892
 21
886.1964346780755
 31
0.0
  0
LINE
  5
10C
330
15
100
AcDbEntity
  8
4
100
AcDbLine
 10
977.128042080089
 20
886.1964346780755
 30
0.0
 11
947.1280440800897
 21
886.1964346780755
 31
0.0
  0
LINE
  5
10D
330
15
100
AcDbEntity
  8
4
100
AcDbLine
 10
947.1280440800897
 20
882.9459986780753
 30
0.0
 11
947.1280440800897
 21
886.1964346780755
 31
0.0
  0
LINE
  5
10E
330
15
100
AcDbEntity
  8
4
100
AcDbLine
 10
967.1280380800895
 20
894.1964336780752
 30
0.0
 11
967.1280380800895
 21
966.1964316780754
 31
0.0
  0
LINE
  5
10F
330
15
100
AcDbEntity
  8
4
100
AcDbLine
 10
987.1280390800898
 20
894.1964336780752
 30
0.0
 11
987.1280390800898
 21
966.1964316780754
 31
0.0
  0
LINE
  5
110
330
15
100
AcDbEntity
  8
L-CENTER
 48
2.0
100
AcDbLine
 10
950.3093271763823
 20
931.1964316780754
 30
0.0
 11
1003.946756983796
 21
931.1964316780754
 31
0.0
  0
LINE
  5
111
330
15
100
AcDbEntity
  8
4
100
AcDbLine
 10
956.2027460800896
 20
904.1964306780756
 30
0.0
 11
967.1280380800895
 21
904.1964306780756
 31
0.0
  0
LINE
  5
112
330
15
100
AcDbEntity
  8
4
100
AcDbLine
 10
967.1280380800895
 20
905.2406206780756
 30
0.0
 11
956.2027460800896
 21
904.1964306780756
 31
0.0
  0
LINE
  5
113
330
15
100
AcDbEntity
  8
4
100
AcDbLine
 10
987.1280390800898
 20
904.1964306780756
 30
0.0
 11
998.0533310800897
 21
904.1964306780756
 31
0.0
  0
LINE
  5
114
330
15
100
AcDbEntity
  8
4
100
AcDbLine
 10
987.1280390800898
 20
905.2406206780756
 30
0.0
 11
998.0533310800897
 21
904.1964306780756
 31
0.0
  0
LINE
  5
115
330
15
100
AcDbEntity
  8
4
100
AcDbLine
 10
1007.128040080089
 20
882.9459986780753
 30
0.0
 11
1007.128040080089
 21
886.1964346780755
 31
0.0
  0
ARC
  5
116
330
15
100
AcDbEntity
  8
4
100
AcDbCircle
 10
1319.27341908009
 20
840.1364416780752
 30
0.0
 40
9.999996999999999
100
AcDbArc
 50
17.30322399999971
 51
78.96179200000134
  0
LINE
  5
117
330
15
100
AcDbEntity
  8
4
100
AcDbLine
 10
2581.705452241381
 20
132.1964396780754
 30
0.0
 11
2581.705452241381
 21
876.1964306780756
 31
0.0
  0
ARC
  5
118
330
15
100
AcDbEntity
  8
4
100
AcDbCircle
 10
9887.701863241382
 20
486.1964356780754
 30
0.0
 40
7599.999952999999
100
AcDbArc
 50
177.3761340000001
 51
182.624778
  0
LINE
  5
119
330
15
100
AcDbEntity
  8
4
100
AcDbLine
 10
2577.705449241381
 20
881.1964326780753
 30
0.0
 11
2577.705449241381
 21
144.1964346780755
 31
0.0
  0
LINE
  5
11A
330
15
100
AcDbEntity
  8
4
100
AcDbLine
 10
2609.705452241381
 20
874.1964326780753
 30
0.0
 11
2609.705452241381
 21
124.1964406780753
 31
0.0
  0
LINE
  5
11B
330
15
100
AcDbEntity
  8
L-CENTER
 48
2.0
100
AcDbLine
 10
2392.70545224138
 20
356.4662056780758
 30
0.0
 11
2392.70545224138
 21
141.9266636780753
 31
0.0
  0
LINE
  5
11C
330
15
100
AcDbEntity
  8
4
100
AcDbLine
 10
2295.675295241381
 20
138.1562816780756
 30
0.0
 11
2295.675295241381
 21
834.1964306780756
 31
0.0
  0
LINE
  5
11D
330
15
100
AcDbEntity
  8
L-CENTER
 48
2.0
100
AcDbLine
 10
2450.705450241382
 20
988.170306678076
 30
0.0
 11
2450.705450241382
 21
53.62266949601235
 31
0.0
  0
LINE
  5
11E
330
15
100
AcDbEntity
  8
4
100
AcDbLine
 10
2299.705454241381
 20
124.1964406780753
 30
0.0
 11
2299.705454241381
 21
209.2464896780752
 31
0.0
  0
LINE
  5
11F
330
15
100
AcDbEntity
  8
4
100
AcDbLine
 10
2298.670294241382
 20
138.1964406780753
 30
0.0
 11
2298.670294241382
 21
221.4305706780756
 31
0.0
  0
ARC
  5
120
330
15
100
AcDbEntity
  8
4
100
AcDbCircle
 10
2318.705449241381
 20
156.0140656780754
 30
0.0
 40
4.999974
100
AcDbArc
 50
0.0
 51
79.47195000000592
  0
TEXT
  5
122
330
15
100
AcDbEntity
  8
3
100
AcDbText
 10
1681.062361438549
 20
48.92583696493409
 30
0.0
 40
24.0
  1
LD9-05
  7
KANJI
100
AcDbText
  0
LINE
  5
123
330
15
100
AcDbEntity
  8
4
100
AcDbLine
 10
2687.705451241381
 20
124.1964406780753
 30
0.0
 11
2213.705449241381
 21
124.1964406780753
 31
0.0
  0
LINE
  5
124
330
15
100
AcDbEntity
  8
4
100
AcDbLine
 10
2690.705448241381
 20
74.19643467807555
 30
0.0
 11
2210.705452241381
 21
74.19643467807555
 31
0.0
  0
LINE
  5
125
330
15
100
AcDbEntity
  8
4
100
AcDbLine
 10
2210.705452241381
 20
74.19643467807555
 30
0.0
 11
2210.705452241381
 21
121.1964366780753
 31
0.0
  0
ARC
  5
126
330
15
100
AcDbEntity
  8
4
100
AcDbCircle
 10
2213.705449241381
 20
121.1964366780753
 30
0.0
 40
2.999997
100
AcDbArc
 50
90.0
 51
180.0
  0
LINE
  5
127
330
15
100
AcDbEntity
  8
L-CENTER
 48
2.0
100
AcDbLine
 10
2260.705451241381
 20
49.19643467807555
 30
0.0
 11
2260.705451241381
 21
149.1964406780753
 31
0.0
  0
ARC
  5
128
330
15
100
AcDbEntity
  8
4
100
AcDbCircle
 10
2303.705450241382
 20
144.1964346780755
 30
0.0
 40
20.000001
100
AcDbArc
 50
270.0006989999989
 51
0.0
  0
LINE
  5
129
330
15
100
AcDbEntity
  8
4
100
AcDbLine
 10
2299.705454241381
 20
138.1964406780753
 30
0.0
 11
2295.673454241381
 21
138.1964406780753
 31
0.0
  0
LINE
  5
12A
330
15
100
AcDbEntity
  8
4
100
AcDbLine
 10
2323.705451241382
 20
156.0140656780754
 30
0.0
 11
2323.705451241382
 21
144.1964346780755
 31
0.0
  0
ARC
  5
12B
330
15
100
AcDbEntity
  8
4
100
AcDbCircle
 10
2597.705450241382
 20
144.1964346780755
 30
0.0
 40
20.000001
100
AcDbArc
 50
180.0
 51
270.0006989999989
  0
LINE
  5
12C
330
15
100
AcDbEntity
  8
4
100
AcDbLine
 10
2690.705448241381
 20
74.19643467807555
 30
0.0
 11
2690.705448241381
 21
121.1964366780753
 31
0.0
  0
LINE
  5
12D
330
15
100
AcDbEntity
  8
L-CENTER
 48
2.0
100
AcDbLine
 10
2640.705449241381
 20
49.19643467807555
 30
0.0
 11
2640.705449241381
 21
149.1964406780753
 31
0.0
  0
LINE
  5
12E
330
15
100
AcDbEntity
  8
4
100
AcDbLine
 10
2627.705448241381
 20
124.1964406780753
 30
0.0
 11
2627.705448241381
 21
74.19643467807555
 31
0.0
  0
LINE
  5
12F
330
15
100
AcDbEntity
  8
4
100
AcDbLine
 10
2653.705450241382
 20
124.1964406780753
 30
0.0
 11
2653.705450241382
 21
74.19643467807555
 31
0.0
  0
ARC
  5
130
330
15
100
AcDbEntity
  8
4
100
AcDbCircle
 10
2598.976202241382
 20
80.35903867807565
 30
0.0
 40
7.616209999999999
100
AcDbArc
 50
305.987537999995
 51
30.25471399999766
  0
ARC
  5
131
330
15
100
AcDbEntity
  8
4
100
AcDbCircle
 10
2598.976202241382
 20
80.35903867807565
 30
0.0
 40
7.616209999999999
100
AcDbArc
 50
305.987537999995
 51
30.25471399999766
  0
ARC
  5
132
330
15
100
AcDbEntity
  8
4
100
AcDbCircle
 10
2607.390265241381
 20
120.3590336780753
 30
0.0
 40
7.616209999999999
100
AcDbArc
 50
305.9875319999977
 51
30.25471799999914
  0
ARC
  5
133
330
15
100
AcDbEntity
  8
4
100
AcDbCircle
 10
2607.390265241381
 20
120.3590336780753
 30
0.0
 40
7.616209999999999
100
AcDbArc
 50
305.9875319999977
 51
30.25471799999914
  0
ARC
  5
134
330
15
100
AcDbEntity
  8
4
100
AcDbCircle
 10
2603.183230241381
 20
100.3590326780754
 30
0.0
 40
7.616209999999999
100
AcDbArc
 50
305.987538000003
 51
30.25471399999988
  0
ARC
  5
135
330
15
100
AcDbEntity
  8
4
100
AcDbCircle
 10
2603.183230241381
 20
100.3590326780754
 30
0.0
 40
7.616209999999999
100
AcDbArc
 50
305.987538000003
 51
30.25471399999988
  0
ARC
  5
136
330
15
100
AcDbEntity
  8
4
100
AcDbCircle
 10
2612.133913241382
 20
88.03383867807543
 30
0.0
 40
7.616209999999999
100
AcDbArc
 50
125.9875430000022
 51
210.2547239999974
  0
ARC
  5
137
330
15
100
AcDbEntity
  8
4
100
AcDbCircle
 10
2612.133913241382
 20
88.03383867807543
 30
0.0
 40
7.616209999999999
100
AcDbArc
 50
125.9875430000022
 51
210.2547239999974
  0
ARC
  5
138
330
15
100
AcDbEntity
  8
4
100
AcDbCircle
 10
2616.340948241381
 20
108.0338396780753
 30
0.0
 40
7.616209999999999
100
AcDbArc
 50
125.9875430000022
 51
210.2547239999974
  0
ARC
  5
139
330
15
100
AcDbEntity
  8
4
100
AcDbCircle
 10
2616.340948241381
 20
108.0338396780753
 30
0.0
 40
7.616209999999999
100
AcDbArc
 50
125.9875430000022
 51
210.2547239999974
  0
ARC
  5
13A
330
15
100
AcDbEntity
  8
4
100
AcDbCircle
 10
2687.705451241381
 20
121.1964366780753
 30
0.0
 40
2.999997
100
AcDbArc
 50
0.0
 51
90.0
  0
LINE
  5
13B
330
15
100
AcDbEntity
  8
L-CENTER
 48
2.0
100
AcDbLine
 10
2842.884405241381
 20
479.1964356780754
 30
0.0
 11
2058.526495241382
 21
479.1964356780754
 31
0.0
  0
LINE
  5
13C
330
15
100
AcDbEntity
  8
4
100
AcDbLine
 10
2299.705454241381
 20
289.1463866780755
 30
0.0
 11
2299.705454241381
 21
874.1964326780753
 31
0.0
  0
LINE
  5
13D
330
15
100
AcDbEntity
  8
4
100
AcDbLine
 10
2323.705451241382
 20
342.3788106780753
 30
0.0
 11
2323.705451241382
 21
881.1964326780753
 31
0.0
  0
ARC
  5
13E
330
15
100
AcDbEntity
  8
4
100
AcDbCircle
 10
2392.70545224138
 20
-60.80331832192451
 30
0.0
 40
400.000013
100
AcDbArc
 50
78.70689099999996
 51
101.2931849999999
  0
ARC
  5
13F
330
15
100
AcDbEntity
  8
4
100
AcDbCircle
 10
2392.70545224138
 20
559.1961946780752
 30
0.0
 40
399.999943
100
AcDbArc
 50
258.7073500000001
 51
281.2935410000001
  0
LINE
  5
140
330
15
100
AcDbEntity
  8
L-CENTER
 48
2.0
100
AcDbLine
 10
2285.43568124138
 20
249.1964346780755
 30
0.0
 11
2499.975223241381
 21
249.1964346780755
 31
0.0
  0
CIRCLE
  5
141
330
15
100
AcDbEntity
  8
L-CENTER
 48
2.0
100
AcDbCircle
 10
2392.70545224138
 20
249.1964346780755
 30
0.0
 40
87.5
  0
LINE
  5
142
330
15
100
AcDbEntity
  8
L-CENTER
 48
2.0
100
AcDbLine
 10
2314.961968342345
 20
171.4529577790395
 30
0.0
 11
2346.70524243277
 21
203.196231869465
 31
0.0
  0
LINE
  5
143
330
15
100
AcDbEntity
  8
L-CENTER
 48
2.0
100
AcDbLine
 10
2314.961971842345
 20
326.9399150771114
 30
0.0
 11
2346.70524593277
 21
295.1966409866859
 31
0.0
  0
LINE
  5
144
330
15
100
AcDbEntity
  8
4
100
AcDbLine
 10
2278.705454241381
 20
339.1964356780754
 30
0.0
 11
2278.705454241381
 21
619.1964356780754
 31
0.0
  0
LINE
  5
145
330
15
100
AcDbEntity
  8
2
100
AcDbLine
 10
2278.405454241381
 20
339.1964356780754
 30
0.0
 11
2278.405454241381
 21
619.1964356780754
 31
0.0
  0
LINE
  5
146
330
15
100
AcDbEntity
  8
4
100
AcDbLine
 10
2263.805448241381
 20
618.1964356780754
 30
0.0
 11
2263.805448241381
 21
340.1964356780754
 31
0.0
  0
ARC
  5
147
330
15
100
AcDbEntity
  8
4
100
AcDbCircle
 10
2702.705450241382
 20
249.1964346780755
 30
0.0
 40
399.999985
100
AcDbArc
 50
168.707247
 51
191.2931499999999
  0
ARC
  5
148
330
15
100
AcDbEntity
  8
4
100
AcDbCircle
 10
2697.705448241381
 20
249.1964346780755
 30
0.0
 40
400.000069
100
AcDbArc
 50
168.092994
 51
191.9075409999999
  0
ARC
  5
149
330
15
100
AcDbEntity
  8
4
100
AcDbCircle
 10
2311.20496324138
 20
167.6957076780755
 30
0.0
 40
4.999939
100
AcDbArc
 50
191.9085390000007
 51
258.091461000005
  0
ARC
  5
14A
330
15
100
AcDbEntity
  8
4
100
AcDbCircle
 10
2315.353401241381
 20
171.8441456780752
 30
0.0
 40
4.999910999999999
100
AcDbArc
 50
191.2945689999995
 51
258.7054310000055
  0
ARC
  5
14B
330
15
100
AcDbEntity
  8
4
100
AcDbCircle
 10
2392.705286358618
 20
554.1953818411912
 30
0.0
 40
399.9991223837034
100
AcDbArc
 50
258.0930282865401
 51
281.9074510154804
  0
LINE
  5
14C
330
15
100
AcDbEntity
  8
L-CENTER
 48
2.0
100
AcDbLine
 10
2306.060845241381
 20
286.1964396780754
 30
0.0
 11
2274.682946241381
 21
286.1964396780754
 31
0.0
  0
LINE
  5
14D
330
15
100
AcDbEntity
  8
4
100
AcDbLine
 10
2288.330937241381
 20
306.1964336780752
 30
0.0
 11
2288.330937241381
 21
266.1964386780755
 31
0.0
  0
LINE
  5
14E
330
15
100
AcDbEntity
  8
4
100
AcDbLine
 10
2279.830942241381
 20
268.1964366780753
 30
0.0
 11
2279.830942241381
 21
304.1964356780754
 31
0.0
  0
LINE
  5
14F
330
15
100
AcDbEntity
  8
4
100
AcDbLine
 10
2288.330937241381
 20
269.1964356780754
 30
0.0
 11
2288.330937241381
 21
303.1964366780753
 31
0.0
  0
LINE
  5
150
330
15
100
AcDbEntity
  8
4
100
AcDbLine
 10
2286.830942241381
 20
268.1964366780753
 30
0.0
 11
2286.830942241381
 21
304.1964356780754
 31
0.0
  0
LINE
  5
151
330
15
100
AcDbEntity
  8
4
100
AcDbLine
 10
2284.830937241381
 20
268.1964366780753
 30
0.0
 11
2284.830937241381
 21
304.1964356780754
 31
0.0
  0
LINE
  5
152
330
15
100
AcDbEntity
  8
4
100
AcDbLine
 10
2284.830937241381
 20
277.1964346780755
 30
0.0
 11
2279.830942241381
 21
277.1964346780755
 31
0.0
  0
LINE
  5
153
330
15
100
AcDbEntity
  8
4
100
AcDbLine
 10
2286.830942241381
 20
268.1964366780753
 30
0.0
 11
2279.830942241381
 21
268.1964366780753
 31
0.0
  0
LINE
  5
154
330
15
100
AcDbEntity
  8
4
100
AcDbLine
 10
2290.886784241381
 20
266.1964386780755
 30
0.0
 11
2288.330937241381
 21
266.1964386780755
 31
0.0
  0
LINE
  5
155
330
15
100
AcDbEntity
  8
4
100
AcDbLine
 10
2286.830942241381
 20
269.1964356780754
 30
0.0
 11
2288.330937241381
 21
269.1964356780754
 31
0.0
  0
LINE
  5
156
330
15
100
AcDbEntity
  8
4
100
AcDbLine
 10
2284.830937241381
 20
295.1964376780757
 30
0.0
 11
2279.830942241381
 21
295.1964376780757
 31
0.0
  0
LINE
  5
157
330
15
100
AcDbEntity
  8
4
100
AcDbLine
 10
2286.830942241381
 20
304.1964356780754
 30
0.0
 11
2279.830942241381
 21
304.1964356780754
 31
0.0
  0
LINE
  5
158
330
15
100
AcDbEntity
  8
4
100
AcDbLine
 10
2288.330937241381
 20
306.1964336780752
 30
0.0
 11
2289.833781241382
 21
306.1964336780752
 31
0.0
  0
LINE
  5
159
330
15
100
AcDbEntity
  8
4
100
AcDbLine
 10
2288.330937241381
 20
303.1964366780753
 30
0.0
 11
2286.830942241381
 21
303.1964366780753
 31
0.0
  0
LINE
  5
15A
330
15
100
AcDbEntity
  8
4
100
AcDbLine
 10
2264.805448241381
 20
339.1964356780754
 30
0.0
 11
2278.705454241381
 21
339.1964356780754
 31
0.0
  0
LINE
  5
15B
330
15
100
AcDbEntity
  8
4
100
AcDbLine
 10
2264.805448241381
 20
389.1964346780755
 30
0.0
 11
2278.705454241381
 21
389.1964346780755
 31
0.0
  0
ARC
  5
15C
330
15
100
AcDbEntity
  8
4
100
AcDbCircle
 10
2311.20496324138
 20
330.6971686780757
 30
0.0
 40
4.999939
100
AcDbArc
 50
101.908538999995
 51
168.0914610000055
  0
LINE
  5
15D
330
15
100
AcDbEntity
  8
4
100
AcDbLine
 10
2289.123680241381
 20
339.1964356780754
 30
0.0
 11
2278.705454241381
 21
339.1964356780754
 31
0.0
  0
ARC
  5
15E
330
15
100
AcDbEntity
  8
4
100
AcDbCircle
 10
2318.705449241381
 20
342.3788106780753
 30
0.0
 40
4.999974
100
AcDbArc
 50
280.5280519999891
 51
0.0
  0
ARC
  5
15F
330
15
100
AcDbEntity
  8
4
100
AcDbCircle
 10
2315.353401241381
 20
326.5487306780756
 30
0.0
 40
4.999910999999999
100
AcDbArc
 50
101.2945689999944
 51
168.7054310000005
  0
ARC
  5
160
330
15
100
AcDbEntity
  8
4
100
AcDbCircle
 10
2392.705184580469
 20
-55.80200805008963
 30
0.0
 40
399.9986566525608
100
AcDbArc
 50
78.09252001788643
 51
101.9074731511712
  0
LINE
  5
161
330
15
100
AcDbEntity
  8
4
100
AcDbLine
 10
2278.705454241381
 20
389.1964346780755
 30
0.0
 11
2288.320941241381
 21
389.1964346780755
 31
0.0
  0
LINE
  5
162
330
15
100
AcDbEntity
  8
4
100
AcDbLine
 10
2264.805448241381
 20
609.1964316780754
 30
0.0
 11
2278.705454241381
 21
609.1964316780754
 31
0.0
  0
LINE
  5
163
330
15
100
AcDbEntity
  8
4
100
AcDbLine
 10
2264.805448241381
 20
619.1964356780754
 30
0.0
 11
2278.705454241381
 21
619.1964356780754
 31
0.0
  0
LINE
  5
164
330
15
100
AcDbEntity
  8
4
100
AcDbLine
 10
2288.865744241381
 20
619.1964356780754
 30
0.0
 11
2278.705454241381
 21
619.1964356780754
 31
0.0
  0
LINE
  5
165
330
15
100
AcDbEntity
  8
4
100
AcDbLine
 10
2288.697296241381
 20
609.1964316780754
 30
0.0
 11
2278.705454241381
 21
609.1964316780754
 31
0.0
  0
LINE
  5
166
330
15
100
AcDbEntity
  8
4
100
AcDbLine
 10
2622.705446241381
 20
339.1964356780754
 30
0.0
 11
2622.705446241381
 21
619.1964356780754
 31
0.0
  0
LINE
  5
167
330
15
100
AcDbEntity
  8
2
100
AcDbLine
 10
2623.005446241381
 20
339.1964356780754
 30
0.0
 11
2623.005446241381
 21
619.1964356780754
 31
0.0
  0
ARC
  5
168
330
15
100
AcDbEntity
  8
4
100
AcDbCircle
 10
-4986.291333758619
 20
486.1964356780754
 30
0.0
 40
7599.999925
100
AcDbArc
 50
358.1402670000001
 51
1.859732999999974
  0
LINE
  5
169
330
15
100
AcDbEntity
  8
4
100
AcDbLine
 10
2637.605452241381
 20
340.1964356780754
 30
0.0
 11
2637.605452241381
 21
618.1964356780754
 31
0.0
  0
LINE
  5
16A
330
15
100
AcDbEntity
  8
4
100
AcDbLine
 10
2638.605452241381
 20
430.1663900142062
 30
0.0
 11
2638.605452241381
 21
443.2266311339481
 31
0.0
  0
LINE
  5
16B
330
15
100
AcDbEntity
  8
4
100
AcDbLine
 10
2638.605451241381
 20
465.1659413631542
 30
0.0
 11
2638.605451241381
 21
528.227082724165
 31
0.0
  0
LINE
  5
16C
330
15
100
AcDbEntity
  8
4
100
AcDbLine
 10
2652.705451241381
 20
424.1964346780755
 30
0.0
 11
2652.705451241381
 21
534.1964366780753
 31
0.0
  0
LINE
  5
16D
330
15
100
AcDbEntity
  8
4
100
AcDbLine
 10
2830.705448241381
 20
531.6964356780754
 30
0.0
 11
2830.705448241381
 21
426.6964356780754
 31
0.0
  0
LINE
  5
16E
330
15
100
AcDbEntity
  8
4
100
AcDbLine
 10
2832.705446241381
 20
428.6964336780752
 30
0.0
 11
2832.705446241381
 21
540.6964336780752
 31
0.0
  0
ARC
  5
16F
330
15
100
AcDbEntity
  8
4
100
AcDbCircle
 10
2082.705454241381
 20
249.1964346780755
 30
0.0
 40
399.999894
100
AcDbArc
 50
348.7075629999999
 51
11.29315000000009
  0
LINE
  5
170
330
15
100
AcDbEntity
  8
L-CENTER
 48
2.0
100
AcDbLine
 10
2438.705655472733
 20
295.1966440639439
 30
0.0
 11
2470.448933318152
 21
326.9399143993742
 31
0.0
  0
LINE
  5
171
330
15
100
AcDbEntity
  8
L-CENTER
 48
2.0
100
AcDbLine
 10
2438.705658549991
 20
203.1962283694656
 30
0.0
 11
2470.448932640416
 21
171.4529542790401
 31
0.0
  0
CIRCLE
  5
172
330
15
100
AcDbEntity
  8
4
100
AcDbCircle
 10
2392.70545224138
 20
249.1964346780755
 30
0.0
 40
44.999997
  0
ARC
  5
173
330
15
100
AcDbEntity
  8
4
100
AcDbCircle
 10
2392.70545224138
 20
249.1964346780755
 30
0.0
 40
29.000034
100
AcDbArc
 50
104.988214999998
 51
75.01178499999833
  0
LINE
  5
174
330
15
100
AcDbEntity
  8
4
100
AcDbLine
 10
2385.205449241381
 20
283.1964356780754
 30
0.0
 11
2385.205449241381
 21
273.1964386780755
 31
0.0
  0
LINE
  5
175
330
15
100
AcDbEntity
  8
4
100
AcDbLine
 10
2400.205448241381
 20
273.1964386780755
 30
0.0
 11
2400.205448241381
 21
283.1964356780754
 31
0.0
  0
LINE
  5
176
330
15
100
AcDbEntity
  8
4
100
AcDbLine
 10
2400.205448241381
 20
273.1964386780755
 30
0.0
 11
2385.205449241381
 21
273.1964386780755
 31
0.0
  0
LINE
  5
177
330
15
100
AcDbEntity
  8
4
100
AcDbLine
 10
2400.205448241381
 20
283.1964356780754
 30
0.0
 11
2385.205449241381
 21
283.1964356780754
 31
0.0
  0
ARC
  5
178
330
15
100
AcDbEntity
  8
4
100
AcDbCircle
 10
2470.057503241381
 20
171.8441456780752
 30
0.0
 40
4.999910999999999
100
AcDbArc
 50
281.2945689999945
 51
348.7054310000055
  0
ARC
  5
179
330
15
100
AcDbEntity
  8
4
100
AcDbCircle
 10
2470.057503241381
 20
326.5487306780756
 30
0.0
 40
4.999910999999999
100
AcDbArc
 50
11.29456899999443
 51
78.70543100000558
  0
LINE
  5
17A
330
15
100
AcDbEntity
  8
4
100
AcDbLine
 10
2652.705451241381
 20
426.6964356780754
 30
0.0
 11
2830.705448241381
 21
426.6964356780754
 31
0.0
  0
LINE
  5
17B
330
15
100
AcDbEntity
  8
4
100
AcDbLine
 10
2612.286821241382
 20
339.1964356780754
 30
0.0
 11
2622.705446241381
 21
339.1964356780754
 31
0.0
  0
LINE
  5
17C
330
15
100
AcDbEntity
  8
4
100
AcDbLine
 10
2636.605452241381
 20
339.1964356780754
 30
0.0
 11
2622.705446241381
 21
339.1964356780754
 31
0.0
  0
LINE
  5
17D
330
15
100
AcDbEntity
  8
4
100
AcDbLine
 10
2622.705446241381
 20
389.1964346780755
 30
0.0
 11
2613.089560241381
 21
389.1964346780755
 31
0.0
  0
LINE
  5
17E
330
15
100
AcDbEntity
  8
4
100
AcDbLine
 10
2636.605452241381
 20
389.1964346780755
 30
0.0
 11
2622.705446241381
 21
389.1964346780755
 31
0.0
  0
LINE
  5
17F
330
15
100
AcDbEntity
  8
4
100
AcDbLine
 10
2648.605452241381
 20
424.1964346780755
 30
0.0
 11
2652.705451241381
 21
424.1964346780755
 31
0.0
  0
LINE
  5
180
330
15
100
AcDbEntity
  8
4
100
AcDbLine
 10
2638.605451241381
 20
409.1964356780754
 30
0.0
 11
2637.605452241381
 21
409.1964356780754
 31
0.0
  0
LINE
  5
181
330
15
100
AcDbEntity
  8
4
100
AcDbLine
 10
2832.705446241381
 20
428.6964336780752
 30
0.0
 11
2830.705448241381
 21
426.6964356780754
 31
0.0
  0
LINE
  5
182
330
15
100
AcDbEntity
  8
4
100
AcDbLine
 10
2652.705451241381
 20
531.6964356780754
 30
0.0
 11
2830.705448241381
 21
531.6964356780754
 31
0.0
  0
LINE
  5
183
330
15
100
AcDbEntity
  8
4
100
AcDbLine
 10
2832.705446241381
 20
540.6964336780752
 30
0.0
 11
2662.705448241381
 21
540.6964336780752
 31
0.0
  0
LINE
  5
184
330
15
100
AcDbEntity
  8
4
100
AcDbLine
 10
2648.605452241381
 20
534.1964366780753
 30
0.0
 11
2652.705451241381
 21
534.1964366780753
 31
0.0
  0
LINE
  5
185
330
15
100
AcDbEntity
  8
4
100
AcDbLine
 10
2662.705448241381
 20
531.6964356780754
 30
0.0
 11
2662.705448241381
 21
540.6964336780752
 31
0.0
  0
LINE
  5
186
330
15
100
AcDbEntity
  8
4
100
AcDbLine
 10
2612.71320524138
 20
609.1964316780754
 30
0.0
 11
2622.705446241381
 21
609.1964316780754
 31
0.0
  0
LINE
  5
187
330
15
100
AcDbEntity
  8
4
100
AcDbLine
 10
2612.544757241382
 20
619.1964356780754
 30
0.0
 11
2622.705446241381
 21
619.1964356780754
 31
0.0
  0
LINE
  5
188
330
15
100
AcDbEntity
  8
4
100
AcDbLine
 10
2636.605452241381
 20
609.1964316780754
 30
0.0
 11
2622.705446241381
 21
609.1964316780754
 31
0.0
  0
LINE
  5
189
330
15
100
AcDbEntity
  8
4
100
AcDbLine
 10
2636.605452241381
 20
619.1964356780754
 30
0.0
 11
2622.705446241381
 21
619.1964356780754
 31
0.0
  0
LINE
  5
18A
330
15
100
AcDbEntity
  8
4
100
AcDbLine
 10
2830.705448241381
 20
531.6964356780754
 30
0.0
 11
2832.705446241381
 21
529.6964376780757
 31
0.0
  0
LINE
  5
18B
330
15
100
AcDbEntity
  8
4
100
AcDbLine
 10
2575.705451241381
 20
883.1964306780756
 30
0.0
 11
2325.705449241381
 21
883.1964306780756
 31
0.0
  0
LINE
  5
18C
330
15
100
AcDbEntity
  8
4
100
AcDbLine
 10
2295.673454241381
 20
834.1964306780756
 30
0.0
 11
2299.705454241381
 21
834.1964306780756
 31
0.0
  0
LINE
  5
18D
330
15
100
AcDbEntity
  8
4
100
AcDbLine
 10
2301.705452241381
 20
876.1964306780756
 30
0.0
 11
2323.705451241382
 21
876.1964306780756
 31
0.0
  0
ARC
  5
18E
330
15
100
AcDbEntity
  8
4
100
AcDbCircle
 10
2301.705452241381
 20
874.1964326780753
 30
0.0
 40
1.999998
100
AcDbArc
 50
90.0
 51
180.0
  0
ARC
  5
18F
330
15
100
AcDbEntity
  8
4
100
AcDbCircle
 10
2325.705449241381
 20
881.1964326780753
 30
0.0
 40
1.999998
100
AcDbArc
 50
90.0
 51
180.0
  0
LINE
  5
190
330
15
100
AcDbEntity
  8
4
100
AcDbLine
 10
2607.705447241381
 20
876.1964306780756
 30
0.0
 11
2581.705452241381
 21
876.1964306780756
 31
0.0
  0
ARC
  5
191
330
15
100
AcDbEntity
  8
4
100
AcDbCircle
 10
2450.705450241382
 20
931.1964316780754
 30
0.0
 40
45.000025
100
AcDbArc
 50
299.2650449999991
 51
240.7363439999996
  0
LINE
  5
192
330
15
100
AcDbEntity
  8
4
100
AcDbLine
 10
2508.705448241381
 20
886.1964346780755
 30
0.0
 11
2392.70545224138
 21
886.1964346780755
 31
0.0
  0
LINE
  5
193
330
15
100
AcDbEntity
  8
L-CENTER
 48
2.0
100
AcDbLine
 10
2393.731575241381
 20
931.1964316780754
 30
0.0
 11
2507.679325241382
 21
931.1964316780754
 31
0.0
  0
CIRCLE
  5
194
330
15
100
AcDbEntity
  8
4
100
AcDbCircle
 10
2450.705450241382
 20
931.1964316780754
 30
0.0
 40
25.000003
  0
LINE
  5
195
330
15
100
AcDbEntity
  8
4
100
AcDbLine
 10
2471.630984241382
 20
904.1964306780756
 30
0.0
 11
2429.780399241381
 21
904.1964306780756
 31
0.0
  0
LINE
  5
196
330
15
100
AcDbEntity
  8
4
100
AcDbLine
 10
2450.705450241382
 20
906.1964356780754
 30
0.0
 11
2471.630984241382
 21
904.1964306780756
 31
0.0
  0
LINE
  5
197
330
15
100
AcDbEntity
  8
4
100
AcDbLine
 10
2428.705451241381
 20
886.1964346780755
 30
0.0
 11
2472.705449241381
 21
886.1964346780755
 31
0.0
  0
LINE
  5
198
330
15
100
AcDbEntity
  8
4
100
AcDbLine
 10
2472.705449241381
 20
886.1964346780755
 30
0.0
 11
2428.705451241381
 21
886.1964346780755
 31
0.0
  0
LINE
  5
199
330
15
100
AcDbEntity
  8
4
100
AcDbLine
 10
2429.780399241381
 20
904.1964306780756
 30
0.0
 11
2428.205448241381
 21
886.1964346780755
 31
0.0
  0
LINE
  5
19A
330
15
100
AcDbEntity
  8
4
100
AcDbLine
 10
2392.70545224138
 20
883.1964306780756
 30
0.0
 11
2392.70545224138
 21
886.1964346780755
 31
0.0
  0
LINE
  5
19B
330
15
100
AcDbEntity
  8
4
100
AcDbLine
 10
2427.705452241381
 20
888.1964326780753
 30
0.0
 11
2427.705452241381
 21
892.1964356780754
 31
0.0
  0
LINE
  5
19C
330
15
100
AcDbEntity
  8
4
100
AcDbLine
 10
2427.705452241381
 20
888.1964326780753
 30
0.0
 11
2428.38049724138
 21
888.1964326780753
 31
0.0
  0
LINE
  5
19D
330
15
100
AcDbEntity
  8
4
100
AcDbLine
 10
2427.705452241381
 20
892.1964356780754
 30
0.0
 11
2428.255498241381
 21
892.1964356780754
 31
0.0
  0
LINE
  5
19E
330
15
100
AcDbEntity
  8
4
100
AcDbLine
 10
2429.780399241381
 20
904.1964306780756
 30
0.0
 11
2450.705450241382
 21
906.1964356780754
 31
0.0
  0
LINE
  5
19F
330
15
100
AcDbEntity
  8
4
100
AcDbLine
 10
2471.630984241382
 20
904.1964306780756
 30
0.0
 11
2473.205697241382
 21
886.1964346780755
 31
0.0
  0
LINE
  5
1A0
330
15
100
AcDbEntity
  8
4
100
AcDbLine
 10
2473.705448241381
 20
888.1964326780753
 30
0.0
 11
2473.705448241381
 21
892.1964356780754
 31
0.0
  0
LINE
  5
1A1
330
15
100
AcDbEntity
  8
4
100
AcDbLine
 10
2473.030648241381
 20
888.1964326780753
 30
0.0
 11
2473.705448241381
 21
888.1964326780753
 31
0.0
  0
LINE
  5
1A2
330
15
100
AcDbEntity
  8
4
100
AcDbLine
 10
2473.155402241381
 20
892.1964356780754
 30
0.0
 11
2473.705448241381
 21
892.1964356780754
 31
0.0
  0
LINE
  5
1A3
330
15
100
AcDbEntity
  8
4
100
AcDbLine
 10
2508.705448241381
 20
883.1964306780756
 30
0.0
 11
2508.705448241381
 21
886.1964346780755
 31
0.0
  0
LINE
  5
1A4
330
15
100
AcDbEntity
  8
4
100
AcDbLine
 10
2577.705449241381
 20
876.1964306780756
 30
0.0
 11
2581.705452241381
 21
876.1964306780756
 31
0.0
  0
ARC
  5
1A5
330
15
100
AcDbEntity
  8
4
100
AcDbCircle
 10
2575.705451241381
 20
881.1964326780753
 30
0.0
 40
1.999998
100
AcDbArc
 50
0.0
 51
90.0
  0
ARC
  5
1A6
330
15
100
AcDbEntity
  8
4
100
AcDbCircle
 10
2607.705447241381
 20
874.1964326780753
 30
0.0
 40
1.999998
100
AcDbArc
 50
0.0
 51
90.0
  0
LINE
  5
1A9
330
15
100
AcDbEntity
  8
L-CENTER
 48
2.0
100
AcDbLine
 10
556.8600114979663
 20
1791.327884941316
 30
0.0
 11
1397.396072662212
 21
1791.327884941316
 31
0.0
  0
LINE
  5
1AA
330
15
100
AcDbEntity
  8
4
100
AcDbLine
 10
587.128042080089
 20
1922.327884941316
 30
0.0
 11
1367.128042080089
 21
1922.327884941316
 31
0.0
  0
LINE
  5
1AB
330
15
100
AcDbEntity
  8
4
100
AcDbLine
 10
716.5380420800893
 20
1619.327884941316
 30
0.0
 11
996.5380420800889
 21
1619.327884941316
 31
0.0
  0
ARC
  5
1AC
330
15
100
AcDbEntity
  8
4
100
AcDbCircle
 10
977.128042080089
 20
9228.356335889059
 30
0.0
 40
7600.0
100
AcDbArc
 50
267.375538758927
 51
272.624461241073
  0
LINE
  5
1AD
330
15
100
AcDbEntity
  8
4
100
AcDbLine
 10
571.1280420800895
 20
1566.327884941316
 30
0.0
 11
571.1280420800886
 21
2016.327884941316
 31
0.0
  0
LINE
  5
1AE
330
15
100
AcDbEntity
  8
4
100
AcDbLine
 10
566.1280420800895
 20
1643.327884941316
 30
0.0
 11
566.1280420800895
 21
1823.327884941316
 31
0.0
  0
LINE
  5
1AF
330
15
100
AcDbEntity
  8
2
100
AcDbLine
 10
565.8280420800895
 20
1643.327884941316
 30
0.0
 11
565.8280420800895
 21
1823.327884941316
 31
0.0
  0
LINE
  5
1B0
330
15
100
AcDbEntity
  8
4
100
AcDbLine
 10
587.1280420800895
 20
1662.327884941316
 30
0.0
 11
587.1280420800895
 21
1642.327884941315
 31
0.0
  0
ARC
  5
1B1
330
15
100
AcDbEntity
  8
4
100
AcDbCircle
 10
977.128042080089
 20
9228.356335889059
 30
0.0
 40
7604.0
100
AcDbArc
 50
267.3769202932932
 51
272.6230797067068
  0
LINE
  5
1B2
330
15
100
AcDbEntity
  8
4
100
AcDbLine
 10
763.4364935249419
 20
1551.327884941316
 30
0.0
 11
586.1280420800895
 21
1551.327884941316
 31
0.0
  0
LINE
  5
1B3
330
15
100
AcDbEntity
  8
L-CENTER
 48
2.0
100
AcDbLine
 10
692.1280420800886
 20
1601.327884941316
 30
0.0
 11
622.1280420800886
 21
1601.327884941316
 31
0.0
  0
ARC
  5
1B4
330
15
100
AcDbEntity
  8
4
100
AcDbCircle
 10
586.1280420800895
 20
1566.327884941316
 30
0.0
 40
15.0
100
AcDbArc
 50
180.0
 51
270.0
  0
LINE
  5
1B5
330
15
100
AcDbEntity
  8
4
100
AcDbLine
 10
589.1280420800895
 20
1640.327884941315
 30
0.0
 11
1365.128042080089
 21
1640.327884941315
 31
0.0
  0
LINE
  5
1B6
330
15
100
AcDbEntity
  8
4
100
AcDbLine
 10
571.1280420800895
 20
1638.327884941315
 30
0.0
 11
628.9564692048198
 21
1638.327884941315
 31
0.0
  0
LINE
  5
1B7
330
15
100
AcDbEntity
  8
4
100
AcDbLine
 10
591.1280420800895
 20
1601.327884941316
 30
0.0
 11
591.1280420800895
 21
1635.327884941315
 31
0.0
  0
LINE
  5
1B8
330
15
100
AcDbEntity
  8
4
100
AcDbLine
 10
594.1280420800895
 20
1601.327884941316
 30
0.0
 11
594.1280420800895
 21
1635.327884941315
 31
0.0
  0
LINE
  5
1B9
330
15
100
AcDbEntity
  8
4
100
AcDbLine
 10
594.1280420800895
 20
1601.327884941316
 30
0.0
 11
571.1280420800895
 21
1601.327884941316
 31
0.0
  0
ARC
  5
1BA
330
15
100
AcDbEntity
  8
4
100
AcDbCircle
 10
594.1280420800895
 20
1635.327884941315
 30
0.0
 40
3.0
100
AcDbArc
 50
90.0
 51
180.0
  0
ARC
  5
1BB
330
15
100
AcDbEntity
  8
4
100
AcDbCircle
 10
589.1280420800895
 20
1642.327884941315
 30
0.0
 40
2.0
100
AcDbArc
 50
180.0
 51
270.0
  0
LINE
  5
1BC
330
15
100
AcDbEntity
  8
4
100
AcDbLine
 10
566.1280420800895
 20
1643.327884941316
 30
0.0
 11
571.1280420800886
 21
1638.327884941316
 31
0.0
  0
ARC
  5
1BD
330
15
100
AcDbEntity
  8
4
100
AcDbCircle
 10
597.1280420800895
 20
1635.327884941315
 30
0.0
 40
3.0
100
AcDbArc
 50
90.0
 51
180.0
  0
LINE
  5
1BE
330
15
100
AcDbEntity
  8
L-CENTER
 48
2.0
100
AcDbLine
 10
657.1280420800886
 20
1566.327884941316
 30
0.0
 11
657.1280420800877
 21
1636.327884941316
 31
0.0
  0
CIRCLE
  5
1BF
330
15
100
AcDbEntity
  8
4
100
AcDbCircle
 10
657.1280420800886
 20
1601.327884941316
 30
0.0
 40
13.0
  0
LINE
  5
1C0
330
15
100
AcDbEntity
  8
4
100
AcDbLine
 10
629.1280420800895
 20
1637.327884941315
 30
0.0
 11
629.1280420800895
 21
1632.323687196717
 31
0.0
  0
ARC
  5
1C1
330
15
100
AcDbEntity
  8
4
100
AcDbCircle
 10
626.1280420800895
 20
1637.327884941315
 30
0.0
 40
3.0
100
AcDbArc
 50
0.0
 51
90.0
  0
LINE
  5
1C2
330
15
100
AcDbEntity
  8
4
100
AcDbLine
 10
785.2253872128324
 20
1604.427884941317
 30
0.0
 11
773.1016763108569
 21
1558.761907210543
 31
0.0
  0
ARC
  5
1C3
330
15
100
AcDbEntity
  8
4
100
AcDbCircle
 10
763.4364935249419
 20
1561.327884941316
 30
0.0
 40
10.0
100
AcDbArc
 50
270.0
 51
345.1317186415046
  0
ARC
  5
1C4
330
15
100
AcDbEntity
  8
4
100
AcDbCircle
 10
711.5380420800893
 20
1623.99292059255
 30
0.0
 40
5.0
100
AcDbArc
 50
0.0
 51
87.99970065370903
  0
LINE
  5
1C5
330
15
100
AcDbEntity
  8
4
100
AcDbLine
 10
716.5380420800893
 20
1619.327884941316
 30
0.0
 11
716.5380420800893
 21
1623.99292059255
 31
0.0
  0
ARC
  5
1C6
330
15
100
AcDbEntity
  8
4
100
AcDbCircle
 10
585.1280420800895
 20
1662.327884941316
 30
0.0
 40
2.0
100
AcDbArc
 50
0.0
 51
90.0
  0
LINE
  5
1C7
330
15
100
AcDbEntity
  8
4
100
AcDbLine
 10
573.1280420800895
 20
1664.327884941315
 30
0.0
 11
1381.128042080089
 21
1664.327884941345
 31
0.0
  0
ARC
  5
1C8
330
15
100
AcDbEntity
  8
4
100
AcDbCircle
 10
573.1280420800895
 20
1666.327884941315
 30
0.0
 40
2.0
100
AcDbArc
 50
180.0
 51
270.0
  0
LINE
  5
1C9
330
15
100
AcDbEntity
  8
4
100
AcDbLine
 10
594.1280420800886
 20
1950.627884941317
 30
0.0
 11
594.1280420800886
 21
1981.327884941316
 31
0.0
  0
LINE
  5
1CA
330
15
100
AcDbEntity
  8
4
100
AcDbLine
 10
591.1280420800886
 20
1950.627884941317
 30
0.0
 11
591.1280420800886
 21
1981.327884941316
 31
0.0
  0
CIRCLE
  5
1CB
330
15
100
AcDbEntity
  8
4
100
AcDbCircle
 10
657.1280420800886
 20
1981.327884941316
 30
0.0
 40
13.0
  0
LINE
  5
1CC
330
15
100
AcDbEntity
  8
L-CENTER
 48
2.0
100
AcDbLine
 10
657.1280420800886
 20
2016.327884941316
 30
0.0
 11
657.1280420800877
 21
1946.327884941316
 31
0.0
  0
LINE
  5
1CD
330
15
100
AcDbEntity
  8
4
100
AcDbLine
 10
774.0884934262399
 20
2020.176851537479
 30
0.0
 11
785.1457411951324
 21
1978.527884941317
 31
0.0
  0
LINE
  5
1CE
330
15
100
AcDbEntity
  8
4
100
AcDbLine
 10
566.1280420800895
 20
1823.327884941316
 30
0.0
 11
571.1280420800886
 21
1828.327884941316
 31
0.0
  0
ARC
  5
1CF
330
15
100
AcDbEntity
  8
4
100
AcDbCircle
 10
573.1280420800895
 20
1916.327884941316
 30
0.0
 40
2.0
100
AcDbArc
 50
90.0
 51
180.0
  0
LINE
  5
1D0
330
15
100
AcDbEntity
  8
4
100
AcDbLine
 10
573.1280420800895
 20
1918.327884941316
 30
0.0
 11
1381.128042080089
 21
1918.327884941316
 31
0.0
  0
LINE
  5
1D1
330
15
100
AcDbEntity
  8
4
100
AcDbLine
 10
586.1280420800886
 20
2031.327884941316
 30
0.0
 11
759.5907192473665
 21
2031.327884941316
 31
0.0
  0
LINE
  5
1D2
330
15
100
AcDbEntity
  8
L-CENTER
 48
2.0
100
AcDbLine
 10
692.1280420800886
 20
1981.327884941316
 30
0.0
 11
622.1280420800886
 21
1981.327884941316
 31
0.0
  0
LINE
  5
1D3
330
15
100
AcDbEntity
  8
4
100
AcDbLine
 10
594.1280420800886
 20
1981.327884941316
 30
0.0
 11
571.1280420800886
 21
1981.327884941315
 31
0.0
  0
ARC
  5
1D4
330
15
100
AcDbEntity
  8
4
100
AcDbCircle
 10
586.1280420800886
 20
2016.327884941316
 30
0.0
 40
15.0
100
AcDbArc
 50
90.0
 51
180.0
  0
ARC
  5
1D5
330
15
100
AcDbEntity
  8
4
100
AcDbCircle
 10
759.5907192473665
 20
2016.327884941316
 30
0.0
 40
15.0
100
AcDbArc
 50
14.86828135850259
 51
90.0
  0
LINE
  5
1D6
330
15
100
AcDbEntity
  8
L-CENTER
 48
2.0
100
AcDbLine
 10
1262.128042080091
 20
1981.327884941316
 30
0.0
 11
1332.128042080091
 21
1981.327884941316
 31
0.0
  0
CIRCLE
  5
1D7
330
15
100
AcDbEntity
  8
4
100
AcDbCircle
 10
1297.128042080091
 20
1981.327884941316
 30
0.0
 40
13.0
  0
LINE
  5
1D8
330
15
100
AcDbEntity
  8
4
100
AcDbLine
 10
1368.128042080089
 20
2031.327884941316
 30
0.0
 11
1194.665364912812
 21
2031.327884941316
 31
0.0
  0
CIRCLE
  5
1D9
330
15
100
AcDbEntity
  8
4
100
AcDbCircle
 10
1297.128042080091
 20
1601.327884941316
 30
0.0
 40
13.0
  0
LINE
  5
1DA
330
15
100
AcDbEntity
  8
L-CENTER
 48
2.0
100
AcDbLine
 10
1262.128042080091
 20
1601.327884941316
 30
0.0
 11
1332.128042080091
 21
1601.327884941316
 31
0.0
  0
LINE
  5
1DB
330
15
100
AcDbEntity
  8
4
100
AcDbLine
 10
1190.819590635238
 20
1551.327884941316
 30
0.0
 11
1368.128042080089
 21
1551.327884941316
 31
0.0
  0
LINE
  5
1DC
330
15
100
AcDbEntity
  8
L-CENTER
 48
2.0
100
AcDbLine
 10
977.128042080089
 20
1969.896615569971
 30
0.0
 11
977.128042080089
 21
1612.759154312662
 31
0.0
  0
LINE
  5
1DD
330
15
100
AcDbEntity
  8
4
100
AcDbLine
 10
587.128042080089
 20
1948.627884941317
 30
0.0
 11
587.128042080089
 21
1918.327884941316
 31
0.0
  0
LINE
  5
1DE
330
15
100
AcDbEntity
  8
4
100
AcDbLine
 10
1367.128042080089
 20
1948.627884941317
 30
0.0
 11
1367.128042080089
 21
1918.327884941316
 31
0.0
  0
LINE
  5
1DF
330
15
100
AcDbEntity
  8
4
100
AcDbLine
 10
1016.538042080089
 20
1619.327884941316
 30
0.0
 11
1236.538042080089
 21
1619.327884941316
 31
0.0
  0
LINE
  5
1E0
330
15
100
AcDbEntity
  8
4
100
AcDbLine
 10
996.5380420800889
 20
1619.327884941316
 30
0.0
 11
996.5380420800889
 21
1619.395490155918
 31
0.0
  0
LINE
  5
1E1
330
15
100
AcDbEntity
  8
4
100
AcDbLine
 10
1016.538042080089
 20
1619.327884941316
 30
0.0
 11
1016.538042080089
 21
1619.434142049778
 31
0.0
  0
ARC
  5
1E2
330
15
100
AcDbEntity
  8
4
100
AcDbCircle
 10
1001.538042080089
 20
1619.395490155918
 30
0.0
 40
5.0
100
AcDbArc
 50
90.18380764576611
 51
180.0
  0
ARC
  5
1E3
330
15
100
AcDbEntity
  8
4
100
AcDbCircle
 10
1011.538042080089
 20
1619.434142049778
 30
0.0
 40
5.0
100
AcDbArc
 50
0.0
 51
90.25910822621238
  0
LINE
  5
1E4
330
15
100
AcDbEntity
  8
4
100
AcDbLine
 10
1169.030696947347
 20
1604.427884941316
 30
0.0
 11
1181.154407849321
 21
1558.761907210542
 31
0.0
  0
ARC
  5
1E5
330
15
100
AcDbEntity
  8
4
100
AcDbCircle
 10
1190.819590635238
 20
1561.327884941316
 30
0.0
 40
10.0
100
AcDbArc
 50
194.8682813585007
 51
270.0
  0
LINE
  5
1E6
330
15
100
AcDbEntity
  8
4
100
AcDbLine
 10
1236.538042080089
 20
1619.327884941316
 30
0.0
 11
1236.538042080089
 21
1623.951799575911
 31
0.0
  0
ARC
  5
1E7
330
15
100
AcDbEntity
  8
4
100
AcDbCircle
 10
1241.538042080089
 20
1623.951799575911
 30
0.0
 40
5.0
100
AcDbArc
 50
91.9914085511411
 51
180.0
  0
LINE
  5
1E8
330
15
100
AcDbEntity
  8
L-CENTER
 48
2.0
100
AcDbLine
 10
1297.128042080089
 20
1566.327884941316
 30
0.0
 11
1297.128042080091
 21
1636.327884941316
 31
0.0
  0
LINE
  5
1E9
330
15
100
AcDbEntity
  8
L-CENTER
 48
2.0
100
AcDbLine
 10
1297.128042080089
 20
2016.327884941316
 30
0.0
 11
1297.128042080091
 21
1946.327884941316
 31
0.0
  0
LINE
  5
1EA
330
15
100
AcDbEntity
  8
4
100
AcDbLine
 10
1180.167590733936
 20
2020.176851537477
 30
0.0
 11
1169.110342965045
 21
1978.527884941317
 31
0.0
  0
ARC
  5
1EB
330
15
100
AcDbEntity
  8
4
100
AcDbCircle
 10
1194.665364912812
 20
2016.327884941316
 30
0.0
 40
15.0
100
AcDbArc
 50
90.0
 51
165.1317186415047
  0
LINE
  5
1EC
330
15
100
AcDbEntity
  8
4
100
AcDbLine
 10
1383.128042080089
 20
1566.327884941316
 30
0.0
 11
1383.128042080089
 21
2016.327884941316
 31
0.0
  0
LINE
  5
1ED
330
15
100
AcDbEntity
  8
4
100
AcDbLine
 10
1388.128042080089
 20
1643.327884941316
 30
0.0
 11
1388.128042080089
 21
1823.327884941316
 31
0.0
  0
LINE
  5
1EE
330
15
100
AcDbEntity
  8
2
100
AcDbLine
 10
1388.428042080089
 20
1643.327884941316
 30
0.0
 11
1388.428042080089
 21
1823.327884941316
 31
0.0
  0
LINE
  5
1EF
330
15
100
AcDbEntity
  8
4
100
AcDbLine
 10
1367.128042080089
 20
1662.327884941316
 30
0.0
 11
1367.128042080089
 21
1642.327884941315
 31
0.0
  0
ARC
  5
1F0
330
15
100
AcDbEntity
  8
4
100
AcDbCircle
 10
1368.128042080089
 20
1566.327884941316
 30
0.0
 40
15.0
100
AcDbArc
 50
270.0
 51
0.0
  0
ARC
  5
1F1
330
15
100
AcDbEntity
  8
4
100
AcDbCircle
 10
1365.128042080089
 20
1642.327884941315
 30
0.0
 40
2.0
100
AcDbArc
 50
270.0
 51
0.0
  0
LINE
  5
1F2
330
15
100
AcDbEntity
  8
4
100
AcDbLine
 10
1360.128042080089
 20
1601.327884941316
 30
0.0
 11
1383.128042080089
 21
1601.327884941316
 31
0.0
  0
LINE
  5
1F3
330
15
100
AcDbEntity
  8
4
100
AcDbLine
 10
1383.128042080089
 20
1638.327884941315
 30
0.0
 11
1325.299614955359
 21
1638.327884941315
 31
0.0
  0
LINE
  5
1F4
330
15
100
AcDbEntity
  8
4
100
AcDbLine
 10
1363.128042080089
 20
1601.327884941316
 30
0.0
 11
1363.128042080089
 21
1635.327884941315
 31
0.0
  0
LINE
  5
1F5
330
15
100
AcDbEntity
  8
4
100
AcDbLine
 10
1360.128042080089
 20
1601.327884941316
 30
0.0
 11
1360.128042080089
 21
1635.327884941315
 31
0.0
  0
LINE
  5
1F6
330
15
100
AcDbEntity
  8
4
100
AcDbLine
 10
1325.128042080089
 20
1637.327884941315
 30
0.0
 11
1325.128042080089
 21
1632.323687196717
 31
0.0
  0
ARC
  5
1F7
330
15
100
AcDbEntity
  8
4
100
AcDbCircle
 10
1328.128042080089
 20
1637.327884941315
 30
0.0
 40
3.0
100
AcDbArc
 50
90.0
 51
180.0
  0
ARC
  5
1F8
330
15
100
AcDbEntity
  8
4
100
AcDbCircle
 10
1360.128042080089
 20
1635.327884941315
 30
0.0
 40
3.0
100
AcDbArc
 50
0.0
 51
90.0
  0
ARC
  5
1F9
330
15
100
AcDbEntity
  8
4
100
AcDbCircle
 10
1357.128042080089
 20
1635.327884941315
 30
0.0
 40
3.0
100
AcDbArc
 50
0.0
 51
90.0
  0
LINE
  5
1FA
330
15
100
AcDbEntity
  8
4
100
AcDbLine
 10
1388.128042080089
 20
1643.327884941316
 30
0.0
 11
1383.128042080089
 21
1638.327884941316
 31
0.0
  0
ARC
  5
1FB
330
15
100
AcDbEntity
  8
4
100
AcDbCircle
 10
1369.128042080089
 20
1662.327884941316
 30
0.0
 40
2.0
100
AcDbArc
 50
90.0
 51
180.0
  0
ARC
  5
1FC
330
15
100
AcDbEntity
  8
4
100
AcDbCircle
 10
1381.128042080089
 20
1666.327884941315
 30
0.0
 40
2.0
100
AcDbArc
 50
270.0
 51
0.0
  0
LINE
  5
1FD
330
15
100
AcDbEntity
  8
4
100
AcDbLine
 10
1363.128042080091
 20
1950.627884941317
 30
0.0
 11
1363.128042080091
 21
1981.327884941316
 31
0.0
  0
LINE
  5
1FE
330
15
100
AcDbEntity
  8
4
100
AcDbLine
 10
1360.128042080091
 20
1950.627884941317
 30
0.0
 11
1360.128042080091
 21
1981.327884941316
 31
0.0
  0
LINE
  5
1FF
330
15
100
AcDbEntity
  8
4
100
AcDbLine
 10
1388.128042080089
 20
1823.327884941316
 30
0.0
 11
1383.128042080089
 21
1828.327884941316
 31
0.0
  0
ARC
  5
200
330
15
100
AcDbEntity
  8
4
100
AcDbCircle
 10
1381.128042080089
 20
1916.327884941316
 30
0.0
 40
2.0
100
AcDbArc
 50
0.0
 51
90.0
  0
LINE
  5
201
330
15
100
AcDbEntity
  8
4
100
AcDbLine
 10
1360.128042080091
 20
1981.327884941316
 30
0.0
 11
1383.128042080091
 21
1981.327884941315
 31
0.0
  0
ARC
  5
202
330
15
100
AcDbEntity
  8
4
100
AcDbCircle
 10
1368.128042080089
 20
2016.327884941316
 30
0.0
 40
15.0
100
AcDbArc
 50
0.0
 51
90.0
  0
LINE
  5
203
330
15
100
AcDbEntity
  8
4
100
AcDbLine
 10
1007.128042080089
 20
1736.327884941316
 30
0.0
 11
1007.128042080089
 21
1846.327884941316
 31
0.0
  0
LINE
  5
204
330
15
100
AcDbEntity
  8
4
100
AcDbLine
 10
950.128042080089
 20
1733.327884941316
 30
0.0
 11
1004.128042080089
 21
1733.327884941316
 31
0.0
  0
ARC
  5
205
330
15
100
AcDbEntity
  8
4
100
AcDbCircle
 10
1004.128042080089
 20
1736.327884941316
 30
0.0
 40
3.0
100
AcDbArc
 50
270.0
 51
0.0
  0
LINE
  5
206
330
15
100
AcDbEntity
  8
4
100
AcDbLine
 10
947.128042080089
 20
1736.327884941316
 30
0.0
 11
947.128042080089
 21
1846.327884941316
 31
0.0
  0
ARC
  5
207
330
15
100
AcDbEntity
  8
4
100
AcDbCircle
 10
950.128042080089
 20
1736.327884941316
 30
0.0
 40
3.0
100
AcDbArc
 50
180.0
 51
270.0
  0
LINE
  5
208
330
15
100
AcDbEntity
  8
4
100
AcDbLine
 10
950.128042080089
 20
1849.327884941316
 30
0.0
 11
1004.128042080089
 21
1849.327884941316
 31
0.0
  0
ARC
  5
209
330
15
100
AcDbEntity
  8
4
100
AcDbCircle
 10
950.128042080089
 20
1846.327884941316
 30
0.0
 40
3.0
100
AcDbArc
 50
90.0
 51
180.0
  0
ARC
  5
20A
330
15
100
AcDbEntity
  8
4
100
AcDbCircle
 10
1004.128042080089
 20
1846.327884941316
 30
0.0
 40
3.0
100
AcDbArc
 50
0.0
 51
90.0
  0
CIRCLE
  5
20B
330
15
100
AcDbEntity
  8
4
100
AcDbCircle
 10
727.1280420800895
 20
1791.327884941316
 30
0.0
 40
25.0
  0
LINE
  5
20C
330
15
100
AcDbEntity
  8
L-CENTER
 48
2.0
100
AcDbLine
 10
727.1280420800895
 20
1756.327884941317
 30
0.0
 11
727.1280420800895
 21
1826.327884941315
 31
0.0
  0
LINE
  5
20D
330
15
100
AcDbEntity
  8
L-CENTER
 48
2.0
100
AcDbLine
 10
539.0880048594317
 20
1733.327884941316
 30
0.0
 11
1550.959580080089
 21
1733.327884941316
 31
0.0
  0
ARC
  5
20E
330
15
100
AcDbEntity
  8
4
100
AcDbCircle
 10
977.1280420800908
 20
-5645.400566006429
 30
0.0
 40
7600.0
100
AcDbArc
 50
88.14762157577965
 51
91.85237842422035
  0
ARC
  5
20F
330
15
100
AcDbEntity
  8
4
100
AcDbCircle
 10
977.1280420800908
 20
-5645.400566006429
 30
0.0
 40
7604.0
100
AcDbArc
 50
87.37622925480406
 51
92.6237707451959
  0
LINE
  5
210
330
15
100
AcDbEntity
  8
2
100
AcDbLine
 10
587.128042080089
 20
1922.627884941317
 30
0.0
 11
1367.128042080089
 21
1922.627884941317
 31
0.0
  0
LINE
  5
211
330
15
100
AcDbEntity
  8
4
100
AcDbLine
 10
589.128042080089
 20
1950.627884941317
 30
0.0
 11
1365.128042080089
 21
1950.627884941317
 31
0.0
  0
LINE
  5
212
330
15
100
AcDbEntity
  8
4
100
AcDbLine
 10
716.5380420800893
 20
1963.627884941317
 30
0.0
 11
996.5380420800889
 21
1963.627884941317
 31
0.0
  0
ARC
  5
213
330
15
100
AcDbEntity
  8
4
100
AcDbCircle
 10
711.5380420800889
 20
1958.962849290083
 30
0.0
 40
5.0
100
AcDbArc
 50
272.0002993462543
 51
0.0
  0
LINE
  5
214
330
15
100
AcDbEntity
  8
4
100
AcDbLine
 10
716.5380420800893
 20
1958.962849290082
 30
0.0
 11
716.5380420800893
 21
1963.627884941317
 31
0.0
  0
LINE
  5
215
330
15
100
AcDbEntity
  8
L-CENTER
 48
2.0
100
AcDbLine
 10
856.5380420800889
 20
1399.148929941317
 30
0.0
 11
856.5380420800889
 21
2183.506839941316
 31
0.0
  0
LINE
  5
216
330
15
100
AcDbEntity
  8
L-CENTER
 48
2.0
100
AcDbLine
 10
1126.538042080089
 20
1584.23512606127
 30
0.0
 11
1126.538042080089
 21
1995.441513594058
 31
0.0
  0
LINE
  5
217
330
15
100
AcDbEntity
  8
4
100
AcDbLine
 10
1016.538042080089
 20
1963.627884941317
 30
0.0
 11
1236.538042080089
 21
1963.627884941317
 31
0.0
  0
ARC
  5
218
330
15
100
AcDbEntity
  8
4
100
AcDbCircle
 10
1001.538042080089
 20
1963.560279726715
 30
0.0
 40
5.0
100
AcDbArc
 50
180.0
 51
269.8161923541921
  0
LINE
  5
219
330
15
100
AcDbEntity
  8
4
100
AcDbLine
 10
996.5380420800889
 20
1963.560279726715
 30
0.0
 11
996.5380420800889
 21
1963.627884941317
 31
0.0
  0
LINE
  5
21A
330
15
100
AcDbEntity
  8
4
100
AcDbLine
 10
1016.538042080089
 20
1963.521627832855
 30
0.0
 11
1016.538042080089
 21
1963.627884941317
 31
0.0
  0
ARC
  5
21B
330
15
100
AcDbEntity
  8
4
100
AcDbCircle
 10
1011.538042080089
 20
1963.521627832855
 30
0.0
 40
5.0
100
AcDbArc
 50
269.7408917738189
 51
0.0
  0
LINE
  5
21C
330
15
100
AcDbEntity
  8
4
100
AcDbLine
 10
1236.538042080089
 20
1959.003970306721
 30
0.0
 11
1236.538042080089
 21
1963.627884941317
 31
0.0
  0
ARC
  5
21D
330
15
100
AcDbEntity
  8
4
100
AcDbCircle
 10
1241.538042080089
 20
1959.003970306721
 30
0.0
 40
5.0
100
AcDbArc
 50
180.0
 51
268.0085914488276
  0
LINE
  5
21E
330
15
100
AcDbEntity
  8
4
100
AcDbLine
 10
717.5380420800893
 20
1978.527884941317
 30
0.0
 11
995.5380420800889
 21
1978.527884941317
 31
0.0
  0
LINE
  5
21F
330
15
100
AcDbEntity
  8
4
100
AcDbLine
 10
717.5380420800893
 20
1604.427884941317
 30
0.0
 11
995.5380420800889
 21
1604.427884941317
 31
0.0
  0
LINE
  5
220
330
15
100
AcDbEntity
  8
4
100
AcDbLine
 10
716.5380420800893
 20
1963.627884941317
 30
0.0
 11
716.5380420800893
 21
1977.527884941317
 31
0.0
  0
LINE
  5
221
330
15
100
AcDbEntity
  8
4
100
AcDbLine
 10
996.5380420800889
 20
1963.627884941317
 30
0.0
 11
996.5380420800889
 21
1977.527884941317
 31
0.0
  0
LINE
  5
222
330
15
100
AcDbEntity
  8
4
100
AcDbLine
 10
996.5380420800889
 20
1619.395490155918
 30
0.0
 11
996.5380420800889
 21
1605.427884941317
 31
0.0
  0
LINE
  5
223
330
15
100
AcDbEntity
  8
4
100
AcDbLine
 10
716.5380420800893
 20
1619.327884941316
 30
0.0
 11
716.5380420800893
 21
1605.427884941317
 31
0.0
  0
LINE
  5
224
330
15
100
AcDbEntity
  8
2
100
AcDbLine
 10
716.5380420800893
 20
1619.027884941317
 30
0.0
 11
996.5380420800889
 21
1619.027884941316
 31
0.0
  0
LINE
  5
225
330
15
100
AcDbEntity
  8
2
100
AcDbLine
 10
716.5380420800893
 20
1963.927884941317
 30
0.0
 11
996.5380420800889
 21
1963.927884941317
 31
0.0
  0
LINE
  5
226
330
15
100
AcDbEntity
  8
4
100
AcDbLine
 10
1017.538042080089
 20
1978.527884941317
 30
0.0
 11
1235.538042080089
 21
1978.527884941317
 31
0.0
  0
LINE
  5
227
330
15
100
AcDbEntity
  8
4
100
AcDbLine
 10
1017.538042080089
 20
1604.427884941316
 30
0.0
 11
1235.538042080089
 21
1604.427884941316
 31
0.0
  0
LINE
  5
228
330
15
100
AcDbEntity
  8
4
100
AcDbLine
 10
1016.538042080089
 20
1963.627884941317
 30
0.0
 11
1016.538042080089
 21
1977.527884941317
 31
0.0
  0
LINE
  5
229
330
15
100
AcDbEntity
  8
4
100
AcDbLine
 10
1236.538042080089
 20
1977.527884941317
 30
0.0
 11
1236.538042080089
 21
1963.627884941317
 31
0.0
  0
LINE
  5
22A
330
15
100
AcDbEntity
  8
4
100
AcDbLine
 10
1236.538042080089
 20
1619.327884941316
 30
0.0
 11
1236.538042080089
 21
1605.427884941316
 31
0.0
  0
LINE
  5
22B
330
15
100
AcDbEntity
  8
4
100
AcDbLine
 10
1016.538042080089
 20
1619.327884941316
 30
0.0
 11
1016.538042080089
 21
1605.427884941316
 31
0.0
  0
LINE
  5
22C
330
15
100
AcDbEntity
  8
2
100
AcDbLine
 10
1016.538042080089
 20
1619.027884941315
 30
0.0
 11
1236.538042080089
 21
1619.027884941315
 31
0.0
  0
LINE
  5
22D
330
15
100
AcDbEntity
  8
2
100
AcDbLine
 10
1016.538042080089
 20
1963.927884941317
 30
0.0
 11
1236.538042080089
 21
1963.927884941317
 31
0.0
  0
LINE
  5
22E
330
15
100
AcDbEntity
  8
4
100
AcDbLine
 10
1406.428046080088
 20
1643.327891251663
 30
0.0
 11
1406.428046080088
 21
1823.32788599304
 31
0.0
  0
LINE
  5
22F
330
15
100
AcDbEntity
  8
4
100
AcDbLine
 10
1388.128042080089
 20
1643.327884941316
 30
0.0
 11
1406.428046080088
 21
1643.327891251663
 31
0.0
  0
LINE
  5
230
330
15
100
AcDbEntity
  8
4
100
AcDbLine
 10
1388.128042080089
 20
1823.327884941316
 30
0.0
 11
1406.428046080088
 21
1823.32788599304
 31
0.0
  0
LINE
  5
231
330
15
100
AcDbEntity
  8
4
100
AcDbLine
 10
547.8280380800862
 20
1643.327891251673
 30
0.0
 11
547.8280380800908
 21
1823.327885993051
 31
0.0
  0
LINE
  5
232
330
15
100
AcDbEntity
  8
4
100
AcDbLine
 10
566.1280420800863
 20
1643.327884941325
 30
0.0
 11
547.8280380800862
 21
1643.327891251673
 31
0.0
  0
LINE
  5
233
330
15
100
AcDbEntity
  8
4
100
AcDbLine
 10
566.1280420800908
 20
1823.327884941325
 30
0.0
 11
547.8280380800908
 21
1823.327885993051
 31
0.0
  0
LINE
  5
234
330
15
100
AcDbEntity
  8
4
100
AcDbLine
 10
1406.428046080088
 20
1778.327884941316
 30
0.0
 11
1407.428046080088
 21
1778.327884941316
 31
0.0
  0
LINE
  5
235
330
15
100
AcDbEntity
  8
4
100
AcDbLine
 10
1406.428046080088
 20
1688.327884941316
 30
0.0
 11
1407.428046080088
 21
1688.327884941316
 31
0.0
  0
LINE
  5
236
330
15
100
AcDbEntity
  8
4
100
AcDbLine
 10
1407.428046080088
 20
1688.327884941316
 30
0.0
 11
1407.428046080088
 21
1778.327884941316
 31
0.0
  0
LINE
  5
237
330
15
100
AcDbEntity
  8
4
100
AcDbLine
 10
851.3851605227878
 20
608.6964346780755
 30
0.0
 11
845.9003329654865
 21
599.1964346780755
 31
0.0
  0
LINE
  5
238
330
15
100
AcDbEntity
  8
4
100
AcDbLine
 10
867.8396431946926
 20
599.1964346780755
 30
0.0
 11
862.3548156373904
 21
608.6964346780755
 31
0.0
  0
CIRCLE
  5
239
330
15
100
AcDbEntity
  8
4
100
AcDbCircle
 10
856.8699880800891
 20
599.1964346780755
 30
0.0
 40
9.5
  0
LINE
  5
23A
330
15
100
AcDbEntity
  8
4
100
AcDbLine
 10
845.9003329654865
 20
599.1964346780755
 30
0.0
 11
851.3851605227878
 21
589.6964346780755
 31
0.0
  0
LINE
  5
23B
330
15
100
AcDbEntity
  8
4
100
AcDbLine
 10
851.3851605227878
 20
589.6964346780755
 30
0.0
 11
862.3548156373904
 21
589.6964346780755
 31
0.0
  0
LINE
  5
23C
330
15
100
AcDbEntity
  8
4
100
AcDbLine
 10
862.3548156373904
 20
589.6964346780755
 30
0.0
 11
867.8396431946926
 21
599.1964346780755
 31
0.0
  0
LINE
  5
23D
330
15
100
AcDbEntity
  8
4
100
AcDbLine
 10
862.3548156373904
 20
608.6964346780755
 30
0.0
 11
851.3851605227878
 21
608.6964346780755
 31
0.0
  0
LINE
  5
23E
330
15
100
AcDbEntity
  8
4
100
AcDbLine
 10
747.4619399277794
 20
548.6961355203339
 30
0.0
 11
741.9771123704782
 21
539.1961355203339
 31
0.0
  0
LINE
  5
23F
330
15
100
AcDbEntity
  8
4
100
AcDbLine
 10
763.9164225996842
 20
539.1961355203339
 30
0.0
 11
758.431595042382
 21
548.6961355203339
 31
0.0
  0
CIRCLE
  5
240
330
15
100
AcDbEntity
  8
4
100
AcDbCircle
 10
752.9467674850807
 20
539.1961355203339
 30
0.0
 40
9.5
  0
LINE
  5
241
330
15
100
AcDbEntity
  8
4
100
AcDbLine
 10
741.9771123704782
 20
539.1961355203339
 30
0.0
 11
747.4619399277794
 21
529.6961355203339
 31
0.0
  0
LINE
  5
242
330
15
100
AcDbEntity
  8
4
100
AcDbLine
 10
747.4619399277794
 20
529.6961355203339
 30
0.0
 11
758.431595042382
 21
529.6961355203339
 31
0.0
  0
LINE
  5
243
330
15
100
AcDbEntity
  8
4
100
AcDbLine
 10
758.431595042382
 20
529.6961355203339
 30
0.0
 11
763.9164225996842
 21
539.1961355203339
 31
0.0
  0
LINE
  5
244
330
15
100
AcDbEntity
  8
4
100
AcDbLine
 10
758.431595042382
 20
548.6961355203339
 30
0.0
 11
747.4619399277794
 21
548.6961355203339
 31
0.0
  0
LINE
  5
245
330
15
100
AcDbEntity
  8
4
100
AcDbLine
 10
747.4622845729787
 20
428.6961388928053
 30
0.0
 11
741.9774570156774
 21
419.1961388928053
 31
0.0
  0
LINE
  5
246
330
15
100
AcDbEntity
  8
4
100
AcDbLine
 10
763.9167672448834
 20
419.1961388928053
 30
0.0
 11
758.4319396875812
 21
428.6961388928053
 31
0.0
  0
CIRCLE
  5
247
330
15
100
AcDbEntity
  8
4
100
AcDbCircle
 10
752.94711213028
 20
419.1961388928053
 30
0.0
 40
9.5
  0
LINE
  5
248
330
15
100
AcDbEntity
  8
4
100
AcDbLine
 10
741.9774570156774
 20
419.1961388928053
 30
0.0
 11
747.4622845729787
 21
409.6961388928053
 31
0.0
  0
LINE
  5
249
330
15
100
AcDbEntity
  8
4
100
AcDbLine
 10
747.4622845729787
 20
409.6961388928053
 30
0.0
 11
758.4319396875812
 21
409.6961388928053
 31
0.0
  0
LINE
  5
24A
330
15
100
AcDbEntity
  8
4
100
AcDbLine
 10
758.4319396875812
 20
409.6961388928053
 30
0.0
 11
763.9167672448834
 21
419.1961388928053
 31
0.0
  0
LINE
  5
24B
330
15
100
AcDbEntity
  8
4
100
AcDbLine
 10
758.4319396875812
 20
428.6961388928053
 30
0.0
 11
747.4622845729787
 21
428.6961388928053
 31
0.0
  0
LINE
  5
24C
330
15
100
AcDbEntity
  8
4
100
AcDbLine
 10
955.3080333690746
 20
548.6967378387685
 30
0.0
 11
949.8232058117733
 21
539.1967378387685
 31
0.0
  0
LINE
  5
24D
330
15
100
AcDbEntity
  8
4
100
AcDbLine
 10
971.7625160409793
 20
539.1967378387685
 30
0.0
 11
966.2776884836771
 21
548.6967378387685
 31
0.0
  0
CIRCLE
  5
24E
330
15
100
AcDbEntity
  8
4
100
AcDbCircle
 10
960.7928609263768
 20
539.1967378387685
 30
0.0
 40
9.5
  0
LINE
  5
24F
330
15
100
AcDbEntity
  8
4
100
AcDbLine
 10
949.8232058117733
 20
539.1967378387685
 30
0.0
 11
955.3080333690746
 21
529.6967378387685
 31
0.0
  0
LINE
  5
250
330
15
100
AcDbEntity
  8
4
100
AcDbLine
 10
955.3080333690746
 20
529.6967378387685
 30
0.0
 11
966.2776884836771
 21
529.6967378387685
 31
0.0
  0
LINE
  5
251
330
15
100
AcDbEntity
  8
4
100
AcDbLine
 10
966.2776884836771
 20
529.6967378387685
 30
0.0
 11
971.7625160409793
 21
539.1967378387685
 31
0.0
  0
LINE
  5
252
330
15
100
AcDbEntity
  8
4
100
AcDbLine
 10
966.2776884836771
 20
548.6967378387685
 30
0.0
 11
955.3080333690746
 21
548.6967378387685
 31
0.0
  0
LINE
  5
253
330
15
100
AcDbEntity
  8
4
100
AcDbLine
 10
851.3851605227878
 20
368.6964366780753
 30
0.0
 11
845.9003329654865
 21
359.1964366780753
 31
0.0
  0
LINE
  5
254
330
15
100
AcDbEntity
  8
4
100
AcDbLine
 10
867.8396431946926
 20
359.1964366780753
 30
0.0
 11
862.3548156373904
 21
368.6964366780753
 31
0.0
  0
CIRCLE
  5
255
330
15
100
AcDbEntity
  8
4
100
AcDbCircle
 10
856.8699880800891
 20
359.1964366780753
 30
0.0
 40
9.5
  0
LINE
  5
256
330
15
100
AcDbEntity
  8
4
100
AcDbLine
 10
845.9003329654865
 20
359.1964366780753
 30
0.0
 11
851.3851605227878
 21
349.6964366780753
 31
0.0
  0
LINE
  5
257
330
15
100
AcDbEntity
  8
4
100
AcDbLine
 10
851.3851605227878
 20
349.6964366780753
 30
0.0
 11
862.3548156373904
 21
349.6964366780753
 31
0.0
  0
LINE
  5
258
330
15
100
AcDbEntity
  8
4
100
AcDbLine
 10
862.3548156373904
 20
349.6964366780753
 30
0.0
 11
867.8396431946926
 21
359.1964366780753
 31
0.0
  0
LINE
  5
259
330
15
100
AcDbEntity
  8
4
100
AcDbLine
 10
862.3548156373904
 20
368.6964366780753
 30
0.0
 11
851.3851605227878
 21
368.6964366780753
 31
0.0
  0
LINE
  5
25A
330
15
100
AcDbEntity
  8
4
100
AcDbLine
 10
955.3083805772771
 20
428.6967348996036
 30
0.0
 11
949.8235530199759
 21
419.1967348996036
 31
0.0
  0
LINE
  5
25B
330
15
100
AcDbEntity
  8
4
100
AcDbLine
 10
971.7628632491819
 20
419.1967348996036
 30
0.0
 11
966.2780356918797
 21
428.6967348996036
 31
0.0
  0
CIRCLE
  5
25C
330
15
100
AcDbEntity
  8
4
100
AcDbCircle
 10
960.7932081345793
 20
419.1967348996036
 30
0.0
 40
9.5
  0
LINE
  5
25D
330
15
100
AcDbEntity
  8
4
100
AcDbLine
 10
949.8235530199759
 20
419.1967348996036
 30
0.0
 11
955.3083805772771
 21
409.6967348996036
 31
0.0
  0
LINE
  5
25E
330
15
100
AcDbEntity
  8
4
100
AcDbLine
 10
955.3083805772771
 20
409.6967348996036
 30
0.0
 11
966.2780356918797
 21
409.6967348996036
 31
0.0
  0
LINE
  5
25F
330
15
100
AcDbEntity
  8
4
100
AcDbLine
 10
966.2780356918797
 20
409.6967348996036
 30
0.0
 11
971.7628632491819
 21
419.1967348996036
 31
0.0
  0
LINE
  5
260
330
15
100
AcDbEntity
  8
4
100
AcDbLine
 10
966.2780356918797
 20
428.6967348996036
 30
0.0
 11
955.3083805772771
 21
428.6967348996036
 31
0.0
  0
LINE
  5
261
330
15
100
AcDbEntity
  8
4
100
AcDbLine
 10
1120.643212522788
 20
598.6964376780752
 30
0.0
 11
1115.158384965487
 21
589.1964376780752
 31
0.0
  0
LINE
  5
262
330
15
100
AcDbEntity
  8
4
100
AcDbLine
 10
1137.097695194693
 20
589.1964376780752
 30
0.0
 11
1131.612867637391
 21
598.6964376780752
 31
0.0
  0
CIRCLE
  5
263
330
15
100
AcDbEntity
  8
4
100
AcDbCircle
 10
1126.128040080089
 20
589.1964376780752
 30
0.0
 40
9.5
  0
LINE
  5
264
330
15
100
AcDbEntity
  8
4
100
AcDbLine
 10
1115.158384965487
 20
589.1964376780752
 30
0.0
 11
1120.643212522788
 21
579.6964376780752
 31
0.0
  0
LINE
  5
265
330
15
100
AcDbEntity
  8
4
100
AcDbLine
 10
1120.643212522788
 20
579.6964376780752
 30
0.0
 11
1131.612867637391
 21
579.6964376780752
 31
0.0
  0
LINE
  5
266
330
15
100
AcDbEntity
  8
4
100
AcDbLine
 10
1131.612867637391
 20
579.6964376780752
 30
0.0
 11
1137.097695194693
 21
589.1964376780752
 31
0.0
  0
LINE
  5
267
330
15
100
AcDbEntity
  8
4
100
AcDbLine
 10
1131.612867637391
 20
598.6964376780752
 30
0.0
 11
1120.643212522788
 21
598.6964376780752
 31
0.0
  0
LINE
  5
268
330
15
100
AcDbEntity
  8
4
100
AcDbLine
 10
1042.70083936219
 20
553.6962883010979
 30
0.0
 11
1037.216011804888
 21
544.1962883010979
 31
0.0
  0
LINE
  5
269
330
15
100
AcDbEntity
  8
4
100
AcDbLine
 10
1059.155322034094
 20
544.1962883010979
 30
0.0
 11
1053.670494476792
 21
553.6962883010979
 31
0.0
  0
CIRCLE
  5
26A
330
15
100
AcDbEntity
  8
4
100
AcDbCircle
 10
1048.185666919491
 20
544.1962883010979
 30
0.0
 40
9.5
  0
LINE
  5
26B
330
15
100
AcDbEntity
  8
4
100
AcDbLine
 10
1037.216011804888
 20
544.1962883010979
 30
0.0
 11
1042.70083936219
 21
534.6962883010979
 31
0.0
  0
LINE
  5
26C
330
15
100
AcDbEntity
  8
4
100
AcDbLine
 10
1042.70083936219
 20
534.6962883010979
 30
0.0
 11
1053.670494476792
 21
534.6962883010979
 31
0.0
  0
LINE
  5
26D
330
15
100
AcDbEntity
  8
4
100
AcDbLine
 10
1053.670494476792
 20
534.6962883010979
 30
0.0
 11
1059.155322034094
 21
544.1962883010979
 31
0.0
  0
LINE
  5
26E
330
15
100
AcDbEntity
  8
4
100
AcDbLine
 10
1053.670494476792
 20
553.6962883010979
 30
0.0
 11
1042.70083936219
 21
553.6962883010979
 31
0.0
  0
LINE
  5
26F
330
15
100
AcDbEntity
  8
4
100
AcDbLine
 10
1042.701011878206
 20
463.6962862485516
 30
0.0
 11
1037.216184320905
 21
454.1962862485516
 31
0.0
  0
LINE
  5
270
330
15
100
AcDbEntity
  8
4
100
AcDbLine
 10
1059.155494550111
 20
454.1962862485516
 30
0.0
 11
1053.670666992808
 21
463.6962862485516
 31
0.0
  0
CIRCLE
  5
271
330
15
100
AcDbEntity
  8
4
100
AcDbCircle
 10
1048.185839435508
 20
454.1962862485516
 30
0.0
 40
9.5
  0
LINE
  5
272
330
15
100
AcDbEntity
  8
4
100
AcDbLine
 10
1037.216184320905
 20
454.1962862485516
 30
0.0
 11
1042.701011878206
 21
444.6962862485516
 31
0.0
  0
LINE
  5
273
330
15
100
AcDbEntity
  8
4
100
AcDbLine
 10
1042.701011878206
 20
444.6962862485516
 30
0.0
 11
1053.670666992808
 21
444.6962862485516
 31
0.0
  0
LINE
  5
274
330
15
100
AcDbEntity
  8
4
100
AcDbLine
 10
1053.670666992808
 20
444.6962862485516
 30
0.0
 11
1059.155494550111
 21
454.1962862485516
 31
0.0
  0
LINE
  5
275
330
15
100
AcDbEntity
  8
4
100
AcDbLine
 10
1053.670666992808
 20
463.6962862485516
 30
0.0
 11
1042.701011878206
 21
463.6962862485516
 31
0.0
  0
LINE
  5
276
330
15
100
AcDbEntity
  8
4
100
AcDbLine
 10
1120.643212522788
 20
418.6964356780754
 30
0.0
 11
1115.158384965487
 21
409.1964356780754
 31
0.0
  0
LINE
  5
277
330
15
100
AcDbEntity
  8
4
100
AcDbLine
 10
1137.097695194693
 20
409.1964356780754
 30
0.0
 11
1131.612867637391
 21
418.6964356780754
 31
0.0
  0
CIRCLE
  5
278
330
15
100
AcDbEntity
  8
4
100
AcDbCircle
 10
1126.128040080089
 20
409.1964356780754
 30
0.0
 40
9.5
  0
LINE
  5
279
330
15
100
AcDbEntity
  8
4
100
AcDbLine
 10
1115.158384965487
 20
409.1964356780754
 30
0.0
 11
1120.643212522788
 21
399.6964356780754
 31
0.0
  0
LINE
  5
27A
330
15
100
AcDbEntity
  8
4
100
AcDbLine
 10
1120.643212522788
 20
399.6964356780754
 30
0.0
 11
1131.612867637391
 21
399.6964356780754
 31
0.0
  0
LINE
  5
27B
330
15
100
AcDbEntity
  8
4
100
AcDbLine
 10
1131.612867637391
 20
399.6964356780754
 30
0.0
 11
1137.097695194693
 21
409.1964356780754
 31
0.0
  0
LINE
  5
27C
330
15
100
AcDbEntity
  8
4
100
AcDbLine
 10
1131.612867637391
 20
418.6964356780754
 30
0.0
 11
1120.643212522788
 21
418.6964356780754
 31
0.0
  0
LINE
  5
27D
330
15
100
AcDbEntity
  8
4
100
AcDbLine
 10
1198.585412866648
 20
553.6965876284617
 30
0.0
 11
1193.100585309347
 21
544.1965876284617
 31
0.0
  0
LINE
  5
27E
330
15
100
AcDbEntity
  8
4
100
AcDbLine
 10
1215.039895538553
 20
544.1965876284617
 30
0.0
 11
1209.555067981251
 21
553.6965876284617
 31
0.0
  0
CIRCLE
  5
27F
330
15
100
AcDbEntity
  8
4
100
AcDbCircle
 10
1204.07024042395
 20
544.1965876284617
 30
0.0
 40
9.5
  0
LINE
  5
280
330
15
100
AcDbEntity
  8
4
100
AcDbLine
 10
1193.100585309347
 20
544.1965876284617
 30
0.0
 11
1198.585412866648
 21
534.6965876284617
 31
0.0
  0
LINE
  5
281
330
15
100
AcDbEntity
  8
4
100
AcDbLine
 10
1198.585412866648
 20
534.6965876284617
 30
0.0
 11
1209.555067981251
 21
534.6965876284617
 31
0.0
  0
LINE
  5
282
330
15
100
AcDbEntity
  8
4
100
AcDbLine
 10
1209.555067981251
 20
534.6965876284617
 30
0.0
 11
1215.039895538553
 21
544.1965876284617
 31
0.0
  0
LINE
  5
283
330
15
100
AcDbEntity
  8
4
100
AcDbLine
 10
1209.555067981251
 20
553.6965876284617
 30
0.0
 11
1198.585412866648
 21
553.6965876284617
 31
0.0
  0
LINE
  5
284
330
15
100
AcDbEntity
  8
4
100
AcDbLine
 10
1198.585586443984
 20
463.6965863724522
 30
0.0
 11
1193.100758886683
 21
454.1965863724522
 31
0.0
  0
LINE
  5
285
330
15
100
AcDbEntity
  8
4
100
AcDbLine
 10
1215.040069115889
 20
454.1965863724522
 30
0.0
 11
1209.555241558587
 21
463.6965863724522
 31
0.0
  0
CIRCLE
  5
286
330
15
100
AcDbEntity
  8
4
100
AcDbCircle
 10
1204.070414001285
 20
454.1965863724522
 30
0.0
 40
9.5
  0
LINE
  5
287
330
15
100
AcDbEntity
  8
4
100
AcDbLine
 10
1193.100758886683
 20
454.1965863724522
 30
0.0
 11
1198.585586443984
 21
444.6965863724522
 31
0.0
  0
LINE
  5
288
330
15
100
AcDbEntity
  8
4
100
AcDbLine
 10
1198.585586443984
 20
444.6965863724522
 30
0.0
 11
1209.555241558587
 21
444.6965863724522
 31
0.0
  0
LINE
  5
289
330
15
100
AcDbEntity
  8
4
100
AcDbLine
 10
1209.555241558587
 20
444.6965863724522
 30
0.0
 11
1215.040069115889
 21
454.1965863724522
 31
0.0
  0
LINE
  5
28A
330
15
100
AcDbEntity
  8
4
100
AcDbLine
 10
1209.555241558587
 20
463.6965863724522
 30
0.0
 11
1198.585586443984
 21
463.6965863724522
 31
0.0
  0
LINE
  5
28B
330
15
100
AcDbEntity
  8
L-CENTER
 48
2.0
100
AcDbLine
 10
752.9467674850807
 20
1993.128724821421
 30
0.0
 11
752.9467674850807
 21
1940.045190614281
 31
0.0
  0
LINE
  5
28C
330
15
100
AcDbEntity
  8
4
100
AcDbLine
 10
763.9164225996833
 20
1978.527884941317
 30
0.0
 11
763.9164225996833
 21
1988.390704030689
 31
0.0
  0
LINE
  5
28D
330
15
100
AcDbEntity
  8
4
100
AcDbLine
 10
758.4315950423811
 20
1988.390704030689
 30
0.0
 11
758.4315950423811
 21
1981.527884941317
 31
0.0
  0
LINE
  5
28E
330
15
100
AcDbEntity
  8
4
100
AcDbLine
 10
741.9771123704763
 20
1988.390704030689
 30
0.0
 11
741.9771123704763
 21
1978.527884941317
 31
0.0
  0
LINE
  5
28F
330
15
100
AcDbEntity
  8
4
100
AcDbLine
 10
747.4619399277785
 20
1988.390704030689
 30
0.0
 11
747.4619399277785
 21
1981.527884941317
 31
0.0
  0
ARC
  5
290
330
15
100
AcDbEntity
  8
4
100
AcDbCircle
 10
761.1740088210322
 20
1985.652506066037
 30
0.0
 40
3.875378875279264
100
AcDbArc
 50
44.95592676274281
 51
135.0440732372382
  0
ARC
  5
291
330
15
100
AcDbEntity
  8
4
100
AcDbCircle
 10
744.7195261491274
 20
1985.652506066037
 30
0.0
 40
3.875378875279244
100
AcDbArc
 50
44.95592676274281
 51
135.0440732372382
  0
LINE
  5
292
330
15
100
AcDbEntity
  8
4
100
AcDbLine
 10
761.1740088210322
 20
1989.527884941317
 30
0.0
 11
744.7195261491274
 21
1989.527884941317
 31
0.0
  0
ARC
  5
293
330
15
100
AcDbEntity
  8
4
100
AcDbCircle
 10
752.9467674850807
 20
1975.73214080614
 30
0.0
 40
13.7957441351769
100
AcDbArc
 50
66.57340249137208
 51
113.4265975086326
  0
LINE
  5
294
330
15
100
AcDbEntity
  8
4
100
AcDbLine
 10
741.9771123704763
 20
1981.527884941317
 30
0.0
 11
763.9164225996833
 21
1981.527884941317
 31
0.0
  0
LINE
  5
295
330
15
100
AcDbEntity
  8
4
100
AcDbLine
 10
741.9771123704763
 20
1978.527884941317
 30
0.0
 11
763.9164225996833
 21
1978.527884941317
 31
0.0
  0
LINE
  5
296
330
15
100
AcDbEntity
  8
L-CENTER
 48
2.0
100
AcDbLine
 10
1048.185666919491
 20
1993.128724821421
 30
0.0
 11
1048.185666919491
 21
1940.045190614281
 31
0.0
  0
LINE
  5
297
330
15
100
AcDbEntity
  8
4
100
AcDbLine
 10
1059.155322034093
 20
1978.527884941317
 30
0.0
 11
1059.155322034093
 21
1988.39070403069
 31
0.0
  0
LINE
  5
298
330
15
100
AcDbEntity
  8
4
100
AcDbLine
 10
1053.670494476792
 20
1988.39070403069
 30
0.0
 11
1053.670494476792
 21
1981.527884941317
 31
0.0
  0
LINE
  5
299
330
15
100
AcDbEntity
  8
4
100
AcDbLine
 10
1037.216011804887
 20
1988.39070403069
 30
0.0
 11
1037.216011804887
 21
1978.527884941317
 31
0.0
  0
LINE
  5
29A
330
15
100
AcDbEntity
  8
4
100
AcDbLine
 10
1042.70083936219
 20
1988.39070403069
 30
0.0
 11
1042.70083936219
 21
1981.527884941317
 31
0.0
  0
ARC
  5
29B
330
15
100
AcDbEntity
  8
4
100
AcDbCircle
 10
1056.412908255443
 20
1985.652506066038
 30
0.0
 40
3.875378875279264
100
AcDbArc
 50
44.95592676274281
 51
135.0440732372572
  0
ARC
  5
29C
330
15
100
AcDbEntity
  8
4
100
AcDbCircle
 10
1039.958425583538
 20
1985.652506066038
 30
0.0
 40
3.875378875279244
100
AcDbArc
 50
44.95592676274281
 51
135.0440732372572
  0
LINE
  5
29D
330
15
100
AcDbEntity
  8
4
100
AcDbLine
 10
1056.412908255443
 20
1989.527884941317
 30
0.0
 11
1039.958425583538
 21
1989.527884941317
 31
0.0
  0
ARC
  5
29E
330
15
100
AcDbEntity
  8
4
100
AcDbCircle
 10
1048.185666919491
 20
1975.73214080614
 30
0.0
 40
13.7957441351769
100
AcDbArc
 50
66.5734024913725
 51
113.4265975086275
  0
LINE
  5
29F
330
15
100
AcDbEntity
  8
4
100
AcDbLine
 10
1037.216011804887
 20
1981.527884941317
 30
0.0
 11
1059.155322034093
 21
1981.527884941317
 31
0.0
  0
LINE
  5
2A0
330
15
100
AcDbEntity
  8
4
100
AcDbLine
 10
1037.216011804887
 20
1978.527884941317
 30
0.0
 11
1059.155322034093
 21
1978.527884941317
 31
0.0
  0
LINE
  5
2A1
330
15
100
AcDbEntity
  8
4
100
AcDbLine
 10
971.0989717897014
 20
1978.527884941317
 30
0.0
 11
949.1596615604963
 21
1978.527884941317
 31
0.0
  0
LINE
  5
2A2
330
15
100
AcDbEntity
  8
4
100
AcDbLine
 10
971.0989717897014
 20
1981.527884941317
 30
0.0
 11
949.1596615604963
 21
1981.527884941317
 31
0.0
  0
ARC
  5
2A3
330
15
100
AcDbEntity
  8
4
100
AcDbCircle
 10
960.1293166750988
 20
1975.73214080614
 30
0.0
 40
13.7957441351769
100
AcDbArc
 50
66.57340249137208
 51
113.4265975086326
  0
LINE
  5
2A4
330
15
100
AcDbEntity
  8
4
100
AcDbLine
 10
951.9020753391455
 20
1989.527884941317
 30
0.0
 11
968.3565580110503
 21
1989.527884941317
 31
0.0
  0
LINE
  5
2A5
330
15
100
AcDbEntity
  8
4
100
AcDbLine
 10
971.0989717897014
 20
1988.390704030689
 30
0.0
 11
971.0989717897014
 21
1978.527884941317
 31
0.0
  0
ARC
  5
2A6
330
15
100
AcDbEntity
  8
4
100
AcDbCircle
 10
968.3565580110503
 20
1985.652506066037
 30
0.0
 40
3.875378875279244
100
AcDbArc
 50
44.95592676274281
 51
135.0440732372382
  0
LINE
  5
2A7
330
15
100
AcDbEntity
  8
4
100
AcDbLine
 10
965.6141442323992
 20
1988.390704030689
 30
0.0
 11
965.6141442323992
 21
1981.527884941317
 31
0.0
  0
LINE
  5
2A8
330
15
100
AcDbEntity
  8
4
100
AcDbLine
 10
949.1596615604963
 20
1978.527884941317
 30
0.0
 11
949.1596615604963
 21
1988.390704030689
 31
0.0
  0
ARC
  5
2A9
330
15
100
AcDbEntity
  8
4
100
AcDbCircle
 10
951.9020753391455
 20
1985.652506066037
 30
0.0
 40
3.875378875279264
100
AcDbArc
 50
44.95592676274281
 51
135.0440732372382
  0
LINE
  5
2AA
330
15
100
AcDbEntity
  8
4
100
AcDbLine
 10
954.6444891177966
 20
1988.390704030689
 30
0.0
 11
954.6444891177966
 21
1981.527884941317
 31
0.0
  0
LINE
  5
2AB
330
15
100
AcDbEntity
  8
L-CENTER
 48
2.0
100
AcDbLine
 10
960.1293166750988
 20
1993.128724821421
 30
0.0
 11
960.1293166750988
 21
1940.045190614281
 31
0.0
  0
LINE
  5
2AC
330
15
100
AcDbEntity
  8
4
100
AcDbLine
 10
1215.860072355289
 20
1988.390704030693
 30
0.0
 11
1215.860072355289
 21
1978.52788494132
 31
0.0
  0
LINE
  5
2AD
330
15
100
AcDbEntity
  8
4
100
AcDbLine
 10
1193.920762126083
 20
1978.527884941319
 30
0.0
 11
1193.920762126083
 21
1988.390704030692
 31
0.0
  0
LINE
  5
2AE
330
15
100
AcDbEntity
  8
4
100
AcDbLine
 10
1215.860072355289
 20
1978.52788494132
 30
0.0
 11
1193.920762126083
 21
1978.527884941319
 31
0.0
  0
LINE
  5
2AF
330
15
100
AcDbEntity
  8
4
100
AcDbLine
 10
1215.860072355289
 20
1981.52788494132
 30
0.0
 11
1193.920762126083
 21
1981.527884941319
 31
0.0
  0
ARC
  5
2B0
330
15
100
AcDbEntity
  8
4
100
AcDbCircle
 10
1204.890417240686
 20
1975.732140806142
 30
0.0
 40
13.7957441351769
100
AcDbArc
 50
66.57340249137758
 51
113.4265975086301
  0
LINE
  5
2B1
330
15
100
AcDbEntity
  8
4
100
AcDbLine
 10
1196.663175904733
 20
1989.527884941319
 30
0.0
 11
1213.117658576637
 21
1989.52788494132
 31
0.0
  0
ARC
  5
2B2
330
15
100
AcDbEntity
  8
4
100
AcDbCircle
 10
1213.117658576637
 20
1985.652506066041
 30
0.0
 40
3.875378875279244
100
AcDbArc
 50
44.95592676274281
 51
135.0440732372572
  0
ARC
  5
2B3
330
15
100
AcDbEntity
  8
4
100
AcDbCircle
 10
1196.663175904733
 20
1985.652506066041
 30
0.0
 40
3.875378875279264
100
AcDbArc
 50
44.95592676274281
 51
135.0440732372572
  0
LINE
  5
2B4
330
15
100
AcDbEntity
  8
4
100
AcDbLine
 10
1210.375244797986
 20
1988.390704030693
 30
0.0
 11
1210.375244797986
 21
1981.52788494132
 31
0.0
  0
LINE
  5
2B5
330
15
100
AcDbEntity
  8
4
100
AcDbLine
 10
1199.405589683384
 20
1988.390704030693
 30
0.0
 11
1199.405589683384
 21
1981.527884941319
 31
0.0
  0
LINE
  5
2B6
330
15
100
AcDbEntity
  8
L-CENTER
 48
2.0
100
AcDbLine
 10
1204.890417240685
 20
1993.128724821423
 30
0.0
 11
1204.890417240686
 21
1940.045190614283
 31
0.0
  0
LINE
  5
2B7
330
15
100
AcDbEntity
  8
4
100
AcDbLine
 10
741.9771123704763
 20
1604.427884941315
 30
0.0
 11
763.9164225996833
 21
1604.427884941315
 31
0.0
  0
LINE
  5
2B8
330
15
100
AcDbEntity
  8
4
100
AcDbLine
 10
741.9771123704763
 20
1601.427884941315
 30
0.0
 11
763.9164225996833
 21
1601.427884941315
 31
0.0
  0
ARC
  5
2B9
330
15
100
AcDbEntity
  8
4
100
AcDbCircle
 10
752.9467674850807
 20
1607.223629076492
 30
0.0
 40
13.7957441351769
100
AcDbArc
 50
246.5734024913674
 51
293.4265975086279
  0
LINE
  5
2BA
330
15
100
AcDbEntity
  8
4
100
AcDbLine
 10
761.1740088210322
 20
1593.427884941315
 30
0.0
 11
744.7195261491274
 21
1593.427884941315
 31
0.0
  0
LINE
  5
2BB
330
15
100
AcDbEntity
  8
4
100
AcDbLine
 10
741.9771123704763
 20
1594.565065851943
 30
0.0
 11
741.9771123704763
 21
1604.427884941315
 31
0.0
  0
ARC
  5
2BC
330
15
100
AcDbEntity
  8
4
100
AcDbCircle
 10
744.7195261491274
 20
1597.303263816595
 30
0.0
 40
3.875378875279244
100
AcDbArc
 50
224.9559267627618
 51
315.0440732372572
  0
LINE
  5
2BD
330
15
100
AcDbEntity
  8
4
100
AcDbLine
 10
747.4619399277785
 20
1594.565065851943
 30
0.0
 11
747.4619399277785
 21
1601.427884941315
 31
0.0
  0
LINE
  5
2BE
330
15
100
AcDbEntity
  8
4
100
AcDbLine
 10
763.9164225996833
 20
1604.427884941315
 30
0.0
 11
763.9164225996833
 21
1594.565065851943
 31
0.0
  0
ARC
  5
2BF
330
15
100
AcDbEntity
  8
4
100
AcDbCircle
 10
761.1740088210322
 20
1597.303263816595
 30
0.0
 40
3.875378875279264
100
AcDbArc
 50
224.9559267627618
 51
315.0440732372572
  0
LINE
  5
2C0
330
15
100
AcDbEntity
  8
4
100
AcDbLine
 10
758.4315950423811
 20
1594.565065851943
 30
0.0
 11
758.4315950423811
 21
1601.427884941315
 31
0.0
  0
LINE
  5
2C1
330
15
100
AcDbEntity
  8
4
100
AcDbLine
 10
949.1596615604963
 20
1604.427884941315
 30
0.0
 11
949.1596615604963
 21
1594.565065851943
 31
0.0
  0
LINE
  5
2C2
330
15
100
AcDbEntity
  8
4
100
AcDbLine
 10
971.0989717897014
 20
1594.565065851943
 30
0.0
 11
971.0989717897014
 21
1604.427884941315
 31
0.0
  0
LINE
  5
2C3
330
15
100
AcDbEntity
  8
4
100
AcDbLine
 10
971.0989717897014
 20
1604.427884941315
 30
0.0
 11
949.1596615604963
 21
1604.427884941315
 31
0.0
  0
LINE
  5
2C4
330
15
100
AcDbEntity
  8
4
100
AcDbLine
 10
954.6444891177966
 20
1594.565065851943
 30
0.0
 11
954.6444891177966
 21
1601.427884941315
 31
0.0
  0
ARC
  5
2C5
330
15
100
AcDbEntity
  8
4
100
AcDbCircle
 10
951.9020753391455
 20
1597.303263816595
 30
0.0
 40
3.875378875279264
100
AcDbArc
 50
224.9559267627618
 51
315.0440732372572
  0
LINE
  5
2C6
330
15
100
AcDbEntity
  8
4
100
AcDbLine
 10
965.6141442323992
 20
1594.565065851943
 30
0.0
 11
965.6141442323992
 21
1601.427884941315
 31
0.0
  0
ARC
  5
2C7
330
15
100
AcDbEntity
  8
4
100
AcDbCircle
 10
968.3565580110503
 20
1597.303263816595
 30
0.0
 40
3.875378875279244
100
AcDbArc
 50
224.9559267627618
 51
315.0440732372572
  0
LINE
  5
2C8
330
15
100
AcDbEntity
  8
4
100
AcDbLine
 10
951.9020753391455
 20
1593.427884941315
 30
0.0
 11
968.3565580110503
 21
1593.427884941315
 31
0.0
  0
ARC
  5
2C9
330
15
100
AcDbEntity
  8
4
100
AcDbCircle
 10
960.1293166750988
 20
1607.223629076492
 30
0.0
 40
13.7957441351769
100
AcDbArc
 50
246.5734024913674
 51
293.4265975086279
  0
LINE
  5
2CA
330
15
100
AcDbEntity
  8
4
100
AcDbLine
 10
971.0989717897014
 20
1601.427884941315
 30
0.0
 11
949.1596615604963
 21
1601.427884941315
 31
0.0
  0
LINE
  5
2CB
330
15
100
AcDbEntity
  8
L-CENTER
 48
2.0
100
AcDbLine
 10
960.1293166750988
 20
1589.827045061211
 30
0.0
 11
960.1293166750988
 21
1642.910579268351
 31
0.0
  0
LINE
  5
2CC
330
15
100
AcDbEntity
  8
L-CENTER
 48
2.0
100
AcDbLine
 10
752.9467674850807
 20
1589.827045061211
 30
0.0
 11
752.9467674850807
 21
1642.910579268351
 31
0.0
  0
LINE
  5
2CD
330
15
100
AcDbEntity
  8
4
100
AcDbLine
 10
1037.216011804887
 20
1594.565065851942
 30
0.0
 11
1037.216011804887
 21
1604.427884941315
 31
0.0
  0
LINE
  5
2CE
330
15
100
AcDbEntity
  8
4
100
AcDbLine
 10
1059.155322034093
 20
1604.427884941315
 30
0.0
 11
1059.155322034093
 21
1594.565065851942
 31
0.0
  0
LINE
  5
2CF
330
15
100
AcDbEntity
  8
4
100
AcDbLine
 10
1037.216011804887
 20
1604.427884941315
 30
0.0
 11
1059.155322034093
 21
1604.427884941315
 31
0.0
  0
LINE
  5
2D0
330
15
100
AcDbEntity
  8
4
100
AcDbLine
 10
1037.216011804887
 20
1601.427884941315
 30
0.0
 11
1059.155322034093
 21
1601.427884941315
 31
0.0
  0
ARC
  5
2D1
330
15
100
AcDbEntity
  8
4
100
AcDbCircle
 10
1048.185666919491
 20
1607.223629076492
 30
0.0
 40
13.7957441351769
100
AcDbArc
 50
246.5734024913725
 51
293.4265975086275
  0
LINE
  5
2D2
330
15
100
AcDbEntity
  8
4
100
AcDbLine
 10
1056.412908255443
 20
1593.427884941315
 30
0.0
 11
1039.958425583538
 21
1593.427884941315
 31
0.0
  0
ARC
  5
2D3
330
15
100
AcDbEntity
  8
4
100
AcDbCircle
 10
1039.958425583538
 20
1597.303263816594
 30
0.0
 40
3.875378875279244
100
AcDbArc
 50
224.9559267627428
 51
315.0440732372572
  0
ARC
  5
2D4
330
15
100
AcDbEntity
  8
4
100
AcDbCircle
 10
1056.412908255443
 20
1597.303263816594
 30
0.0
 40
3.875378875279264
100
AcDbArc
 50
224.9559267627428
 51
315.0440732372572
  0
LINE
  5
2D5
330
15
100
AcDbEntity
  8
4
100
AcDbLine
 10
1042.70083936219
 20
1594.565065851942
 30
0.0
 11
1042.70083936219
 21
1601.427884941315
 31
0.0
  0
LINE
  5
2D6
330
15
100
AcDbEntity
  8
4
100
AcDbLine
 10
1053.670494476792
 20
1594.565065851942
 30
0.0
 11
1053.670494476792
 21
1601.427884941315
 31
0.0
  0
LINE
  5
2D7
330
15
100
AcDbEntity
  8
L-CENTER
 48
2.0
100
AcDbLine
 10
1048.185666919491
 20
1589.72704506121
 30
0.0
 11
1048.185666919491
 21
1642.810579268351
 31
0.0
  0
LINE
  5
2D8
330
15
100
AcDbEntity
  8
4
100
AcDbLine
 10
1193.920762126083
 20
1604.427884941313
 30
0.0
 11
1193.920762126083
 21
1594.56506585194
 31
0.0
  0
LINE
  5
2D9
330
15
100
AcDbEntity
  8
4
100
AcDbLine
 10
1215.860072355289
 20
1594.565065851939
 30
0.0
 11
1215.860072355289
 21
1604.427884941312
 31
0.0
  0
LINE
  5
2DA
330
15
100
AcDbEntity
  8
4
100
AcDbLine
 10
1215.860072355289
 20
1604.427884941312
 30
0.0
 11
1193.920762126083
 21
1604.427884941313
 31
0.0
  0
LINE
  5
2DB
330
15
100
AcDbEntity
  8
4
100
AcDbLine
 10
1199.405589683384
 20
1594.565065851939
 30
0.0
 11
1199.405589683384
 21
1601.427884941313
 31
0.0
  0
LINE
  5
2DC
330
15
100
AcDbEntity
  8
4
100
AcDbLine
 10
1210.375244797986
 20
1594.565065851939
 30
0.0
 11
1210.375244797986
 21
1601.427884941312
 31
0.0
  0
ARC
  5
2DD
330
15
100
AcDbEntity
  8
4
100
AcDbCircle
 10
1196.663175904733
 20
1597.303263816591
 30
0.0
 40
3.875378875279264
100
AcDbArc
 50
224.9559267627428
 51
315.0440732372572
  0
ARC
  5
2DE
330
15
100
AcDbEntity
  8
4
100
AcDbCircle
 10
1213.117658576637
 20
1597.303263816591
 30
0.0
 40
3.875378875279244
100
AcDbArc
 50
224.9559267627428
 51
315.0440732372572
  0
LINE
  5
2DF
330
15
100
AcDbEntity
  8
4
100
AcDbLine
 10
1196.663175904733
 20
1593.427884941313
 30
0.0
 11
1213.117658576637
 21
1593.427884941312
 31
0.0
  0
ARC
  5
2E0
330
15
100
AcDbEntity
  8
4
100
AcDbCircle
 10
1204.890417240686
 20
1607.22362907649
 30
0.0
 40
13.7957441351769
100
AcDbArc
 50
246.5734024913699
 51
293.4265975086224
  0
LINE
  5
2E1
330
15
100
AcDbEntity
  8
4
100
AcDbLine
 10
1215.860072355289
 20
1601.427884941312
 30
0.0
 11
1193.920762126083
 21
1601.427884941313
 31
0.0
  0
LINE
  5
2E2
330
15
100
AcDbEntity
  8
L-CENTER
 48
2.0
100
AcDbLine
 10
1204.890417240685
 20
1589.827045061209
 30
0.0
 11
1204.890417240686
 21
1642.910579268349
 31
0.0
  0
CIRCLE
  5
2E3
330
15
100
AcDbEntity
  8
4
100
AcDbCircle
 10
2330.833608887557
 20
311.0682780318984
 30
0.0
 40
12.0
  0
LINE
  5
2E4
330
15
100
AcDbEntity
  8
4
100
AcDbLine
 10
2317.449348027753
 20
314.6545799205705
 30
0.0
 11
2321.035649916425
 21
301.2703190607658
 31
0.0
  0
LINE
  5
2E5
330
15
100
AcDbEntity
  8
4
100
AcDbLine
 10
2344.217869747363
 20
307.4819761432263
 30
0.0
 11
2340.631567858691
 21
320.8662370030311
 31
0.0
  0
LINE
  5
2E6
330
15
100
AcDbEntity
  8
4
100
AcDbLine
 10
2334.419910776231
 20
297.6840171720928
 30
0.0
 11
2344.217869747363
 21
307.4819761432263
 31
0.0
  0
LINE
  5
2E7
330
15
100
AcDbEntity
  8
4
100
AcDbLine
 10
2321.035649916425
 20
301.2703190607658
 30
0.0
 11
2334.419910776231
 21
297.6840171720928
 31
0.0
  0
LINE
  5
2E8
330
15
100
AcDbEntity
  8
4
100
AcDbLine
 10
2340.631567858691
 20
320.8662370030311
 30
0.0
 11
2327.247306998886
 21
324.4525388917032
 31
0.0
  0
LINE
  5
2E9
330
15
100
AcDbEntity
  8
4
100
AcDbLine
 10
2327.247306998886
 20
324.4525388917032
 30
0.0
 11
2317.449348027753
 21
314.6545799205705
 31
0.0
  0
CIRCLE
  5
2EA
330
15
100
AcDbEntity
  8
4
100
AcDbCircle
 10
2454.577295595204
 20
187.3245913242531
 30
0.0
 40
12.0
  0
LINE
  5
2EB
330
15
100
AcDbEntity
  8
4
100
AcDbLine
 10
2441.1930347354
 20
190.9108932129252
 30
0.0
 11
2444.779336624072
 21
177.5266323531205
 31
0.0
  0
LINE
  5
2EC
330
15
100
AcDbEntity
  8
4
100
AcDbLine
 10
2467.961556455009
 20
183.738289435581
 30
0.0
 11
2464.375254566337
 21
197.1225502953853
 31
0.0
  0
LINE
  5
2ED
330
15
100
AcDbEntity
  8
4
100
AcDbLine
 10
2458.163597483876
 20
173.9403304644475
 30
0.0
 11
2467.961556455009
 21
183.738289435581
 31
0.0
  0
LINE
  5
2EE
330
15
100
AcDbEntity
  8
4
100
AcDbLine
 10
2444.779336624072
 20
177.5266323531205
 30
0.0
 11
2458.163597483876
 21
173.9403304644475
 31
0.0
  0
LINE
  5
2EF
330
15
100
AcDbEntity
  8
4
100
AcDbLine
 10
2464.375254566337
 20
197.1225502953853
 30
0.0
 11
2450.990993706532
 21
200.7088521840574
 31
0.0
  0
LINE
  5
2F0
330
15
100
AcDbEntity
  8
4
100
AcDbLine
 10
2450.990993706532
 20
200.7088521840574
 30
0.0
 11
2441.1930347354
 21
190.9108932129252
 31
0.0
  0
LINE
  5
2F1
330
15
100
AcDbEntity
  8
4
100
AcDbLine
 10
2344.217866247364
 20
190.910896712925
 30
0.0
 11
2334.41990727623
 21
200.7088556840572
 31
0.0
  0
LINE
  5
2F2
330
15
100
AcDbEntity
  8
4
100
AcDbLine
 10
2334.41990727623
 20
200.7088556840572
 30
0.0
 11
2321.035646416426
 21
197.1225537953851
 31
0.0
  0
LINE
  5
2F3
330
15
100
AcDbEntity
  8
4
100
AcDbLine
 10
2317.449344527754
 20
183.7382929355804
 30
0.0
 11
2327.247303498886
 21
173.9403339644477
 31
0.0
  0
CIRCLE
  5
2F4
330
15
100
AcDbEntity
  8
4
100
AcDbCircle
 10
2330.833605387558
 20
187.3245948242525
 30
0.0
 40
12.0
  0
LINE
  5
2F5
330
15
100
AcDbEntity
  8
4
100
AcDbLine
 10
2321.035646416426
 20
197.1225537953851
 30
0.0
 11
2317.449344527754
 21
183.7382929355804
 31
0.0
  0
LINE
  5
2F6
330
15
100
AcDbEntity
  8
4
100
AcDbLine
 10
2340.631564358691
 20
177.5266358531198
 30
0.0
 11
2344.217866247364
 21
190.910896712925
 31
0.0
  0
LINE
  5
2F7
330
15
100
AcDbEntity
  8
4
100
AcDbLine
 10
2327.247303498886
 20
173.9403339644477
 30
0.0
 11
2340.631564358691
 21
177.5266358531198
 31
0.0
  0
LINE
  5
2F8
330
15
100
AcDbEntity
  8
4
100
AcDbLine
 10
2467.961555255248
 20
314.6545811203318
 30
0.0
 11
2458.163596284115
 21
324.452540091464
 31
0.0
  0
LINE
  5
2F9
330
15
100
AcDbEntity
  8
4
100
AcDbLine
 10
2458.163596284115
 20
324.452540091464
 30
0.0
 11
2444.77933542431
 21
320.8662382027919
 31
0.0
  0
LINE
  5
2FA
330
15
100
AcDbEntity
  8
4
100
AcDbLine
 10
2441.193033535638
 20
307.4819773429872
 30
0.0
 11
2450.990992506771
 21
297.6840183718546
 31
0.0
  0
CIRCLE
  5
2FB
330
15
100
AcDbEntity
  8
4
100
AcDbCircle
 10
2454.577294395443
 20
311.0682792316593
 30
0.0
 40
12.0
  0
LINE
  5
2FC
330
15
100
AcDbEntity
  8
4
100
AcDbLine
 10
2444.77933542431
 20
320.8662382027919
 30
0.0
 11
2441.193033535638
 21
307.4819773429872
 31
0.0
  0
LINE
  5
2FD
330
15
100
AcDbEntity
  8
4
100
AcDbLine
 10
2464.375253366576
 20
301.2703202605267
 30
0.0
 11
2467.961555255248
 21
314.6545811203318
 31
0.0
  0
LINE
  5
2FE
330
15
100
AcDbEntity
  8
4
100
AcDbLine
 10
2450.990992506771
 20
297.6840183718546
 30
0.0
 11
2464.375253366576
 21
301.2703202605267
 31
0.0
  0
LINE
  5
2FF
330
15
100
AcDbEntity
  8
L-CENTER
 48
2.0
100
AcDbLine
 10
1424.774524515909
 20
311.0682780318984
 30
0.0
 11
1365.486372367599
 21
311.0682780318984
 31
0.0
  0
LINE
  5
300
330
15
100
AcDbEntity
  8
4
100
AcDbLine
 10
1419.06756917577
 20
304.1400748016231
 30
0.0
 11
1410.428041080089
 21
304.1400748016231
 31
0.0
  0
LINE
  5
301
330
15
100
AcDbEntity
  8
4
100
AcDbLine
 10
1406.428041080089
 20
297.2118715713477
 30
0.0
 11
1419.06756917577
 21
297.2118715713477
 31
0.0
  0
LINE
  5
302
330
15
100
AcDbEntity
  8
4
100
AcDbLine
 10
1419.06756917577
 20
317.9964812621738
 30
0.0
 11
1410.428041080089
 21
317.9964812621738
 31
0.0
  0
LINE
  5
303
330
15
100
AcDbEntity
  8
4
100
AcDbLine
 10
1419.06756917577
 20
324.9246844924501
 30
0.0
 11
1406.428041080089
 21
324.9246844924501
 31
0.0
  0
LINE
  5
304
330
15
100
AcDbEntity
  8
4
100
AcDbLine
 10
1410.428041080089
 20
324.9246844924501
 30
0.0
 11
1410.428041080089
 21
297.2118715713477
 31
0.0
  0
LINE
  5
305
330
15
100
AcDbEntity
  8
4
100
AcDbLine
 10
1406.428041080089
 20
324.9246844924501
 30
0.0
 11
1406.428041080089
 21
297.2118715713477
 31
0.0
  0
ARC
  5
306
330
15
100
AcDbEntity
  8
4
100
AcDbCircle
 10
1415.337570722536
 20
300.675973186485
 30
0.0
 40
5.090470357553002
100
AcDbArc
 50
317.1167115949141
 51
42.88328840508593
  0
ARC
  5
307
330
15
100
AcDbEntity
  8
4
100
AcDbCircle
 10
1415.337570722536
 20
321.4605828773119
 30
0.0
 40
5.090470357553012
100
AcDbArc
 50
317.1167115949141
 51
42.88328840508593
  0
ARC
  5
308
330
15
100
AcDbEntity
  8
4
100
AcDbCircle
 10
1402.106867506356
 20
311.0682780318984
 30
0.0
 40
18.32117357373317
100
AcDbArc
 50
337.7806898294696
 51
22.21931017052721
  0
LINE
  5
309
330
15
100
AcDbEntity
  8
4
100
AcDbLine
 10
1420.428041080089
 20
300.675973186485
 30
0.0
 11
1420.428041080089
 21
321.4605828773119
 31
0.0
  0
ARC
  5
30A
330
15
100
AcDbEntity
  8
4
100
AcDbCircle
 10
1402.106867506357
 20
187.3245913242522
 30
0.0
 40
18.32117357373317
100
AcDbArc
 50
337.7806898294712
 51
22.21931017052882
  0
ARC
  5
30B
330
15
100
AcDbEntity
  8
4
100
AcDbCircle
 10
1415.337570722538
 20
176.9322864788387
 30
0.0
 40
5.090470357553012
100
AcDbArc
 50
317.1167115949141
 51
42.88328840509315
  0
LINE
  5
30C
330
15
100
AcDbEntity
  8
4
100
AcDbLine
 10
1419.067569175771
 20
173.4681848637006
 30
0.0
 11
1406.428041080091
 21
173.4681848637006
 31
0.0
  0
LINE
  5
30D
330
15
100
AcDbEntity
  8
4
100
AcDbLine
 10
1419.067569175771
 20
180.3963880939768
 30
0.0
 11
1410.428041080091
 21
180.3963880939768
 31
0.0
  0
LINE
  5
30E
330
15
100
AcDbEntity
  8
4
100
AcDbLine
 10
1419.067569175771
 20
194.2527945545276
 30
0.0
 11
1410.42804108009
 21
194.2527945545276
 31
0.0
  0
LINE
  5
30F
330
15
100
AcDbEntity
  8
4
100
AcDbLine
 10
1420.42804108009
 20
197.7168961696657
 30
0.0
 11
1420.428041080091
 21
176.9322864788387
 31
0.0
  0
ARC
  5
310
330
15
100
AcDbEntity
  8
4
100
AcDbCircle
 10
1415.337570722537
 20
197.7168961696657
 30
0.0
 40
5.090470357553002
100
AcDbArc
 50
317.1167115949141
 51
42.88328840509141
  0
LINE
  5
311
330
15
100
AcDbEntity
  8
4
100
AcDbLine
 10
1406.428041080091
 20
173.4681848637006
 30
0.0
 11
1406.42804108009
 21
201.1809977848029
 31
0.0
  0
LINE
  5
312
330
15
100
AcDbEntity
  8
4
100
AcDbLine
 10
1410.428041080091
 20
173.4681848637006
 30
0.0
 11
1410.42804108009
 21
201.1809977848029
 31
0.0
  0
LINE
  5
313
330
15
100
AcDbEntity
  8
4
100
AcDbLine
 10
1406.42804108009
 20
201.1809977848029
 30
0.0
 11
1419.067569175771
 21
201.1809977848029
 31
0.0
  0
LINE
  5
314
330
15
100
AcDbEntity
  8
4
100
AcDbLine
 10
1407.42804008009
 20
204.1964306780756
 30
0.0
 11
1406.428041080089
 21
204.1964306780756
 31
0.0
  0
LINE
  5
315
330
15
100
AcDbEntity
  8
4
100
AcDbLine
 10
547.8280430800884
 20
201.1809977848029
 30
0.0
 11
535.188514984408
 21
201.1809977848029
 31
0.0
  0
LINE
  5
316
330
15
100
AcDbEntity
  8
4
100
AcDbLine
 10
543.8280430800879
 20
173.4681848637006
 30
0.0
 11
543.8280430800884
 21
201.1809977848029
 31
0.0
  0
LINE
  5
317
330
15
100
AcDbEntity
  8
4
100
AcDbLine
 10
547.8280430800879
 20
173.4681848637006
 30
0.0
 11
547.8280430800884
 21
201.1809977848029
 31
0.0
  0
ARC
  5
318
330
15
100
AcDbEntity
  8
4
100
AcDbCircle
 10
538.9185134376418
 20
197.7168961696657
 30
0.0
 40
5.090470357553002
100
AcDbArc
 50
137.1167115949077
 51
222.8832884050859
  0
LINE
  5
319
330
15
100
AcDbEntity
  8
4
100
AcDbLine
 10
533.8280430800884
 20
197.7168961696657
 30
0.0
 11
533.8280430800879
 21
176.9322864788387
 31
0.0
  0
LINE
  5
31A
330
15
100
AcDbEntity
  8
4
100
AcDbLine
 10
535.188514984408
 20
194.2527945545276
 30
0.0
 11
543.8280430800884
 21
194.2527945545276
 31
0.0
  0
LINE
  5
31B
330
15
100
AcDbEntity
  8
4
100
AcDbLine
 10
535.1885149844076
 20
180.3963880939768
 30
0.0
 11
543.8280430800879
 21
180.3963880939768
 31
0.0
  0
LINE
  5
31C
330
15
100
AcDbEntity
  8
4
100
AcDbLine
 10
535.1885149844076
 20
173.4681848637006
 30
0.0
 11
547.8280430800879
 21
173.4681848637006
 31
0.0
  0
ARC
  5
31D
330
15
100
AcDbEntity
  8
4
100
AcDbCircle
 10
538.9185134376413
 20
176.9322864788387
 30
0.0
 40
5.090470357553012
100
AcDbArc
 50
137.1167115949141
 51
222.8832884050859
  0
ARC
  5
31E
330
15
100
AcDbEntity
  8
4
100
AcDbCircle
 10
552.1492166538211
 20
187.3245913242522
 30
0.0
 40
18.32117357373317
100
AcDbArc
 50
157.7806898294696
 51
202.2193101705288
  0
LINE
  5
31F
330
15
100
AcDbEntity
  8
4
100
AcDbLine
 10
533.8280430800897
 20
300.675973186485
 30
0.0
 11
533.8280430800897
 21
321.4605828773119
 31
0.0
  0
ARC
  5
320
330
15
100
AcDbEntity
  8
4
100
AcDbCircle
 10
552.1492166538229
 20
311.0682780318984
 30
0.0
 40
18.32117357373317
100
AcDbArc
 50
157.7806898294712
 51
202.2193101705304
  0
ARC
  5
321
330
15
100
AcDbEntity
  8
4
100
AcDbCircle
 10
538.9185134376431
 20
321.4605828773119
 30
0.0
 40
5.090470357553012
100
AcDbArc
 50
137.1167115949141
 51
222.8832884050859
  0
ARC
  5
322
330
15
100
AcDbEntity
  8
4
100
AcDbCircle
 10
538.9185134376431
 20
300.675973186485
 30
0.0
 40
5.090470357553002
100
AcDbArc
 50
137.1167115949141
 51
222.8832884050859
  0
LINE
  5
323
330
15
100
AcDbEntity
  8
4
100
AcDbLine
 10
547.8280430800897
 20
324.9246844924501
 30
0.0
 11
547.8280430800897
 21
297.2118715713477
 31
0.0
  0
LINE
  5
324
330
15
100
AcDbEntity
  8
4
100
AcDbLine
 10
543.8280430800897
 20
324.9246844924501
 30
0.0
 11
543.8280430800897
 21
297.2118715713477
 31
0.0
  0
LINE
  5
325
330
15
100
AcDbEntity
  8
4
100
AcDbLine
 10
535.1885149844094
 20
324.9246844924501
 30
0.0
 11
547.8280430800897
 21
324.9246844924501
 31
0.0
  0
LINE
  5
326
330
15
100
AcDbEntity
  8
4
100
AcDbLine
 10
535.1885149844094
 20
317.9964812621738
 30
0.0
 11
543.8280430800897
 21
317.9964812621738
 31
0.0
  0
LINE
  5
327
330
15
100
AcDbEntity
  8
4
100
AcDbLine
 10
547.8280430800897
 20
297.2118715713477
 30
0.0
 11
535.1885149844094
 21
297.2118715713477
 31
0.0
  0
LINE
  5
328
330
15
100
AcDbEntity
  8
4
100
AcDbLine
 10
535.1885149844094
 20
304.1400748016231
 30
0.0
 11
543.8280430800897
 21
304.1400748016231
 31
0.0
  0
LINE
  5
329
330
15
100
AcDbEntity
  8
4
100
AcDbLine
 10
1406.42804108009
 20
1685.312448048044
 30
0.0
 11
1419.067569175771
 21
1685.312448048044
 31
0.0
  0
LINE
  5
32A
330
15
100
AcDbEntity
  8
4
100
AcDbLine
 10
1410.428041080091
 20
1657.59963512694
 30
0.0
 11
1410.42804108009
 21
1685.312448048044
 31
0.0
  0
LINE
  5
32B
330
15
100
AcDbEntity
  8
4
100
AcDbLine
 10
1406.428041080091
 20
1657.59963512694
 30
0.0
 11
1406.42804108009
 21
1685.312448048044
 31
0.0
  0
ARC
  5
32C
330
15
100
AcDbEntity
  8
4
100
AcDbCircle
 10
1415.337570722538
 20
1681.848346432906
 30
0.0
 40
5.090470357553002
100
AcDbArc
 50
317.1167115949086
 51
42.88328840509141
  0
LINE
  5
32D
330
15
100
AcDbEntity
  8
4
100
AcDbLine
 10
1420.42804108009
 20
1681.848346432906
 30
0.0
 11
1420.428041080091
 21
1661.063736742079
 31
0.0
  0
LINE
  5
32E
330
15
100
AcDbEntity
  8
4
100
AcDbLine
 10
1419.067569175771
 20
1678.384244817767
 30
0.0
 11
1410.42804108009
 21
1678.384244817767
 31
0.0
  0
LINE
  5
32F
330
15
100
AcDbEntity
  8
4
100
AcDbLine
 10
1419.067569175771
 20
1664.527838357217
 30
0.0
 11
1410.428041080091
 21
1664.527838357217
 31
0.0
  0
LINE
  5
330
330
15
100
AcDbEntity
  8
4
100
AcDbLine
 10
1419.067569175771
 20
1657.59963512694
 30
0.0
 11
1406.428041080091
 21
1657.59963512694
 31
0.0
  0
ARC
  5
331
330
15
100
AcDbEntity
  8
4
100
AcDbCircle
 10
1415.337570722538
 20
1661.063736742079
 30
0.0
 40
5.090470357553012
100
AcDbArc
 50
317.1167115949213
 51
42.88328840509141
  0
ARC
  5
332
330
15
100
AcDbEntity
  8
4
100
AcDbCircle
 10
1402.106867506357
 20
1671.456041587493
 30
0.0
 40
18.32117357373317
100
AcDbArc
 50
337.7806898294712
 51
22.2193101705259
  0
LINE
  5
333
330
15
100
AcDbEntity
  8
4
100
AcDbLine
 10
1420.428041080089
 20
1784.807423449725
 30
0.0
 11
1420.428041080089
 21
1805.592033140552
 31
0.0
  0
ARC
  5
334
330
15
100
AcDbEntity
  8
4
100
AcDbCircle
 10
1402.106867506356
 20
1795.199728295139
 30
0.0
 40
18.32117357373317
100
AcDbArc
 50
337.7806898294712
 51
22.21931017052882
  0
ARC
  5
335
330
15
100
AcDbEntity
  8
4
100
AcDbCircle
 10
1415.337570722536
 20
1805.592033140552
 30
0.0
 40
5.090470357553012
100
AcDbArc
 50
317.1167115949086
 51
42.88328840509141
  0
ARC
  5
336
330
15
100
AcDbEntity
  8
4
100
AcDbCircle
 10
1415.337570722536
 20
1784.807423449725
 30
0.0
 40
5.090470357553002
100
AcDbArc
 50
317.1167115949086
 51
42.88328840509141
  0
LINE
  5
337
330
15
100
AcDbEntity
  8
4
100
AcDbLine
 10
1406.428041080089
 20
1809.05613475569
 30
0.0
 11
1406.428041080089
 21
1781.343321834588
 31
0.0
  0
LINE
  5
338
330
15
100
AcDbEntity
  8
4
100
AcDbLine
 10
1410.428041080089
 20
1809.05613475569
 30
0.0
 11
1410.428041080089
 21
1781.343321834588
 31
0.0
  0
LINE
  5
339
330
15
100
AcDbEntity
  8
4
100
AcDbLine
 10
1419.06756917577
 20
1809.05613475569
 30
0.0
 11
1406.428041080089
 21
1809.05613475569
 31
0.0
  0
LINE
  5
33A
330
15
100
AcDbEntity
  8
4
100
AcDbLine
 10
1419.06756917577
 20
1802.127931525414
 30
0.0
 11
1410.428041080089
 21
1802.127931525414
 31
0.0
  0
LINE
  5
33B
330
15
100
AcDbEntity
  8
4
100
AcDbLine
 10
1406.428041080089
 20
1781.343321834588
 30
0.0
 11
1419.06756917577
 21
1781.343321834588
 31
0.0
  0
LINE
  5
33C
330
15
100
AcDbEntity
  8
4
100
AcDbLine
 10
1419.06756917577
 20
1788.271525064863
 30
0.0
 11
1410.428041080089
 21
1788.271525064863
 31
0.0
  0
ARC
  5
33D
330
15
100
AcDbEntity
  8
4
100
AcDbCircle
 10
552.1492166538216
 20
1671.456041587493
 30
0.0
 40
18.32117357373317
100
AcDbArc
 50
157.7806898294711
 51
202.2193101705288
  0
ARC
  5
33E
330
15
100
AcDbEntity
  8
4
100
AcDbCircle
 10
538.9185134376413
 20
1661.063736742079
 30
0.0
 40
5.090470357553012
100
AcDbArc
 50
137.1167115949077
 51
222.8832884050787
  0
LINE
  5
33F
330
15
100
AcDbEntity
  8
4
100
AcDbLine
 10
535.1885149844076
 20
1657.59963512694
 30
0.0
 11
547.8280430800879
 21
1657.59963512694
 31
0.0
  0
LINE
  5
340
330
15
100
AcDbEntity
  8
4
100
AcDbLine
 10
535.1885149844076
 20
1664.527838357217
 30
0.0
 11
543.8280430800879
 21
1664.527838357217
 31
0.0
  0
LINE
  5
341
330
15
100
AcDbEntity
  8
4
100
AcDbLine
 10
535.188514984408
 20
1678.384244817767
 30
0.0
 11
543.8280430800884
 21
1678.384244817767
 31
0.0
  0
LINE
  5
342
330
15
100
AcDbEntity
  8
4
100
AcDbLine
 10
533.8280430800884
 20
1681.848346432906
 30
0.0
 11
533.8280430800879
 21
1661.063736742079
 31
0.0
  0
ARC
  5
343
330
15
100
AcDbEntity
  8
4
100
AcDbCircle
 10
538.9185134376418
 20
1681.848346432906
 30
0.0
 40
5.090470357553002
100
AcDbArc
 50
137.1167115949077
 51
222.8832884050795
  0
LINE
  5
344
330
15
100
AcDbEntity
  8
4
100
AcDbLine
 10
547.8280430800879
 20
1657.59963512694
 30
0.0
 11
547.8280430800884
 21
1685.312448048044
 31
0.0
  0
LINE
  5
345
330
15
100
AcDbEntity
  8
4
100
AcDbLine
 10
543.8280430800879
 20
1657.59963512694
 30
0.0
 11
543.8280430800884
 21
1685.312448048044
 31
0.0
  0
LINE
  5
346
330
15
100
AcDbEntity
  8
4
100
AcDbLine
 10
547.8280430800884
 20
1685.312448048044
 30
0.0
 11
535.188514984408
 21
1685.312448048044
 31
0.0
  0
LINE
  5
347
330
15
100
AcDbEntity
  8
4
100
AcDbLine
 10
535.1885149844094
 20
1788.271525064863
 30
0.0
 11
543.8280430800897
 21
1788.271525064863
 31
0.0
  0
LINE
  5
348
330
15
100
AcDbEntity
  8
4
100
AcDbLine
 10
547.8280430800897
 20
1781.343321834588
 30
0.0
 11
535.1885149844094
 21
1781.343321834588
 31
0.0
  0
LINE
  5
349
330
15
100
AcDbEntity
  8
4
100
AcDbLine
 10
535.1885149844094
 20
1802.127931525414
 30
0.0
 11
543.8280430800897
 21
1802.127931525414
 31
0.0
  0
LINE
  5
34A
330
15
100
AcDbEntity
  8
4
100
AcDbLine
 10
535.1885149844094
 20
1809.05613475569
 30
0.0
 11
547.8280430800897
 21
1809.05613475569
 31
0.0
  0
LINE
  5
34B
330
15
100
AcDbEntity
  8
4
100
AcDbLine
 10
543.8280430800897
 20
1809.05613475569
 30
0.0
 11
543.8280430800897
 21
1781.343321834588
 31
0.0
  0
LINE
  5
34C
330
15
100
AcDbEntity
  8
4
100
AcDbLine
 10
547.8280430800897
 20
1809.05613475569
 30
0.0
 11
547.8280430800897
 21
1781.343321834588
 31
0.0
  0
ARC
  5
34D
330
15
100
AcDbEntity
  8
4
100
AcDbCircle
 10
538.9185134376431
 20
1784.807423449725
 30
0.0
 40
5.090470357553002
100
AcDbArc
 50
137.1167115949077
 51
222.8832884050923
  0
ARC
  5
34E
330
15
100
AcDbEntity
  8
4
100
AcDbCircle
 10
538.9185134376431
 20
1805.592033140552
 30
0.0
 40
5.090470357553012
100
AcDbArc
 50
137.1167115949077
 51
222.8832884050923
  0
ARC
  5
34F
330
15
100
AcDbEntity
  8
4
100
AcDbCircle
 10
552.1492166538229
 20
1795.199728295139
 30
0.0
 40
18.32117357373317
100
AcDbArc
 50
157.7806898294712
 51
202.2193101705288
  0
LINE
  5
350
330
15
100
AcDbEntity
  8
4
100
AcDbLine
 10
533.8280430800897
 20
1784.807423449725
 30
0.0
 11
533.8280430800897
 21
1805.592033140552
 31
0.0
  0
LINE
  5
351
330
15
100
AcDbEntity
  8
4
100
AcDbLine
 10
2260.805448241381
 20
588.2267795634721
 30
0.0
 11
2260.805448241381
 21
610.1660897926781
 31
0.0
  0
ARC
  5
352
330
15
100
AcDbEntity
  8
4
100
AcDbCircle
 10
2266.601192376558
 20
599.1964346780755
 30
0.0
 40
13.7957441351769
100
AcDbArc
 50
156.573402491369
 51
184.8215478413528
  0
LINE
  5
353
330
15
100
AcDbEntity
  8
4
100
AcDbLine
 10
2252.805448241381
 20
607.4236760140279
 30
0.0
 11
2252.805448241381
 21
590.9691933421232
 31
0.0
  0
LINE
  5
354
330
15
100
AcDbEntity
  8
4
100
AcDbLine
 10
2263.805448241381
 20
588.2267795634721
 30
0.0
 11
2263.805448241381
 21
610.1660897926781
 31
0.0
  0
LINE
  5
355
330
15
100
AcDbEntity
  8
4
100
AcDbLine
 10
2253.942629152008
 20
604.6812622353768
 30
0.0
 11
2260.805448241381
 21
604.6812622353768
 31
0.0
  0
LINE
  5
356
330
15
100
AcDbEntity
  8
4
100
AcDbLine
 10
2263.805448241381
 20
610.1660897926781
 30
0.0
 11
2253.942629152008
 21
610.1660897926781
 31
0.0
  0
LINE
  5
357
330
15
100
AcDbEntity
  8
L-CENTER
 48
2.0
100
AcDbLine
 10
2249.204608361277
 20
599.1964346780755
 30
0.0
 11
2302.288142568417
 21
599.1964346780755
 31
0.0
  0
ARC
  5
358
330
15
100
AcDbEntity
  8
4
100
AcDbCircle
 10
2256.68082711666
 20
607.4236760140279
 30
0.0
 40
3.875378875279264
100
AcDbArc
 50
134.9559267627452
 51
225.0440732372548
  0
LINE
  5
359
330
15
100
AcDbEntity
  8
4
100
AcDbLine
 10
2260.805448241381
 20
578.2267825634717
 30
0.0
 11
2260.805448241381
 21
600.1660927926778
 31
0.0
  0
ARC
  5
35A
330
15
100
AcDbEntity
  8
4
100
AcDbCircle
 10
2266.601192376558
 20
589.1964376780752
 30
0.0
 40
13.7957441351769
100
AcDbArc
 50
156.5734024913708
 51
203.4265975086292
  0
LINE
  5
35B
330
15
100
AcDbEntity
  8
4
100
AcDbLine
 10
2252.805448241381
 20
597.4236790140276
 30
0.0
 11
2252.805448241381
 21
580.9691963421228
 31
0.0
  0
LINE
  5
35C
330
15
100
AcDbEntity
  8
4
100
AcDbLine
 10
2263.805448241381
 20
578.2267825634717
 30
0.0
 11
2263.805448241381
 21
600.1660927926778
 31
0.0
  0
LINE
  5
35D
330
15
100
AcDbEntity
  8
4
100
AcDbLine
 10
2253.942629152008
 20
583.7116101207739
 30
0.0
 11
2260.805448241381
 21
583.7116101207739
 31
0.0
  0
LINE
  5
35E
330
15
100
AcDbEntity
  8
4
100
AcDbLine
 10
2253.942629152008
 20
578.2267825634717
 30
0.0
 11
2263.805448241381
 21
578.2267825634717
 31
0.0
  0
ARC
  5
35F
330
15
100
AcDbEntity
  8
4
100
AcDbCircle
 10
2256.68082711666
 20
580.9691963421228
 30
0.0
 40
3.875378875279244
100
AcDbArc
 50
134.9559267627452
 51
225.0440732372548
  0
LINE
  5
360
330
15
100
AcDbEntity
  8
4
100
AcDbLine
 10
2253.942629152008
 20
594.6812652353765
 30
0.0
 11
2260.805448241381
 21
594.6812652353765
 31
0.0
  0
LINE
  5
361
330
15
100
AcDbEntity
  8
4
100
AcDbLine
 10
2263.805448241381
 20
600.1660927926778
 30
0.0
 11
2253.942629152008
 21
600.1660927926778
 31
0.0
  0
LINE
  5
362
330
15
100
AcDbEntity
  8
L-CENTER
 48
2.0
100
AcDbLine
 10
2249.204608361277
 20
589.1964376780752
 30
0.0
 11
2302.288142568417
 21
589.1964376780752
 31
0.0
  0
ARC
  5
363
330
15
100
AcDbEntity
  8
4
100
AcDbCircle
 10
2256.68082711666
 20
597.4236790140276
 30
0.0
 40
3.875378875279264
100
AcDbArc
 50
134.9559267627452
 51
225.0440732372548
  0
LINE
  5
364
330
15
100
AcDbEntity
  8
4
100
AcDbLine
 10
2260.805448241381
 20
528.227082724165
 30
0.0
 11
2260.805448241381
 21
550.1663929533711
 31
0.0
  0
LINE
  5
365
330
15
100
AcDbEntity
  8
4
100
AcDbLine
 10
2252.805448241381
 20
535.9693462925093
 30
0.0
 11
2252.805448241382
 21
530.9694965028161
 31
0.0
  0
LINE
  5
366
330
15
100
AcDbEntity
  8
4
100
AcDbLine
 10
2263.805448241381
 20
528.227082724165
 30
0.0
 11
2263.805448241381
 21
550.1663929533711
 31
0.0
  0
LINE
  5
367
330
15
100
AcDbEntity
  8
4
100
AcDbLine
 10
2253.942629152009
 20
528.227082724165
 30
0.0
 11
2263.805448241381
 21
528.227082724165
 31
0.0
  0
ARC
  5
368
330
15
100
AcDbEntity
  8
4
100
AcDbCircle
 10
2256.68082711666
 20
530.9694965028161
 30
0.0
 40
3.875378875279244
100
AcDbArc
 50
139.8284134034343
 51
225.0440732372477
  0
LINE
  5
369
330
15
100
AcDbEntity
  8
L-CENTER
 48
2.0
100
AcDbLine
 10
2249.204608361277
 20
539.1967378387685
 30
0.0
 11
2302.288142568417
 21
539.1967378387685
 31
0.0
  0
LINE
  5
36A
330
15
100
AcDbEntity
  8
4
100
AcDbLine
 10
2260.805448241381
 20
533.2269325138582
 30
0.0
 11
2260.805448241381
 21
555.1662427430642
 31
0.0
  0
ARC
  5
36B
330
15
100
AcDbEntity
  8
4
100
AcDbCircle
 10
2266.601192376558
 20
544.1965876284617
 30
0.0
 40
13.7957441351769
100
AcDbArc
 50
156.573402491369
 51
203.426597508631
  0
LINE
  5
36C
330
15
100
AcDbEntity
  8
4
100
AcDbLine
 10
2252.805448241381
 20
552.423828964414
 30
0.0
 11
2252.805448241381
 21
535.9693462925093
 31
0.0
  0
LINE
  5
36D
330
15
100
AcDbEntity
  8
4
100
AcDbLine
 10
2263.805448241381
 20
533.2269325138582
 30
0.0
 11
2263.805448241381
 21
555.1662427430642
 31
0.0
  0
LINE
  5
36E
330
15
100
AcDbEntity
  8
4
100
AcDbLine
 10
2253.942629152009
 20
538.7117600711604
 30
0.0
 11
2260.805448241381
 21
538.7117600711604
 31
0.0
  0
LINE
  5
36F
330
15
100
AcDbEntity
  8
4
100
AcDbLine
 10
2253.942629152009
 20
533.2269325138582
 30
0.0
 11
2263.805448241381
 21
533.2269325138582
 31
0.0
  0
ARC
  5
370
330
15
100
AcDbEntity
  8
4
100
AcDbCircle
 10
2256.68082711666
 20
535.9693462925093
 30
0.0
 40
3.875378875279244
100
AcDbArc
 50
134.9559267627452
 51
225.0440732372548
  0
LINE
  5
371
330
15
100
AcDbEntity
  8
4
100
AcDbLine
 10
2253.942629152009
 20
549.681415185763
 30
0.0
 11
2260.805448241381
 21
549.681415185763
 31
0.0
  0
LINE
  5
372
330
15
100
AcDbEntity
  8
4
100
AcDbLine
 10
2263.805448241381
 20
555.1662427430642
 30
0.0
 11
2253.942629152009
 21
555.1662427430642
 31
0.0
  0
LINE
  5
373
330
15
100
AcDbEntity
  8
L-CENTER
 48
2.0
100
AcDbLine
 10
2249.204608361277
 20
544.1965876284617
 30
0.0
 11
2302.288142568417
 21
544.1965876284617
 31
0.0
  0
ARC
  5
374
330
15
100
AcDbEntity
  8
4
100
AcDbCircle
 10
2256.68082711666
 20
552.423828964414
 30
0.0
 40
3.875378875279264
100
AcDbArc
 50
134.9559267627452
 51
225.0440732372548
  0
LINE
  5
375
330
15
100
AcDbEntity
  8
4
100
AcDbLine
 10
2260.805448241381
 20
443.2266311339481
 30
0.0
 11
2260.805448241381
 21
465.1659413631542
 31
0.0
  0
ARC
  5
376
330
15
100
AcDbEntity
  8
4
100
AcDbCircle
 10
2266.601192376558
 20
454.1962862485516
 30
0.0
 40
13.7957441351769
100
AcDbArc
 50
156.5734024913708
 51
203.4265975086292
  0
LINE
  5
377
330
15
100
AcDbEntity
  8
4
100
AcDbLine
 10
2252.805448241381
 20
462.423527584504
 30
0.0
 11
2252.805448241381
 21
445.9690449125992
 31
0.0
  0
LINE
  5
378
330
15
100
AcDbEntity
  8
4
100
AcDbLine
 10
2263.805448241381
 20
443.2266311339481
 30
0.0
 11
2263.805448241381
 21
465.1659413631542
 31
0.0
  0
LINE
  5
379
330
15
100
AcDbEntity
  8
4
100
AcDbLine
 10
2253.942629152009
 20
448.7114586912503
 30
0.0
 11
2260.805448241381
 21
448.7114586912503
 31
0.0
  0
LINE
  5
37A
330
15
100
AcDbEntity
  8
4
100
AcDbLine
 10
2253.942629152009
 20
443.2266311339481
 30
0.0
 11
2263.805448241381
 21
443.2266311339481
 31
0.0
  0
ARC
  5
37B
330
15
100
AcDbEntity
  8
4
100
AcDbCircle
 10
2256.68082711666
 20
445.9690449125992
 30
0.0
 40
3.875378875279244
100
AcDbArc
 50
134.9559267627452
 51
225.0440732372548
  0
LINE
  5
37C
330
15
100
AcDbEntity
  8
4
100
AcDbLine
 10
2253.942629152009
 20
459.6811138058529
 30
0.0
 11
2260.805448241381
 21
459.6811138058529
 31
0.0
  0
LINE
  5
37D
330
15
100
AcDbEntity
  8
4
100
AcDbLine
 10
2263.805448241381
 20
465.1659413631542
 30
0.0
 11
2253.942629152009
 21
465.1659413631542
 31
0.0
  0
LINE
  5
37E
330
15
100
AcDbEntity
  8
L-CENTER
 48
2.0
100
AcDbLine
 10
2249.204608361277
 20
454.1962862485516
 30
0.0
 11
2302.288142568417
 21
454.1962862485516
 31
0.0
  0
ARC
  5
37F
330
15
100
AcDbEntity
  8
4
100
AcDbCircle
 10
2256.68082711666
 20
462.423527584504
 30
0.0
 40
3.875378875279264
100
AcDbArc
 50
134.9559267627452
 51
225.0440732372548
  0
LINE
  5
380
330
15
100
AcDbEntity
  8
4
100
AcDbLine
 10
2260.805448241381
 20
408.2270797850001
 30
0.0
 11
2260.805448241381
 21
430.1663900142062
 31
0.0
  0
ARC
  5
381
330
15
100
AcDbEntity
  8
4
100
AcDbCircle
 10
2266.601192376558
 20
419.1967348996036
 30
0.0
 40
13.7957441351769
100
AcDbArc
 50
156.573402491369
 51
184.8223730769658
  0
LINE
  5
382
330
15
100
AcDbEntity
  8
4
100
AcDbLine
 10
2252.805448241381
 20
427.423976235556
 30
0.0
 11
2252.805448241381
 21
410.9694935636512
 31
0.0
  0
LINE
  5
383
330
15
100
AcDbEntity
  8
4
100
AcDbLine
 10
2263.805448241381
 20
408.2270797850001
 30
0.0
 11
2263.805448241381
 21
430.1663900142062
 31
0.0
  0
LINE
  5
384
330
15
100
AcDbEntity
  8
4
100
AcDbLine
 10
2253.942629152009
 20
424.6815624569049
 30
0.0
 11
2260.805448241381
 21
424.6815624569049
 31
0.0
  0
LINE
  5
385
330
15
100
AcDbEntity
  8
4
100
AcDbLine
 10
2263.805448241381
 20
430.1663900142062
 30
0.0
 11
2253.942629152009
 21
430.1663900142062
 31
0.0
  0
LINE
  5
386
330
15
100
AcDbEntity
  8
L-CENTER
 48
2.0
100
AcDbLine
 10
2249.204608361277
 20
419.1967348996036
 30
0.0
 11
2302.288142568417
 21
419.1967348996036
 31
0.0
  0
ARC
  5
387
330
15
100
AcDbEntity
  8
4
100
AcDbCircle
 10
2256.68082711666
 20
427.423976235556
 30
0.0
 40
3.875378875279264
100
AcDbArc
 50
134.9559267627452
 51
225.0440732372548
  0
LINE
  5
388
330
15
100
AcDbEntity
  8
4
100
AcDbLine
 10
2260.805448241381
 20
398.2267805634719
 30
0.0
 11
2260.805448241381
 21
420.166090792678
 31
0.0
  0
ARC
  5
389
330
15
100
AcDbEntity
  8
4
100
AcDbCircle
 10
2266.601192376558
 20
409.1964356780754
 30
0.0
 40
13.7957441351769
100
AcDbArc
 50
156.5734024913708
 51
203.4265975086292
  0
LINE
  5
38A
330
15
100
AcDbEntity
  8
4
100
AcDbLine
 10
2252.805448241381
 20
417.4236770140278
 30
0.0
 11
2252.805448241381
 21
400.969194342123
 31
0.0
  0
LINE
  5
38B
330
15
100
AcDbEntity
  8
4
100
AcDbLine
 10
2263.805448241381
 20
398.2267805634719
 30
0.0
 11
2263.805448241381
 21
420.166090792678
 31
0.0
  0
LINE
  5
38C
330
15
100
AcDbEntity
  8
4
100
AcDbLine
 10
2253.942629152008
 20
403.7116081207741
 30
0.0
 11
2260.805448241381
 21
403.7116081207741
 31
0.0
  0
LINE
  5
38D
330
15
100
AcDbEntity
  8
4
100
AcDbLine
 10
2253.942629152008
 20
398.2267805634719
 30
0.0
 11
2263.805448241381
 21
398.2267805634719
 31
0.0
  0
ARC
  5
38E
330
15
100
AcDbEntity
  8
4
100
AcDbCircle
 10
2256.68082711666
 20
400.969194342123
 30
0.0
 40
3.875378875279244
100
AcDbArc
 50
134.9559267627452
 51
225.0440732372548
  0
LINE
  5
38F
330
15
100
AcDbEntity
  8
4
100
AcDbLine
 10
2253.942629152008
 20
414.6812632353767
 30
0.0
 11
2260.805448241381
 21
414.6812632353767
 31
0.0
  0
LINE
  5
390
330
15
100
AcDbEntity
  8
4
100
AcDbLine
 10
2263.805448241381
 20
420.166090792678
 30
0.0
 11
2253.942629152008
 21
420.166090792678
 31
0.0
  0
LINE
  5
391
330
15
100
AcDbEntity
  8
L-CENTER
 48
2.0
100
AcDbLine
 10
2249.204608361277
 20
409.1964356780754
 30
0.0
 11
2302.288142568417
 21
409.1964356780754
 31
0.0
  0
ARC
  5
392
330
15
100
AcDbEntity
  8
4
100
AcDbCircle
 10
2256.68082711666
 20
417.4236770140278
 30
0.0
 40
3.875378875279264
100
AcDbArc
 50
134.9559267627452
 51
225.0440732372548
  0
LINE
  5
393
330
15
100
AcDbEntity
  8
4
100
AcDbLine
 10
2260.805448241381
 20
348.2267815634718
 30
0.0
 11
2260.805448241381
 21
370.1660917926779
 31
0.0
  0
ARC
  5
394
330
15
100
AcDbEntity
  8
4
100
AcDbCircle
 10
2266.601192376558
 20
359.1964366780753
 30
0.0
 40
13.7957441351769
100
AcDbArc
 50
156.5734024913725
 51
203.4265975086275
  0
LINE
  5
395
330
15
100
AcDbEntity
  8
4
100
AcDbLine
 10
2252.805448241381
 20
367.4236780140277
 30
0.0
 11
2252.805448241381
 21
350.9691953421229
 31
0.0
  0
LINE
  5
396
330
15
100
AcDbEntity
  8
4
100
AcDbLine
 10
2263.805448241381
 20
348.2267815634718
 30
0.0
 11
2263.805448241381
 21
370.1660917926779
 31
0.0
  0
LINE
  5
397
330
15
100
AcDbEntity
  8
4
100
AcDbLine
 10
2253.942629152008
 20
353.711609120774
 30
0.0
 11
2260.805448241381
 21
353.711609120774
 31
0.0
  0
LINE
  5
398
330
15
100
AcDbEntity
  8
4
100
AcDbLine
 10
2253.942629152008
 20
348.2267815634718
 30
0.0
 11
2263.805448241381
 21
348.2267815634718
 31
0.0
  0
ARC
  5
399
330
15
100
AcDbEntity
  8
4
100
AcDbCircle
 10
2256.68082711666
 20
350.9691953421229
 30
0.0
 40
3.875378875279244
100
AcDbArc
 50
134.9559267627452
 51
225.0440732372548
  0
LINE
  5
39A
330
15
100
AcDbEntity
  8
4
100
AcDbLine
 10
2253.942629152008
 20
364.6812642353766
 30
0.0
 11
2260.805448241381
 21
364.6812642353766
 31
0.0
  0
LINE
  5
39B
330
15
100
AcDbEntity
  8
4
100
AcDbLine
 10
2263.805448241381
 20
370.1660917926779
 30
0.0
 11
2253.942629152008
 21
370.1660917926779
 31
0.0
  0
LINE
  5
39C
330
15
100
AcDbEntity
  8
L-CENTER
 48
2.0
100
AcDbLine
 10
2249.204608361277
 20
359.1964366780753
 30
0.0
 11
2302.288142568417
 21
359.1964366780753
 31
0.0
  0
ARC
  5
39D
330
15
100
AcDbEntity
  8
4
100
AcDbCircle
 10
2256.68082711666
 20
367.4236780140277
 30
0.0
 40
3.875378875279264
100
AcDbArc
 50
134.9559267627452
 51
225.0440732372548
  0
LINE
  5
39E
330
15
100
AcDbEntity
  8
L-CENTER
 48
2.0
100
AcDbLine
 10
2652.206292121486
 20
359.1964366780753
 30
0.0
 11
2599.122757914345
 21
359.1964366780753
 31
0.0
  0
ARC
  5
39F
330
15
100
AcDbEntity
  8
4
100
AcDbCircle
 10
2644.730073366102
 20
367.4236780140277
 30
0.0
 40
3.875378875279264
100
AcDbArc
 50
314.9559267627452
 51
45.04407323725481
  0
LINE
  5
3A0
330
15
100
AcDbEntity
  8
4
100
AcDbLine
 10
2637.605452241381
 20
370.1660917926779
 30
0.0
 11
2647.468271330755
 21
370.1660917926779
 31
0.0
  0
LINE
  5
3A1
330
15
100
AcDbEntity
  8
4
100
AcDbLine
 10
2647.468271330755
 20
364.6812642353766
 30
0.0
 11
2640.605452241381
 21
364.6812642353766
 31
0.0
  0
ARC
  5
3A2
330
15
100
AcDbEntity
  8
4
100
AcDbCircle
 10
2644.730073366102
 20
350.9691953421229
 30
0.0
 40
3.875378875279244
100
AcDbArc
 50
314.9559267627452
 51
45.04407323725481
  0
LINE
  5
3A3
330
15
100
AcDbEntity
  8
4
100
AcDbLine
 10
2647.468271330755
 20
348.2267815634718
 30
0.0
 11
2637.605452241381
 21
348.2267815634718
 31
0.0
  0
LINE
  5
3A4
330
15
100
AcDbEntity
  8
4
100
AcDbLine
 10
2647.468271330755
 20
353.711609120774
 30
0.0
 11
2640.605452241381
 21
353.711609120774
 31
0.0
  0
LINE
  5
3A5
330
15
100
AcDbEntity
  8
4
100
AcDbLine
 10
2637.605452241381
 20
348.2267815634718
 30
0.0
 11
2637.605452241381
 21
370.1660917926779
 31
0.0
  0
LINE
  5
3A6
330
15
100
AcDbEntity
  8
4
100
AcDbLine
 10
2648.605452241381
 20
367.4236780140277
 30
0.0
 11
2648.605452241381
 21
350.9691953421229
 31
0.0
  0
ARC
  5
3A7
330
15
100
AcDbEntity
  8
4
100
AcDbCircle
 10
2634.809708106205
 20
359.1964366780753
 30
0.0
 40
13.7957441351769
100
AcDbArc
 50
336.5734024913691
 51
23.42659750863096
  0
LINE
  5
3A8
330
15
100
AcDbEntity
  8
4
100
AcDbLine
 10
2640.605452241381
 20
348.2267815634718
 30
0.0
 11
2640.605452241381
 21
370.1660917926779
 31
0.0
  0
LINE
  5
3A9
330
15
100
AcDbEntity
  8
L-CENTER
 48
2.0
100
AcDbLine
 10
2652.206292121485
 20
409.1964356780754
 30
0.0
 11
2599.122757914344
 21
409.1964356780754
 31
0.0
  0
LINE
  5
3AA
330
15
100
AcDbEntity
  8
L-CENTER
 48
2.0
100
AcDbLine
 10
2652.206292121485
 20
419.1967348996036
 30
0.0
 11
2599.122757914344
 21
419.1967348996036
 31
0.0
  0
LINE
  5
3AB
330
15
100
AcDbEntity
  8
L-CENTER
 48
2.0
100
AcDbLine
 10
2652.206292121485
 20
454.1962862485516
 30
0.0
 11
2599.122757914344
 21
454.1962862485516
 31
0.0
  0
ARC
  5
3AC
330
15
100
AcDbEntity
  8
4
100
AcDbCircle
 10
2634.809708106203
 20
419.1967348996036
 30
0.0
 40
13.7957441351769
100
AcDbArc
 50
355.1776269230342
 51
23.42659750862749
  0
ARC
  5
3AD
330
15
100
AcDbEntity
  8
4
100
AcDbCircle
 10
2644.730073366102
 20
417.4236770140278
 30
0.0
 40
3.875378875279264
100
AcDbArc
 50
314.9559267627452
 51
45.04407323725481
  0
LINE
  5
3AE
330
15
100
AcDbEntity
  8
4
100
AcDbLine
 10
2637.605452241381
 20
420.166090792678
 30
0.0
 11
2647.468271330755
 21
420.166090792678
 31
0.0
  0
LINE
  5
3AF
330
15
100
AcDbEntity
  8
4
100
AcDbLine
 10
2647.468271330755
 20
414.6812632353767
 30
0.0
 11
2640.605452241381
 21
414.6812632353767
 31
0.0
  0
ARC
  5
3B0
330
15
100
AcDbEntity
  8
4
100
AcDbCircle
 10
2644.730073366102
 20
400.969194342123
 30
0.0
 40
3.875378875279244
100
AcDbArc
 50
314.9559267627452
 51
45.04407323725481
  0
LINE
  5
3B1
330
15
100
AcDbEntity
  8
4
100
AcDbLine
 10
2647.468271330755
 20
398.2267805634719
 30
0.0
 11
2637.605452241381
 21
398.2267805634719
 31
0.0
  0
LINE
  5
3B2
330
15
100
AcDbEntity
  8
4
100
AcDbLine
 10
2647.468271330755
 20
403.7116081207741
 30
0.0
 11
2640.605452241381
 21
403.7116081207741
 31
0.0
  0
LINE
  5
3B3
330
15
100
AcDbEntity
  8
4
100
AcDbLine
 10
2637.605452241381
 20
398.2267805634719
 30
0.0
 11
2637.605452241381
 21
420.166090792678
 31
0.0
  0
LINE
  5
3B4
330
15
100
AcDbEntity
  8
4
100
AcDbLine
 10
2648.605452241381
 20
417.4236770140278
 30
0.0
 11
2648.605452241381
 21
400.969194342123
 31
0.0
  0
ARC
  5
3B5
330
15
100
AcDbEntity
  8
4
100
AcDbCircle
 10
2634.809708106204
 20
409.1964356780754
 30
0.0
 40
13.7957441351769
100
AcDbArc
 50
336.5734024913725
 51
23.42659750862749
  0
LINE
  5
3B6
330
15
100
AcDbEntity
  8
4
100
AcDbLine
 10
2640.605452241381
 20
398.2267805634719
 30
0.0
 11
2640.605452241381
 21
420.166090792678
 31
0.0
  0
ARC
  5
3B7
330
15
100
AcDbEntity
  8
4
100
AcDbCircle
 10
2644.730073366102
 20
427.423976235556
 30
0.0
 40
3.875378875279264
100
AcDbArc
 50
314.9559267627452
 51
45.04407323725481
  0
LINE
  5
3B8
330
15
100
AcDbEntity
  8
4
100
AcDbLine
 10
2637.605452241381
 20
430.1663900142062
 30
0.0
 11
2647.468271330755
 21
430.1663900142062
 31
0.0
  0
LINE
  5
3B9
330
15
100
AcDbEntity
  8
4
100
AcDbLine
 10
2647.468271330755
 20
424.6815624569049
 30
0.0
 11
2640.605452241381
 21
424.6815624569049
 31
0.0
  0
LINE
  5
3BA
330
15
100
AcDbEntity
  8
4
100
AcDbLine
 10
2637.605452241381
 20
408.2270797850001
 30
0.0
 11
2637.605452241381
 21
430.1663900142062
 31
0.0
  0
LINE
  5
3BB
330
15
100
AcDbEntity
  8
4
100
AcDbLine
 10
2648.605452241381
 20
427.423976235556
 30
0.0
 11
2648.605452241381
 21
410.9694935636512
 31
0.0
  0
LINE
  5
3BC
330
15
100
AcDbEntity
  8
4
100
AcDbLine
 10
2640.605452241381
 20
408.2270797850001
 30
0.0
 11
2640.605452241381
 21
430.1663900142062
 31
0.0
  0
LINE
  5
3BD
330
15
100
AcDbEntity
  8
4
100
AcDbLine
 10
2647.468271330755
 20
459.6811138058529
 30
0.0
 11
2640.605452241381
 21
459.6811138058529
 31
0.0
  0
ARC
  5
3BE
330
15
100
AcDbEntity
  8
4
100
AcDbCircle
 10
2644.730073366102
 20
445.9690449125992
 30
0.0
 40
3.875378875279244
100
AcDbArc
 50
314.9559267627452
 51
45.04407323725481
  0
LINE
  5
3BF
330
15
100
AcDbEntity
  8
4
100
AcDbLine
 10
2647.468271330755
 20
443.2266311339481
 30
0.0
 11
2637.605452241381
 21
443.2266311339481
 31
0.0
  0
LINE
  5
3C0
330
15
100
AcDbEntity
  8
4
100
AcDbLine
 10
2647.468271330755
 20
448.7114586912503
 30
0.0
 11
2640.605452241381
 21
448.7114586912503
 31
0.0
  0
LINE
  5
3C1
330
15
100
AcDbEntity
  8
4
100
AcDbLine
 10
2648.605452241381
 20
462.423527584504
 30
0.0
 11
2648.605452241381
 21
445.9690449125992
 31
0.0
  0
ARC
  5
3C2
330
15
100
AcDbEntity
  8
4
100
AcDbCircle
 10
2634.809708106203
 20
454.1962862485516
 30
0.0
 40
13.7957441351769
100
AcDbArc
 50
336.5734024913725
 51
23.42659750862749
  0
ARC
  5
3C3
330
15
100
AcDbEntity
  8
4
100
AcDbCircle
 10
2644.730073366102
 20
597.4236790140276
 30
0.0
 40
3.875378875279264
100
AcDbArc
 50
314.9559267627452
 51
45.04407323725481
  0
LINE
  5
3C4
330
15
100
AcDbEntity
  8
4
100
AcDbLine
 10
2637.605452241381
 20
578.2267825634717
 30
0.0
 11
2637.605452241381
 21
600.1660927926778
 31
0.0
  0
LINE
  5
3C5
330
15
100
AcDbEntity
  8
4
100
AcDbLine
 10
2640.605452241381
 20
578.2267825634717
 30
0.0
 11
2640.605452241381
 21
600.1660927926778
 31
0.0
  0
LINE
  5
3C6
330
15
100
AcDbEntity
  8
L-CENTER
 48
2.0
100
AcDbLine
 10
2652.206292121485
 20
544.1965876284617
 30
0.0
 11
2599.122757914344
 21
544.1965876284617
 31
0.0
  0
LINE
  5
3C7
330
15
100
AcDbEntity
  8
L-CENTER
 48
2.0
100
AcDbLine
 10
2652.206292121485
 20
539.1967378387685
 30
0.0
 11
2599.122757914344
 21
539.1967378387685
 31
0.0
  0
LINE
  5
3C8
330
15
100
AcDbEntity
  8
L-CENTER
 48
2.0
100
AcDbLine
 10
2652.206292121485
 20
589.1964376780752
 30
0.0
 11
2599.122757914344
 21
589.1964376780752
 31
0.0
  0
LINE
  5
3C9
330
15
100
AcDbEntity
  8
4
100
AcDbLine
 10
2637.605452241381
 20
528.227082724165
 30
0.0
 11
2637.605452241381
 21
550.1663929533711
 31
0.0
  0
LINE
  5
3CA
330
15
100
AcDbEntity
  8
4
100
AcDbLine
 10
2640.605452241381
 20
528.227082724165
 30
0.0
 11
2640.605452241381
 21
550.1663929533711
 31
0.0
  0
ARC
  5
3CB
330
15
100
AcDbEntity
  8
4
100
AcDbCircle
 10
2644.730073366102
 20
530.9694965028161
 30
0.0
 40
3.875378875279244
100
AcDbArc
 50
314.9559267627523
 51
40.17158659654934
  0
LINE
  5
3CC
330
15
100
AcDbEntity
  8
4
100
AcDbLine
 10
2647.468271330755
 20
528.227082724165
 30
0.0
 11
2637.605452241381
 21
528.227082724165
 31
0.0
  0
LINE
  5
3CD
330
15
100
AcDbEntity
  8
4
100
AcDbLine
 10
2648.605452241381
 20
535.9693462925093
 30
0.0
 11
2648.605452241381
 21
530.9694965028161
 31
0.0
  0
ARC
  5
3CE
330
15
100
AcDbEntity
  8
4
100
AcDbCircle
 10
2644.730073366102
 20
552.423828964414
 30
0.0
 40
3.875378875279264
100
AcDbArc
 50
314.9559267627452
 51
45.04407323725481
  0
LINE
  5
3CF
330
15
100
AcDbEntity
  8
4
100
AcDbLine
 10
2637.605452241381
 20
555.1662427430642
 30
0.0
 11
2647.468271330755
 21
555.1662427430642
 31
0.0
  0
LINE
  5
3D0
330
15
100
AcDbEntity
  8
4
100
AcDbLine
 10
2647.468271330755
 20
549.681415185763
 30
0.0
 11
2640.605452241381
 21
549.681415185763
 31
0.0
  0
ARC
  5
3D1
330
15
100
AcDbEntity
  8
4
100
AcDbCircle
 10
2644.730073366102
 20
535.9693462925093
 30
0.0
 40
3.875378875279244
100
AcDbArc
 50
314.9559267627452
 51
45.04407323725481
  0
LINE
  5
3D2
330
15
100
AcDbEntity
  8
4
100
AcDbLine
 10
2647.468271330755
 20
533.2269325138582
 30
0.0
 11
2637.605452241381
 21
533.2269325138582
 31
0.0
  0
LINE
  5
3D3
330
15
100
AcDbEntity
  8
4
100
AcDbLine
 10
2647.468271330755
 20
538.7117600711604
 30
0.0
 11
2640.605452241381
 21
538.7117600711604
 31
0.0
  0
LINE
  5
3D4
330
15
100
AcDbEntity
  8
4
100
AcDbLine
 10
2637.605452241381
 20
533.2269325138582
 30
0.0
 11
2637.605452241381
 21
555.1662427430642
 31
0.0
  0
LINE
  5
3D5
330
15
100
AcDbEntity
  8
4
100
AcDbLine
 10
2648.605452241381
 20
552.423828964414
 30
0.0
 11
2648.605452241381
 21
535.9693462925093
 31
0.0
  0
ARC
  5
3D6
330
15
100
AcDbEntity
  8
4
100
AcDbCircle
 10
2634.809708106203
 20
544.1965876284617
 30
0.0
 40
13.7957441351769
100
AcDbArc
 50
336.5734024913725
 51
23.42659750862749
  0
LINE
  5
3D7
330
15
100
AcDbEntity
  8
4
100
AcDbLine
 10
2640.605452241381
 20
533.2269325138582
 30
0.0
 11
2640.605452241381
 21
555.1662427430642
 31
0.0
  0
LINE
  5
3D8
330
15
100
AcDbEntity
  8
4
100
AcDbLine
 10
2647.468271330755
 20
594.6812652353765
 30
0.0
 11
2640.605452241381
 21
594.6812652353765
 31
0.0
  0
ARC
  5
3D9
330
15
100
AcDbEntity
  8
4
100
AcDbCircle
 10
2644.730073366102
 20
580.9691963421228
 30
0.0
 40
3.875378875279244
100
AcDbArc
 50
314.9559267627452
 51
45.04407323725481
  0
LINE
  5
3DA
330
15
100
AcDbEntity
  8
4
100
AcDbLine
 10
2647.468271330755
 20
578.2267825634717
 30
0.0
 11
2637.605452241381
 21
578.2267825634717
 31
0.0
  0
LINE
  5
3DB
330
15
100
AcDbEntity
  8
4
100
AcDbLine
 10
2647.468271330755
 20
583.7116101207739
 30
0.0
 11
2640.605452241381
 21
583.7116101207739
 31
0.0
  0
LINE
  5
3DC
330
15
100
AcDbEntity
  8
4
100
AcDbLine
 10
2648.605452241381
 20
597.4236790140276
 30
0.0
 11
2648.605452241381
 21
580.9691963421228
 31
0.0
  0
ARC
  5
3DD
330
15
100
AcDbEntity
  8
4
100
AcDbCircle
 10
2634.809708106204
 20
589.1964376780752
 30
0.0
 40
13.7957441351769
100
AcDbArc
 50
336.5734024913725
 51
23.42659750862749
  0
LINE
  5
3DE
330
15
100
AcDbEntity
  8
L-CENTER
 48
2.0
100
AcDbLine
 10
2652.206292121485
 20
599.1964346780755
 30
0.0
 11
2599.122757914344
 21
599.1964346780755
 31
0.0
  0
LINE
  5
3DF
330
15
100
AcDbEntity
  8
4
100
AcDbLine
 10
2637.605452241381
 20
600.1660927926778
 30
0.0
 11
2647.468271330755
 21
600.1660927926778
 31
0.0
  0
ARC
  5
3E0
330
15
100
AcDbEntity
  8
4
100
AcDbCircle
 10
2634.809708106204
 20
599.1964346780755
 30
0.0
 40
13.7957441351769
100
AcDbArc
 50
355.1784521586471
 51
23.42659750862749
  0
LINE
  5
3E1
330
15
100
AcDbEntity
  8
4
100
AcDbLine
 10
2637.605452241381
 20
588.2267795634721
 30
0.0
 11
2637.605452241381
 21
610.1660897926781
 31
0.0
  0
LINE
  5
3E2
330
15
100
AcDbEntity
  8
4
100
AcDbLine
 10
2648.605452241381
 20
607.4236760140279
 30
0.0
 11
2648.605452241381
 21
590.9691933421232
 31
0.0
  0
LINE
  5
3E3
330
15
100
AcDbEntity
  8
4
100
AcDbLine
 10
2640.605452241381
 20
588.2267795634721
 30
0.0
 11
2640.605452241381
 21
610.1660897926781
 31
0.0
  0
ARC
  5
3E4
330
15
100
AcDbEntity
  8
4
100
AcDbCircle
 10
2644.730073366102
 20
607.4236760140279
 30
0.0
 40
3.875378875279264
100
AcDbArc
 50
314.9559267627452
 51
45.04407323725481
  0
LINE
  5
3E5
330
15
100
AcDbEntity
  8
4
100
AcDbLine
 10
2637.605452241381
 20
610.1660897926781
 30
0.0
 11
2647.468271330755
 21
610.1660897926781
 31
0.0
  0
LINE
  5
3E6
330
15
100
AcDbEntity
  8
4
100
AcDbLine
 10
2647.468271330755
 20
604.6812622353768
 30
0.0
 11
2640.605452241381
 21
604.6812622353768
 31
0.0
  0
ARC
  5
3E7
330
15
100
AcDbEntity
  8
4
100
AcDbCircle
 10
2644.730073366102
 20
462.423527584504
 30
0.0
 40
3.875378875279264
100
AcDbArc
 50
314.9559267627452
 51
45.04407323725481
  0
LINE
  5
3E8
330
15
100
AcDbEntity
  8
4
100
AcDbLine
 10
2637.605452241381
 20
465.1659413631542
 30
0.0
 11
2647.468271330755
 21
465.1659413631542
 31
0.0
  0
LINE
  5
3E9
330
15
100
AcDbEntity
  8
4
100
AcDbLine
 10
2637.605452241381
 20
443.2266311339481
 30
0.0
 11
2637.605452241381
 21
465.1659413631542
 31
0.0
  0
LINE
  5
3EA
330
15
100
AcDbEntity
  8
4
100
AcDbLine
 10
2640.605452241381
 20
443.2266311339481
 30
0.0
 11
2640.605452241381
 21
465.1659413631542
 31
0.0
  0
LINE
  5
3EB
330
15
100
AcDbEntity
  8
4
100
AcDbLine
 10
862.0228696373911
 20
1988.390704030689
 30
0.0
 11
862.0228696373911
 21
1981.527884941317
 31
0.0
  0
LINE
  5
3EC
330
15
100
AcDbEntity
  8
4
100
AcDbLine
 10
867.5076971946914
 20
1978.527884941317
 30
0.0
 11
867.5076971946914
 21
1988.390704030689
 31
0.0
  0
LINE
  5
3ED
330
15
100
AcDbEntity
  8
4
100
AcDbLine
 10
851.0532145227885
 20
1988.390704030689
 30
0.0
 11
851.0532145227885
 21
1981.527884941317
 31
0.0
  0
LINE
  5
3EE
330
15
100
AcDbEntity
  8
4
100
AcDbLine
 10
845.5683869654863
 20
1988.390704030689
 30
0.0
 11
845.5683869654863
 21
1978.527884941317
 31
0.0
  0
LINE
  5
3EF
330
15
100
AcDbEntity
  8
4
100
AcDbLine
 10
845.5683869654863
 20
1978.527884941317
 30
0.0
 11
867.5076971946914
 21
1978.527884941317
 31
0.0
  0
LINE
  5
3F0
330
15
100
AcDbEntity
  8
4
100
AcDbLine
 10
845.5683869654863
 20
1981.527884941317
 30
0.0
 11
867.5076971946914
 21
1981.527884941317
 31
0.0
  0
ARC
  5
3F1
330
15
100
AcDbEntity
  8
4
100
AcDbCircle
 10
856.5380420800889
 20
1975.73214080614
 30
0.0
 40
13.7957441351769
100
AcDbArc
 50
66.57340249136743
 51
113.4265975086279
  0
LINE
  5
3F2
330
15
100
AcDbEntity
  8
4
100
AcDbLine
 10
864.7652834160422
 20
1989.527884941317
 30
0.0
 11
848.3108007441374
 21
1989.527884941317
 31
0.0
  0
ARC
  5
3F3
330
15
100
AcDbEntity
  8
4
100
AcDbCircle
 10
848.3108007441374
 20
1985.652506066037
 30
0.0
 40
3.875378875279244
100
AcDbArc
 50
44.95592676276183
 51
135.044073237256
  0
ARC
  5
3F4
330
15
100
AcDbEntity
  8
4
100
AcDbCircle
 10
864.7652834160422
 20
1985.652506066037
 30
0.0
 40
3.875378875279264
100
AcDbArc
 50
44.95592676276183
 51
135.0440732372572
  0
LINE
  5
3F5
330
15
100
AcDbEntity
  8
4
100
AcDbLine
 10
1115.568386965486
 20
1981.527884941317
 30
0.0
 11
1137.507697194691
 21
1981.527884941317
 31
0.0
  0
ARC
  5
3F6
330
15
100
AcDbEntity
  8
4
100
AcDbCircle
 10
1126.538042080089
 20
1975.73214080614
 30
0.0
 40
13.7957441351769
100
AcDbArc
 50
66.5734024913683
 51
113.4265975086275
  0
LINE
  5
3F7
330
15
100
AcDbEntity
  8
4
100
AcDbLine
 10
1134.765283416042
 20
1989.527884941317
 30
0.0
 11
1118.310800744137
 21
1989.527884941317
 31
0.0
  0
LINE
  5
3F8
330
15
100
AcDbEntity
  8
4
100
AcDbLine
 10
1115.568386965486
 20
1978.527884941317
 30
0.0
 11
1137.507697194691
 21
1978.527884941317
 31
0.0
  0
LINE
  5
3F9
330
15
100
AcDbEntity
  8
4
100
AcDbLine
 10
1121.053214522788
 20
1988.39070403069
 30
0.0
 11
1121.053214522788
 21
1981.527884941317
 31
0.0
  0
LINE
  5
3FA
330
15
100
AcDbEntity
  8
4
100
AcDbLine
 10
1115.568386965486
 20
1988.39070403069
 30
0.0
 11
1115.568386965486
 21
1978.527884941317
 31
0.0
  0
ARC
  5
3FB
330
15
100
AcDbEntity
  8
4
100
AcDbCircle
 10
1118.310800744137
 20
1985.652506066038
 30
0.0
 40
3.875378875279244
100
AcDbArc
 50
44.95592676276183
 51
135.0440732372572
  0
LINE
  5
3FC
330
15
100
AcDbEntity
  8
4
100
AcDbLine
 10
1132.022869637391
 20
1988.39070403069
 30
0.0
 11
1132.022869637391
 21
1981.527884941317
 31
0.0
  0
LINE
  5
3FD
330
15
100
AcDbEntity
  8
4
100
AcDbLine
 10
1137.507697194691
 20
1978.527884941317
 30
0.0
 11
1137.507697194691
 21
1988.39070403069
 31
0.0
  0
ARC
  5
3FE
330
15
100
AcDbEntity
  8
4
100
AcDbCircle
 10
1134.765283416042
 20
1985.652506066038
 30
0.0
 40
3.875378875279264
100
AcDbArc
 50
44.95592676276183
 51
135.0440732372572
  0
LINE
  5
3FF
330
15
100
AcDbEntity
  8
4
100
AcDbLine
 10
867.5076971946914
 20
1604.427884941315
 30
0.0
 11
867.5076971946914
 21
1594.565065851943
 31
0.0
  0
LINE
  5
400
330
15
100
AcDbEntity
  8
4
100
AcDbLine
 10
862.0228696373911
 20
1594.565065851943
 30
0.0
 11
862.0228696373911
 21
1601.427884941315
 31
0.0
  0
LINE
  5
401
330
15
100
AcDbEntity
  8
4
100
AcDbLine
 10
845.5683869654863
 20
1594.565065851943
 30
0.0
 11
845.5683869654863
 21
1604.427884941315
 31
0.0
  0
LINE
  5
402
330
15
100
AcDbEntity
  8
4
100
AcDbLine
 10
851.0532145227885
 20
1594.565065851943
 30
0.0
 11
851.0532145227885
 21
1601.427884941315
 31
0.0
  0
ARC
  5
403
330
15
100
AcDbEntity
  8
4
100
AcDbCircle
 10
856.5380420800889
 20
1607.223629076492
 30
0.0
 40
13.7957441351769
100
AcDbArc
 50
246.5734024913716
 51
293.4265975086321
  0
LINE
  5
404
330
15
100
AcDbEntity
  8
4
100
AcDbLine
 10
864.7652834160422
 20
1593.427884941315
 30
0.0
 11
848.3108007441374
 21
1593.427884941315
 31
0.0
  0
ARC
  5
405
330
15
100
AcDbEntity
  8
4
100
AcDbCircle
 10
848.3108007441374
 20
1597.303263816595
 30
0.0
 40
3.875378875279244
100
AcDbArc
 50
224.9559267627428
 51
315.0440732372381
  0
ARC
  5
406
330
15
100
AcDbEntity
  8
4
100
AcDbCircle
 10
864.7652834160422
 20
1597.303263816595
 30
0.0
 40
3.875378875279264
100
AcDbArc
 50
224.9559267627428
 51
315.0440732372381
  0
LINE
  5
407
330
15
100
AcDbEntity
  8
4
100
AcDbLine
 10
845.5683869654863
 20
1604.427884941315
 30
0.0
 11
867.5076971946914
 21
1604.427884941315
 31
0.0
  0
LINE
  5
408
330
15
100
AcDbEntity
  8
4
100
AcDbLine
 10
845.5683869654863
 20
1601.427884941315
 30
0.0
 11
867.5076971946914
 21
1601.427884941315
 31
0.0
  0
LINE
  5
409
330
15
100
AcDbEntity
  8
4
100
AcDbLine
 10
1115.568386965486
 20
1594.565065851942
 30
0.0
 11
1115.568386965486
 21
1604.427884941315
 31
0.0
  0
LINE
  5
40A
330
15
100
AcDbEntity
  8
4
100
AcDbLine
 10
1137.507697194691
 20
1604.427884941315
 30
0.0
 11
1137.507697194691
 21
1594.565065851942
 31
0.0
  0
LINE
  5
40B
330
15
100
AcDbEntity
  8
4
100
AcDbLine
 10
1121.053214522788
 20
1594.565065851942
 30
0.0
 11
1121.053214522788
 21
1601.427884941315
 31
0.0
  0
LINE
  5
40C
330
15
100
AcDbEntity
  8
4
100
AcDbLine
 10
1132.022869637391
 20
1594.565065851942
 30
0.0
 11
1132.022869637391
 21
1601.427884941315
 31
0.0
  0
ARC
  5
40D
330
15
100
AcDbEntity
  8
4
100
AcDbCircle
 10
1126.538042080089
 20
1607.223629076492
 30
0.0
 40
13.7957441351769
100
AcDbArc
 50
246.5734024913725
 51
293.4265975086317
  0
LINE
  5
40E
330
15
100
AcDbEntity
  8
4
100
AcDbLine
 10
1134.765283416042
 20
1593.427884941315
 30
0.0
 11
1118.310800744137
 21
1593.427884941315
 31
0.0
  0
ARC
  5
40F
330
15
100
AcDbEntity
  8
4
100
AcDbCircle
 10
1118.310800744137
 20
1597.303263816594
 30
0.0
 40
3.875378875279244
100
AcDbArc
 50
224.9559267627428
 51
315.0440732372381
  0
ARC
  5
410
330
15
100
AcDbEntity
  8
4
100
AcDbCircle
 10
1134.765283416042
 20
1597.303263816594
 30
0.0
 40
3.875378875279264
100
AcDbArc
 50
224.9559267627428
 51
315.0440732372381
  0
LINE
  5
411
330
15
100
AcDbEntity
  8
4
100
AcDbLine
 10
1115.568386965486
 20
1604.427884941315
 30
0.0
 11
1137.507697194691
 21
1604.427884941315
 31
0.0
  0
LINE
  5
412
330
15
100
AcDbEntity
  8
4
100
AcDbLine
 10
1115.568386965486
 20
1601.427884941315
 30
0.0
 11
1137.507697194691
 21
1601.427884941315
 31
0.0
  0
LINE
  5
413
330
15
100
AcDbEntity
  8
4
100
AcDbLine
 10
1423.538042080089
 20
1704.327884941318
 30
0.0
 11
1539.538042080089
 21
1704.327884941318
 31
0.0
  0
LINE
  5
414
330
15
100
AcDbEntity
  8
4
100
AcDbLine
 10
1439.038042080089
 20
1725.827884941318
 30
0.0
 11
1541.538042080089
 21
1725.827884941318
 31
0.0
  0
LINE
  5
415
330
15
100
AcDbEntity
  8
4
100
AcDbLine
 10
1439.038042080089
 20
1740.827884941318
 30
0.0
 11
1541.538042080089
 21
1740.827884941318
 31
0.0
  0
LINE
  5
416
330
15
100
AcDbEntity
  8
4
100
AcDbLine
 10
1423.538042080089
 20
1762.327884941318
 30
0.0
 11
1539.538042080089
 21
1762.327884941318
 31
0.0
  0
ARC
  5
417
330
15
100
AcDbEntity
  8
4
100
AcDbCircle
 10
1423.538042080089
 20
1764.327884941318
 30
0.0
 40
2.0
100
AcDbArc
 50
180.0
 51
270.0
  0
ARC
  5
418
330
15
100
AcDbEntity
  8
4
100
AcDbCircle
 10
1423.538042080089
 20
1702.327884941318
 30
0.0
 40
2.0
100
AcDbArc
 50
90.0
 51
180.0
  0
ARC
  5
419
330
15
100
AcDbEntity
  8
4
100
AcDbCircle
 10
1439.038042080089
 20
1733.327884941318
 30
0.0
 40
7.5
100
AcDbArc
 50
90.0
 51
270.0
  0
LINE
  5
41A
330
15
100
AcDbEntity
  8
4
100
AcDbLine
 10
1421.538042080089
 20
1765.827884941318
 30
0.0
 11
1421.538042080089
 21
1700.827884941318
 31
0.0
  0
LINE
  5
41B
330
15
100
AcDbEntity
  8
4
100
AcDbLine
 10
1539.538042080089
 20
1762.327884941318
 30
0.0
 11
1541.538042080089
 21
1760.327884941318
 31
0.0
  0
LINE
  5
41C
330
15
100
AcDbEntity
  8
4
100
AcDbLine
 10
1539.538042080089
 20
1762.327884941318
 30
0.0
 11
1539.538042080089
 21
1740.827884941318
 31
0.0
  0
LINE
  5
41D
330
15
100
AcDbEntity
  8
4
100
AcDbLine
 10
1539.538042080089
 20
1704.327884941318
 30
0.0
 11
1541.538042080089
 21
1706.327884941318
 31
0.0
  0
LINE
  5
41E
330
15
100
AcDbEntity
  8
4
100
AcDbLine
 10
1539.538042080089
 20
1725.827884941318
 30
0.0
 11
1539.538042080089
 21
1704.327884941318
 31
0.0
  0
LINE
  5
41F
330
15
100
AcDbEntity
  8
4
100
AcDbLine
 10
1541.538042080089
 20
1760.327884941318
 30
0.0
 11
1541.538042080089
 21
1706.327884941318
 31
0.0
  0
LINE
  5
420
330
15
100
AcDbEntity
  8
4
100
AcDbLine
 10
1407.428046080088
 20
1765.827884941318
 30
0.0
 11
1421.538042080089
 21
1765.827884941318
 31
0.0
  0
LINE
  5
421
330
15
100
AcDbEntity
  8
4
100
AcDbLine
 10
1407.428046080088
 20
1700.827884941318
 30
0.0
 11
1421.538042080089
 21
1700.827884941318
 31
0.0
  0
LINE
  5
422
330
15
100
AcDbEntity
  8
4
100
AcDbLine
 10
804.0380420800889
 20
2171.327884941316
 30
0.0
 11
842.5380420800889
 21
2171.327884941316
 31
0.0
  0
LINE
  5
423
330
15
100
AcDbEntity
  8
4
100
AcDbLine
 10
806.0380420800889
 20
2173.327884941316
 30
0.0
 11
907.0380420800889
 21
2173.327884941316
 31
0.0
  0
LINE
  5
424
330
15
100
AcDbEntity
  8
4
100
AcDbLine
 10
801.5380420800889
 20
1993.327884941316
 30
0.0
 11
911.5380420800889
 21
1993.327884941316
 31
0.0
  0
ARC
  5
425
330
15
100
AcDbEntity
  8
4
100
AcDbCircle
 10
911.5380420800898
 20
1995.827884941316
 30
0.0
 40
2.5
100
AcDbArc
 50
180.0
 51
270.0
  0
LINE
  5
426
330
15
100
AcDbEntity
  8
4
100
AcDbLine
 10
842.5380420800889
 20
2173.327884941316
 30
0.0
 11
842.5380420800889
 21
2017.327884941316
 31
0.0
  0
LINE
  5
427
330
15
100
AcDbEntity
  8
4
100
AcDbLine
 10
909.0380420800889
 20
2171.327884941316
 30
0.0
 11
909.0380420800889
 21
1995.827884941316
 31
0.0
  0
LINE
  5
428
330
15
100
AcDbEntity
  8
4
100
AcDbLine
 10
870.5380420800889
 20
2173.327884941316
 30
0.0
 11
870.5380420800889
 21
2017.327884941316
 31
0.0
  0
LINE
  5
429
330
15
100
AcDbEntity
  8
4
100
AcDbLine
 10
856.5380420800889
 20
2003.327884941316
 30
0.0
 11
856.5380420800889
 21
2003.327884941316
 31
0.0
  0
ARC
  5
42A
330
15
100
AcDbEntity
  8
4
100
AcDbCircle
 10
856.5380420800898
 20
2017.327884941316
 30
0.0
 40
14.0
100
AcDbArc
 50
180.0
 51
270.0
  0
ARC
  5
42B
330
15
100
AcDbEntity
  8
4
100
AcDbCircle
 10
856.5380420800898
 20
2017.327884941316
 30
0.0
 40
14.0
100
AcDbArc
 50
270.0
 51
0.0
  0
LINE
  5
42C
330
15
100
AcDbEntity
  8
4
100
AcDbLine
 10
907.0380420800889
 20
2173.327884941316
 30
0.0
 11
909.0380420800889
 21
2171.327884941316
 31
0.0
  0
LINE
  5
42D
330
15
100
AcDbEntity
  8
4
100
AcDbLine
 10
870.5380420800889
 20
2171.327884941316
 30
0.0
 11
909.0380420800889
 21
2171.327884941316
 31
0.0
  0
ARC
  5
42E
330
15
100
AcDbEntity
  8
4
100
AcDbCircle
 10
801.5380420800898
 20
1995.827884941316
 30
0.0
 40
2.5
100
AcDbArc
 50
270.0
 51
0.0
  0
LINE
  5
42F
330
15
100
AcDbEntity
  8
4
100
AcDbLine
 10
804.0380420800889
 20
2171.327884941316
 30
0.0
 11
804.0380420800889
 21
1995.827884941316
 31
0.0
  0
LINE
  5
430
330
15
100
AcDbEntity
  8
4
100
AcDbLine
 10
804.0380420800889
 20
2171.327884941316
 30
0.0
 11
806.0380420800889
 21
2173.327884941316
 31
0.0
  0
LINE
  5
431
330
15
100
AcDbEntity
  8
4
100
AcDbLine
 10
801.5380420800889
 20
1993.327884941316
 30
0.0
 11
801.5380420800889
 21
1979.527884941317
 31
0.0
  0
LINE
  5
432
330
15
100
AcDbEntity
  8
4
100
AcDbLine
 10
911.5380420800889
 20
1993.327884941316
 30
0.0
 11
911.5380420800898
 21
1979.527884941317
 31
0.0
  0
LINE
  5
433
330
15
100
AcDbEntity
  8
4
100
AcDbLine
 10
786.5380420800898
 20
1978.527884941317
 30
0.0
 11
786.5380420800898
 21
1979.527884941317
 31
0.0
  0
LINE
  5
434
330
15
100
AcDbEntity
  8
4
100
AcDbLine
 10
926.5380420800898
 20
1978.527884941317
 30
0.0
 11
926.5380420800898
 21
1979.527884941317
 31
0.0
  0
LINE
  5
435
330
15
100
AcDbEntity
  8
4
100
AcDbLine
 10
786.5380420800898
 20
1979.527884941317
 30
0.0
 11
845.5683869654863
 21
1979.527884941317
 31
0.0
  0
LINE
  5
436
330
15
100
AcDbEntity
  8
4
100
AcDbLine
 10
867.5076971946914
 20
1979.527884941317
 30
0.0
 11
926.5380420800889
 21
1979.527884941317
 31
0.0
  0
CIRCLE
  5
437
330
15
100
AcDbEntity
  8
4
100
AcDbCircle
 10
727.1280420800895
 20
1791.327884941316
 30
0.0
 40
23.0
  0
LWPOLYLINE
  5
438
330
15
100
AcDbEntity
  8
4
100
AcDbPolyline
 90
        6
 70
     1
 43
0.0
 10
750.128042080089
 20
1791.327884941316
 10
738.628042080089
 20
1811.246469228357
 10
715.6280420800895
 20
1811.246469228357
 10
704.1280420800895
 20
1791.327884941316
 10
715.6280420800895
 20
1771.409300654273
 10
738.628042080089
 20
1771.409300654273
  0
LINE
  5
439
330
15
100
AcDbEntity
  8
4
100
AcDbLine
 10
967.128042080089
 20
1756.327884941316
 30
0.0
 11
967.128042080089
 21
1826.327884941316
 31
0.0
  0
LINE
  5
43A
330
15
100
AcDbEntity
  8
4
100
AcDbLine
 10
987.128042080089
 20
1756.327884941316
 30
0.0
 11
987.128042080089
 21
1826.327884941316
 31
0.0
  0
ARC
  5
43B
330
15
100
AcDbEntity
  8
4
100
AcDbCircle
 10
977.1280420800899
 20
1791.327884941316
 30
0.0
 40
20.0
100
AcDbArc
 50
119.9999999999999
 51
240.0000000000001
  0
ARC
  5
43C
330
15
100
AcDbEntity
  8
4
100
AcDbCircle
 10
977.1280420800899
 20
1791.327884941316
 30
0.0
 40
22.5
100
AcDbArc
 50
116.3877999612435
 51
243.6122000387572
  0
ARC
  5
43D
330
15
100
AcDbEntity
  8
4
100
AcDbCircle
 10
977.1280420800899
 20
1791.327884941316
 30
0.0
 40
22.5
100
AcDbArc
 50
296.3877999612425
 51
63.61220003875647
  0
ARC
  5
43E
330
15
100
AcDbEntity
  8
4
100
AcDbCircle
 10
977.1280420800899
 20
1791.327884941316
 30
0.0
 40
20.0
100
AcDbArc
 50
299.9999999999998
 51
60.00000000000011
  0
ARC
  5
43F
330
15
100
AcDbEntity
  8
4
100
AcDbCircle
 10
977.1280420800899
 20
1756.327884941316
 30
0.0
 40
10.0
100
AcDbArc
 50
180.0
 51
0.0
  0
ARC
  5
440
330
15
100
AcDbEntity
  8
4
100
AcDbCircle
 10
977.1280420800899
 20
1826.327884941316
 30
0.0
 40
10.0
100
AcDbArc
 50
0.0
 51
180.0
  0
LINE
  5
441
330
15
100
AcDbEntity
  8
4
100
AcDbLine
 10
954.6280400800883
 20
771.6964346780746
 30
0.0
 11
967.6280400800883
 21
771.6964346780746
 31
0.0
  0
LINE
  5
442
330
15
100
AcDbEntity
  8
4
100
AcDbLine
 10
962.6280400800883
 20
763.6964346780746
 30
0.0
 11
967.6280400800883
 21
763.6964346780746
 31
0.0
  0
LINE
  5
443
330
15
100
AcDbEntity
  8
4
100
AcDbLine
 10
962.6280400800883
 20
731.6964346780751
 30
0.0
 11
967.6280400800883
 21
731.6964346780751
 31
0.0
  0
LINE
  5
444
330
15
100
AcDbEntity
  8
4
100
AcDbLine
 10
954.6280400800883
 20
723.6964346780751
 30
0.0
 11
967.6280400800883
 21
723.6964346780751
 31
0.0
  0
LINE
  5
445
330
15
100
AcDbEntity
  8
4
100
AcDbLine
 10
924.6280400800883
 20
717.6964346780751
 30
0.0
 11
1029.628040080088
 21
717.6964346780751
 31
0.0
  0
LINE
  5
446
330
15
100
AcDbEntity
  8
4
100
AcDbLine
 10
924.6280400800883
 20
777.6964346780751
 30
0.0
 11
1029.628040080088
 21
777.6964346780751
 31
0.0
  0
ARC
  5
447
330
15
100
AcDbEntity
  8
4
100
AcDbCircle
 10
924.6280400800883
 20
772.6964346780751
 30
0.0
 40
5.0
100
AcDbArc
 50
90.0
 51
180.0
  0
LINE
  5
448
330
15
100
AcDbEntity
  8
4
100
AcDbLine
 10
924.6280400800883
 20
771.6964346780746
 30
0.0
 11
932.6280400800883
 21
771.6964346780746
 31
0.0
  0
LINE
  5
449
330
15
100
AcDbEntity
  8
4
100
AcDbLine
 10
949.6280400800883
 20
723.6964346780751
 30
0.0
 11
949.6280400800883
 21
731.6964346780751
 31
0.0
  0
LINE
  5
44A
330
15
100
AcDbEntity
  8
4
100
AcDbLine
 10
932.6280400800883
 20
731.6964346780751
 30
0.0
 11
949.6280400800883
 21
731.6964346780751
 31
0.0
  0
LINE
  5
44B
330
15
100
AcDbEntity
  8
4
100
AcDbLine
 10
924.6280400800883
 20
723.6964346780751
 30
0.0
 11
949.6280400800883
 21
723.6964346780751
 31
0.0
  0
ARC
  5
44C
330
15
100
AcDbEntity
  8
4
100
AcDbCircle
 10
924.6280400800883
 20
722.6964346780751
 30
0.0
 40
5.0
100
AcDbArc
 50
180.0
 51
270.0
  0
LINE
  5
44D
330
15
100
AcDbEntity
  8
4
100
AcDbLine
 10
962.6280400800883
 20
731.6964346780751
 30
0.0
 11
962.6280400800883
 21
763.6964346780746
 31
0.0
  0
LINE
  5
44E
330
15
100
AcDbEntity
  8
4
100
AcDbLine
 10
919.6280400800883
 20
722.6964346780751
 30
0.0
 11
919.6280400800883
 21
772.6964346780751
 31
0.0
  0
LINE
  5
44F
330
15
100
AcDbEntity
  8
4
100
AcDbLine
 10
924.6280400800883
 20
723.6964346780751
 30
0.0
 11
924.6280400800883
 21
771.6964346780746
 31
0.0
  0
LINE
  5
450
330
15
100
AcDbEntity
  8
4
100
AcDbLine
 10
932.6280400800883
 20
731.6964346780751
 30
0.0
 11
932.6280400800883
 21
771.6964346780746
 31
0.0
  0
LINE
  5
451
330
15
100
AcDbEntity
  8
4
100
AcDbLine
 10
954.6280400800883
 20
723.6964346780751
 30
0.0
 11
954.6280400800883
 21
771.6964346780746
 31
0.0
  0
ARC
  5
452
330
15
100
AcDbEntity
  8
4
100
AcDbCircle
 10
1029.628040080088
 20
772.6964346780751
 30
0.0
 40
5.0
100
AcDbArc
 50
0.0
 51
90.0
  0
LINE
  5
453
330
15
100
AcDbEntity
  8
4
100
AcDbLine
 10
1014.628040080088
 20
771.6964346780751
 30
0.0
 11
1019.628040080088
 21
771.6964346780751
 31
0.0
  0
LINE
  5
454
330
15
100
AcDbEntity
  8
4
100
AcDbLine
 10
1029.628040080088
 20
733.6964346780751
 30
0.0
 11
1029.628040080088
 21
761.6964346780751
 31
0.0
  0
LINE
  5
455
330
15
100
AcDbEntity
  8
4
100
AcDbLine
 10
1014.628040080088
 20
743.6964346780751
 30
0.0
 11
1017.128040080088
 21
743.6964346780751
 31
0.0
  0
LINE
  5
456
330
15
100
AcDbEntity
  8
4
100
AcDbLine
 10
1014.628040080088
 20
723.6964346780751
 30
0.0
 11
1019.628040080088
 21
723.6964346780751
 31
0.0
  0
LINE
  5
457
330
15
100
AcDbEntity
  8
4
100
AcDbLine
 10
1012.628040080088
 20
733.6964346780751
 30
0.0
 11
1012.628040080088
 21
735.6964346780751
 31
0.0
  0
LINE
  5
458
330
15
100
AcDbEntity
  8
4
100
AcDbLine
 10
1021.628040080088
 20
733.6964346780751
 30
0.0
 11
1021.628040080088
 21
744.5345308883848
 31
0.0
  0
ARC
  5
459
330
15
100
AcDbEntity
  8
4
100
AcDbCircle
 10
1014.628040080088
 20
733.6964346780751
 30
0.0
 40
2.0
100
AcDbArc
 50
180.0
 51
270.0
  0
ARC
  5
45A
330
15
100
AcDbEntity
  8
4
100
AcDbCircle
 10
1019.628040080088
 20
733.6964346780751
 30
0.0
 40
2.0
100
AcDbArc
 50
270.0
 51
0.0
  0
LINE
  5
45B
330
15
100
AcDbEntity
  8
4
100
AcDbLine
 10
1014.628040080088
 20
731.6964346780751
 30
0.0
 11
1019.628040080088
 21
731.6964346780751
 31
0.0
  0
LINE
  5
45C
330
15
100
AcDbEntity
  8
4
100
AcDbLine
 10
1012.628040080088
 20
756.1964346780751
 30
0.0
 11
1012.628040080088
 21
759.1964346780751
 31
0.0
  0
LINE
  5
45D
330
15
100
AcDbEntity
  8
4
100
AcDbLine
 10
1021.628040080088
 20
756.1964346780751
 30
0.0
 11
1021.628040080088
 21
759.1964346780751
 31
0.0
  0
ARC
  5
45E
330
15
100
AcDbEntity
  8
4
100
AcDbCircle
 10
1017.128040080088
 20
756.1964346780751
 30
0.0
 40
4.5
100
AcDbArc
 50
180.0
 51
0.0
  0
ARC
  5
45F
330
15
100
AcDbEntity
  8
4
100
AcDbCircle
 10
1017.128040080088
 20
756.1964346780751
 30
0.0
 40
12.5
100
AcDbArc
 50
270.0
 51
291.1001960240931
  0
LINE
  5
460
330
15
100
AcDbEntity
  8
4
100
AcDbLine
 10
999.6280400800883
 20
745.1964346780746
 30
0.0
 11
999.6280400800883
 21
750.1964346780746
 31
0.0
  0
LINE
  5
461
330
15
100
AcDbEntity
  8
4
100
AcDbLine
 10
984.6280400800883
 20
745.1964346780746
 30
0.0
 11
984.6280400800883
 21
750.1964346780746
 31
0.0
  0
LINE
  5
462
330
15
100
AcDbEntity
  8
4
100
AcDbLine
 10
984.6280400800883
 20
750.1964346780746
 30
0.0
 11
999.6280400800883
 21
750.1964346780746
 31
0.0
  0
LINE
  5
463
330
15
100
AcDbEntity
  8
4
100
AcDbLine
 10
984.6280400800883
 20
745.1964346780746
 30
0.0
 11
999.6280400800883
 21
745.1964346780746
 31
0.0
  0
LINE
  5
464
330
15
100
AcDbEntity
  8
4
100
AcDbLine
 10
1004.628040080088
 20
733.6964346780751
 30
0.0
 11
1004.628040080088
 21
735.6964346780751
 31
0.0
  0
LINE
  5
465
330
15
100
AcDbEntity
  8
4
100
AcDbLine
 10
1004.628040080088
 20
753.6964346780751
 30
0.0
 11
1004.628040080088
 21
761.6964346780751
 31
0.0
  0
LINE
  5
466
330
15
100
AcDbEntity
  8
4
100
AcDbLine
 10
1004.628040080088
 20
735.6964346780751
 30
0.0
 11
1012.628040080088
 21
735.6964346780751
 31
0.0
  0
ARC
  5
467
330
15
100
AcDbEntity
  8
4
100
AcDbCircle
 10
1014.628040080088
 20
753.6964346780751
 30
0.0
 40
10.0
100
AcDbArc
 50
180.0
 51
270.0
  0
ARC
  5
468
330
15
100
AcDbEntity
  8
4
100
AcDbCircle
 10
1029.628040080088
 20
722.6964346780751
 30
0.0
 40
5.0
100
AcDbArc
 50
270.0
 51
0.0
  0
ARC
  5
469
330
15
100
AcDbEntity
  8
4
100
AcDbCircle
 10
1014.628040080088
 20
733.6964346780751
 30
0.0
 40
10.0
100
AcDbArc
 50
180.0
 51
270.0
  0
ARC
  5
46A
330
15
100
AcDbEntity
  8
4
100
AcDbCircle
 10
1019.628040080088
 20
733.6964346780751
 30
0.0
 40
10.0
100
AcDbArc
 50
270.0
 51
0.0
  0
LINE
  5
46B
330
15
100
AcDbEntity
  8
4
100
AcDbLine
 10
1034.628040080088
 20
722.6964346780751
 30
0.0
 11
1034.628040080088
 21
772.6964346780751
 31
0.0
  0
ARC
  5
46C
330
15
100
AcDbEntity
  8
4
100
AcDbCircle
 10
1017.128040080088
 20
759.1964346780751
 30
0.0
 40
4.5
100
AcDbArc
 50
0.0
 51
180.0
  0
ARC
  5
46D
330
15
100
AcDbEntity
  8
4
100
AcDbCircle
 10
1014.628040080088
 20
761.6964346780751
 30
0.0
 40
10.0
100
AcDbArc
 50
90.0
 51
180.0
  0
ARC
  5
46E
330
15
100
AcDbEntity
  8
4
100
AcDbCircle
 10
1019.628040080088
 20
761.6964346780751
 30
0.0
 40
10.0
100
AcDbArc
 50
0.0
 51
90.0
  0
LINE
  5
46F
330
15
100
AcDbEntity
  8
4
100
AcDbLine
 10
979.6280400800883
 20
735.6964346780751
 30
0.0
 11
979.6280400800883
 21
759.6964346780746
 31
0.0
  0
LINE
  5
470
330
15
100
AcDbEntity
  8
4
100
AcDbLine
 10
971.6280400800883
 20
735.6964346780751
 30
0.0
 11
971.6280400800883
 21
759.6964346780746
 31
0.0
  0
ARC
  5
471
330
15
100
AcDbEntity
  8
4
100
AcDbCircle
 10
967.6280400800883
 20
735.6964346780751
 30
0.0
 40
4.0
100
AcDbArc
 50
270.0
 51
0.0
  0
ARC
  5
472
330
15
100
AcDbEntity
  8
4
100
AcDbCircle
 10
967.6280400800883
 20
759.6964346780746
 30
0.0
 40
4.0
100
AcDbArc
 50
0.0
 51
90.0
  0
ARC
  5
473
330
15
100
AcDbEntity
  8
4
100
AcDbCircle
 10
967.6280400800883
 20
735.6964346780751
 30
0.0
 40
12.0
100
AcDbArc
 50
270.0
 51
0.0
  0
ARC
  5
474
330
15
100
AcDbEntity
  8
4
100
AcDbCircle
 10
967.6280400800883
 20
759.6964346780746
 30
0.0
 40
12.0
100
AcDbArc
 50
0.0
 51
90.0
  0
ARC
  5
5D3
330
15
100
AcDbEntity
  8
4
100
AcDbCircle
 10
717.5380420800893
 20
1605.427884941317
 30
0.0
 40
1.0
100
AcDbArc
 50
180.0
 51
270.0
  0
ARC
  5
5D4
330
15
100
AcDbEntity
  8
4
100
AcDbCircle
 10
995.5380420800889
 20
1605.427884941317
 30
0.0
 40
1.0
100
AcDbArc
 50
270.0
 51
0.0
  0
ARC
  5
5D5
330
15
100
AcDbEntity
  8
4
100
AcDbCircle
 10
1017.538042080089
 20
1605.427884941316
 30
0.0
 40
1.0
100
AcDbArc
 50
180.0
 51
270.0
  0
ARC
  5
5D6
330
15
100
AcDbEntity
  8
4
100
AcDbCircle
 10
1235.538042080089
 20
1605.427884941316
 30
0.0
 40
1.0
100
AcDbArc
 50
270.0
 51
0.0
  0
ARC
  5
5D7
330
15
100
AcDbEntity
  8
4
100
AcDbCircle
 10
2264.805448241381
 20
608.1964316780754
 30
0.0
 40
1.0
100
AcDbArc
 50
90.0
 51
180.0
  0
ARC
  5
5D8
330
15
100
AcDbEntity
  8
4
100
AcDbCircle
 10
2264.805448241381
 20
618.1964356780754
 30
0.0
 40
1.0
100
AcDbArc
 50
90.0
 51
180.0
  0
ARC
  5
5D9
330
15
100
AcDbEntity
  8
4
100
AcDbCircle
 10
2264.805448241381
 20
390.1964346780755
 30
0.0
 40
1.0
100
AcDbArc
 50
180.0
 51
270.0
  0
ARC
  5
5DA
330
15
100
AcDbEntity
  8
4
100
AcDbCircle
 10
2264.805448241381
 20
340.1964356780754
 30
0.0
 40
1.0
100
AcDbArc
 50
180.0
 51
270.0
  0
ARC
  5
5DB
330
15
100
AcDbEntity
  8
4
100
AcDbCircle
 10
2636.605452241381
 20
608.1964316780754
 30
0.0
 40
1.0
100
AcDbArc
 50
0.0
 51
90.0
  0
ARC
  5
5DC
330
15
100
AcDbEntity
  8
4
100
AcDbCircle
 10
2636.605452241381
 20
618.1964356780754
 30
0.0
 40
1.0
100
AcDbArc
 50
0.0
 51
90.0
  0
ARC
  5
5DD
330
15
100
AcDbEntity
  8
4
100
AcDbCircle
 10
2636.605452241381
 20
390.1964346780755
 30
0.0
 40
1.0
100
AcDbArc
 50
270.0
 51
0.0
  0
ARC
  5
5DE
330
15
100
AcDbEntity
  8
4
100
AcDbCircle
 10
2636.605452241381
 20
340.1964356780754
 30
0.0
 40
1.0
100
AcDbArc
 50
270.0
 51
0.0
  0
ARC
  5
5DF
330
15
100
AcDbEntity
  8
4
100
AcDbCircle
 10
1365.128042080089
 20
1948.627884941317
 30
0.0
 40
2.0
100
AcDbArc
 50
0.0
 51
90.0
  0
ARC
  5
5E0
330
15
100
AcDbEntity
  8
4
100
AcDbCircle
 10
589.128042080089
 20
1948.627884941317
 30
0.0
 40
2.0
100
AcDbArc
 50
90.0
 51
180.0
  0
ARC
  5
5E1
330
15
100
AcDbEntity
  8
4
100
AcDbCircle
 10
1235.538042080089
 20
1977.527884941317
 30
0.0
 40
1.0
100
AcDbArc
 50
0.0
 51
90.0
  0
ARC
  5
5E2
330
15
100
AcDbEntity
  8
4
100
AcDbCircle
 10
1017.538042080089
 20
1977.527884941317
 30
0.0
 40
1.0
100
AcDbArc
 50
90.0
 51
180.0
  0
ARC
  5
5E3
330
15
100
AcDbEntity
  8
4
100
AcDbCircle
 10
995.5380420800889
 20
1977.527884941317
 30
0.0
 40
1.0
100
AcDbArc
 50
0.0
 51
90.0
  0
ARC
  5
5E4
330
15
100
AcDbEntity
  8
4
100
AcDbCircle
 10
717.5380420800893
 20
1977.527884941317
 30
0.0
 40
1.0
100
AcDbArc
 50
90.0
 51
180.0
  0
ARC
  5
5E5
330
15
100
AcDbEntity
  8
4
100
AcDbCircle
 10
2087.70545624138
 20
249.1964346780755
 30
0.0
 40
400.000069
100
AcDbArc
 50
348.0924590000001
 51
11.90700599999996
  0
ARC
  5
5E6
330
15
100
AcDbEntity
  8
4
100
AcDbCircle
 10
2474.205941241381
 20
167.6957076780755
 30
0.0
 40
4.999939
100
AcDbArc
 50
281.908538999995
 51
348.0914609999994
  0
ARC
  5
5E7
330
15
100
AcDbEntity
  8
4
100
AcDbCircle
 10
2474.205941241381
 20
330.6971686780757
 30
0.0
 40
4.999939
100
AcDbArc
 50
11.9085389999945
 51
78.09146100000497
  0
LINE
  5
5E8
330
15
100
AcDbEntity
  8
4
100
AcDbLine
 10
1388.128035080089
 20
159.1964346780755
 30
0.0
 11
1383.128035080089
 21
154.1964346780755
 31
0.0
  0
LINE
  5
5E9
330
15
100
AcDbEntity
  8
4
100
AcDbLine
 10
1388.128035080089
 20
339.1964346780755
 30
0.0
 11
1383.128035080089
 21
344.1964346780755
 31
0.0
  0
LINE
  5
5EA
330
15
100
AcDbEntity
  8
4
100
AcDbLine
 10
566.1280490800887
 20
159.1964346780755
 30
0.0
 11
571.1280490800887
 21
154.1964346780755
 31
0.0
  0
LINE
  5
5EB
330
15
100
AcDbEntity
  8
4
100
AcDbLine
 10
566.1280490800887
 20
339.1964346780755
 30
0.0
 11
571.1280490800887
 21
344.1964346780755
 31
0.0
  0
LINE
  5
610
330
15
100
AcDbEntity
  8
L-CENTER
 48
2.0
100
AcDbLine
 10
1424.774524515909
 20
187.3245913242527
 30
0.0
 11
1365.486372367599
 21
187.3245913242527
 31
0.0
  0
LINE
  5
611
330
15
100
AcDbEntity
  8
L-CENTER
 48
2.0
100
AcDbLine
 10
529.4815596442688
 20
311.0682780318984
 30
0.0
 11
588.7697117925791
 21
311.0682780318984
 31
0.0
  0
LINE
  5
612
330
15
100
AcDbEntity
  8
L-CENTER
 48
2.0
100
AcDbLine
 10
529.4815596442688
 20
187.3245913242527
 30
0.0
 11
588.7697117925791
 21
187.3245913242527
 31
0.0
  0
LINE
  5
613
330
15
100
AcDbEntity
  8
L-CENTER
 48
2.0
100
AcDbLine
 10
1424.774524515909
 20
1795.199728295139
 30
0.0
 11
1365.486372367599
 21
1795.199728295139
 31
0.0
  0
LINE
  5
614
330
15
100
AcDbEntity
  8
L-CENTER
 48
2.0
100
AcDbLine
 10
1424.774524515909
 20
1671.456041587493
 30
0.0
 11
1365.486372367599
 21
1671.456041587493
 31
0.0
  0
LINE
  5
615
330
15
100
AcDbEntity
  8
L-CENTER
 48
2.0
100
AcDbLine
 10
529.4815596442688
 20
1795.199728295139
 30
0.0
 11
588.7697117925791
 21
1795.199728295139
 31
0.0
  0
LINE
  5
616
330
15
100
AcDbEntity
  8
L-CENTER
 48
2.0
100
AcDbLine
 10
529.4815596442688
 20
1671.456041587493
 30
0.0
 11
588.7697117925791
 21
1671.456041587493
 31
0.0
  0
LINE
  5
6E7
330
15
100
AcDbEntity
  8
4
100
AcDbLine
 10
842.8699880800891
 20
540.6964336780752
 30
0.0
 11
842.8699880800891
 21
522.6964376780757
 31
0.0
  0
LINE
  5
6E8
330
15
100
AcDbEntity
  8
4
100
AcDbLine
 10
870.8699880800891
 20
540.6964336780752
 30
0.0
 11
870.8699880800891
 21
522.6964376780757
 31
0.0
  0
ARC
  5
6E9
330
15
100
AcDbEntity
  8
4
100
AcDbCircle
 10
856.8699880800891
 20
479.1964356780754
 30
0.0
 40
52.500014
100
AcDbArc
 50
105.4660057259743
 51
74.53399500000012
  0
LINE
  5
6EA
330
15
100
AcDbEntity
  8
4
100
AcDbLine
 10
870.8699880800891
 20
522.6964376780757
 30
0.0
 11
842.8699880800891
 21
522.6964376780757
 31
0.0
  0
LINE
  5
6EB
330
15
100
AcDbEntity
  8
4
100
AcDbLine
 10
842.8699880800891
 20
540.6964336780752
 30
0.0
 11
870.8699880800891
 21
540.6964336780752
 31
0.0
  0
CIRCLE
  5
6EC
330
15
100
AcDbEntity
  8
4
100
AcDbCircle
 10
856.8699880800891
 20
479.1964356780754
 30
0.0
 40
70.0
  0
LINE
  5
6ED
330
15
100
AcDbEntity
  8
4
100
AcDbLine
 10
2262.805449241382
 20
430.1663900142062
 30
0.0
 11
2262.805449241382
 21
443.2266311339481
 31
0.0
  0
LINE
  5
6EE
330
15
100
AcDbEntity
  8
4
100
AcDbLine
 10
2248.705449241382
 20
424.1964346780755
 30
0.0
 11
2248.705449241382
 21
534.1964366780753
 31
0.0
  0
LINE
  5
6EF
330
15
100
AcDbEntity
  8
4
100
AcDbLine
 10
2070.705452241382
 20
531.6964356780754
 30
0.0
 11
2070.705452241382
 21
426.6964356780754
 31
0.0
  0
LINE
  5
6F0
330
15
100
AcDbEntity
  8
4
100
AcDbLine
 10
2068.705454241382
 20
428.6964336780752
 30
0.0
 11
2068.705454241382
 21
540.6964336780752
 31
0.0
  0
LINE
  5
6F1
330
15
100
AcDbEntity
  8
4
100
AcDbLine
 10
2248.705449241382
 20
426.6964356780754
 30
0.0
 11
2070.705452241382
 21
426.6964356780754
 31
0.0
  0
LINE
  5
6F2
330
15
100
AcDbEntity
  8
4
100
AcDbLine
 10
2252.805448241383
 20
424.1964346780755
 30
0.0
 11
2248.705449241382
 21
424.1964346780755
 31
0.0
  0
LINE
  5
6F3
330
15
100
AcDbEntity
  8
4
100
AcDbLine
 10
2068.705454241382
 20
428.6964336780752
 30
0.0
 11
2070.705452241382
 21
426.6964356780754
 31
0.0
  0
LINE
  5
6F4
330
15
100
AcDbEntity
  8
4
100
AcDbLine
 10
2068.705454241382
 20
540.6964336780752
 30
0.0
 11
2238.705452241382
 21
540.6964336780752
 31
0.0
  0
LINE
  5
6F5
330
15
100
AcDbEntity
  8
4
100
AcDbLine
 10
2252.805448241383
 20
534.1964366780753
 30
0.0
 11
2248.705449241382
 21
534.1964366780753
 31
0.0
  0
LINE
  5
6F6
330
15
100
AcDbEntity
  8
4
100
AcDbLine
 10
2238.705452241382
 20
531.6964356780754
 30
0.0
 11
2238.705452241382
 21
540.6964336780752
 31
0.0
  0
LINE
  5
6F7
330
15
100
AcDbEntity
  8
4
100
AcDbLine
 10
2070.705452241382
 20
531.6964356780754
 30
0.0
 11
2068.705454241382
 21
529.6964376780757
 31
0.0
  0
LINE
  5
6F9
330
15
100
AcDbEntity
  8
4
100
AcDbLine
 10
2248.705449241382
 20
531.6964356780754
 30
0.0
 11
2070.705452241382
 21
531.6964356780754
 31
0.0
  0
LINE
  5
711
330
15
100
AcDbEntity
  8
4
100
AcDbLine
 10
2262.805449241382
 20
465.1659413631542
 30
0.0
 11
2262.805449241382
 21
528.227082724165
 31
0.0
  0
LINE
  5
712
330
15
100
AcDbEntity
  8
4
100
AcDbLine
 10
804.0380420800889
 20
1411.327884941316
 30
0.0
 11
842.5380420800889
 21
1411.327884941316
 31
0.0
  0
LINE
  5
713
330
15
100
AcDbEntity
  8
4
100
AcDbLine
 10
806.0380420800889
 20
1409.327884941316
 30
0.0
 11
907.0380420800889
 21
1409.327884941316
 31
0.0
  0
LINE
  5
714
330
15
100
AcDbEntity
  8
4
100
AcDbLine
 10
801.5380420800889
 20
1589.327884941316
 30
0.0
 11
911.5380420800889
 21
1589.327884941316
 31
0.0
  0
ARC
  5
715
330
15
100
AcDbEntity
  8
4
100
AcDbCircle
 10
911.5380420800898
 20
1586.827884941316
 30
0.0
 40
2.5
100
AcDbArc
 50
90.0
 51
180.0
  0
LINE
  5
716
330
15
100
AcDbEntity
  8
4
100
AcDbLine
 10
842.5380420800889
 20
1409.327884941316
 30
0.0
 11
842.5380420800889
 21
1565.327884941316
 31
0.0
  0
LINE
  5
717
330
15
100
AcDbEntity
  8
4
100
AcDbLine
 10
909.0380420800889
 20
1411.327884941316
 30
0.0
 11
909.0380420800889
 21
1586.827884941316
 31
0.0
  0
LINE
  5
718
330
15
100
AcDbEntity
  8
4
100
AcDbLine
 10
870.5380420800889
 20
1409.327884941316
 30
0.0
 11
870.5380420800889
 21
1565.327884941316
 31
0.0
  0
LINE
  5
719
330
15
100
AcDbEntity
  8
4
100
AcDbLine
 10
856.5380420800889
 20
1579.327884941316
 30
0.0
 11
856.5380420800889
 21
1579.327884941316
 31
0.0
  0
ARC
  5
71A
330
15
100
AcDbEntity
  8
4
100
AcDbCircle
 10
856.5380420800898
 20
1565.327884941316
 30
0.0
 40
14.0
100
AcDbArc
 50
90.0
 51
180.0
  0
ARC
  5
71B
330
15
100
AcDbEntity
  8
4
100
AcDbCircle
 10
856.5380420800898
 20
1565.327884941316
 30
0.0
 40
14.0
100
AcDbArc
 50
0.0
 51
90.0
  0
LINE
  5
71C
330
15
100
AcDbEntity
  8
4
100
AcDbLine
 10
907.0380420800889
 20
1409.327884941316
 30
0.0
 11
909.0380420800889
 21
1411.327884941316
 31
0.0
  0
LINE
  5
71D
330
15
100
AcDbEntity
  8
4
100
AcDbLine
 10
870.5380420800889
 20
1411.327884941316
 30
0.0
 11
909.0380420800889
 21
1411.327884941316
 31
0.0
  0
ARC
  5
71E
330
15
100
AcDbEntity
  8
4
100
AcDbCircle
 10
801.5380420800898
 20
1586.827884941316
 30
0.0
 40
2.5
100
AcDbArc
 50
0.0
 51
90.0
  0
LINE
  5
71F
330
15
100
AcDbEntity
  8
4
100
AcDbLine
 10
804.0380420800889
 20
1411.327884941316
 30
0.0
 11
804.0380420800889
 21
1586.827884941316
 31
0.0
  0
LINE
  5
720
330
15
100
AcDbEntity
  8
4
100
AcDbLine
 10
804.0380420800889
 20
1411.327884941316
 30
0.0
 11
806.0380420800889
 21
1409.327884941316
 31
0.0
  0
LINE
  5
721
330
15
100
AcDbEntity
  8
4
100
AcDbLine
 10
801.5380420800889
 20
1589.327884941316
 30
0.0
 11
801.5380420800889
 21
1603.427884941315
 31
0.0
  0
LINE
  5
722
330
15
100
AcDbEntity
  8
4
100
AcDbLine
 10
911.5380420800889
 20
1589.327884941316
 30
0.0
 11
911.5380420800898
 21
1603.427884941315
 31
0.0
  0
LINE
  5
723
330
15
100
AcDbEntity
  8
4
100
AcDbLine
 10
786.5380420800898
 20
1604.427884941315
 30
0.0
 11
786.5380420800898
 21
1603.427884941315
 31
0.0
  0
LINE
  5
724
330
15
100
AcDbEntity
  8
4
100
AcDbLine
 10
926.5380420800898
 20
1604.427884941315
 30
0.0
 11
926.5380420800898
 21
1603.427884941315
 31
0.0
  0
LINE
  5
725
330
15
100
AcDbEntity
  8
4
100
AcDbLine
 10
786.5380420800898
 20
1603.427884941315
 30
0.0
 11
845.5683869654863
 21
1603.427884941315
 31
0.0
  0
LINE
  5
726
330
15
100
AcDbEntity
  8
4
100
AcDbLine
 10
867.5076971946914
 20
1603.427884941315
 30
0.0
 11
926.5380420800889
 21
1603.427884941315
 31
0.0
  0
ENDSEC
  0
SECTION
  2
OBJECTS
  0
DICTIONARY
  5
5
330
0
100
AcDbDictionary
281
     1
  3
ACAD_COLOR
350
28
  3
ACAD_GROUP
350
26
  3
ACAD_LAYOUT
350
1C
  3
ACAD_MATERIAL
350
7
  3
ACAD_MLEADERSTYLE
350
6C0
  3
ACAD_MLINESTYLE
350
13
  3
ACAD_PLOTSETTINGS
350
27
  3
ACAD_PLOTSTYLENAME
350
4
  3
ACAD_SCALELIST
350
2D
  3
ACAD_VISUALSTYLE
350
29
  3
ACDBHEADERROUNDTRIPXREC
350
72B
  3
AcDbVariableDictionary
350
6BD
  3
DWGPROPS
350
72E
  0
DICTIONARY
  5
72F
330
25
100
AcDbDictionary
280
     1
281
     1
  3
ACAD_XREC_ROUNDTRIP
360
730
  0
DICTIONARY
  5
16
330
15
100
AcDbDictionary
280
     1
281
     1
  3
ACAD_SORTENTS
360
17
  0
DICTIONARY
  5
28
102
{ACAD_REACTORS
330
5
102
}
330
5
100
AcDbDictionary
281
     1
  0
DICTIONARY
  5
26
102
{ACAD_REACTORS
330
5
102
}
330
5
100
AcDbDictionary
281
     1
  0
DICTIONARY
  5
1C
102
{ACAD_REACTORS
330
5
102
}
330
5
100
AcDbDictionary
281
     1
  3
Model
350
1B
  3
ﾚｲｱｳﾄ1
350
22
  0
DICTIONARY
  5
7
102
{ACAD_REACTORS
330
5
102
}
330
5
100
AcDbDictionary
281
     1
  3
ByBlock
350
70
  3
ByLayer
350
E
  3
Global
350
6
  0
DICTIONARY
  5
6C0
102
{ACAD_REACTORS
330
5
102
}
330
5
100
AcDbDictionary
281
     1
  3
Standard
350
6DB
  0
DICTIONARY
  5
13
102
{ACAD_REACTORS
330
5
102
}
330
5
100
AcDbDictionary
281
     1
  3
STANDARD
350
12
  0
DICTIONARY
  5
27
102
{ACAD_REACTORS
330
5
102
}
330
5
100
AcDbDictionary
281
     1
  0
ACDBDICTIONARYWDFLT
  5
4
102
{ACAD_REACTORS
330
5
102
}
330
5
100
AcDbDictionary
281
     1
  3
Normal
350
3
100
AcDbDictionaryWithDefault
340
3
  0
DICTIONARY
  5
2D
102
{ACAD_REACTORS
330
5
102
}
330
5
100
AcDbDictionary
281
     1
  3
*A1
350
4F
  3
*A10
350
58
  3
*A11
350
59
  3
*A12
350
5A
  3
*A13
350
5B
  3
*A14
350
5C
  3
*A15
350
5D
  3
*A16
350
5E
  3
*A17
350
5F
  3
*A18
350
60
  3
*A19
350
61
  3
*A2
350
50
  3
*A20
350
62
  3
*A21
350
63
  3
*A22
350
64
  3
*A23
350
65
  3
*A24
350
66
  3
*A25
350
67
  3
*A26
350
68
  3
*A27
350
69
  3
*A28
350
6A
  3
*A29
350
6B
  3
*A3
350
51
  3
*A30
350
6C
  3
*A31
350
6D
  3
*A32
350
6E
  3
*A33
350
6F
  3
*A4
350
52
  3
*A5
350
53
  3
*A6
350
54
  3
*A7
350
55
  3
*A8
350
56
  3
*A9
350
57
  0
DICTIONARY
  5
29
102
{ACAD_REACTORS
330
5
102
}
330
5
100
AcDbDictionary
281
     1
  3
2dWireframe
350
6C7
  3
Basic
350
6CA
  3
Brighten
350
6CE
  3
ColorChange
350
6D2
  3
Conceptual
350
6CC
  3
Dim
350
6CD
  3
EdgeColorOff
350
6D5
  3
Facepattern
350
6D1
  3
Flat
350
6C3
  3
FlatWithEdges
350
6C4
  3
Gouraud
350
6C5
  3
GouraudWithEdges
350
6C6
  3
Hidden
350
6C9
  3
JitterOff
350
6D3
  3
Linepattern
350
6D0
  3
OverhangOff
350
6D4
  3
Realistic
350
6CB
  3
Shaded
350
6DA
  3
Shaded with edges
350
6D9
  3
Shades of Gray
350
6D6
  3
Sketchy
350
6D7
  3
Thicken
350
6CF
  3
Wireframe
350
6C8
  3
X-Ray
350
6D8
  0
DICTIONARY
  5
72B
102
{ACAD_REACTORS
330
5
102
}
330
5
100
AcDbDictionary
281
     1
  3
COLORDICT
350
72C
  3
MATERIALDICT
350
72D
  0
DICTIONARY
  5
6BD
102
{ACAD_REACTORS
330
5
102
}
330
5
100
AcDbDictionary
281
     1
  3
CANNOSCALE
350
6BE
  3
CMLEADERSTYLE
350
6E4
  3
DIMASSOC
350
729
  3
HIDETEXT
350
72A
  3
MSLTSCALE
350
731
  0
XRECORD
  5
72E
102
{ACAD_REACTORS
330
5
102
}
330
5
100
AcDbXrecord
280
     1
  1
DWGPROPS COOKIE
  2

  3

  4

  6

  7

  8
sg-d03
  9

300
=
301
=
302
=
303
=
304
=
305
=
306
=
307
=
308
=
309
=
 40
0.0
 41
2449812.756805555
 42
2458114.372344514
  1

 90
        0
  0
XRECORD
  5
730
102
{ACAD_REACTORS
330
72F
102
}
330
72F
100
AcDbXrecord
280
     1
102
VTR_0.000_0.000_1.000_1.000_GRIDDISPLAY
 70
     3
102
VTR_0.000_0.000_1.000_1.000_GRIDMAJOR
 70
     5
102
VTR_0.000_0.000_1.000_1.000_DEFAULTLIGHTING
280
     1
102
VTR_0.000_0.000_1.000_1.000_DEFAULTLIGHTINGTYPE
 70
     1
102
VTR_0.000_0.000_1.000_1.000_BRIGHTNESS
141
0.0
102
VTR_0.000_0.000_1.000_1.000_CONTRAST
142
0.0
  0
SORTENTSTABLE
  5
17
102
{ACAD_REACTORS
330
16
102
}
330
16
100
AcDbSortentsTable
330
15
331
0
  5
6F9
331
6EE
  5
6EF
331
6EF
  5
6F0
331
6F0
  5
6F1
331
6F1
  5
6F2
331
6F2
  5
6F3
331
6F3
  5
6F4
331
6F4
  5
6F5
331
6F5
  5
6F6
331
6F6
  5
6F7
331
6F7
  5
6F8
331
6F9
  5
6FA
331
0
  5
6FB
331
0
  5
6FC
331
0
  5
6FD
331
0
  5
6FE
331
0
  5
6FF
331
0
  5
700
331
0
  5
701
331
0
  5
702
331
0
  5
703
331
0
  5
704
331
0
  5
705
331
0
  5
706
331
0
  5
707
331
0
  5
708
331
0
  5
709
331
0
  5
70A
331
0
  5
70B
331
0
  5
70C
331
0
  5
70D
331
0
  5
70E
331
0
  5
70F
331
0
  5
710
331
0
  5
711
331
711
  5
6EE
  0
LAYOUT
  5
1B
102
{ACAD_REACTORS
330
1C
102
}
330
1C
100
AcDbPlotSettings
  1

  2
Bullzip PDF Printer.pc3
  4
A3
  6

 40
0.2
 41
0.0
 42
0.0
 43
0.0
 44
420.2
 45
297.1
 46
25.0
 47
12.0
 48
139.9999997783334
 49
0.0
140
3195.999993887111
141
2179.999995704281
142
1.0
143
8.0
 70
 11936
 72
     1
 73
     0
 74
     4
  7
monochrome.ctb
 75
     0
147
1.0
148
-139.9999997783334
149
0.0
100
AcDbLayout
  1
Model
 70
     0
 71
     0
 10
0.0
 20
0.0
 11
12.0
 21
9.0
 12
0.0
 22
0.0
 32
0.0
 14
529.4815596442686
 24
48.92583696493409
 34
0.0
 15
2842.884405241381
 25
2183.506839941316
 35
0.0
146
0.0
 13
0.0
 23
0.0
 33
0.0
 16
1.0
 26
0.0
 36
0.0
 17
0.0
 27
1.0
 37
0.0
 76
     0
330
15
331
2B
1001
ACAD_PSEXT
1000
Bullzip PDF Printer.pc3
1000
Bullzip PDF Printer
1000
BULLZIP
1000
Bullzip PDF Printer 10.1.0.1871
1070
     0
  0
LAYOUT
  5
22
102
{ACAD_REACTORS
330
1C
102
}
330
1C
100
AcDbPlotSettings
  1

  2
SR-LP8300F
  4

  6

 40
0.0
 41
0.0
 42
0.0
 43
0.0
 44
0.0
 45
0.0
 46
0.0
 47
0.0
 48
0.0
 49
0.0
140
0.0
141
0.0
142
1.0
143
1.0
 70
   688
 72
     0
 73
     0
 74
     5
  7
monochrome.ctb
 75
    16
147
1.0
148
0.0
149
0.0
100
AcDbLayout
  1
ﾚｲｱｳﾄ1
 70
     0
 71
     1
 10
0.0
 20
0.0
 11
12.0
 21
9.0
 12
0.0
 22
0.0
 32
0.0
 14
1000000000000000E+20
 24
1000000000000000E+20
 34
1000000000000000E+20
 15
-1000000000000000E+20
 25
-1000000000000000E+20
 35
-1000000000000000E+20
146
0.0
 13
0.0
 23
0.0
 33
0.0
 16
1.0
 26
0.0
 36
0.0
 17
0.0
 27
1.0
 37
0.0
 76
     0
330
1F
  0
MATERIAL
  5
70
102
{ACAD_REACTORS
330
7
102
}
102
{ACAD_XDICTIONARY
360
736
102
}
330
7
100
AcDbMaterial
  1
ByBlock
  0
MATERIAL
  5
E
102
{ACAD_REACTORS
330
7
102
}
102
{ACAD_XDICTIONARY
360
732
102
}
330
7
100
AcDbMaterial
  1
ByLayer
  0
MATERIAL
  5
6
102
{ACAD_REACTORS
330
7
102
}
102
{ACAD_XDICTIONARY
360
734
102
}
330
7
100
AcDbMaterial
  1
Global
  0
MLEADERSTYLE
  5
6DB
102
{ACAD_REACTORS
330
6C0
102
}
102
{ACAD_XDICTIONARY
360
768
102
}
330
6C0
100
AcDbMLeaderStyle
170
     2
171
     1
172
     0
 90
        2
 40
0.0
 41
0.0
173
     1
 91
-1056964608
340
B
 92
       -2
290
     1
 42
0.09
291
     1
 43
0.36
  3
Standard
341
0
 44
0.18
300

342
C
174
     1
178
     6
175
     1
176
     0
 93
-1056964608
 45
0.18
292
     0
297
     0
 46
0.18
343
0
 94
-1056964608
 47
1.0
 49
1.0
140
1.0
293
     1
141
0.0
294
     1
177
     0
142
1.0
295
     0
296
     0
143
0.125
1001
ACAD_MLEADERVER
1070
     2
  0
MLINESTYLE
  5
12
102
{ACAD_REACTORS
330
13
102
}
330
13
100
AcDbMlineStyle
  2
STANDARD
 70
     0
  3

 62
     0
 51
90.0
 52
90.0
 71
     2
 49
0.5
 62
   256
  6
BYLAYER
 49
-0.5
 62
   256
  6
BYLAYER
  0
ACDBPLACEHOLDER
  5
3
102
{ACAD_REACTORS
330
4
102
}
330
4
  0
SCALE
  5
4F
102
{ACAD_REACTORS
330
2D
102
}
330
2D
100
AcDbScale
 70
     0
300
1:1
140
1.0
141
1.0
290
     1
  0
SCALE
  5
58
102
{ACAD_REACTORS
330
2D
102
}
330
2D
100
AcDbScale
 70
     0
300
1:40
140
1.0
141
40.0
290
     0
  0
SCALE
  5
59
102
{ACAD_REACTORS
330
2D
102
}
330
2D
100
AcDbScale
 70
     0
300
1:50
140
1.0
141
50.0
290
     0
  0
SCALE
  5
5A
102
{ACAD_REACTORS
330
2D
102
}
330
2D
100
AcDbScale
 70
     0
300
1:100
140
1.0
141
100.0
290
     0
  0
SCALE
  5
5B
102
{ACAD_REACTORS
330
2D
102
}
330
2D
100
AcDbScale
 70
     0
300
2:1
140
2.0
141
1.0
290
     0
  0
SCALE
  5
5C
102
{ACAD_REACTORS
330
2D
102
}
330
2D
100
AcDbScale
 70
     0
300
4:1
140
4.0
141
1.0
290
     0
  0
SCALE
  5
5D
102
{ACAD_REACTORS
330
2D
102
}
330
2D
100
AcDbScale
 70
     0
300
8:1
140
8.0
141
1.0
290
     0
  0
SCALE
  5
5E
102
{ACAD_REACTORS
330
2D
102
}
330
2D
100
AcDbScale
 70
     0
300
10:1
140
10.0
141
1.0
290
     0
  0
SCALE
  5
5F
102
{ACAD_REACTORS
330
2D
102
}
330
2D
100
AcDbScale
 70
     0
300
100:1
140
100.0
141
1.0
290
     0
  0
SCALE
  5
60
102
{ACAD_REACTORS
330
2D
102
}
330
2D
100
AcDbScale
 70
     0
300
1/128" = 1'-0"
140
0.0078125
141
12.0
290
     0
  0
SCALE
  5
61
102
{ACAD_REACTORS
330
2D
102
}
330
2D
100
AcDbScale
 70
     0
300
1/64" = 1'-0"
140
0.015625
141
12.0
290
     0
  0
SCALE
  5
50
102
{ACAD_REACTORS
330
2D
102
}
330
2D
100
AcDbScale
 70
     0
300
1:2
140
1.0
141
2.0
290
     0
  0
SCALE
  5
62
102
{ACAD_REACTORS
330
2D
102
}
330
2D
100
AcDbScale
 70
     0
300
1/32" = 1'-0"
140
0.03125
141
12.0
290
     0
  0
SCALE
  5
63
102
{ACAD_REACTORS
330
2D
102
}
330
2D
100
AcDbScale
 70
     0
300
1/16" = 1'-0"
140
0.0625
141
12.0
290
     0
  0
SCALE
  5
64
102
{ACAD_REACTORS
330
2D
102
}
330
2D
100
AcDbScale
 70
     0
300
3/32" = 1'-0"
140
0.09375
141
12.0
290
     0
  0
SCALE
  5
65
102
{ACAD_REACTORS
330
2D
102
}
330
2D
100
AcDbScale
 70
     0
300
1/8" = 1'-0"
140
0.125
141
12.0
290
     0
  0
SCALE
  5
66
102
{ACAD_REACTORS
330
2D
102
}
330
2D
100
AcDbScale
 70
     0
300
3/16" = 1'-0"
140
0.1875
141
12.0
290
     0
  0
SCALE
  5
67
102
{ACAD_REACTORS
330
2D
102
}
330
2D
100
AcDbScale
 70
     0
300
1/4" = 1'-0"
140
0.25
141
12.0
290
     0
  0
SCALE
  5
68
102
{ACAD_REACTORS
330
2D
102
}
330
2D
100
AcDbScale
 70
     0
300
3/8" = 1'-0"
140
0.375
141
12.0
290
     0
  0
SCALE
  5
69
102
{ACAD_REACTORS
330
2D
102
}
330
2D
100
AcDbScale
 70
     0
300
1/2" = 1'-0"
140
0.5
141
12.0
290
     0
  0
SCALE
  5
6A
102
{ACAD_REACTORS
330
2D
102
}
330
2D
100
AcDbScale
 70
     0
300
3/4" = 1'-0"
140
0.75
141
12.0
290
     0
  0
SCALE
  5
6B
102
{ACAD_REACTORS
330
2D
102
}
330
2D
100
AcDbScale
 70
     0
300
1" = 1'-0"
140
1.0
141
12.0
290
     0
  0
SCALE
  5
51
102
{ACAD_REACTORS
330
2D
102
}
330
2D
100
AcDbScale
 70
     0
300
1:4
140
1.0
141
4.0
290
     0
  0
SCALE
  5
6C
102
{ACAD_REACTORS
330
2D
102
}
330
2D
100
AcDbScale
 70
     0
300
1-1/2" = 1'-0"
140
1.5
141
12.0
290
     0
  0
SCALE
  5
6D
102
{ACAD_REACTORS
330
2D
102
}
330
2D
100
AcDbScale
 70
     0
300
3" = 1'-0"
140
3.0
141
12.0
290
     0
  0
SCALE
  5
6E
102
{ACAD_REACTORS
330
2D
102
}
330
2D
100
AcDbScale
 70
     0
300
6" = 1'-0"
140
6.0
141
12.0
290
     0
  0
SCALE
  5
6F
102
{ACAD_REACTORS
330
2D
102
}
330
2D
100
AcDbScale
 70
     0
300
1'-0" = 1'-0"
140
12.0
141
12.0
290
     0
  0
SCALE
  5
52
102
{ACAD_REACTORS
330
2D
102
}
330
2D
100
AcDbScale
 70
     0
300
1:5
140
1.0
141
5.0
290
     0
  0
SCALE
  5
53
102
{ACAD_REACTORS
330
2D
102
}
330
2D
100
AcDbScale
 70
     0
300
1:8
140
1.0
141
8.0
290
     0
  0
SCALE
  5
54
102
{ACAD_REACTORS
330
2D
102
}
330
2D
100
AcDbScale
 70
     0
300
1:10
140
1.0
141
10.0
290
     0
  0
SCALE
  5
55
102
{ACAD_REACTORS
330
2D
102
}
330
2D
100
AcDbScale
 70
     0
300
1:16
140
1.0
141
16.0
290
     0
  0
SCALE
  5
56
102
{ACAD_REACTORS
330
2D
102
}
330
2D
100
AcDbScale
 70
     0
300
1:20
140
1.0
141
20.0
290
     0
  0
SCALE
  5
57
102
{ACAD_REACTORS
330
2D
102
}
330
2D
100
AcDbScale
 70
     0
300
1:30
140
1.0
141
30.0
290
     0
  0
VISUALSTYLE
  5
6C7
102
{ACAD_REACTORS
330
29
102
}
102
{ACAD_XDICTIONARY
360
740
102
}
330
29
100
AcDbVisualStyle
  2
2dWireframe
 70
     4
 71
     0
 72
     2
 73
     0
 90
        0
 40
0.6
 41
30.0
 62
     5
 63
     7
 74
     1
 91
        4
 64
     7
 65
   257
 75
     1
175
     1
 42
1.0
 92
        0
 66
   257
 43
1.0
 76
     1
 77
     6
 78
     2
 67
     7
 79
     5
170
     0
171
     0
290
     0
174
     0
 93
        1
 44
0.0
173
     0
291
     0
 45
0.0
1001
ACAD
1000
AcDbSavedByObjectVersion
1070
     0
  0
VISUALSTYLE
  5
6CA
102
{ACAD_REACTORS
330
29
102
}
102
{ACAD_XDICTIONARY
360
746
102
}
330
29
100
AcDbVisualStyle
  2
Basic
 70
     7
 71
     1
 72
     0
 73
     1
 90
        0
 40
0.6
 41
30.0
 62
     5
 63
     7
 74
     0
 91
        4
 64
     7
 65
   257
 75
     1
175
     1
 42
1.0
 92
        8
 66
     7
 43
1.0
 76
     1
 77
     6
 78
     2
 67
     7
 79
     5
170
     0
171
     0
290
     0
174
     0
 93
        1
 44
0.0
173
     0
291
     1
 45
0.0
1001
ACAD
1000
AcDbSavedByObjectVersion
1070
     0
  0
VISUALSTYLE
  5
6CE
102
{ACAD_REACTORS
330
29
102
}
102
{ACAD_XDICTIONARY
360
74E
102
}
330
29
100
AcDbVisualStyle
  2
Brighten
 70
    12
 71
     2
 72
     2
 73
     0
 90
        0
 40
0.6
 41
30.0
 62
     5
 63
     7
 74
     1
 91
        4
 64
     7
 65
   257
 75
     1
175
     1
 42
1.0
 92
        8
 66
     7
 43
1.0
 76
     1
 77
     6
 78
     2
 67
     7
 79
     5
170
     0
171
     0
290
     0
174
     0
 93
        1
 44
50.0
173
     0
291
     1
 45
0.0
1001
ACAD
1000
AcDbSavedByObjectVersion
1070
     0
  0
VISUALSTYLE
  5
6D2
102
{ACAD_REACTORS
330
29
102
}
102
{ACAD_XDICTIONARY
360
756
102
}
330
29
100
AcDbVisualStyle
  2
ColorChange
 70
    16
 71
     2
 72
     2
 73
     3
 90
        0
 40
0.6
 41
30.0
 62
     5
 63
     8
 74
     1
 91
        4
 64
     7
 65
   257
 75
     1
175
     1
 42
1.0
 92
        8
 66
     8
 43
1.0
 76
     1
 77
     6
 78
     2
 67
     7
 79
     5
170
     0
171
     0
290
     0
174
     0
 93
        1
 44
0.0
173
     0
291
     1
 45
0.0
1001
ACAD
1000
AcDbSavedByObjectVersion
1070
     0
  0
VISUALSTYLE
  5
6CC
102
{ACAD_REACTORS
330
29
102
}
102
{ACAD_XDICTIONARY
360
74A
102
}
330
29
100
AcDbVisualStyle
  2
Conceptual
 70
     9
 71
     3
 72
     2
 73
     0
 90
        0
 40
0.6
 41
30.0
 62
     5
 63
     7
 74
     2
 91
        2
 64
     7
 65
   257
 75
     1
175
     1
 42
40.0
 92
        8
 66
     7
 43
1.0
 76
     1
 77
     6
 78
     2
 67
     7
 79
     3
170
     0
171
     0
290
     0
174
     0
 93
        1
 44
0.0
173
     0
291
     0
 45
0.0
1001
ACAD
1000
AcDbSavedByObjectVersion
1070
     0
  0
VISUALSTYLE
  5
6CD
102
{ACAD_REACTORS
330
29
102
}
102
{ACAD_XDICTIONARY
360
74C
102
}
330
29
100
AcDbVisualStyle
  2
Dim
 70
    11
 71
     2
 72
     2
 73
     0
 90
        0
 40
0.6
 41
30.0
 62
     5
 63
     7
 74
     1
 91
        4
 64
     7
 65
   257
 75
     1
175
     1
 42
1.0
 92
        8
 66
     7
 43
1.0
 76
     1
 77
     6
 78
     2
 67
     7
 79
     5
170
     0
171
     0
290
     0
174
     0
 93
        1
 44
-50.0
173
     0
291
     1
 45
0.0
1001
ACAD
1000
AcDbSavedByObjectVersion
1070
     0
  0
VISUALSTYLE
  5
6D5
102
{ACAD_REACTORS
330
29
102
}
102
{ACAD_XDICTIONARY
360
75C
102
}
330
29
100
AcDbVisualStyle
  2
EdgeColorOff
 70
    22
 71
     2
 72
     2
 73
     0
 90
        0
 40
0.6
 41
30.0
 62
     5
 63
     7
 74
     1
 91
        4
 64
     7
 65
   257
 75
     1
175
     1
 42
1.0
 92
        8
 66
     7
 43
1.0
 76
     1
 77
     6
 78
     2
 67
     7
 79
     5
170
     0
171
     0
290
     0
174
     0
 93
        1
 44
0.0
173
     0
291
     1
 45
0.0
1001
ACAD
1000
AcDbSavedByObjectVersion
1070
     0
  0
VISUALSTYLE
  5
6D1
102
{ACAD_REACTORS
330
29
102
}
102
{ACAD_XDICTIONARY
360
754
102
}
330
29
100
AcDbVisualStyle
  2
Facepattern
 70
    15
 71
     2
 72
     2
 73
     0
 90
        0
 40
0.6
 41
30.0
 62
     5
 63
     7
 74
     1
 91
        4
 64
     7
 65
   257
 75
     1
175
     1
 42
1.0
 92
        8
 66
     7
 43
1.0
 76
     1
 77
     6
 78
     2
 67
     7
 79
     5
170
     0
171
     0
290
     0
174
     0
 93
        1
 44
0.0
173
     0
291
     1
 45
0.0
1001
ACAD
1000
AcDbSavedByObjectVersion
1070
     0
  0
VISUALSTYLE
  5
6C3
102
{ACAD_REACTORS
330
29
102
}
102
{ACAD_XDICTIONARY
360
738
102
}
330
29
100
AcDbVisualStyle
  2
Flat
 70
     0
 71
     2
 72
     1
 73
     1
 90
        2
 40
0.6
 41
30.0
 62
     5
 63
     7
 74
     0
 91
        4
 64
     7
 65
   257
 75
     1
175
     1
 42
1.0
 92
        8
 66
     7
 43
1.0
 76
     1
 77
     6
 78
     2
 67
     7
 79
     5
170
     0
171
     0
290
     0
174
     0
 93
       13
 44
0.0
173
     0
291
     1
 45
0.0
1001
ACAD
1000
AcDbSavedByObjectVersion
1070
     0
  0
VISUALSTYLE
  5
6C4
102
{ACAD_REACTORS
330
29
102
}
102
{ACAD_XDICTIONARY
360
73A
102
}
330
29
100
AcDbVisualStyle
  2
FlatWithEdges
 70
     1
 71
     2
 72
     1
 73
     1
 90
        2
 40
0.6
 41
30.0
 62
     5
 63
     7
 74
     1
 91
        4
 64
     7
 65
   257
 75
     1
175
     1
 42
1.0
 92
        0
 66
   257
 43
1.0
 76
     1
 77
     6
 78
     2
 67
     7
 79
     5
170
     0
171
     0
290
     0
174
     0
 93
       13
 44
0.0
173
     0
291
     1
 45
0.0
1001
ACAD
1000
AcDbSavedByObjectVersion
1070
     0
  0
VISUALSTYLE
  5
6C5
102
{ACAD_REACTORS
330
29
102
}
102
{ACAD_XDICTIONARY
360
73C
102
}
330
29
100
AcDbVisualStyle
  2
Gouraud
 70
     2
 71
     2
 72
     2
 73
     1
 90
        2
 40
0.6
 41
30.0
 62
     5
 63
     7
 74
     0
 91
        4
 64
     7
 65
   257
 75
     1
175
     1
 42
1.0
 92
        0
 66
     7
 43
1.0
 76
     1
 77
     6
 78
     2
 67
     7
 79
     5
170
     0
171
     0
290
     0
174
     0
 93
       13
 44
0.0
173
     0
291
     1
 45
0.0
1001
ACAD
1000
AcDbSavedByObjectVersion
1070
     0
  0
VISUALSTYLE
  5
6C6
102
{ACAD_REACTORS
330
29
102
}
102
{ACAD_XDICTIONARY
360
73E
102
}
330
29
100
AcDbVisualStyle
  2
GouraudWithEdges
 70
     3
 71
     2
 72
     2
 73
     1
 90
        2
 40
0.6
 41
30.0
 62
     5
 63
     7
 74
     1
 91
        4
 64
     7
 65
   257
 75
     1
175
     1
 42
1.0
 92
        0
 66
   257
 43
1.0
 76
     1
 77
     6
 78
     2
 67
     7
 79
     5
170
     0
171
     0
290
     0
174
     0
 93
       13
 44
0.0
173
     0
291
     1
 45
0.0
1001
ACAD
1000
AcDbSavedByObjectVersion
1070
     0
  0
VISUALSTYLE
  5
6C9
102
{ACAD_REACTORS
330
29
102
}
102
{ACAD_XDICTIONARY
360
744
102
}
330
29
100
AcDbVisualStyle
  2
Hidden
 70
     6
 71
     1
 72
     2
 73
     2
 90
        0
 40
0.6
 41
30.0
 62
     5
 63
     7
 74
     2
 91
        2
 64
     7
 65
   257
 75
     2
175
     1
 42
40.0
 92
        0
 66
   257
 43
1.0
 76
     1
 77
     6
 78
     2
 67
     7
 79
     3
170
     0
171
     0
290
     0
174
     0
 93
        1
 44
0.0
173
     0
291
     0
 45
0.0
1001
ACAD
1000
AcDbSavedByObjectVersion
1070
     0
  0
VISUALSTYLE
  5
6D3
102
{ACAD_REACTORS
330
29
102
}
102
{ACAD_XDICTIONARY
360
758
102
}
330
29
100
AcDbVisualStyle
  2
JitterOff
 70
    20
 71
     2
 72
     2
 73
     0
 90
        0
 40
0.6
 41
30.0
 62
     5
 63
     7
 74
     1
 91
        4
 64
     7
 65
   257
 75
     1
175
     1
 42
1.0
 92
       10
 66
     7
 43
1.0
 76
     1
 77
     6
 78
     2
 67
     7
 79
     5
170
     0
171
     0
290
     0
174
     0
 93
        1
 44
0.0
173
     0
291
     1
 45
0.0
1001
ACAD
1000
AcDbSavedByObjectVersion
1070
     0
  0
VISUALSTYLE
  5
6D0
102
{ACAD_REACTORS
330
29
102
}
102
{ACAD_XDICTIONARY
360
752
102
}
330
29
100
AcDbVisualStyle
  2
Linepattern
 70
    14
 71
     2
 72
     2
 73
     0
 90
        0
 40
0.6
 41
30.0
 62
     5
 63
     7
 74
     1
 91
        4
 64
     7
 65
   257
 75
     7
175
     7
 42
1.0
 92
        8
 66
     7
 43
1.0
 76
     1
 77
     6
 78
     2
 67
     7
 79
     5
170
     0
171
     0
290
     0
174
     0
 93
        1
 44
0.0
173
     0
291
     1
 45
0.0
1001
ACAD
1000
AcDbSavedByObjectVersion
1070
     0
  0
VISUALSTYLE
  5
6D4
102
{ACAD_REACTORS
330
29
102
}
102
{ACAD_XDICTIONARY
360
75A
102
}
330
29
100
AcDbVisualStyle
  2
OverhangOff
 70
    21
 71
     2
 72
     2
 73
     0
 90
        0
 40
0.6
 41
30.0
 62
     5
 63
     7
 74
     1
 91
        4
 64
     7
 65
   257
 75
     1
175
     1
 42
1.0
 92
        9
 66
     7
 43
1.0
 76
     1
 77
     6
 78
     2
 67
     7
 79
     5
170
     0
171
     0
290
     0
174
     0
 93
        1
 44
0.0
173
     0
291
     1
 45
0.0
1001
ACAD
1000
AcDbSavedByObjectVersion
1070
     0
  0
VISUALSTYLE
  5
6CB
102
{ACAD_REACTORS
330
29
102
}
102
{ACAD_XDICTIONARY
360
748
102
}
330
29
100
AcDbVisualStyle
  2
Realistic
 70
     8
 71
     2
 72
     3
 73
     0
 90
        2
 40
0.6
 41
30.0
 62
     5
 63
     7
 74
     0
 91
        0
 64
     7
 65
   257
 75
     1
175
     1
 42
1.0
 92
        8
 66
   257
 43
1.0
 76
     1
 77
     6
 78
     2
 67
     7
 79
     3
170
     0
171
     0
290
     0
174
     0
 93
       13
 44
0.0
173
     0
291
     0
 45
0.0
1001
ACAD
1000
AcDbSavedByObjectVersion
1070
     0
  0
VISUALSTYLE
  5
6DA
102
{ACAD_REACTORS
330
29
102
}
102
{ACAD_XDICTIONARY
360
766
102
}
330
29
100
AcDbVisualStyle
  2
Shaded
 70
    27
 71
     2
 72
     2
 73
     1
 90
        2
 40
0.6
 41
30.0
 62
     5
 63
     7
 74
     0
 91
        4
 64
     7
 65
   257
 75
     1
175
     1
 42
1.0
 92
        8
 66
   257
 43
1.0
 76
     1
 77
     6
 78
     2
 67
   251
 79
     3
170
     0
171
     0
290
     0
174
     0
 93
        5
 44
0.0
173
     0
291
     0
 45
0.0
1001
ACAD
1000
AcDbSavedByObjectVersion
1070
     0
  0
VISUALSTYLE
  5
6D9
102
{ACAD_REACTORS
330
29
102
}
102
{ACAD_XDICTIONARY
360
764
102
}
330
29
100
AcDbVisualStyle
  2
Shaded with edges
 70
    26
 71
     2
 72
     2
 73
     1
 90
        2
 40
0.6
 41
30.0
 62
     5
 63
     7
 74
     1
 91
       10
 64
     7
 65
   257
 75
     2
175
     1
 42
1.0
 92
        8
 66
   257
 43
1.0
 76
     1
 77
     6
 78
     2
 67
     7
 79
     3
170
     0
171
     0
290
     0
174
     0
 93
        5
 44
0.0
173
     0
291
     0
 45
0.0
1001
ACAD
1000
AcDbSavedByObjectVersion
1070
     0
  0
VISUALSTYLE
  5
6D6
102
{ACAD_REACTORS
330
29
102
}
102
{ACAD_XDICTIONARY
360
75E
102
}
330
29
100
AcDbVisualStyle
  2
Shades of Gray
 70
    23
 71
     2
 72
     2
 73
     3
 90
        0
 40
0.6
 41
30.0
 62
     5
 63
     7
 74
     2
 91
        2
 64
     7
 65
     7
 75
     1
175
     1
 42
40.0
 92
        8
 66
     7
 43
1.0
 76
     1
 77
     6
 78
     2
 67
     7
 79
     3
170
     0
171
     0
290
     0
174
     0
 93
        1
 44
0.0
173
     0
291
     0
 45
0.0
1001
ACAD
1000
AcDbSavedByObjectVersion
1070
     0
  0
VISUALSTYLE
  5
6D7
102
{ACAD_REACTORS
330
29
102
}
102
{ACAD_XDICTIONARY
360
760
102
}
330
29
100
AcDbVisualStyle
  2
Sketchy
 70
    24
 71
     1
 72
     2
 73
     2
 90
        0
 40
0.6
 41
30.0
 62
     5
 63
     7
 74
     2
 91
        2
 64
     7
 65
     7
 75
     1
175
     1
 42
40.0
 92
       11
 66
     7
 43
1.0
 76
     1
 77
     6
 78
     2
 67
     7
 79
     6
170
     0
171
     0
290
     0
174
     0
 93
        1
 44
0.0
173
     0
291
     0
 45
0.0
1001
ACAD
1000
AcDbSavedByObjectVersion
1070
     0
  0
VISUALSTYLE
  5
6CF
102
{ACAD_REACTORS
330
29
102
}
102
{ACAD_XDICTIONARY
360
750
102
}
330
29
100
AcDbVisualStyle
  2
Thicken
 70
    13
 71
     2
 72
     2
 73
     0
 90
        0
 40
0.6
 41
30.0
 62
     5
 63
     7
 74
     1
 91
        4
 64
     7
 65
   257
 75
     1
175
     1
 42
1.0
 92
       12
 66
     7
 43
1.0
 76
     1
 77
     6
 78
     2
 67
     7
 79
     5
170
     0
171
     0
290
     0
174
     0
 93
        1
 44
0.0
173
     0
291
     1
 45
0.0
1001
ACAD
1000
AcDbSavedByObjectVersion
1070
     0
  0
VISUALSTYLE
  5
6C8
102
{ACAD_REACTORS
330
29
102
}
102
{ACAD_XDICTIONARY
360
742
102
}
330
29
100
AcDbVisualStyle
  2
Wireframe
 70
     5
 71
     0
 72
     2
 73
     0
 90
        0
 40
0.6
 41
30.0
 62
     5
 63
     7
 74
     1
 91
        4
 64
     7
 65
   257
 75
     1
175
     1
 42
1.0
 92
        0
 66
   257
 43
1.0
 76
     1
 77
     6
 78
     2
 67
     7
 79
     5
170
     0
171
     0
290
     0
174
     0
 93
        1
 44
0.0
173
     0
291
     0
 45
0.0
1001
ACAD
1000
AcDbSavedByObjectVersion
1070
     0
  0
VISUALSTYLE
  5
6D8
102
{ACAD_REACTORS
330
29
102
}
102
{ACAD_XDICTIONARY
360
762
102
}
330
29
100
AcDbVisualStyle
  2
X-Ray
 70
    25
 71
     2
 72
     2
 73
     1
 90
        1
 40
0.5
 41
30.0
 62
     5
 63
     7
 74
     1
 91
        0
 64
     7
 65
   257
 75
     1
175
     1
 42
1.0
 92
        8
 66
     7
 43
1.0
 76
     1
 77
     6
 78
     2
 67
     7
 79
     3
170
     0
171
     0
290
     0
174
     0
 93
       13
 44
0.0
173
     0
291
     0
 45
0.0
1001
ACAD
1000
AcDbSavedByObjectVersion
1070
     0
  0
XRECORD
  5
72C
102
{ACAD_REACTORS
330
72B
102
}
330
72B
100
AcDbXrecord
280
     1
340
28
  0
XRECORD
  5
72D
102
{ACAD_REACTORS
330
72B
102
}
330
72B
100
AcDbXrecord
280
     1
340
7
  0
DICTIONARYVAR
  5
6BE
102
{ACAD_REACTORS
330
6BD
102
}
330
6BD
100
DictionaryVariables
280
     0
  1
1:1
  0
DICTIONARYVAR
  5
6E4
102
{ACAD_REACTORS
330
6BD
102
}
330
6BD
100
DictionaryVariables
280
     0
  1
Standard
  0
DICTIONARYVAR
  5
729
102
{ACAD_REACTORS
330
6BD
102
}
330
6BD
100
DictionaryVariables
280
     0
  1
0
  0
DICTIONARYVAR
  5
72A
102
{ACAD_REACTORS
330
6BD
102
}
330
6BD
100
DictionaryVariables
280
     0
  1
1
  0
DICTIONARYVAR
  5
731
102
{ACAD_REACTORS
330
6BD
102
}
330
6BD
100
DictionaryVariables
280
     0
  1
1
  0
DICTIONARY
  5
736
330
70
100
AcDbDictionary
280
     1
281
     1
  3
ACAD_XREC_ROUNDTRIP
360
737
  0
DICTIONARY
  5
732
330
E
100
AcDbDictionary
280
     1
281
     1
  3
ACAD_XREC_ROUNDTRIP
360
733
  0
DICTIONARY
  5
734
330
6
100
AcDbDictionary
280
     1
281
     1
  3
ACAD_XREC_ROUNDTRIP
360
735
  0
DICTIONARY
  5
768
330
6DB
100
AcDbDictionary
280
     1
281
     1
  3
ACAD_XREC_ROUNDTRIP
360
769
  0
DICTIONARY
  5
740
330
6C7
100
AcDbDictionary
280
     1
281
     1
  3
ACAD_XREC_ROUNDTRIP
360
741
  0
DICTIONARY
  5
746
330
6CA
100
AcDbDictionary
280
     1
281
     1
  3
ACAD_XREC_ROUNDTRIP
360
747
  0
DICTIONARY
  5
74E
330
6CE
100
AcDbDictionary
280
     1
281
     1
  3
ACAD_XREC_ROUNDTRIP
360
74F
  0
DICTIONARY
  5
756
330
6D2
100
AcDbDictionary
280
     1
281
     1
  3
ACAD_XREC_ROUNDTRIP
360
757
  0
DICTIONARY
  5
74A
330
6CC
100
AcDbDictionary
280
     1
281
     1
  3
ACAD_XREC_ROUNDTRIP
360
74B
  0
DICTIONARY
  5
74C
330
6CD
100
AcDbDictionary
280
     1
281
     1
  3
ACAD_XREC_ROUNDTRIP
360
74D
  0
DICTIONARY
  5
75C
330
6D5
100
AcDbDictionary
280
     1
281
     1
  3
ACAD_XREC_ROUNDTRIP
360
75D
  0
DICTIONARY
  5
754
330
6D1
100
AcDbDictionary
280
     1
281
     1
  3
ACAD_XREC_ROUNDTRIP
360
755
  0
DICTIONARY
  5
738
330
6C3
100
AcDbDictionary
280
     1
281
     1
  3
ACAD_XREC_ROUNDTRIP
360
739
  0
DICTIONARY
  5
73A
330
6C4
100
AcDbDictionary
280
     1
281
     1
  3
ACAD_XREC_ROUNDTRIP
360
73B
  0
DICTIONARY
  5
73C
330
6C5
100
AcDbDictionary
280
     1
281
     1
  3
ACAD_XREC_ROUNDTRIP
360
73D
  0
DICTIONARY
  5
73E
330
6C6
100
AcDbDictionary
280
     1
281
     1
  3
ACAD_XREC_ROUNDTRIP
360
73F
  0
DICTIONARY
  5
744
330
6C9
100
AcDbDictionary
280
     1
281
     1
  3
ACAD_XREC_ROUNDTRIP
360
745
  0
DICTIONARY
  5
758
330
6D3
100
AcDbDictionary
280
     1
281
     1
  3
ACAD_XREC_ROUNDTRIP
360
759
  0
DICTIONARY
  5
752
330
6D0
100
AcDbDictionary
280
     1
281
     1
  3
ACAD_XREC_ROUNDTRIP
360
753
  0
DICTIONARY
  5
75A
330
6D4
100
AcDbDictionary
280
     1
281
     1
  3
ACAD_XREC_ROUNDTRIP
360
75B
  0
DICTIONARY
  5
748
330
6CB
100
AcDbDictionary
280
     1
281
     1
  3
ACAD_XREC_ROUNDTRIP
360
749
  0
DICTIONARY
  5
766
330
6DA
100
AcDbDictionary
280
     1
281
     1
  3
ACAD_XREC_ROUNDTRIP
360
767
  0
DICTIONARY
  5
764
330
6D9
100
AcDbDictionary
280
     1
281
     1
  3
ACAD_XREC_ROUNDTRIP
360
765
  0
DICTIONARY
  5
75E
330
6D6
100
AcDbDictionary
280
     1
281
     1
  3
ACAD_XREC_ROUNDTRIP
360
75F
  0
DICTIONARY
  5
760
330
6D7
100
AcDbDictionary
280
     1
281
     1
  3
ACAD_XREC_ROUNDTRIP
360
761
  0
DICTIONARY
  5
750
330
6CF
100
AcDbDictionary
280
     1
281
     1
  3
ACAD_XREC_ROUNDTRIP
360
751
  0
DICTIONARY
  5
742
330
6C8
100
AcDbDictionary
280
     1
281
     1
  3
ACAD_XREC_ROUNDTRIP
360
743
  0
DICTIONARY
  5
762
330
6D8
100
AcDbDictionary
280
     1
281
     1
  3
ACAD_XREC_ROUNDTRIP
360
763
  0
XRECORD
  5
737
102
{ACAD_REACTORS
330
736
102
}
330
736
100
AcDbXrecord
280
     1
102
MATERIAL
148
0.0
149
0.0
149
0.0
 93
        0
 94
      127
282
     0
 72
     1
 77
     1
171
     1
175
     1
179
     1
273
     0
  0
XRECORD
  5
733
102
{ACAD_REACTORS
330
732
102
}
330
732
100
AcDbXrecord
280
     1
102
MATERIAL
148
0.0
149
0.0
149
0.0
 93
        0
 94
      127
282
     0
 72
     1
 77
     1
171
     1
175
     1
179
     1
273
     0
  0
XRECORD
  5
735
102
{ACAD_REACTORS
330
734
102
}
330
734
100
AcDbXrecord
280
     1
102
MATERIAL
148
0.0
149
0.0
149
0.0
 93
        0
 94
      127
282
     0
 72
     1
 77
     1
171
     1
175
     1
179
     1
273
     0
  0
XRECORD
  5
769
102
{ACAD_REACTORS
330
768
102
}
330
768
100
AcDbXrecord
280
     1
102
ACAD_ROUNDTRIP_2010_MLEADER_STYLE
  0
XRECORD
  5
741
102
{ACAD_REACTORS
330
740
102
}
330
740
100
AcDbXrecord
280
     1
102
RTVSPropertyOp0
 70
     1
102
RTVSPropertyOp1
 70
     1
102
RTVSPropertyOp2
 70
     1
102
RTVSPropertyOp3
 70
     1
102
RTVSPropertyOp4
 70
     1
102
RTVSPropertyOp5
 70
     1
102
RTVSPropertyOp6
 70
     1
102
RTVSPropertyOp7
 70
     1
102
RTVSPropertyOp8
 70
     1
102
RTVSPropertyOp9
 70
     1
102
RTVSPropertyOp10
 70
     1
102
RTVSPropertyOp11
 70
     1
102
RTVSPropertyOp12
 70
     1
102
RTVSPropertyOp13
 70
     1
102
RTVSPropertyOp14
 70
     1
102
RTVSPropertyOp15
 70
     1
102
RTVSPropertyOp16
 70
     1
102
RTVSPropertyOp17
 70
     1
102
RTVSPropertyOp18
 70
     1
102
RTVSPropertyOp19
 70
     1
102
RTVSPropertyOp20
 70
     1
102
RTVSPropertyOp21
 70
     1
102
RTVSPropertyOp22
 70
     1
102
RTVSPropertyOp23
 70
     1
102
RTVSPropertyOp24
 70
     1
102
RTVSPropertyOp25
 70
     1
102
RTVSPropertyOp26
 70
     1
102
RTVSPropertyOp27
 70
     1
102
RTVSPropertyOp28
 70
     1
102
RTVSPropertyOp29
 70
     1
102
RTVSPropertyOp30
 70
     1
102
RTVSPropertyOp31
 70
     1
102
RTVSPropertyOp32
 70
     1
102
RTVSPropertyOp33
 70
     1
102
RTVSPropertyOp34
 70
     1
102
RTVSPropertyOp35
 70
     1
102
RTVSPropertyOp36
 70
     1
102
RTVSPropertyOp37
 70
     1
102
RTVSPropertyOp38
 70
     1
102
RTVSPropertyOp39
 70
     1
102
RTVSPropertyOp40
 70
     1
102
RTVSPropertyOp41
 70
     1
102
RTVSPropertyOp42
 70
     1
102
RTVSPropertyOp43
 70
     1
102
RTVSPropertyOp44
 70
     1
102
RTVSPropertyOp45
 70
     1
102
RTVSPropertyOp46
 70
     1
102
RTVSPropertyOp47
 70
     1
102
RTVSPropertyOp48
 70
     1
102
RTVSPropertyOp49
 70
     1
102
RTVSPropertyOp50
 70
     1
102
RTVSPropertyOp51
 70
     0
102
RTVSPropertyOp52
 70
     0
102
RTVSPropertyOp53
 70
     1
102
RTVSPropertyOp54
 70
     1
102
RTVSPropertyOp55
 70
     1
102
RTVSPropertyOp56
 70
     1
102
RTVSPropertyOp57
 70
     1
102
RTVSPost2010Prop28
280
     1
102
RTVSPost2010PropOp28
 70
     1
102
RTVSPost2010Prop29
280
     1
102
RTVSPost2010PropOp29
 70
     1
102
RTVSPost2010Prop30
280
     0
102
RTVSPost2010PropOp30
 70
     1
102
RTVSPost2010Prop31
280
     0
102
RTVSPost2010PropOp31
 70
     1
102
RTVSPost2010Prop32
280
     0
102
RTVSPost2010PropOp32
 70
     1
102
RTVSPost2010Prop33
280
     0
102
RTVSPost2010PropOp33
 70
     1
102
RTVSPost2010Prop34
280
     0
102
RTVSPost2010PropOp34
 70
     1
102
RTVSPost2010Prop35
280
     0
102
RTVSPost2010PropOp35
 70
     1
102
RTVSPost2010Prop36
280
     0
102
RTVSPost2010PropOp36
 70
     1
102
RTVSPost2010Prop37
 90
       50
102
RTVSPost2010PropOp37
 70
     1
102
RTVSPost2010Prop38
140
0.0
102
RTVSPost2010PropOp38
 70
     1
102
RTVSPost2010Prop39
140
1.0
102
RTVSPost2010PropOp39
 70
     1
102
RTVSPost2010Prop40
 90
        0
102
RTVSPost2010PropOp40
 70
     1
102
RTVSPost2010Prop41ColorIndex
 90
       18
102
RTVSPost2010Prop41ColorRGB
 90
        0
102
RTVSPost2010PropOp41
 70
     1
102
RTVSPost2010Prop42
 90
       50
102
RTVSPost2010PropOp42
 70
     1
102
RTVSPost2010Prop43
 90
        3
102
RTVSPost2010PropOp43
 70
     1
102
RTVSPost2010Prop44ColorIndex
 90
        5
102
RTVSPost2010Prop44ColorRGB
 90
      255
102
RTVSPost2010PropOp44
 70
     1
102
RTVSPost2010Prop45
280
     0
102
RTVSPost2010PropOp45
 70
     1
102
RTVSPost2010Prop46
 90
       50
102
RTVSPost2010PropOp46
 70
     1
102
RTVSPost2010Prop47
 90
       50
102
RTVSPost2010PropOp47
 70
     1
102
RTVSPost2010Prop48
 90
       50
102
RTVSPost2010PropOp48
 70
     1
102
RTVSPost2010Prop49
280
     0
102
RTVSPost2010PropOp49
 70
     1
102
RTVSPost2010Prop50
 90
       50
102
RTVSPost2010PropOp50
 70
     1
102
RTVSPost2010Prop51ColorIndex
 90
      256
102
RTVSPost2010Prop51ColorRGB
 90
-16777216
102
RTVSPost2010PropOp51
 70
     0
102
RTVSPost2010Prop52
140
1.0
102
RTVSPost2010PropOp52
 70
     0
102
RTVSPost2010Prop53
 90
        2
102
RTVSPost2010PropOp53
 70
     1
102
RTVSPost2010Prop54
  1
strokes_ogs.tif
102
RTVSPost2010PropOp54
 70
     1
102
RTVSPost2010Prop55
280
     0
102
RTVSPost2010PropOp55
 70
     1
102
RTVSPost2010Prop56
140
1.0
102
RTVSPost2010PropOp56
 70
     1
102
RTVSPost2010Prop57
140
1.0
102
RTVSPost2010PropOp57
 70
     1
  0
XRECORD
  5
747
102
{ACAD_REACTORS
330
746
102
}
330
746
100
AcDbXrecord
280
     1
102
RTVSPropertyOp0
 70
     1
102
RTVSPropertyOp1
 70
     1
102
RTVSPropertyOp2
 70
     1
102
RTVSPropertyOp3
 70
     1
102
RTVSPropertyOp4
 70
     1
102
RTVSPropertyOp5
 70
     1
102
RTVSPropertyOp6
 70
     1
102
RTVSPropertyOp7
 70
     1
102
RTVSPropertyOp8
 70
     1
102
RTVSPropertyOp9
 70
     1
102
RTVSPropertyOp10
 70
     1
102
RTVSPropertyOp11
 70
     1
102
RTVSPropertyOp12
 70
     1
102
RTVSPropertyOp13
 70
     1
102
RTVSPropertyOp14
 70
     1
102
RTVSPropertyOp15
 70
     1
102
RTVSPropertyOp16
 70
     1
102
RTVSPropertyOp17
 70
     1
102
RTVSPropertyOp18
 70
     1
102
RTVSPropertyOp19
 70
     1
102
RTVSPropertyOp20
 70
     1
102
RTVSPropertyOp21
 70
     1
102
RTVSPropertyOp22
 70
     1
102
RTVSPropertyOp23
 70
     1
102
RTVSPropertyOp24
 70
     1
102
RTVSPropertyOp25
 70
     1
102
RTVSPropertyOp26
 70
     1
102
RTVSPropertyOp27
 70
     1
102
RTVSPropertyOp28
 70
     1
102
RTVSPropertyOp29
 70
     1
102
RTVSPropertyOp30
 70
     1
102
RTVSPropertyOp31
 70
     1
102
RTVSPropertyOp32
 70
     1
102
RTVSPropertyOp33
 70
     1
102
RTVSPropertyOp34
 70
     1
102
RTVSPropertyOp35
 70
     1
102
RTVSPropertyOp36
 70
     1
102
RTVSPropertyOp37
 70
     1
102
RTVSPropertyOp38
 70
     1
102
RTVSPropertyOp39
 70
     1
102
RTVSPropertyOp40
 70
     1
102
RTVSPropertyOp41
 70
     1
102
RTVSPropertyOp42
 70
     1
102
RTVSPropertyOp43
 70
     1
102
RTVSPropertyOp44
 70
     1
102
RTVSPropertyOp45
 70
     1
102
RTVSPropertyOp46
 70
     1
102
RTVSPropertyOp47
 70
     1
102
RTVSPropertyOp48
 70
     1
102
RTVSPropertyOp49
 70
     1
102
RTVSPropertyOp50
 70
     1
102
RTVSPropertyOp51
 70
     0
102
RTVSPropertyOp52
 70
     0
102
RTVSPropertyOp53
 70
     1
102
RTVSPropertyOp54
 70
     1
102
RTVSPropertyOp55
 70
     1
102
RTVSPropertyOp56
 70
     1
102
RTVSPropertyOp57
 70
     1
102
RTVSPost2010Prop28
280
     0
102
RTVSPost2010PropOp28
 70
     1
102
RTVSPost2010Prop29
280
     1
102
RTVSPost2010PropOp29
 70
     1
102
RTVSPost2010Prop30
280
     1
102
RTVSPost2010PropOp30
 70
     1
102
RTVSPost2010Prop31
280
     0
102
RTVSPost2010PropOp31
 70
     1
102
RTVSPost2010Prop32
280
     0
102
RTVSPost2010PropOp32
 70
     1
102
RTVSPost2010Prop33
280
     0
102
RTVSPost2010PropOp33
 70
     1
102
RTVSPost2010Prop34
280
     0
102
RTVSPost2010PropOp34
 70
     1
102
RTVSPost2010Prop35
280
     0
102
RTVSPost2010PropOp35
 70
     1
102
RTVSPost2010Prop36
280
     0
102
RTVSPost2010PropOp36
 70
     1
102
RTVSPost2010Prop37
 90
       50
102
RTVSPost2010PropOp37
 70
     1
102
RTVSPost2010Prop38
140
0.0
102
RTVSPost2010PropOp38
 70
     1
102
RTVSPost2010Prop39
140
1.0
102
RTVSPost2010PropOp39
 70
     1
102
RTVSPost2010Prop40
 90
        0
102
RTVSPost2010PropOp40
 70
     1
102
RTVSPost2010Prop41ColorIndex
 90
       18
102
RTVSPost2010Prop41ColorRGB
 90
        0
102
RTVSPost2010PropOp41
 70
     1
102
RTVSPost2010Prop42
 90
       50
102
RTVSPost2010PropOp42
 70
     1
102
RTVSPost2010Prop43
 90
        3
102
RTVSPost2010PropOp43
 70
     1
102
RTVSPost2010Prop44ColorIndex
 90
        5
102
RTVSPost2010Prop44ColorRGB
 90
      255
102
RTVSPost2010PropOp44
 70
     1
102
RTVSPost2010Prop45
280
     0
102
RTVSPost2010PropOp45
 70
     1
102
RTVSPost2010Prop46
 90
       50
102
RTVSPost2010PropOp46
 70
     1
102
RTVSPost2010Prop47
 90
       50
102
RTVSPost2010PropOp47
 70
     1
102
RTVSPost2010Prop48
 90
       50
102
RTVSPost2010PropOp48
 70
     1
102
RTVSPost2010Prop49
280
     0
102
RTVSPost2010PropOp49
 70
     1
102
RTVSPost2010Prop50
 90
       50
102
RTVSPost2010PropOp50
 70
     1
102
RTVSPost2010Prop51ColorIndex
 90
      256
102
RTVSPost2010Prop51ColorRGB
 90
-16777216
102
RTVSPost2010PropOp51
 70
     0
102
RTVSPost2010Prop52
140
1.0
102
RTVSPost2010PropOp52
 70
     0
102
RTVSPost2010Prop53
 90
        2
102
RTVSPost2010PropOp53
 70
     1
102
RTVSPost2010Prop54
  1
strokes_ogs.tif
102
RTVSPost2010PropOp54
 70
     1
102
RTVSPost2010Prop55
280
     0
102
RTVSPost2010PropOp55
 70
     1
102
RTVSPost2010Prop56
140
1.0
102
RTVSPost2010PropOp56
 70
     1
102
RTVSPost2010Prop57
140
1.0
102
RTVSPost2010PropOp57
 70
     1
  0
XRECORD
  5
74F
102
{ACAD_REACTORS
330
74E
102
}
330
74E
100
AcDbXrecord
280
     1
102
RTVSPropertyOp0
 70
     1
102
RTVSPropertyOp1
 70
     1
102
RTVSPropertyOp2
 70
     1
102
RTVSPropertyOp3
 70
     1
102
RTVSPropertyOp4
 70
     1
102
RTVSPropertyOp5
 70
     1
102
RTVSPropertyOp6
 70
     1
102
RTVSPropertyOp7
 70
     1
102
RTVSPropertyOp8
 70
     1
102
RTVSPropertyOp9
 70
     1
102
RTVSPropertyOp10
 70
     1
102
RTVSPropertyOp11
 70
     1
102
RTVSPropertyOp12
 70
     1
102
RTVSPropertyOp13
 70
     1
102
RTVSPropertyOp14
 70
     1
102
RTVSPropertyOp15
 70
     1
102
RTVSPropertyOp16
 70
     1
102
RTVSPropertyOp17
 70
     1
102
RTVSPropertyOp18
 70
     1
102
RTVSPropertyOp19
 70
     1
102
RTVSPropertyOp20
 70
     1
102
RTVSPropertyOp21
 70
     1
102
RTVSPropertyOp22
 70
     1
102
RTVSPropertyOp23
 70
     1
102
RTVSPropertyOp24
 70
     1
102
RTVSPropertyOp25
 70
     1
102
RTVSPropertyOp26
 70
     1
102
RTVSPropertyOp27
 70
     1
102
RTVSPropertyOp28
 70
     1
102
RTVSPropertyOp29
 70
     1
102
RTVSPropertyOp30
 70
     1
102
RTVSPropertyOp31
 70
     1
102
RTVSPropertyOp32
 70
     1
102
RTVSPropertyOp33
 70
     1
102
RTVSPropertyOp34
 70
     1
102
RTVSPropertyOp35
 70
     1
102
RTVSPropertyOp36
 70
     1
102
RTVSPropertyOp37
 70
     1
102
RTVSPropertyOp38
 70
     1
102
RTVSPropertyOp39
 70
     1
102
RTVSPropertyOp40
 70
     1
102
RTVSPropertyOp41
 70
     1
102
RTVSPropertyOp42
 70
     1
102
RTVSPropertyOp43
 70
     1
102
RTVSPropertyOp44
 70
     1
102
RTVSPropertyOp45
 70
     1
102
RTVSPropertyOp46
 70
     1
102
RTVSPropertyOp47
 70
     1
102
RTVSPropertyOp48
 70
     1
102
RTVSPropertyOp49
 70
     1
102
RTVSPropertyOp50
 70
     1
102
RTVSPropertyOp51
 70
     0
102
RTVSPropertyOp52
 70
     0
102
RTVSPropertyOp53
 70
     1
102
RTVSPropertyOp54
 70
     1
102
RTVSPropertyOp55
 70
     1
102
RTVSPropertyOp56
 70
     1
102
RTVSPropertyOp57
 70
     1
102
RTVSPost2010Prop28
280
     0
102
RTVSPost2010PropOp28
 70
     1
102
RTVSPost2010Prop29
280
     1
102
RTVSPost2010PropOp29
 70
     1
102
RTVSPost2010Prop30
280
     1
102
RTVSPost2010PropOp30
 70
     1
102
RTVSPost2010Prop31
280
     0
102
RTVSPost2010PropOp31
 70
     1
102
RTVSPost2010Prop32
280
     0
102
RTVSPost2010PropOp32
 70
     1
102
RTVSPost2010Prop33
280
     0
102
RTVSPost2010PropOp33
 70
     1
102
RTVSPost2010Prop34
280
     0
102
RTVSPost2010PropOp34
 70
     1
102
RTVSPost2010Prop35
280
     0
102
RTVSPost2010PropOp35
 70
     1
102
RTVSPost2010Prop36
280
     0
102
RTVSPost2010PropOp36
 70
     1
102
RTVSPost2010Prop37
 90
       50
102
RTVSPost2010PropOp37
 70
     1
102
RTVSPost2010Prop38
140
0.0
102
RTVSPost2010PropOp38
 70
     1
102
RTVSPost2010Prop39
140
1.0
102
RTVSPost2010PropOp39
 70
     1
102
RTVSPost2010Prop40
 90
        0
102
RTVSPost2010PropOp40
 70
     1
102
RTVSPost2010Prop41ColorIndex
 90
       18
102
RTVSPost2010Prop41ColorRGB
 90
        0
102
RTVSPost2010PropOp41
 70
     1
102
RTVSPost2010Prop42
 90
       50
102
RTVSPost2010PropOp42
 70
     1
102
RTVSPost2010Prop43
 90
        3
102
RTVSPost2010PropOp43
 70
     1
102
RTVSPost2010Prop44ColorIndex
 90
        5
102
RTVSPost2010Prop44ColorRGB
 90
      255
102
RTVSPost2010PropOp44
 70
     1
102
RTVSPost2010Prop45
280
     0
102
RTVSPost2010PropOp45
 70
     1
102
RTVSPost2010Prop46
 90
       50
102
RTVSPost2010PropOp46
 70
     1
102
RTVSPost2010Prop47
 90
       50
102
RTVSPost2010PropOp47
 70
     1
102
RTVSPost2010Prop48
 90
       50
102
RTVSPost2010PropOp48
 70
     1
102
RTVSPost2010Prop49
280
     0
102
RTVSPost2010PropOp49
 70
     1
102
RTVSPost2010Prop50
 90
       50
102
RTVSPost2010PropOp50
 70
     1
102
RTVSPost2010Prop51ColorIndex
 90
      256
102
RTVSPost2010Prop51ColorRGB
 90
-16777216
102
RTVSPost2010PropOp51
 70
     0
102
RTVSPost2010Prop52
140
1.0
102
RTVSPost2010PropOp52
 70
     0
102
RTVSPost2010Prop53
 90
        2
102
RTVSPost2010PropOp53
 70
     1
102
RTVSPost2010Prop54
  1
strokes_ogs.tif
102
RTVSPost2010PropOp54
 70
     1
102
RTVSPost2010Prop55
280
     0
102
RTVSPost2010PropOp55
 70
     1
102
RTVSPost2010Prop56
140
1.0
102
RTVSPost2010PropOp56
 70
     1
102
RTVSPost2010Prop57
140
1.0
102
RTVSPost2010PropOp57
 70
     1
  0
XRECORD
  5
757
102
{ACAD_REACTORS
330
756
102
}
330
756
100
AcDbXrecord
280
     1
102
RTVSPropertyOp0
 70
     1
102
RTVSPropertyOp1
 70
     1
102
RTVSPropertyOp2
 70
     1
102
RTVSPropertyOp3
 70
     1
102
RTVSPropertyOp4
 70
     1
102
RTVSPropertyOp5
 70
     1
102
RTVSPropertyOp6
 70
     1
102
RTVSPropertyOp7
 70
     1
102
RTVSPropertyOp8
 70
     1
102
RTVSPropertyOp9
 70
     1
102
RTVSPropertyOp10
 70
     1
102
RTVSPropertyOp11
 70
     1
102
RTVSPropertyOp12
 70
     1
102
RTVSPropertyOp13
 70
     1
102
RTVSPropertyOp14
 70
     1
102
RTVSPropertyOp15
 70
     1
102
RTVSPropertyOp16
 70
     1
102
RTVSPropertyOp17
 70
     1
102
RTVSPropertyOp18
 70
     1
102
RTVSPropertyOp19
 70
     1
102
RTVSPropertyOp20
 70
     1
102
RTVSPropertyOp21
 70
     1
102
RTVSPropertyOp22
 70
     1
102
RTVSPropertyOp23
 70
     1
102
RTVSPropertyOp24
 70
     1
102
RTVSPropertyOp25
 70
     1
102
RTVSPropertyOp26
 70
     1
102
RTVSPropertyOp27
 70
     1
102
RTVSPropertyOp28
 70
     1
102
RTVSPropertyOp29
 70
     1
102
RTVSPropertyOp30
 70
     1
102
RTVSPropertyOp31
 70
     1
102
RTVSPropertyOp32
 70
     1
102
RTVSPropertyOp33
 70
     1
102
RTVSPropertyOp34
 70
     1
102
RTVSPropertyOp35
 70
     1
102
RTVSPropertyOp36
 70
     1
102
RTVSPropertyOp37
 70
     1
102
RTVSPropertyOp38
 70
     1
102
RTVSPropertyOp39
 70
     1
102
RTVSPropertyOp40
 70
     1
102
RTVSPropertyOp41
 70
     1
102
RTVSPropertyOp42
 70
     1
102
RTVSPropertyOp43
 70
     1
102
RTVSPropertyOp44
 70
     1
102
RTVSPropertyOp45
 70
     1
102
RTVSPropertyOp46
 70
     1
102
RTVSPropertyOp47
 70
     1
102
RTVSPropertyOp48
 70
     1
102
RTVSPropertyOp49
 70
     1
102
RTVSPropertyOp50
 70
     1
102
RTVSPropertyOp51
 70
     0
102
RTVSPropertyOp52
 70
     0
102
RTVSPropertyOp53
 70
     1
102
RTVSPropertyOp54
 70
     1
102
RTVSPropertyOp55
 70
     1
102
RTVSPropertyOp56
 70
     1
102
RTVSPropertyOp57
 70
     1
102
RTVSPost2010Prop28
280
     0
102
RTVSPost2010PropOp28
 70
     1
102
RTVSPost2010Prop29
280
     1
102
RTVSPost2010PropOp29
 70
     1
102
RTVSPost2010Prop30
280
     1
102
RTVSPost2010PropOp30
 70
     1
102
RTVSPost2010Prop31
280
     0
102
RTVSPost2010PropOp31
 70
     1
102
RTVSPost2010Prop32
280
     0
102
RTVSPost2010PropOp32
 70
     1
102
RTVSPost2010Prop33
280
     0
102
RTVSPost2010PropOp33
 70
     1
102
RTVSPost2010Prop34
280
     0
102
RTVSPost2010PropOp34
 70
     1
102
RTVSPost2010Prop35
280
     0
102
RTVSPost2010PropOp35
 70
     1
102
RTVSPost2010Prop36
280
     0
102
RTVSPost2010PropOp36
 70
     1
102
RTVSPost2010Prop37
 90
       50
102
RTVSPost2010PropOp37
 70
     1
102
RTVSPost2010Prop38
140
0.0
102
RTVSPost2010PropOp38
 70
     1
102
RTVSPost2010Prop39
140
1.0
102
RTVSPost2010PropOp39
 70
     1
102
RTVSPost2010Prop40
 90
        0
102
RTVSPost2010PropOp40
 70
     1
102
RTVSPost2010Prop41ColorIndex
 90
       18
102
RTVSPost2010Prop41ColorRGB
 90
        0
102
RTVSPost2010PropOp41
 70
     1
102
RTVSPost2010Prop42
 90
       50
102
RTVSPost2010PropOp42
 70
     1
102
RTVSPost2010Prop43
 90
        3
102
RTVSPost2010PropOp43
 70
     1
102
RTVSPost2010Prop44ColorIndex
 90
        5
102
RTVSPost2010Prop44ColorRGB
 90
      255
102
RTVSPost2010PropOp44
 70
     1
102
RTVSPost2010Prop45
280
     0
102
RTVSPost2010PropOp45
 70
     1
102
RTVSPost2010Prop46
 90
       50
102
RTVSPost2010PropOp46
 70
     1
102
RTVSPost2010Prop47
 90
       50
102
RTVSPost2010PropOp47
 70
     1
102
RTVSPost2010Prop48
 90
       50
102
RTVSPost2010PropOp48
 70
     1
102
RTVSPost2010Prop49
280
     0
102
RTVSPost2010PropOp49
 70
     1
102
RTVSPost2010Prop50
 90
       50
102
RTVSPost2010PropOp50
 70
     1
102
RTVSPost2010Prop51ColorIndex
 90
      256
102
RTVSPost2010Prop51ColorRGB
 90
-16777216
102
RTVSPost2010PropOp51
 70
     0
102
RTVSPost2010Prop52
140
1.0
102
RTVSPost2010PropOp52
 70
     0
102
RTVSPost2010Prop53
 90
        2
102
RTVSPost2010PropOp53
 70
     1
102
RTVSPost2010Prop54
  1
strokes_ogs.tif
102
RTVSPost2010PropOp54
 70
     1
102
RTVSPost2010Prop55
280
     0
102
RTVSPost2010PropOp55
 70
     1
102
RTVSPost2010Prop56
140
1.0
102
RTVSPost2010PropOp56
 70
     1
102
RTVSPost2010Prop57
140
1.0
102
RTVSPost2010PropOp57
 70
     1
  0
XRECORD
  5
74B
102
{ACAD_REACTORS
330
74A
102
}
330
74A
100
AcDbXrecord
280
     1
102
RTVSPropertyOp0
 70
     1
102
RTVSPropertyOp1
 70
     1
102
RTVSPropertyOp2
 70
     1
102
RTVSPropertyOp3
 70
     1
102
RTVSPropertyOp4
 70
     1
102
RTVSPropertyOp5
 70
     1
102
RTVSPropertyOp6
 70
     1
102
RTVSPropertyOp7
 70
     1
102
RTVSPropertyOp8
 70
     1
102
RTVSPropertyOp9
 70
     1
102
RTVSPropertyOp10
 70
     1
102
RTVSPropertyOp11
 70
     1
102
RTVSPropertyOp12
 70
     1
102
RTVSPropertyOp13
 70
     1
102
RTVSPropertyOp14
 70
     1
102
RTVSPropertyOp15
 70
     1
102
RTVSPropertyOp16
 70
     1
102
RTVSPropertyOp17
 70
     1
102
RTVSPropertyOp18
 70
     1
102
RTVSPropertyOp19
 70
     1
102
RTVSPropertyOp20
 70
     1
102
RTVSPropertyOp21
 70
     1
102
RTVSPropertyOp22
 70
     1
102
RTVSPropertyOp23
 70
     1
102
RTVSPropertyOp24
 70
     1
102
RTVSPropertyOp25
 70
     1
102
RTVSPropertyOp26
 70
     1
102
RTVSPropertyOp27
 70
     1
102
RTVSPropertyOp28
 70
     1
102
RTVSPropertyOp29
 70
     1
102
RTVSPropertyOp30
 70
     1
102
RTVSPropertyOp31
 70
     1
102
RTVSPropertyOp32
 70
     1
102
RTVSPropertyOp33
 70
     1
102
RTVSPropertyOp34
 70
     1
102
RTVSPropertyOp35
 70
     1
102
RTVSPropertyOp36
 70
     1
102
RTVSPropertyOp37
 70
     1
102
RTVSPropertyOp38
 70
     1
102
RTVSPropertyOp39
 70
     1
102
RTVSPropertyOp40
 70
     1
102
RTVSPropertyOp41
 70
     1
102
RTVSPropertyOp42
 70
     1
102
RTVSPropertyOp43
 70
     1
102
RTVSPropertyOp44
 70
     1
102
RTVSPropertyOp45
 70
     1
102
RTVSPropertyOp46
 70
     1
102
RTVSPropertyOp47
 70
     1
102
RTVSPropertyOp48
 70
     1
102
RTVSPropertyOp49
 70
     1
102
RTVSPropertyOp50
 70
     1
102
RTVSPropertyOp51
 70
     0
102
RTVSPropertyOp52
 70
     0
102
RTVSPropertyOp53
 70
     1
102
RTVSPropertyOp54
 70
     1
102
RTVSPropertyOp55
 70
     1
102
RTVSPropertyOp56
 70
     1
102
RTVSPropertyOp57
 70
     1
102
RTVSPost2010Prop28
280
     0
102
RTVSPost2010PropOp28
 70
     1
102
RTVSPost2010Prop29
280
     1
102
RTVSPost2010PropOp29
 70
     1
102
RTVSPost2010Prop30
280
     1
102
RTVSPost2010PropOp30
 70
     1
102
RTVSPost2010Prop31
280
     0
102
RTVSPost2010PropOp31
 70
     1
102
RTVSPost2010Prop32
280
     0
102
RTVSPost2010PropOp32
 70
     1
102
RTVSPost2010Prop33
280
     0
102
RTVSPost2010PropOp33
 70
     1
102
RTVSPost2010Prop34
280
     0
102
RTVSPost2010PropOp34
 70
     1
102
RTVSPost2010Prop35
280
     0
102
RTVSPost2010PropOp35
 70
     1
102
RTVSPost2010Prop36
280
     0
102
RTVSPost2010PropOp36
 70
     1
102
RTVSPost2010Prop37
 90
       50
102
RTVSPost2010PropOp37
 70
     1
102
RTVSPost2010Prop38
140
0.0
102
RTVSPost2010PropOp38
 70
     1
102
RTVSPost2010Prop39
140
1.0
102
RTVSPost2010PropOp39
 70
     1
102
RTVSPost2010Prop40
 90
        0
102
RTVSPost2010PropOp40
 70
     1
102
RTVSPost2010Prop41ColorIndex
 90
       18
102
RTVSPost2010Prop41ColorRGB
 90
        0
102
RTVSPost2010PropOp41
 70
     1
102
RTVSPost2010Prop42
 90
       50
102
RTVSPost2010PropOp42
 70
     1
102
RTVSPost2010Prop43
 90
        3
102
RTVSPost2010PropOp43
 70
     1
102
RTVSPost2010Prop44ColorIndex
 90
        5
102
RTVSPost2010Prop44ColorRGB
 90
      255
102
RTVSPost2010PropOp44
 70
     1
102
RTVSPost2010Prop45
280
     0
102
RTVSPost2010PropOp45
 70
     1
102
RTVSPost2010Prop46
 90
       50
102
RTVSPost2010PropOp46
 70
     1
102
RTVSPost2010Prop47
 90
       50
102
RTVSPost2010PropOp47
 70
     1
102
RTVSPost2010Prop48
 90
       50
102
RTVSPost2010PropOp48
 70
     1
102
RTVSPost2010Prop49
280
     0
102
RTVSPost2010PropOp49
 70
     1
102
RTVSPost2010Prop50
 90
       50
102
RTVSPost2010PropOp50
 70
     1
102
RTVSPost2010Prop51ColorIndex
 90
      256
102
RTVSPost2010Prop51ColorRGB
 90
-16777216
102
RTVSPost2010PropOp51
 70
     0
102
RTVSPost2010Prop52
140
1.0
102
RTVSPost2010PropOp52
 70
     0
102
RTVSPost2010Prop53
 90
        2
102
RTVSPost2010PropOp53
 70
     1
102
RTVSPost2010Prop54
  1
strokes_ogs.tif
102
RTVSPost2010PropOp54
 70
     1
102
RTVSPost2010Prop55
280
     0
102
RTVSPost2010PropOp55
 70
     1
102
RTVSPost2010Prop56
140
1.0
102
RTVSPost2010PropOp56
 70
     1
102
RTVSPost2010Prop57
140
1.0
102
RTVSPost2010PropOp57
 70
     1
  0
XRECORD
  5
74D
102
{ACAD_REACTORS
330
74C
102
}
330
74C
100
AcDbXrecord
280
     1
102
RTVSPropertyOp0
 70
     1
102
RTVSPropertyOp1
 70
     1
102
RTVSPropertyOp2
 70
     1
102
RTVSPropertyOp3
 70
     1
102
RTVSPropertyOp4
 70
     1
102
RTVSPropertyOp5
 70
     1
102
RTVSPropertyOp6
 70
     1
102
RTVSPropertyOp7
 70
     1
102
RTVSPropertyOp8
 70
     1
102
RTVSPropertyOp9
 70
     1
102
RTVSPropertyOp10
 70
     1
102
RTVSPropertyOp11
 70
     1
102
RTVSPropertyOp12
 70
     1
102
RTVSPropertyOp13
 70
     1
102
RTVSPropertyOp14
 70
     1
102
RTVSPropertyOp15
 70
     1
102
RTVSPropertyOp16
 70
     1
102
RTVSPropertyOp17
 70
     1
102
RTVSPropertyOp18
 70
     1
102
RTVSPropertyOp19
 70
     1
102
RTVSPropertyOp20
 70
     1
102
RTVSPropertyOp21
 70
     1
102
RTVSPropertyOp22
 70
     1
102
RTVSPropertyOp23
 70
     1
102
RTVSPropertyOp24
 70
     1
102
RTVSPropertyOp25
 70
     1
102
RTVSPropertyOp26
 70
     1
102
RTVSPropertyOp27
 70
     1
102
RTVSPropertyOp28
 70
     1
102
RTVSPropertyOp29
 70
     1
102
RTVSPropertyOp30
 70
     1
102
RTVSPropertyOp31
 70
     1
102
RTVSPropertyOp32
 70
     1
102
RTVSPropertyOp33
 70
     1
102
RTVSPropertyOp34
 70
     1
102
RTVSPropertyOp35
 70
     1
102
RTVSPropertyOp36
 70
     1
102
RTVSPropertyOp37
 70
     1
102
RTVSPropertyOp38
 70
     1
102
RTVSPropertyOp39
 70
     1
102
RTVSPropertyOp40
 70
     1
102
RTVSPropertyOp41
 70
     1
102
RTVSPropertyOp42
 70
     1
102
RTVSPropertyOp43
 70
     1
102
RTVSPropertyOp44
 70
     1
102
RTVSPropertyOp45
 70
     1
102
RTVSPropertyOp46
 70
     1
102
RTVSPropertyOp47
 70
     1
102
RTVSPropertyOp48
 70
     1
102
RTVSPropertyOp49
 70
     1
102
RTVSPropertyOp50
 70
     1
102
RTVSPropertyOp51
 70
     0
102
RTVSPropertyOp52
 70
     0
102
RTVSPropertyOp53
 70
     1
102
RTVSPropertyOp54
 70
     1
102
RTVSPropertyOp55
 70
     1
102
RTVSPropertyOp56
 70
     1
102
RTVSPropertyOp57
 70
     1
102
RTVSPost2010Prop28
280
     0
102
RTVSPost2010PropOp28
 70
     1
102
RTVSPost2010Prop29
280
     1
102
RTVSPost2010PropOp29
 70
     1
102
RTVSPost2010Prop30
280
     1
102
RTVSPost2010PropOp30
 70
     1
102
RTVSPost2010Prop31
280
     0
102
RTVSPost2010PropOp31
 70
     1
102
RTVSPost2010Prop32
280
     0
102
RTVSPost2010PropOp32
 70
     1
102
RTVSPost2010Prop33
280
     0
102
RTVSPost2010PropOp33
 70
     1
102
RTVSPost2010Prop34
280
     0
102
RTVSPost2010PropOp34
 70
     1
102
RTVSPost2010Prop35
280
     0
102
RTVSPost2010PropOp35
 70
     1
102
RTVSPost2010Prop36
280
     0
102
RTVSPost2010PropOp36
 70
     1
102
RTVSPost2010Prop37
 90
       50
102
RTVSPost2010PropOp37
 70
     1
102
RTVSPost2010Prop38
140
0.0
102
RTVSPost2010PropOp38
 70
     1
102
RTVSPost2010Prop39
140
1.0
102
RTVSPost2010PropOp39
 70
     1
102
RTVSPost2010Prop40
 90
        0
102
RTVSPost2010PropOp40
 70
     1
102
RTVSPost2010Prop41ColorIndex
 90
       18
102
RTVSPost2010Prop41ColorRGB
 90
        0
102
RTVSPost2010PropOp41
 70
     1
102
RTVSPost2010Prop42
 90
       50
102
RTVSPost2010PropOp42
 70
     1
102
RTVSPost2010Prop43
 90
        3
102
RTVSPost2010PropOp43
 70
     1
102
RTVSPost2010Prop44ColorIndex
 90
        5
102
RTVSPost2010Prop44ColorRGB
 90
      255
102
RTVSPost2010PropOp44
 70
     1
102
RTVSPost2010Prop45
280
     0
102
RTVSPost2010PropOp45
 70
     1
102
RTVSPost2010Prop46
 90
       50
102
RTVSPost2010PropOp46
 70
     1
102
RTVSPost2010Prop47
 90
       50
102
RTVSPost2010PropOp47
 70
     1
102
RTVSPost2010Prop48
 90
       50
102
RTVSPost2010PropOp48
 70
     1
102
RTVSPost2010Prop49
280
     0
102
RTVSPost2010PropOp49
 70
     1
102
RTVSPost2010Prop50
 90
       50
102
RTVSPost2010PropOp50
 70
     1
102
RTVSPost2010Prop51ColorIndex
 90
      256
102
RTVSPost2010Prop51ColorRGB
 90
-16777216
102
RTVSPost2010PropOp51
 70
     0
102
RTVSPost2010Prop52
140
1.0
102
RTVSPost2010PropOp52
 70
     0
102
RTVSPost2010Prop53
 90
        2
102
RTVSPost2010PropOp53
 70
     1
102
RTVSPost2010Prop54
  1
strokes_ogs.tif
102
RTVSPost2010PropOp54
 70
     1
102
RTVSPost2010Prop55
280
     0
102
RTVSPost2010PropOp55
 70
     1
102
RTVSPost2010Prop56
140
1.0
102
RTVSPost2010PropOp56
 70
     1
102
RTVSPost2010Prop57
140
1.0
102
RTVSPost2010PropOp57
 70
     1
  0
XRECORD
  5
75D
102
{ACAD_REACTORS
330
75C
102
}
330
75C
100
AcDbXrecord
280
     1
102
RTVSPropertyOp0
 70
     0
102
RTVSPropertyOp1
 70
     0
102
RTVSPropertyOp2
 70
     0
102
RTVSPropertyOp3
 70
     0
102
RTVSPropertyOp4
 70
     0
102
RTVSPropertyOp5
 70
     0
102
RTVSPropertyOp6
 70
     0
102
RTVSPropertyOp7
 70
     0
102
RTVSPropertyOp8
 70
     0
102
RTVSPropertyOp9
 70
     0
102
RTVSPropertyOp10
 70
     0
102
RTVSPropertyOp11
 70
     0
102
RTVSPropertyOp12
 70
     0
102
RTVSPropertyOp13
 70
     0
102
RTVSPropertyOp14
 70
     0
102
RTVSPropertyOp15
 70
     0
102
RTVSPropertyOp16
 70
     0
102
RTVSPropertyOp17
 70
     0
102
RTVSPropertyOp18
 70
     0
102
RTVSPropertyOp19
 70
     0
102
RTVSPropertyOp20
 70
     0
102
RTVSPropertyOp21
 70
     0
102
RTVSPropertyOp22
 70
     0
102
RTVSPropertyOp23
 70
     0
102
RTVSPropertyOp24
 70
     0
102
RTVSPropertyOp25
 70
     0
102
RTVSPropertyOp26
 70
     0
102
RTVSPropertyOp27
 70
     0
102
RTVSPropertyOp28
 70
     1
102
RTVSPropertyOp29
 70
     1
102
RTVSPropertyOp30
 70
     1
102
RTVSPropertyOp31
 70
     1
102
RTVSPropertyOp32
 70
     1
102
RTVSPropertyOp33
 70
     1
102
RTVSPropertyOp34
 70
     1
102
RTVSPropertyOp35
 70
     1
102
RTVSPropertyOp36
 70
     1
102
RTVSPropertyOp37
 70
     1
102
RTVSPropertyOp38
 70
     1
102
RTVSPropertyOp39
 70
     1
102
RTVSPropertyOp40
 70
     1
102
RTVSPropertyOp41
 70
     1
102
RTVSPropertyOp42
 70
     1
102
RTVSPropertyOp43
 70
     1
102
RTVSPropertyOp44
 70
     1
102
RTVSPropertyOp45
 70
     1
102
RTVSPropertyOp46
 70
     1
102
RTVSPropertyOp47
 70
     1
102
RTVSPropertyOp48
 70
     1
102
RTVSPropertyOp49
 70
     1
102
RTVSPropertyOp50
 70
     1
102
RTVSPropertyOp51
 70
     0
102
RTVSPropertyOp52
 70
     0
102
RTVSPropertyOp53
 70
     1
102
RTVSPropertyOp54
 70
     1
102
RTVSPropertyOp55
 70
     1
102
RTVSPropertyOp56
 70
     1
102
RTVSPropertyOp57
 70
     1
102
RTVSPost2010Prop28
280
     0
102
RTVSPost2010PropOp28
 70
     1
102
RTVSPost2010Prop29
280
     1
102
RTVSPost2010PropOp29
 70
     1
102
RTVSPost2010Prop30
280
     1
102
RTVSPost2010PropOp30
 70
     1
102
RTVSPost2010Prop31
280
     0
102
RTVSPost2010PropOp31
 70
     1
102
RTVSPost2010Prop32
280
     0
102
RTVSPost2010PropOp32
 70
     1
102
RTVSPost2010Prop33
280
     0
102
RTVSPost2010PropOp33
 70
     1
102
RTVSPost2010Prop34
280
     0
102
RTVSPost2010PropOp34
 70
     1
102
RTVSPost2010Prop35
280
     0
102
RTVSPost2010PropOp35
 70
     1
102
RTVSPost2010Prop36
280
     0
102
RTVSPost2010PropOp36
 70
     1
102
RTVSPost2010Prop37
 90
       50
102
RTVSPost2010PropOp37
 70
     1
102
RTVSPost2010Prop38
140
0.0
102
RTVSPost2010PropOp38
 70
     1
102
RTVSPost2010Prop39
140
1.0
102
RTVSPost2010PropOp39
 70
     1
102
RTVSPost2010Prop40
 90
        0
102
RTVSPost2010PropOp40
 70
     1
102
RTVSPost2010Prop41ColorIndex
 90
       18
102
RTVSPost2010Prop41ColorRGB
 90
        0
102
RTVSPost2010PropOp41
 70
     1
102
RTVSPost2010Prop42
 90
       50
102
RTVSPost2010PropOp42
 70
     1
102
RTVSPost2010Prop43
 90
        3
102
RTVSPost2010PropOp43
 70
     1
102
RTVSPost2010Prop44ColorIndex
 90
        5
102
RTVSPost2010Prop44ColorRGB
 90
      255
102
RTVSPost2010PropOp44
 70
     1
102
RTVSPost2010Prop45
280
     0
102
RTVSPost2010PropOp45
 70
     1
102
RTVSPost2010Prop46
 90
       50
102
RTVSPost2010PropOp46
 70
     1
102
RTVSPost2010Prop47
 90
       50
102
RTVSPost2010PropOp47
 70
     1
102
RTVSPost2010Prop48
 90
       50
102
RTVSPost2010PropOp48
 70
     1
102
RTVSPost2010Prop49
280
     0
102
RTVSPost2010PropOp49
 70
     1
102
RTVSPost2010Prop50
 90
       50
102
RTVSPost2010PropOp50
 70
     1
102
RTVSPost2010Prop51ColorIndex
 90
      256
102
RTVSPost2010Prop51ColorRGB
 90
-16777216
102
RTVSPost2010PropOp51
 70
     0
102
RTVSPost2010Prop52
140
1.0
102
RTVSPost2010PropOp52
 70
     0
102
RTVSPost2010Prop53
 90
        2
102
RTVSPost2010PropOp53
 70
     1
102
RTVSPost2010Prop54
  1
strokes_ogs.tif
102
RTVSPost2010PropOp54
 70
     1
102
RTVSPost2010Prop55
280
     0
102
RTVSPost2010PropOp55
 70
     1
102
RTVSPost2010Prop56
140
1.0
102
RTVSPost2010PropOp56
 70
     1
102
RTVSPost2010Prop57
140
1.0
102
RTVSPost2010PropOp57
 70
     1
  0
XRECORD
  5
755
102
{ACAD_REACTORS
330
754
102
}
330
754
100
AcDbXrecord
280
     1
102
RTVSPropertyOp0
 70
     1
102
RTVSPropertyOp1
 70
     1
102
RTVSPropertyOp2
 70
     1
102
RTVSPropertyOp3
 70
     1
102
RTVSPropertyOp4
 70
     1
102
RTVSPropertyOp5
 70
     1
102
RTVSPropertyOp6
 70
     1
102
RTVSPropertyOp7
 70
     1
102
RTVSPropertyOp8
 70
     1
102
RTVSPropertyOp9
 70
     1
102
RTVSPropertyOp10
 70
     1
102
RTVSPropertyOp11
 70
     1
102
RTVSPropertyOp12
 70
     1
102
RTVSPropertyOp13
 70
     1
102
RTVSPropertyOp14
 70
     1
102
RTVSPropertyOp15
 70
     1
102
RTVSPropertyOp16
 70
     1
102
RTVSPropertyOp17
 70
     1
102
RTVSPropertyOp18
 70
     1
102
RTVSPropertyOp19
 70
     1
102
RTVSPropertyOp20
 70
     1
102
RTVSPropertyOp21
 70
     1
102
RTVSPropertyOp22
 70
     1
102
RTVSPropertyOp23
 70
     1
102
RTVSPropertyOp24
 70
     1
102
RTVSPropertyOp25
 70
     1
102
RTVSPropertyOp26
 70
     1
102
RTVSPropertyOp27
 70
     1
102
RTVSPropertyOp28
 70
     1
102
RTVSPropertyOp29
 70
     1
102
RTVSPropertyOp30
 70
     1
102
RTVSPropertyOp31
 70
     1
102
RTVSPropertyOp32
 70
     1
102
RTVSPropertyOp33
 70
     1
102
RTVSPropertyOp34
 70
     1
102
RTVSPropertyOp35
 70
     1
102
RTVSPropertyOp36
 70
     1
102
RTVSPropertyOp37
 70
     1
102
RTVSPropertyOp38
 70
     1
102
RTVSPropertyOp39
 70
     1
102
RTVSPropertyOp40
 70
     1
102
RTVSPropertyOp41
 70
     1
102
RTVSPropertyOp42
 70
     1
102
RTVSPropertyOp43
 70
     1
102
RTVSPropertyOp44
 70
     1
102
RTVSPropertyOp45
 70
     1
102
RTVSPropertyOp46
 70
     1
102
RTVSPropertyOp47
 70
     1
102
RTVSPropertyOp48
 70
     1
102
RTVSPropertyOp49
 70
     1
102
RTVSPropertyOp50
 70
     1
102
RTVSPropertyOp51
 70
     0
102
RTVSPropertyOp52
 70
     0
102
RTVSPropertyOp53
 70
     1
102
RTVSPropertyOp54
 70
     1
102
RTVSPropertyOp55
 70
     1
102
RTVSPropertyOp56
 70
     1
102
RTVSPropertyOp57
 70
     1
102
RTVSPost2010Prop28
280
     0
102
RTVSPost2010PropOp28
 70
     1
102
RTVSPost2010Prop29
280
     1
102
RTVSPost2010PropOp29
 70
     1
102
RTVSPost2010Prop30
280
     1
102
RTVSPost2010PropOp30
 70
     1
102
RTVSPost2010Prop31
280
     0
102
RTVSPost2010PropOp31
 70
     1
102
RTVSPost2010Prop32
280
     0
102
RTVSPost2010PropOp32
 70
     1
102
RTVSPost2010Prop33
280
     0
102
RTVSPost2010PropOp33
 70
     1
102
RTVSPost2010Prop34
280
     0
102
RTVSPost2010PropOp34
 70
     1
102
RTVSPost2010Prop35
280
     0
102
RTVSPost2010PropOp35
 70
     1
102
RTVSPost2010Prop36
280
     0
102
RTVSPost2010PropOp36
 70
     1
102
RTVSPost2010Prop37
 90
       50
102
RTVSPost2010PropOp37
 70
     1
102
RTVSPost2010Prop38
140
0.0
102
RTVSPost2010PropOp38
 70
     1
102
RTVSPost2010Prop39
140
1.0
102
RTVSPost2010PropOp39
 70
     1
102
RTVSPost2010Prop40
 90
        0
102
RTVSPost2010PropOp40
 70
     1
102
RTVSPost2010Prop41ColorIndex
 90
       18
102
RTVSPost2010Prop41ColorRGB
 90
        0
102
RTVSPost2010PropOp41
 70
     1
102
RTVSPost2010Prop42
 90
       50
102
RTVSPost2010PropOp42
 70
     1
102
RTVSPost2010Prop43
 90
        3
102
RTVSPost2010PropOp43
 70
     1
102
RTVSPost2010Prop44ColorIndex
 90
        5
102
RTVSPost2010Prop44ColorRGB
 90
      255
102
RTVSPost2010PropOp44
 70
     1
102
RTVSPost2010Prop45
280
     0
102
RTVSPost2010PropOp45
 70
     1
102
RTVSPost2010Prop46
 90
       50
102
RTVSPost2010PropOp46
 70
     1
102
RTVSPost2010Prop47
 90
       50
102
RTVSPost2010PropOp47
 70
     1
102
RTVSPost2010Prop48
 90
       50
102
RTVSPost2010PropOp48
 70
     1
102
RTVSPost2010Prop49
280
     0
102
RTVSPost2010PropOp49
 70
     1
102
RTVSPost2010Prop50
 90
       50
102
RTVSPost2010PropOp50
 70
     1
102
RTVSPost2010Prop51ColorIndex
 90
      256
102
RTVSPost2010Prop51ColorRGB
 90
-16777216
102
RTVSPost2010PropOp51
 70
     0
102
RTVSPost2010Prop52
140
1.0
102
RTVSPost2010PropOp52
 70
     0
102
RTVSPost2010Prop53
 90
        2
102
RTVSPost2010PropOp53
 70
     1
102
RTVSPost2010Prop54
  1
strokes_ogs.tif
102
RTVSPost2010PropOp54
 70
     1
102
RTVSPost2010Prop55
280
     0
102
RTVSPost2010PropOp55
 70
     1
102
RTVSPost2010Prop56
140
1.0
102
RTVSPost2010PropOp56
 70
     1
102
RTVSPost2010Prop57
140
1.0
102
RTVSPost2010PropOp57
 70
     1
  0
XRECORD
  5
739
102
{ACAD_REACTORS
330
738
102
}
330
738
100
AcDbXrecord
280
     1
102
RTVSPropertyOp0
 70
     1
102
RTVSPropertyOp1
 70
     1
102
RTVSPropertyOp2
 70
     1
102
RTVSPropertyOp3
 70
     1
102
RTVSPropertyOp4
 70
     1
102
RTVSPropertyOp5
 70
     1
102
RTVSPropertyOp6
 70
     1
102
RTVSPropertyOp7
 70
     1
102
RTVSPropertyOp8
 70
     1
102
RTVSPropertyOp9
 70
     1
102
RTVSPropertyOp10
 70
     1
102
RTVSPropertyOp11
 70
     1
102
RTVSPropertyOp12
 70
     1
102
RTVSPropertyOp13
 70
     1
102
RTVSPropertyOp14
 70
     1
102
RTVSPropertyOp15
 70
     1
102
RTVSPropertyOp16
 70
     1
102
RTVSPropertyOp17
 70
     1
102
RTVSPropertyOp18
 70
     1
102
RTVSPropertyOp19
 70
     1
102
RTVSPropertyOp20
 70
     1
102
RTVSPropertyOp21
 70
     1
102
RTVSPropertyOp22
 70
     1
102
RTVSPropertyOp23
 70
     1
102
RTVSPropertyOp24
 70
     1
102
RTVSPropertyOp25
 70
     1
102
RTVSPropertyOp26
 70
     1
102
RTVSPropertyOp27
 70
     1
102
RTVSPropertyOp28
 70
     1
102
RTVSPropertyOp29
 70
     1
102
RTVSPropertyOp30
 70
     1
102
RTVSPropertyOp31
 70
     1
102
RTVSPropertyOp32
 70
     1
102
RTVSPropertyOp33
 70
     1
102
RTVSPropertyOp34
 70
     1
102
RTVSPropertyOp35
 70
     1
102
RTVSPropertyOp36
 70
     1
102
RTVSPropertyOp37
 70
     1
102
RTVSPropertyOp38
 70
     1
102
RTVSPropertyOp39
 70
     1
102
RTVSPropertyOp40
 70
     1
102
RTVSPropertyOp41
 70
     1
102
RTVSPropertyOp42
 70
     1
102
RTVSPropertyOp43
 70
     1
102
RTVSPropertyOp44
 70
     1
102
RTVSPropertyOp45
 70
     1
102
RTVSPropertyOp46
 70
     1
102
RTVSPropertyOp47
 70
     1
102
RTVSPropertyOp48
 70
     1
102
RTVSPropertyOp49
 70
     1
102
RTVSPropertyOp50
 70
     1
102
RTVSPropertyOp51
 70
     0
102
RTVSPropertyOp52
 70
     0
102
RTVSPropertyOp53
 70
     1
102
RTVSPropertyOp54
 70
     1
102
RTVSPropertyOp55
 70
     1
102
RTVSPropertyOp56
 70
     1
102
RTVSPropertyOp57
 70
     1
102
RTVSPost2010Prop28
280
     0
102
RTVSPost2010PropOp28
 70
     1
102
RTVSPost2010Prop29
280
     1
102
RTVSPost2010PropOp29
 70
     1
102
RTVSPost2010Prop30
280
     1
102
RTVSPost2010PropOp30
 70
     1
102
RTVSPost2010Prop31
280
     0
102
RTVSPost2010PropOp31
 70
     1
102
RTVSPost2010Prop32
280
     0
102
RTVSPost2010PropOp32
 70
     1
102
RTVSPost2010Prop33
280
     0
102
RTVSPost2010PropOp33
 70
     1
102
RTVSPost2010Prop34
280
     0
102
RTVSPost2010PropOp34
 70
     1
102
RTVSPost2010Prop35
280
     0
102
RTVSPost2010PropOp35
 70
     1
102
RTVSPost2010Prop36
280
     0
102
RTVSPost2010PropOp36
 70
     1
102
RTVSPost2010Prop37
 90
       50
102
RTVSPost2010PropOp37
 70
     1
102
RTVSPost2010Prop38
140
0.0
102
RTVSPost2010PropOp38
 70
     1
102
RTVSPost2010Prop39
140
1.0
102
RTVSPost2010PropOp39
 70
     1
102
RTVSPost2010Prop40
 90
        0
102
RTVSPost2010PropOp40
 70
     1
102
RTVSPost2010Prop41ColorIndex
 90
       18
102
RTVSPost2010Prop41ColorRGB
 90
        0
102
RTVSPost2010PropOp41
 70
     1
102
RTVSPost2010Prop42
 90
       50
102
RTVSPost2010PropOp42
 70
     1
102
RTVSPost2010Prop43
 90
        3
102
RTVSPost2010PropOp43
 70
     1
102
RTVSPost2010Prop44ColorIndex
 90
        5
102
RTVSPost2010Prop44ColorRGB
 90
      255
102
RTVSPost2010PropOp44
 70
     1
102
RTVSPost2010Prop45
280
     0
102
RTVSPost2010PropOp45
 70
     1
102
RTVSPost2010Prop46
 90
       50
102
RTVSPost2010PropOp46
 70
     1
102
RTVSPost2010Prop47
 90
       50
102
RTVSPost2010PropOp47
 70
     1
102
RTVSPost2010Prop48
 90
       50
102
RTVSPost2010PropOp48
 70
     1
102
RTVSPost2010Prop49
280
     0
102
RTVSPost2010PropOp49
 70
     1
102
RTVSPost2010Prop50
 90
       50
102
RTVSPost2010PropOp50
 70
     1
102
RTVSPost2010Prop51ColorIndex
 90
      256
102
RTVSPost2010Prop51ColorRGB
 90
-16777216
102
RTVSPost2010PropOp51
 70
     0
102
RTVSPost2010Prop52
140
1.0
102
RTVSPost2010PropOp52
 70
     0
102
RTVSPost2010Prop53
 90
        2
102
RTVSPost2010PropOp53
 70
     1
102
RTVSPost2010Prop54
  1
strokes_ogs.tif
102
RTVSPost2010PropOp54
 70
     1
102
RTVSPost2010Prop55
280
     0
102
RTVSPost2010PropOp55
 70
     1
102
RTVSPost2010Prop56
140
1.0
102
RTVSPost2010PropOp56
 70
     1
102
RTVSPost2010Prop57
140
1.0
102
RTVSPost2010PropOp57
 70
     1
  0
XRECORD
  5
73B
102
{ACAD_REACTORS
330
73A
102
}
330
73A
100
AcDbXrecord
280
     1
102
RTVSPropertyOp0
 70
     1
102
RTVSPropertyOp1
 70
     1
102
RTVSPropertyOp2
 70
     1
102
RTVSPropertyOp3
 70
     1
102
RTVSPropertyOp4
 70
     1
102
RTVSPropertyOp5
 70
     1
102
RTVSPropertyOp6
 70
     1
102
RTVSPropertyOp7
 70
     1
102
RTVSPropertyOp8
 70
     1
102
RTVSPropertyOp9
 70
     1
102
RTVSPropertyOp10
 70
     1
102
RTVSPropertyOp11
 70
     1
102
RTVSPropertyOp12
 70
     1
102
RTVSPropertyOp13
 70
     1
102
RTVSPropertyOp14
 70
     1
102
RTVSPropertyOp15
 70
     1
102
RTVSPropertyOp16
 70
     1
102
RTVSPropertyOp17
 70
     1
102
RTVSPropertyOp18
 70
     1
102
RTVSPropertyOp19
 70
     1
102
RTVSPropertyOp20
 70
     1
102
RTVSPropertyOp21
 70
     1
102
RTVSPropertyOp22
 70
     1
102
RTVSPropertyOp23
 70
     1
102
RTVSPropertyOp24
 70
     1
102
RTVSPropertyOp25
 70
     1
102
RTVSPropertyOp26
 70
     1
102
RTVSPropertyOp27
 70
     1
102
RTVSPropertyOp28
 70
     1
102
RTVSPropertyOp29
 70
     1
102
RTVSPropertyOp30
 70
     1
102
RTVSPropertyOp31
 70
     1
102
RTVSPropertyOp32
 70
     1
102
RTVSPropertyOp33
 70
     1
102
RTVSPropertyOp34
 70
     1
102
RTVSPropertyOp35
 70
     1
102
RTVSPropertyOp36
 70
     1
102
RTVSPropertyOp37
 70
     1
102
RTVSPropertyOp38
 70
     1
102
RTVSPropertyOp39
 70
     1
102
RTVSPropertyOp40
 70
     1
102
RTVSPropertyOp41
 70
     1
102
RTVSPropertyOp42
 70
     1
102
RTVSPropertyOp43
 70
     1
102
RTVSPropertyOp44
 70
     1
102
RTVSPropertyOp45
 70
     1
102
RTVSPropertyOp46
 70
     1
102
RTVSPropertyOp47
 70
     1
102
RTVSPropertyOp48
 70
     1
102
RTVSPropertyOp49
 70
     1
102
RTVSPropertyOp50
 70
     1
102
RTVSPropertyOp51
 70
     0
102
RTVSPropertyOp52
 70
     0
102
RTVSPropertyOp53
 70
     1
102
RTVSPropertyOp54
 70
     1
102
RTVSPropertyOp55
 70
     1
102
RTVSPropertyOp56
 70
     1
102
RTVSPropertyOp57
 70
     1
102
RTVSPost2010Prop28
280
     0
102
RTVSPost2010PropOp28
 70
     1
102
RTVSPost2010Prop29
280
     1
102
RTVSPost2010PropOp29
 70
     1
102
RTVSPost2010Prop30
280
     1
102
RTVSPost2010PropOp30
 70
     1
102
RTVSPost2010Prop31
280
     0
102
RTVSPost2010PropOp31
 70
     1
102
RTVSPost2010Prop32
280
     0
102
RTVSPost2010PropOp32
 70
     1
102
RTVSPost2010Prop33
280
     0
102
RTVSPost2010PropOp33
 70
     1
102
RTVSPost2010Prop34
280
     0
102
RTVSPost2010PropOp34
 70
     1
102
RTVSPost2010Prop35
280
     0
102
RTVSPost2010PropOp35
 70
     1
102
RTVSPost2010Prop36
280
     0
102
RTVSPost2010PropOp36
 70
     1
102
RTVSPost2010Prop37
 90
       50
102
RTVSPost2010PropOp37
 70
     1
102
RTVSPost2010Prop38
140
0.0
102
RTVSPost2010PropOp38
 70
     1
102
RTVSPost2010Prop39
140
1.0
102
RTVSPost2010PropOp39
 70
     1
102
RTVSPost2010Prop40
 90
        0
102
RTVSPost2010PropOp40
 70
     1
102
RTVSPost2010Prop41ColorIndex
 90
       18
102
RTVSPost2010Prop41ColorRGB
 90
        0
102
RTVSPost2010PropOp41
 70
     1
102
RTVSPost2010Prop42
 90
       50
102
RTVSPost2010PropOp42
 70
     1
102
RTVSPost2010Prop43
 90
        3
102
RTVSPost2010PropOp43
 70
     1
102
RTVSPost2010Prop44ColorIndex
 90
        5
102
RTVSPost2010Prop44ColorRGB
 90
      255
102
RTVSPost2010PropOp44
 70
     1
102
RTVSPost2010Prop45
280
     0
102
RTVSPost2010PropOp45
 70
     1
102
RTVSPost2010Prop46
 90
       50
102
RTVSPost2010PropOp46
 70
     1
102
RTVSPost2010Prop47
 90
       50
102
RTVSPost2010PropOp47
 70
     1
102
RTVSPost2010Prop48
 90
       50
102
RTVSPost2010PropOp48
 70
     1
102
RTVSPost2010Prop49
280
     0
102
RTVSPost2010PropOp49
 70
     1
102
RTVSPost2010Prop50
 90
       50
102
RTVSPost2010PropOp50
 70
     1
102
RTVSPost2010Prop51ColorIndex
 90
      256
102
RTVSPost2010Prop51ColorRGB
 90
-16777216
102
RTVSPost2010PropOp51
 70
     0
102
RTVSPost2010Prop52
140
1.0
102
RTVSPost2010PropOp52
 70
     0
102
RTVSPost2010Prop53
 90
        2
102
RTVSPost2010PropOp53
 70
     1
102
RTVSPost2010Prop54
  1
strokes_ogs.tif
102
RTVSPost2010PropOp54
 70
     1
102
RTVSPost2010Prop55
280
     0
102
RTVSPost2010PropOp55
 70
     1
102
RTVSPost2010Prop56
140
1.0
102
RTVSPost2010PropOp56
 70
     1
102
RTVSPost2010Prop57
140
1.0
102
RTVSPost2010PropOp57
 70
     1
  0
XRECORD
  5
73D
102
{ACAD_REACTORS
330
73C
102
}
330
73C
100
AcDbXrecord
280
     1
102
RTVSPropertyOp0
 70
     1
102
RTVSPropertyOp1
 70
     1
102
RTVSPropertyOp2
 70
     1
102
RTVSPropertyOp3
 70
     1
102
RTVSPropertyOp4
 70
     1
102
RTVSPropertyOp5
 70
     1
102
RTVSPropertyOp6
 70
     1
102
RTVSPropertyOp7
 70
     1
102
RTVSPropertyOp8
 70
     1
102
RTVSPropertyOp9
 70
     1
102
RTVSPropertyOp10
 70
     1
102
RTVSPropertyOp11
 70
     1
102
RTVSPropertyOp12
 70
     1
102
RTVSPropertyOp13
 70
     1
102
RTVSPropertyOp14
 70
     1
102
RTVSPropertyOp15
 70
     1
102
RTVSPropertyOp16
 70
     1
102
RTVSPropertyOp17
 70
     1
102
RTVSPropertyOp18
 70
     1
102
RTVSPropertyOp19
 70
     1
102
RTVSPropertyOp20
 70
     1
102
RTVSPropertyOp21
 70
     1
102
RTVSPropertyOp22
 70
     1
102
RTVSPropertyOp23
 70
     1
102
RTVSPropertyOp24
 70
     1
102
RTVSPropertyOp25
 70
     1
102
RTVSPropertyOp26
 70
     1
102
RTVSPropertyOp27
 70
     1
102
RTVSPropertyOp28
 70
     1
102
RTVSPropertyOp29
 70
     1
102
RTVSPropertyOp30
 70
     1
102
RTVSPropertyOp31
 70
     1
102
RTVSPropertyOp32
 70
     1
102
RTVSPropertyOp33
 70
     1
102
RTVSPropertyOp34
 70
     1
102
RTVSPropertyOp35
 70
     1
102
RTVSPropertyOp36
 70
     1
102
RTVSPropertyOp37
 70
     1
102
RTVSPropertyOp38
 70
     1
102
RTVSPropertyOp39
 70
     1
102
RTVSPropertyOp40
 70
     1
102
RTVSPropertyOp41
 70
     1
102
RTVSPropertyOp42
 70
     1
102
RTVSPropertyOp43
 70
     1
102
RTVSPropertyOp44
 70
     1
102
RTVSPropertyOp45
 70
     1
102
RTVSPropertyOp46
 70
     1
102
RTVSPropertyOp47
 70
     1
102
RTVSPropertyOp48
 70
     1
102
RTVSPropertyOp49
 70
     1
102
RTVSPropertyOp50
 70
     1
102
RTVSPropertyOp51
 70
     0
102
RTVSPropertyOp52
 70
     0
102
RTVSPropertyOp53
 70
     1
102
RTVSPropertyOp54
 70
     1
102
RTVSPropertyOp55
 70
     1
102
RTVSPropertyOp56
 70
     1
102
RTVSPropertyOp57
 70
     1
102
RTVSPost2010Prop28
280
     0
102
RTVSPost2010PropOp28
 70
     1
102
RTVSPost2010Prop29
280
     1
102
RTVSPost2010PropOp29
 70
     1
102
RTVSPost2010Prop30
280
     1
102
RTVSPost2010PropOp30
 70
     1
102
RTVSPost2010Prop31
280
     0
102
RTVSPost2010PropOp31
 70
     1
102
RTVSPost2010Prop32
280
     0
102
RTVSPost2010PropOp32
 70
     1
102
RTVSPost2010Prop33
280
     0
102
RTVSPost2010PropOp33
 70
     1
102
RTVSPost2010Prop34
280
     0
102
RTVSPost2010PropOp34
 70
     1
102
RTVSPost2010Prop35
280
     0
102
RTVSPost2010PropOp35
 70
     1
102
RTVSPost2010Prop36
280
     0
102
RTVSPost2010PropOp36
 70
     1
102
RTVSPost2010Prop37
 90
       50
102
RTVSPost2010PropOp37
 70
     1
102
RTVSPost2010Prop38
140
0.0
102
RTVSPost2010PropOp38
 70
     1
102
RTVSPost2010Prop39
140
1.0
102
RTVSPost2010PropOp39
 70
     1
102
RTVSPost2010Prop40
 90
        0
102
RTVSPost2010PropOp40
 70
     1
102
RTVSPost2010Prop41ColorIndex
 90
       18
102
RTVSPost2010Prop41ColorRGB
 90
        0
102
RTVSPost2010PropOp41
 70
     1
102
RTVSPost2010Prop42
 90
       50
102
RTVSPost2010PropOp42
 70
     1
102
RTVSPost2010Prop43
 90
        3
102
RTVSPost2010PropOp43
 70
     1
102
RTVSPost2010Prop44ColorIndex
 90
        5
102
RTVSPost2010Prop44ColorRGB
 90
      255
102
RTVSPost2010PropOp44
 70
     1
102
RTVSPost2010Prop45
280
     0
102
RTVSPost2010PropOp45
 70
     1
102
RTVSPost2010Prop46
 90
       50
102
RTVSPost2010PropOp46
 70
     1
102
RTVSPost2010Prop47
 90
       50
102
RTVSPost2010PropOp47
 70
     1
102
RTVSPost2010Prop48
 90
       50
102
RTVSPost2010PropOp48
 70
     1
102
RTVSPost2010Prop49
280
     0
102
RTVSPost2010PropOp49
 70
     1
102
RTVSPost2010Prop50
 90
       50
102
RTVSPost2010PropOp50
 70
     1
102
RTVSPost2010Prop51ColorIndex
 90
      256
102
RTVSPost2010Prop51ColorRGB
 90
-16777216
102
RTVSPost2010PropOp51
 70
     0
102
RTVSPost2010Prop52
140
1.0
102
RTVSPost2010PropOp52
 70
     0
102
RTVSPost2010Prop53
 90
        2
102
RTVSPost2010PropOp53
 70
     1
102
RTVSPost2010Prop54
  1
strokes_ogs.tif
102
RTVSPost2010PropOp54
 70
     1
102
RTVSPost2010Prop55
280
     0
102
RTVSPost2010PropOp55
 70
     1
102
RTVSPost2010Prop56
140
1.0
102
RTVSPost2010PropOp56
 70
     1
102
RTVSPost2010Prop57
140
1.0
102
RTVSPost2010PropOp57
 70
     1
  0
XRECORD
  5
73F
102
{ACAD_REACTORS
330
73E
102
}
330
73E
100
AcDbXrecord
280
     1
102
RTVSPropertyOp0
 70
     1
102
RTVSPropertyOp1
 70
     1
102
RTVSPropertyOp2
 70
     1
102
RTVSPropertyOp3
 70
     1
102
RTVSPropertyOp4
 70
     1
102
RTVSPropertyOp5
 70
     1
102
RTVSPropertyOp6
 70
     1
102
RTVSPropertyOp7
 70
     1
102
RTVSPropertyOp8
 70
     1
102
RTVSPropertyOp9
 70
     1
102
RTVSPropertyOp10
 70
     1
102
RTVSPropertyOp11
 70
     1
102
RTVSPropertyOp12
 70
     1
102
RTVSPropertyOp13
 70
     1
102
RTVSPropertyOp14
 70
     1
102
RTVSPropertyOp15
 70
     1
102
RTVSPropertyOp16
 70
     1
102
RTVSPropertyOp17
 70
     1
102
RTVSPropertyOp18
 70
     1
102
RTVSPropertyOp19
 70
     1
102
RTVSPropertyOp20
 70
     1
102
RTVSPropertyOp21
 70
     1
102
RTVSPropertyOp22
 70
     1
102
RTVSPropertyOp23
 70
     1
102
RTVSPropertyOp24
 70
     1
102
RTVSPropertyOp25
 70
     1
102
RTVSPropertyOp26
 70
     1
102
RTVSPropertyOp27
 70
     1
102
RTVSPropertyOp28
 70
     1
102
RTVSPropertyOp29
 70
     1
102
RTVSPropertyOp30
 70
     1
102
RTVSPropertyOp31
 70
     1
102
RTVSPropertyOp32
 70
     1
102
RTVSPropertyOp33
 70
     1
102
RTVSPropertyOp34
 70
     1
102
RTVSPropertyOp35
 70
     1
102
RTVSPropertyOp36
 70
     1
102
RTVSPropertyOp37
 70
     1
102
RTVSPropertyOp38
 70
     1
102
RTVSPropertyOp39
 70
     1
102
RTVSPropertyOp40
 70
     1
102
RTVSPropertyOp41
 70
     1
102
RTVSPropertyOp42
 70
     1
102
RTVSPropertyOp43
 70
     1
102
RTVSPropertyOp44
 70
     1
102
RTVSPropertyOp45
 70
     1
102
RTVSPropertyOp46
 70
     1
102
RTVSPropertyOp47
 70
     1
102
RTVSPropertyOp48
 70
     1
102
RTVSPropertyOp49
 70
     1
102
RTVSPropertyOp50
 70
     1
102
RTVSPropertyOp51
 70
     0
102
RTVSPropertyOp52
 70
     0
102
RTVSPropertyOp53
 70
     1
102
RTVSPropertyOp54
 70
     1
102
RTVSPropertyOp55
 70
     1
102
RTVSPropertyOp56
 70
     1
102
RTVSPropertyOp57
 70
     1
102
RTVSPost2010Prop28
280
     0
102
RTVSPost2010PropOp28
 70
     1
102
RTVSPost2010Prop29
280
     1
102
RTVSPost2010PropOp29
 70
     1
102
RTVSPost2010Prop30
280
     1
102
RTVSPost2010PropOp30
 70
     1
102
RTVSPost2010Prop31
280
     0
102
RTVSPost2010PropOp31
 70
     1
102
RTVSPost2010Prop32
280
     0
102
RTVSPost2010PropOp32
 70
     1
102
RTVSPost2010Prop33
280
     0
102
RTVSPost2010PropOp33
 70
     1
102
RTVSPost2010Prop34
280
     0
102
RTVSPost2010PropOp34
 70
     1
102
RTVSPost2010Prop35
280
     0
102
RTVSPost2010PropOp35
 70
     1
102
RTVSPost2010Prop36
280
     0
102
RTVSPost2010PropOp36
 70
     1
102
RTVSPost2010Prop37
 90
       50
102
RTVSPost2010PropOp37
 70
     1
102
RTVSPost2010Prop38
140
0.0
102
RTVSPost2010PropOp38
 70
     1
102
RTVSPost2010Prop39
140
1.0
102
RTVSPost2010PropOp39
 70
     1
102
RTVSPost2010Prop40
 90
        0
102
RTVSPost2010PropOp40
 70
     1
102
RTVSPost2010Prop41ColorIndex
 90
       18
102
RTVSPost2010Prop41ColorRGB
 90
        0
102
RTVSPost2010PropOp41
 70
     1
102
RTVSPost2010Prop42
 90
       50
102
RTVSPost2010PropOp42
 70
     1
102
RTVSPost2010Prop43
 90
        3
102
RTVSPost2010PropOp43
 70
     1
102
RTVSPost2010Prop44ColorIndex
 90
        5
102
RTVSPost2010Prop44ColorRGB
 90
      255
102
RTVSPost2010PropOp44
 70
     1
102
RTVSPost2010Prop45
280
     0
102
RTVSPost2010PropOp45
 70
     1
102
RTVSPost2010Prop46
 90
       50
102
RTVSPost2010PropOp46
 70
     1
102
RTVSPost2010Prop47
 90
       50
102
RTVSPost2010PropOp47
 70
     1
102
RTVSPost2010Prop48
 90
       50
102
RTVSPost2010PropOp48
 70
     1
102
RTVSPost2010Prop49
280
     0
102
RTVSPost2010PropOp49
 70
     1
102
RTVSPost2010Prop50
 90
       50
102
RTVSPost2010PropOp50
 70
     1
102
RTVSPost2010Prop51ColorIndex
 90
      256
102
RTVSPost2010Prop51ColorRGB
 90
-16777216
102
RTVSPost2010PropOp51
 70
     0
102
RTVSPost2010Prop52
140
1.0
102
RTVSPost2010PropOp52
 70
     0
102
RTVSPost2010Prop53
 90
        2
102
RTVSPost2010PropOp53
 70
     1
102
RTVSPost2010Prop54
  1
strokes_ogs.tif
102
RTVSPost2010PropOp54
 70
     1
102
RTVSPost2010Prop55
280
     0
102
RTVSPost2010PropOp55
 70
     1
102
RTVSPost2010Prop56
140
1.0
102
RTVSPost2010PropOp56
 70
     1
102
RTVSPost2010Prop57
140
1.0
102
RTVSPost2010PropOp57
 70
     1
  0
XRECORD
  5
745
102
{ACAD_REACTORS
330
744
102
}
330
744
100
AcDbXrecord
280
     1
102
RTVSPropertyOp0
 70
     1
102
RTVSPropertyOp1
 70
     1
102
RTVSPropertyOp2
 70
     1
102
RTVSPropertyOp3
 70
     1
102
RTVSPropertyOp4
 70
     1
102
RTVSPropertyOp5
 70
     1
102
RTVSPropertyOp6
 70
     1
102
RTVSPropertyOp7
 70
     1
102
RTVSPropertyOp8
 70
     1
102
RTVSPropertyOp9
 70
     1
102
RTVSPropertyOp10
 70
     1
102
RTVSPropertyOp11
 70
     1
102
RTVSPropertyOp12
 70
     1
102
RTVSPropertyOp13
 70
     1
102
RTVSPropertyOp14
 70
     1
102
RTVSPropertyOp15
 70
     1
102
RTVSPropertyOp16
 70
     1
102
RTVSPropertyOp17
 70
     1
102
RTVSPropertyOp18
 70
     1
102
RTVSPropertyOp19
 70
     1
102
RTVSPropertyOp20
 70
     1
102
RTVSPropertyOp21
 70
     1
102
RTVSPropertyOp22
 70
     1
102
RTVSPropertyOp23
 70
     1
102
RTVSPropertyOp24
 70
     1
102
RTVSPropertyOp25
 70
     1
102
RTVSPropertyOp26
 70
     1
102
RTVSPropertyOp27
 70
     1
102
RTVSPropertyOp28
 70
     1
102
RTVSPropertyOp29
 70
     1
102
RTVSPropertyOp30
 70
     1
102
RTVSPropertyOp31
 70
     1
102
RTVSPropertyOp32
 70
     1
102
RTVSPropertyOp33
 70
     1
102
RTVSPropertyOp34
 70
     1
102
RTVSPropertyOp35
 70
     1
102
RTVSPropertyOp36
 70
     1
102
RTVSPropertyOp37
 70
     1
102
RTVSPropertyOp38
 70
     1
102
RTVSPropertyOp39
 70
     1
102
RTVSPropertyOp40
 70
     1
102
RTVSPropertyOp41
 70
     1
102
RTVSPropertyOp42
 70
     1
102
RTVSPropertyOp43
 70
     1
102
RTVSPropertyOp44
 70
     1
102
RTVSPropertyOp45
 70
     1
102
RTVSPropertyOp46
 70
     1
102
RTVSPropertyOp47
 70
     1
102
RTVSPropertyOp48
 70
     1
102
RTVSPropertyOp49
 70
     1
102
RTVSPropertyOp50
 70
     1
102
RTVSPropertyOp51
 70
     0
102
RTVSPropertyOp52
 70
     0
102
RTVSPropertyOp53
 70
     1
102
RTVSPropertyOp54
 70
     1
102
RTVSPropertyOp55
 70
     1
102
RTVSPropertyOp56
 70
     1
102
RTVSPropertyOp57
 70
     1
102
RTVSPost2010Prop28
280
     0
102
RTVSPost2010PropOp28
 70
     1
102
RTVSPost2010Prop29
280
     1
102
RTVSPost2010PropOp29
 70
     1
102
RTVSPost2010Prop30
280
     1
102
RTVSPost2010PropOp30
 70
     1
102
RTVSPost2010Prop31
280
     0
102
RTVSPost2010PropOp31
 70
     1
102
RTVSPost2010Prop32
280
     0
102
RTVSPost2010PropOp32
 70
     1
102
RTVSPost2010Prop33
280
     0
102
RTVSPost2010PropOp33
 70
     1
102
RTVSPost2010Prop34
280
     0
102
RTVSPost2010PropOp34
 70
     1
102
RTVSPost2010Prop35
280
     0
102
RTVSPost2010PropOp35
 70
     1
102
RTVSPost2010Prop36
280
     0
102
RTVSPost2010PropOp36
 70
     1
102
RTVSPost2010Prop37
 90
       50
102
RTVSPost2010PropOp37
 70
     1
102
RTVSPost2010Prop38
140
0.0
102
RTVSPost2010PropOp38
 70
     1
102
RTVSPost2010Prop39
140
1.0
102
RTVSPost2010PropOp39
 70
     1
102
RTVSPost2010Prop40
 90
        0
102
RTVSPost2010PropOp40
 70
     1
102
RTVSPost2010Prop41ColorIndex
 90
       18
102
RTVSPost2010Prop41ColorRGB
 90
        0
102
RTVSPost2010PropOp41
 70
     1
102
RTVSPost2010Prop42
 90
       50
102
RTVSPost2010PropOp42
 70
     1
102
RTVSPost2010Prop43
 90
        3
102
RTVSPost2010PropOp43
 70
     1
102
RTVSPost2010Prop44ColorIndex
 90
        5
102
RTVSPost2010Prop44ColorRGB
 90
      255
102
RTVSPost2010PropOp44
 70
     1
102
RTVSPost2010Prop45
280
     0
102
RTVSPost2010PropOp45
 70
     1
102
RTVSPost2010Prop46
 90
       50
102
RTVSPost2010PropOp46
 70
     1
102
RTVSPost2010Prop47
 90
       50
102
RTVSPost2010PropOp47
 70
     1
102
RTVSPost2010Prop48
 90
       50
102
RTVSPost2010PropOp48
 70
     1
102
RTVSPost2010Prop49
280
     0
102
RTVSPost2010PropOp49
 70
     1
102
RTVSPost2010Prop50
 90
       50
102
RTVSPost2010PropOp50
 70
     1
102
RTVSPost2010Prop51ColorIndex
 90
      256
102
RTVSPost2010Prop51ColorRGB
 90
-16777216
102
RTVSPost2010PropOp51
 70
     0
102
RTVSPost2010Prop52
140
1.0
102
RTVSPost2010PropOp52
 70
     0
102
RTVSPost2010Prop53
 90
        2
102
RTVSPost2010PropOp53
 70
     1
102
RTVSPost2010Prop54
  1
strokes_ogs.tif
102
RTVSPost2010PropOp54
 70
     1
102
RTVSPost2010Prop55
280
     0
102
RTVSPost2010PropOp55
 70
     1
102
RTVSPost2010Prop56
140
1.0
102
RTVSPost2010PropOp56
 70
     1
102
RTVSPost2010Prop57
140
1.0
102
RTVSPost2010PropOp57
 70
     1
  0
XRECORD
  5
759
102
{ACAD_REACTORS
330
758
102
}
330
758
100
AcDbXrecord
280
     1
102
RTVSPropertyOp0
 70
     0
102
RTVSPropertyOp1
 70
     0
102
RTVSPropertyOp2
 70
     0
102
RTVSPropertyOp3
 70
     0
102
RTVSPropertyOp4
 70
     0
102
RTVSPropertyOp5
 70
     0
102
RTVSPropertyOp6
 70
     0
102
RTVSPropertyOp7
 70
     0
102
RTVSPropertyOp8
 70
     0
102
RTVSPropertyOp9
 70
     0
102
RTVSPropertyOp10
 70
     0
102
RTVSPropertyOp11
 70
     0
102
RTVSPropertyOp12
 70
     0
102
RTVSPropertyOp13
 70
     0
102
RTVSPropertyOp14
 70
     0
102
RTVSPropertyOp15
 70
     0
102
RTVSPropertyOp16
 70
     0
102
RTVSPropertyOp17
 70
     0
102
RTVSPropertyOp18
 70
     0
102
RTVSPropertyOp19
 70
     0
102
RTVSPropertyOp20
 70
     0
102
RTVSPropertyOp21
 70
     0
102
RTVSPropertyOp22
 70
     0
102
RTVSPropertyOp23
 70
     0
102
RTVSPropertyOp24
 70
     0
102
RTVSPropertyOp25
 70
     0
102
RTVSPropertyOp26
 70
     0
102
RTVSPropertyOp27
 70
     0
102
RTVSPropertyOp28
 70
     1
102
RTVSPropertyOp29
 70
     1
102
RTVSPropertyOp30
 70
     1
102
RTVSPropertyOp31
 70
     1
102
RTVSPropertyOp32
 70
     1
102
RTVSPropertyOp33
 70
     1
102
RTVSPropertyOp34
 70
     1
102
RTVSPropertyOp35
 70
     1
102
RTVSPropertyOp36
 70
     1
102
RTVSPropertyOp37
 70
     1
102
RTVSPropertyOp38
 70
     1
102
RTVSPropertyOp39
 70
     1
102
RTVSPropertyOp40
 70
     1
102
RTVSPropertyOp41
 70
     1
102
RTVSPropertyOp42
 70
     1
102
RTVSPropertyOp43
 70
     1
102
RTVSPropertyOp44
 70
     1
102
RTVSPropertyOp45
 70
     1
102
RTVSPropertyOp46
 70
     1
102
RTVSPropertyOp47
 70
     1
102
RTVSPropertyOp48
 70
     1
102
RTVSPropertyOp49
 70
     1
102
RTVSPropertyOp50
 70
     1
102
RTVSPropertyOp51
 70
     0
102
RTVSPropertyOp52
 70
     0
102
RTVSPropertyOp53
 70
     1
102
RTVSPropertyOp54
 70
     1
102
RTVSPropertyOp55
 70
     1
102
RTVSPropertyOp56
 70
     1
102
RTVSPropertyOp57
 70
     1
102
RTVSPost2010Prop28
280
     0
102
RTVSPost2010PropOp28
 70
     1
102
RTVSPost2010Prop29
280
     1
102
RTVSPost2010PropOp29
 70
     1
102
RTVSPost2010Prop30
280
     1
102
RTVSPost2010PropOp30
 70
     1
102
RTVSPost2010Prop31
280
     0
102
RTVSPost2010PropOp31
 70
     1
102
RTVSPost2010Prop32
280
     0
102
RTVSPost2010PropOp32
 70
     1
102
RTVSPost2010Prop33
280
     0
102
RTVSPost2010PropOp33
 70
     1
102
RTVSPost2010Prop34
280
     0
102
RTVSPost2010PropOp34
 70
     1
102
RTVSPost2010Prop35
280
     0
102
RTVSPost2010PropOp35
 70
     1
102
RTVSPost2010Prop36
280
     0
102
RTVSPost2010PropOp36
 70
     1
102
RTVSPost2010Prop37
 90
       50
102
RTVSPost2010PropOp37
 70
     1
102
RTVSPost2010Prop38
140
0.0
102
RTVSPost2010PropOp38
 70
     1
102
RTVSPost2010Prop39
140
1.0
102
RTVSPost2010PropOp39
 70
     1
102
RTVSPost2010Prop40
 90
        0
102
RTVSPost2010PropOp40
 70
     1
102
RTVSPost2010Prop41ColorIndex
 90
       18
102
RTVSPost2010Prop41ColorRGB
 90
        0
102
RTVSPost2010PropOp41
 70
     1
102
RTVSPost2010Prop42
 90
       50
102
RTVSPost2010PropOp42
 70
     1
102
RTVSPost2010Prop43
 90
        3
102
RTVSPost2010PropOp43
 70
     1
102
RTVSPost2010Prop44ColorIndex
 90
        5
102
RTVSPost2010Prop44ColorRGB
 90
      255
102
RTVSPost2010PropOp44
 70
     1
102
RTVSPost2010Prop45
280
     0
102
RTVSPost2010PropOp45
 70
     1
102
RTVSPost2010Prop46
 90
       50
102
RTVSPost2010PropOp46
 70
     1
102
RTVSPost2010Prop47
 90
       50
102
RTVSPost2010PropOp47
 70
     1
102
RTVSPost2010Prop48
 90
       50
102
RTVSPost2010PropOp48
 70
     1
102
RTVSPost2010Prop49
280
     0
102
RTVSPost2010PropOp49
 70
     1
102
RTVSPost2010Prop50
 90
       50
102
RTVSPost2010PropOp50
 70
     1
102
RTVSPost2010Prop51ColorIndex
 90
      256
102
RTVSPost2010Prop51ColorRGB
 90
-16777216
102
RTVSPost2010PropOp51
 70
     0
102
RTVSPost2010Prop52
140
1.0
102
RTVSPost2010PropOp52
 70
     0
102
RTVSPost2010Prop53
 90
        2
102
RTVSPost2010PropOp53
 70
     1
102
RTVSPost2010Prop54
  1
strokes_ogs.tif
102
RTVSPost2010PropOp54
 70
     1
102
RTVSPost2010Prop55
280
     0
102
RTVSPost2010PropOp55
 70
     1
102
RTVSPost2010Prop56
140
1.0
102
RTVSPost2010PropOp56
 70
     1
102
RTVSPost2010Prop57
140
1.0
102
RTVSPost2010PropOp57
 70
     1
  0
XRECORD
  5
753
102
{ACAD_REACTORS
330
752
102
}
330
752
100
AcDbXrecord
280
     1
102
RTVSPropertyOp0
 70
     1
102
RTVSPropertyOp1
 70
     1
102
RTVSPropertyOp2
 70
     1
102
RTVSPropertyOp3
 70
     1
102
RTVSPropertyOp4
 70
     1
102
RTVSPropertyOp5
 70
     1
102
RTVSPropertyOp6
 70
     1
102
RTVSPropertyOp7
 70
     1
102
RTVSPropertyOp8
 70
     1
102
RTVSPropertyOp9
 70
     1
102
RTVSPropertyOp10
 70
     1
102
RTVSPropertyOp11
 70
     1
102
RTVSPropertyOp12
 70
     1
102
RTVSPropertyOp13
 70
     1
102
RTVSPropertyOp14
 70
     1
102
RTVSPropertyOp15
 70
     1
102
RTVSPropertyOp16
 70
     1
102
RTVSPropertyOp17
 70
     1
102
RTVSPropertyOp18
 70
     1
102
RTVSPropertyOp19
 70
     1
102
RTVSPropertyOp20
 70
     1
102
RTVSPropertyOp21
 70
     1
102
RTVSPropertyOp22
 70
     1
102
RTVSPropertyOp23
 70
     1
102
RTVSPropertyOp24
 70
     1
102
RTVSPropertyOp25
 70
     1
102
RTVSPropertyOp26
 70
     1
102
RTVSPropertyOp27
 70
     1
102
RTVSPropertyOp28
 70
     1
102
RTVSPropertyOp29
 70
     1
102
RTVSPropertyOp30
 70
     1
102
RTVSPropertyOp31
 70
     1
102
RTVSPropertyOp32
 70
     1
102
RTVSPropertyOp33
 70
     1
102
RTVSPropertyOp34
 70
     1
102
RTVSPropertyOp35
 70
     1
102
RTVSPropertyOp36
 70
     1
102
RTVSPropertyOp37
 70
     1
102
RTVSPropertyOp38
 70
     1
102
RTVSPropertyOp39
 70
     1
102
RTVSPropertyOp40
 70
     1
102
RTVSPropertyOp41
 70
     1
102
RTVSPropertyOp42
 70
     1
102
RTVSPropertyOp43
 70
     1
102
RTVSPropertyOp44
 70
     1
102
RTVSPropertyOp45
 70
     1
102
RTVSPropertyOp46
 70
     1
102
RTVSPropertyOp47
 70
     1
102
RTVSPropertyOp48
 70
     1
102
RTVSPropertyOp49
 70
     1
102
RTVSPropertyOp50
 70
     1
102
RTVSPropertyOp51
 70
     0
102
RTVSPropertyOp52
 70
     0
102
RTVSPropertyOp53
 70
     1
102
RTVSPropertyOp54
 70
     1
102
RTVSPropertyOp55
 70
     1
102
RTVSPropertyOp56
 70
     1
102
RTVSPropertyOp57
 70
     1
102
RTVSPost2010Prop28
280
     0
102
RTVSPost2010PropOp28
 70
     1
102
RTVSPost2010Prop29
280
     1
102
RTVSPost2010PropOp29
 70
     1
102
RTVSPost2010Prop30
280
     1
102
RTVSPost2010PropOp30
 70
     1
102
RTVSPost2010Prop31
280
     0
102
RTVSPost2010PropOp31
 70
     1
102
RTVSPost2010Prop32
280
     0
102
RTVSPost2010PropOp32
 70
     1
102
RTVSPost2010Prop33
280
     0
102
RTVSPost2010PropOp33
 70
     1
102
RTVSPost2010Prop34
280
     0
102
RTVSPost2010PropOp34
 70
     1
102
RTVSPost2010Prop35
280
     0
102
RTVSPost2010PropOp35
 70
     1
102
RTVSPost2010Prop36
280
     0
102
RTVSPost2010PropOp36
 70
     1
102
RTVSPost2010Prop37
 90
       50
102
RTVSPost2010PropOp37
 70
     1
102
RTVSPost2010Prop38
140
0.0
102
RTVSPost2010PropOp38
 70
     1
102
RTVSPost2010Prop39
140
1.0
102
RTVSPost2010PropOp39
 70
     1
102
RTVSPost2010Prop40
 90
        0
102
RTVSPost2010PropOp40
 70
     1
102
RTVSPost2010Prop41ColorIndex
 90
       18
102
RTVSPost2010Prop41ColorRGB
 90
        0
102
RTVSPost2010PropOp41
 70
     1
102
RTVSPost2010Prop42
 90
       50
102
RTVSPost2010PropOp42
 70
     1
102
RTVSPost2010Prop43
 90
        3
102
RTVSPost2010PropOp43
 70
     1
102
RTVSPost2010Prop44ColorIndex
 90
        5
102
RTVSPost2010Prop44ColorRGB
 90
      255
102
RTVSPost2010PropOp44
 70
     1
102
RTVSPost2010Prop45
280
     0
102
RTVSPost2010PropOp45
 70
     1
102
RTVSPost2010Prop46
 90
       50
102
RTVSPost2010PropOp46
 70
     1
102
RTVSPost2010Prop47
 90
       50
102
RTVSPost2010PropOp47
 70
     1
102
RTVSPost2010Prop48
 90
       50
102
RTVSPost2010PropOp48
 70
     1
102
RTVSPost2010Prop49
280
     0
102
RTVSPost2010PropOp49
 70
     1
102
RTVSPost2010Prop50
 90
       50
102
RTVSPost2010PropOp50
 70
     1
102
RTVSPost2010Prop51ColorIndex
 90
      256
102
RTVSPost2010Prop51ColorRGB
 90
-16777216
102
RTVSPost2010PropOp51
 70
     0
102
RTVSPost2010Prop52
140
1.0
102
RTVSPost2010PropOp52
 70
     0
102
RTVSPost2010Prop53
 90
        2
102
RTVSPost2010PropOp53
 70
     1
102
RTVSPost2010Prop54
  1
strokes_ogs.tif
102
RTVSPost2010PropOp54
 70
     1
102
RTVSPost2010Prop55
280
     0
102
RTVSPost2010PropOp55
 70
     1
102
RTVSPost2010Prop56
140
1.0
102
RTVSPost2010PropOp56
 70
     1
102
RTVSPost2010Prop57
140
1.0
102
RTVSPost2010PropOp57
 70
     1
  0
XRECORD
  5
75B
102
{ACAD_REACTORS
330
75A
102
}
330
75A
100
AcDbXrecord
280
     1
102
RTVSPropertyOp0
 70
     0
102
RTVSPropertyOp1
 70
     0
102
RTVSPropertyOp2
 70
     0
102
RTVSPropertyOp3
 70
     0
102
RTVSPropertyOp4
 70
     0
102
RTVSPropertyOp5
 70
     0
102
RTVSPropertyOp6
 70
     0
102
RTVSPropertyOp7
 70
     0
102
RTVSPropertyOp8
 70
     0
102
RTVSPropertyOp9
 70
     0
102
RTVSPropertyOp10
 70
     0
102
RTVSPropertyOp11
 70
     0
102
RTVSPropertyOp12
 70
     0
102
RTVSPropertyOp13
 70
     0
102
RTVSPropertyOp14
 70
     0
102
RTVSPropertyOp15
 70
     0
102
RTVSPropertyOp16
 70
     0
102
RTVSPropertyOp17
 70
     0
102
RTVSPropertyOp18
 70
     0
102
RTVSPropertyOp19
 70
     0
102
RTVSPropertyOp20
 70
     0
102
RTVSPropertyOp21
 70
     0
102
RTVSPropertyOp22
 70
     0
102
RTVSPropertyOp23
 70
     0
102
RTVSPropertyOp24
 70
     0
102
RTVSPropertyOp25
 70
     0
102
RTVSPropertyOp26
 70
     0
102
RTVSPropertyOp27
 70
     0
102
RTVSPropertyOp28
 70
     1
102
RTVSPropertyOp29
 70
     1
102
RTVSPropertyOp30
 70
     1
102
RTVSPropertyOp31
 70
     1
102
RTVSPropertyOp32
 70
     1
102
RTVSPropertyOp33
 70
     1
102
RTVSPropertyOp34
 70
     1
102
RTVSPropertyOp35
 70
     1
102
RTVSPropertyOp36
 70
     1
102
RTVSPropertyOp37
 70
     1
102
RTVSPropertyOp38
 70
     1
102
RTVSPropertyOp39
 70
     1
102
RTVSPropertyOp40
 70
     1
102
RTVSPropertyOp41
 70
     1
102
RTVSPropertyOp42
 70
     1
102
RTVSPropertyOp43
 70
     1
102
RTVSPropertyOp44
 70
     1
102
RTVSPropertyOp45
 70
     1
102
RTVSPropertyOp46
 70
     1
102
RTVSPropertyOp47
 70
     1
102
RTVSPropertyOp48
 70
     1
102
RTVSPropertyOp49
 70
     1
102
RTVSPropertyOp50
 70
     1
102
RTVSPropertyOp51
 70
     0
102
RTVSPropertyOp52
 70
     0
102
RTVSPropertyOp53
 70
     1
102
RTVSPropertyOp54
 70
     1
102
RTVSPropertyOp55
 70
     1
102
RTVSPropertyOp56
 70
     1
102
RTVSPropertyOp57
 70
     1
102
RTVSPost2010Prop28
280
     0
102
RTVSPost2010PropOp28
 70
     1
102
RTVSPost2010Prop29
280
     1
102
RTVSPost2010PropOp29
 70
     1
102
RTVSPost2010Prop30
280
     1
102
RTVSPost2010PropOp30
 70
     1
102
RTVSPost2010Prop31
280
     0
102
RTVSPost2010PropOp31
 70
     1
102
RTVSPost2010Prop32
280
     0
102
RTVSPost2010PropOp32
 70
     1
102
RTVSPost2010Prop33
280
     0
102
RTVSPost2010PropOp33
 70
     1
102
RTVSPost2010Prop34
280
     0
102
RTVSPost2010PropOp34
 70
     1
102
RTVSPost2010Prop35
280
     0
102
RTVSPost2010PropOp35
 70
     1
102
RTVSPost2010Prop36
280
     0
102
RTVSPost2010PropOp36
 70
     1
102
RTVSPost2010Prop37
 90
       50
102
RTVSPost2010PropOp37
 70
     1
102
RTVSPost2010Prop38
140
0.0
102
RTVSPost2010PropOp38
 70
     1
102
RTVSPost2010Prop39
140
1.0
102
RTVSPost2010PropOp39
 70
     1
102
RTVSPost2010Prop40
 90
        0
102
RTVSPost2010PropOp40
 70
     1
102
RTVSPost2010Prop41ColorIndex
 90
       18
102
RTVSPost2010Prop41ColorRGB
 90
        0
102
RTVSPost2010PropOp41
 70
     1
102
RTVSPost2010Prop42
 90
       50
102
RTVSPost2010PropOp42
 70
     1
102
RTVSPost2010Prop43
 90
        3
102
RTVSPost2010PropOp43
 70
     1
102
RTVSPost2010Prop44ColorIndex
 90
        5
102
RTVSPost2010Prop44ColorRGB
 90
      255
102
RTVSPost2010PropOp44
 70
     1
102
RTVSPost2010Prop45
280
     0
102
RTVSPost2010PropOp45
 70
     1
102
RTVSPost2010Prop46
 90
       50
102
RTVSPost2010PropOp46
 70
     1
102
RTVSPost2010Prop47
 90
       50
102
RTVSPost2010PropOp47
 70
     1
102
RTVSPost2010Prop48
 90
       50
102
RTVSPost2010PropOp48
 70
     1
102
RTVSPost2010Prop49
280
     0
102
RTVSPost2010PropOp49
 70
     1
102
RTVSPost2010Prop50
 90
       50
102
RTVSPost2010PropOp50
 70
     1
102
RTVSPost2010Prop51ColorIndex
 90
      256
102
RTVSPost2010Prop51ColorRGB
 90
-16777216
102
RTVSPost2010PropOp51
 70
     0
102
RTVSPost2010Prop52
140
1.0
102
RTVSPost2010PropOp52
 70
     0
102
RTVSPost2010Prop53
 90
        2
102
RTVSPost2010PropOp53
 70
     1
102
RTVSPost2010Prop54
  1
strokes_ogs.tif
102
RTVSPost2010PropOp54
 70
     1
102
RTVSPost2010Prop55
280
     0
102
RTVSPost2010PropOp55
 70
     1
102
RTVSPost2010Prop56
140
1.0
102
RTVSPost2010PropOp56
 70
     1
102
RTVSPost2010Prop57
140
1.0
102
RTVSPost2010PropOp57
 70
     1
  0
XRECORD
  5
749
102
{ACAD_REACTORS
330
748
102
}
330
748
100
AcDbXrecord
280
     1
102
RTVSPropertyOp0
 70
     1
102
RTVSPropertyOp1
 70
     1
102
RTVSPropertyOp2
 70
     1
102
RTVSPropertyOp3
 70
     1
102
RTVSPropertyOp4
 70
     1
102
RTVSPropertyOp5
 70
     1
102
RTVSPropertyOp6
 70
     1
102
RTVSPropertyOp7
 70
     1
102
RTVSPropertyOp8
 70
     1
102
RTVSPropertyOp9
 70
     1
102
RTVSPropertyOp10
 70
     1
102
RTVSPropertyOp11
 70
     1
102
RTVSPropertyOp12
 70
     1
102
RTVSPropertyOp13
 70
     1
102
RTVSPropertyOp14
 70
     1
102
RTVSPropertyOp15
 70
     1
102
RTVSPropertyOp16
 70
     1
102
RTVSPropertyOp17
 70
     1
102
RTVSPropertyOp18
 70
     1
102
RTVSPropertyOp19
 70
     1
102
RTVSPropertyOp20
 70
     1
102
RTVSPropertyOp21
 70
     1
102
RTVSPropertyOp22
 70
     1
102
RTVSPropertyOp23
 70
     1
102
RTVSPropertyOp24
 70
     1
102
RTVSPropertyOp25
 70
     1
102
RTVSPropertyOp26
 70
     1
102
RTVSPropertyOp27
 70
     1
102
RTVSPropertyOp28
 70
     1
102
RTVSPropertyOp29
 70
     1
102
RTVSPropertyOp30
 70
     1
102
RTVSPropertyOp31
 70
     1
102
RTVSPropertyOp32
 70
     1
102
RTVSPropertyOp33
 70
     1
102
RTVSPropertyOp34
 70
     1
102
RTVSPropertyOp35
 70
     1
102
RTVSPropertyOp36
 70
     1
102
RTVSPropertyOp37
 70
     1
102
RTVSPropertyOp38
 70
     1
102
RTVSPropertyOp39
 70
     1
102
RTVSPropertyOp40
 70
     1
102
RTVSPropertyOp41
 70
     1
102
RTVSPropertyOp42
 70
     1
102
RTVSPropertyOp43
 70
     1
102
RTVSPropertyOp44
 70
     1
102
RTVSPropertyOp45
 70
     1
102
RTVSPropertyOp46
 70
     1
102
RTVSPropertyOp47
 70
     1
102
RTVSPropertyOp48
 70
     1
102
RTVSPropertyOp49
 70
     1
102
RTVSPropertyOp50
 70
     1
102
RTVSPropertyOp51
 70
     0
102
RTVSPropertyOp52
 70
     0
102
RTVSPropertyOp53
 70
     1
102
RTVSPropertyOp54
 70
     1
102
RTVSPropertyOp55
 70
     1
102
RTVSPropertyOp56
 70
     1
102
RTVSPropertyOp57
 70
     1
102
RTVSPost2010Prop28
280
     0
102
RTVSPost2010PropOp28
 70
     1
102
RTVSPost2010Prop29
280
     1
102
RTVSPost2010PropOp29
 70
     1
102
RTVSPost2010Prop30
280
     1
102
RTVSPost2010PropOp30
 70
     1
102
RTVSPost2010Prop31
280
     0
102
RTVSPost2010PropOp31
 70
     1
102
RTVSPost2010Prop32
280
     0
102
RTVSPost2010PropOp32
 70
     1
102
RTVSPost2010Prop33
280
     0
102
RTVSPost2010PropOp33
 70
     1
102
RTVSPost2010Prop34
280
     0
102
RTVSPost2010PropOp34
 70
     1
102
RTVSPost2010Prop35
280
     0
102
RTVSPost2010PropOp35
 70
     1
102
RTVSPost2010Prop36
280
     0
102
RTVSPost2010PropOp36
 70
     1
102
RTVSPost2010Prop37
 90
       50
102
RTVSPost2010PropOp37
 70
     1
102
RTVSPost2010Prop38
140
0.0
102
RTVSPost2010PropOp38
 70
     1
102
RTVSPost2010Prop39
140
1.0
102
RTVSPost2010PropOp39
 70
     1
102
RTVSPost2010Prop40
 90
        0
102
RTVSPost2010PropOp40
 70
     1
102
RTVSPost2010Prop41ColorIndex
 90
       18
102
RTVSPost2010Prop41ColorRGB
 90
        0
102
RTVSPost2010PropOp41
 70
     1
102
RTVSPost2010Prop42
 90
       50
102
RTVSPost2010PropOp42
 70
     1
102
RTVSPost2010Prop43
 90
        3
102
RTVSPost2010PropOp43
 70
     1
102
RTVSPost2010Prop44ColorIndex
 90
        5
102
RTVSPost2010Prop44ColorRGB
 90
      255
102
RTVSPost2010PropOp44
 70
     1
102
RTVSPost2010Prop45
280
     0
102
RTVSPost2010PropOp45
 70
     1
102
RTVSPost2010Prop46
 90
       50
102
RTVSPost2010PropOp46
 70
     1
102
RTVSPost2010Prop47
 90
       50
102
RTVSPost2010PropOp47
 70
     1
102
RTVSPost2010Prop48
 90
       50
102
RTVSPost2010PropOp48
 70
     1
102
RTVSPost2010Prop49
280
     0
102
RTVSPost2010PropOp49
 70
     1
102
RTVSPost2010Prop50
 90
       50
102
RTVSPost2010PropOp50
 70
     1
102
RTVSPost2010Prop51ColorIndex
 90
      256
102
RTVSPost2010Prop51ColorRGB
 90
-16777216
102
RTVSPost2010PropOp51
 70
     0
102
RTVSPost2010Prop52
140
1.0
102
RTVSPost2010PropOp52
 70
     0
102
RTVSPost2010Prop53
 90
        2
102
RTVSPost2010PropOp53
 70
     1
102
RTVSPost2010Prop54
  1
strokes_ogs.tif
102
RTVSPost2010PropOp54
 70
     1
102
RTVSPost2010Prop55
280
     0
102
RTVSPost2010PropOp55
 70
     1
102
RTVSPost2010Prop56
140
1.0
102
RTVSPost2010PropOp56
 70
     1
102
RTVSPost2010Prop57
140
1.0
102
RTVSPost2010PropOp57
 70
     1
  0
XRECORD
  5
767
102
{ACAD_REACTORS
330
766
102
}
330
766
100
AcDbXrecord
280
     1
102
RTVSPropertyOp0
 70
     1
102
RTVSPropertyOp1
 70
     1
102
RTVSPropertyOp2
 70
     1
102
RTVSPropertyOp3
 70
     1
102
RTVSPropertyOp4
 70
     1
102
RTVSPropertyOp5
 70
     1
102
RTVSPropertyOp6
 70
     1
102
RTVSPropertyOp7
 70
     1
102
RTVSPropertyOp8
 70
     1
102
RTVSPropertyOp9
 70
     1
102
RTVSPropertyOp10
 70
     1
102
RTVSPropertyOp11
 70
     1
102
RTVSPropertyOp12
 70
     1
102
RTVSPropertyOp13
 70
     1
102
RTVSPropertyOp14
 70
     1
102
RTVSPropertyOp15
 70
     1
102
RTVSPropertyOp16
 70
     1
102
RTVSPropertyOp17
 70
     1
102
RTVSPropertyOp18
 70
     1
102
RTVSPropertyOp19
 70
     1
102
RTVSPropertyOp20
 70
     1
102
RTVSPropertyOp21
 70
     1
102
RTVSPropertyOp22
 70
     1
102
RTVSPropertyOp23
 70
     1
102
RTVSPropertyOp24
 70
     1
102
RTVSPropertyOp25
 70
     1
102
RTVSPropertyOp26
 70
     1
102
RTVSPropertyOp27
 70
     1
102
RTVSPropertyOp28
 70
     1
102
RTVSPropertyOp29
 70
     1
102
RTVSPropertyOp30
 70
     1
102
RTVSPropertyOp31
 70
     1
102
RTVSPropertyOp32
 70
     1
102
RTVSPropertyOp33
 70
     1
102
RTVSPropertyOp34
 70
     1
102
RTVSPropertyOp35
 70
     1
102
RTVSPropertyOp36
 70
     1
102
RTVSPropertyOp37
 70
     1
102
RTVSPropertyOp38
 70
     1
102
RTVSPropertyOp39
 70
     1
102
RTVSPropertyOp40
 70
     1
102
RTVSPropertyOp41
 70
     1
102
RTVSPropertyOp42
 70
     1
102
RTVSPropertyOp43
 70
     1
102
RTVSPropertyOp44
 70
     1
102
RTVSPropertyOp45
 70
     1
102
RTVSPropertyOp46
 70
     1
102
RTVSPropertyOp47
 70
     1
102
RTVSPropertyOp48
 70
     1
102
RTVSPropertyOp49
 70
     1
102
RTVSPropertyOp50
 70
     1
102
RTVSPropertyOp51
 70
     0
102
RTVSPropertyOp52
 70
     0
102
RTVSPropertyOp53
 70
     1
102
RTVSPropertyOp54
 70
     1
102
RTVSPropertyOp55
 70
     1
102
RTVSPropertyOp56
 70
     1
102
RTVSPropertyOp57
 70
     1
102
RTVSPost2010Prop28
280
     0
102
RTVSPost2010PropOp28
 70
     1
102
RTVSPost2010Prop29
280
     1
102
RTVSPost2010PropOp29
 70
     1
102
RTVSPost2010Prop30
280
     1
102
RTVSPost2010PropOp30
 70
     1
102
RTVSPost2010Prop31
280
     0
102
RTVSPost2010PropOp31
 70
     1
102
RTVSPost2010Prop32
280
     0
102
RTVSPost2010PropOp32
 70
     1
102
RTVSPost2010Prop33
280
     0
102
RTVSPost2010PropOp33
 70
     1
102
RTVSPost2010Prop34
280
     0
102
RTVSPost2010PropOp34
 70
     1
102
RTVSPost2010Prop35
280
     0
102
RTVSPost2010PropOp35
 70
     1
102
RTVSPost2010Prop36
280
     0
102
RTVSPost2010PropOp36
 70
     1
102
RTVSPost2010Prop37
 90
       50
102
RTVSPost2010PropOp37
 70
     1
102
RTVSPost2010Prop38
140
0.0
102
RTVSPost2010PropOp38
 70
     1
102
RTVSPost2010Prop39
140
1.0
102
RTVSPost2010PropOp39
 70
     1
102
RTVSPost2010Prop40
 90
        0
102
RTVSPost2010PropOp40
 70
     1
102
RTVSPost2010Prop41ColorIndex
 90
       18
102
RTVSPost2010Prop41ColorRGB
 90
        0
102
RTVSPost2010PropOp41
 70
     1
102
RTVSPost2010Prop42
 90
       50
102
RTVSPost2010PropOp42
 70
     1
102
RTVSPost2010Prop43
 90
        3
102
RTVSPost2010PropOp43
 70
     1
102
RTVSPost2010Prop44ColorIndex
 90
        5
102
RTVSPost2010Prop44ColorRGB
 90
      255
102
RTVSPost2010PropOp44
 70
     1
102
RTVSPost2010Prop45
280
     0
102
RTVSPost2010PropOp45
 70
     1
102
RTVSPost2010Prop46
 90
       50
102
RTVSPost2010PropOp46
 70
     1
102
RTVSPost2010Prop47
 90
       50
102
RTVSPost2010PropOp47
 70
     1
102
RTVSPost2010Prop48
 90
       50
102
RTVSPost2010PropOp48
 70
     1
102
RTVSPost2010Prop49
280
     0
102
RTVSPost2010PropOp49
 70
     1
102
RTVSPost2010Prop50
 90
       50
102
RTVSPost2010PropOp50
 70
     1
102
RTVSPost2010Prop51ColorIndex
 90
      256
102
RTVSPost2010Prop51ColorRGB
 90
-16777216
102
RTVSPost2010PropOp51
 70
     0
102
RTVSPost2010Prop52
140
1.0
102
RTVSPost2010PropOp52
 70
     0
102
RTVSPost2010Prop53
 90
        2
102
RTVSPost2010PropOp53
 70
     1
102
RTVSPost2010Prop54
  1
strokes_ogs.tif
102
RTVSPost2010PropOp54
 70
     1
102
RTVSPost2010Prop55
280
     0
102
RTVSPost2010PropOp55
 70
     1
102
RTVSPost2010Prop56
140
1.0
102
RTVSPost2010PropOp56
 70
     1
102
RTVSPost2010Prop57
140
1.0
102
RTVSPost2010PropOp57
 70
     1
  0
XRECORD
  5
765
102
{ACAD_REACTORS
330
764
102
}
330
764
100
AcDbXrecord
280
     1
102
RTVSPropertyOp0
 70
     1
102
RTVSPropertyOp1
 70
     1
102
RTVSPropertyOp2
 70
     1
102
RTVSPropertyOp3
 70
     1
102
RTVSPropertyOp4
 70
     1
102
RTVSPropertyOp5
 70
     1
102
RTVSPropertyOp6
 70
     1
102
RTVSPropertyOp7
 70
     1
102
RTVSPropertyOp8
 70
     1
102
RTVSPropertyOp9
 70
     1
102
RTVSPropertyOp10
 70
     1
102
RTVSPropertyOp11
 70
     1
102
RTVSPropertyOp12
 70
     1
102
RTVSPropertyOp13
 70
     1
102
RTVSPropertyOp14
 70
     1
102
RTVSPropertyOp15
 70
     1
102
RTVSPropertyOp16
 70
     1
102
RTVSPropertyOp17
 70
     1
102
RTVSPropertyOp18
 70
     1
102
RTVSPropertyOp19
 70
     1
102
RTVSPropertyOp20
 70
     1
102
RTVSPropertyOp21
 70
     1
102
RTVSPropertyOp22
 70
     1
102
RTVSPropertyOp23
 70
     1
102
RTVSPropertyOp24
 70
     1
102
RTVSPropertyOp25
 70
     1
102
RTVSPropertyOp26
 70
     1
102
RTVSPropertyOp27
 70
     1
102
RTVSPropertyOp28
 70
     1
102
RTVSPropertyOp29
 70
     1
102
RTVSPropertyOp30
 70
     1
102
RTVSPropertyOp31
 70
     1
102
RTVSPropertyOp32
 70
     1
102
RTVSPropertyOp33
 70
     1
102
RTVSPropertyOp34
 70
     1
102
RTVSPropertyOp35
 70
     1
102
RTVSPropertyOp36
 70
     1
102
RTVSPropertyOp37
 70
     1
102
RTVSPropertyOp38
 70
     1
102
RTVSPropertyOp39
 70
     1
102
RTVSPropertyOp40
 70
     1
102
RTVSPropertyOp41
 70
     1
102
RTVSPropertyOp42
 70
     1
102
RTVSPropertyOp43
 70
     1
102
RTVSPropertyOp44
 70
     1
102
RTVSPropertyOp45
 70
     1
102
RTVSPropertyOp46
 70
     1
102
RTVSPropertyOp47
 70
     1
102
RTVSPropertyOp48
 70
     1
102
RTVSPropertyOp49
 70
     1
102
RTVSPropertyOp50
 70
     1
102
RTVSPropertyOp51
 70
     0
102
RTVSPropertyOp52
 70
     0
102
RTVSPropertyOp53
 70
     1
102
RTVSPropertyOp54
 70
     1
102
RTVSPropertyOp55
 70
     1
102
RTVSPropertyOp56
 70
     1
102
RTVSPropertyOp57
 70
     1
102
RTVSPost2010Prop28
280
     0
102
RTVSPost2010PropOp28
 70
     1
102
RTVSPost2010Prop29
280
     1
102
RTVSPost2010PropOp29
 70
     1
102
RTVSPost2010Prop30
280
     1
102
RTVSPost2010PropOp30
 70
     1
102
RTVSPost2010Prop31
280
     0
102
RTVSPost2010PropOp31
 70
     1
102
RTVSPost2010Prop32
280
     0
102
RTVSPost2010PropOp32
 70
     1
102
RTVSPost2010Prop33
280
     0
102
RTVSPost2010PropOp33
 70
     1
102
RTVSPost2010Prop34
280
     0
102
RTVSPost2010PropOp34
 70
     1
102
RTVSPost2010Prop35
280
     0
102
RTVSPost2010PropOp35
 70
     1
102
RTVSPost2010Prop36
280
     0
102
RTVSPost2010PropOp36
 70
     1
102
RTVSPost2010Prop37
 90
       50
102
RTVSPost2010PropOp37
 70
     1
102
RTVSPost2010Prop38
140
0.0
102
RTVSPost2010PropOp38
 70
     1
102
RTVSPost2010Prop39
140
1.0
102
RTVSPost2010PropOp39
 70
     1
102
RTVSPost2010Prop40
 90
        0
102
RTVSPost2010PropOp40
 70
     1
102
RTVSPost2010Prop41ColorIndex
 90
       18
102
RTVSPost2010Prop41ColorRGB
 90
        0
102
RTVSPost2010PropOp41
 70
     1
102
RTVSPost2010Prop42
 90
       50
102
RTVSPost2010PropOp42
 70
     1
102
RTVSPost2010Prop43
 90
        3
102
RTVSPost2010PropOp43
 70
     1
102
RTVSPost2010Prop44ColorIndex
 90
        5
102
RTVSPost2010Prop44ColorRGB
 90
      255
102
RTVSPost2010PropOp44
 70
     1
102
RTVSPost2010Prop45
280
     0
102
RTVSPost2010PropOp45
 70
     1
102
RTVSPost2010Prop46
 90
       50
102
RTVSPost2010PropOp46
 70
     1
102
RTVSPost2010Prop47
 90
       50
102
RTVSPost2010PropOp47
 70
     1
102
RTVSPost2010Prop48
 90
       50
102
RTVSPost2010PropOp48
 70
     1
102
RTVSPost2010Prop49
280
     0
102
RTVSPost2010PropOp49
 70
     1
102
RTVSPost2010Prop50
 90
       50
102
RTVSPost2010PropOp50
 70
     1
102
RTVSPost2010Prop51ColorIndex
 90
      256
102
RTVSPost2010Prop51ColorRGB
 90
-16777216
102
RTVSPost2010PropOp51
 70
     0
102
RTVSPost2010Prop52
140
1.0
102
RTVSPost2010PropOp52
 70
     0
102
RTVSPost2010Prop53
 90
        2
102
RTVSPost2010PropOp53
 70
     1
102
RTVSPost2010Prop54
  1
strokes_ogs.tif
102
RTVSPost2010PropOp54
 70
     1
102
RTVSPost2010Prop55
280
     0
102
RTVSPost2010PropOp55
 70
     1
102
RTVSPost2010Prop56
140
1.0
102
RTVSPost2010PropOp56
 70
     1
102
RTVSPost2010Prop57
140
1.0
102
RTVSPost2010PropOp57
 70
     1
  0
XRECORD
  5
75F
102
{ACAD_REACTORS
330
75E
102
}
330
75E
100
AcDbXrecord
280
     1
102
RTVSPropertyOp0
 70
     1
102
RTVSPropertyOp1
 70
     1
102
RTVSPropertyOp2
 70
     1
102
RTVSPropertyOp3
 70
     1
102
RTVSPropertyOp4
 70
     1
102
RTVSPropertyOp5
 70
     1
102
RTVSPropertyOp6
 70
     1
102
RTVSPropertyOp7
 70
     1
102
RTVSPropertyOp8
 70
     1
102
RTVSPropertyOp9
 70
     1
102
RTVSPropertyOp10
 70
     1
102
RTVSPropertyOp11
 70
     1
102
RTVSPropertyOp12
 70
     1
102
RTVSPropertyOp13
 70
     1
102
RTVSPropertyOp14
 70
     1
102
RTVSPropertyOp15
 70
     1
102
RTVSPropertyOp16
 70
     1
102
RTVSPropertyOp17
 70
     1
102
RTVSPropertyOp18
 70
     1
102
RTVSPropertyOp19
 70
     1
102
RTVSPropertyOp20
 70
     1
102
RTVSPropertyOp21
 70
     1
102
RTVSPropertyOp22
 70
     1
102
RTVSPropertyOp23
 70
     1
102
RTVSPropertyOp24
 70
     1
102
RTVSPropertyOp25
 70
     1
102
RTVSPropertyOp26
 70
     1
102
RTVSPropertyOp27
 70
     1
102
RTVSPropertyOp28
 70
     1
102
RTVSPropertyOp29
 70
     1
102
RTVSPropertyOp30
 70
     1
102
RTVSPropertyOp31
 70
     1
102
RTVSPropertyOp32
 70
     1
102
RTVSPropertyOp33
 70
     1
102
RTVSPropertyOp34
 70
     1
102
RTVSPropertyOp35
 70
     1
102
RTVSPropertyOp36
 70
     1
102
RTVSPropertyOp37
 70
     1
102
RTVSPropertyOp38
 70
     1
102
RTVSPropertyOp39
 70
     1
102
RTVSPropertyOp40
 70
     1
102
RTVSPropertyOp41
 70
     1
102
RTVSPropertyOp42
 70
     1
102
RTVSPropertyOp43
 70
     1
102
RTVSPropertyOp44
 70
     1
102
RTVSPropertyOp45
 70
     1
102
RTVSPropertyOp46
 70
     1
102
RTVSPropertyOp47
 70
     1
102
RTVSPropertyOp48
 70
     1
102
RTVSPropertyOp49
 70
     1
102
RTVSPropertyOp50
 70
     1
102
RTVSPropertyOp51
 70
     0
102
RTVSPropertyOp52
 70
     0
102
RTVSPropertyOp53
 70
     1
102
RTVSPropertyOp54
 70
     1
102
RTVSPropertyOp55
 70
     1
102
RTVSPropertyOp56
 70
     1
102
RTVSPropertyOp57
 70
     1
102
RTVSPost2010Prop28
280
     0
102
RTVSPost2010PropOp28
 70
     1
102
RTVSPost2010Prop29
280
     1
102
RTVSPost2010PropOp29
 70
     1
102
RTVSPost2010Prop30
280
     1
102
RTVSPost2010PropOp30
 70
     1
102
RTVSPost2010Prop31
280
     0
102
RTVSPost2010PropOp31
 70
     1
102
RTVSPost2010Prop32
280
     0
102
RTVSPost2010PropOp32
 70
     1
102
RTVSPost2010Prop33
280
     0
102
RTVSPost2010PropOp33
 70
     1
102
RTVSPost2010Prop34
280
     0
102
RTVSPost2010PropOp34
 70
     1
102
RTVSPost2010Prop35
280
     0
102
RTVSPost2010PropOp35
 70
     1
102
RTVSPost2010Prop36
280
     0
102
RTVSPost2010PropOp36
 70
     1
102
RTVSPost2010Prop37
 90
       50
102
RTVSPost2010PropOp37
 70
     1
102
RTVSPost2010Prop38
140
0.0
102
RTVSPost2010PropOp38
 70
     1
102
RTVSPost2010Prop39
140
1.0
102
RTVSPost2010PropOp39
 70
     1
102
RTVSPost2010Prop40
 90
        0
102
RTVSPost2010PropOp40
 70
     1
102
RTVSPost2010Prop41ColorIndex
 90
       18
102
RTVSPost2010Prop41ColorRGB
 90
        0
102
RTVSPost2010PropOp41
 70
     1
102
RTVSPost2010Prop42
 90
       50
102
RTVSPost2010PropOp42
 70
     1
102
RTVSPost2010Prop43
 90
        3
102
RTVSPost2010PropOp43
 70
     1
102
RTVSPost2010Prop44ColorIndex
 90
        5
102
RTVSPost2010Prop44ColorRGB
 90
      255
102
RTVSPost2010PropOp44
 70
     1
102
RTVSPost2010Prop45
280
     0
102
RTVSPost2010PropOp45
 70
     1
102
RTVSPost2010Prop46
 90
       50
102
RTVSPost2010PropOp46
 70
     1
102
RTVSPost2010Prop47
 90
       50
102
RTVSPost2010PropOp47
 70
     1
102
RTVSPost2010Prop48
 90
       50
102
RTVSPost2010PropOp48
 70
     1
102
RTVSPost2010Prop49
280
     0
102
RTVSPost2010PropOp49
 70
     1
102
RTVSPost2010Prop50
 90
       50
102
RTVSPost2010PropOp50
 70
     1
102
RTVSPost2010Prop51ColorIndex
 90
      256
102
RTVSPost2010Prop51ColorRGB
 90
-16777216
102
RTVSPost2010PropOp51
 70
     0
102
RTVSPost2010Prop52
140
1.0
102
RTVSPost2010PropOp52
 70
     0
102
RTVSPost2010Prop53
 90
        2
102
RTVSPost2010PropOp53
 70
     1
102
RTVSPost2010Prop54
  1
strokes_ogs.tif
102
RTVSPost2010PropOp54
 70
     1
102
RTVSPost2010Prop55
280
     0
102
RTVSPost2010PropOp55
 70
     1
102
RTVSPost2010Prop56
140
1.0
102
RTVSPost2010PropOp56
 70
     1
102
RTVSPost2010Prop57
140
1.0
102
RTVSPost2010PropOp57
 70
     1
  0
XRECORD
  5
761
102
{ACAD_REACTORS
330
760
102
}
330
760
100
AcDbXrecord
280
     1
102
RTVSPropertyOp0
 70
     1
102
RTVSPropertyOp1
 70
     1
102
RTVSPropertyOp2
 70
     1
102
RTVSPropertyOp3
 70
     1
102
RTVSPropertyOp4
 70
     1
102
RTVSPropertyOp5
 70
     1
102
RTVSPropertyOp6
 70
     1
102
RTVSPropertyOp7
 70
     1
102
RTVSPropertyOp8
 70
     1
102
RTVSPropertyOp9
 70
     1
102
RTVSPropertyOp10
 70
     1
102
RTVSPropertyOp11
 70
     1
102
RTVSPropertyOp12
 70
     1
102
RTVSPropertyOp13
 70
     1
102
RTVSPropertyOp14
 70
     1
102
RTVSPropertyOp15
 70
     1
102
RTVSPropertyOp16
 70
     1
102
RTVSPropertyOp17
 70
     1
102
RTVSPropertyOp18
 70
     1
102
RTVSPropertyOp19
 70
     1
102
RTVSPropertyOp20
 70
     1
102
RTVSPropertyOp21
 70
     1
102
RTVSPropertyOp22
 70
     1
102
RTVSPropertyOp23
 70
     1
102
RTVSPropertyOp24
 70
     1
102
RTVSPropertyOp25
 70
     1
102
RTVSPropertyOp26
 70
     1
102
RTVSPropertyOp27
 70
     1
102
RTVSPropertyOp28
 70
     1
102
RTVSPropertyOp29
 70
     1
102
RTVSPropertyOp30
 70
     1
102
RTVSPropertyOp31
 70
     1
102
RTVSPropertyOp32
 70
     1
102
RTVSPropertyOp33
 70
     1
102
RTVSPropertyOp34
 70
     1
102
RTVSPropertyOp35
 70
     1
102
RTVSPropertyOp36
 70
     1
102
RTVSPropertyOp37
 70
     1
102
RTVSPropertyOp38
 70
     1
102
RTVSPropertyOp39
 70
     1
102
RTVSPropertyOp40
 70
     1
102
RTVSPropertyOp41
 70
     1
102
RTVSPropertyOp42
 70
     1
102
RTVSPropertyOp43
 70
     1
102
RTVSPropertyOp44
 70
     1
102
RTVSPropertyOp45
 70
     1
102
RTVSPropertyOp46
 70
     1
102
RTVSPropertyOp47
 70
     1
102
RTVSPropertyOp48
 70
     1
102
RTVSPropertyOp49
 70
     1
102
RTVSPropertyOp50
 70
     1
102
RTVSPropertyOp51
 70
     0
102
RTVSPropertyOp52
 70
     0
102
RTVSPropertyOp53
 70
     1
102
RTVSPropertyOp54
 70
     1
102
RTVSPropertyOp55
 70
     1
102
RTVSPropertyOp56
 70
     1
102
RTVSPropertyOp57
 70
     1
102
RTVSPost2010Prop28
280
     0
102
RTVSPost2010PropOp28
 70
     1
102
RTVSPost2010Prop29
280
     1
102
RTVSPost2010PropOp29
 70
     1
102
RTVSPost2010Prop30
280
     1
102
RTVSPost2010PropOp30
 70
     1
102
RTVSPost2010Prop31
280
     0
102
RTVSPost2010PropOp31
 70
     1
102
RTVSPost2010Prop32
280
     0
102
RTVSPost2010PropOp32
 70
     1
102
RTVSPost2010Prop33
280
     0
102
RTVSPost2010PropOp33
 70
     1
102
RTVSPost2010Prop34
280
     0
102
RTVSPost2010PropOp34
 70
     1
102
RTVSPost2010Prop35
280
     0
102
RTVSPost2010PropOp35
 70
     1
102
RTVSPost2010Prop36
280
     0
102
RTVSPost2010PropOp36
 70
     1
102
RTVSPost2010Prop37
 90
       50
102
RTVSPost2010PropOp37
 70
     1
102
RTVSPost2010Prop38
140
0.0
102
RTVSPost2010PropOp38
 70
     1
102
RTVSPost2010Prop39
140
1.0
102
RTVSPost2010PropOp39
 70
     1
102
RTVSPost2010Prop40
 90
        0
102
RTVSPost2010PropOp40
 70
     1
102
RTVSPost2010Prop41ColorIndex
 90
       18
102
RTVSPost2010Prop41ColorRGB
 90
        0
102
RTVSPost2010PropOp41
 70
     1
102
RTVSPost2010Prop42
 90
       50
102
RTVSPost2010PropOp42
 70
     1
102
RTVSPost2010Prop43
 90
        3
102
RTVSPost2010PropOp43
 70
     1
102
RTVSPost2010Prop44ColorIndex
 90
        5
102
RTVSPost2010Prop44ColorRGB
 90
      255
102
RTVSPost2010PropOp44
 70
     1
102
RTVSPost2010Prop45
280
     0
102
RTVSPost2010PropOp45
 70
     1
102
RTVSPost2010Prop46
 90
       50
102
RTVSPost2010PropOp46
 70
     1
102
RTVSPost2010Prop47
 90
       50
102
RTVSPost2010PropOp47
 70
     1
102
RTVSPost2010Prop48
 90
       50
102
RTVSPost2010PropOp48
 70
     1
102
RTVSPost2010Prop49
280
     0
102
RTVSPost2010PropOp49
 70
     1
102
RTVSPost2010Prop50
 90
       50
102
RTVSPost2010PropOp50
 70
     1
102
RTVSPost2010Prop51ColorIndex
 90
      256
102
RTVSPost2010Prop51ColorRGB
 90
-16777216
102
RTVSPost2010PropOp51
 70
     0
102
RTVSPost2010Prop52
140
1.0
102
RTVSPost2010PropOp52
 70
     0
102
RTVSPost2010Prop53
 90
        2
102
RTVSPost2010PropOp53
 70
     1
102
RTVSPost2010Prop54
  1
strokes_ogs.tif
102
RTVSPost2010PropOp54
 70
     1
102
RTVSPost2010Prop55
280
     0
102
RTVSPost2010PropOp55
 70
     1
102
RTVSPost2010Prop56
140
1.0
102
RTVSPost2010PropOp56
 70
     1
102
RTVSPost2010Prop57
140
1.0
102
RTVSPost2010PropOp57
 70
     1
  0
XRECORD
  5
751
102
{ACAD_REACTORS
330
750
102
}
330
750
100
AcDbXrecord
280
     1
102
RTVSPropertyOp0
 70
     1
102
RTVSPropertyOp1
 70
     1
102
RTVSPropertyOp2
 70
     1
102
RTVSPropertyOp3
 70
     1
102
RTVSPropertyOp4
 70
     1
102
RTVSPropertyOp5
 70
     1
102
RTVSPropertyOp6
 70
     1
102
RTVSPropertyOp7
 70
     1
102
RTVSPropertyOp8
 70
     1
102
RTVSPropertyOp9
 70
     1
102
RTVSPropertyOp10
 70
     1
102
RTVSPropertyOp11
 70
     1
102
RTVSPropertyOp12
 70
     1
102
RTVSPropertyOp13
 70
     1
102
RTVSPropertyOp14
 70
     1
102
RTVSPropertyOp15
 70
     1
102
RTVSPropertyOp16
 70
     1
102
RTVSPropertyOp17
 70
     1
102
RTVSPropertyOp18
 70
     1
102
RTVSPropertyOp19
 70
     1
102
RTVSPropertyOp20
 70
     1
102
RTVSPropertyOp21
 70
     1
102
RTVSPropertyOp22
 70
     1
102
RTVSPropertyOp23
 70
     1
102
RTVSPropertyOp24
 70
     1
102
RTVSPropertyOp25
 70
     1
102
RTVSPropertyOp26
 70
     1
102
RTVSPropertyOp27
 70
     1
102
RTVSPropertyOp28
 70
     1
102
RTVSPropertyOp29
 70
     1
102
RTVSPropertyOp30
 70
     1
102
RTVSPropertyOp31
 70
     1
102
RTVSPropertyOp32
 70
     1
102
RTVSPropertyOp33
 70
     1
102
RTVSPropertyOp34
 70
     1
102
RTVSPropertyOp35
 70
     1
102
RTVSPropertyOp36
 70
     1
102
RTVSPropertyOp37
 70
     1
102
RTVSPropertyOp38
 70
     1
102
RTVSPropertyOp39
 70
     1
102
RTVSPropertyOp40
 70
     1
102
RTVSPropertyOp41
 70
     1
102
RTVSPropertyOp42
 70
     1
102
RTVSPropertyOp43
 70
     1
102
RTVSPropertyOp44
 70
     1
102
RTVSPropertyOp45
 70
     1
102
RTVSPropertyOp46
 70
     1
102
RTVSPropertyOp47
 70
     1
102
RTVSPropertyOp48
 70
     1
102
RTVSPropertyOp49
 70
     1
102
RTVSPropertyOp50
 70
     1
102
RTVSPropertyOp51
 70
     0
102
RTVSPropertyOp52
 70
     0
102
RTVSPropertyOp53
 70
     1
102
RTVSPropertyOp54
 70
     1
102
RTVSPropertyOp55
 70
     1
102
RTVSPropertyOp56
 70
     1
102
RTVSPropertyOp57
 70
     1
102
RTVSPost2010Prop28
280
     0
102
RTVSPost2010PropOp28
 70
     1
102
RTVSPost2010Prop29
280
     1
102
RTVSPost2010PropOp29
 70
     1
102
RTVSPost2010Prop30
280
     1
102
RTVSPost2010PropOp30
 70
     1
102
RTVSPost2010Prop31
280
     0
102
RTVSPost2010PropOp31
 70
     1
102
RTVSPost2010Prop32
280
     0
102
RTVSPost2010PropOp32
 70
     1
102
RTVSPost2010Prop33
280
     0
102
RTVSPost2010PropOp33
 70
     1
102
RTVSPost2010Prop34
280
     0
102
RTVSPost2010PropOp34
 70
     1
102
RTVSPost2010Prop35
280
     0
102
RTVSPost2010PropOp35
 70
     1
102
RTVSPost2010Prop36
280
     0
102
RTVSPost2010PropOp36
 70
     1
102
RTVSPost2010Prop37
 90
       50
102
RTVSPost2010PropOp37
 70
     1
102
RTVSPost2010Prop38
140
0.0
102
RTVSPost2010PropOp38
 70
     1
102
RTVSPost2010Prop39
140
1.0
102
RTVSPost2010PropOp39
 70
     1
102
RTVSPost2010Prop40
 90
        0
102
RTVSPost2010PropOp40
 70
     1
102
RTVSPost2010Prop41ColorIndex
 90
       18
102
RTVSPost2010Prop41ColorRGB
 90
        0
102
RTVSPost2010PropOp41
 70
     1
102
RTVSPost2010Prop42
 90
       50
102
RTVSPost2010PropOp42
 70
     1
102
RTVSPost2010Prop43
 90
        3
102
RTVSPost2010PropOp43
 70
     1
102
RTVSPost2010Prop44ColorIndex
 90
        5
102
RTVSPost2010Prop44ColorRGB
 90
      255
102
RTVSPost2010PropOp44
 70
     1
102
RTVSPost2010Prop45
280
     0
102
RTVSPost2010PropOp45
 70
     1
102
RTVSPost2010Prop46
 90
       50
102
RTVSPost2010PropOp46
 70
     1
102
RTVSPost2010Prop47
 90
       50
102
RTVSPost2010PropOp47
 70
     1
102
RTVSPost2010Prop48
 90
       50
102
RTVSPost2010PropOp48
 70
     1
102
RTVSPost2010Prop49
280
     0
102
RTVSPost2010PropOp49
 70
     1
102
RTVSPost2010Prop50
 90
       50
102
RTVSPost2010PropOp50
 70
     1
102
RTVSPost2010Prop51ColorIndex
 90
      256
102
RTVSPost2010Prop51ColorRGB
 90
-16777216
102
RTVSPost2010PropOp51
 70
     0
102
RTVSPost2010Prop52
140
1.0
102
RTVSPost2010PropOp52
 70
     0
102
RTVSPost2010Prop53
 90
        2
102
RTVSPost2010PropOp53
 70
     1
102
RTVSPost2010Prop54
  1
strokes_ogs.tif
102
RTVSPost2010PropOp54
 70
     1
102
RTVSPost2010Prop55
280
     0
102
RTVSPost2010PropOp55
 70
     1
102
RTVSPost2010Prop56
140
1.0
102
RTVSPost2010PropOp56
 70
     1
102
RTVSPost2010Prop57
140
1.0
102
RTVSPost2010PropOp57
 70
     1
  0
XRECORD
  5
743
102
{ACAD_REACTORS
330
742
102
}
330
742
100
AcDbXrecord
280
     1
102
RTVSPropertyOp0
 70
     1
102
RTVSPropertyOp1
 70
     1
102
RTVSPropertyOp2
 70
     1
102
RTVSPropertyOp3
 70
     1
102
RTVSPropertyOp4
 70
     1
102
RTVSPropertyOp5
 70
     1
102
RTVSPropertyOp6
 70
     1
102
RTVSPropertyOp7
 70
     1
102
RTVSPropertyOp8
 70
     1
102
RTVSPropertyOp9
 70
     1
102
RTVSPropertyOp10
 70
     1
102
RTVSPropertyOp11
 70
     1
102
RTVSPropertyOp12
 70
     1
102
RTVSPropertyOp13
 70
     1
102
RTVSPropertyOp14
 70
     1
102
RTVSPropertyOp15
 70
     1
102
RTVSPropertyOp16
 70
     1
102
RTVSPropertyOp17
 70
     1
102
RTVSPropertyOp18
 70
     1
102
RTVSPropertyOp19
 70
     1
102
RTVSPropertyOp20
 70
     1
102
RTVSPropertyOp21
 70
     1
102
RTVSPropertyOp22
 70
     1
102
RTVSPropertyOp23
 70
     1
102
RTVSPropertyOp24
 70
     1
102
RTVSPropertyOp25
 70
     1
102
RTVSPropertyOp26
 70
     1
102
RTVSPropertyOp27
 70
     1
102
RTVSPropertyOp28
 70
     1
102
RTVSPropertyOp29
 70
     1
102
RTVSPropertyOp30
 70
     1
102
RTVSPropertyOp31
 70
     1
102
RTVSPropertyOp32
 70
     1
102
RTVSPropertyOp33
 70
     1
102
RTVSPropertyOp34
 70
     1
102
RTVSPropertyOp35
 70
     1
102
RTVSPropertyOp36
 70
     1
102
RTVSPropertyOp37
 70
     1
102
RTVSPropertyOp38
 70
     1
102
RTVSPropertyOp39
 70
     1
102
RTVSPropertyOp40
 70
     1
102
RTVSPropertyOp41
 70
     1
102
RTVSPropertyOp42
 70
     1
102
RTVSPropertyOp43
 70
     1
102
RTVSPropertyOp44
 70
     1
102
RTVSPropertyOp45
 70
     1
102
RTVSPropertyOp46
 70
     1
102
RTVSPropertyOp47
 70
     1
102
RTVSPropertyOp48
 70
     1
102
RTVSPropertyOp49
 70
     1
102
RTVSPropertyOp50
 70
     1
102
RTVSPropertyOp51
 70
     0
102
RTVSPropertyOp52
 70
     0
102
RTVSPropertyOp53
 70
     1
102
RTVSPropertyOp54
 70
     1
102
RTVSPropertyOp55
 70
     1
102
RTVSPropertyOp56
 70
     1
102
RTVSPropertyOp57
 70
     1
102
RTVSPost2010Prop28
280
     0
102
RTVSPost2010PropOp28
 70
     1
102
RTVSPost2010Prop29
280
     1
102
RTVSPost2010PropOp29
 70
     1
102
RTVSPost2010Prop30
280
     1
102
RTVSPost2010PropOp30
 70
     1
102
RTVSPost2010Prop31
280
     0
102
RTVSPost2010PropOp31
 70
     1
102
RTVSPost2010Prop32
280
     0
102
RTVSPost2010PropOp32
 70
     1
102
RTVSPost2010Prop33
280
     0
102
RTVSPost2010PropOp33
 70
     1
102
RTVSPost2010Prop34
280
     0
102
RTVSPost2010PropOp34
 70
     1
102
RTVSPost2010Prop35
280
     0
102
RTVSPost2010PropOp35
 70
     1
102
RTVSPost2010Prop36
280
     0
102
RTVSPost2010PropOp36
 70
     1
102
RTVSPost2010Prop37
 90
       50
102
RTVSPost2010PropOp37
 70
     1
102
RTVSPost2010Prop38
140
0.0
102
RTVSPost2010PropOp38
 70
     1
102
RTVSPost2010Prop39
140
1.0
102
RTVSPost2010PropOp39
 70
     1
102
RTVSPost2010Prop40
 90
        0
102
RTVSPost2010PropOp40
 70
     1
102
RTVSPost2010Prop41ColorIndex
 90
       18
102
RTVSPost2010Prop41ColorRGB
 90
        0
102
RTVSPost2010PropOp41
 70
     1
102
RTVSPost2010Prop42
 90
       50
102
RTVSPost2010PropOp42
 70
     1
102
RTVSPost2010Prop43
 90
        3
102
RTVSPost2010PropOp43
 70
     1
102
RTVSPost2010Prop44ColorIndex
 90
        5
102
RTVSPost2010Prop44ColorRGB
 90
      255
102
RTVSPost2010PropOp44
 70
     1
102
RTVSPost2010Prop45
280
     0
102
RTVSPost2010PropOp45
 70
     1
102
RTVSPost2010Prop46
 90
       50
102
RTVSPost2010PropOp46
 70
     1
102
RTVSPost2010Prop47
 90
       50
102
RTVSPost2010PropOp47
 70
     1
102
RTVSPost2010Prop48
 90
       50
102
RTVSPost2010PropOp48
 70
     1
102
RTVSPost2010Prop49
280
     0
102
RTVSPost2010PropOp49
 70
     1
102
RTVSPost2010Prop50
 90
       50
102
RTVSPost2010PropOp50
 70
     1
102
RTVSPost2010Prop51ColorIndex
 90
      256
102
RTVSPost2010Prop51ColorRGB
 90
-16777216
102
RTVSPost2010PropOp51
 70
     0
102
RTVSPost2010Prop52
140
1.0
102
RTVSPost2010PropOp52
 70
     0
102
RTVSPost2010Prop53
 90
        2
102
RTVSPost2010PropOp53
 70
     1
102
RTVSPost2010Prop54
  1
strokes_ogs.tif
102
RTVSPost2010PropOp54
 70
     1
102
RTVSPost2010Prop55
280
     0
102
RTVSPost2010PropOp55
 70
     1
102
RTVSPost2010Prop56
140
1.0
102
RTVSPost2010PropOp56
 70
     1
102
RTVSPost2010Prop57
140
1.0
102
RTVSPost2010PropOp57
 70
     1
  0
XRECORD
  5
763
102
{ACAD_REACTORS
330
762
102
}
330
762
100
AcDbXrecord
280
     1
102
RTVSPropertyOp0
 70
     1
102
RTVSPropertyOp1
 70
     1
102
RTVSPropertyOp2
 70
     1
102
RTVSPropertyOp3
 70
     1
102
RTVSPropertyOp4
 70
     1
102
RTVSPropertyOp5
 70
     1
102
RTVSPropertyOp6
 70
     1
102
RTVSPropertyOp7
 70
     1
102
RTVSPropertyOp8
 70
     1
102
RTVSPropertyOp9
 70
     1
102
RTVSPropertyOp10
 70
     1
102
RTVSPropertyOp11
 70
     1
102
RTVSPropertyOp12
 70
     1
102
RTVSPropertyOp13
 70
     1
102
RTVSPropertyOp14
 70
     1
102
RTVSPropertyOp15
 70
     1
102
RTVSPropertyOp16
 70
     1
102
RTVSPropertyOp17
 70
     1
102
RTVSPropertyOp18
 70
     1
102
RTVSPropertyOp19
 70
     1
102
RTVSPropertyOp20
 70
     1
102
RTVSPropertyOp21
 70
     1
102
RTVSPropertyOp22
 70
     1
102
RTVSPropertyOp23
 70
     1
102
RTVSPropertyOp24
 70
     1
102
RTVSPropertyOp25
 70
     1
102
RTVSPropertyOp26
 70
     1
102
RTVSPropertyOp27
 70
     1
102
RTVSPropertyOp28
 70
     1
102
RTVSPropertyOp29
 70
     1
102
RTVSPropertyOp30
 70
     1
102
RTVSPropertyOp31
 70
     1
102
RTVSPropertyOp32
 70
     1
102
RTVSPropertyOp33
 70
     1
102
RTVSPropertyOp34
 70
     1
102
RTVSPropertyOp35
 70
     1
102
RTVSPropertyOp36
 70
     1
102
RTVSPropertyOp37
 70
     1
102
RTVSPropertyOp38
 70
     1
102
RTVSPropertyOp39
 70
     1
102
RTVSPropertyOp40
 70
     1
102
RTVSPropertyOp41
 70
     1
102
RTVSPropertyOp42
 70
     1
102
RTVSPropertyOp43
 70
     1
102
RTVSPropertyOp44
 70
     1
102
RTVSPropertyOp45
 70
     1
102
RTVSPropertyOp46
 70
     1
102
RTVSPropertyOp47
 70
     1
102
RTVSPropertyOp48
 70
     1
102
RTVSPropertyOp49
 70
     1
102
RTVSPropertyOp50
 70
     1
102
RTVSPropertyOp51
 70
     0
102
RTVSPropertyOp52
 70
     0
102
RTVSPropertyOp53
 70
     1
102
RTVSPropertyOp54
 70
     1
102
RTVSPropertyOp55
 70
     1
102
RTVSPropertyOp56
 70
     1
102
RTVSPropertyOp57
 70
     1
102
RTVSPost2010Prop28
280
     0
102
RTVSPost2010PropOp28
 70
     1
102
RTVSPost2010Prop29
280
     1
102
RTVSPost2010PropOp29
 70
     1
102
RTVSPost2010Prop30
280
     1
102
RTVSPost2010PropOp30
 70
     1
102
RTVSPost2010Prop31
280
     0
102
RTVSPost2010PropOp31
 70
     1
102
RTVSPost2010Prop32
280
     0
102
RTVSPost2010PropOp32
 70
     1
102
RTVSPost2010Prop33
280
     0
102
RTVSPost2010PropOp33
 70
     1
102
RTVSPost2010Prop34
280
     0
102
RTVSPost2010PropOp34
 70
     1
102
RTVSPost2010Prop35
280
     0
102
RTVSPost2010PropOp35
 70
     1
102
RTVSPost2010Prop36
280
     0
102
RTVSPost2010PropOp36
 70
     1
102
RTVSPost2010Prop37
 90
       50
102
RTVSPost2010PropOp37
 70
     1
102
RTVSPost2010Prop38
140
0.0
102
RTVSPost2010PropOp38
 70
     1
102
RTVSPost2010Prop39
140
1.0
102
RTVSPost2010PropOp39
 70
     1
102
RTVSPost2010Prop40
 90
        0
102
RTVSPost2010PropOp40
 70
     1
102
RTVSPost2010Prop41ColorIndex
 90
       18
102
RTVSPost2010Prop41ColorRGB
 90
        0
102
RTVSPost2010PropOp41
 70
     1
102
RTVSPost2010Prop42
 90
       50
102
RTVSPost2010PropOp42
 70
     1
102
RTVSPost2010Prop43
 90
        3
102
RTVSPost2010PropOp43
 70
     1
102
RTVSPost2010Prop44ColorIndex
 90
        5
102
RTVSPost2010Prop44ColorRGB
 90
      255
102
RTVSPost2010PropOp44
 70
     1
102
RTVSPost2010Prop45
280
     0
102
RTVSPost2010PropOp45
 70
     1
102
RTVSPost2010Prop46
 90
       50
102
RTVSPost2010PropOp46
 70
     1
102
RTVSPost2010Prop47
 90
       50
102
RTVSPost2010PropOp47
 70
     1
102
RTVSPost2010Prop48
 90
       50
102
RTVSPost2010PropOp48
 70
     1
102
RTVSPost2010Prop49
280
     0
102
RTVSPost2010PropOp49
 70
     1
102
RTVSPost2010Prop50
 90
       50
102
RTVSPost2010PropOp50
 70
     1
102
RTVSPost2010Prop51ColorIndex
 90
      256
102
RTVSPost2010Prop51ColorRGB
 90
-16777216
102
RTVSPost2010PropOp51
 70
     0
102
RTVSPost2010Prop52
140
1.0
102
RTVSPost2010PropOp52
 70
     0
102
RTVSPost2010Prop53
 90
        2
102
RTVSPost2010PropOp53
 70
     1
102
RTVSPost2010Prop54
  1
strokes_ogs.tif
102
RTVSPost2010PropOp54
 70
     1
102
RTVSPost2010Prop55
280
     0
102
RTVSPost2010PropOp55
 70
     1
102
RTVSPost2010Prop56
140
1.0
102
RTVSPost2010PropOp56
 70
     1
102
RTVSPost2010Prop57
140
1.0
102
RTVSPost2010PropOp57
 70
     1
  0
ENDSEC
  0
SECTION
  2
THUMBNAILIMAGE
 90
    16364
310
28000000B4000000550000000100080000000000C43B000000000000000000000001000000010000FFFFFF000000FF0000FFFF0000FF0000FFFF0000FF000000FF00FF000000000080808000C0C0C0000000FF007F7FFF000000A5005252A50000007F003F3F7F0000004C0026264C000000260013132600003FFF007F9FFF
310
000029A5005267A500001F7F003F4F7F0000134C00262F4C000009260013172600007FFF007FBFFF000052A500527CA500003F7F003F5F7F0000264C0026394C0000132600131C260000BFFF007FDFFF00007CA5005291A500005F7F003F6F7F0000394C0026424C00001C26001321260000FFFF007FFFFF0000A5A50052A5
310
A500007F7F003F7F7F00004C4C00264C4C00002626001326260000FFBF007FFFDF0000A57C0052A59100007F5F003F7F6F00004C3900264C420000261C001326210000FF7F007FFFBF0000A5520052A57C00007F3F003F7F5F00004C2600264C39000026130013261C0000FF3F007FFF9F0000A5290052A56700007F1F003F
310
7F4F00004C1300264C2F00002609001326170000FF00007FFF7F0000A5000052A55200007F00003F7F3F00004C0000264C260000260000132613003FFF00009FFF7F0029A5000067A552001F7F00004F7F3F00134C00002F4C260009260000172613007FFF0000BFFF7F0052A500007CA552003F7F00005F7F3F00264C0000
310
394C2600132600001C261300BFFF0000DFFF7F007CA5000091A552005F7F00006F7F3F00394C0000424C26001C26000021261300FFFF0000FFFF7F00A5A50000A5A552007F7F00007F7F3F004C4C00004C4C26002626000026261300FFBF0000FFDF7F00A57C0000A59152007F5F00007F6F3F004C3900004C422600261C00
310
0026211300FF7F0000FFBF7F00A5520000A57C52007F3F00007F5F3F004C2600004C39260026130000261C1300FF3F0000FF9F7F00A5290000A56752007F1F00007F4F3F004C1300004C2F26002609000026171300FF000000FF7F7F00A5000000A55252007F0000007F3F3F004C0000004C2626002600000026131300FF00
310
3F00FF7F9F00A5002900A55267007F001F007F3F4F004C0013004C262F002600090026131700FF007F00FF7FBF00A5005200A5527C007F003F007F3F5F004C0026004C2639002600130026131C00FF00BF00FF7FDF00A5007C00A55291007F005F007F3F6F004C0039004C26420026001C0026132100FF00FF00FF7FFF00A5
310
00A500A552A5007F007F007F3F7F004C004C004C264C002600260026132600BF00FF00DF7FFF007C00A5009152A5005F007F006F3F7F0039004C0042264C001C002600211326007F00FF00BF7FFF005200A5007C52A5003F007F005F3F7F0026004C0039264C00130026001C1326003F00FF009F7FFF002900A5006752A500
310
1F007F004F3F7F0013004C002F264C000900260017132600000000002D2D2D005B5B5B0089898900B7B7B700B3B3B30000000000000000000000000000000000000000000000000000000000000000000000000000000000000000000000000000000000000000000000000000000000000000000000000000000000000000
310
00000000000000000000000000000000000000000000000000000000000000000000000000000000000000000000000000000000000000000000000000000000000000000000000000000000000000000000000000000000000000000000000000000000000000000000000000000000000000000000000000000000000000
310
00000000000000000000000000000000000000000000000000000000000000000000000000000000000000000000000000000000000000000000000000000000000000000000000000000000000000000000000000000000000000000000000000000000000000000000000000000000000000000000000000000000000000
310
00000000000000000000000000000000000000000000000000000000000000000000000000000000000000000000000000000000000000000000000000000000000000000000000000000000000000000000000000000000000000000000000000000000000000000000000000000000000000000000000000000000000000
310
00000000000000000000000000000000000000000000000000000000000000000000000000000000000000000000000000000000000000000000000000000000000000000000000000000000000000000000000000000000000000000000000000000000000000000000000000000000000000000000000000000000000000
310
00000000000000000000000000000000000000000000000000000000000000000000000000000000000000000000000000000000000000000000000000000000000000000000000000000000000000000000000000000000000000000000000000000000000000000000000000000000000000000000000000000000000000
310
00000000000000000000000000000000000000000000000000000000000000000000000000000000000000000000000000000000000000000000000000000000000000000000000000000000000000000000000000000000000000000000000000000000000000000000000000000000000000000000000000000000000000
310
00000000000000000000000000000000000000000000000000000000000000000000000000000000000000000000000000000000000000000000000000000000000000000000000000000000000000000000000000000000000000000000000000000000000000000000000000000000000000000000000000000000000000
310
00000000000000000000000000000000000000000000000000000000000000000000000000000000000000000000000000000000000000000000000000000000000000000000000000000000000000000000000000000000000000000000000000000000000000000000000000000000000000000000000000000000000000
310
00000000000000000000000000000000000000000000000000000000000000000000000000000000000000000000000000000000000000000000000000000000000000000000000000000000000000000000000000000000000000000000000000000000000000000000000000000000000000000000000000000000000000
310
00000000000000000000000000000000000000000000000000000000000000000000000000000000000000000000000000000000000000000000000000000000000000000000000000000000000000000000000000000000000000000000000000000000000000000000000000000000000000000000000000000000000000
310
00000000000000000000000000000000000000000000000000000000000000000000000000000000000000000000000000000000000000000000000000000000000000000000000000000000000000000000000000000000000000000000000000000000000000000000000000000000000000000000000000000000000000
310
00000000000000000000000000000000000000000000000000000000000000000000000000000000000000000000000000000000000000000000000000000000000000000000000000000000000000000000000000000000000000000000000000000000000000000000000000000000000000000000000000000000000000
310
00000000000000000000000000000000000000000000000000000000000000000000000000000000000000000000000000000000000000000000000000000000000000000000000000000000000000000000000000000000000000000000000000000000000000000000000000000000000000000000000000000000000000
310
00000000000000000000000000000000000000000000000000000000000000000000000000000000000000000000000000000000000000000000000000000000000000000000000000000000000000000000000000000000000000000000000000000000000000000000000000000000000000000000000000000000000000
310
00000000000000000000000000000000000000000000000000000000000000000000000000000000000000000000000000000000000000000000000000000000000000000000000000000000000000000000000000000000000000000000000000000000000000000000000000000000000000000000000000000000000000
310
00000000000000000000000000000000000000000000000000000000000000000000000000000000000000000000000000000000000000000000000000000000000000000000000000000000000000000000000000000000000000000000000000000000000000000000000000000000000000000000000000000000000000
310
00000000000000000000000000000000000000000000000000000000000000000000000000000000000000000000000000000000000000000000000000000000000000000000000000000000000000000000000000000000000000000000000000000000000000000000000000000000000000000000000000000000000000
310
00000000000000000000000000000000000000000000000000000000000000000000000000000000000000000000000000000000000000000000000000000000000000000000000000000000000000000000000000000000000000000000000000000000000000000000000000000000000000000000000000000000000000
310
00000000000000000000000000000000000000000000000000000000000000000000000000000000000000000000000000000000000000000000000000000000000000000000000000000000000000000000000000000000000000000000000000000000000000000000000000000000000000000000000000000000000000
310
00000000000000000000000000000000000000000000000000000000000000000000000000000000000000000000000000000000000000000000000000000000000000000000000000000000000000000000000000000000000000000000000000000000000000000000000000000000000000000000000000000000000000
310
00000000000000000000000000000000000000000000000000000000000000000000000000000000000000000000000000000000000000000000000000000000000000000000000000000000000000000000000000000000000000000000000000000000000000000000000000000000000000000000000000000000000000
310
00000000000000000000000000000000000000000000000000000000000000000000000000000000000000000000000000000000000000000000000000000000000000000000000000000000000000000000000000000000000000000000000000000000000000000000000000000000000000000000000000000000000000
310
00000000000000000000000000000000000000000000000000000000000000000000000000000000000000000000000000000000000000000000000000000000000000000000000000000000000000000000000000000000000000000000000000000000000000000000000000000000000000000000000000000000000000
310
00000000000000000000000000000000000000000000000000000000000000000000000000000000000000000000000000000000000000000000000000000000000000000000000000000000000000000000000000000000000000000000000000000000000000000000000000000000000000000000000000000000000000
310
00000000000000000000000000000000000000000000000000000000000000000000000000000000000000000000000000000000000000000000000000000000000000000000000000000000000000000000000000000000000000000000000000000000000000000000000000000000000000000000000000000000000000
310
00000000000000000000000000000000000000000000000000000000000000000000000000000000000000000000000000000000000000000000000000000000000000000000000000000000000000000000000000000000000000000000000000000000000000000000000000000000000000000000000000000000000000
310
00000000000000000000000000000000000000000000000000000000000000000000000000000000000000000000000000000000000000000000000000000000000000000000000000000001000000000000000000000000000001000000000000000000020202020000000000000000000001000000000100000001000000
310
00000000000000000000000000000000000000000000000000000000000000000000000000000000000000000000000000000000000000000000000000000000000000000000000000000000000000000000000000000000000000000000000000000000000000000000000000000000000000000000000000000000000003
310
03010303030303030303030303030303010303030000000000000202020200000000000000000003010303030303030303030303000000000000000000000000000000000000000000000000000000000000000000000000000000000000000000000000000000000000000000000000000000000000000000000000000000
310
00000000000000000000000000000000000000000000000000000000000000000000000000000000000000000000000000000000030301030303030303040403030303030301030303000000000000000000000000000000000000000301030303030303030303030300000000000000000000000000000000000000000000
310
00000000000000000000000000000000000000000000000000000000000000000000000000000000000000000000000000000000000000000000000000000000000000000000000000000000000000000000000000000000000000000000000000000000000000000303030303030303030000010003030003030303030300
310
00000000000000000000000000000000000000010303030303030003010000000000000000000000000000000000000000000000000000000000000000000000000000000000000000000000000000000000000000000000000000000000000000000000000000000000000000000000000000000000000000000000000000
310
00000000000000000000000000000000000000000000000000000000000001010000030303000000000100000003030300000101010303000000000000000000000000000000000000030303030303000303000000000000000000000000000000000000000000000000000000000000000000000000000000000000000000
310
00000000000000000000000000000000000000000000000000000000000000000000000000000000000000000000000000000000000000000000000000000000000000000000000000000000000000000000000303010101010101010101010101010101010101030301010301000000000000000000000000000000000003
310
03030301030003030000000000000000000000000000000000000000000000000000000000000000000000000000000000000000000000000000000000000000000000000000000000000000000000000000000000000000000000000000000000000000000000000000000000000000000000000000000000000000000000
310
00000000000000000003030300030000030303030303030300000300030003030303000000000000000000000000000000000001030303030303000303000000000000000000000000000000000000000000000000000000000000000000000000000000000000000000000000000000000000000000000000000000000000
310
00000000000000000000000000000000000000000000000000000000000000000000000000000000000000000000000000000000000000000000000000000101030303030303010000030000000303030303010301000000000000000000000000000000000000000303030303030300030300000000000000000000000000
310
00000000000000000000000000000000000000000000000000000000000000000000000000000000000000000000000000000000000000000000000000000000000000000000000000000000000000000000000000000000000000000000000000000000000000000000000000000000000000000303030003030303030301
310
00000100000003000303000000000000000000000000000000000000000003010301000100000103030000000000000000000000000000000000000000000000000000000000000000000000000000000000000000000000000000000000000000000000000000000000000000000000000000000000000000000000000000
310
00000000000000000000000000000000000000000000000000000000000000000000000000000000000003030003030103030003010001030103000003030300000000000000000000000000000003030303030301030000010000010303030303030000000000000000000000000000000000000000000000000000000000
310
00000000000000000000000000000000000000000000000000000000000000000000000000000000000000000000000000000000000000000000000000000000000000000000000000000000000000000000000000000000000000000000000303000303030303030303030303030301000303030000000000000000000000
310
00000000030000000003010300000100000103030000000300000000000000000000000000000000000000000000000000000000000000000000000000000000000000000000000000000000000000000000000000000000000000000000000000000000000000000000000000000000000000000000000000000000000000
310
00000000000000000000000000000000000000000103010101010303010301010103010101030101010300000000000000000000000000000003010101010304030101010101010303010101030000000000000000000000000000000000000000000000000000000000000000000000000000000000000000000000000000
310
00000000000000000000000000000000000000000000000000000000000000000000000000000000000000000000000000000000000000000000000000000000000000000000000000000303000303030303030303030301030303000303030000000000000000000000000000000303030303030103000001000001030303
310
03030300000000000000000000000000000000000000000000000000000000000000000000000000000000000000000000000000000000000000000000000000000000000000000000000000000000000000000000000000000000000000000000000000000000000000000000000000000000000000000000000000000000
310
03030000030103030103010301030103010003030000000000000000000000000000000000000000000301030000010000010303000000000000000000000000000000000000000000000000000000000000000000000000000000000000000000000000000000000000000000000000000000000000000000000000000000
310
00000000000000000000000000000000000000000000000000000000000000000000000000000000000000000000000000000000000300030300030303030301000303030000030003000000000000000000000000000000000000000000030103000001000001030300000000000000000000000000000000000000000000
310
00000000000000000000000000000000000000000000000000000000000000000000000000000000000000000000000000000000000000000000000000000000000000000000000000000000000000000000000000000000000000000000000000000000000000000000030303000303030103030303030303030303030300
310
00000000000000000000000000000000000000000003030000010000030300000000000000000000000000000000000000000000000000000000000000000000000000000000000000000000000000000000000000000000000000000000000000000000000000000000000000000000000000000000000000000000000000
310
00000000000000000000000000000000000000000000000000000000000000000303000300000000000001000000000003000303000000000000000000000000000000000000000000000303000001000003030000000000000000000000000000000000000000000000000000000000000000000000000000000000000000
310
00000000000000000000000000000000000000000000000000000000000000000000000000000000000000000000000000000000000000000000000000000000000000000000000000000000000000000000000000030003030300000003030303000000000303000300000000000000000000000000000000000000000000
310
03030000010000030300000000000000000000000000000000000000000000000000000000000000000000000000000000000000000000000000000000000000000000000000000000000000000000000000000000000000000000000000000000000000000000000000000000000000000000000000000000000000000000
310
00000000000000000000000300000303030000030303030000030303000003000000000000000000000000000000000000000000000303000001000003030000000000000000000000000000000000000000000000000000000000000000000000000000000000000000000000000000000000000000000000000000000000
310
00000000000000000000000000000000000000000000000000000000000000000000000000000000000000000000000000000000000000000000000000000000000300000303030303030103030303030000000300000000000000000000000000000000000000000000030300000100000303000000000000000000000000
310
00000000000000000000000000000000000000000000000000000000000000000000000000000000000000000000000000000000000000000000000000000000000000000000000000000000000000000000000000000000000000000000000000000000000000000000000000000000000000000000030303030303030303
310
01030303030303030300000000000000000000000000000000000000000000000303000001000003030000000000000000000000000000000000000000000000000000000000000000000000000000000000000000000000000000000000000000000000000000000000000000000000000000000000000000000000000000
310
00000000000000000000000000000000000000000000000000000000000000000000000000000000000000000000030300000303030303030000000000000000000000000000000000000000000000000000000000030303030303030303000000000000000000000000000000000000000000000000000000000000000000
310
00000000000000000000000000000000000000000000000000000000000000000000000000000000000000000000000000000000000000000000000000000000000000000000000000000000000000000000000000000000000000000000000000000000000000000001010000000000000000000000000000000000000000
310
00000000000000000000000000010303010000000000000000000000000000000000000000000000000000000000000000000000000000000000000000000000000000000000000000000000000000000000000000000000000000000000000000000000000000000000000000000000000000000000000000000000000000
310
00000000000000000000000000000000000000000000000000000000000000030300000000000000000000000000000000000000000000000000000000000000000000030300000000000000000000000000000000000000000000000000000000000000000000000000000000000000000000000000000000000000000000
310
00000000000000000000000000000000000000000000000000000000000000000000000000000000000000000000000000000000000000000000000000000000000000000000000000000000000000000000000000000000000000000000000000000000000000000000000000000000000000000000000000000000000000
310
00000000000000000000000000000000000000000000000000000000000000000000000000000000000000000000000000000000000000000000000000000000000000000000000000000000000000000000000000000000000000000000000000000000000000000000000000000000000000000000000000000000000000
310
00000000000000000000000000000000000000000000000000000000000000000000000000000000000000000000000000000000000000000000000000000000000000000000000000000000000000000000000000000000000000000000000000000000000000000000000000000000000000000000000000000000000000
310
00000000000000000000000000000000000000000000000000000000000000000000000000000000000000000000000000000000000000000000000000000000000000000000000000000000000000000000000000000000000000000000000000000000000000000000000000000000000000000000000000000000000000
310
00000000000000000000000000000000000000000000000000000000000000000000000000000000000000000000000000000000000000000000000000000000000000000000000000000000000000000000000000000000000000000000000000000000000000000000000000000000000000000000000000000000000000
310
00000000000000000000000000000000000000000000000000000000000000000000000000000000000000000000000000000000000000000000000000000000000000000000000000000000000000000000000000000000000000000000000000000000000000000000000000000000000000000000000000000000000000
310
00000000000000000000000000000000000000000000000000000000000000000000000000000000000000000000000000000000000000000000000000000000000000000000000000000000000000000000000000000000000000000000000000000000000000000000000000000000000000000000000000000000000000
310
00000000000000000000000000000000000000000000000000000000000000000000000000000000000000000000000000000000000000000000000000000000000000000000000000000000000000000000000000000000000000000000000000000000000000000000000000000000000000000000000000000000000000
310
00000000000000000000000000000000000000000000000000000000000000000000000000000000000000000000000000000000000000000000000000000000000000000000000000000000000000000000000000000000000000000000000000000000000000000000000000000000000000000000000000000000000000
310
00000000000000000000000000000000000000000000000000000000000000000000000000000000000000000000000000000000000000000000000000000000000000000000000000000000000000000000000000000000000000000000000000000000000000000000000000000000000000000000000000000000000000
310
00000000000000000000000000000000000000000000000000000000000000000000000000000000000000000000000000000000000000000000000000000000000000000000000000000000000000000000000000000000000000000000000000000000000000000000000000000000000000000000000000000000000000
310
00000000000000000000000000000000000000000000000000000000000000000000000000000000000000000000000000000000000000000000000000000000000000000000000000000000000000000000000000000000000000000000000000000000000000000000000000000000000000000000000000000000000000
310
00000000000000000000000000000000000000000000000000000000000000000000000000000000000000000000000000000000000000000000000000000000000000000000000000000000000000000000000000000000000000000000000000000000000000000000000000000000000000000000000000000000000000
310
00000000000000000000000000000000000000000000000000000000000000000000000000000000000000000000000000000001000000000000000000000000000000000000000000000000000000000000000000000000000000000000000000000000000000000000000000000000000000000000000000000000000000
310
00000000000000000000000000000000000000000000000000000000000000000000000000000000000000000000000000000000000000000000000000000000000000000000000000000000000000000000000000000000000000000000000000000000000003030303000000000000000000000000000000000000000000
310
00000000000000000000000000000000000000000000000000000000000000000000000000000000000000000000000000000000000000000000000000000000000000000000000000000000000000000000000000000000000000000000000000000000000000000000000000000000000000000000000000000000000000
310
00000000000000000000000000000000000000000000000000000000030303030000000000000000000000000000000000000000000000000000000000000000000000000000000000000000000000000000000000000000000000000000000000000000000000000000000000000000000000000000000000000000000000
310
00000000000000000000000000000000000000000000000000000000000000000000000000000000000000000000000000000000000000000000000000000000000000000000000000000000000000000003030303000000000000000000000000000000000000000000000000000000000000000000000000000000000000
310
00000000000000000000000000000000000000000000000000000000000000000000000000000000000000000000000000000000000000000000000000000000000000000000000000000000000000000000000000000000000000000000000000000000000000000000000000000000000000000000000000000000000000
310
00000303030303030303030000000000000303030303030000000000000000000000000000000000000000000000000000000000000000000000000000000000000000000000000000000000000000000000000000000000000000000000000000000000000000000000000000000000000000000000000000000000000000
310
00000000000000000000000000000000000000000000000000000000000000000000000000000000000000000000000000000000000000030103030103030303010303030303010301010303000000000000000000000000000000000000000000000000000000000000000000000000000000000000000000000000000000
310
00000000000000000000000000000000000000000000000000000000000000000000000000000000000000000000000000000000000000000000000000000000000000000000000000000000000000000000000000000000000000000000000000000000000000000000000303030104010404040401040104040401040103
310
03030000000000000000000000000000000000000000000000000000000000000000000000000000000000000000000000000000000000000000000000000000000000000000000000000000000000000000000000000000000000000000000000000000000000000000000000000000000000000000000000000000000000
310
00000000000000000000000000000000000000000000000000000000000000000001010303030303030103030103030103030303030101010000000000000000000000000000000000000000000000000000000000000000000000000000000000000000000000000000000000000000000000000000000000000000000000
310
00000000000000000000000000000000000000000000000000000000000000000000000000000000000000000000000000000000000000000000000000000000000000000000000000000000000000000000000000000303000000000000010000010000010000000000000303030300000000000000000000000000000000
310
00000000000000000000000000000000000000000000000000000000000000000000000000000000000000000000000000000000000000000000000000000000000000000000000000000000000000000000000000000000000000000000000000000000000000000000000000000000000000000000000000000000000000
310
00000000000000000000000003010101030101010101030301010101010101010103030303010000000000000000000000000000000000000000000000000000000000000000000000000000000000000000000000000000000000000000000000000000000000000000000000000000000000000000000000000000000000
310
00000000000000000000000000000000000000000000000000000000000000000000000000000000000000000000000000000000000000000000000000000000000101010103030101010103030101010101010101010101000000000000000000000000000000000000000000000000000000000000000000000000000000
310
00000000000000000000000000000000000000000000000000000000000000000000000000000000000000000000000000000000000000000000000000000000000000000000000000000000000000000000000000000000000000000000000000000000000000000000000000000000000000000000030300000303000001
310
00030300000100000000000003000000000000000000000000000000000000000000000000000000000000000000000000000000000000000000000000000000000000000000000000000000000000000000000000000000000000000000000000000000000000000000000000000000000000000000000000000000000000
310
00000000000000000000000000000000000000000000000000000000000000000000000000000000000000000003000000000000010000010000010000000000000300000000000000000000000000000000000000000000000000000000000000000000000000000000000000000000000000000000000000000000000000
310
00000000000000000000000000000000000000000000000000000000000000000000000000000000000000000000000000000000000000000000000000000000000000000000000000000000000000000000000000000000000000000000000000000404040404040401040404040401040404040404030000000000000000
310
00000000000000000000000000000000000000000000000000000000000000000000000000000000000000000000000000000000000000000000000000000000000000000000000000000000000000000000000000000000000000000000000000000000000000000000000000000000000000000000000000000000000000
310
00000000000000000000000000000000000000000000000003030304010404040401040104040401040303030300000000000000000000000000000000000000000000000000000000000000000000000000000000000000000000000000000000000000000000000000000000000000000000000000000000000000000000
310
00000000000000000000000000000000000000000000000000000000000000000000000000000000000000000000000000000000000000000000000000000000000000000000000000000000000301010303030303030103030303030103010103030000000000000000000000000000000000000000000000000000000000
310
00000000000000000000000000000000000000000000000000000000000000000000000000000000000000000000000000000000000000000000000000000000000000000000000000000000000000000000000000000000000000000000000000000000000000000000000000000000000000000000000000000000000000
310
00000003030303030303030300000000000003030103030300000000000000000000000000000000000000000000000000000000000000000000000000000000000000000000000000000000000000000000000000000000000000000000000000000000000000000000000000000000000000000000000000000000000000
310
00000000000000000000000000000000000000000000000000000000000000000000000000000000000000000000000000000000000000000000000000030303030000000000000000000000000000000000000000000000000000000000000000000000000000000000000000000000000000000000000000000000000000
310
00000000000000000000000000000000000000000000000000000000000000000000000000000000000000000000000000000000000000000000000000000000000000000000000000000000000000000000000000000000000000000000000000000000000000000000000000000000000003030303000000000000000000
310
00000000000000000000000000000000000000000000000000000000000000000000000000000000000000000000000000000000000000000000000000000000000000000000000000000000000000000000000000000000000000000000000000000000000000000000000000000000000000000000000000000000000000
310
00000000000000000000000000000000000000000000000000000000000000000000000000000000030303030000000000000000000000000000000000000000000000000000000000000000000000000000000000000000000000000000000000000000000000000000000000000000000000000000000000000000000000
310
00000000000000000000000000000000000000000000000000000000000000000000000000000000000000000000000000000000000000000000000000000000000000000000000000000000000000000000000000000000000000000000000100000000000000000000000000000000000000000000000000000000000000
310
00000000000000000000000000000000000000000000000000000000000000000000000000000000000000000000000000000000000000000000000000000000000000000000000000000000000000000000000000000000000000000000000000000000000000000000000000000000000000000000000000000000000000
310
00000000000000000000000000000000000000000000000000000000000000000000000000000000000000000000000000000000000000000000000000000000000000000000000000000000000000000000000000000000000000000000000000000000000000000000000000000000000000000000000000000000000000
310
00000000000000000000000000000000000000000000000000000000000000000000000000000000000000000000000000000000000000000000000000000000000000000000000000000000000000000000000000000000000000000000000000000000000000000000000000000000000000000000000000000000000000
310
00000000000000000000000000000000000000000000000000000000000000000000000000000000000000000000000000000000000000000000000000000000000000000000000000000000000000000000000000000000000000000000000000000000000000000000000000000000000000000000000000000000000000
310
00000000000000000000000000000000000000000000000000000000000000000000000000000000000000000000000000000000000000000000000000000000000000000000000000000000000000000000000000000000000000000000000000000000000000000000000000000000000000000000000000000000000000
310
00000000000000000000000000000000000000000000000000000000000000000000000000000000000000000000000000000000000000000000000000000000000000000000000000000000000000000000000000000000000000000000000000000000000000000000000000000000000000000000000000000000000000
310
00000000000000000000000000000000000000000000000000000000000000000000000000000000000000000000000000000000000000000000000000000000000000000000000000000000000000000000000000000000000000000000000000000000000000000000000000000000000000000000000000000000000000
310
00000000000000000000000000000000000000000000000000000000000000000000000000000000000000000000000000000000000000000000000000000000000000000000000000000000000000000000000000000000000000000000000000000000000000000000000000000000000000000000000000000000000000
310
00000000000000000000000000000000000000000000000000000000000000000000000000000000000000000000000000000000000000000000000000000000000000000000000000000000000000000000000000000000000000000000000000000000000000000000000000000000000000000000000000000000000000
310
00000000000000000000000000000000000000000000000000000000000000000000000000000000000000000000000000000000000000000000000000000000000000000000000000000000000000000000000000000000000000000000000000000000000000000000000000000000000000000000000000000000000000
310
00000000000000000000000000000000000000000000000000000000000000000000000000000000000000000000000000000000000000000000000000000000000000000000000000000000000000000000000000000000000000000000000000000000000000000000000000000000000000000000000000000000000000
310
00000000000000000000000000000000000000000000000000000000000000000000000000000000000000000000000000000000000000000000000000000000000000000000000000000000000000000000000000000000000000000000000000000000000000000000000000000000000000000000000000000000000000
310
00000000000000000000000000000000000000000000000000000000000000000000000000000000000000000000000000000000000000000000000000000000000000000000000000000000000000000000000000000000000000000000000000000000000000000000000000000000000000000000000000000000000000
310
00000000000000000000000000000000000000000000000000000000000000000000000000000000000000000000000000000000000000000000000000000000000000000000000000000000000000000000000000000000000000000000000000000000000000000000000000000000000000000000000000000000000000
310
00000000000000000000000000000000000000000000000000000000000000000000000000000000000000000000000000000000000000000000000000000000000000000000000000000000000000000000000000000000000000000000000000000000000000000000000000000000000000000000000000000000000000
310
00000000000000000000000000000000000000000000000000000000000000000000000000000000000000000000000000000000000000000000000000000000000000000000000000000000000000000000000000000000000000000000000000000000000000000000000000000000000000000000000000000000000000
310
00000000000000000000000000000000000000000000000000000000000000000000000000000000000000000000000000000000000000000000000000000000000000000000000000000000000000000000000000000000000000000000000000000000000000000000000000000000000000000000000000000000000000
310
000000000000000000000000000000000000000000000000000000000000000000000000000000000000000000000000000000000000000000000000000000000000000000000000000000000000000000000000000000000000000000000000000000000000000000000000
  0
ENDSEC
  0
EOF
