  0
SECTION
  2
HEADER
  9
$ACADVER
  1
AC1015
  9
$ACADMAINTVER
 70
     6
  9
$DWGCODEPAGE
  3
ANSI_932
  9
$INSBASE
 10
3317.288936485714
 20
2479.48433400707
 30
0.0
  9
$EXTMIN
 10
403.2965040800884
 20
63.69369316654706
 30
0.0
  9
$EXTMAX
 10
2846.510342698042
 20
1930.425252076861
 30
0.0
  9
$LIMMIN
 10
0.0
 20
0.0
  9
$LIMMAX
 10
816.5000000000001
 20
565.0
  9
$ORTHOMODE
 70
     1
  9
$REGENMODE
 70
     1
  9
$FILLMODE
 70
     1
  9
$QTEXTMODE
 70
     0
  9
$MIRRTEXT
 70
     1
  9
$LTSCALE
 40
20.0
  9
$ATTMODE
 70
     1
  9
$TEXTSIZE
 40
21.0
  9
$TRACEWID
 40
0.05
  9
$TEXTSTYLE
  7
KANJI
  9
$CLAYER
  8
2
  9
$CELTYPE
  6
BYLAYER
  9
$CECOLOR
 62
   256
  9
$CELTSCALE
 40
1.0
  9
$DISPSILH
 70
     0
  9
$DIMSCALE
 40
8.0
  9
$DIMASZ
 40
2.0
  9
$DIMEXO
 40
0.5
  9
$DIMDLI
 40
0.0
  9
$DIMRND
 40
0.0
  9
$DIMDLE
 40
0.0
  9
$DIMEXE
 40
1.0
  9
$DIMTP
 40
0.0
  9
$DIMTM
 40
0.0
  9
$DIMTXT
 40
3.0
  9
$DIMCEN
 40
0.09
  9
$DIMTSZ
 40
0.0
  9
$DIMTOL
 70
     0
  9
$DIMLIM
 70
     0
  9
$DIMTIH
 70
     0
  9
$DIMTOH
 70
     0
  9
$DIMSE1
 70
     0
  9
$DIMSE2
 70
     0
  9
$DIMTAD
 70
     0
  9
$DIMZIN
 70
     8
  9
$DIMBLK
  1

  9
$DIMASO
 70
     0
  9
$DIMSHO
 70
     0
  9
$DIMPOST
  1

  9
$DIMAPOST
  1

  9
$DIMALT
 70
     0
  9
$DIMALTD
 70
     2
  9
$DIMALTF
 40
25.4
  9
$DIMLFAC
 40
1.0
  9
$DIMTOFL
 70
     1
  9
$DIMTVP
 40
1.0
  9
$DIMTIX
 70
     1
  9
$DIMSOXD
 70
     1
  9
$DIMSAH
 70
     0
  9
$DIMBLK1
  1

  9
$DIMBLK2
  1

  9
$DIMSTYLE
  2
STANDARD
  9
$DIMCLRD
 70
   256
  9
$DIMCLRE
 70
   256
  9
$DIMCLRT
 70
   256
  9
$DIMTFAC
 40
1.0
  9
$DIMGAP
 40
0.09
  9
$DIMJUST
 70
     0
  9
$DIMSD1
 70
     0
  9
$DIMSD2
 70
     0
  9
$DIMTOLJ
 70
     1
  9
$DIMTZIN
 70
     0
  9
$DIMALTZ
 70
     0
  9
$DIMALTTZ
 70
     0
  9
$DIMUPT
 70
     0
  9
$DIMDEC
 70
     1
  9
$DIMTDEC
 70
     4
  9
$DIMALTU
 70
     2
  9
$DIMALTTD
 70
     2
  9
$DIMTXSTY
  7
STANDARD
  9
$DIMAUNIT
 70
     0
  9
$DIMADEC
 70
     0
  9
$DIMALTRND
 40
0.0
  9
$DIMAZIN
 70
     0
  9
$DIMDSEP
 70
    46
  9
$DIMATFIT
 70
     3
  9
$DIMFRAC
 70
     0
  9
$DIMLDRBLK
  1

  9
$DIMLUNIT
 70
     2
  9
$DIMLWD
 70
    -2
  9
$DIMLWE
 70
    -2
  9
$DIMTMOVE
 70
     0
  9
$LUNITS
 70
     2
  9
$LUPREC
 70
     3
  9
$SKETCHINC
 40
0.1
  9
$FILLETRAD
 40
1.0
  9
$AUNITS
 70
     0
  9
$AUPREC
 70
     3
  9
$MENU
  1
C:\R13\WIN\SUPPORT\ACADFULL
  9
$ELEVATION
 40
0.0
  9
$PELEVATION
 40
0.0
  9
$THICKNESS
 40
0.0
  9
$LIMCHECK
 70
     0
  9
$CHAMFERA
 40
0.0
  9
$CHAMFERB
 40
0.0
  9
$CHAMFERC
 40
0.0
  9
$CHAMFERD
 40
0.0
  9
$SKPOLY
 70
     0
  9
$TDCREATE
 40
2449813.131805555
  9
$TDUCREATE
 40
2449812.756805555
  9
$TDUPDATE
 40
2458114.745488391
  9
$TDUUPDATE
 40
2458114.370488391
  9
$TDINDWG
 40
1.3146676389
  9
$TDUSRTIMER
 40
1.314667419
  9
$USRTIMER
 70
     1
  9
$ANGBASE
 50
0.0
  9
$ANGDIR
 70
     0
  9
$PDMODE
 70
     0
  9
$PDSIZE
 40
0.0
  9
$PLINEWID
 40
0.0
  9
$SPLFRAME
 70
     0
  9
$SPLINETYPE
 70
     6
  9
$SPLINESEGS
 70
     8
  9
$HANDSEED
  5
76C
  9
$SURFTAB1
 70
     6
  9
$SURFTAB2
 70
     6
  9
$SURFTYPE
 70
     6
  9
$SURFU
 70
     6
  9
$SURFV
 70
     6
  9
$UCSBASE
  2

  9
$UCSNAME
  2

  9
$UCSORG
 10
0.0
 20
0.0
 30
0.0
  9
$UCSXDIR
 10
1.0
 20
0.0
 30
0.0
  9
$UCSYDIR
 10
0.0
 20
1.0
 30
0.0
  9
$UCSORTHOREF
  2

  9
$UCSORTHOVIEW
 70
     0
  9
$UCSORGTOP
 10
0.0
 20
0.0
 30
0.0
  9
$UCSORGBOTTOM
 10
0.0
 20
0.0
 30
0.0
  9
$UCSORGLEFT
 10
0.0
 20
0.0
 30
0.0
  9
$UCSORGRIGHT
 10
0.0
 20
0.0
 30
0.0
  9
$UCSORGFRONT
 10
0.0
 20
0.0
 30
0.0
  9
$UCSORGBACK
 10
0.0
 20
0.0
 30
0.0
  9
$PUCSBASE
  2

  9
$PUCSNAME
  2

  9
$PUCSORG
 10
0.0
 20
0.0
 30
0.0
  9
$PUCSXDIR
 10
1.0
 20
0.0
 30
0.0
  9
$PUCSYDIR
 10
0.0
 20
1.0
 30
0.0
  9
$PUCSORTHOREF
  2

  9
$PUCSORTHOVIEW
 70
     0
  9
$PUCSORGTOP
 10
0.0
 20
0.0
 30
0.0
  9
$PUCSORGBOTTOM
 10
0.0
 20
0.0
 30
0.0
  9
$PUCSORGLEFT
 10
0.0
 20
0.0
 30
0.0
  9
$PUCSORGRIGHT
 10
0.0
 20
0.0
 30
0.0
  9
$PUCSORGFRONT
 10
0.0
 20
0.0
 30
0.0
  9
$PUCSORGBACK
 10
0.0
 20
0.0
 30
0.0
  9
$USERI1
 70
     0
  9
$USERI2
 70
     0
  9
$USERI3
 70
     0
  9
$USERI4
 70
     0
  9
$USERI5
 70
     0
  9
$USERR1
 40
0.0
  9
$USERR2
 40
0.0
  9
$USERR3
 40
0.0
  9
$USERR4
 40
2448925.372986111
  9
$USERR5
 40
0.04166667
  9
$WORLDVIEW
 70
     1
  9
$SHADEDGE
 70
     3
  9
$SHADEDIF
 70
    70
  9
$TILEMODE
 70
     1
  9
$MAXACTVP
 70
    16
  9
$PINSBASE
 10
0.0
 20
0.0
 30
0.0
  9
$PLIMCHECK
 70
     0
  9
$PEXTMIN
 10
1000000000000000E+20
 20
1000000000000000E+20
 30
1000000000000000E+20
  9
$PEXTMAX
 10
-1000000000000000E+20
 20
-1000000000000000E+20
 30
-1000000000000000E+20
  9
$PLIMMIN
 10
0.0
 20
0.0
  9
$PLIMMAX
 10
12.0
 20
9.0
  9
$UNITMODE
 70
     0
  9
$VISRETAIN
 70
     0
  9
$PLINEGEN
 70
     0
  9
$PSLTSCALE
 70
     0
  9
$TREEDEPTH
 70
  3020
  9
$CMLSTYLE
  2
STANDARD
  9
$CMLJUST
 70
     0
  9
$CMLSCALE
 40
1.0
  9
$PROXYGRAPHICS
 70
     1
  9
$MEASUREMENT
 70
     0
  9
$CELWEIGHT
370
    -1
  9
$ENDCAPS
280
     0
  9
$JOINSTYLE
280
     0
  9
$LWDISPLAY
290
     0
  9
$INSUNITS
 70
     0
  9
$HYPERLINKBASE
  1

  9
$STYLESHEET
  1
monochrome.ctb
  9
$XEDIT
290
     1
  9
$CEPSNTYPE
380
     0
  9
$PSTYLEMODE
290
     1
  9
$FINGERPRINTGUID
  2
{07528633-0641-4FB2-9331-EE77C6B48313}
  9
$VERSIONGUID
  2
{24E79080-B05A-4593-A4A5-E7A641596B18}
  9
$EXTNAMES
290
     1
  9
$PSVPSCALE
 40
0.0
  9
$OLESTARTUP
290
     0
  0
ENDSEC
  0
SECTION
  2
CLASSES
  0
CLASS
  1
ACDBDICTIONARYWDFLT
  2
AcDbDictionaryWithDefault
  3
ObjectDBX Classes
 90
        0
280
     0
281
     0
  0
CLASS
  1
MATERIAL
  2
AcDbMaterial
  3
ObjectDBX Classes
 90
     1153
280
     0
281
     0
  0
CLASS
  1
SORTENTSTABLE
  2
AcDbSortentsTable
  3
ObjectDBX Classes
 90
        0
280
     0
281
     0
  0
CLASS
  1
SCALE
  2
AcDbScale
  3
ObjectDBX Classes
 90
     1153
280
     0
281
     0
  0
CLASS
  1
DICTIONARYVAR
  2
AcDbDictionaryVar
  3
ObjectDBX Classes
 90
        0
280
     0
281
     0
  0
CLASS
  1
VISUALSTYLE
  2
AcDbVisualStyle
  3
ObjectDBX Classes
 90
     4095
280
     0
281
     0
  0
CLASS
  1
MLEADERSTYLE
  2
AcDbMLeaderStyle
  3
ACDB_MLEADERSTYLE_CLASS
 90
     4095
280
     0
281
     0
  0
CLASS
  1
ACDBPLACEHOLDER
  2
AcDbPlaceHolder
  3
ObjectDBX Classes
 90
        0
280
     0
281
     0
  0
CLASS
  1
LAYOUT
  2
AcDbLayout
  3
ObjectDBX Classes
 90
        0
280
     0
281
     0
  0
ENDSEC
  0
SECTION
  2
TABLES
  0
TABLE
  2
VPORT
  5
25
102
{ACAD_XDICTIONARY
360
731
102
}
330
0
100
AcDbSymbolTable
 70
     2
  0
VPORT
  5
2B
330
25
100
AcDbSymbolTableRecord
100
AcDbViewportTableRecord
  2
*Active
 70
     0
 10
0.0
 20
0.0
 11
1.0
 21
1.0
 12
1985.238846223637
 22
888.1819306742977
 13
0.0
 23
0.0
 14
1.0
 24
1.0
 15
50.0
 25
50.0
 16
0.0
 26
0.0
 36
1.0
 17
0.0
 27
0.0
 37
0.0
 40
2158.599149938001
 41
1.82716049382716
 42
50.0
 43
0.0
 44
0.0
 50
0.0
 51
0.0
 71
     0
 72
  5000
 73
     1
 74
     0
 75
     0
 76
     0
 77
     0
 78
     0
281
     0
 65
     1
110
0.0
120
0.0
130
0.0
111
1.0
121
0.0
131
0.0
112
0.0
122
1.0
132
0.0
 79
     0
146
0.0
  0
ENDTAB
  0
TABLE
  2
LTYPE
  5
9
330
0
100
AcDbSymbolTable
 70
     2
  0
LTYPE
  5
A
330
9
100
AcDbSymbolTableRecord
100
AcDbLinetypeTableRecord
  2
BYBLOCK
 70
     0
  3

 72
    65
 73
     0
 40
0.0
  0
LTYPE
  5
B
330
9
100
AcDbSymbolTableRecord
100
AcDbLinetypeTableRecord
  2
BYLAYER
 70
     0
  3

 72
    65
 73
     0
 40
0.0
  0
LTYPE
  5
8
330
9
100
AcDbSymbolTableRecord
100
AcDbLinetypeTableRecord
  2
CONTINUOUS
 70
     0
  3
Solid line
 72
    65
 73
     0
 40
0.0
  0
LTYPE
  5
7B
330
9
100
AcDbSymbolTableRecord
100
AcDbLinetypeTableRecord
  2
CENTER
 70
     0
  3
____ _ ____ _ ____ _ ____ _ ____ _ ____ _ ____
 72
    65
 73
     4
 40
2.0
 49
1.25
 74
     0
 49
-0.25
 74
     0
 49
0.25
 74
     0
 49
-0.25
 74
     0
  0
ENDTAB
  0
TABLE
  2
LAYER
  5
2
330
0
100
AcDbSymbolTable
 70
     9
  0
LAYER
  5
19
330
2
100
AcDbSymbolTableRecord
100
AcDbLayerTableRecord
  2
0
 70
     0
 62
     7
  6
CONTINUOUS
370
    -3
390
3
  0
LAYER
  5
507
330
2
100
AcDbSymbolTableRecord
100
AcDbLayerTableRecord
  2
1
 70
     0
 62
     9
  6
CONTINUOUS
370
    -3
390
3
  0
LAYER
  5
1
330
2
100
AcDbSymbolTableRecord
100
AcDbLayerTableRecord
  2
2
 70
     0
 62
     4
  6
CONTINUOUS
370
    -3
390
3
  0
LAYER
  5
72
330
2
100
AcDbSymbolTableRecord
100
AcDbLayerTableRecord
  2
4
 70
     0
 62
     3
  6
CONTINUOUS
370
    -3
390
3
  0
LAYER
  5
7A
330
2
100
AcDbSymbolTableRecord
100
AcDbLayerTableRecord
  2
L-CENTER
 70
     0
 62
     1
  6
CENTER
370
    -3
390
3
  0
LAYER
  5
81
330
2
100
AcDbSymbolTableRecord
100
AcDbLayerTableRecord
  2
3
 70
     0
 62
     2
  6
CONTINUOUS
370
    -3
390
3
  0
LAYER
  5
501
330
2
100
AcDbSymbolTableRecord
100
AcDbLayerTableRecord
  2
5
 70
     0
 62
     6
  6
CONTINUOUS
370
    -3
390
3
  0
LAYER
  5
6DD
330
2
100
AcDbSymbolTableRecord
100
AcDbLayerTableRecord
  2
Defpoints
 70
     0
 62
     7
  6
CONTINUOUS
290
     0
370
    -3
390
3
  0
ENDTAB
  0
TABLE
  2
STYLE
  5
D
330
0
100
AcDbSymbolTable
 70
     2
  0
STYLE
  5
11
330
D
100
AcDbSymbolTableRecord
100
AcDbTextStyleTableRecord
  2
STANDARD
 70
     0
 40
0.0
 41
1.0
 50
0.0
 71
     0
 42
12.6
  3
TXT
  4

  0
STYLE
  5
C
330
D
100
AcDbSymbolTableRecord
100
AcDbTextStyleTableRecord
  2
KANJI
 70
     0
 40
0.0
 41
1.0
 50
0.0
 71
     0
 42
21.0
  3
TXT
  4
BIGFONT
  0
ENDTAB
  0
TABLE
  2
VIEW
  5
23
330
0
100
AcDbSymbolTable
 70
     0
  0
ENDTAB
  0
TABLE
  2
UCS
  5
24
330
0
100
AcDbSymbolTable
 70
     0
  0
ENDTAB
  0
TABLE
  2
APPID
  5
1E
330
0
100
AcDbSymbolTable
 70
     4
  0
APPID
  5
2A
330
1E
100
AcDbSymbolTableRecord
100
AcDbRegAppTableRecord
  2
ACAD
 70
     0
  0
APPID
  5
1D
330
1E
100
AcDbSymbolTableRecord
100
AcDbRegAppTableRecord
  2
ACAD_PSEXT
 70
     0
  0
APPID
  5
6DC
330
1E
100
AcDbSymbolTableRecord
100
AcDbRegAppTableRecord
  2
ACAD_MLEADERVER
 70
     0
  0
ENDTAB
  0
TABLE
  2
DIMSTYLE
  5
10
330
0
100
AcDbSymbolTable
 70
     1
100
AcDbDimStyleTable
  0
DIMSTYLE
105
F
330
10
100
AcDbSymbolTableRecord
100
AcDbDimStyleTableRecord
  2
STANDARD
 70
     0
178
     0
340
11
  0
ENDTAB
  0
TABLE
  2
BLOCK_RECORD
  5
14
330
0
100
AcDbSymbolTable
 70
     0
  0
BLOCK_RECORD
  5
15
102
{ACAD_XDICTIONARY
360
16
102
}
330
14
100
AcDbSymbolTableRecord
100
AcDbBlockTableRecord
  2
*MODEL_SPACE
340
1B
  0
BLOCK_RECORD
  5
1F
330
14
100
AcDbSymbolTableRecord
100
AcDbBlockTableRecord
  2
*PAPER_SPACE
340
22
  0
ENDTAB
  0
ENDSEC
  0
SECTION
  2
BLOCKS
  0
BLOCK
  5
18
330
15
100
AcDbEntity
  8
0
100
AcDbBlockBegin
  2
*MODEL_SPACE
 70
     0
 10
0.0
 20
0.0
 30
0.0
  3
*MODEL_SPACE
  1

  0
ENDBLK
  5
1A
330
15
100
AcDbEntity
  8
0
100
AcDbBlockEnd
  0
BLOCK
  5
20
330
1F
100
AcDbEntity
 67
     1
  8
0
100
AcDbBlockBegin
  2
*PAPER_SPACE
 70
     0
 10
0.0
 20
0.0
 30
0.0
  3
*PAPER_SPACE
  1

  0
ENDBLK
  5
21
330
1F
100
AcDbEntity
 67
     1
  8
0
100
AcDbBlockEnd
  0
ENDSEC
  0
SECTION
  2
ENTITIES
  0
LINE
  5
71
330
15
100
AcDbEntity
  8
4
100
AcDbLine
 10
1365.12803908009
 20
263.6936931665471
 30
0.0
 11
1365.12803908009
 21
153.6936981665469
 31
0.0
  0
ARC
  5
73
330
15
100
AcDbEntity
  8
4
100
AcDbCircle
 10
977.128042080089
 20
500.6936941665469
 30
0.0
 40
389.999974
100
AcDbArc
 50
225.245606
 51
314.755231
  0
LINE
  5
74
330
15
100
AcDbEntity
  8
4
100
AcDbLine
 10
589.1280450800891
 20
263.6936931665471
 30
0.0
 11
589.1280450800891
 21
153.6936981665469
 31
0.0
  0
ARC
  5
75
330
15
100
AcDbEntity
  8
4
100
AcDbCircle
 10
977.128042080089
 20
500.6936941665469
 30
0.0
 40
347.999953
100
AcDbArc
 50
271.6942290000001
 51
268.306615
  0
ARC
  5
76
330
15
100
AcDbEntity
  8
4
100
AcDbCircle
 10
977.128042080089
 20
500.6936941665469
 30
0.0
 40
390.000002
100
AcDbArc
 50
329.6524129999999
 51
210.348473
  0
LINE
  5
77
330
15
100
AcDbEntity
  8
4
100
AcDbLine
 10
571.1280420800895
 20
500.6936941665469
 30
0.0
 11
571.1280420800895
 21
88.69369316654706
 31
0.0
  0
LINE
  5
78
330
15
100
AcDbEntity
  8
4
100
AcDbLine
 10
1383.128035080089
 20
500.6936941665469
 30
0.0
 11
1383.128035080089
 21
88.69369316654706
 31
0.0
  0
LINE
  5
79
330
15
100
AcDbEntity
  8
L-CENTER
 48
2.0
100
AcDbLine
 10
977.128042080089
 20
89.69369216654673
 30
0.0
 11
977.128042080089
 21
1002.667565166548
 31
0.0
  0
LINE
  5
7C
330
15
100
AcDbEntity
  8
4
100
AcDbLine
 10
796.1280410800896
 20
138.6936991665468
 30
0.0
 11
574.1280460800895
 21
138.6936991665468
 31
0.0
  0
LINE
  5
7D
330
15
100
AcDbEntity
  8
4
100
AcDbLine
 10
571.1280420800895
 20
88.69369316654706
 30
0.0
 11
799.1280450800891
 21
88.69369316654706
 31
0.0
  0
LINE
  5
7E
330
15
100
AcDbEntity
  8
4
100
AcDbLine
 10
772.4918130800893
 20
168.6936971665471
 30
0.0
 11
589.1280450800891
 21
168.6936971665471
 31
0.0
  0
ARC
  5
89
330
15
100
AcDbEntity
  8
4
100
AcDbCircle
 10
574.1280460800895
 20
135.6936951665468
 30
0.0
 40
2.999997
100
AcDbArc
 50
90.0
 51
180.0
  0
ARC
  5
8A
330
15
100
AcDbEntity
  8
4
100
AcDbCircle
 10
604.1280440800892
 20
153.6936981665469
 30
0.0
 40
14.999999
100
AcDbArc
 50
180.0
 51
270.0009319999996
  0
LINE
  5
8B
330
15
100
AcDbEntity
  8
L-CENTER
 48
2.0
100
AcDbLine
 10
657.1280400800892
 20
63.69369316654706
 30
0.0
 11
657.1280400800892
 21
163.6936991665468
 31
0.0
  0
LINE
  5
8E
330
15
100
AcDbEntity
  8
4
100
AcDbLine
 10
1181.764271080089
 20
168.6936971665471
 30
0.0
 11
1365.12803908009
 21
168.6936971665471
 31
0.0
  0
LINE
  5
8F
330
15
100
AcDbEntity
  8
4
100
AcDbLine
 10
1383.128035080089
 20
88.69369316654706
 30
0.0
 11
1155.12803908009
 21
88.69369316654706
 31
0.0
  0
LINE
  5
90
330
15
100
AcDbEntity
  8
4
100
AcDbLine
 10
1158.128043080089
 20
138.6936991665468
 30
0.0
 11
1380.128038080089
 21
138.6936991665468
 31
0.0
  0
LINE
  5
98
330
15
100
AcDbEntity
  8
4
100
AcDbLine
 10
805.1280390800898
 20
103.6936991665468
 30
0.0
 11
1149.128038080089
 21
103.6936991665468
 31
0.0
  0
LINE
  5
99
330
15
100
AcDbEntity
  8
4
100
AcDbLine
 10
769.1280400800892
 20
88.69369316654706
 30
0.0
 11
769.1280400800892
 21
135.6936951665468
 31
0.0
  0
LINE
  5
9A
330
15
100
AcDbEntity
  8
4
100
AcDbLine
 10
799.1280450800891
 20
88.69369316654706
 30
0.0
 11
799.1280450800891
 21
135.6936951665468
 31
0.0
  0
ARC
  5
9B
330
15
100
AcDbEntity
  8
4
100
AcDbCircle
 10
805.1280390800898
 20
97.69369816654694
 30
0.0
 40
6.000001
100
AcDbArc
 50
90.0
 51
180.0
  0
ARC
  5
9C
330
15
100
AcDbEntity
  8
4
100
AcDbCircle
 10
766.1280430800894
 20
135.6936951665468
 30
0.0
 40
2.999997
100
AcDbArc
 50
0.0
 51
90.0
  0
ARC
  5
9D
330
15
100
AcDbEntity
  8
4
100
AcDbCircle
 10
796.1280410800896
 20
135.6936951665468
 30
0.0
 40
2.999997
100
AcDbArc
 50
0.0
 51
90.0
  0
CIRCLE
  5
9E
330
15
100
AcDbEntity
  8
2
100
AcDbCircle
 10
977.128042080089
 20
135.6936951665468
 30
0.0
 40
8.331057
  0
CIRCLE
  5
9F
330
15
100
AcDbEntity
  8
4
100
AcDbCircle
 10
977.128042080089
 20
135.6936951665468
 30
0.0
 40
9.331057
  0
LINE
  5
A0
330
15
100
AcDbEntity
  8
2
100
AcDbLine
 10
970.9131690800891
 20
132.1054671665472
 30
0.0
 11
977.128042080089
 21
128.5173371665471
 31
0.0
  0
LINE
  5
A1
330
15
100
AcDbEntity
  8
2
100
AcDbLine
 10
983.3429150800898
 20
132.1054671665472
 30
0.0
 11
977.128042080089
 21
128.5173371665471
 31
0.0
  0
LINE
  5
A2
330
15
100
AcDbEntity
  8
2
100
AcDbLine
 10
977.128042080089
 20
142.870053166547
 30
0.0
 11
970.9131690800891
 21
139.2819231665469
 31
0.0
  0
ARC
  5
A3
330
15
100
AcDbEntity
  8
4
100
AcDbCircle
 10
977.128042080089
 20
135.6936951665468
 30
0.0
 40
20.000099
100
AcDbArc
 50
59.04823900000044
 51
120.9517609999987
  0
LINE
  5
A4
330
15
100
AcDbEntity
  8
L-CENTER
 48
2.0
100
AcDbLine
 10
1002.55030816497
 20
135.6936951665468
 30
0.0
 11
951.7057759952081
 21
135.6936951665468
 31
0.0
  0
LINE
  5
A5
330
15
100
AcDbEntity
  8
2
100
AcDbLine
 10
970.9131690800891
 20
139.2819231665469
 30
0.0
 11
970.9131690800891
 21
132.1054671665472
 31
0.0
  0
LINE
  5
A6
330
15
100
AcDbEntity
  8
2
100
AcDbLine
 10
977.128042080089
 20
142.870053166547
 30
0.0
 11
983.3429150800898
 21
139.2819231665469
 31
0.0
  0
LINE
  5
A7
330
15
100
AcDbEntity
  8
2
100
AcDbLine
 10
983.3429150800898
 20
139.2819231665469
 30
0.0
 11
983.3429150800898
 21
132.1054671665472
 31
0.0
  0
LINE
  5
A8
330
15
100
AcDbEntity
  8
4
100
AcDbLine
 10
1155.12803908009
 20
88.69369316654706
 30
0.0
 11
1155.12803908009
 21
135.6936951665468
 31
0.0
  0
LINE
  5
A9
330
15
100
AcDbEntity
  8
4
100
AcDbLine
 10
1185.128037080089
 20
88.69369316654706
 30
0.0
 11
1185.128037080089
 21
135.6936951665468
 31
0.0
  0
ARC
  5
AA
330
15
100
AcDbEntity
  8
4
100
AcDbCircle
 10
1149.128038080089
 20
97.69369816654694
 30
0.0
 40
6.000001
100
AcDbArc
 50
0.0
 51
90.0
  0
ARC
  5
AB
330
15
100
AcDbEntity
  8
4
100
AcDbCircle
 10
1158.128043080089
 20
135.6936951665468
 30
0.0
 40
2.999997
100
AcDbArc
 50
90.0
 51
180.0
  0
ARC
  5
AC
330
15
100
AcDbEntity
  8
4
100
AcDbCircle
 10
1188.12804108009
 20
135.6936951665468
 30
0.0
 40
2.999997
100
AcDbArc
 50
90.0
 51
180.0
  0
LINE
  5
AD
330
15
100
AcDbEntity
  8
L-CENTER
 48
2.0
100
AcDbLine
 10
1297.128037080089
 20
63.69369316654706
 30
0.0
 11
1297.128037080089
 21
163.6936991665468
 31
0.0
  0
ARC
  5
AE
330
15
100
AcDbEntity
  8
4
100
AcDbCircle
 10
1350.128040080089
 20
153.6936981665469
 30
0.0
 40
14.999999
100
AcDbArc
 50
270.0009319999996
 51
0.0
  0
ARC
  5
AF
330
15
100
AcDbEntity
  8
4
100
AcDbCircle
 10
1380.128038080089
 20
135.6936951665468
 30
0.0
 40
2.999997
100
AcDbArc
 50
0.0
 51
90.0
  0
LINE
  5
B0
330
15
100
AcDbEntity
  8
L-CENTER
 48
2.0
100
AcDbLine
 10
773.3966611173477
 20
541.8866390133164
 30
0.0
 11
732.4968738528137
 21
565.5001490042939
 31
0.0
  0
LINE
  5
B1
330
15
100
AcDbEntity
  8
L-CENTER
 48
2.0
100
AcDbLine
 10
773.397006202268
 20
445.5001516151463
 30
0.0
 11
732.4972180582918
 21
421.8866431474073
 31
0.0
  0
CIRCLE
  5
B2
330
15
100
AcDbEntity
  8
L-CENTER
 48
2.0
100
AcDbCircle
 10
856.8699880800891
 20
493.6936941665469
 30
0.0
 40
119.999999
  0
CIRCLE
  5
B3
330
15
100
AcDbEntity
  8
4
100
AcDbCircle
 10
856.8699880800891
 20
493.6936941665469
 30
0.0
 40
140.0
  0
LINE
  5
B4
330
15
100
AcDbEntity
  8
L-CENTER
 48
2.0
100
AcDbLine
 10
1020.857559485828
 20
493.6936941665469
 30
0.0
 11
692.8164153837452
 21
493.6936941665469
 31
0.0
  0
ARC
  5
B5
330
15
100
AcDbEntity
  8
4
100
AcDbCircle
 10
977.128042080089
 20
-524.306302833453
 30
0.0
 40
1200.000025
100
AcDbArc
 50
74.41223299999999
 51
105.588059
  0
ARC
  5
B6
330
15
100
AcDbEntity
  8
4
100
AcDbCircle
 10
977.128042080089
 20
-899.306305833453
 30
0.0
 40
1797.000002
100
AcDbArc
 50
78.96179199999999
 51
101.038208
  0
LINE
  5
B7
330
15
100
AcDbEntity
  8
L-CENTER
 48
2.0
100
AcDbLine
 10
1397.396072662212
 20
500.6936941665469
 30
0.0
 11
556.8600114979663
 21
500.6936941665469
 31
0.0
  0
LINE
  5
B8
330
15
100
AcDbEntity
  8
4
100
AcDbLine
 10
764.5933770800898
 20
173.6936991665468
 30
0.0
 11
589.1280450800891
 21
173.6936991665468
 31
0.0
  0
ARC
  5
B9
330
15
100
AcDbEntity
  8
4
100
AcDbCircle
 10
977.128042080089
 20
1511.693691166546
 30
0.0
 40
1200.000095
100
AcDbArc
 50
254.755403
 51
269.091313
  0
LINE
  5
BA
330
15
100
AcDbEntity
  8
L-CENTER
 48
2.0
100
AcDbLine
 10
1550.959580080089
 20
263.6936931665471
 30
0.0
 11
403.2965040800887
 21
263.6936931665471
 31
0.0
  0
ARC
  5
BB
330
15
100
AcDbEntity
  8
4
100
AcDbCircle
 10
1771.12803908009
 20
500.6936941665469
 30
0.0
 40
1199.999934
100
AcDbArc
 50
162.696777
 51
180.0003499992971
  0
LINE
  5
BC
330
15
100
AcDbEntity
  8
4
100
AcDbLine
 10
566.1280400800892
 20
173.6936991665468
 30
0.0
 11
566.1280400800892
 21
353.6936941665469
 31
0.0
  0
LINE
  5
BD
330
15
100
AcDbEntity
  8
2
100
AcDbLine
 10
565.8280400800893
 20
173.6936991665468
 30
0.0
 11
565.8280400800893
 21
353.6936941665469
 31
0.0
  0
LINE
  5
BE
330
15
100
AcDbEntity
  8
4
100
AcDbLine
 10
547.8280430800893
 20
173.6936991665468
 30
0.0
 11
547.8280430800893
 21
353.6936941665469
 31
0.0
  0
LINE
  5
BF
330
15
100
AcDbEntity
  8
4
100
AcDbLine
 10
547.8280430800893
 20
173.6936991665468
 30
0.0
 11
566.1280400800892
 21
173.6936991665468
 31
0.0
  0
ARC
  5
C0
330
15
100
AcDbEntity
  8
4
100
AcDbCircle
 10
596.1280450800891
 20
263.6936931665471
 30
0.0
 40
7.0
100
AcDbArc
 50
90.0
 51
180.0
  0
LINE
  5
C1
330
15
100
AcDbEntity
  8
4
100
AcDbLine
 10
547.8280430800893
 20
353.6936941665469
 30
0.0
 11
566.1280400800892
 21
353.6936941665469
 31
0.0
  0
LINE
  5
C2
330
15
100
AcDbEntity
  8
4
100
AcDbLine
 10
602.3641280800894
 20
358.6936961665472
 30
0.0
 11
571.1280420800895
 21
358.6936961665472
 31
0.0
  0
LINE
  5
C3
330
15
100
AcDbEntity
  8
4
100
AcDbLine
 10
604.1898120800893
 20
353.6936941665469
 30
0.0
 11
566.1280400800892
 21
353.6936941665469
 31
0.0
  0
ARC
  5
C4
330
15
100
AcDbEntity
  8
4
100
AcDbCircle
 10
602.3641280800894
 20
366.6936951665468
 30
0.0
 40
7.999991999999999
100
AcDbArc
 50
270.0
 51
19.67417600000242
  0
ARC
  5
C5
330
15
100
AcDbEntity
  8
4
100
AcDbCircle
 10
604.1898120800893
 20
361.6936931665471
 30
0.0
 40
8.000041
100
AcDbArc
 50
270.0
 51
20.44083299999911
  0
ARC
  5
C6
330
15
100
AcDbEntity
  8
4
100
AcDbCircle
 10
634.9826580800895
 20
854.6336931665467
 30
0.0
 40
9.999996999999999
100
AcDbArc
 50
101.0382080000015
 51
162.6967769999991
  0
LINE
  5
C7
330
15
100
AcDbEntity
  8
L-CENTER
 48
2.0
100
AcDbLine
 10
727.1280400800892
 20
865.7785191665469
 30
0.0
 11
727.1280400800892
 21
904.2013861665471
 31
0.0
  0
LINE
  5
C8
330
15
100
AcDbEntity
  8
4
100
AcDbLine
 10
704.1280420800895
 20
897.0519711665468
 30
0.0
 11
750.1280450800891
 21
897.0519711665468
 31
0.0
  0
LINE
  5
C9
330
15
100
AcDbEntity
  8
4
100
AcDbLine
 10
704.1280420800895
 20
892.051969166547
 30
0.0
 11
750.1280450800891
 21
892.051969166547
 31
0.0
  0
LINE
  5
CA
330
15
100
AcDbEntity
  8
4
100
AcDbLine
 10
704.1280420800895
 20
888.0519661665469
 30
0.0
 11
750.1280450800891
 21
888.0519661665469
 31
0.0
  0
LINE
  5
CB
330
15
100
AcDbEntity
  8
4
100
AcDbLine
 10
705.1280410800896
 20
886.5519711665468
 30
0.0
 11
749.1280390800898
 21
886.5519711665468
 31
0.0
  0
LINE
  5
CC
330
15
100
AcDbEntity
  8
4
100
AcDbLine
 10
752.1280430800894
 20
886.5522091665468
 30
0.0
 11
702.1280440800892
 21
886.5522091665468
 31
0.0
  0
LINE
  5
CD
330
15
100
AcDbEntity
  8
4
100
AcDbLine
 10
715.6280410800896
 20
892.051969166547
 30
0.0
 11
715.6280410800896
 21
897.0519711665468
 31
0.0
  0
LINE
  5
CE
330
15
100
AcDbEntity
  8
4
100
AcDbLine
 10
704.1280420800895
 20
888.0519661665469
 30
0.0
 11
704.1280420800895
 21
897.0519711665468
 31
0.0
  0
LINE
  5
CF
330
15
100
AcDbEntity
  8
4
100
AcDbLine
 10
705.1280410800896
 20
888.0519661665469
 30
0.0
 11
705.1280410800896
 21
886.5519711665468
 31
0.0
  0
LINE
  5
D0
330
15
100
AcDbEntity
  8
4
100
AcDbLine
 10
702.1280440800892
 20
876.527019166547
 30
0.0
 11
702.1280440800892
 21
886.5522091665468
 31
0.0
  0
LINE
  5
D1
330
15
100
AcDbEntity
  8
4
100
AcDbLine
 10
738.6280390800898
 20
892.051969166547
 30
0.0
 11
738.6280390800898
 21
897.0519711665468
 31
0.0
  0
LINE
  5
D2
330
15
100
AcDbEntity
  8
4
100
AcDbLine
 10
750.1280450800891
 20
888.0519661665469
 30
0.0
 11
750.1280450800891
 21
897.0519711665468
 31
0.0
  0
LINE
  5
D3
330
15
100
AcDbEntity
  8
4
100
AcDbLine
 10
749.1280390800898
 20
888.0519661665469
 30
0.0
 11
749.1280390800898
 21
886.5519711665468
 31
0.0
  0
LINE
  5
D4
330
15
100
AcDbEntity
  8
4
100
AcDbLine
 10
752.1280430800894
 20
883.552212166547
 30
0.0
 11
752.1280430800894
 21
886.5522091665468
 31
0.0
  0
ARC
  5
D5
330
15
100
AcDbEntity
  8
4
100
AcDbCircle
 10
183.1280450800891
 20
500.6936941665469
 30
0.0
 40
1199.999927
100
AcDbArc
 50
0.0
 51
17.30322399999999
  0
LINE
  5
D6
330
15
100
AcDbEntity
  8
L-CENTER
 48
2.0
100
AcDbLine
 10
995.433952080089
 20
513.6936951665468
 30
0.0
 11
1256.822128080089
 21
513.6936951665468
 31
0.0
  0
LINE
  5
D7
330
15
100
AcDbEntity
  8
4
100
AcDbLine
 10
1189.662707080089
 20
173.6936991665468
 30
0.0
 11
1365.12803908009
 21
173.6936991665468
 31
0.0
  0
ARC
  5
D8
330
15
100
AcDbEntity
  8
4
100
AcDbCircle
 10
977.128042080089
 20
1511.693691166546
 30
0.0
 40
1200.000095
100
AcDbArc
 50
270.908687
 51
285.2448720000001
  0
LINE
  5
D9
330
15
100
AcDbEntity
  8
L-CENTER
 48
2.0
100
AcDbLine
 10
1126.128040080089
 20
382.9996071665466
 30
0.0
 11
1126.128040080089
 21
644.387783166547
 31
0.0
  0
CIRCLE
  5
DA
330
15
100
AcDbEntity
  8
4
100
AcDbCircle
 10
856.8699880800891
 20
493.6936941665469
 30
0.0
 40
84.999999
  0
CIRCLE
  5
DB
330
15
100
AcDbEntity
  8
4
100
AcDbCircle
 10
1126.128040080089
 20
513.6936951665468
 30
0.0
 40
60.000003
  0
LINE
  5
DC
330
15
100
AcDbEntity
  8
L-CENTER
 48
2.0
100
AcDbLine
 10
856.8699880800891
 20
329.7061227608081
 30
0.0
 11
856.8699880800891
 21
657.6812655722858
 31
0.0
  0
CIRCLE
  5
DD
330
15
100
AcDbEntity
  8
4
100
AcDbCircle
 10
1126.128040080089
 20
513.6936951665468
 30
0.0
 40
110.000002
  0
CIRCLE
  5
DE
330
15
100
AcDbEntity
  8
L-CENTER
 48
2.0
100
AcDbCircle
 10
1126.128040080089
 20
513.6936951665468
 30
0.0
 40
90.000001
  0
LINE
  5
DF
330
15
100
AcDbEntity
  8
L-CENTER
 48
2.0
100
AcDbLine
 10
1013.441032080088
 20
305.6936931665471
 30
0.0
 11
940.8150520800896
 21
305.6936931665471
 31
0.0
  0
LINE
  5
E0
330
15
100
AcDbEntity
  8
4
100
AcDbLine
 10
961.5394200800897
 20
296.6936951665468
 30
0.0
 11
977.128042080089
 21
287.6936971665471
 31
0.0
  0
LINE
  5
E1
330
15
100
AcDbEntity
  8
4
100
AcDbLine
 10
977.128042080089
 20
287.6936971665471
 30
0.0
 11
992.716419080089
 21
296.6936951665468
 31
0.0
  0
CIRCLE
  5
E2
330
15
100
AcDbEntity
  8
4
100
AcDbCircle
 10
977.128042080089
 20
305.6936931665471
 30
0.0
 40
20.000001
  0
LINE
  5
E3
330
15
100
AcDbEntity
  8
4
100
AcDbLine
 10
977.128042080089
 20
323.6936961665472
 30
0.0
 11
961.5394200800897
 21
314.6936981665469
 31
0.0
  0
LINE
  5
E4
330
15
100
AcDbEntity
  8
4
100
AcDbLine
 10
961.5394200800897
 20
296.6936951665468
 30
0.0
 11
961.5394200800897
 21
314.6936981665469
 31
0.0
  0
LINE
  5
E5
330
15
100
AcDbEntity
  8
4
100
AcDbLine
 10
992.716419080089
 20
296.6936951665468
 30
0.0
 11
992.716419080089
 21
314.6936981665469
 31
0.0
  0
LINE
  5
E6
330
15
100
AcDbEntity
  8
4
100
AcDbLine
 10
992.716419080089
 20
314.6936981665469
 30
0.0
 11
977.128042080089
 21
323.6936961665472
 31
0.0
  0
LINE
  5
E7
330
15
100
AcDbEntity
  8
L-CENTER
 48
2.0
100
AcDbLine
 10
940.3433138194655
 20
445.5007472008385
 30
0.0
 11
981.2431024496927
 21
421.8872395753112
 31
0.0
  0
LINE
  5
E8
330
15
100
AcDbEntity
  8
L-CENTER
 48
2.0
100
AcDbLine
 10
1027.73594551212
 20
456.8867902457712
 30
0.0
 11
1068.635733358896
 21
480.5002992282755
 31
0.0
  0
LINE
  5
E9
330
15
100
AcDbEntity
  8
L-CENTER
 48
2.0
100
AcDbLine
 10
1224.520308881259
 20
456.8870920265265
 30
0.0
 11
1183.620519121311
 21
480.5005976953205
 31
0.0
  0
LINE
  5
EA
330
15
100
AcDbEntity
  8
L-CENTER
 48
2.0
100
AcDbLine
 10
940.3429650800895
 20
541.8872451665468
 30
0.0
 11
981.2427567726638
 21
565.5007474879337
 31
0.0
  0
LINE
  5
EB
330
15
100
AcDbEntity
  8
L-CENTER
 48
2.0
100
AcDbLine
 10
1027.735771141503
 20
570.5002980685601
 30
0.0
 11
1068.635562697479
 21
546.8867955105782
 31
0.0
  0
LINE
  5
EC
330
15
100
AcDbEntity
  8
L-CENTER
 48
2.0
100
AcDbLine
 10
1224.520134702388
 20
570.5005999932198
 30
0.0
 11
1183.620346145511
 21
546.887092240647
 31
0.0
  0
LINE
  5
ED
330
15
100
AcDbEntity
  8
4
100
AcDbLine
 10
1431.128036080089
 20
297.6936941665469
 30
0.0
 11
1541.128038080089
 21
297.6936941665469
 31
0.0
  0
LINE
  5
EE
330
15
100
AcDbEntity
  8
4
100
AcDbLine
 10
1421.12803908009
 20
292.6936921665467
 30
0.0
 11
1539.128040080089
 21
292.6936921665467
 31
0.0
  0
LINE
  5
EF
330
15
100
AcDbEntity
  8
4
100
AcDbLine
 10
1421.12803908009
 20
234.6936941665469
 30
0.0
 11
1539.128040080089
 21
234.6936941665469
 31
0.0
  0
LINE
  5
F0
330
15
100
AcDbEntity
  8
4
100
AcDbLine
 10
1406.428041080089
 20
173.6936991665468
 30
0.0
 11
1406.428041080089
 21
353.6936941665469
 31
0.0
  0
LINE
  5
F1
330
15
100
AcDbEntity
  8
4
100
AcDbLine
 10
1388.128037080089
 20
173.6936991665468
 30
0.0
 11
1388.128037080089
 21
353.6936941665469
 31
0.0
  0
LINE
  5
F2
330
15
100
AcDbEntity
  8
2
100
AcDbLine
 10
1388.428037080089
 20
173.6936991665468
 30
0.0
 11
1388.428037080089
 21
353.6936941665469
 31
0.0
  0
ARC
  5
F3
330
15
100
AcDbEntity
  8
4
100
AcDbCircle
 10
1358.12803908009
 20
263.6936931665471
 30
0.0
 40
7.0
100
AcDbArc
 50
0.0
 51
90.0
  0
LINE
  5
F4
330
15
100
AcDbEntity
  8
4
100
AcDbLine
 10
1421.12803908009
 20
231.1936941665469
 30
0.0
 11
1421.12803908009
 21
296.1936921665467
 31
0.0
  0
LINE
  5
F5
330
15
100
AcDbEntity
  8
4
100
AcDbLine
 10
1407.42804008009
 20
308.6936971665471
 30
0.0
 11
1407.42804008009
 21
218.6936961665472
 31
0.0
  0
LINE
  5
F6
330
15
100
AcDbEntity
  8
4
100
AcDbLine
 10
1406.428041080089
 20
173.6936991665468
 30
0.0
 11
1388.128037080089
 21
173.6936991665468
 31
0.0
  0
LINE
  5
F7
330
15
100
AcDbEntity
  8
4
100
AcDbLine
 10
1407.42804008009
 20
231.1936941665469
 30
0.0
 11
1421.12803908009
 21
231.1936941665469
 31
0.0
  0
LINE
  5
F8
330
15
100
AcDbEntity
  8
4
100
AcDbLine
 10
1431.128036080089
 20
297.6936941665469
 30
0.0
 11
1431.128036080089
 21
292.6936921665467
 31
0.0
  0
LINE
  5
F9
330
15
100
AcDbEntity
  8
4
100
AcDbLine
 10
1407.42804008009
 20
308.6936971665471
 30
0.0
 11
1406.428041080089
 21
308.6936971665471
 31
0.0
  0
LINE
  5
FA
330
15
100
AcDbEntity
  8
4
100
AcDbLine
 10
1407.42804008009
 20
296.1936921665467
 30
0.0
 11
1421.12803908009
 21
296.1936921665467
 31
0.0
  0
LINE
  5
FB
330
15
100
AcDbEntity
  8
4
100
AcDbLine
 10
1351.891956080089
 20
358.6936961665472
 30
0.0
 11
1383.128035080089
 21
358.6936961665472
 31
0.0
  0
LINE
  5
FC
330
15
100
AcDbEntity
  8
4
100
AcDbLine
 10
1350.066272080089
 20
353.6936941665469
 30
0.0
 11
1388.128037080089
 21
353.6936941665469
 31
0.0
  0
ARC
  5
FD
330
15
100
AcDbEntity
  8
4
100
AcDbCircle
 10
1351.891956080089
 20
366.6936951665468
 30
0.0
 40
7.999991999999999
100
AcDbArc
 50
160.3258239999976
 51
270.0
  0
ARC
  5
FE
330
15
100
AcDbEntity
  8
4
100
AcDbCircle
 10
1350.066272080089
 20
361.6936931665471
 30
0.0
 40
8.000041
100
AcDbArc
 50
159.5591670000012
 51
270.0
  0
LINE
  5
FF
330
15
100
AcDbEntity
  8
4
100
AcDbLine
 10
1406.428041080089
 20
353.6936941665469
 30
0.0
 11
1388.128034080089
 21
353.6936941665469
 31
0.0
  0
LINE
  5
100
330
15
100
AcDbEntity
  8
4
100
AcDbLine
 10
1541.128038080089
 20
236.6936991665468
 30
0.0
 11
1541.128038080089
 21
297.6936941665469
 31
0.0
  0
LINE
  5
101
330
15
100
AcDbEntity
  8
4
100
AcDbLine
 10
1539.128040080089
 20
292.6936921665467
 30
0.0
 11
1539.128040080089
 21
234.6936941665469
 31
0.0
  0
LINE
  5
102
330
15
100
AcDbEntity
  8
4
100
AcDbLine
 10
1541.128038080089
 20
236.6936991665468
 30
0.0
 11
1539.128040080089
 21
234.6936941665469
 31
0.0
  0
LINE
  5
103
330
15
100
AcDbEntity
  8
4
100
AcDbLine
 10
1539.128040080089
 20
292.6936921665467
 30
0.0
 11
1541.128038080089
 21
290.6936941665469
 31
0.0
  0
LINE
  5
106
330
15
100
AcDbEntity
  8
4
100
AcDbLine
 10
977.128042080089
 20
900.6936931665471
 30
0.0
 11
1007.128040080089
 21
900.6936931665471
 31
0.0
  0
ARC
  5
107
330
15
100
AcDbEntity
  8
4
100
AcDbCircle
 10
977.128042080089
 20
980.693690166547
 30
0.0
 40
9.999996999999999
100
AcDbArc
 50
0.0
 51
180.0
  0
LINE
  5
108
330
15
100
AcDbEntity
  8
4
100
AcDbLine
 10
998.0533310800897
 20
918.6936891665471
 30
0.0
 11
999.6280440800897
 21
900.6936931665471
 31
0.0
  0
ARC
  5
109
330
15
100
AcDbEntity
  8
4
100
AcDbCircle
 10
963.128042080089
 20
908.6936921665467
 30
0.0
 40
4.000003
100
AcDbArc
 50
270.0
 51
0.0
  0
ARC
  5
10A
330
15
100
AcDbEntity
  8
4
100
AcDbCircle
 10
991.128042080089
 20
908.6936921665467
 30
0.0
 40
4.000003
100
AcDbArc
 50
180.0
 51
270.0
  0
LINE
  5
10B
330
15
100
AcDbEntity
  8
4
100
AcDbLine
 10
956.2027460800896
 20
918.6936891665471
 30
0.0
 11
954.6280400800892
 21
900.6936931665471
 31
0.0
  0
LINE
  5
10C
330
15
100
AcDbEntity
  8
4
100
AcDbLine
 10
977.128042080089
 20
900.6936931665471
 30
0.0
 11
947.1280440800897
 21
900.6936931665471
 31
0.0
  0
LINE
  5
10D
330
15
100
AcDbEntity
  8
4
100
AcDbLine
 10
947.1280440800897
 20
897.4432571665468
 30
0.0
 11
947.1280440800897
 21
900.6936931665471
 31
0.0
  0
LINE
  5
10E
330
15
100
AcDbEntity
  8
4
100
AcDbLine
 10
967.1280380800895
 20
908.6936921665467
 30
0.0
 11
967.1280380800895
 21
980.693690166547
 31
0.0
  0
LINE
  5
10F
330
15
100
AcDbEntity
  8
4
100
AcDbLine
 10
987.1280390800898
 20
908.6936921665467
 30
0.0
 11
987.1280390800898
 21
980.693690166547
 31
0.0
  0
LINE
  5
110
330
15
100
AcDbEntity
  8
L-CENTER
 48
2.0
100
AcDbLine
 10
950.3093271763823
 20
945.693690166547
 30
0.0
 11
1003.946756983796
 21
945.693690166547
 31
0.0
  0
LINE
  5
111
330
15
100
AcDbEntity
  8
4
100
AcDbLine
 10
956.2027460800896
 20
918.6936891665471
 30
0.0
 11
967.1280380800895
 21
918.6936891665471
 31
0.0
  0
LINE
  5
112
330
15
100
AcDbEntity
  8
4
100
AcDbLine
 10
967.1280380800895
 20
919.7378791665471
 30
0.0
 11
956.2027460800896
 21
918.6936891665471
 31
0.0
  0
LINE
  5
113
330
15
100
AcDbEntity
  8
4
100
AcDbLine
 10
987.1280390800898
 20
918.6936891665471
 30
0.0
 11
998.0533310800897
 21
918.6936891665471
 31
0.0
  0
LINE
  5
114
330
15
100
AcDbEntity
  8
4
100
AcDbLine
 10
987.1280390800898
 20
919.7378791665471
 30
0.0
 11
998.0533310800897
 21
918.6936891665471
 31
0.0
  0
LINE
  5
115
330
15
100
AcDbEntity
  8
4
100
AcDbLine
 10
1007.128040080089
 20
897.4432571665468
 30
0.0
 11
1007.128040080089
 21
900.6936931665471
 31
0.0
  0
ARC
  5
116
330
15
100
AcDbEntity
  8
4
100
AcDbCircle
 10
1319.27341908009
 20
854.6337001665468
 30
0.0
 40
9.999996999999999
100
AcDbArc
 50
17.30322399999971
 51
78.96179200000134
  0
LINE
  5
117
330
15
100
AcDbEntity
  8
4
100
AcDbLine
 10
2315.211730026813
 20
146.6936981665469
 30
0.0
 11
2315.211730026813
 21
890.6936891665471
 31
0.0
  0
ARC
  5
118
330
15
100
AcDbEntity
  8
4
100
AcDbCircle
 10
9621.208141026815
 20
500.6936941665469
 30
0.0
 40
7599.999952999999
100
AcDbArc
 50
177.3761340000001
 51
182.624778
  0
LINE
  5
119
330
15
100
AcDbEntity
  8
4
100
AcDbLine
 10
2311.211727026813
 20
895.6936911665468
 30
0.0
 11
2311.211727026813
 21
158.6936931665471
 31
0.0
  0
LINE
  5
11A
330
15
100
AcDbEntity
  8
4
100
AcDbLine
 10
2343.211730026813
 20
888.6936911665468
 30
0.0
 11
2343.211730026813
 21
138.6936991665468
 31
0.0
  0
LINE
  5
11B
330
15
100
AcDbEntity
  8
L-CENTER
 48
2.0
100
AcDbLine
 10
2126.211730026812
 20
370.9634641665473
 30
0.0
 11
2126.211730026812
 21
156.4239221665468
 31
0.0
  0
LINE
  5
11C
330
15
100
AcDbEntity
  8
4
100
AcDbLine
 10
2029.181573026813
 20
152.6535401665471
 30
0.0
 11
2029.181573026813
 21
848.6936891665471
 31
0.0
  0
LINE
  5
11D
330
15
100
AcDbEntity
  8
L-CENTER
 48
2.0
100
AcDbLine
 10
2184.211728026813
 20
1002.667565166548
 30
0.0
 11
2184.211728026813
 21
68.11992798448387
 31
0.0
  0
LINE
  5
11E
330
15
100
AcDbEntity
  8
4
100
AcDbLine
 10
2033.211732026813
 20
138.6936991665468
 30
0.0
 11
2033.211732026813
 21
223.7437481665468
 31
0.0
  0
LINE
  5
11F
330
15
100
AcDbEntity
  8
4
100
AcDbLine
 10
2032.176572026814
 20
152.6936991665468
 30
0.0
 11
2032.176572026814
 21
235.9278291665471
 31
0.0
  0
ARC
  5
120
330
15
100
AcDbEntity
  8
4
100
AcDbCircle
 10
2052.211727026813
 20
170.511324166547
 30
0.0
 40
4.999974
100
AcDbArc
 50
0.0
 51
79.47195000000592
  0
TEXT
  5
122
330
15
100
AcDbEntity
  8
3
100
AcDbText
 10
1600.177352782017
 20
75.91498868221379
 30
0.0
 40
24.0
  1
LD9-04
  7
KANJI
100
AcDbText
  0
LINE
  5
123
330
15
100
AcDbEntity
  8
4
100
AcDbLine
 10
2421.211729026813
 20
138.6936991665468
 30
0.0
 11
1947.211727026813
 21
138.6936991665468
 31
0.0
  0
LINE
  5
124
330
15
100
AcDbEntity
  8
4
100
AcDbLine
 10
2424.211726026813
 20
88.69369316654706
 30
0.0
 11
1944.211730026813
 21
88.69369316654706
 31
0.0
  0
LINE
  5
125
330
15
100
AcDbEntity
  8
4
100
AcDbLine
 10
1944.211730026813
 20
88.69369316654706
 30
0.0
 11
1944.211730026813
 21
135.6936951665468
 31
0.0
  0
ARC
  5
126
330
15
100
AcDbEntity
  8
4
100
AcDbCircle
 10
1947.211727026813
 20
135.6936951665468
 30
0.0
 40
2.999997
100
AcDbArc
 50
90.0
 51
180.0
  0
LINE
  5
127
330
15
100
AcDbEntity
  8
L-CENTER
 48
2.0
100
AcDbLine
 10
1994.211729026813
 20
63.69369316654706
 30
0.0
 11
1994.211729026813
 21
163.6936991665468
 31
0.0
  0
ARC
  5
128
330
15
100
AcDbEntity
  8
4
100
AcDbCircle
 10
2037.211728026813
 20
158.6936931665471
 30
0.0
 40
20.000001
100
AcDbArc
 50
270.0006989999989
 51
0.0
  0
LINE
  5
129
330
15
100
AcDbEntity
  8
4
100
AcDbLine
 10
2033.211732026813
 20
152.6936991665468
 30
0.0
 11
2029.179732026813
 21
152.6936991665468
 31
0.0
  0
LINE
  5
12A
330
15
100
AcDbEntity
  8
4
100
AcDbLine
 10
2057.211729026814
 20
170.511324166547
 30
0.0
 11
2057.211729026814
 21
158.6936931665471
 31
0.0
  0
ARC
  5
12B
330
15
100
AcDbEntity
  8
4
100
AcDbCircle
 10
2331.211728026813
 20
158.6936931665471
 30
0.0
 40
20.000001
100
AcDbArc
 50
180.0
 51
270.0006989999989
  0
LINE
  5
12C
330
15
100
AcDbEntity
  8
4
100
AcDbLine
 10
2424.211726026813
 20
88.69369316654706
 30
0.0
 11
2424.211726026813
 21
135.6936951665468
 31
0.0
  0
LINE
  5
12D
330
15
100
AcDbEntity
  8
L-CENTER
 48
2.0
100
AcDbLine
 10
2374.211727026813
 20
63.69369316654706
 30
0.0
 11
2374.211727026813
 21
163.6936991665468
 31
0.0
  0
LINE
  5
12E
330
15
100
AcDbEntity
  8
4
100
AcDbLine
 10
2361.211726026813
 20
138.6936991665468
 30
0.0
 11
2361.211726026813
 21
88.69369316654706
 31
0.0
  0
LINE
  5
12F
330
15
100
AcDbEntity
  8
4
100
AcDbLine
 10
2387.211728026813
 20
138.6936991665468
 30
0.0
 11
2387.211728026813
 21
88.69369316654706
 31
0.0
  0
ARC
  5
130
330
15
100
AcDbEntity
  8
4
100
AcDbCircle
 10
2332.482480026814
 20
94.85629716654717
 30
0.0
 40
7.616209999999999
100
AcDbArc
 50
305.987537999995
 51
30.25471399999766
  0
ARC
  5
131
330
15
100
AcDbEntity
  8
4
100
AcDbCircle
 10
2332.482480026814
 20
94.85629716654717
 30
0.0
 40
7.616209999999999
100
AcDbArc
 50
305.987537999995
 51
30.25471399999766
  0
ARC
  5
132
330
15
100
AcDbEntity
  8
4
100
AcDbCircle
 10
2340.896543026813
 20
134.8562921665468
 30
0.0
 40
7.616209999999999
100
AcDbArc
 50
305.9875319999977
 51
30.25471799999914
  0
ARC
  5
133
330
15
100
AcDbEntity
  8
4
100
AcDbCircle
 10
2340.896543026813
 20
134.8562921665468
 30
0.0
 40
7.616209999999999
100
AcDbArc
 50
305.9875319999977
 51
30.25471799999914
  0
ARC
  5
134
330
15
100
AcDbEntity
  8
4
100
AcDbCircle
 10
2336.689508026813
 20
114.856291166547
 30
0.0
 40
7.616209999999999
100
AcDbArc
 50
305.987538000003
 51
30.25471399999988
  0
ARC
  5
135
330
15
100
AcDbEntity
  8
4
100
AcDbCircle
 10
2336.689508026813
 20
114.856291166547
 30
0.0
 40
7.616209999999999
100
AcDbArc
 50
305.987538000003
 51
30.25471399999988
  0
ARC
  5
136
330
15
100
AcDbEntity
  8
4
100
AcDbCircle
 10
2345.640191026814
 20
102.5310971665469
 30
0.0
 40
7.616209999999999
100
AcDbArc
 50
125.9875430000022
 51
210.2547239999982
  0
ARC
  5
137
330
15
100
AcDbEntity
  8
4
100
AcDbCircle
 10
2345.640191026814
 20
102.5310971665469
 30
0.0
 40
7.616209999999999
100
AcDbArc
 50
125.9875430000022
 51
210.2547239999982
  0
ARC
  5
138
330
15
100
AcDbEntity
  8
4
100
AcDbCircle
 10
2349.847226026813
 20
122.5310981665468
 30
0.0
 40
7.616209999999999
100
AcDbArc
 50
125.9875430000022
 51
210.2547239999974
  0
ARC
  5
139
330
15
100
AcDbEntity
  8
4
100
AcDbCircle
 10
2349.847226026813
 20
122.5310981665468
 30
0.0
 40
7.616209999999999
100
AcDbArc
 50
125.9875430000022
 51
210.2547239999974
  0
ARC
  5
13A
330
15
100
AcDbEntity
  8
4
100
AcDbCircle
 10
2421.211729026813
 20
135.6936951665468
 30
0.0
 40
2.999997
100
AcDbArc
 50
0.0
 51
90.0
  0
LINE
  5
13B
330
15
100
AcDbEntity
  8
L-CENTER
 48
2.0
100
AcDbLine
 10
2576.390683026813
 20
493.6936941665469
 30
0.0
 11
1988.056457593505
 21
493.6936941665469
 31
0.0
  0
LINE
  5
13C
330
15
100
AcDbEntity
  8
4
100
AcDbLine
 10
2033.211732026813
 20
303.643645166547
 30
0.0
 11
2033.211732026813
 21
888.6936911665468
 31
0.0
  0
LINE
  5
13D
330
15
100
AcDbEntity
  8
4
100
AcDbLine
 10
2057.211729026814
 20
356.8760691665468
 30
0.0
 11
2057.211729026814
 21
895.6936911665468
 31
0.0
  0
ARC
  5
13E
330
15
100
AcDbEntity
  8
4
100
AcDbCircle
 10
2126.211730026812
 20
-46.30605983345299
 30
0.0
 40
400.000013
100
AcDbArc
 50
78.70689099999996
 51
101.2931849999999
  0
ARC
  5
13F
330
15
100
AcDbEntity
  8
4
100
AcDbCircle
 10
2126.211730026812
 20
573.6934531665468
 30
0.0
 40
399.999943
100
AcDbArc
 50
258.7073500000001
 51
281.2935410000001
  0
LINE
  5
140
330
15
100
AcDbEntity
  8
L-CENTER
 48
2.0
100
AcDbLine
 10
2018.941959026812
 20
263.6936931665471
 30
0.0
 11
2233.481501026813
 21
263.6936931665471
 31
0.0
  0
CIRCLE
  5
141
330
15
100
AcDbEntity
  8
L-CENTER
 48
2.0
100
AcDbCircle
 10
2126.211730026812
 20
263.6936931665471
 30
0.0
 40
87.5
  0
LINE
  5
142
330
15
100
AcDbEntity
  8
L-CENTER
 48
2.0
100
AcDbLine
 10
2048.468246127777
 20
185.950216267511
 30
0.0
 11
2080.211520218202
 21
217.6934903579365
 31
0.0
  0
LINE
  5
143
330
15
100
AcDbEntity
  8
L-CENTER
 48
2.0
100
AcDbLine
 10
2048.468249627777
 20
341.437173565583
 30
0.0
 11
2080.211523718202
 21
309.6938994751574
 31
0.0
  0
LINE
  5
144
330
15
100
AcDbEntity
  8
4
100
AcDbLine
 10
2012.211732026813
 20
353.6936941665469
 30
0.0
 11
2012.211732026813
 21
633.693694166547
 31
0.0
  0
LINE
  5
145
330
15
100
AcDbEntity
  8
2
100
AcDbLine
 10
2011.911732026813
 20
353.6936941665469
 30
0.0
 11
2011.911732026813
 21
633.693694166547
 31
0.0
  0
LINE
  5
146
330
15
100
AcDbEntity
  8
4
100
AcDbLine
 10
1997.311726026813
 20
632.693694166547
 30
0.0
 11
1997.311726026813
 21
354.6936941665469
 31
0.0
  0
ARC
  5
147
330
15
100
AcDbEntity
  8
4
100
AcDbCircle
 10
2436.211728026813
 20
263.6936931665471
 30
0.0
 40
399.999985
100
AcDbArc
 50
168.707247
 51
191.2931499999999
  0
ARC
  5
148
330
15
100
AcDbEntity
  8
4
100
AcDbCircle
 10
2431.211726026813
 20
263.6936931665471
 30
0.0
 40
400.000069
100
AcDbArc
 50
168.092994
 51
191.9075409999999
  0
ARC
  5
149
330
15
100
AcDbEntity
  8
4
100
AcDbCircle
 10
2044.711241026812
 20
182.192966166547
 30
0.0
 40
4.999939
100
AcDbArc
 50
191.9085390000001
 51
258.091461000005
  0
ARC
  5
14A
330
15
100
AcDbEntity
  8
4
100
AcDbCircle
 10
2048.859679026813
 20
186.3414041665467
 30
0.0
 40
4.999910999999999
100
AcDbArc
 50
191.2945689999995
 51
258.7054310000055
  0
ARC
  5
14B
330
15
100
AcDbEntity
  8
4
100
AcDbCircle
 10
2126.21156414405
 20
568.6926403296627
 30
0.0
 40
399.9991223837034
100
AcDbArc
 50
258.0930282865401
 51
281.9074510154804
  0
LINE
  5
14C
330
15
100
AcDbEntity
  8
L-CENTER
 48
2.0
100
AcDbLine
 10
2039.567123026813
 20
300.6936981665469
 30
0.0
 11
2008.189224026813
 21
300.6936981665469
 31
0.0
  0
LINE
  5
14D
330
15
100
AcDbEntity
  8
4
100
AcDbLine
 10
2021.837215026813
 20
320.6936921665467
 30
0.0
 11
2021.837215026813
 21
280.6936971665471
 31
0.0
  0
LINE
  5
14E
330
15
100
AcDbEntity
  8
4
100
AcDbLine
 10
2013.337220026813
 20
282.6936951665468
 30
0.0
 11
2013.337220026813
 21
318.6936941665469
 31
0.0
  0
LINE
  5
14F
330
15
100
AcDbEntity
  8
4
100
AcDbLine
 10
2021.837215026813
 20
283.6936941665469
 30
0.0
 11
2021.837215026813
 21
317.6936951665468
 31
0.0
  0
LINE
  5
150
330
15
100
AcDbEntity
  8
4
100
AcDbLine
 10
2020.337220026813
 20
282.6936951665468
 30
0.0
 11
2020.337220026813
 21
318.6936941665469
 31
0.0
  0
LINE
  5
151
330
15
100
AcDbEntity
  8
4
100
AcDbLine
 10
2018.337215026813
 20
282.6936951665468
 30
0.0
 11
2018.337215026813
 21
318.6936941665469
 31
0.0
  0
LINE
  5
152
330
15
100
AcDbEntity
  8
4
100
AcDbLine
 10
2018.337215026813
 20
291.6936931665471
 30
0.0
 11
2013.337220026813
 21
291.6936931665471
 31
0.0
  0
LINE
  5
153
330
15
100
AcDbEntity
  8
4
100
AcDbLine
 10
2020.337220026813
 20
282.6936951665468
 30
0.0
 11
2013.337220026813
 21
282.6936951665468
 31
0.0
  0
LINE
  5
154
330
15
100
AcDbEntity
  8
4
100
AcDbLine
 10
2024.393062026812
 20
280.6936971665471
 30
0.0
 11
2021.837215026813
 21
280.6936971665471
 31
0.0
  0
LINE
  5
155
330
15
100
AcDbEntity
  8
4
100
AcDbLine
 10
2020.337220026813
 20
283.6936941665469
 30
0.0
 11
2021.837215026813
 21
283.6936941665469
 31
0.0
  0
LINE
  5
156
330
15
100
AcDbEntity
  8
4
100
AcDbLine
 10
2018.337215026813
 20
309.6936961665472
 30
0.0
 11
2013.337220026813
 21
309.6936961665472
 31
0.0
  0
LINE
  5
157
330
15
100
AcDbEntity
  8
4
100
AcDbLine
 10
2020.337220026813
 20
318.6936941665469
 30
0.0
 11
2013.337220026813
 21
318.6936941665469
 31
0.0
  0
LINE
  5
158
330
15
100
AcDbEntity
  8
4
100
AcDbLine
 10
2021.837215026813
 20
320.6936921665467
 30
0.0
 11
2023.340059026813
 21
320.6936921665467
 31
0.0
  0
LINE
  5
159
330
15
100
AcDbEntity
  8
4
100
AcDbLine
 10
2021.837215026813
 20
317.6936951665468
 30
0.0
 11
2020.337220026813
 21
317.6936951665468
 31
0.0
  0
LINE
  5
15A
330
15
100
AcDbEntity
  8
4
100
AcDbLine
 10
1998.311726026813
 20
353.6936941665469
 30
0.0
 11
2012.211732026813
 21
353.6936941665469
 31
0.0
  0
LINE
  5
15B
330
15
100
AcDbEntity
  8
4
100
AcDbLine
 10
1998.311726026813
 20
403.6936931665471
 30
0.0
 11
2012.211732026813
 21
403.6936931665471
 31
0.0
  0
ARC
  5
15C
330
15
100
AcDbEntity
  8
4
100
AcDbCircle
 10
2044.711241026812
 20
345.1944271665473
 30
0.0
 40
4.999939
100
AcDbArc
 50
101.908538999995
 51
168.091461000005
  0
LINE
  5
15D
330
15
100
AcDbEntity
  8
4
100
AcDbLine
 10
2022.629958026813
 20
353.6936941665469
 30
0.0
 11
2012.211732026813
 21
353.6936941665469
 31
0.0
  0
ARC
  5
15E
330
15
100
AcDbEntity
  8
4
100
AcDbCircle
 10
2052.211727026813
 20
356.8760691665468
 30
0.0
 40
4.999974
100
AcDbArc
 50
280.5280519999891
 51
0.0
  0
ARC
  5
15F
330
15
100
AcDbEntity
  8
4
100
AcDbCircle
 10
2048.859679026813
 20
341.0459891665471
 30
0.0
 40
4.999910999999999
100
AcDbArc
 50
101.2945689999944
 51
168.7054310000005
  0
ARC
  5
160
330
15
100
AcDbEntity
  8
4
100
AcDbCircle
 10
2126.211462365901
 20
-41.30474956161811
 30
0.0
 40
399.9986566525608
100
AcDbArc
 50
78.09252001788643
 51
101.9074731511712
  0
LINE
  5
161
330
15
100
AcDbEntity
  8
4
100
AcDbLine
 10
2012.211732026813
 20
403.6936931665471
 30
0.0
 11
2021.827219026813
 21
403.6936931665471
 31
0.0
  0
LINE
  5
162
330
15
100
AcDbEntity
  8
4
100
AcDbLine
 10
1998.311726026813
 20
623.693690166547
 30
0.0
 11
2012.211732026813
 21
623.693690166547
 31
0.0
  0
LINE
  5
163
330
15
100
AcDbEntity
  8
4
100
AcDbLine
 10
1998.311726026813
 20
633.693694166547
 30
0.0
 11
2012.211732026813
 21
633.693694166547
 31
0.0
  0
LINE
  5
164
330
15
100
AcDbEntity
  8
4
100
AcDbLine
 10
2022.372022026813
 20
633.693694166547
 30
0.0
 11
2012.211732026813
 21
633.693694166547
 31
0.0
  0
LINE
  5
165
330
15
100
AcDbEntity
  8
4
100
AcDbLine
 10
2022.203574026812
 20
623.693690166547
 30
0.0
 11
2012.211732026813
 21
623.693690166547
 31
0.0
  0
LINE
  5
166
330
15
100
AcDbEntity
  8
4
100
AcDbLine
 10
2356.211724026813
 20
353.6936941665469
 30
0.0
 11
2356.211724026813
 21
633.693694166547
 31
0.0
  0
LINE
  5
167
330
15
100
AcDbEntity
  8
2
100
AcDbLine
 10
2356.511724026813
 20
353.6936941665469
 30
0.0
 11
2356.511724026813
 21
633.693694166547
 31
0.0
  0
ARC
  5
168
330
15
100
AcDbEntity
  8
4
100
AcDbCircle
 10
-5252.785055973187
 20
500.6936941665469
 30
0.0
 40
7599.999925
100
AcDbArc
 50
358.1402670000001
 51
1.859732999999974
  0
LINE
  5
169
330
15
100
AcDbEntity
  8
4
100
AcDbLine
 10
2371.111730026813
 20
354.6936941665469
 30
0.0
 11
2371.111730026813
 21
632.693694166547
 31
0.0
  0
LINE
  5
16A
330
15
100
AcDbEntity
  8
4
100
AcDbLine
 10
2372.111730026813
 20
444.6636485026777
 30
0.0
 11
2372.111730026813
 21
457.7238896224196
 31
0.0
  0
LINE
  5
16B
330
15
100
AcDbEntity
  8
4
100
AcDbLine
 10
2372.111729026813
 20
479.6631998516257
 30
0.0
 11
2372.111729026813
 21
542.7243412126365
 31
0.0
  0
LINE
  5
16C
330
15
100
AcDbEntity
  8
4
100
AcDbLine
 10
2386.211729026813
 20
438.6936931665471
 30
0.0
 11
2386.211729026813
 21
548.6936951665468
 31
0.0
  0
LINE
  5
16D
330
15
100
AcDbEntity
  8
4
100
AcDbLine
 10
2564.211726026813
 20
546.193694166547
 30
0.0
 11
2564.211726026813
 21
441.1936941665469
 31
0.0
  0
LINE
  5
16E
330
15
100
AcDbEntity
  8
4
100
AcDbLine
 10
2566.211724026813
 20
443.1936921665467
 30
0.0
 11
2566.211724026813
 21
555.1936921665467
 31
0.0
  0
ARC
  5
16F
330
15
100
AcDbEntity
  8
4
100
AcDbCircle
 10
1816.211732026813
 20
263.6936931665471
 30
0.0
 40
399.999894
100
AcDbArc
 50
348.7075629999999
 51
11.29315000000009
  0
LINE
  5
170
330
15
100
AcDbEntity
  8
L-CENTER
 48
2.0
100
AcDbLine
 10
2172.211933258165
 20
309.6939025524155
 30
0.0
 11
2203.955211103584
 21
341.4371728878457
 31
0.0
  0
LINE
  5
171
330
15
100
AcDbEntity
  8
L-CENTER
 48
2.0
100
AcDbLine
 10
2172.211936335423
 20
217.6934868579372
 30
0.0
 11
2203.955210425848
 21
185.9502127675116
 31
0.0
  0
CIRCLE
  5
172
330
15
100
AcDbEntity
  8
4
100
AcDbCircle
 10
2126.211730026812
 20
263.6936931665471
 30
0.0
 40
44.999997
  0
ARC
  5
173
330
15
100
AcDbEntity
  8
4
100
AcDbCircle
 10
2126.211730026812
 20
263.6936931665471
 30
0.0
 40
29.000034
100
AcDbArc
 50
104.988214999998
 51
75.01178499999833
  0
LINE
  5
174
330
15
100
AcDbEntity
  8
4
100
AcDbLine
 10
2118.711727026813
 20
297.6936941665469
 30
0.0
 11
2118.711727026813
 21
287.6936971665471
 31
0.0
  0
LINE
  5
175
330
15
100
AcDbEntity
  8
4
100
AcDbLine
 10
2133.711726026813
 20
287.6936971665471
 30
0.0
 11
2133.711726026813
 21
297.6936941665469
 31
0.0
  0
LINE
  5
176
330
15
100
AcDbEntity
  8
4
100
AcDbLine
 10
2133.711726026813
 20
287.6936971665471
 30
0.0
 11
2118.711727026813
 21
287.6936971665471
 31
0.0
  0
LINE
  5
177
330
15
100
AcDbEntity
  8
4
100
AcDbLine
 10
2133.711726026813
 20
297.6936941665469
 30
0.0
 11
2118.711727026813
 21
297.6936941665469
 31
0.0
  0
ARC
  5
178
330
15
100
AcDbEntity
  8
4
100
AcDbCircle
 10
2203.563781026813
 20
186.3414041665467
 30
0.0
 40
4.999910999999999
100
AcDbArc
 50
281.2945689999945
 51
348.7054310000055
  0
ARC
  5
179
330
15
100
AcDbEntity
  8
4
100
AcDbCircle
 10
2203.563781026813
 20
341.0459891665471
 30
0.0
 40
4.999910999999999
100
AcDbArc
 50
11.29456899999443
 51
78.70543100000558
  0
LINE
  5
17A
330
15
100
AcDbEntity
  8
4
100
AcDbLine
 10
2386.211729026813
 20
441.1936941665469
 30
0.0
 11
2564.211726026813
 21
441.1936941665469
 31
0.0
  0
LINE
  5
17B
330
15
100
AcDbEntity
  8
4
100
AcDbLine
 10
2345.793099026814
 20
353.6936941665469
 30
0.0
 11
2356.211724026813
 21
353.6936941665469
 31
0.0
  0
LINE
  5
17C
330
15
100
AcDbEntity
  8
4
100
AcDbLine
 10
2370.111730026813
 20
353.6936941665469
 30
0.0
 11
2356.211724026813
 21
353.6936941665469
 31
0.0
  0
LINE
  5
17D
330
15
100
AcDbEntity
  8
4
100
AcDbLine
 10
2356.211724026813
 20
403.6936931665471
 30
0.0
 11
2346.595838026813
 21
403.6936931665471
 31
0.0
  0
LINE
  5
17E
330
15
100
AcDbEntity
  8
4
100
AcDbLine
 10
2370.111730026813
 20
403.6936931665471
 30
0.0
 11
2356.211724026813
 21
403.6936931665471
 31
0.0
  0
LINE
  5
17F
330
15
100
AcDbEntity
  8
4
100
AcDbLine
 10
2382.111730026812
 20
438.6936931665471
 30
0.0
 11
2386.211729026813
 21
438.6936931665471
 31
0.0
  0
LINE
  5
180
330
15
100
AcDbEntity
  8
4
100
AcDbLine
 10
2372.111729026813
 20
423.6936941665469
 30
0.0
 11
2371.111730026813
 21
423.6936941665469
 31
0.0
  0
LINE
  5
181
330
15
100
AcDbEntity
  8
4
100
AcDbLine
 10
2566.211724026813
 20
443.1936921665467
 30
0.0
 11
2564.211726026813
 21
441.1936941665469
 31
0.0
  0
LINE
  5
182
330
15
100
AcDbEntity
  8
4
100
AcDbLine
 10
2386.211729026813
 20
546.193694166547
 30
0.0
 11
2564.211726026813
 21
546.193694166547
 31
0.0
  0
LINE
  5
183
330
15
100
AcDbEntity
  8
4
100
AcDbLine
 10
2566.211724026813
 20
555.1936921665467
 30
0.0
 11
2396.211726026813
 21
555.1936921665467
 31
0.0
  0
LINE
  5
184
330
15
100
AcDbEntity
  8
4
100
AcDbLine
 10
2382.111730026812
 20
548.6936951665468
 30
0.0
 11
2386.211729026813
 21
548.6936951665468
 31
0.0
  0
LINE
  5
185
330
15
100
AcDbEntity
  8
4
100
AcDbLine
 10
2396.211726026813
 20
546.193694166547
 30
0.0
 11
2396.211726026813
 21
555.1936921665467
 31
0.0
  0
LINE
  5
186
330
15
100
AcDbEntity
  8
4
100
AcDbLine
 10
2346.219483026812
 20
623.693690166547
 30
0.0
 11
2356.211724026813
 21
623.693690166547
 31
0.0
  0
LINE
  5
187
330
15
100
AcDbEntity
  8
4
100
AcDbLine
 10
2346.051035026814
 20
633.693694166547
 30
0.0
 11
2356.211724026813
 21
633.693694166547
 31
0.0
  0
LINE
  5
188
330
15
100
AcDbEntity
  8
4
100
AcDbLine
 10
2370.111730026813
 20
623.693690166547
 30
0.0
 11
2356.211724026813
 21
623.693690166547
 31
0.0
  0
LINE
  5
189
330
15
100
AcDbEntity
  8
4
100
AcDbLine
 10
2370.111730026813
 20
633.693694166547
 30
0.0
 11
2356.211724026813
 21
633.693694166547
 31
0.0
  0
LINE
  5
18A
330
15
100
AcDbEntity
  8
4
100
AcDbLine
 10
2564.211726026813
 20
546.193694166547
 30
0.0
 11
2566.211724026813
 21
544.1936961665472
 31
0.0
  0
LINE
  5
18B
330
15
100
AcDbEntity
  8
4
100
AcDbLine
 10
2309.211729026813
 20
897.6936891665471
 30
0.0
 11
2059.211727026813
 21
897.6936891665471
 31
0.0
  0
LINE
  5
18C
330
15
100
AcDbEntity
  8
4
100
AcDbLine
 10
2029.179732026813
 20
848.6936891665471
 30
0.0
 11
2033.211732026813
 21
848.6936891665471
 31
0.0
  0
LINE
  5
18D
330
15
100
AcDbEntity
  8
4
100
AcDbLine
 10
2035.211730026813
 20
890.6936891665471
 30
0.0
 11
2057.211729026814
 21
890.6936891665471
 31
0.0
  0
ARC
  5
18E
330
15
100
AcDbEntity
  8
4
100
AcDbCircle
 10
2035.211730026813
 20
888.6936911665468
 30
0.0
 40
1.999998
100
AcDbArc
 50
90.0
 51
180.0
  0
ARC
  5
18F
330
15
100
AcDbEntity
  8
4
100
AcDbCircle
 10
2059.211727026813
 20
895.6936911665468
 30
0.0
 40
1.999998
100
AcDbArc
 50
90.0
 51
180.0
  0
LINE
  5
190
330
15
100
AcDbEntity
  8
4
100
AcDbLine
 10
2341.211725026812
 20
890.6936891665471
 30
0.0
 11
2315.211730026813
 21
890.6936891665471
 31
0.0
  0
ARC
  5
191
330
15
100
AcDbEntity
  8
4
100
AcDbCircle
 10
2184.211728026813
 20
945.693690166547
 30
0.0
 40
45.000025
100
AcDbArc
 50
299.2650449999991
 51
240.7363439999996
  0
LINE
  5
192
330
15
100
AcDbEntity
  8
4
100
AcDbLine
 10
2242.211726026813
 20
900.6936931665471
 30
0.0
 11
2126.211730026812
 21
900.6936931665471
 31
0.0
  0
LINE
  5
193
330
15
100
AcDbEntity
  8
L-CENTER
 48
2.0
100
AcDbLine
 10
2127.237853026813
 20
945.693690166547
 30
0.0
 11
2241.185603026814
 21
945.693690166547
 31
0.0
  0
CIRCLE
  5
194
330
15
100
AcDbEntity
  8
4
100
AcDbCircle
 10
2184.211728026813
 20
945.693690166547
 30
0.0
 40
25.000003
  0
LINE
  5
195
330
15
100
AcDbEntity
  8
4
100
AcDbLine
 10
2205.137262026813
 20
918.6936891665471
 30
0.0
 11
2163.286677026813
 21
918.6936891665471
 31
0.0
  0
LINE
  5
196
330
15
100
AcDbEntity
  8
4
100
AcDbLine
 10
2184.211728026813
 20
920.693694166547
 30
0.0
 11
2205.137262026813
 21
918.6936891665471
 31
0.0
  0
LINE
  5
197
330
15
100
AcDbEntity
  8
4
100
AcDbLine
 10
2162.211729026813
 20
900.6936931665471
 30
0.0
 11
2206.211727026813
 21
900.6936931665471
 31
0.0
  0
LINE
  5
198
330
15
100
AcDbEntity
  8
4
100
AcDbLine
 10
2206.211727026813
 20
900.6936931665471
 30
0.0
 11
2162.211729026813
 21
900.6936931665471
 31
0.0
  0
LINE
  5
199
330
15
100
AcDbEntity
  8
4
100
AcDbLine
 10
2163.286677026813
 20
918.6936891665471
 30
0.0
 11
2161.711726026813
 21
900.6936931665471
 31
0.0
  0
LINE
  5
19A
330
15
100
AcDbEntity
  8
4
100
AcDbLine
 10
2126.211730026812
 20
897.6936891665471
 30
0.0
 11
2126.211730026812
 21
900.6936931665471
 31
0.0
  0
LINE
  5
19B
330
15
100
AcDbEntity
  8
4
100
AcDbLine
 10
2161.211730026813
 20
902.6936911665468
 30
0.0
 11
2161.211730026813
 21
906.693694166547
 31
0.0
  0
LINE
  5
19C
330
15
100
AcDbEntity
  8
4
100
AcDbLine
 10
2161.211730026813
 20
902.6936911665468
 30
0.0
 11
2161.886775026812
 21
902.6936911665468
 31
0.0
  0
LINE
  5
19D
330
15
100
AcDbEntity
  8
4
100
AcDbLine
 10
2161.211730026813
 20
906.693694166547
 30
0.0
 11
2161.761776026813
 21
906.693694166547
 31
0.0
  0
LINE
  5
19E
330
15
100
AcDbEntity
  8
4
100
AcDbLine
 10
2163.286677026813
 20
918.6936891665471
 30
0.0
 11
2184.211728026813
 21
920.693694166547
 31
0.0
  0
LINE
  5
19F
330
15
100
AcDbEntity
  8
4
100
AcDbLine
 10
2205.137262026813
 20
918.6936891665471
 30
0.0
 11
2206.711975026813
 21
900.6936931665471
 31
0.0
  0
LINE
  5
1A0
330
15
100
AcDbEntity
  8
4
100
AcDbLine
 10
2207.211726026813
 20
902.6936911665468
 30
0.0
 11
2207.211726026813
 21
906.693694166547
 31
0.0
  0
LINE
  5
1A1
330
15
100
AcDbEntity
  8
4
100
AcDbLine
 10
2206.536926026813
 20
902.6936911665468
 30
0.0
 11
2207.211726026813
 21
902.6936911665468
 31
0.0
  0
LINE
  5
1A2
330
15
100
AcDbEntity
  8
4
100
AcDbLine
 10
2206.661680026813
 20
906.693694166547
 30
0.0
 11
2207.211726026813
 21
906.693694166547
 31
0.0
  0
LINE
  5
1A3
330
15
100
AcDbEntity
  8
4
100
AcDbLine
 10
2242.211726026813
 20
897.6936891665471
 30
0.0
 11
2242.211726026813
 21
900.6936931665471
 31
0.0
  0
LINE
  5
1A4
330
15
100
AcDbEntity
  8
4
100
AcDbLine
 10
2311.211727026813
 20
890.6936891665471
 30
0.0
 11
2315.211730026813
 21
890.6936891665471
 31
0.0
  0
ARC
  5
1A5
330
15
100
AcDbEntity
  8
4
100
AcDbCircle
 10
2309.211729026813
 20
895.6936911665468
 30
0.0
 40
1.999998
100
AcDbArc
 50
0.0
 51
90.0
  0
ARC
  5
1A6
330
15
100
AcDbEntity
  8
4
100
AcDbCircle
 10
2341.211725026812
 20
888.6936911665468
 30
0.0
 40
1.999998
100
AcDbArc
 50
0.0
 51
90.0
  0
LINE
  5
1A9
330
15
100
AcDbEntity
  8
L-CENTER
 48
2.0
100
AcDbLine
 10
556.8600114979663
 20
1538.246297076861
 30
0.0
 11
1397.396072662212
 21
1538.246297076861
 31
0.0
  0
LINE
  5
1AA
330
15
100
AcDbEntity
  8
4
100
AcDbLine
 10
587.128042080089
 20
1669.246297076861
 30
0.0
 11
1367.128042080089
 21
1669.246297076861
 31
0.0
  0
LINE
  5
1AB
330
15
100
AcDbEntity
  8
4
100
AcDbLine
 10
716.5380420800893
 20
1366.246297076861
 30
0.0
 11
996.5380420800889
 21
1366.246297076861
 31
0.0
  0
ARC
  5
1AC
330
15
100
AcDbEntity
  8
4
100
AcDbCircle
 10
977.128042080089
 20
8975.274748024603
 30
0.0
 40
7600.0
100
AcDbArc
 50
267.375538758927
 51
272.624461241073
  0
LINE
  5
1AD
330
15
100
AcDbEntity
  8
4
100
AcDbLine
 10
571.1280420800895
 20
1313.246297076861
 30
0.0
 11
571.1280420800886
 21
1763.246297076861
 31
0.0
  0
LINE
  5
1AE
330
15
100
AcDbEntity
  8
4
100
AcDbLine
 10
566.1280420800895
 20
1390.246297076861
 30
0.0
 11
566.1280420800895
 21
1570.246297076861
 31
0.0
  0
LINE
  5
1AF
330
15
100
AcDbEntity
  8
2
100
AcDbLine
 10
565.8280420800895
 20
1390.246297076861
 30
0.0
 11
565.8280420800895
 21
1570.246297076861
 31
0.0
  0
LINE
  5
1B0
330
15
100
AcDbEntity
  8
4
100
AcDbLine
 10
587.1280420800895
 20
1409.246297076861
 30
0.0
 11
587.1280420800895
 21
1389.24629707686
 31
0.0
  0
ARC
  5
1B1
330
15
100
AcDbEntity
  8
4
100
AcDbCircle
 10
977.128042080089
 20
8975.274748024603
 30
0.0
 40
7604.0
100
AcDbArc
 50
267.3769202932932
 51
272.6230797067068
  0
LINE
  5
1B2
330
15
100
AcDbEntity
  8
4
100
AcDbLine
 10
763.4364935249419
 20
1298.246297076861
 30
0.0
 11
586.1280420800895
 21
1298.246297076861
 31
0.0
  0
LINE
  5
1B3
330
15
100
AcDbEntity
  8
L-CENTER
 48
2.0
100
AcDbLine
 10
692.1280420800886
 20
1348.246297076861
 30
0.0
 11
622.1280420800886
 21
1348.246297076861
 31
0.0
  0
ARC
  5
1B4
330
15
100
AcDbEntity
  8
4
100
AcDbCircle
 10
586.1280420800895
 20
1313.246297076861
 30
0.0
 40
15.0
100
AcDbArc
 50
180.0
 51
270.0
  0
LINE
  5
1B5
330
15
100
AcDbEntity
  8
4
100
AcDbLine
 10
589.1280420800895
 20
1387.24629707686
 30
0.0
 11
1365.128042080089
 21
1387.24629707686
 31
0.0
  0
LINE
  5
1B6
330
15
100
AcDbEntity
  8
4
100
AcDbLine
 10
571.1280420800895
 20
1385.246297076859
 30
0.0
 11
628.9564692048198
 21
1385.24629707686
 31
0.0
  0
LINE
  5
1B7
330
15
100
AcDbEntity
  8
4
100
AcDbLine
 10
591.1280420800895
 20
1348.246297076861
 30
0.0
 11
591.1280420800895
 21
1382.246297076859
 31
0.0
  0
LINE
  5
1B8
330
15
100
AcDbEntity
  8
4
100
AcDbLine
 10
594.1280420800895
 20
1348.246297076861
 30
0.0
 11
594.1280420800895
 21
1382.24629707686
 31
0.0
  0
LINE
  5
1B9
330
15
100
AcDbEntity
  8
4
100
AcDbLine
 10
594.1280420800895
 20
1348.246297076861
 30
0.0
 11
571.1280420800895
 21
1348.246297076861
 31
0.0
  0
ARC
  5
1BA
330
15
100
AcDbEntity
  8
4
100
AcDbCircle
 10
594.1280420800895
 20
1382.246297076859
 30
0.0
 40
3.0
100
AcDbArc
 50
90.0
 51
180.0
  0
ARC
  5
1BB
330
15
100
AcDbEntity
  8
4
100
AcDbCircle
 10
589.1280420800895
 20
1389.24629707686
 30
0.0
 40
2.0
100
AcDbArc
 50
180.0
 51
270.0
  0
LINE
  5
1BC
330
15
100
AcDbEntity
  8
4
100
AcDbLine
 10
566.1280420800895
 20
1390.246297076861
 30
0.0
 11
571.1280420800886
 21
1385.246297076861
 31
0.0
  0
ARC
  5
1BD
330
15
100
AcDbEntity
  8
4
100
AcDbCircle
 10
597.1280420800895
 20
1382.24629707686
 30
0.0
 40
3.0
100
AcDbArc
 50
90.0
 51
180.0
  0
LINE
  5
1BE
330
15
100
AcDbEntity
  8
L-CENTER
 48
2.0
100
AcDbLine
 10
657.1280420800886
 20
1313.246297076861
 30
0.0
 11
657.1280420800877
 21
1383.246297076861
 31
0.0
  0
CIRCLE
  5
1BF
330
15
100
AcDbEntity
  8
4
100
AcDbCircle
 10
657.1280420800886
 20
1348.246297076861
 30
0.0
 40
13.0
  0
LINE
  5
1C0
330
15
100
AcDbEntity
  8
4
100
AcDbLine
 10
629.1280420800895
 20
1384.24629707686
 30
0.0
 11
629.1280420800895
 21
1379.242099332262
 31
0.0
  0
ARC
  5
1C1
330
15
100
AcDbEntity
  8
4
100
AcDbCircle
 10
626.1280420800895
 20
1384.24629707686
 30
0.0
 40
3.0
100
AcDbArc
 50
0.0
 51
90.0
  0
LINE
  5
1C2
330
15
100
AcDbEntity
  8
4
100
AcDbLine
 10
785.2253872128324
 20
1351.346297076862
 30
0.0
 11
773.1016763108569
 21
1305.680319346088
 31
0.0
  0
ARC
  5
1C3
330
15
100
AcDbEntity
  8
4
100
AcDbCircle
 10
763.4364935249419
 20
1308.246297076861
 30
0.0
 40
10.0
100
AcDbArc
 50
270.0
 51
345.1317186415046
  0
ARC
  5
1C4
330
15
100
AcDbEntity
  8
4
100
AcDbCircle
 10
711.5380420800893
 20
1370.911332728095
 30
0.0
 40
5.0
100
AcDbArc
 50
0.0
 51
87.99970065370903
  0
LINE
  5
1C5
330
15
100
AcDbEntity
  8
4
100
AcDbLine
 10
716.5380420800893
 20
1366.246297076861
 30
0.0
 11
716.5380420800893
 21
1370.911332728095
 31
0.0
  0
ARC
  5
1C6
330
15
100
AcDbEntity
  8
4
100
AcDbCircle
 10
585.1280420800895
 20
1409.246297076861
 30
0.0
 40
2.0
100
AcDbArc
 50
0.0
 51
90.0
  0
LINE
  5
1C7
330
15
100
AcDbEntity
  8
4
100
AcDbLine
 10
573.1280420800895
 20
1411.24629707686
 30
0.0
 11
1381.128042080089
 21
1411.24629707689
 31
0.0
  0
ARC
  5
1C8
330
15
100
AcDbEntity
  8
4
100
AcDbCircle
 10
573.1280420800895
 20
1413.24629707686
 30
0.0
 40
2.0
100
AcDbArc
 50
180.0
 51
270.0
  0
LINE
  5
1C9
330
15
100
AcDbEntity
  8
4
100
AcDbLine
 10
594.1280420800886
 20
1697.546297076861
 30
0.0
 11
594.1280420800886
 21
1728.246297076861
 31
0.0
  0
LINE
  5
1CA
330
15
100
AcDbEntity
  8
4
100
AcDbLine
 10
591.1280420800886
 20
1697.546297076861
 30
0.0
 11
591.1280420800886
 21
1728.246297076861
 31
0.0
  0
CIRCLE
  5
1CB
330
15
100
AcDbEntity
  8
4
100
AcDbCircle
 10
657.1280420800886
 20
1728.246297076861
 30
0.0
 40
13.0
  0
LINE
  5
1CC
330
15
100
AcDbEntity
  8
L-CENTER
 48
2.0
100
AcDbLine
 10
657.1280420800886
 20
1763.246297076861
 30
0.0
 11
657.1280420800877
 21
1693.246297076861
 31
0.0
  0
LINE
  5
1CD
330
15
100
AcDbEntity
  8
4
100
AcDbLine
 10
774.0884934262399
 20
1767.095263673024
 30
0.0
 11
785.1457411951324
 21
1725.446297076862
 31
0.0
  0
LINE
  5
1CE
330
15
100
AcDbEntity
  8
4
100
AcDbLine
 10
566.1280420800895
 20
1570.246297076861
 30
0.0
 11
571.1280420800886
 21
1575.246297076861
 31
0.0
  0
ARC
  5
1CF
330
15
100
AcDbEntity
  8
4
100
AcDbCircle
 10
573.1280420800895
 20
1663.246297076861
 30
0.0
 40
2.0
100
AcDbArc
 50
90.0
 51
180.0
  0
LINE
  5
1D0
330
15
100
AcDbEntity
  8
4
100
AcDbLine
 10
573.1280420800895
 20
1665.246297076861
 30
0.0
 11
1381.128042080089
 21
1665.246297076861
 31
0.0
  0
LINE
  5
1D1
330
15
100
AcDbEntity
  8
4
100
AcDbLine
 10
586.1280420800886
 20
1778.246297076861
 30
0.0
 11
759.5907192473665
 21
1778.246297076861
 31
0.0
  0
LINE
  5
1D2
330
15
100
AcDbEntity
  8
L-CENTER
 48
2.0
100
AcDbLine
 10
692.1280420800886
 20
1728.246297076861
 30
0.0
 11
622.1280420800886
 21
1728.246297076861
 31
0.0
  0
LINE
  5
1D3
330
15
100
AcDbEntity
  8
4
100
AcDbLine
 10
594.1280420800886
 20
1728.246297076861
 30
0.0
 11
571.1280420800886
 21
1728.24629707686
 31
0.0
  0
ARC
  5
1D4
330
15
100
AcDbEntity
  8
4
100
AcDbCircle
 10
586.1280420800886
 20
1763.246297076861
 30
0.0
 40
15.0
100
AcDbArc
 50
90.0
 51
180.0
  0
ARC
  5
1D5
330
15
100
AcDbEntity
  8
4
100
AcDbCircle
 10
759.5907192473665
 20
1763.246297076861
 30
0.0
 40
15.0
100
AcDbArc
 50
14.86828135850259
 51
90.0
  0
LINE
  5
1D6
330
15
100
AcDbEntity
  8
L-CENTER
 48
2.0
100
AcDbLine
 10
1262.128042080091
 20
1728.246297076861
 30
0.0
 11
1332.128042080091
 21
1728.246297076861
 31
0.0
  0
CIRCLE
  5
1D7
330
15
100
AcDbEntity
  8
4
100
AcDbCircle
 10
1297.128042080091
 20
1728.246297076861
 30
0.0
 40
13.0
  0
LINE
  5
1D8
330
15
100
AcDbEntity
  8
4
100
AcDbLine
 10
1368.128042080089
 20
1778.246297076861
 30
0.0
 11
1194.665364912812
 21
1778.246297076861
 31
0.0
  0
CIRCLE
  5
1D9
330
15
100
AcDbEntity
  8
4
100
AcDbCircle
 10
1297.128042080091
 20
1348.246297076861
 30
0.0
 40
13.0
  0
LINE
  5
1DA
330
15
100
AcDbEntity
  8
L-CENTER
 48
2.0
100
AcDbLine
 10
1262.128042080091
 20
1348.246297076861
 30
0.0
 11
1332.128042080091
 21
1348.246297076861
 31
0.0
  0
LINE
  5
1DB
330
15
100
AcDbEntity
  8
4
100
AcDbLine
 10
1190.819590635238
 20
1298.246297076861
 30
0.0
 11
1368.128042080089
 21
1298.246297076861
 31
0.0
  0
LINE
  5
1DC
330
15
100
AcDbEntity
  8
L-CENTER
 48
2.0
100
AcDbLine
 10
977.128042080089
 20
1716.815027705516
 30
0.0
 11
977.128042080089
 21
1359.677566448207
 31
0.0
  0
LINE
  5
1DD
330
15
100
AcDbEntity
  8
4
100
AcDbLine
 10
587.128042080089
 20
1695.546297076861
 30
0.0
 11
587.128042080089
 21
1665.246297076861
 31
0.0
  0
LINE
  5
1DE
330
15
100
AcDbEntity
  8
4
100
AcDbLine
 10
1367.128042080089
 20
1695.546297076861
 30
0.0
 11
1367.128042080089
 21
1665.246297076861
 31
0.0
  0
LINE
  5
1DF
330
15
100
AcDbEntity
  8
4
100
AcDbLine
 10
1016.538042080089
 20
1366.246297076861
 30
0.0
 11
1236.538042080089
 21
1366.246297076861
 31
0.0
  0
LINE
  5
1E0
330
15
100
AcDbEntity
  8
4
100
AcDbLine
 10
996.5380420800889
 20
1366.246297076861
 30
0.0
 11
996.5380420800889
 21
1366.313902291463
 31
0.0
  0
LINE
  5
1E1
330
15
100
AcDbEntity
  8
4
100
AcDbLine
 10
1016.538042080089
 20
1366.246297076861
 30
0.0
 11
1016.538042080089
 21
1366.352554185323
 31
0.0
  0
ARC
  5
1E2
330
15
100
AcDbEntity
  8
4
100
AcDbCircle
 10
1001.538042080089
 20
1366.313902291463
 30
0.0
 40
5.0
100
AcDbArc
 50
90.18380764576611
 51
180.0
  0
ARC
  5
1E3
330
15
100
AcDbEntity
  8
4
100
AcDbCircle
 10
1011.538042080089
 20
1366.352554185323
 30
0.0
 40
5.0
100
AcDbArc
 50
0.0
 51
90.25910822621238
  0
LINE
  5
1E4
330
15
100
AcDbEntity
  8
4
100
AcDbLine
 10
1169.030696947347
 20
1351.346297076861
 30
0.0
 11
1181.154407849321
 21
1305.680319346087
 31
0.0
  0
ARC
  5
1E5
330
15
100
AcDbEntity
  8
4
100
AcDbCircle
 10
1190.819590635238
 20
1308.246297076861
 30
0.0
 40
10.0
100
AcDbArc
 50
194.8682813585007
 51
270.0
  0
LINE
  5
1E6
330
15
100
AcDbEntity
  8
4
100
AcDbLine
 10
1236.538042080089
 20
1366.246297076861
 30
0.0
 11
1236.538042080089
 21
1370.870211711456
 31
0.0
  0
ARC
  5
1E7
330
15
100
AcDbEntity
  8
4
100
AcDbCircle
 10
1241.538042080089
 20
1370.870211711456
 30
0.0
 40
5.0
100
AcDbArc
 50
91.9914085511411
 51
180.0
  0
LINE
  5
1E8
330
15
100
AcDbEntity
  8
L-CENTER
 48
2.0
100
AcDbLine
 10
1297.128042080089
 20
1313.246297076861
 30
0.0
 11
1297.128042080091
 21
1383.246297076861
 31
0.0
  0
LINE
  5
1E9
330
15
100
AcDbEntity
  8
L-CENTER
 48
2.0
100
AcDbLine
 10
1297.128042080089
 20
1763.246297076861
 30
0.0
 11
1297.128042080091
 21
1693.246297076861
 31
0.0
  0
LINE
  5
1EA
330
15
100
AcDbEntity
  8
4
100
AcDbLine
 10
1180.167590733936
 20
1767.095263673022
 30
0.0
 11
1169.110342965045
 21
1725.446297076862
 31
0.0
  0
ARC
  5
1EB
330
15
100
AcDbEntity
  8
4
100
AcDbCircle
 10
1194.665364912812
 20
1763.246297076861
 30
0.0
 40
15.0
100
AcDbArc
 50
90.0
 51
165.1317186415047
  0
LINE
  5
1EC
330
15
100
AcDbEntity
  8
4
100
AcDbLine
 10
1383.128042080089
 20
1313.246297076861
 30
0.0
 11
1383.128042080089
 21
1763.246297076861
 31
0.0
  0
LINE
  5
1ED
330
15
100
AcDbEntity
  8
4
100
AcDbLine
 10
1388.128042080089
 20
1390.246297076861
 30
0.0
 11
1388.128042080089
 21
1570.246297076861
 31
0.0
  0
LINE
  5
1EE
330
15
100
AcDbEntity
  8
2
100
AcDbLine
 10
1388.428042080089
 20
1390.246297076861
 30
0.0
 11
1388.428042080089
 21
1570.246297076861
 31
0.0
  0
LINE
  5
1EF
330
15
100
AcDbEntity
  8
4
100
AcDbLine
 10
1367.128042080089
 20
1409.246297076861
 30
0.0
 11
1367.128042080089
 21
1389.24629707686
 31
0.0
  0
ARC
  5
1F0
330
15
100
AcDbEntity
  8
4
100
AcDbCircle
 10
1368.128042080089
 20
1313.246297076861
 30
0.0
 40
15.0
100
AcDbArc
 50
270.0
 51
0.0
  0
ARC
  5
1F1
330
15
100
AcDbEntity
  8
4
100
AcDbCircle
 10
1365.128042080089
 20
1389.24629707686
 30
0.0
 40
2.0
100
AcDbArc
 50
270.0
 51
0.0
  0
LINE
  5
1F2
330
15
100
AcDbEntity
  8
4
100
AcDbLine
 10
1360.128042080089
 20
1348.246297076861
 30
0.0
 11
1383.128042080089
 21
1348.246297076861
 31
0.0
  0
LINE
  5
1F3
330
15
100
AcDbEntity
  8
4
100
AcDbLine
 10
1383.128042080089
 20
1385.246297076859
 30
0.0
 11
1325.299614955359
 21
1385.24629707686
 31
0.0
  0
LINE
  5
1F4
330
15
100
AcDbEntity
  8
4
100
AcDbLine
 10
1363.128042080089
 20
1348.246297076861
 30
0.0
 11
1363.128042080089
 21
1382.246297076859
 31
0.0
  0
LINE
  5
1F5
330
15
100
AcDbEntity
  8
4
100
AcDbLine
 10
1360.128042080089
 20
1348.246297076861
 30
0.0
 11
1360.128042080089
 21
1382.24629707686
 31
0.0
  0
LINE
  5
1F6
330
15
100
AcDbEntity
  8
4
100
AcDbLine
 10
1325.128042080089
 20
1384.24629707686
 30
0.0
 11
1325.128042080089
 21
1379.242099332262
 31
0.0
  0
ARC
  5
1F7
330
15
100
AcDbEntity
  8
4
100
AcDbCircle
 10
1328.128042080089
 20
1384.24629707686
 30
0.0
 40
3.0
100
AcDbArc
 50
90.0
 51
180.0
  0
ARC
  5
1F8
330
15
100
AcDbEntity
  8
4
100
AcDbCircle
 10
1360.128042080089
 20
1382.246297076859
 30
0.0
 40
3.0
100
AcDbArc
 50
0.0
 51
90.0
  0
ARC
  5
1F9
330
15
100
AcDbEntity
  8
4
100
AcDbCircle
 10
1357.128042080089
 20
1382.24629707686
 30
0.0
 40
3.0
100
AcDbArc
 50
0.0
 51
90.0
  0
LINE
  5
1FA
330
15
100
AcDbEntity
  8
4
100
AcDbLine
 10
1388.128042080089
 20
1390.246297076861
 30
0.0
 11
1383.128042080089
 21
1385.246297076861
 31
0.0
  0
ARC
  5
1FB
330
15
100
AcDbEntity
  8
4
100
AcDbCircle
 10
1369.128042080089
 20
1409.246297076861
 30
0.0
 40
2.0
100
AcDbArc
 50
90.0
 51
180.0
  0
ARC
  5
1FC
330
15
100
AcDbEntity
  8
4
100
AcDbCircle
 10
1381.128042080089
 20
1413.24629707686
 30
0.0
 40
2.0
100
AcDbArc
 50
270.0
 51
0.0
  0
LINE
  5
1FD
330
15
100
AcDbEntity
  8
4
100
AcDbLine
 10
1363.128042080091
 20
1697.546297076861
 30
0.0
 11
1363.128042080091
 21
1728.246297076861
 31
0.0
  0
LINE
  5
1FE
330
15
100
AcDbEntity
  8
4
100
AcDbLine
 10
1360.128042080091
 20
1697.546297076861
 30
0.0
 11
1360.128042080091
 21
1728.246297076861
 31
0.0
  0
LINE
  5
1FF
330
15
100
AcDbEntity
  8
4
100
AcDbLine
 10
1388.128042080089
 20
1570.246297076861
 30
0.0
 11
1383.128042080089
 21
1575.246297076861
 31
0.0
  0
ARC
  5
200
330
15
100
AcDbEntity
  8
4
100
AcDbCircle
 10
1381.128042080089
 20
1663.246297076861
 30
0.0
 40
2.0
100
AcDbArc
 50
0.0
 51
90.0
  0
LINE
  5
201
330
15
100
AcDbEntity
  8
4
100
AcDbLine
 10
1360.128042080091
 20
1728.246297076861
 30
0.0
 11
1383.128042080091
 21
1728.24629707686
 31
0.0
  0
ARC
  5
202
330
15
100
AcDbEntity
  8
4
100
AcDbCircle
 10
1368.128042080089
 20
1763.246297076861
 30
0.0
 40
15.0
100
AcDbArc
 50
0.0
 51
90.0
  0
LINE
  5
203
330
15
100
AcDbEntity
  8
4
100
AcDbLine
 10
1007.128042080089
 20
1483.246297076861
 30
0.0
 11
1007.128042080089
 21
1593.246297076861
 31
0.0
  0
LINE
  5
204
330
15
100
AcDbEntity
  8
4
100
AcDbLine
 10
950.128042080089
 20
1480.246297076861
 30
0.0
 11
1004.128042080089
 21
1480.246297076861
 31
0.0
  0
ARC
  5
205
330
15
100
AcDbEntity
  8
4
100
AcDbCircle
 10
1004.128042080089
 20
1483.246297076861
 30
0.0
 40
3.0
100
AcDbArc
 50
270.0
 51
0.0
  0
LINE
  5
206
330
15
100
AcDbEntity
  8
4
100
AcDbLine
 10
947.128042080089
 20
1483.246297076861
 30
0.0
 11
947.128042080089
 21
1593.246297076861
 31
0.0
  0
ARC
  5
207
330
15
100
AcDbEntity
  8
4
100
AcDbCircle
 10
950.128042080089
 20
1483.246297076861
 30
0.0
 40
3.0
100
AcDbArc
 50
180.0
 51
270.0
  0
LINE
  5
208
330
15
100
AcDbEntity
  8
4
100
AcDbLine
 10
950.128042080089
 20
1596.246297076861
 30
0.0
 11
1004.128042080089
 21
1596.246297076861
 31
0.0
  0
ARC
  5
209
330
15
100
AcDbEntity
  8
4
100
AcDbCircle
 10
950.128042080089
 20
1593.246297076861
 30
0.0
 40
3.0
100
AcDbArc
 50
90.0
 51
180.0
  0
ARC
  5
20A
330
15
100
AcDbEntity
  8
4
100
AcDbCircle
 10
1004.128042080089
 20
1593.246297076861
 30
0.0
 40
3.0
100
AcDbArc
 50
0.0
 51
90.0
  0
CIRCLE
  5
20B
330
15
100
AcDbEntity
  8
4
100
AcDbCircle
 10
727.1280420800895
 20
1538.246297076861
 30
0.0
 40
25.0
  0
LINE
  5
20C
330
15
100
AcDbEntity
  8
L-CENTER
 48
2.0
100
AcDbLine
 10
727.1280420800895
 20
1503.246297076862
 30
0.0
 11
727.1280420800895
 21
1573.246297076859
 31
0.0
  0
LINE
  5
20D
330
15
100
AcDbEntity
  8
L-CENTER
 48
2.0
100
AcDbLine
 10
403.2965040800887
 20
1480.246297076861
 30
0.0
 11
1550.959580080089
 21
1480.246297076861
 31
0.0
  0
ARC
  5
20E
330
15
100
AcDbEntity
  8
4
100
AcDbCircle
 10
977.1280420800908
 20
-5898.482153870884
 30
0.0
 40
7600.0
100
AcDbArc
 50
88.14762157577965
 51
91.85237842422035
  0
ARC
  5
20F
330
15
100
AcDbEntity
  8
4
100
AcDbCircle
 10
977.1280420800908
 20
-5898.482153870884
 30
0.0
 40
7604.0
100
AcDbArc
 50
87.37622925480406
 51
92.6237707451959
  0
LINE
  5
210
330
15
100
AcDbEntity
  8
2
100
AcDbLine
 10
587.128042080089
 20
1669.546297076861
 30
0.0
 11
1367.128042080089
 21
1669.546297076861
 31
0.0
  0
LINE
  5
211
330
15
100
AcDbEntity
  8
4
100
AcDbLine
 10
589.128042080089
 20
1697.546297076861
 30
0.0
 11
1365.128042080089
 21
1697.546297076861
 31
0.0
  0
LINE
  5
212
330
15
100
AcDbEntity
  8
4
100
AcDbLine
 10
716.5380420800893
 20
1710.546297076861
 30
0.0
 11
996.5380420800889
 21
1710.546297076862
 31
0.0
  0
ARC
  5
213
330
15
100
AcDbEntity
  8
4
100
AcDbCircle
 10
711.5380420800889
 20
1705.881261425628
 30
0.0
 40
5.0
100
AcDbArc
 50
272.0002993462543
 51
0.0
  0
LINE
  5
214
330
15
100
AcDbEntity
  8
4
100
AcDbLine
 10
716.5380420800893
 20
1705.881261425627
 30
0.0
 11
716.5380420800893
 21
1710.546297076861
 31
0.0
  0
LINE
  5
215
330
15
100
AcDbEntity
  8
L-CENTER
 48
2.0
100
AcDbLine
 10
856.5380420800889
 20
1331.153538196814
 30
0.0
 11
856.5380420800889
 21
1930.425252076861
 31
0.0
  0
LINE
  5
216
330
15
100
AcDbEntity
  8
L-CENTER
 48
2.0
100
AcDbLine
 10
1126.538042080089
 20
1331.153538196814
 30
0.0
 11
1126.538042080089
 21
1742.359925729603
 31
0.0
  0
LINE
  5
217
330
15
100
AcDbEntity
  8
4
100
AcDbLine
 10
1016.538042080089
 20
1710.546297076862
 30
0.0
 11
1236.538042080089
 21
1710.546297076862
 31
0.0
  0
ARC
  5
218
330
15
100
AcDbEntity
  8
4
100
AcDbCircle
 10
1001.538042080089
 20
1710.47869186226
 30
0.0
 40
5.0
100
AcDbArc
 50
180.0
 51
269.8161923541921
  0
LINE
  5
219
330
15
100
AcDbEntity
  8
4
100
AcDbLine
 10
996.5380420800889
 20
1710.47869186226
 30
0.0
 11
996.5380420800889
 21
1710.546297076862
 31
0.0
  0
LINE
  5
21A
330
15
100
AcDbEntity
  8
4
100
AcDbLine
 10
1016.538042080089
 20
1710.4400399684
 30
0.0
 11
1016.538042080089
 21
1710.546297076862
 31
0.0
  0
ARC
  5
21B
330
15
100
AcDbEntity
  8
4
100
AcDbCircle
 10
1011.538042080089
 20
1710.4400399684
 30
0.0
 40
5.0
100
AcDbArc
 50
269.7408917738189
 51
0.0
  0
LINE
  5
21C
330
15
100
AcDbEntity
  8
4
100
AcDbLine
 10
1236.538042080089
 20
1705.922382442266
 30
0.0
 11
1236.538042080089
 21
1710.546297076862
 31
0.0
  0
ARC
  5
21D
330
15
100
AcDbEntity
  8
4
100
AcDbCircle
 10
1241.538042080089
 20
1705.922382442266
 30
0.0
 40
5.0
100
AcDbArc
 50
180.0
 51
268.0085914488276
  0
LINE
  5
21E
330
15
100
AcDbEntity
  8
4
100
AcDbLine
 10
717.5380420800893
 20
1725.446297076862
 30
0.0
 11
995.5380420800889
 21
1725.446297076862
 31
0.0
  0
LINE
  5
21F
330
15
100
AcDbEntity
  8
4
100
AcDbLine
 10
717.5380420800893
 20
1351.346297076862
 30
0.0
 11
995.5380420800889
 21
1351.346297076862
 31
0.0
  0
LINE
  5
220
330
15
100
AcDbEntity
  8
4
100
AcDbLine
 10
716.5380420800893
 20
1710.546297076861
 30
0.0
 11
716.5380420800893
 21
1724.446297076862
 31
0.0
  0
LINE
  5
221
330
15
100
AcDbEntity
  8
4
100
AcDbLine
 10
996.5380420800889
 20
1710.546297076862
 30
0.0
 11
996.5380420800889
 21
1724.446297076862
 31
0.0
  0
LINE
  5
222
330
15
100
AcDbEntity
  8
4
100
AcDbLine
 10
996.5380420800889
 20
1366.313902291463
 30
0.0
 11
996.5380420800889
 21
1352.346297076862
 31
0.0
  0
LINE
  5
223
330
15
100
AcDbEntity
  8
4
100
AcDbLine
 10
716.5380420800893
 20
1366.246297076861
 30
0.0
 11
716.5380420800893
 21
1352.346297076862
 31
0.0
  0
LINE
  5
224
330
15
100
AcDbEntity
  8
2
100
AcDbLine
 10
716.5380420800893
 20
1365.946297076862
 30
0.0
 11
996.5380420800889
 21
1365.946297076861
 31
0.0
  0
LINE
  5
225
330
15
100
AcDbEntity
  8
2
100
AcDbLine
 10
716.5380420800893
 20
1710.846297076862
 30
0.0
 11
996.5380420800889
 21
1710.846297076862
 31
0.0
  0
LINE
  5
226
330
15
100
AcDbEntity
  8
4
100
AcDbLine
 10
1017.538042080089
 20
1725.446297076862
 30
0.0
 11
1235.538042080089
 21
1725.446297076862
 31
0.0
  0
LINE
  5
227
330
15
100
AcDbEntity
  8
4
100
AcDbLine
 10
1017.538042080089
 20
1351.346297076861
 30
0.0
 11
1235.538042080089
 21
1351.346297076861
 31
0.0
  0
LINE
  5
228
330
15
100
AcDbEntity
  8
4
100
AcDbLine
 10
1016.538042080089
 20
1710.546297076862
 30
0.0
 11
1016.538042080089
 21
1724.446297076862
 31
0.0
  0
LINE
  5
229
330
15
100
AcDbEntity
  8
4
100
AcDbLine
 10
1236.538042080089
 20
1724.446297076862
 30
0.0
 11
1236.538042080089
 21
1710.546297076862
 31
0.0
  0
LINE
  5
22A
330
15
100
AcDbEntity
  8
4
100
AcDbLine
 10
1236.538042080089
 20
1366.246297076861
 30
0.0
 11
1236.538042080089
 21
1352.346297076861
 31
0.0
  0
LINE
  5
22B
330
15
100
AcDbEntity
  8
4
100
AcDbLine
 10
1016.538042080089
 20
1366.246297076861
 30
0.0
 11
1016.538042080089
 21
1352.346297076861
 31
0.0
  0
LINE
  5
22C
330
15
100
AcDbEntity
  8
2
100
AcDbLine
 10
1016.538042080089
 20
1365.94629707686
 30
0.0
 11
1236.538042080089
 21
1365.94629707686
 31
0.0
  0
LINE
  5
22D
330
15
100
AcDbEntity
  8
2
100
AcDbLine
 10
1016.538042080089
 20
1710.846297076862
 30
0.0
 11
1236.538042080089
 21
1710.846297076862
 31
0.0
  0
LINE
  5
22E
330
15
100
AcDbEntity
  8
4
100
AcDbLine
 10
1406.428046080088
 20
1390.246303387207
 30
0.0
 11
1406.428046080088
 21
1570.246298128585
 31
0.0
  0
LINE
  5
22F
330
15
100
AcDbEntity
  8
4
100
AcDbLine
 10
1388.128042080089
 20
1390.246297076861
 30
0.0
 11
1406.428046080088
 21
1390.246303387207
 31
0.0
  0
LINE
  5
230
330
15
100
AcDbEntity
  8
4
100
AcDbLine
 10
1388.128042080089
 20
1570.246297076861
 30
0.0
 11
1406.428046080088
 21
1570.246298128585
 31
0.0
  0
LINE
  5
231
330
15
100
AcDbEntity
  8
4
100
AcDbLine
 10
547.8280380800862
 20
1390.246303387217
 30
0.0
 11
547.8280380800908
 21
1570.246298128596
 31
0.0
  0
LINE
  5
232
330
15
100
AcDbEntity
  8
4
100
AcDbLine
 10
566.1280420800863
 20
1390.24629707687
 30
0.0
 11
547.8280380800862
 21
1390.246303387217
 31
0.0
  0
LINE
  5
233
330
15
100
AcDbEntity
  8
4
100
AcDbLine
 10
566.1280420800908
 20
1570.24629707687
 30
0.0
 11
547.8280380800908
 21
1570.246298128596
 31
0.0
  0
LINE
  5
234
330
15
100
AcDbEntity
  8
4
100
AcDbLine
 10
1406.428046080088
 20
1525.246297076861
 30
0.0
 11
1407.428046080088
 21
1525.246297076861
 31
0.0
  0
LINE
  5
235
330
15
100
AcDbEntity
  8
4
100
AcDbLine
 10
1406.428046080088
 20
1435.246297076861
 30
0.0
 11
1407.428046080088
 21
1435.246297076861
 31
0.0
  0
LINE
  5
236
330
15
100
AcDbEntity
  8
4
100
AcDbLine
 10
1407.428046080088
 20
1435.246297076861
 30
0.0
 11
1407.428046080088
 21
1525.246297076861
 31
0.0
  0
LINE
  5
237
330
15
100
AcDbEntity
  8
4
100
AcDbLine
 10
851.3851605227878
 20
623.1936931665471
 30
0.0
 11
845.9003329654865
 21
613.6936931665471
 31
0.0
  0
LINE
  5
238
330
15
100
AcDbEntity
  8
4
100
AcDbLine
 10
867.8396431946926
 20
613.6936931665471
 30
0.0
 11
862.3548156373904
 21
623.1936931665471
 31
0.0
  0
CIRCLE
  5
239
330
15
100
AcDbEntity
  8
4
100
AcDbCircle
 10
856.8699880800891
 20
613.6936931665471
 30
0.0
 40
9.5
  0
LINE
  5
23A
330
15
100
AcDbEntity
  8
4
100
AcDbLine
 10
845.9003329654865
 20
613.6936931665471
 30
0.0
 11
851.3851605227878
 21
604.1936931665471
 31
0.0
  0
LINE
  5
23B
330
15
100
AcDbEntity
  8
4
100
AcDbLine
 10
851.3851605227878
 20
604.1936931665471
 30
0.0
 11
862.3548156373904
 21
604.1936931665471
 31
0.0
  0
LINE
  5
23C
330
15
100
AcDbEntity
  8
4
100
AcDbLine
 10
862.3548156373904
 20
604.1936931665471
 30
0.0
 11
867.8396431946926
 21
613.6936931665471
 31
0.0
  0
LINE
  5
23D
330
15
100
AcDbEntity
  8
4
100
AcDbLine
 10
862.3548156373904
 20
623.1936931665471
 30
0.0
 11
851.3851605227878
 21
623.1936931665471
 31
0.0
  0
LINE
  5
23E
330
15
100
AcDbEntity
  8
4
100
AcDbLine
 10
747.4619399277794
 20
563.1933940088054
 30
0.0
 11
741.9771123704782
 21
553.6933940088054
 31
0.0
  0
LINE
  5
23F
330
15
100
AcDbEntity
  8
4
100
AcDbLine
 10
763.9164225996842
 20
553.6933940088054
 30
0.0
 11
758.431595042382
 21
563.1933940088054
 31
0.0
  0
CIRCLE
  5
240
330
15
100
AcDbEntity
  8
4
100
AcDbCircle
 10
752.9467674850807
 20
553.6933940088054
 30
0.0
 40
9.5
  0
LINE
  5
241
330
15
100
AcDbEntity
  8
4
100
AcDbLine
 10
741.9771123704782
 20
553.6933940088054
 30
0.0
 11
747.4619399277794
 21
544.1933940088054
 31
0.0
  0
LINE
  5
242
330
15
100
AcDbEntity
  8
4
100
AcDbLine
 10
747.4619399277794
 20
544.1933940088054
 30
0.0
 11
758.431595042382
 21
544.1933940088054
 31
0.0
  0
LINE
  5
243
330
15
100
AcDbEntity
  8
4
100
AcDbLine
 10
758.431595042382
 20
544.1933940088054
 30
0.0
 11
763.9164225996842
 21
553.6933940088054
 31
0.0
  0
LINE
  5
244
330
15
100
AcDbEntity
  8
4
100
AcDbLine
 10
758.431595042382
 20
563.1933940088054
 30
0.0
 11
747.4619399277794
 21
563.1933940088054
 31
0.0
  0
LINE
  5
245
330
15
100
AcDbEntity
  8
4
100
AcDbLine
 10
747.4622845729787
 20
443.1933973812768
 30
0.0
 11
741.9774570156774
 21
433.6933973812768
 31
0.0
  0
LINE
  5
246
330
15
100
AcDbEntity
  8
4
100
AcDbLine
 10
763.9167672448834
 20
433.6933973812768
 30
0.0
 11
758.4319396875812
 21
443.1933973812768
 31
0.0
  0
CIRCLE
  5
247
330
15
100
AcDbEntity
  8
4
100
AcDbCircle
 10
752.94711213028
 20
433.6933973812768
 30
0.0
 40
9.5
  0
LINE
  5
248
330
15
100
AcDbEntity
  8
4
100
AcDbLine
 10
741.9774570156774
 20
433.6933973812768
 30
0.0
 11
747.4622845729787
 21
424.1933973812768
 31
0.0
  0
LINE
  5
249
330
15
100
AcDbEntity
  8
4
100
AcDbLine
 10
747.4622845729787
 20
424.1933973812768
 30
0.0
 11
758.4319396875812
 21
424.1933973812768
 31
0.0
  0
LINE
  5
24A
330
15
100
AcDbEntity
  8
4
100
AcDbLine
 10
758.4319396875812
 20
424.1933973812768
 30
0.0
 11
763.9167672448834
 21
433.6933973812768
 31
0.0
  0
LINE
  5
24B
330
15
100
AcDbEntity
  8
4
100
AcDbLine
 10
758.4319396875812
 20
443.1933973812768
 30
0.0
 11
747.4622845729787
 21
443.1933973812768
 31
0.0
  0
LINE
  5
24C
330
15
100
AcDbEntity
  8
4
100
AcDbLine
 10
955.3080333690746
 20
563.19399632724
 30
0.0
 11
949.8232058117733
 21
553.69399632724
 31
0.0
  0
LINE
  5
24D
330
15
100
AcDbEntity
  8
4
100
AcDbLine
 10
971.7625160409793
 20
553.69399632724
 30
0.0
 11
966.2776884836771
 21
563.19399632724
 31
0.0
  0
CIRCLE
  5
24E
330
15
100
AcDbEntity
  8
4
100
AcDbCircle
 10
960.7928609263768
 20
553.69399632724
 30
0.0
 40
9.5
  0
LINE
  5
24F
330
15
100
AcDbEntity
  8
4
100
AcDbLine
 10
949.8232058117733
 20
553.69399632724
 30
0.0
 11
955.3080333690746
 21
544.19399632724
 31
0.0
  0
LINE
  5
250
330
15
100
AcDbEntity
  8
4
100
AcDbLine
 10
955.3080333690746
 20
544.19399632724
 30
0.0
 11
966.2776884836771
 21
544.19399632724
 31
0.0
  0
LINE
  5
251
330
15
100
AcDbEntity
  8
4
100
AcDbLine
 10
966.2776884836771
 20
544.19399632724
 30
0.0
 11
971.7625160409793
 21
553.69399632724
 31
0.0
  0
LINE
  5
252
330
15
100
AcDbEntity
  8
4
100
AcDbLine
 10
966.2776884836771
 20
563.19399632724
 30
0.0
 11
955.3080333690746
 21
563.19399632724
 31
0.0
  0
LINE
  5
253
330
15
100
AcDbEntity
  8
4
100
AcDbLine
 10
851.3851605227878
 20
383.1936951665468
 30
0.0
 11
845.9003329654865
 21
373.6936951665468
 31
0.0
  0
LINE
  5
254
330
15
100
AcDbEntity
  8
4
100
AcDbLine
 10
867.8396431946926
 20
373.6936951665468
 30
0.0
 11
862.3548156373904
 21
383.1936951665468
 31
0.0
  0
CIRCLE
  5
255
330
15
100
AcDbEntity
  8
4
100
AcDbCircle
 10
856.8699880800891
 20
373.6936951665468
 30
0.0
 40
9.5
  0
LINE
  5
256
330
15
100
AcDbEntity
  8
4
100
AcDbLine
 10
845.9003329654865
 20
373.6936951665468
 30
0.0
 11
851.3851605227878
 21
364.1936951665468
 31
0.0
  0
LINE
  5
257
330
15
100
AcDbEntity
  8
4
100
AcDbLine
 10
851.3851605227878
 20
364.1936951665468
 30
0.0
 11
862.3548156373904
 21
364.1936951665468
 31
0.0
  0
LINE
  5
258
330
15
100
AcDbEntity
  8
4
100
AcDbLine
 10
862.3548156373904
 20
364.1936951665468
 30
0.0
 11
867.8396431946926
 21
373.6936951665468
 31
0.0
  0
LINE
  5
259
330
15
100
AcDbEntity
  8
4
100
AcDbLine
 10
862.3548156373904
 20
383.1936951665468
 30
0.0
 11
851.3851605227878
 21
383.1936951665468
 31
0.0
  0
LINE
  5
25A
330
15
100
AcDbEntity
  8
4
100
AcDbLine
 10
955.3083805772771
 20
443.1939933880751
 30
0.0
 11
949.8235530199759
 21
433.6939933880751
 31
0.0
  0
LINE
  5
25B
330
15
100
AcDbEntity
  8
4
100
AcDbLine
 10
971.7628632491819
 20
433.6939933880751
 30
0.0
 11
966.2780356918797
 21
443.1939933880751
 31
0.0
  0
CIRCLE
  5
25C
330
15
100
AcDbEntity
  8
4
100
AcDbCircle
 10
960.7932081345793
 20
433.6939933880751
 30
0.0
 40
9.5
  0
LINE
  5
25D
330
15
100
AcDbEntity
  8
4
100
AcDbLine
 10
949.8235530199759
 20
433.6939933880751
 30
0.0
 11
955.3083805772771
 21
424.1939933880751
 31
0.0
  0
LINE
  5
25E
330
15
100
AcDbEntity
  8
4
100
AcDbLine
 10
955.3083805772771
 20
424.1939933880751
 30
0.0
 11
966.2780356918797
 21
424.1939933880751
 31
0.0
  0
LINE
  5
25F
330
15
100
AcDbEntity
  8
4
100
AcDbLine
 10
966.2780356918797
 20
424.1939933880751
 30
0.0
 11
971.7628632491819
 21
433.6939933880751
 31
0.0
  0
LINE
  5
260
330
15
100
AcDbEntity
  8
4
100
AcDbLine
 10
966.2780356918797
 20
443.1939933880751
 30
0.0
 11
955.3083805772771
 21
443.1939933880751
 31
0.0
  0
LINE
  5
261
330
15
100
AcDbEntity
  8
4
100
AcDbLine
 10
1120.643212522788
 20
613.1936961665467
 30
0.0
 11
1115.158384965487
 21
603.6936961665467
 31
0.0
  0
LINE
  5
262
330
15
100
AcDbEntity
  8
4
100
AcDbLine
 10
1137.097695194693
 20
603.6936961665467
 30
0.0
 11
1131.612867637391
 21
613.1936961665467
 31
0.0
  0
CIRCLE
  5
263
330
15
100
AcDbEntity
  8
4
100
AcDbCircle
 10
1126.128040080089
 20
603.6936961665467
 30
0.0
 40
9.5
  0
LINE
  5
264
330
15
100
AcDbEntity
  8
4
100
AcDbLine
 10
1115.158384965487
 20
603.6936961665467
 30
0.0
 11
1120.643212522788
 21
594.1936961665467
 31
0.0
  0
LINE
  5
265
330
15
100
AcDbEntity
  8
4
100
AcDbLine
 10
1120.643212522788
 20
594.1936961665467
 30
0.0
 11
1131.612867637391
 21
594.1936961665467
 31
0.0
  0
LINE
  5
266
330
15
100
AcDbEntity
  8
4
100
AcDbLine
 10
1131.612867637391
 20
594.1936961665467
 30
0.0
 11
1137.097695194693
 21
603.6936961665467
 31
0.0
  0
LINE
  5
267
330
15
100
AcDbEntity
  8
4
100
AcDbLine
 10
1131.612867637391
 20
613.1936961665467
 30
0.0
 11
1120.643212522788
 21
613.1936961665467
 31
0.0
  0
LINE
  5
268
330
15
100
AcDbEntity
  8
4
100
AcDbLine
 10
1042.70083936219
 20
568.1935467895694
 30
0.0
 11
1037.216011804888
 21
558.6935467895694
 31
0.0
  0
LINE
  5
269
330
15
100
AcDbEntity
  8
4
100
AcDbLine
 10
1059.155322034094
 20
558.6935467895694
 30
0.0
 11
1053.670494476792
 21
568.1935467895694
 31
0.0
  0
CIRCLE
  5
26A
330
15
100
AcDbEntity
  8
4
100
AcDbCircle
 10
1048.185666919491
 20
558.6935467895694
 30
0.0
 40
9.5
  0
LINE
  5
26B
330
15
100
AcDbEntity
  8
4
100
AcDbLine
 10
1037.216011804888
 20
558.6935467895694
 30
0.0
 11
1042.70083936219
 21
549.1935467895694
 31
0.0
  0
LINE
  5
26C
330
15
100
AcDbEntity
  8
4
100
AcDbLine
 10
1042.70083936219
 20
549.1935467895694
 30
0.0
 11
1053.670494476792
 21
549.1935467895694
 31
0.0
  0
LINE
  5
26D
330
15
100
AcDbEntity
  8
4
100
AcDbLine
 10
1053.670494476792
 20
549.1935467895694
 30
0.0
 11
1059.155322034094
 21
558.6935467895694
 31
0.0
  0
LINE
  5
26E
330
15
100
AcDbEntity
  8
4
100
AcDbLine
 10
1053.670494476792
 20
568.1935467895694
 30
0.0
 11
1042.70083936219
 21
568.1935467895694
 31
0.0
  0
LINE
  5
26F
330
15
100
AcDbEntity
  8
4
100
AcDbLine
 10
1042.701011878206
 20
478.1935447370231
 30
0.0
 11
1037.216184320905
 21
468.6935447370231
 31
0.0
  0
LINE
  5
270
330
15
100
AcDbEntity
  8
4
100
AcDbLine
 10
1059.155494550111
 20
468.6935447370231
 30
0.0
 11
1053.670666992808
 21
478.1935447370231
 31
0.0
  0
CIRCLE
  5
271
330
15
100
AcDbEntity
  8
4
100
AcDbCircle
 10
1048.185839435508
 20
468.6935447370231
 30
0.0
 40
9.5
  0
LINE
  5
272
330
15
100
AcDbEntity
  8
4
100
AcDbLine
 10
1037.216184320905
 20
468.6935447370231
 30
0.0
 11
1042.701011878206
 21
459.1935447370231
 31
0.0
  0
LINE
  5
273
330
15
100
AcDbEntity
  8
4
100
AcDbLine
 10
1042.701011878206
 20
459.1935447370231
 30
0.0
 11
1053.670666992808
 21
459.1935447370231
 31
0.0
  0
LINE
  5
274
330
15
100
AcDbEntity
  8
4
100
AcDbLine
 10
1053.670666992808
 20
459.1935447370231
 30
0.0
 11
1059.155494550111
 21
468.6935447370231
 31
0.0
  0
LINE
  5
275
330
15
100
AcDbEntity
  8
4
100
AcDbLine
 10
1053.670666992808
 20
478.1935447370231
 30
0.0
 11
1042.701011878206
 21
478.1935447370231
 31
0.0
  0
LINE
  5
276
330
15
100
AcDbEntity
  8
4
100
AcDbLine
 10
1120.643212522788
 20
433.1936941665469
 30
0.0
 11
1115.158384965487
 21
423.6936941665469
 31
0.0
  0
LINE
  5
277
330
15
100
AcDbEntity
  8
4
100
AcDbLine
 10
1137.097695194693
 20
423.6936941665469
 30
0.0
 11
1131.612867637391
 21
433.1936941665469
 31
0.0
  0
CIRCLE
  5
278
330
15
100
AcDbEntity
  8
4
100
AcDbCircle
 10
1126.128040080089
 20
423.6936941665469
 30
0.0
 40
9.5
  0
LINE
  5
279
330
15
100
AcDbEntity
  8
4
100
AcDbLine
 10
1115.158384965487
 20
423.6936941665469
 30
0.0
 11
1120.643212522788
 21
414.1936941665469
 31
0.0
  0
LINE
  5
27A
330
15
100
AcDbEntity
  8
4
100
AcDbLine
 10
1120.643212522788
 20
414.1936941665469
 30
0.0
 11
1131.612867637391
 21
414.1936941665469
 31
0.0
  0
LINE
  5
27B
330
15
100
AcDbEntity
  8
4
100
AcDbLine
 10
1131.612867637391
 20
414.1936941665469
 30
0.0
 11
1137.097695194693
 21
423.6936941665469
 31
0.0
  0
LINE
  5
27C
330
15
100
AcDbEntity
  8
4
100
AcDbLine
 10
1131.612867637391
 20
433.1936941665469
 30
0.0
 11
1120.643212522788
 21
433.1936941665469
 31
0.0
  0
LINE
  5
27D
330
15
100
AcDbEntity
  8
4
100
AcDbLine
 10
1198.585412866648
 20
568.1938461169332
 30
0.0
 11
1193.100585309347
 21
558.6938461169332
 31
0.0
  0
LINE
  5
27E
330
15
100
AcDbEntity
  8
4
100
AcDbLine
 10
1215.039895538553
 20
558.6938461169332
 30
0.0
 11
1209.555067981251
 21
568.1938461169332
 31
0.0
  0
CIRCLE
  5
27F
330
15
100
AcDbEntity
  8
4
100
AcDbCircle
 10
1204.07024042395
 20
558.6938461169332
 30
0.0
 40
9.5
  0
LINE
  5
280
330
15
100
AcDbEntity
  8
4
100
AcDbLine
 10
1193.100585309347
 20
558.6938461169332
 30
0.0
 11
1198.585412866648
 21
549.1938461169332
 31
0.0
  0
LINE
  5
281
330
15
100
AcDbEntity
  8
4
100
AcDbLine
 10
1198.585412866648
 20
549.1938461169332
 30
0.0
 11
1209.555067981251
 21
549.1938461169332
 31
0.0
  0
LINE
  5
282
330
15
100
AcDbEntity
  8
4
100
AcDbLine
 10
1209.555067981251
 20
549.1938461169332
 30
0.0
 11
1215.039895538553
 21
558.6938461169332
 31
0.0
  0
LINE
  5
283
330
15
100
AcDbEntity
  8
4
100
AcDbLine
 10
1209.555067981251
 20
568.1938461169332
 30
0.0
 11
1198.585412866648
 21
568.1938461169332
 31
0.0
  0
LINE
  5
284
330
15
100
AcDbEntity
  8
4
100
AcDbLine
 10
1198.585586443984
 20
478.1938448609237
 30
0.0
 11
1193.100758886683
 21
468.6938448609237
 31
0.0
  0
LINE
  5
285
330
15
100
AcDbEntity
  8
4
100
AcDbLine
 10
1215.040069115889
 20
468.6938448609237
 30
0.0
 11
1209.555241558587
 21
478.1938448609237
 31
0.0
  0
CIRCLE
  5
286
330
15
100
AcDbEntity
  8
4
100
AcDbCircle
 10
1204.070414001285
 20
468.6938448609237
 30
0.0
 40
9.5
  0
LINE
  5
287
330
15
100
AcDbEntity
  8
4
100
AcDbLine
 10
1193.100758886683
 20
468.6938448609237
 30
0.0
 11
1198.585586443984
 21
459.1938448609237
 31
0.0
  0
LINE
  5
288
330
15
100
AcDbEntity
  8
4
100
AcDbLine
 10
1198.585586443984
 20
459.1938448609237
 30
0.0
 11
1209.555241558587
 21
459.1938448609237
 31
0.0
  0
LINE
  5
289
330
15
100
AcDbEntity
  8
4
100
AcDbLine
 10
1209.555241558587
 20
459.1938448609237
 30
0.0
 11
1215.040069115889
 21
468.6938448609237
 31
0.0
  0
LINE
  5
28A
330
15
100
AcDbEntity
  8
4
100
AcDbLine
 10
1209.555241558587
 20
478.1938448609237
 30
0.0
 11
1198.585586443984
 21
478.1938448609237
 31
0.0
  0
LINE
  5
28B
330
15
100
AcDbEntity
  8
L-CENTER
 48
2.0
100
AcDbLine
 10
752.9467674850807
 20
1740.047136956966
 30
0.0
 11
752.9467674850807
 21
1686.963602749826
 31
0.0
  0
LINE
  5
28C
330
15
100
AcDbEntity
  8
4
100
AcDbLine
 10
763.9164225996833
 20
1725.446297076862
 30
0.0
 11
763.9164225996833
 21
1735.309116166234
 31
0.0
  0
LINE
  5
28D
330
15
100
AcDbEntity
  8
4
100
AcDbLine
 10
758.4315950423811
 20
1735.309116166234
 30
0.0
 11
758.4315950423811
 21
1728.446297076862
 31
0.0
  0
LINE
  5
28E
330
15
100
AcDbEntity
  8
4
100
AcDbLine
 10
741.9771123704763
 20
1735.309116166234
 30
0.0
 11
741.9771123704763
 21
1725.446297076862
 31
0.0
  0
LINE
  5
28F
330
15
100
AcDbEntity
  8
4
100
AcDbLine
 10
747.4619399277785
 20
1735.309116166234
 30
0.0
 11
747.4619399277785
 21
1728.446297076862
 31
0.0
  0
ARC
  5
290
330
15
100
AcDbEntity
  8
4
100
AcDbCircle
 10
761.1740088210322
 20
1732.570918201582
 30
0.0
 40
3.875378875279264
100
AcDbArc
 50
44.95592676274281
 51
135.0440732372382
  0
ARC
  5
291
330
15
100
AcDbEntity
  8
4
100
AcDbCircle
 10
744.7195261491274
 20
1732.570918201582
 30
0.0
 40
3.875378875279244
100
AcDbArc
 50
44.95592676274281
 51
135.0440732372382
  0
LINE
  5
292
330
15
100
AcDbEntity
  8
4
100
AcDbLine
 10
761.1740088210322
 20
1736.446297076862
 30
0.0
 11
744.7195261491274
 21
1736.446297076862
 31
0.0
  0
ARC
  5
293
330
15
100
AcDbEntity
  8
4
100
AcDbCircle
 10
752.9467674850807
 20
1722.650552941685
 30
0.0
 40
13.7957441351769
100
AcDbArc
 50
66.57340249137208
 51
113.4265975086326
  0
LINE
  5
294
330
15
100
AcDbEntity
  8
4
100
AcDbLine
 10
741.9771123704763
 20
1728.446297076862
 30
0.0
 11
763.9164225996833
 21
1728.446297076862
 31
0.0
  0
LINE
  5
295
330
15
100
AcDbEntity
  8
4
100
AcDbLine
 10
741.9771123704763
 20
1725.446297076862
 30
0.0
 11
763.9164225996833
 21
1725.446297076862
 31
0.0
  0
LINE
  5
296
330
15
100
AcDbEntity
  8
L-CENTER
 48
2.0
100
AcDbLine
 10
1048.185666919491
 20
1740.047136956966
 30
0.0
 11
1048.185666919491
 21
1686.963602749826
 31
0.0
  0
LINE
  5
297
330
15
100
AcDbEntity
  8
4
100
AcDbLine
 10
1059.155322034093
 20
1725.446297076862
 30
0.0
 11
1059.155322034093
 21
1735.309116166235
 31
0.0
  0
LINE
  5
298
330
15
100
AcDbEntity
  8
4
100
AcDbLine
 10
1053.670494476792
 20
1735.309116166235
 30
0.0
 11
1053.670494476792
 21
1728.446297076862
 31
0.0
  0
LINE
  5
299
330
15
100
AcDbEntity
  8
4
100
AcDbLine
 10
1037.216011804887
 20
1735.309116166235
 30
0.0
 11
1037.216011804887
 21
1725.446297076862
 31
0.0
  0
LINE
  5
29A
330
15
100
AcDbEntity
  8
4
100
AcDbLine
 10
1042.70083936219
 20
1735.309116166235
 30
0.0
 11
1042.70083936219
 21
1728.446297076862
 31
0.0
  0
ARC
  5
29B
330
15
100
AcDbEntity
  8
4
100
AcDbCircle
 10
1056.412908255443
 20
1732.570918201583
 30
0.0
 40
3.875378875279264
100
AcDbArc
 50
44.95592676274281
 51
135.0440732372572
  0
ARC
  5
29C
330
15
100
AcDbEntity
  8
4
100
AcDbCircle
 10
1039.958425583538
 20
1732.570918201583
 30
0.0
 40
3.875378875279244
100
AcDbArc
 50
44.95592676274281
 51
135.0440732372572
  0
LINE
  5
29D
330
15
100
AcDbEntity
  8
4
100
AcDbLine
 10
1056.412908255443
 20
1736.446297076862
 30
0.0
 11
1039.958425583538
 21
1736.446297076862
 31
0.0
  0
ARC
  5
29E
330
15
100
AcDbEntity
  8
4
100
AcDbCircle
 10
1048.185666919491
 20
1722.650552941685
 30
0.0
 40
13.7957441351769
100
AcDbArc
 50
66.5734024913725
 51
113.4265975086275
  0
LINE
  5
29F
330
15
100
AcDbEntity
  8
4
100
AcDbLine
 10
1037.216011804887
 20
1728.446297076862
 30
0.0
 11
1059.155322034093
 21
1728.446297076862
 31
0.0
  0
LINE
  5
2A0
330
15
100
AcDbEntity
  8
4
100
AcDbLine
 10
1037.216011804887
 20
1725.446297076862
 30
0.0
 11
1059.155322034093
 21
1725.446297076862
 31
0.0
  0
LINE
  5
2A1
330
15
100
AcDbEntity
  8
4
100
AcDbLine
 10
971.0989717897014
 20
1725.446297076862
 30
0.0
 11
949.1596615604963
 21
1725.446297076862
 31
0.0
  0
LINE
  5
2A2
330
15
100
AcDbEntity
  8
4
100
AcDbLine
 10
971.0989717897014
 20
1728.446297076862
 30
0.0
 11
949.1596615604963
 21
1728.446297076862
 31
0.0
  0
ARC
  5
2A3
330
15
100
AcDbEntity
  8
4
100
AcDbCircle
 10
960.1293166750988
 20
1722.650552941685
 30
0.0
 40
13.7957441351769
100
AcDbArc
 50
66.57340249137208
 51
113.4265975086326
  0
LINE
  5
2A4
330
15
100
AcDbEntity
  8
4
100
AcDbLine
 10
951.9020753391455
 20
1736.446297076862
 30
0.0
 11
968.3565580110503
 21
1736.446297076862
 31
0.0
  0
LINE
  5
2A5
330
15
100
AcDbEntity
  8
4
100
AcDbLine
 10
971.0989717897014
 20
1735.309116166234
 30
0.0
 11
971.0989717897014
 21
1725.446297076862
 31
0.0
  0
ARC
  5
2A6
330
15
100
AcDbEntity
  8
4
100
AcDbCircle
 10
968.3565580110503
 20
1732.570918201582
 30
0.0
 40
3.875378875279244
100
AcDbArc
 50
44.95592676274281
 51
135.0440732372382
  0
LINE
  5
2A7
330
15
100
AcDbEntity
  8
4
100
AcDbLine
 10
965.6141442323992
 20
1735.309116166234
 30
0.0
 11
965.6141442323992
 21
1728.446297076862
 31
0.0
  0
LINE
  5
2A8
330
15
100
AcDbEntity
  8
4
100
AcDbLine
 10
949.1596615604963
 20
1725.446297076862
 30
0.0
 11
949.1596615604963
 21
1735.309116166234
 31
0.0
  0
ARC
  5
2A9
330
15
100
AcDbEntity
  8
4
100
AcDbCircle
 10
951.9020753391455
 20
1732.570918201582
 30
0.0
 40
3.875378875279264
100
AcDbArc
 50
44.95592676274281
 51
135.0440732372382
  0
LINE
  5
2AA
330
15
100
AcDbEntity
  8
4
100
AcDbLine
 10
954.6444891177966
 20
1735.309116166234
 30
0.0
 11
954.6444891177966
 21
1728.446297076862
 31
0.0
  0
LINE
  5
2AB
330
15
100
AcDbEntity
  8
L-CENTER
 48
2.0
100
AcDbLine
 10
960.1293166750988
 20
1740.047136956966
 30
0.0
 11
960.1293166750988
 21
1686.963602749826
 31
0.0
  0
LINE
  5
2AC
330
15
100
AcDbEntity
  8
4
100
AcDbLine
 10
1215.860072355289
 20
1735.309116166238
 30
0.0
 11
1215.860072355289
 21
1725.446297076865
 31
0.0
  0
LINE
  5
2AD
330
15
100
AcDbEntity
  8
4
100
AcDbLine
 10
1193.920762126083
 20
1725.446297076864
 30
0.0
 11
1193.920762126083
 21
1735.309116166237
 31
0.0
  0
LINE
  5
2AE
330
15
100
AcDbEntity
  8
4
100
AcDbLine
 10
1215.860072355289
 20
1725.446297076865
 30
0.0
 11
1193.920762126083
 21
1725.446297076864
 31
0.0
  0
LINE
  5
2AF
330
15
100
AcDbEntity
  8
4
100
AcDbLine
 10
1215.860072355289
 20
1728.446297076865
 30
0.0
 11
1193.920762126083
 21
1728.446297076864
 31
0.0
  0
ARC
  5
2B0
330
15
100
AcDbEntity
  8
4
100
AcDbCircle
 10
1204.890417240686
 20
1722.650552941687
 30
0.0
 40
13.7957441351769
100
AcDbArc
 50
66.57340249137758
 51
113.4265975086301
  0
LINE
  5
2B1
330
15
100
AcDbEntity
  8
4
100
AcDbLine
 10
1196.663175904733
 20
1736.446297076864
 30
0.0
 11
1213.117658576637
 21
1736.446297076865
 31
0.0
  0
ARC
  5
2B2
330
15
100
AcDbEntity
  8
4
100
AcDbCircle
 10
1213.117658576637
 20
1732.570918201586
 30
0.0
 40
3.875378875279244
100
AcDbArc
 50
44.95592676274281
 51
135.0440732372572
  0
ARC
  5
2B3
330
15
100
AcDbEntity
  8
4
100
AcDbCircle
 10
1196.663175904733
 20
1732.570918201586
 30
0.0
 40
3.875378875279264
100
AcDbArc
 50
44.95592676274281
 51
135.0440732372572
  0
LINE
  5
2B4
330
15
100
AcDbEntity
  8
4
100
AcDbLine
 10
1210.375244797986
 20
1735.309116166238
 30
0.0
 11
1210.375244797986
 21
1728.446297076865
 31
0.0
  0
LINE
  5
2B5
330
15
100
AcDbEntity
  8
4
100
AcDbLine
 10
1199.405589683384
 20
1735.309116166238
 30
0.0
 11
1199.405589683384
 21
1728.446297076864
 31
0.0
  0
LINE
  5
2B6
330
15
100
AcDbEntity
  8
L-CENTER
 48
2.0
100
AcDbLine
 10
1204.890417240685
 20
1740.047136956968
 30
0.0
 11
1204.890417240686
 21
1686.963602749827
 31
0.0
  0
LINE
  5
2B7
330
15
100
AcDbEntity
  8
4
100
AcDbLine
 10
741.9771123704763
 20
1351.34629707686
 30
0.0
 11
763.9164225996833
 21
1351.34629707686
 31
0.0
  0
LINE
  5
2B8
330
15
100
AcDbEntity
  8
4
100
AcDbLine
 10
741.9771123704763
 20
1348.34629707686
 30
0.0
 11
763.9164225996833
 21
1348.34629707686
 31
0.0
  0
ARC
  5
2B9
330
15
100
AcDbEntity
  8
4
100
AcDbCircle
 10
752.9467674850807
 20
1354.142041212037
 30
0.0
 40
13.7957441351769
100
AcDbArc
 50
246.5734024913674
 51
293.4265975086279
  0
LINE
  5
2BA
330
15
100
AcDbEntity
  8
4
100
AcDbLine
 10
761.1740088210322
 20
1340.34629707686
 30
0.0
 11
744.7195261491274
 21
1340.34629707686
 31
0.0
  0
LINE
  5
2BB
330
15
100
AcDbEntity
  8
4
100
AcDbLine
 10
741.9771123704763
 20
1341.483477987488
 30
0.0
 11
741.9771123704763
 21
1351.34629707686
 31
0.0
  0
ARC
  5
2BC
330
15
100
AcDbEntity
  8
4
100
AcDbCircle
 10
744.7195261491274
 20
1344.22167595214
 30
0.0
 40
3.875378875279244
100
AcDbArc
 50
224.9559267627618
 51
315.0440732372572
  0
LINE
  5
2BD
330
15
100
AcDbEntity
  8
4
100
AcDbLine
 10
747.4619399277785
 20
1341.483477987488
 30
0.0
 11
747.4619399277785
 21
1348.34629707686
 31
0.0
  0
LINE
  5
2BE
330
15
100
AcDbEntity
  8
4
100
AcDbLine
 10
763.9164225996833
 20
1351.34629707686
 30
0.0
 11
763.9164225996833
 21
1341.483477987488
 31
0.0
  0
ARC
  5
2BF
330
15
100
AcDbEntity
  8
4
100
AcDbCircle
 10
761.1740088210322
 20
1344.22167595214
 30
0.0
 40
3.875378875279264
100
AcDbArc
 50
224.9559267627618
 51
315.0440732372572
  0
LINE
  5
2C0
330
15
100
AcDbEntity
  8
4
100
AcDbLine
 10
758.4315950423811
 20
1341.483477987488
 30
0.0
 11
758.4315950423811
 21
1348.34629707686
 31
0.0
  0
LINE
  5
2C1
330
15
100
AcDbEntity
  8
4
100
AcDbLine
 10
949.1596615604963
 20
1351.34629707686
 30
0.0
 11
949.1596615604963
 21
1341.483477987488
 31
0.0
  0
LINE
  5
2C2
330
15
100
AcDbEntity
  8
4
100
AcDbLine
 10
971.0989717897014
 20
1341.483477987488
 30
0.0
 11
971.0989717897014
 21
1351.34629707686
 31
0.0
  0
LINE
  5
2C3
330
15
100
AcDbEntity
  8
4
100
AcDbLine
 10
971.0989717897014
 20
1351.34629707686
 30
0.0
 11
949.1596615604963
 21
1351.34629707686
 31
0.0
  0
LINE
  5
2C4
330
15
100
AcDbEntity
  8
4
100
AcDbLine
 10
954.6444891177966
 20
1341.483477987488
 30
0.0
 11
954.6444891177966
 21
1348.34629707686
 31
0.0
  0
ARC
  5
2C5
330
15
100
AcDbEntity
  8
4
100
AcDbCircle
 10
951.9020753391455
 20
1344.22167595214
 30
0.0
 40
3.875378875279264
100
AcDbArc
 50
224.9559267627618
 51
315.0440732372572
  0
LINE
  5
2C6
330
15
100
AcDbEntity
  8
4
100
AcDbLine
 10
965.6141442323992
 20
1341.483477987488
 30
0.0
 11
965.6141442323992
 21
1348.34629707686
 31
0.0
  0
ARC
  5
2C7
330
15
100
AcDbEntity
  8
4
100
AcDbCircle
 10
968.3565580110503
 20
1344.22167595214
 30
0.0
 40
3.875378875279244
100
AcDbArc
 50
224.9559267627618
 51
315.0440732372572
  0
LINE
  5
2C8
330
15
100
AcDbEntity
  8
4
100
AcDbLine
 10
951.9020753391455
 20
1340.34629707686
 30
0.0
 11
968.3565580110503
 21
1340.34629707686
 31
0.0
  0
ARC
  5
2C9
330
15
100
AcDbEntity
  8
4
100
AcDbCircle
 10
960.1293166750988
 20
1354.142041212037
 30
0.0
 40
13.7957441351769
100
AcDbArc
 50
246.5734024913674
 51
293.4265975086279
  0
LINE
  5
2CA
330
15
100
AcDbEntity
  8
4
100
AcDbLine
 10
971.0989717897014
 20
1348.34629707686
 30
0.0
 11
949.1596615604963
 21
1348.34629707686
 31
0.0
  0
LINE
  5
2CB
330
15
100
AcDbEntity
  8
L-CENTER
 48
2.0
100
AcDbLine
 10
960.1293166750988
 20
1336.745457196756
 30
0.0
 11
960.1293166750988
 21
1389.828991403896
 31
0.0
  0
LINE
  5
2CC
330
15
100
AcDbEntity
  8
L-CENTER
 48
2.0
100
AcDbLine
 10
752.9467674850807
 20
1336.745457196756
 30
0.0
 11
752.9467674850807
 21
1389.828991403896
 31
0.0
  0
LINE
  5
2CD
330
15
100
AcDbEntity
  8
4
100
AcDbLine
 10
1037.216011804887
 20
1341.483477987487
 30
0.0
 11
1037.216011804887
 21
1351.34629707686
 31
0.0
  0
LINE
  5
2CE
330
15
100
AcDbEntity
  8
4
100
AcDbLine
 10
1059.155322034093
 20
1351.34629707686
 30
0.0
 11
1059.155322034093
 21
1341.483477987487
 31
0.0
  0
LINE
  5
2CF
330
15
100
AcDbEntity
  8
4
100
AcDbLine
 10
1037.216011804887
 20
1351.34629707686
 30
0.0
 11
1059.155322034093
 21
1351.34629707686
 31
0.0
  0
LINE
  5
2D0
330
15
100
AcDbEntity
  8
4
100
AcDbLine
 10
1037.216011804887
 20
1348.34629707686
 30
0.0
 11
1059.155322034093
 21
1348.34629707686
 31
0.0
  0
ARC
  5
2D1
330
15
100
AcDbEntity
  8
4
100
AcDbCircle
 10
1048.185666919491
 20
1354.142041212037
 30
0.0
 40
13.7957441351769
100
AcDbArc
 50
246.5734024913725
 51
293.4265975086275
  0
LINE
  5
2D2
330
15
100
AcDbEntity
  8
4
100
AcDbLine
 10
1056.412908255443
 20
1340.34629707686
 30
0.0
 11
1039.958425583538
 21
1340.34629707686
 31
0.0
  0
ARC
  5
2D3
330
15
100
AcDbEntity
  8
4
100
AcDbCircle
 10
1039.958425583538
 20
1344.221675952139
 30
0.0
 40
3.875378875279244
100
AcDbArc
 50
224.9559267627428
 51
315.0440732372572
  0
ARC
  5
2D4
330
15
100
AcDbEntity
  8
4
100
AcDbCircle
 10
1056.412908255443
 20
1344.221675952139
 30
0.0
 40
3.875378875279264
100
AcDbArc
 50
224.9559267627428
 51
315.0440732372572
  0
LINE
  5
2D5
330
15
100
AcDbEntity
  8
4
100
AcDbLine
 10
1042.70083936219
 20
1341.483477987487
 30
0.0
 11
1042.70083936219
 21
1348.34629707686
 31
0.0
  0
LINE
  5
2D6
330
15
100
AcDbEntity
  8
4
100
AcDbLine
 10
1053.670494476792
 20
1341.483477987487
 30
0.0
 11
1053.670494476792
 21
1348.34629707686
 31
0.0
  0
LINE
  5
2D7
330
15
100
AcDbEntity
  8
L-CENTER
 48
2.0
100
AcDbLine
 10
1048.185666919491
 20
1336.645457196755
 30
0.0
 11
1048.185666919491
 21
1389.728991403896
 31
0.0
  0
LINE
  5
2D8
330
15
100
AcDbEntity
  8
4
100
AcDbLine
 10
1193.920762126083
 20
1351.346297076858
 30
0.0
 11
1193.920762126083
 21
1341.483477987485
 31
0.0
  0
LINE
  5
2D9
330
15
100
AcDbEntity
  8
4
100
AcDbLine
 10
1215.860072355289
 20
1341.483477987484
 30
0.0
 11
1215.860072355289
 21
1351.346297076857
 31
0.0
  0
LINE
  5
2DA
330
15
100
AcDbEntity
  8
4
100
AcDbLine
 10
1215.860072355289
 20
1351.346297076857
 30
0.0
 11
1193.920762126083
 21
1351.346297076858
 31
0.0
  0
LINE
  5
2DB
330
15
100
AcDbEntity
  8
4
100
AcDbLine
 10
1199.405589683384
 20
1341.483477987484
 30
0.0
 11
1199.405589683384
 21
1348.346297076858
 31
0.0
  0
LINE
  5
2DC
330
15
100
AcDbEntity
  8
4
100
AcDbLine
 10
1210.375244797986
 20
1341.483477987484
 30
0.0
 11
1210.375244797986
 21
1348.346297076857
 31
0.0
  0
ARC
  5
2DD
330
15
100
AcDbEntity
  8
4
100
AcDbCircle
 10
1196.663175904733
 20
1344.221675952136
 30
0.0
 40
3.875378875279264
100
AcDbArc
 50
224.9559267627428
 51
315.0440732372572
  0
ARC
  5
2DE
330
15
100
AcDbEntity
  8
4
100
AcDbCircle
 10
1213.117658576637
 20
1344.221675952136
 30
0.0
 40
3.875378875279244
100
AcDbArc
 50
224.9559267627428
 51
315.0440732372572
  0
LINE
  5
2DF
330
15
100
AcDbEntity
  8
4
100
AcDbLine
 10
1196.663175904733
 20
1340.346297076858
 30
0.0
 11
1213.117658576637
 21
1340.346297076857
 31
0.0
  0
ARC
  5
2E0
330
15
100
AcDbEntity
  8
4
100
AcDbCircle
 10
1204.890417240686
 20
1354.142041212035
 30
0.0
 40
13.7957441351769
100
AcDbArc
 50
246.5734024913699
 51
293.4265975086224
  0
LINE
  5
2E1
330
15
100
AcDbEntity
  8
4
100
AcDbLine
 10
1215.860072355289
 20
1348.346297076857
 30
0.0
 11
1193.920762126083
 21
1348.346297076858
 31
0.0
  0
LINE
  5
2E2
330
15
100
AcDbEntity
  8
L-CENTER
 48
2.0
100
AcDbLine
 10
1204.890417240685
 20
1336.745457196754
 30
0.0
 11
1204.890417240686
 21
1389.828991403894
 31
0.0
  0
CIRCLE
  5
2E3
330
15
100
AcDbEntity
  8
4
100
AcDbCircle
 10
2064.339886672989
 20
325.56553652037
 30
0.0
 40
12.0
  0
LINE
  5
2E4
330
15
100
AcDbEntity
  8
4
100
AcDbLine
 10
2050.955625813185
 20
329.1518384090421
 30
0.0
 11
2054.541927701857
 21
315.7675775492373
 31
0.0
  0
LINE
  5
2E5
330
15
100
AcDbEntity
  8
4
100
AcDbLine
 10
2077.724147532795
 20
321.9792346316979
 30
0.0
 11
2074.137845644123
 21
335.3634954915026
 31
0.0
  0
LINE
  5
2E6
330
15
100
AcDbEntity
  8
4
100
AcDbLine
 10
2067.926188561663
 20
312.1812756605643
 30
0.0
 11
2077.724147532795
 21
321.9792346316979
 31
0.0
  0
LINE
  5
2E7
330
15
100
AcDbEntity
  8
4
100
AcDbLine
 10
2054.541927701857
 20
315.7675775492373
 30
0.0
 11
2067.926188561663
 21
312.1812756605643
 31
0.0
  0
LINE
  5
2E8
330
15
100
AcDbEntity
  8
4
100
AcDbLine
 10
2074.137845644123
 20
335.3634954915026
 30
0.0
 11
2060.753584784318
 21
338.9497973801747
 31
0.0
  0
LINE
  5
2E9
330
15
100
AcDbEntity
  8
4
100
AcDbLine
 10
2060.753584784318
 20
338.9497973801747
 30
0.0
 11
2050.955625813185
 21
329.1518384090421
 31
0.0
  0
CIRCLE
  5
2EA
330
15
100
AcDbEntity
  8
4
100
AcDbCircle
 10
2188.083573380636
 20
201.8218498127246
 30
0.0
 40
12.0
  0
LINE
  5
2EB
330
15
100
AcDbEntity
  8
4
100
AcDbLine
 10
2174.699312520831
 20
205.4081517013967
 30
0.0
 11
2178.285614409504
 21
192.023890841592
 31
0.0
  0
LINE
  5
2EC
330
15
100
AcDbEntity
  8
4
100
AcDbLine
 10
2201.467834240441
 20
198.2355479240525
 30
0.0
 11
2197.881532351769
 21
211.6198087838568
 31
0.0
  0
LINE
  5
2ED
330
15
100
AcDbEntity
  8
4
100
AcDbLine
 10
2191.669875269308
 20
188.437588952919
 30
0.0
 11
2201.467834240441
 21
198.2355479240525
 31
0.0
  0
LINE
  5
2EE
330
15
100
AcDbEntity
  8
4
100
AcDbLine
 10
2178.285614409504
 20
192.023890841592
 30
0.0
 11
2191.669875269308
 21
188.437588952919
 31
0.0
  0
LINE
  5
2EF
330
15
100
AcDbEntity
  8
4
100
AcDbLine
 10
2197.881532351769
 20
211.6198087838568
 30
0.0
 11
2184.497271491964
 21
215.2061106725289
 31
0.0
  0
LINE
  5
2F0
330
15
100
AcDbEntity
  8
4
100
AcDbLine
 10
2184.497271491964
 20
215.2061106725289
 30
0.0
 11
2174.699312520831
 21
205.4081517013967
 31
0.0
  0
LINE
  5
2F1
330
15
100
AcDbEntity
  8
4
100
AcDbLine
 10
2077.724144032796
 20
205.4081552013965
 30
0.0
 11
2067.926185061662
 21
215.2061141725287
 31
0.0
  0
LINE
  5
2F2
330
15
100
AcDbEntity
  8
4
100
AcDbLine
 10
2067.926185061662
 20
215.2061141725287
 30
0.0
 11
2054.541924201857
 21
211.6198122838566
 31
0.0
  0
LINE
  5
2F3
330
15
100
AcDbEntity
  8
4
100
AcDbLine
 10
2050.955622313185
 20
198.2355514240519
 30
0.0
 11
2060.753581284318
 21
188.4375924529193
 31
0.0
  0
CIRCLE
  5
2F4
330
15
100
AcDbEntity
  8
4
100
AcDbCircle
 10
2064.33988317299
 20
201.821853312724
 30
0.0
 40
12.0
  0
LINE
  5
2F5
330
15
100
AcDbEntity
  8
4
100
AcDbLine
 10
2054.541924201857
 20
211.6198122838566
 30
0.0
 11
2050.955622313185
 21
198.2355514240519
 31
0.0
  0
LINE
  5
2F6
330
15
100
AcDbEntity
  8
4
100
AcDbLine
 10
2074.137842144123
 20
192.0238943415914
 30
0.0
 11
2077.724144032796
 21
205.4081552013965
 31
0.0
  0
LINE
  5
2F7
330
15
100
AcDbEntity
  8
4
100
AcDbLine
 10
2060.753581284318
 20
188.4375924529193
 30
0.0
 11
2074.137842144123
 21
192.0238943415914
 31
0.0
  0
LINE
  5
2F8
330
15
100
AcDbEntity
  8
4
100
AcDbLine
 10
2201.46783304068
 20
329.1518396088034
 30
0.0
 11
2191.669874069547
 21
338.9497985799355
 31
0.0
  0
LINE
  5
2F9
330
15
100
AcDbEntity
  8
4
100
AcDbLine
 10
2191.669874069547
 20
338.9497985799355
 30
0.0
 11
2178.285613209742
 21
335.3634966912634
 31
0.0
  0
LINE
  5
2FA
330
15
100
AcDbEntity
  8
4
100
AcDbLine
 10
2174.69931132107
 20
321.9792358314587
 30
0.0
 11
2184.497270292203
 21
312.1812768603261
 31
0.0
  0
CIRCLE
  5
2FB
330
15
100
AcDbEntity
  8
4
100
AcDbCircle
 10
2188.083572180875
 20
325.5655377201308
 30
0.0
 40
12.0
  0
LINE
  5
2FC
330
15
100
AcDbEntity
  8
4
100
AcDbLine
 10
2178.285613209742
 20
335.3634966912634
 30
0.0
 11
2174.69931132107
 21
321.9792358314587
 31
0.0
  0
LINE
  5
2FD
330
15
100
AcDbEntity
  8
4
100
AcDbLine
 10
2197.881531152008
 20
315.7675787489982
 30
0.0
 11
2201.46783304068
 21
329.1518396088034
 31
0.0
  0
LINE
  5
2FE
330
15
100
AcDbEntity
  8
4
100
AcDbLine
 10
2184.497270292203
 20
312.1812768603261
 30
0.0
 11
2197.881531152008
 21
315.7675787489982
 31
0.0
  0
LINE
  5
2FF
330
15
100
AcDbEntity
  8
L-CENTER
 48
2.0
100
AcDbLine
 10
1424.774524515909
 20
325.56553652037
 30
0.0
 11
1365.486372367599
 21
325.56553652037
 31
0.0
  0
LINE
  5
300
330
15
100
AcDbEntity
  8
4
100
AcDbLine
 10
1419.06756917577
 20
318.6373332900946
 30
0.0
 11
1410.428041080089
 21
318.6373332900946
 31
0.0
  0
LINE
  5
301
330
15
100
AcDbEntity
  8
4
100
AcDbLine
 10
1406.428041080089
 20
311.7091300598192
 30
0.0
 11
1419.06756917577
 21
311.7091300598192
 31
0.0
  0
LINE
  5
302
330
15
100
AcDbEntity
  8
4
100
AcDbLine
 10
1419.06756917577
 20
332.4937397506453
 30
0.0
 11
1410.428041080089
 21
332.4937397506453
 31
0.0
  0
LINE
  5
303
330
15
100
AcDbEntity
  8
4
100
AcDbLine
 10
1419.06756917577
 20
339.4219429809216
 30
0.0
 11
1406.428041080089
 21
339.4219429809216
 31
0.0
  0
LINE
  5
304
330
15
100
AcDbEntity
  8
4
100
AcDbLine
 10
1410.428041080089
 20
339.4219429809216
 30
0.0
 11
1410.428041080089
 21
311.7091300598192
 31
0.0
  0
LINE
  5
305
330
15
100
AcDbEntity
  8
4
100
AcDbLine
 10
1406.428041080089
 20
339.4219429809216
 30
0.0
 11
1406.428041080089
 21
311.7091300598192
 31
0.0
  0
ARC
  5
306
330
15
100
AcDbEntity
  8
4
100
AcDbCircle
 10
1415.337570722536
 20
315.1732316749565
 30
0.0
 40
5.090470357553002
100
AcDbArc
 50
317.1167115949141
 51
42.88328840508593
  0
ARC
  5
307
330
15
100
AcDbEntity
  8
4
100
AcDbCircle
 10
1415.337570722536
 20
335.9578413657835
 30
0.0
 40
5.090470357553012
100
AcDbArc
 50
317.1167115949141
 51
42.88328840508593
  0
ARC
  5
308
330
15
100
AcDbEntity
  8
4
100
AcDbCircle
 10
1402.106867506356
 20
325.56553652037
 30
0.0
 40
18.32117357373317
100
AcDbArc
 50
337.7806898294696
 51
22.21931017052721
  0
LINE
  5
309
330
15
100
AcDbEntity
  8
4
100
AcDbLine
 10
1420.428041080089
 20
315.1732316749565
 30
0.0
 11
1420.428041080089
 21
335.9578413657835
 31
0.0
  0
ARC
  5
30A
330
15
100
AcDbEntity
  8
4
100
AcDbCircle
 10
1402.106867506357
 20
201.8218498127237
 30
0.0
 40
18.32117357373317
100
AcDbArc
 50
337.7806898294712
 51
22.21931017052882
  0
ARC
  5
30B
330
15
100
AcDbEntity
  8
4
100
AcDbCircle
 10
1415.337570722538
 20
191.4295449673102
 30
0.0
 40
5.090470357553012
100
AcDbArc
 50
317.1167115949141
 51
42.88328840509315
  0
LINE
  5
30C
330
15
100
AcDbEntity
  8
4
100
AcDbLine
 10
1419.067569175771
 20
187.9654433521721
 30
0.0
 11
1406.428041080091
 21
187.9654433521721
 31
0.0
  0
LINE
  5
30D
330
15
100
AcDbEntity
  8
4
100
AcDbLine
 10
1419.067569175771
 20
194.8936465824484
 30
0.0
 11
1410.428041080091
 21
194.8936465824484
 31
0.0
  0
LINE
  5
30E
330
15
100
AcDbEntity
  8
4
100
AcDbLine
 10
1419.067569175771
 20
208.7500530429991
 30
0.0
 11
1410.42804108009
 21
208.7500530429991
 31
0.0
  0
LINE
  5
30F
330
15
100
AcDbEntity
  8
4
100
AcDbLine
 10
1420.42804108009
 20
212.2141546581372
 30
0.0
 11
1420.428041080091
 21
191.4295449673102
 31
0.0
  0
ARC
  5
310
330
15
100
AcDbEntity
  8
4
100
AcDbCircle
 10
1415.337570722537
 20
212.2141546581372
 30
0.0
 40
5.090470357553002
100
AcDbArc
 50
317.1167115949141
 51
42.88328840509141
  0
LINE
  5
311
330
15
100
AcDbEntity
  8
4
100
AcDbLine
 10
1406.428041080091
 20
187.9654433521721
 30
0.0
 11
1406.42804108009
 21
215.6782562732744
 31
0.0
  0
LINE
  5
312
330
15
100
AcDbEntity
  8
4
100
AcDbLine
 10
1410.428041080091
 20
187.9654433521721
 30
0.0
 11
1410.42804108009
 21
215.6782562732744
 31
0.0
  0
LINE
  5
313
330
15
100
AcDbEntity
  8
4
100
AcDbLine
 10
1406.42804108009
 20
215.6782562732744
 30
0.0
 11
1419.067569175771
 21
215.6782562732744
 31
0.0
  0
LINE
  5
314
330
15
100
AcDbEntity
  8
4
100
AcDbLine
 10
1407.42804008009
 20
218.6936891665471
 30
0.0
 11
1406.428041080089
 21
218.6936891665471
 31
0.0
  0
LINE
  5
315
330
15
100
AcDbEntity
  8
4
100
AcDbLine
 10
547.8280430800884
 20
215.6782562732744
 30
0.0
 11
535.188514984408
 21
215.6782562732744
 31
0.0
  0
LINE
  5
316
330
15
100
AcDbEntity
  8
4
100
AcDbLine
 10
543.8280430800879
 20
187.9654433521721
 30
0.0
 11
543.8280430800884
 21
215.6782562732744
 31
0.0
  0
LINE
  5
317
330
15
100
AcDbEntity
  8
4
100
AcDbLine
 10
547.8280430800879
 20
187.9654433521721
 30
0.0
 11
547.8280430800884
 21
215.6782562732744
 31
0.0
  0
ARC
  5
318
330
15
100
AcDbEntity
  8
4
100
AcDbCircle
 10
538.9185134376418
 20
212.2141546581372
 30
0.0
 40
5.090470357553002
100
AcDbArc
 50
137.1167115949077
 51
222.8832884050859
  0
LINE
  5
319
330
15
100
AcDbEntity
  8
4
100
AcDbLine
 10
533.8280430800884
 20
212.2141546581372
 30
0.0
 11
533.8280430800879
 21
191.4295449673102
 31
0.0
  0
LINE
  5
31A
330
15
100
AcDbEntity
  8
4
100
AcDbLine
 10
535.188514984408
 20
208.7500530429991
 30
0.0
 11
543.8280430800884
 21
208.7500530429991
 31
0.0
  0
LINE
  5
31B
330
15
100
AcDbEntity
  8
4
100
AcDbLine
 10
535.1885149844076
 20
194.8936465824484
 30
0.0
 11
543.8280430800879
 21
194.8936465824484
 31
0.0
  0
LINE
  5
31C
330
15
100
AcDbEntity
  8
4
100
AcDbLine
 10
535.1885149844076
 20
187.9654433521721
 30
0.0
 11
547.8280430800879
 21
187.9654433521721
 31
0.0
  0
ARC
  5
31D
330
15
100
AcDbEntity
  8
4
100
AcDbCircle
 10
538.9185134376413
 20
191.4295449673102
 30
0.0
 40
5.090470357553012
100
AcDbArc
 50
137.1167115949141
 51
222.8832884050859
  0
ARC
  5
31E
330
15
100
AcDbEntity
  8
4
100
AcDbCircle
 10
552.1492166538211
 20
201.8218498127237
 30
0.0
 40
18.32117357373317
100
AcDbArc
 50
157.7806898294696
 51
202.2193101705288
  0
LINE
  5
31F
330
15
100
AcDbEntity
  8
4
100
AcDbLine
 10
533.8280430800897
 20
315.1732316749565
 30
0.0
 11
533.8280430800897
 21
335.9578413657835
 31
0.0
  0
ARC
  5
320
330
15
100
AcDbEntity
  8
4
100
AcDbCircle
 10
552.1492166538229
 20
325.56553652037
 30
0.0
 40
18.32117357373317
100
AcDbArc
 50
157.7806898294712
 51
202.2193101705304
  0
ARC
  5
321
330
15
100
AcDbEntity
  8
4
100
AcDbCircle
 10
538.9185134376431
 20
335.9578413657835
 30
0.0
 40
5.090470357553012
100
AcDbArc
 50
137.1167115949141
 51
222.8832884050859
  0
ARC
  5
322
330
15
100
AcDbEntity
  8
4
100
AcDbCircle
 10
538.9185134376431
 20
315.1732316749565
 30
0.0
 40
5.090470357553002
100
AcDbArc
 50
137.1167115949141
 51
222.8832884050859
  0
LINE
  5
323
330
15
100
AcDbEntity
  8
4
100
AcDbLine
 10
547.8280430800897
 20
339.4219429809216
 30
0.0
 11
547.8280430800897
 21
311.7091300598192
 31
0.0
  0
LINE
  5
324
330
15
100
AcDbEntity
  8
4
100
AcDbLine
 10
543.8280430800897
 20
339.4219429809216
 30
0.0
 11
543.8280430800897
 21
311.7091300598192
 31
0.0
  0
LINE
  5
325
330
15
100
AcDbEntity
  8
4
100
AcDbLine
 10
535.1885149844094
 20
339.4219429809216
 30
0.0
 11
547.8280430800897
 21
339.4219429809216
 31
0.0
  0
LINE
  5
326
330
15
100
AcDbEntity
  8
4
100
AcDbLine
 10
535.1885149844094
 20
332.4937397506453
 30
0.0
 11
543.8280430800897
 21
332.4937397506453
 31
0.0
  0
LINE
  5
327
330
15
100
AcDbEntity
  8
4
100
AcDbLine
 10
547.8280430800897
 20
311.7091300598192
 30
0.0
 11
535.1885149844094
 21
311.7091300598192
 31
0.0
  0
LINE
  5
328
330
15
100
AcDbEntity
  8
4
100
AcDbLine
 10
535.1885149844094
 20
318.6373332900946
 30
0.0
 11
543.8280430800897
 21
318.6373332900946
 31
0.0
  0
LINE
  5
329
330
15
100
AcDbEntity
  8
4
100
AcDbLine
 10
1406.42804108009
 20
1432.230860183589
 30
0.0
 11
1419.067569175771
 21
1432.230860183589
 31
0.0
  0
LINE
  5
32A
330
15
100
AcDbEntity
  8
4
100
AcDbLine
 10
1410.428041080091
 20
1404.518047262485
 30
0.0
 11
1410.42804108009
 21
1432.230860183589
 31
0.0
  0
LINE
  5
32B
330
15
100
AcDbEntity
  8
4
100
AcDbLine
 10
1406.428041080091
 20
1404.518047262485
 30
0.0
 11
1406.42804108009
 21
1432.230860183589
 31
0.0
  0
ARC
  5
32C
330
15
100
AcDbEntity
  8
4
100
AcDbCircle
 10
1415.337570722538
 20
1428.766758568451
 30
0.0
 40
5.090470357553002
100
AcDbArc
 50
317.1167115949086
 51
42.88328840509141
  0
LINE
  5
32D
330
15
100
AcDbEntity
  8
4
100
AcDbLine
 10
1420.42804108009
 20
1428.766758568451
 30
0.0
 11
1420.428041080091
 21
1407.982148877624
 31
0.0
  0
LINE
  5
32E
330
15
100
AcDbEntity
  8
4
100
AcDbLine
 10
1419.067569175771
 20
1425.302656953312
 30
0.0
 11
1410.42804108009
 21
1425.302656953312
 31
0.0
  0
LINE
  5
32F
330
15
100
AcDbEntity
  8
4
100
AcDbLine
 10
1419.067569175771
 20
1411.446250492762
 30
0.0
 11
1410.428041080091
 21
1411.446250492762
 31
0.0
  0
LINE
  5
330
330
15
100
AcDbEntity
  8
4
100
AcDbLine
 10
1419.067569175771
 20
1404.518047262485
 30
0.0
 11
1406.428041080091
 21
1404.518047262485
 31
0.0
  0
ARC
  5
331
330
15
100
AcDbEntity
  8
4
100
AcDbCircle
 10
1415.337570722538
 20
1407.982148877624
 30
0.0
 40
5.090470357553012
100
AcDbArc
 50
317.1167115949213
 51
42.88328840509141
  0
ARC
  5
332
330
15
100
AcDbEntity
  8
4
100
AcDbCircle
 10
1402.106867506357
 20
1418.374453723038
 30
0.0
 40
18.32117357373317
100
AcDbArc
 50
337.7806898294712
 51
22.2193101705259
  0
LINE
  5
333
330
15
100
AcDbEntity
  8
4
100
AcDbLine
 10
1420.428041080089
 20
1531.72583558527
 30
0.0
 11
1420.428041080089
 21
1552.510445276097
 31
0.0
  0
ARC
  5
334
330
15
100
AcDbEntity
  8
4
100
AcDbCircle
 10
1402.106867506356
 20
1542.118140430684
 30
0.0
 40
18.32117357373317
100
AcDbArc
 50
337.7806898294712
 51
22.21931017052882
  0
ARC
  5
335
330
15
100
AcDbEntity
  8
4
100
AcDbCircle
 10
1415.337570722536
 20
1552.510445276097
 30
0.0
 40
5.090470357553012
100
AcDbArc
 50
317.1167115949086
 51
42.88328840509141
  0
ARC
  5
336
330
15
100
AcDbEntity
  8
4
100
AcDbCircle
 10
1415.337570722536
 20
1531.72583558527
 30
0.0
 40
5.090470357553002
100
AcDbArc
 50
317.1167115949086
 51
42.88328840509141
  0
LINE
  5
337
330
15
100
AcDbEntity
  8
4
100
AcDbLine
 10
1406.428041080089
 20
1555.974546891235
 30
0.0
 11
1406.428041080089
 21
1528.261733970133
 31
0.0
  0
LINE
  5
338
330
15
100
AcDbEntity
  8
4
100
AcDbLine
 10
1410.428041080089
 20
1555.974546891235
 30
0.0
 11
1410.428041080089
 21
1528.261733970133
 31
0.0
  0
LINE
  5
339
330
15
100
AcDbEntity
  8
4
100
AcDbLine
 10
1419.06756917577
 20
1555.974546891235
 30
0.0
 11
1406.428041080089
 21
1555.974546891235
 31
0.0
  0
LINE
  5
33A
330
15
100
AcDbEntity
  8
4
100
AcDbLine
 10
1419.06756917577
 20
1549.046343660959
 30
0.0
 11
1410.428041080089
 21
1549.046343660959
 31
0.0
  0
LINE
  5
33B
330
15
100
AcDbEntity
  8
4
100
AcDbLine
 10
1406.428041080089
 20
1528.261733970133
 30
0.0
 11
1419.06756917577
 21
1528.261733970133
 31
0.0
  0
LINE
  5
33C
330
15
100
AcDbEntity
  8
4
100
AcDbLine
 10
1419.06756917577
 20
1535.189937200408
 30
0.0
 11
1410.428041080089
 21
1535.189937200408
 31
0.0
  0
ARC
  5
33D
330
15
100
AcDbEntity
  8
4
100
AcDbCircle
 10
552.1492166538216
 20
1418.374453723038
 30
0.0
 40
18.32117357373317
100
AcDbArc
 50
157.7806898294711
 51
202.2193101705288
  0
ARC
  5
33E
330
15
100
AcDbEntity
  8
4
100
AcDbCircle
 10
538.9185134376413
 20
1407.982148877624
 30
0.0
 40
5.090470357553012
100
AcDbArc
 50
137.1167115949077
 51
222.8832884050787
  0
LINE
  5
33F
330
15
100
AcDbEntity
  8
4
100
AcDbLine
 10
535.1885149844076
 20
1404.518047262485
 30
0.0
 11
547.8280430800879
 21
1404.518047262485
 31
0.0
  0
LINE
  5
340
330
15
100
AcDbEntity
  8
4
100
AcDbLine
 10
535.1885149844076
 20
1411.446250492762
 30
0.0
 11
543.8280430800879
 21
1411.446250492762
 31
0.0
  0
LINE
  5
341
330
15
100
AcDbEntity
  8
4
100
AcDbLine
 10
535.188514984408
 20
1425.302656953312
 30
0.0
 11
543.8280430800884
 21
1425.302656953312
 31
0.0
  0
LINE
  5
342
330
15
100
AcDbEntity
  8
4
100
AcDbLine
 10
533.8280430800884
 20
1428.766758568451
 30
0.0
 11
533.8280430800879
 21
1407.982148877624
 31
0.0
  0
ARC
  5
343
330
15
100
AcDbEntity
  8
4
100
AcDbCircle
 10
538.9185134376418
 20
1428.766758568451
 30
0.0
 40
5.090470357553002
100
AcDbArc
 50
137.1167115949077
 51
222.8832884050795
  0
LINE
  5
344
330
15
100
AcDbEntity
  8
4
100
AcDbLine
 10
547.8280430800879
 20
1404.518047262485
 30
0.0
 11
547.8280430800884
 21
1432.230860183589
 31
0.0
  0
LINE
  5
345
330
15
100
AcDbEntity
  8
4
100
AcDbLine
 10
543.8280430800879
 20
1404.518047262485
 30
0.0
 11
543.8280430800884
 21
1432.230860183589
 31
0.0
  0
LINE
  5
346
330
15
100
AcDbEntity
  8
4
100
AcDbLine
 10
547.8280430800884
 20
1432.230860183589
 30
0.0
 11
535.188514984408
 21
1432.230860183589
 31
0.0
  0
LINE
  5
347
330
15
100
AcDbEntity
  8
4
100
AcDbLine
 10
535.1885149844094
 20
1535.189937200408
 30
0.0
 11
543.8280430800897
 21
1535.189937200408
 31
0.0
  0
LINE
  5
348
330
15
100
AcDbEntity
  8
4
100
AcDbLine
 10
547.8280430800897
 20
1528.261733970133
 30
0.0
 11
535.1885149844094
 21
1528.261733970133
 31
0.0
  0
LINE
  5
349
330
15
100
AcDbEntity
  8
4
100
AcDbLine
 10
535.1885149844094
 20
1549.046343660959
 30
0.0
 11
543.8280430800897
 21
1549.046343660959
 31
0.0
  0
LINE
  5
34A
330
15
100
AcDbEntity
  8
4
100
AcDbLine
 10
535.1885149844094
 20
1555.974546891235
 30
0.0
 11
547.8280430800897
 21
1555.974546891235
 31
0.0
  0
LINE
  5
34B
330
15
100
AcDbEntity
  8
4
100
AcDbLine
 10
543.8280430800897
 20
1555.974546891235
 30
0.0
 11
543.8280430800897
 21
1528.261733970133
 31
0.0
  0
LINE
  5
34C
330
15
100
AcDbEntity
  8
4
100
AcDbLine
 10
547.8280430800897
 20
1555.974546891235
 30
0.0
 11
547.8280430800897
 21
1528.261733970133
 31
0.0
  0
ARC
  5
34D
330
15
100
AcDbEntity
  8
4
100
AcDbCircle
 10
538.9185134376431
 20
1531.72583558527
 30
0.0
 40
5.090470357553002
100
AcDbArc
 50
137.1167115949077
 51
222.8832884050923
  0
ARC
  5
34E
330
15
100
AcDbEntity
  8
4
100
AcDbCircle
 10
538.9185134376431
 20
1552.510445276097
 30
0.0
 40
5.090470357553012
100
AcDbArc
 50
137.1167115949077
 51
222.8832884050923
  0
ARC
  5
34F
330
15
100
AcDbEntity
  8
4
100
AcDbCircle
 10
552.1492166538229
 20
1542.118140430684
 30
0.0
 40
18.32117357373317
100
AcDbArc
 50
157.7806898294712
 51
202.2193101705288
  0
LINE
  5
350
330
15
100
AcDbEntity
  8
4
100
AcDbLine
 10
533.8280430800897
 20
1531.72583558527
 30
0.0
 11
533.8280430800897
 21
1552.510445276097
 31
0.0
  0
LINE
  5
351
330
15
100
AcDbEntity
  8
4
100
AcDbLine
 10
1994.311726026813
 20
602.7240380519436
 30
0.0
 11
1994.311726026813
 21
624.6633482811496
 31
0.0
  0
ARC
  5
352
330
15
100
AcDbEntity
  8
4
100
AcDbCircle
 10
2000.10747016199
 20
613.6936931665471
 30
0.0
 40
13.7957441351769
100
AcDbArc
 50
156.5734024913687
 51
184.8215478413528
  0
LINE
  5
353
330
15
100
AcDbEntity
  8
4
100
AcDbLine
 10
1986.311726026813
 20
621.9209345024994
 30
0.0
 11
1986.311726026813
 21
605.4664518305947
 31
0.0
  0
LINE
  5
354
330
15
100
AcDbEntity
  8
4
100
AcDbLine
 10
1997.311726026813
 20
602.7240380519436
 30
0.0
 11
1997.311726026813
 21
624.6633482811496
 31
0.0
  0
LINE
  5
355
330
15
100
AcDbEntity
  8
4
100
AcDbLine
 10
1987.448906937439
 20
619.1785207238484
 30
0.0
 11
1994.311726026813
 21
619.1785207238484
 31
0.0
  0
LINE
  5
356
330
15
100
AcDbEntity
  8
4
100
AcDbLine
 10
1997.311726026813
 20
624.6633482811496
 30
0.0
 11
1987.448906937439
 21
624.6633482811496
 31
0.0
  0
LINE
  5
357
330
15
100
AcDbEntity
  8
L-CENTER
 48
2.0
100
AcDbLine
 10
1982.710886146709
 20
613.6936931665471
 30
0.0
 11
2035.794420353849
 21
613.6936931665471
 31
0.0
  0
ARC
  5
358
330
15
100
AcDbEntity
  8
4
100
AcDbCircle
 10
1990.187104902092
 20
621.9209345024994
 30
0.0
 40
3.875378875279264
100
AcDbArc
 50
134.9559267627452
 51
225.0440732372548
  0
LINE
  5
359
330
15
100
AcDbEntity
  8
4
100
AcDbLine
 10
1994.311726026813
 20
592.7240410519432
 30
0.0
 11
1994.311726026813
 21
614.6633512811493
 31
0.0
  0
ARC
  5
35A
330
15
100
AcDbEntity
  8
4
100
AcDbCircle
 10
2000.10747016199
 20
603.6936961665467
 30
0.0
 40
13.7957441351769
100
AcDbArc
 50
156.5734024913708
 51
203.4265975086292
  0
LINE
  5
35B
330
15
100
AcDbEntity
  8
4
100
AcDbLine
 10
1986.311726026813
 20
611.9209375024991
 30
0.0
 11
1986.311726026813
 21
595.4664548305943
 31
0.0
  0
LINE
  5
35C
330
15
100
AcDbEntity
  8
4
100
AcDbLine
 10
1997.311726026813
 20
592.7240410519432
 30
0.0
 11
1997.311726026813
 21
614.6633512811493
 31
0.0
  0
LINE
  5
35D
330
15
100
AcDbEntity
  8
4
100
AcDbLine
 10
1987.448906937439
 20
598.2088686092454
 30
0.0
 11
1994.311726026813
 21
598.2088686092454
 31
0.0
  0
LINE
  5
35E
330
15
100
AcDbEntity
  8
4
100
AcDbLine
 10
1987.448906937439
 20
592.7240410519432
 30
0.0
 11
1997.311726026813
 21
592.7240410519432
 31
0.0
  0
ARC
  5
35F
330
15
100
AcDbEntity
  8
4
100
AcDbCircle
 10
1990.187104902092
 20
595.4664548305943
 30
0.0
 40
3.875378875279244
100
AcDbArc
 50
134.9559267627452
 51
225.0440732372548
  0
LINE
  5
360
330
15
100
AcDbEntity
  8
4
100
AcDbLine
 10
1987.448906937439
 20
609.178523723848
 30
0.0
 11
1994.311726026813
 21
609.178523723848
 31
0.0
  0
LINE
  5
361
330
15
100
AcDbEntity
  8
4
100
AcDbLine
 10
1997.311726026813
 20
614.6633512811493
 30
0.0
 11
1987.448906937439
 21
614.6633512811493
 31
0.0
  0
LINE
  5
362
330
15
100
AcDbEntity
  8
L-CENTER
 48
2.0
100
AcDbLine
 10
1982.710886146709
 20
603.6936961665467
 30
0.0
 11
2035.794420353849
 21
603.6936961665467
 31
0.0
  0
ARC
  5
363
330
15
100
AcDbEntity
  8
4
100
AcDbCircle
 10
1990.187104902092
 20
611.9209375024991
 30
0.0
 40
3.875378875279264
100
AcDbArc
 50
134.9559267627452
 51
225.0440732372548
  0
LINE
  5
364
330
15
100
AcDbEntity
  8
4
100
AcDbLine
 10
1994.311726026813
 20
542.7243412126365
 30
0.0
 11
1994.311726026813
 21
564.6636514418426
 31
0.0
  0
LINE
  5
365
330
15
100
AcDbEntity
  8
4
100
AcDbLine
 10
1986.311726026813
 20
550.4666047809808
 30
0.0
 11
1986.311726026814
 21
545.4667549912876
 31
0.0
  0
LINE
  5
366
330
15
100
AcDbEntity
  8
4
100
AcDbLine
 10
1997.311726026813
 20
542.7243412126365
 30
0.0
 11
1997.311726026813
 21
564.6636514418426
 31
0.0
  0
LINE
  5
367
330
15
100
AcDbEntity
  8
4
100
AcDbLine
 10
1987.44890693744
 20
542.7243412126365
 30
0.0
 11
1997.311726026813
 21
542.7243412126365
 31
0.0
  0
ARC
  5
368
330
15
100
AcDbEntity
  8
4
100
AcDbCircle
 10
1990.187104902092
 20
545.4667549912876
 30
0.0
 40
3.875378875279244
100
AcDbArc
 50
139.8284134034343
 51
225.0440732372477
  0
LINE
  5
369
330
15
100
AcDbEntity
  8
L-CENTER
 48
2.0
100
AcDbLine
 10
1982.710886146709
 20
553.69399632724
 30
0.0
 11
2035.794420353849
 21
553.69399632724
 31
0.0
  0
LINE
  5
36A
330
15
100
AcDbEntity
  8
4
100
AcDbLine
 10
1994.311726026813
 20
547.7241910023297
 30
0.0
 11
1994.311726026813
 21
569.6635012315357
 31
0.0
  0
ARC
  5
36B
330
15
100
AcDbEntity
  8
4
100
AcDbCircle
 10
2000.10747016199
 20
558.6938461169332
 30
0.0
 40
13.7957441351769
100
AcDbArc
 50
156.5734024913687
 51
203.4265975086314
  0
LINE
  5
36C
330
15
100
AcDbEntity
  8
4
100
AcDbLine
 10
1986.311726026813
 20
566.9210874528856
 30
0.0
 11
1986.311726026813
 21
550.4666047809808
 31
0.0
  0
LINE
  5
36D
330
15
100
AcDbEntity
  8
4
100
AcDbLine
 10
1997.311726026813
 20
547.7241910023297
 30
0.0
 11
1997.311726026813
 21
569.6635012315357
 31
0.0
  0
LINE
  5
36E
330
15
100
AcDbEntity
  8
4
100
AcDbLine
 10
1987.44890693744
 20
553.2090185596319
 30
0.0
 11
1994.311726026813
 21
553.2090185596319
 31
0.0
  0
LINE
  5
36F
330
15
100
AcDbEntity
  8
4
100
AcDbLine
 10
1987.44890693744
 20
547.7241910023297
 30
0.0
 11
1997.311726026813
 21
547.7241910023297
 31
0.0
  0
ARC
  5
370
330
15
100
AcDbEntity
  8
4
100
AcDbCircle
 10
1990.187104902092
 20
550.4666047809808
 30
0.0
 40
3.875378875279244
100
AcDbArc
 50
134.9559267627452
 51
225.0440732372548
  0
LINE
  5
371
330
15
100
AcDbEntity
  8
4
100
AcDbLine
 10
1987.44890693744
 20
564.1786736742345
 30
0.0
 11
1994.311726026813
 21
564.1786736742345
 31
0.0
  0
LINE
  5
372
330
15
100
AcDbEntity
  8
4
100
AcDbLine
 10
1997.311726026813
 20
569.6635012315357
 30
0.0
 11
1987.44890693744
 21
569.6635012315357
 31
0.0
  0
LINE
  5
373
330
15
100
AcDbEntity
  8
L-CENTER
 48
2.0
100
AcDbLine
 10
1982.710886146709
 20
558.6938461169332
 30
0.0
 11
2035.794420353849
 21
558.6938461169332
 31
0.0
  0
ARC
  5
374
330
15
100
AcDbEntity
  8
4
100
AcDbCircle
 10
1990.187104902092
 20
566.9210874528856
 30
0.0
 40
3.875378875279264
100
AcDbArc
 50
134.9559267627452
 51
225.0440732372548
  0
LINE
  5
375
330
15
100
AcDbEntity
  8
4
100
AcDbLine
 10
1994.311726026813
 20
457.7238896224196
 30
0.0
 11
1994.311726026813
 21
479.6631998516257
 31
0.0
  0
ARC
  5
376
330
15
100
AcDbEntity
  8
4
100
AcDbCircle
 10
2000.10747016199
 20
468.6935447370231
 30
0.0
 40
13.7957441351769
100
AcDbArc
 50
156.5734024913708
 51
203.4265975086292
  0
LINE
  5
377
330
15
100
AcDbEntity
  8
4
100
AcDbLine
 10
1986.311726026813
 20
476.9207860729755
 30
0.0
 11
1986.311726026813
 21
460.4663034010707
 31
0.0
  0
LINE
  5
378
330
15
100
AcDbEntity
  8
4
100
AcDbLine
 10
1997.311726026813
 20
457.7238896224196
 30
0.0
 11
1997.311726026813
 21
479.6631998516257
 31
0.0
  0
LINE
  5
379
330
15
100
AcDbEntity
  8
4
100
AcDbLine
 10
1987.44890693744
 20
463.2087171797218
 30
0.0
 11
1994.311726026813
 21
463.2087171797218
 31
0.0
  0
LINE
  5
37A
330
15
100
AcDbEntity
  8
4
100
AcDbLine
 10
1987.44890693744
 20
457.7238896224196
 30
0.0
 11
1997.311726026813
 21
457.7238896224196
 31
0.0
  0
ARC
  5
37B
330
15
100
AcDbEntity
  8
4
100
AcDbCircle
 10
1990.187104902092
 20
460.4663034010707
 30
0.0
 40
3.875378875279244
100
AcDbArc
 50
134.9559267627452
 51
225.0440732372548
  0
LINE
  5
37C
330
15
100
AcDbEntity
  8
4
100
AcDbLine
 10
1987.44890693744
 20
474.1783722943244
 30
0.0
 11
1994.311726026813
 21
474.1783722943244
 31
0.0
  0
LINE
  5
37D
330
15
100
AcDbEntity
  8
4
100
AcDbLine
 10
1997.311726026813
 20
479.6631998516257
 30
0.0
 11
1987.44890693744
 21
479.6631998516257
 31
0.0
  0
LINE
  5
37E
330
15
100
AcDbEntity
  8
L-CENTER
 48
2.0
100
AcDbLine
 10
1982.710886146709
 20
468.6935447370231
 30
0.0
 11
2035.794420353849
 21
468.6935447370231
 31
0.0
  0
ARC
  5
37F
330
15
100
AcDbEntity
  8
4
100
AcDbCircle
 10
1990.187104902092
 20
476.9207860729755
 30
0.0
 40
3.875378875279264
100
AcDbArc
 50
134.9559267627452
 51
225.0440732372548
  0
LINE
  5
380
330
15
100
AcDbEntity
  8
4
100
AcDbLine
 10
1994.311726026813
 20
422.7243382734716
 30
0.0
 11
1994.311726026813
 21
444.6636485026777
 31
0.0
  0
ARC
  5
381
330
15
100
AcDbEntity
  8
4
100
AcDbCircle
 10
2000.10747016199
 20
433.6939933880751
 30
0.0
 40
13.7957441351769
100
AcDbArc
 50
156.5734024913687
 51
184.8223730769658
  0
LINE
  5
382
330
15
100
AcDbEntity
  8
4
100
AcDbLine
 10
1986.311726026813
 20
441.9212347240275
 30
0.0
 11
1986.311726026813
 21
425.4667520521227
 31
0.0
  0
LINE
  5
383
330
15
100
AcDbEntity
  8
4
100
AcDbLine
 10
1997.311726026813
 20
422.7243382734716
 30
0.0
 11
1997.311726026813
 21
444.6636485026777
 31
0.0
  0
LINE
  5
384
330
15
100
AcDbEntity
  8
4
100
AcDbLine
 10
1987.44890693744
 20
439.1788209453764
 30
0.0
 11
1994.311726026813
 21
439.1788209453764
 31
0.0
  0
LINE
  5
385
330
15
100
AcDbEntity
  8
4
100
AcDbLine
 10
1997.311726026813
 20
444.6636485026777
 30
0.0
 11
1987.44890693744
 21
444.6636485026777
 31
0.0
  0
LINE
  5
386
330
15
100
AcDbEntity
  8
L-CENTER
 48
2.0
100
AcDbLine
 10
1982.710886146709
 20
433.6939933880751
 30
0.0
 11
2035.794420353849
 21
433.6939933880751
 31
0.0
  0
ARC
  5
387
330
15
100
AcDbEntity
  8
4
100
AcDbCircle
 10
1990.187104902092
 20
441.9212347240275
 30
0.0
 40
3.875378875279264
100
AcDbArc
 50
134.9559267627452
 51
225.0440732372548
  0
LINE
  5
388
330
15
100
AcDbEntity
  8
4
100
AcDbLine
 10
1994.311726026813
 20
412.7240390519435
 30
0.0
 11
1994.311726026813
 21
434.6633492811495
 31
0.0
  0
ARC
  5
389
330
15
100
AcDbEntity
  8
4
100
AcDbCircle
 10
2000.10747016199
 20
423.6936941665469
 30
0.0
 40
13.7957441351769
100
AcDbArc
 50
156.5734024913708
 51
203.4265975086292
  0
LINE
  5
38A
330
15
100
AcDbEntity
  8
4
100
AcDbLine
 10
1986.311726026813
 20
431.9209355024993
 30
0.0
 11
1986.311726026813
 21
415.4664528305946
 31
0.0
  0
LINE
  5
38B
330
15
100
AcDbEntity
  8
4
100
AcDbLine
 10
1997.311726026813
 20
412.7240390519435
 30
0.0
 11
1997.311726026813
 21
434.6633492811495
 31
0.0
  0
LINE
  5
38C
330
15
100
AcDbEntity
  8
4
100
AcDbLine
 10
1987.448906937439
 20
418.2088666092457
 30
0.0
 11
1994.311726026813
 21
418.2088666092457
 31
0.0
  0
LINE
  5
38D
330
15
100
AcDbEntity
  8
4
100
AcDbLine
 10
1987.448906937439
 20
412.7240390519435
 30
0.0
 11
1997.311726026813
 21
412.7240390519435
 31
0.0
  0
ARC
  5
38E
330
15
100
AcDbEntity
  8
4
100
AcDbCircle
 10
1990.187104902092
 20
415.4664528305946
 30
0.0
 40
3.875378875279244
100
AcDbArc
 50
134.9559267627452
 51
225.0440732372548
  0
LINE
  5
38F
330
15
100
AcDbEntity
  8
4
100
AcDbLine
 10
1987.448906937439
 20
429.1785217238482
 30
0.0
 11
1994.311726026813
 21
429.1785217238482
 31
0.0
  0
LINE
  5
390
330
15
100
AcDbEntity
  8
4
100
AcDbLine
 10
1997.311726026813
 20
434.6633492811495
 30
0.0
 11
1987.448906937439
 21
434.6633492811495
 31
0.0
  0
LINE
  5
391
330
15
100
AcDbEntity
  8
L-CENTER
 48
2.0
100
AcDbLine
 10
1982.710886146709
 20
423.6936941665469
 30
0.0
 11
2035.794420353849
 21
423.6936941665469
 31
0.0
  0
ARC
  5
392
330
15
100
AcDbEntity
  8
4
100
AcDbCircle
 10
1990.187104902092
 20
431.9209355024993
 30
0.0
 40
3.875378875279264
100
AcDbArc
 50
134.9559267627452
 51
225.0440732372548
  0
LINE
  5
393
330
15
100
AcDbEntity
  8
4
100
AcDbLine
 10
1994.311726026813
 20
362.7240400519433
 30
0.0
 11
1994.311726026813
 21
384.6633502811494
 31
0.0
  0
ARC
  5
394
330
15
100
AcDbEntity
  8
4
100
AcDbCircle
 10
2000.10747016199
 20
373.6936951665468
 30
0.0
 40
13.7957441351769
100
AcDbArc
 50
156.5734024913729
 51
203.4265975086271
  0
LINE
  5
395
330
15
100
AcDbEntity
  8
4
100
AcDbLine
 10
1986.311726026813
 20
381.9209365024992
 30
0.0
 11
1986.311726026813
 21
365.4664538305944
 31
0.0
  0
LINE
  5
396
330
15
100
AcDbEntity
  8
4
100
AcDbLine
 10
1997.311726026813
 20
362.7240400519433
 30
0.0
 11
1997.311726026813
 21
384.6633502811494
 31
0.0
  0
LINE
  5
397
330
15
100
AcDbEntity
  8
4
100
AcDbLine
 10
1987.448906937439
 20
368.2088676092455
 30
0.0
 11
1994.311726026813
 21
368.2088676092455
 31
0.0
  0
LINE
  5
398
330
15
100
AcDbEntity
  8
4
100
AcDbLine
 10
1987.448906937439
 20
362.7240400519433
 30
0.0
 11
1997.311726026813
 21
362.7240400519433
 31
0.0
  0
ARC
  5
399
330
15
100
AcDbEntity
  8
4
100
AcDbCircle
 10
1990.187104902092
 20
365.4664538305944
 30
0.0
 40
3.875378875279244
100
AcDbArc
 50
134.9559267627452
 51
225.0440732372548
  0
LINE
  5
39A
330
15
100
AcDbEntity
  8
4
100
AcDbLine
 10
1987.448906937439
 20
379.1785227238481
 30
0.0
 11
1994.311726026813
 21
379.1785227238481
 31
0.0
  0
LINE
  5
39B
330
15
100
AcDbEntity
  8
4
100
AcDbLine
 10
1997.311726026813
 20
384.6633502811494
 30
0.0
 11
1987.448906937439
 21
384.6633502811494
 31
0.0
  0
LINE
  5
39C
330
15
100
AcDbEntity
  8
L-CENTER
 48
2.0
100
AcDbLine
 10
1982.710886146709
 20
373.6936951665468
 30
0.0
 11
2035.794420353849
 21
373.6936951665468
 31
0.0
  0
ARC
  5
39D
330
15
100
AcDbEntity
  8
4
100
AcDbCircle
 10
1990.187104902092
 20
381.9209365024992
 30
0.0
 40
3.875378875279264
100
AcDbArc
 50
134.9559267627452
 51
225.0440732372548
  0
LINE
  5
39E
330
15
100
AcDbEntity
  8
L-CENTER
 48
2.0
100
AcDbLine
 10
2385.712569906917
 20
373.6936951665468
 30
0.0
 11
2332.629035699777
 21
373.6936951665468
 31
0.0
  0
ARC
  5
39F
330
15
100
AcDbEntity
  8
4
100
AcDbCircle
 10
2378.236351151534
 20
381.9209365024992
 30
0.0
 40
3.875378875279264
100
AcDbArc
 50
314.9559267627452
 51
45.04407323725481
  0
LINE
  5
3A0
330
15
100
AcDbEntity
  8
4
100
AcDbLine
 10
2371.111730026813
 20
384.6633502811494
 30
0.0
 11
2380.974549116187
 21
384.6633502811494
 31
0.0
  0
LINE
  5
3A1
330
15
100
AcDbEntity
  8
4
100
AcDbLine
 10
2380.974549116187
 20
379.1785227238481
 30
0.0
 11
2374.111730026813
 21
379.1785227238481
 31
0.0
  0
ARC
  5
3A2
330
15
100
AcDbEntity
  8
4
100
AcDbCircle
 10
2378.236351151534
 20
365.4664538305944
 30
0.0
 40
3.875378875279244
100
AcDbArc
 50
314.9559267627452
 51
45.04407323725481
  0
LINE
  5
3A3
330
15
100
AcDbEntity
  8
4
100
AcDbLine
 10
2380.974549116187
 20
362.7240400519433
 30
0.0
 11
2371.111730026813
 21
362.7240400519433
 31
0.0
  0
LINE
  5
3A4
330
15
100
AcDbEntity
  8
4
100
AcDbLine
 10
2380.974549116187
 20
368.2088676092455
 30
0.0
 11
2374.111730026813
 21
368.2088676092455
 31
0.0
  0
LINE
  5
3A5
330
15
100
AcDbEntity
  8
4
100
AcDbLine
 10
2371.111730026813
 20
362.7240400519433
 30
0.0
 11
2371.111730026813
 21
384.6633502811494
 31
0.0
  0
LINE
  5
3A6
330
15
100
AcDbEntity
  8
4
100
AcDbLine
 10
2382.111730026813
 20
381.9209365024992
 30
0.0
 11
2382.111730026813
 21
365.4664538305944
 31
0.0
  0
ARC
  5
3A7
330
15
100
AcDbEntity
  8
4
100
AcDbCircle
 10
2368.315985891637
 20
373.6936951665468
 30
0.0
 40
13.7957441351769
100
AcDbArc
 50
336.5734024913691
 51
23.42659750863096
  0
LINE
  5
3A8
330
15
100
AcDbEntity
  8
4
100
AcDbLine
 10
2374.111730026813
 20
362.7240400519433
 30
0.0
 11
2374.111730026813
 21
384.6633502811494
 31
0.0
  0
LINE
  5
3A9
330
15
100
AcDbEntity
  8
L-CENTER
 48
2.0
100
AcDbLine
 10
2385.712569906917
 20
423.6936941665469
 30
0.0
 11
2332.629035699776
 21
423.6936941665469
 31
0.0
  0
LINE
  5
3AA
330
15
100
AcDbEntity
  8
L-CENTER
 48
2.0
100
AcDbLine
 10
2385.712569906917
 20
433.6939933880751
 30
0.0
 11
2332.629035699776
 21
433.6939933880751
 31
0.0
  0
LINE
  5
3AB
330
15
100
AcDbEntity
  8
L-CENTER
 48
2.0
100
AcDbLine
 10
2385.712569906917
 20
468.6935447370231
 30
0.0
 11
2332.629035699776
 21
468.6935447370231
 31
0.0
  0
ARC
  5
3AC
330
15
100
AcDbEntity
  8
4
100
AcDbCircle
 10
2368.315985891635
 20
433.6939933880751
 30
0.0
 40
13.7957441351769
100
AcDbArc
 50
355.1776269230342
 51
23.42659750862749
  0
ARC
  5
3AD
330
15
100
AcDbEntity
  8
4
100
AcDbCircle
 10
2378.236351151534
 20
431.9209355024993
 30
0.0
 40
3.875378875279264
100
AcDbArc
 50
314.9559267627452
 51
45.04407323725481
  0
LINE
  5
3AE
330
15
100
AcDbEntity
  8
4
100
AcDbLine
 10
2371.111730026812
 20
434.6633492811495
 30
0.0
 11
2380.974549116187
 21
434.6633492811495
 31
0.0
  0
LINE
  5
3AF
330
15
100
AcDbEntity
  8
4
100
AcDbLine
 10
2380.974549116187
 20
429.1785217238482
 30
0.0
 11
2374.111730026812
 21
429.1785217238482
 31
0.0
  0
ARC
  5
3B0
330
15
100
AcDbEntity
  8
4
100
AcDbCircle
 10
2378.236351151534
 20
415.4664528305946
 30
0.0
 40
3.875378875279244
100
AcDbArc
 50
314.9559267627452
 51
45.04407323725481
  0
LINE
  5
3B1
330
15
100
AcDbEntity
  8
4
100
AcDbLine
 10
2380.974549116187
 20
412.7240390519435
 30
0.0
 11
2371.111730026812
 21
412.7240390519435
 31
0.0
  0
LINE
  5
3B2
330
15
100
AcDbEntity
  8
4
100
AcDbLine
 10
2380.974549116187
 20
418.2088666092457
 30
0.0
 11
2374.111730026812
 21
418.2088666092457
 31
0.0
  0
LINE
  5
3B3
330
15
100
AcDbEntity
  8
4
100
AcDbLine
 10
2371.111730026812
 20
412.7240390519435
 30
0.0
 11
2371.111730026812
 21
434.6633492811495
 31
0.0
  0
LINE
  5
3B4
330
15
100
AcDbEntity
  8
4
100
AcDbLine
 10
2382.111730026812
 20
431.9209355024993
 30
0.0
 11
2382.111730026812
 21
415.4664528305946
 31
0.0
  0
ARC
  5
3B5
330
15
100
AcDbEntity
  8
4
100
AcDbCircle
 10
2368.315985891636
 20
423.6936941665469
 30
0.0
 40
13.7957441351769
100
AcDbArc
 50
336.5734024913725
 51
23.42659750862749
  0
LINE
  5
3B6
330
15
100
AcDbEntity
  8
4
100
AcDbLine
 10
2374.111730026812
 20
412.7240390519435
 30
0.0
 11
2374.111730026812
 21
434.6633492811495
 31
0.0
  0
ARC
  5
3B7
330
15
100
AcDbEntity
  8
4
100
AcDbCircle
 10
2378.236351151534
 20
441.9212347240275
 30
0.0
 40
3.875378875279264
100
AcDbArc
 50
314.9559267627452
 51
45.04407323725481
  0
LINE
  5
3B8
330
15
100
AcDbEntity
  8
4
100
AcDbLine
 10
2371.111730026812
 20
444.6636485026777
 30
0.0
 11
2380.974549116187
 21
444.6636485026777
 31
0.0
  0
LINE
  5
3B9
330
15
100
AcDbEntity
  8
4
100
AcDbLine
 10
2380.974549116187
 20
439.1788209453764
 30
0.0
 11
2374.111730026812
 21
439.1788209453764
 31
0.0
  0
LINE
  5
3BA
330
15
100
AcDbEntity
  8
4
100
AcDbLine
 10
2371.111730026812
 20
422.7243382734716
 30
0.0
 11
2371.111730026812
 21
444.6636485026777
 31
0.0
  0
LINE
  5
3BB
330
15
100
AcDbEntity
  8
4
100
AcDbLine
 10
2382.111730026812
 20
441.9212347240275
 30
0.0
 11
2382.111730026812
 21
425.4667520521227
 31
0.0
  0
LINE
  5
3BC
330
15
100
AcDbEntity
  8
4
100
AcDbLine
 10
2374.111730026812
 20
422.7243382734716
 30
0.0
 11
2374.111730026812
 21
444.6636485026777
 31
0.0
  0
LINE
  5
3BD
330
15
100
AcDbEntity
  8
4
100
AcDbLine
 10
2380.974549116187
 20
474.1783722943244
 30
0.0
 11
2374.111730026812
 21
474.1783722943244
 31
0.0
  0
ARC
  5
3BE
330
15
100
AcDbEntity
  8
4
100
AcDbCircle
 10
2378.236351151534
 20
460.4663034010707
 30
0.0
 40
3.875378875279244
100
AcDbArc
 50
314.9559267627452
 51
45.04407323725481
  0
LINE
  5
3BF
330
15
100
AcDbEntity
  8
4
100
AcDbLine
 10
2380.974549116187
 20
457.7238896224196
 30
0.0
 11
2371.111730026812
 21
457.7238896224196
 31
0.0
  0
LINE
  5
3C0
330
15
100
AcDbEntity
  8
4
100
AcDbLine
 10
2380.974549116187
 20
463.2087171797218
 30
0.0
 11
2374.111730026812
 21
463.2087171797218
 31
0.0
  0
LINE
  5
3C1
330
15
100
AcDbEntity
  8
4
100
AcDbLine
 10
2382.111730026812
 20
476.9207860729755
 30
0.0
 11
2382.111730026812
 21
460.4663034010707
 31
0.0
  0
ARC
  5
3C2
330
15
100
AcDbEntity
  8
4
100
AcDbCircle
 10
2368.315985891635
 20
468.6935447370231
 30
0.0
 40
13.7957441351769
100
AcDbArc
 50
336.5734024913725
 51
23.42659750862749
  0
ARC
  5
3C3
330
15
100
AcDbEntity
  8
4
100
AcDbCircle
 10
2378.236351151534
 20
611.9209375024991
 30
0.0
 40
3.875378875279264
100
AcDbArc
 50
314.9559267627452
 51
45.04407323725481
  0
LINE
  5
3C4
330
15
100
AcDbEntity
  8
4
100
AcDbLine
 10
2371.111730026812
 20
592.7240410519432
 30
0.0
 11
2371.111730026812
 21
614.6633512811493
 31
0.0
  0
LINE
  5
3C5
330
15
100
AcDbEntity
  8
4
100
AcDbLine
 10
2374.111730026812
 20
592.7240410519432
 30
0.0
 11
2374.111730026812
 21
614.6633512811493
 31
0.0
  0
LINE
  5
3C6
330
15
100
AcDbEntity
  8
L-CENTER
 48
2.0
100
AcDbLine
 10
2385.712569906917
 20
558.6938461169332
 30
0.0
 11
2332.629035699776
 21
558.6938461169332
 31
0.0
  0
LINE
  5
3C7
330
15
100
AcDbEntity
  8
L-CENTER
 48
2.0
100
AcDbLine
 10
2385.712569906917
 20
553.69399632724
 30
0.0
 11
2332.629035699776
 21
553.69399632724
 31
0.0
  0
LINE
  5
3C8
330
15
100
AcDbEntity
  8
L-CENTER
 48
2.0
100
AcDbLine
 10
2385.712569906917
 20
603.6936961665467
 30
0.0
 11
2332.629035699776
 21
603.6936961665467
 31
0.0
  0
LINE
  5
3C9
330
15
100
AcDbEntity
  8
4
100
AcDbLine
 10
2371.111730026812
 20
542.7243412126365
 30
0.0
 11
2371.111730026812
 21
564.6636514418426
 31
0.0
  0
LINE
  5
3CA
330
15
100
AcDbEntity
  8
4
100
AcDbLine
 10
2374.111730026812
 20
542.7243412126365
 30
0.0
 11
2374.111730026812
 21
564.6636514418426
 31
0.0
  0
ARC
  5
3CB
330
15
100
AcDbEntity
  8
4
100
AcDbCircle
 10
2378.236351151534
 20
545.4667549912876
 30
0.0
 40
3.875378875279244
100
AcDbArc
 50
314.9559267627523
 51
40.17158659654934
  0
LINE
  5
3CC
330
15
100
AcDbEntity
  8
4
100
AcDbLine
 10
2380.974549116187
 20
542.7243412126365
 30
0.0
 11
2371.111730026812
 21
542.7243412126365
 31
0.0
  0
LINE
  5
3CD
330
15
100
AcDbEntity
  8
4
100
AcDbLine
 10
2382.111730026812
 20
550.4666047809808
 30
0.0
 11
2382.111730026812
 21
545.4667549912876
 31
0.0
  0
ARC
  5
3CE
330
15
100
AcDbEntity
  8
4
100
AcDbCircle
 10
2378.236351151534
 20
566.9210874528856
 30
0.0
 40
3.875378875279264
100
AcDbArc
 50
314.9559267627452
 51
45.04407323725481
  0
LINE
  5
3CF
330
15
100
AcDbEntity
  8
4
100
AcDbLine
 10
2371.111730026812
 20
569.6635012315357
 30
0.0
 11
2380.974549116187
 21
569.6635012315357
 31
0.0
  0
LINE
  5
3D0
330
15
100
AcDbEntity
  8
4
100
AcDbLine
 10
2380.974549116187
 20
564.1786736742345
 30
0.0
 11
2374.111730026812
 21
564.1786736742345
 31
0.0
  0
ARC
  5
3D1
330
15
100
AcDbEntity
  8
4
100
AcDbCircle
 10
2378.236351151534
 20
550.4666047809808
 30
0.0
 40
3.875378875279244
100
AcDbArc
 50
314.9559267627452
 51
45.04407323725481
  0
LINE
  5
3D2
330
15
100
AcDbEntity
  8
4
100
AcDbLine
 10
2380.974549116187
 20
547.7241910023297
 30
0.0
 11
2371.111730026812
 21
547.7241910023297
 31
0.0
  0
LINE
  5
3D3
330
15
100
AcDbEntity
  8
4
100
AcDbLine
 10
2380.974549116187
 20
553.2090185596319
 30
0.0
 11
2374.111730026812
 21
553.2090185596319
 31
0.0
  0
LINE
  5
3D4
330
15
100
AcDbEntity
  8
4
100
AcDbLine
 10
2371.111730026812
 20
547.7241910023297
 30
0.0
 11
2371.111730026812
 21
569.6635012315357
 31
0.0
  0
LINE
  5
3D5
330
15
100
AcDbEntity
  8
4
100
AcDbLine
 10
2382.111730026812
 20
566.9210874528856
 30
0.0
 11
2382.111730026812
 21
550.4666047809808
 31
0.0
  0
ARC
  5
3D6
330
15
100
AcDbEntity
  8
4
100
AcDbCircle
 10
2368.315985891635
 20
558.6938461169332
 30
0.0
 40
13.7957441351769
100
AcDbArc
 50
336.5734024913725
 51
23.42659750862749
  0
LINE
  5
3D7
330
15
100
AcDbEntity
  8
4
100
AcDbLine
 10
2374.111730026812
 20
547.7241910023297
 30
0.0
 11
2374.111730026812
 21
569.6635012315357
 31
0.0
  0
LINE
  5
3D8
330
15
100
AcDbEntity
  8
4
100
AcDbLine
 10
2380.974549116187
 20
609.178523723848
 30
0.0
 11
2374.111730026812
 21
609.178523723848
 31
0.0
  0
ARC
  5
3D9
330
15
100
AcDbEntity
  8
4
100
AcDbCircle
 10
2378.236351151534
 20
595.4664548305943
 30
0.0
 40
3.875378875279244
100
AcDbArc
 50
314.9559267627452
 51
45.04407323725481
  0
LINE
  5
3DA
330
15
100
AcDbEntity
  8
4
100
AcDbLine
 10
2380.974549116187
 20
592.7240410519432
 30
0.0
 11
2371.111730026812
 21
592.7240410519432
 31
0.0
  0
LINE
  5
3DB
330
15
100
AcDbEntity
  8
4
100
AcDbLine
 10
2380.974549116187
 20
598.2088686092454
 30
0.0
 11
2374.111730026812
 21
598.2088686092454
 31
0.0
  0
LINE
  5
3DC
330
15
100
AcDbEntity
  8
4
100
AcDbLine
 10
2382.111730026812
 20
611.9209375024991
 30
0.0
 11
2382.111730026812
 21
595.4664548305943
 31
0.0
  0
ARC
  5
3DD
330
15
100
AcDbEntity
  8
4
100
AcDbCircle
 10
2368.315985891636
 20
603.6936961665467
 30
0.0
 40
13.7957441351769
100
AcDbArc
 50
336.5734024913725
 51
23.42659750862749
  0
LINE
  5
3DE
330
15
100
AcDbEntity
  8
L-CENTER
 48
2.0
100
AcDbLine
 10
2385.712569906917
 20
613.6936931665471
 30
0.0
 11
2332.629035699776
 21
613.6936931665471
 31
0.0
  0
LINE
  5
3DF
330
15
100
AcDbEntity
  8
4
100
AcDbLine
 10
2371.111730026812
 20
614.6633512811493
 30
0.0
 11
2380.974549116187
 21
614.6633512811493
 31
0.0
  0
ARC
  5
3E0
330
15
100
AcDbEntity
  8
4
100
AcDbCircle
 10
2368.315985891636
 20
613.6936931665471
 30
0.0
 40
13.7957441351769
100
AcDbArc
 50
355.1784521586471
 51
23.42659750862749
  0
LINE
  5
3E1
330
15
100
AcDbEntity
  8
4
100
AcDbLine
 10
2371.111730026812
 20
602.7240380519436
 30
0.0
 11
2371.111730026812
 21
624.6633482811496
 31
0.0
  0
LINE
  5
3E2
330
15
100
AcDbEntity
  8
4
100
AcDbLine
 10
2382.111730026812
 20
621.9209345024994
 30
0.0
 11
2382.111730026812
 21
605.4664518305947
 31
0.0
  0
LINE
  5
3E3
330
15
100
AcDbEntity
  8
4
100
AcDbLine
 10
2374.111730026812
 20
602.7240380519436
 30
0.0
 11
2374.111730026812
 21
624.6633482811496
 31
0.0
  0
ARC
  5
3E4
330
15
100
AcDbEntity
  8
4
100
AcDbCircle
 10
2378.236351151534
 20
621.9209345024994
 30
0.0
 40
3.875378875279264
100
AcDbArc
 50
314.9559267627452
 51
45.04407323725481
  0
LINE
  5
3E5
330
15
100
AcDbEntity
  8
4
100
AcDbLine
 10
2371.111730026812
 20
624.6633482811496
 30
0.0
 11
2380.974549116187
 21
624.6633482811496
 31
0.0
  0
LINE
  5
3E6
330
15
100
AcDbEntity
  8
4
100
AcDbLine
 10
2380.974549116187
 20
619.1785207238484
 30
0.0
 11
2374.111730026812
 21
619.1785207238484
 31
0.0
  0
ARC
  5
3E7
330
15
100
AcDbEntity
  8
4
100
AcDbCircle
 10
2378.236351151534
 20
476.9207860729755
 30
0.0
 40
3.875378875279264
100
AcDbArc
 50
314.9559267627452
 51
45.04407323725481
  0
LINE
  5
3E8
330
15
100
AcDbEntity
  8
4
100
AcDbLine
 10
2371.111730026812
 20
479.6631998516257
 30
0.0
 11
2380.974549116187
 21
479.6631998516257
 31
0.0
  0
LINE
  5
3E9
330
15
100
AcDbEntity
  8
4
100
AcDbLine
 10
2371.111730026812
 20
457.7238896224196
 30
0.0
 11
2371.111730026812
 21
479.6631998516257
 31
0.0
  0
LINE
  5
3EA
330
15
100
AcDbEntity
  8
4
100
AcDbLine
 10
2374.111730026812
 20
457.7238896224196
 30
0.0
 11
2374.111730026812
 21
479.6631998516257
 31
0.0
  0
LINE
  5
3EB
330
15
100
AcDbEntity
  8
4
100
AcDbLine
 10
862.0228696373911
 20
1735.309116166234
 30
0.0
 11
862.0228696373911
 21
1728.446297076862
 31
0.0
  0
LINE
  5
3EC
330
15
100
AcDbEntity
  8
4
100
AcDbLine
 10
867.5076971946914
 20
1725.446297076862
 30
0.0
 11
867.5076971946914
 21
1735.309116166234
 31
0.0
  0
LINE
  5
3ED
330
15
100
AcDbEntity
  8
4
100
AcDbLine
 10
851.0532145227885
 20
1735.309116166234
 30
0.0
 11
851.0532145227885
 21
1728.446297076862
 31
0.0
  0
LINE
  5
3EE
330
15
100
AcDbEntity
  8
4
100
AcDbLine
 10
845.5683869654863
 20
1735.309116166234
 30
0.0
 11
845.5683869654863
 21
1725.446297076862
 31
0.0
  0
LINE
  5
3EF
330
15
100
AcDbEntity
  8
4
100
AcDbLine
 10
845.5683869654863
 20
1725.446297076862
 30
0.0
 11
867.5076971946914
 21
1725.446297076862
 31
0.0
  0
LINE
  5
3F0
330
15
100
AcDbEntity
  8
4
100
AcDbLine
 10
845.5683869654863
 20
1728.446297076862
 30
0.0
 11
867.5076971946914
 21
1728.446297076862
 31
0.0
  0
ARC
  5
3F1
330
15
100
AcDbEntity
  8
4
100
AcDbCircle
 10
856.5380420800889
 20
1722.650552941685
 30
0.0
 40
13.7957441351769
100
AcDbArc
 50
66.57340249136743
 51
113.4265975086279
  0
LINE
  5
3F2
330
15
100
AcDbEntity
  8
4
100
AcDbLine
 10
864.7652834160422
 20
1736.446297076862
 30
0.0
 11
848.3108007441374
 21
1736.446297076862
 31
0.0
  0
ARC
  5
3F3
330
15
100
AcDbEntity
  8
4
100
AcDbCircle
 10
848.3108007441374
 20
1732.570918201582
 30
0.0
 40
3.875378875279244
100
AcDbArc
 50
44.95592676276183
 51
135.044073237256
  0
ARC
  5
3F4
330
15
100
AcDbEntity
  8
4
100
AcDbCircle
 10
864.7652834160422
 20
1732.570918201582
 30
0.0
 40
3.875378875279264
100
AcDbArc
 50
44.95592676276183
 51
135.0440732372572
  0
LINE
  5
3F5
330
15
100
AcDbEntity
  8
4
100
AcDbLine
 10
1115.568386965486
 20
1728.446297076862
 30
0.0
 11
1137.507697194691
 21
1728.446297076862
 31
0.0
  0
ARC
  5
3F6
330
15
100
AcDbEntity
  8
4
100
AcDbCircle
 10
1126.538042080089
 20
1722.650552941685
 30
0.0
 40
13.7957441351769
100
AcDbArc
 50
66.5734024913683
 51
113.4265975086275
  0
LINE
  5
3F7
330
15
100
AcDbEntity
  8
4
100
AcDbLine
 10
1134.765283416042
 20
1736.446297076862
 30
0.0
 11
1118.310800744137
 21
1736.446297076862
 31
0.0
  0
LINE
  5
3F8
330
15
100
AcDbEntity
  8
4
100
AcDbLine
 10
1115.568386965486
 20
1725.446297076862
 30
0.0
 11
1137.507697194691
 21
1725.446297076862
 31
0.0
  0
LINE
  5
3F9
330
15
100
AcDbEntity
  8
4
100
AcDbLine
 10
1121.053214522788
 20
1735.309116166235
 30
0.0
 11
1121.053214522788
 21
1728.446297076862
 31
0.0
  0
LINE
  5
3FA
330
15
100
AcDbEntity
  8
4
100
AcDbLine
 10
1115.568386965486
 20
1735.309116166235
 30
0.0
 11
1115.568386965486
 21
1725.446297076862
 31
0.0
  0
ARC
  5
3FB
330
15
100
AcDbEntity
  8
4
100
AcDbCircle
 10
1118.310800744137
 20
1732.570918201583
 30
0.0
 40
3.875378875279244
100
AcDbArc
 50
44.95592676276183
 51
135.0440732372572
  0
LINE
  5
3FC
330
15
100
AcDbEntity
  8
4
100
AcDbLine
 10
1132.022869637391
 20
1735.309116166235
 30
0.0
 11
1132.022869637391
 21
1728.446297076862
 31
0.0
  0
LINE
  5
3FD
330
15
100
AcDbEntity
  8
4
100
AcDbLine
 10
1137.507697194691
 20
1725.446297076862
 30
0.0
 11
1137.507697194691
 21
1735.309116166235
 31
0.0
  0
ARC
  5
3FE
330
15
100
AcDbEntity
  8
4
100
AcDbCircle
 10
1134.765283416042
 20
1732.570918201583
 30
0.0
 40
3.875378875279264
100
AcDbArc
 50
44.95592676276183
 51
135.0440732372572
  0
LINE
  5
3FF
330
15
100
AcDbEntity
  8
4
100
AcDbLine
 10
867.5076971946914
 20
1351.34629707686
 30
0.0
 11
867.5076971946914
 21
1341.483477987488
 31
0.0
  0
LINE
  5
400
330
15
100
AcDbEntity
  8
4
100
AcDbLine
 10
862.0228696373911
 20
1341.483477987488
 30
0.0
 11
862.0228696373911
 21
1348.34629707686
 31
0.0
  0
LINE
  5
401
330
15
100
AcDbEntity
  8
4
100
AcDbLine
 10
845.5683869654863
 20
1341.483477987488
 30
0.0
 11
845.5683869654863
 21
1351.34629707686
 31
0.0
  0
LINE
  5
402
330
15
100
AcDbEntity
  8
4
100
AcDbLine
 10
851.0532145227885
 20
1341.483477987488
 30
0.0
 11
851.0532145227885
 21
1348.34629707686
 31
0.0
  0
ARC
  5
403
330
15
100
AcDbEntity
  8
4
100
AcDbCircle
 10
856.5380420800889
 20
1354.142041212037
 30
0.0
 40
13.7957441351769
100
AcDbArc
 50
246.5734024913716
 51
293.4265975086321
  0
LINE
  5
404
330
15
100
AcDbEntity
  8
4
100
AcDbLine
 10
864.7652834160422
 20
1340.34629707686
 30
0.0
 11
848.3108007441374
 21
1340.34629707686
 31
0.0
  0
ARC
  5
405
330
15
100
AcDbEntity
  8
4
100
AcDbCircle
 10
848.3108007441374
 20
1344.22167595214
 30
0.0
 40
3.875378875279244
100
AcDbArc
 50
224.9559267627428
 51
315.0440732372381
  0
ARC
  5
406
330
15
100
AcDbEntity
  8
4
100
AcDbCircle
 10
864.7652834160422
 20
1344.22167595214
 30
0.0
 40
3.875378875279264
100
AcDbArc
 50
224.9559267627428
 51
315.0440732372381
  0
LINE
  5
407
330
15
100
AcDbEntity
  8
4
100
AcDbLine
 10
845.5683869654863
 20
1351.34629707686
 30
0.0
 11
867.5076971946914
 21
1351.34629707686
 31
0.0
  0
LINE
  5
408
330
15
100
AcDbEntity
  8
4
100
AcDbLine
 10
845.5683869654863
 20
1348.34629707686
 30
0.0
 11
867.5076971946914
 21
1348.34629707686
 31
0.0
  0
LINE
  5
409
330
15
100
AcDbEntity
  8
4
100
AcDbLine
 10
1115.568386965486
 20
1341.483477987487
 30
0.0
 11
1115.568386965486
 21
1351.34629707686
 31
0.0
  0
LINE
  5
40A
330
15
100
AcDbEntity
  8
4
100
AcDbLine
 10
1137.507697194691
 20
1351.34629707686
 30
0.0
 11
1137.507697194691
 21
1341.483477987487
 31
0.0
  0
LINE
  5
40B
330
15
100
AcDbEntity
  8
4
100
AcDbLine
 10
1121.053214522788
 20
1341.483477987487
 30
0.0
 11
1121.053214522788
 21
1348.34629707686
 31
0.0
  0
LINE
  5
40C
330
15
100
AcDbEntity
  8
4
100
AcDbLine
 10
1132.022869637391
 20
1341.483477987487
 30
0.0
 11
1132.022869637391
 21
1348.34629707686
 31
0.0
  0
ARC
  5
40D
330
15
100
AcDbEntity
  8
4
100
AcDbCircle
 10
1126.538042080089
 20
1354.142041212037
 30
0.0
 40
13.7957441351769
100
AcDbArc
 50
246.5734024913725
 51
293.4265975086317
  0
LINE
  5
40E
330
15
100
AcDbEntity
  8
4
100
AcDbLine
 10
1134.765283416042
 20
1340.34629707686
 30
0.0
 11
1118.310800744137
 21
1340.34629707686
 31
0.0
  0
ARC
  5
40F
330
15
100
AcDbEntity
  8
4
100
AcDbCircle
 10
1118.310800744137
 20
1344.221675952139
 30
0.0
 40
3.875378875279244
100
AcDbArc
 50
224.9559267627428
 51
315.0440732372381
  0
ARC
  5
410
330
15
100
AcDbEntity
  8
4
100
AcDbCircle
 10
1134.765283416042
 20
1344.221675952139
 30
0.0
 40
3.875378875279264
100
AcDbArc
 50
224.9559267627428
 51
315.0440732372381
  0
LINE
  5
411
330
15
100
AcDbEntity
  8
4
100
AcDbLine
 10
1115.568386965486
 20
1351.34629707686
 30
0.0
 11
1137.507697194691
 21
1351.34629707686
 31
0.0
  0
LINE
  5
412
330
15
100
AcDbEntity
  8
4
100
AcDbLine
 10
1115.568386965486
 20
1348.34629707686
 30
0.0
 11
1137.507697194691
 21
1348.34629707686
 31
0.0
  0
LINE
  5
413
330
15
100
AcDbEntity
  8
4
100
AcDbLine
 10
1423.538042080089
 20
1451.246297076863
 30
0.0
 11
1539.538042080089
 21
1451.246297076863
 31
0.0
  0
LINE
  5
414
330
15
100
AcDbEntity
  8
4
100
AcDbLine
 10
1439.038042080089
 20
1472.746297076863
 30
0.0
 11
1541.538042080089
 21
1472.746297076863
 31
0.0
  0
LINE
  5
415
330
15
100
AcDbEntity
  8
4
100
AcDbLine
 10
1439.038042080089
 20
1487.746297076863
 30
0.0
 11
1541.538042080089
 21
1487.746297076863
 31
0.0
  0
LINE
  5
416
330
15
100
AcDbEntity
  8
4
100
AcDbLine
 10
1423.538042080089
 20
1509.246297076863
 30
0.0
 11
1539.538042080089
 21
1509.246297076863
 31
0.0
  0
ARC
  5
417
330
15
100
AcDbEntity
  8
4
100
AcDbCircle
 10
1423.538042080089
 20
1511.246297076863
 30
0.0
 40
2.0
100
AcDbArc
 50
180.0
 51
270.0
  0
ARC
  5
418
330
15
100
AcDbEntity
  8
4
100
AcDbCircle
 10
1423.538042080089
 20
1449.246297076863
 30
0.0
 40
2.0
100
AcDbArc
 50
90.0
 51
180.0
  0
ARC
  5
419
330
15
100
AcDbEntity
  8
4
100
AcDbCircle
 10
1439.038042080089
 20
1480.246297076863
 30
0.0
 40
7.5
100
AcDbArc
 50
90.0
 51
270.0
  0
LINE
  5
41A
330
15
100
AcDbEntity
  8
4
100
AcDbLine
 10
1421.538042080089
 20
1512.746297076863
 30
0.0
 11
1421.538042080089
 21
1447.746297076863
 31
0.0
  0
LINE
  5
41B
330
15
100
AcDbEntity
  8
4
100
AcDbLine
 10
1539.538042080089
 20
1509.246297076863
 30
0.0
 11
1541.538042080089
 21
1507.246297076863
 31
0.0
  0
LINE
  5
41C
330
15
100
AcDbEntity
  8
4
100
AcDbLine
 10
1539.538042080089
 20
1509.246297076863
 30
0.0
 11
1539.538042080089
 21
1487.746297076863
 31
0.0
  0
LINE
  5
41D
330
15
100
AcDbEntity
  8
4
100
AcDbLine
 10
1539.538042080089
 20
1451.246297076863
 30
0.0
 11
1541.538042080089
 21
1453.246297076863
 31
0.0
  0
LINE
  5
41E
330
15
100
AcDbEntity
  8
4
100
AcDbLine
 10
1539.538042080089
 20
1472.746297076863
 30
0.0
 11
1539.538042080089
 21
1451.246297076863
 31
0.0
  0
LINE
  5
41F
330
15
100
AcDbEntity
  8
4
100
AcDbLine
 10
1541.538042080089
 20
1507.246297076863
 30
0.0
 11
1541.538042080089
 21
1453.246297076863
 31
0.0
  0
LINE
  5
420
330
15
100
AcDbEntity
  8
4
100
AcDbLine
 10
1407.428046080088
 20
1512.746297076863
 30
0.0
 11
1421.538042080089
 21
1512.746297076863
 31
0.0
  0
LINE
  5
421
330
15
100
AcDbEntity
  8
4
100
AcDbLine
 10
1407.428046080088
 20
1447.746297076863
 30
0.0
 11
1421.538042080089
 21
1447.746297076863
 31
0.0
  0
LINE
  5
422
330
15
100
AcDbEntity
  8
4
100
AcDbLine
 10
804.0380420800889
 20
1918.246297076861
 30
0.0
 11
842.5380420800889
 21
1918.246297076861
 31
0.0
  0
LINE
  5
423
330
15
100
AcDbEntity
  8
4
100
AcDbLine
 10
806.0380420800889
 20
1920.246297076861
 30
0.0
 11
907.0380420800889
 21
1920.246297076861
 31
0.0
  0
LINE
  5
424
330
15
100
AcDbEntity
  8
4
100
AcDbLine
 10
801.5380420800889
 20
1740.246297076861
 30
0.0
 11
911.5380420800889
 21
1740.246297076861
 31
0.0
  0
ARC
  5
425
330
15
100
AcDbEntity
  8
4
100
AcDbCircle
 10
911.5380420800898
 20
1742.746297076861
 30
0.0
 40
2.5
100
AcDbArc
 50
180.0
 51
270.0
  0
LINE
  5
426
330
15
100
AcDbEntity
  8
4
100
AcDbLine
 10
842.5380420800889
 20
1920.246297076861
 30
0.0
 11
842.5380420800889
 21
1764.246297076861
 31
0.0
  0
LINE
  5
427
330
15
100
AcDbEntity
  8
4
100
AcDbLine
 10
909.0380420800889
 20
1918.246297076861
 30
0.0
 11
909.0380420800889
 21
1742.746297076861
 31
0.0
  0
LINE
  5
428
330
15
100
AcDbEntity
  8
4
100
AcDbLine
 10
870.5380420800889
 20
1920.246297076861
 30
0.0
 11
870.5380420800889
 21
1764.246297076861
 31
0.0
  0
LINE
  5
429
330
15
100
AcDbEntity
  8
4
100
AcDbLine
 10
856.5380420800889
 20
1750.246297076861
 30
0.0
 11
856.5380420800889
 21
1750.246297076861
 31
0.0
  0
ARC
  5
42A
330
15
100
AcDbEntity
  8
4
100
AcDbCircle
 10
856.5380420800898
 20
1764.246297076861
 30
0.0
 40
14.0
100
AcDbArc
 50
180.0
 51
270.0
  0
ARC
  5
42B
330
15
100
AcDbEntity
  8
4
100
AcDbCircle
 10
856.5380420800898
 20
1764.246297076861
 30
0.0
 40
14.0
100
AcDbArc
 50
270.0
 51
0.0
  0
LINE
  5
42C
330
15
100
AcDbEntity
  8
4
100
AcDbLine
 10
907.0380420800889
 20
1920.246297076861
 30
0.0
 11
909.0380420800889
 21
1918.246297076861
 31
0.0
  0
LINE
  5
42D
330
15
100
AcDbEntity
  8
4
100
AcDbLine
 10
870.5380420800889
 20
1918.246297076861
 30
0.0
 11
909.0380420800889
 21
1918.246297076861
 31
0.0
  0
ARC
  5
42E
330
15
100
AcDbEntity
  8
4
100
AcDbCircle
 10
801.5380420800898
 20
1742.746297076861
 30
0.0
 40
2.5
100
AcDbArc
 50
270.0
 51
0.0
  0
LINE
  5
42F
330
15
100
AcDbEntity
  8
4
100
AcDbLine
 10
804.0380420800889
 20
1918.246297076861
 30
0.0
 11
804.0380420800889
 21
1742.746297076861
 31
0.0
  0
LINE
  5
430
330
15
100
AcDbEntity
  8
4
100
AcDbLine
 10
804.0380420800889
 20
1918.246297076861
 30
0.0
 11
806.0380420800889
 21
1920.246297076861
 31
0.0
  0
LINE
  5
431
330
15
100
AcDbEntity
  8
4
100
AcDbLine
 10
801.5380420800889
 20
1740.246297076861
 30
0.0
 11
801.5380420800889
 21
1726.446297076862
 31
0.0
  0
LINE
  5
432
330
15
100
AcDbEntity
  8
4
100
AcDbLine
 10
911.5380420800889
 20
1740.246297076861
 30
0.0
 11
911.5380420800898
 21
1726.446297076862
 31
0.0
  0
LINE
  5
433
330
15
100
AcDbEntity
  8
4
100
AcDbLine
 10
786.5380420800898
 20
1725.446297076862
 30
0.0
 11
786.5380420800898
 21
1726.446297076862
 31
0.0
  0
LINE
  5
434
330
15
100
AcDbEntity
  8
4
100
AcDbLine
 10
926.5380420800898
 20
1725.446297076862
 30
0.0
 11
926.5380420800898
 21
1726.446297076862
 31
0.0
  0
LINE
  5
435
330
15
100
AcDbEntity
  8
4
100
AcDbLine
 10
786.5380420800898
 20
1726.446297076862
 30
0.0
 11
845.5683869654863
 21
1726.446297076862
 31
0.0
  0
LINE
  5
436
330
15
100
AcDbEntity
  8
4
100
AcDbLine
 10
867.5076971946914
 20
1726.446297076862
 30
0.0
 11
926.5380420800889
 21
1726.446297076862
 31
0.0
  0
CIRCLE
  5
437
330
15
100
AcDbEntity
  8
4
100
AcDbCircle
 10
727.1280420800895
 20
1538.246297076861
 30
0.0
 40
23.0
  0
LWPOLYLINE
  5
438
330
15
100
AcDbEntity
  8
4
100
AcDbPolyline
 90
        6
 70
     1
 43
0.0
 10
750.128042080089
 20
1538.246297076861
 10
738.628042080089
 20
1558.164881363902
 10
715.6280420800895
 20
1558.164881363902
 10
704.1280420800895
 20
1538.246297076861
 10
715.6280420800895
 20
1518.327712789818
 10
738.628042080089
 20
1518.327712789818
  0
LINE
  5
439
330
15
100
AcDbEntity
  8
4
100
AcDbLine
 10
967.128042080089
 20
1503.246297076861
 30
0.0
 11
967.128042080089
 21
1573.246297076861
 31
0.0
  0
LINE
  5
43A
330
15
100
AcDbEntity
  8
4
100
AcDbLine
 10
987.128042080089
 20
1503.246297076861
 30
0.0
 11
987.128042080089
 21
1573.246297076861
 31
0.0
  0
ARC
  5
43B
330
15
100
AcDbEntity
  8
4
100
AcDbCircle
 10
977.1280420800899
 20
1538.246297076861
 30
0.0
 40
20.0
100
AcDbArc
 50
119.9999999999999
 51
240.0000000000001
  0
ARC
  5
43C
330
15
100
AcDbEntity
  8
4
100
AcDbCircle
 10
977.1280420800899
 20
1538.246297076861
 30
0.0
 40
22.5
100
AcDbArc
 50
116.3877999612435
 51
243.6122000387572
  0
ARC
  5
43D
330
15
100
AcDbEntity
  8
4
100
AcDbCircle
 10
977.1280420800899
 20
1538.246297076861
 30
0.0
 40
22.5
100
AcDbArc
 50
296.3877999612425
 51
63.61220003875647
  0
ARC
  5
43E
330
15
100
AcDbEntity
  8
4
100
AcDbCircle
 10
977.1280420800899
 20
1538.246297076861
 30
0.0
 40
20.0
100
AcDbArc
 50
299.9999999999998
 51
60.00000000000011
  0
ARC
  5
43F
330
15
100
AcDbEntity
  8
4
100
AcDbCircle
 10
977.1280420800899
 20
1503.246297076861
 30
0.0
 40
10.0
100
AcDbArc
 50
180.0
 51
0.0
  0
ARC
  5
440
330
15
100
AcDbEntity
  8
4
100
AcDbCircle
 10
977.1280420800899
 20
1573.246297076861
 30
0.0
 40
10.0
100
AcDbArc
 50
0.0
 51
180.0
  0
LINE
  5
441
330
15
100
AcDbEntity
  8
4
100
AcDbLine
 10
954.6280400800883
 20
786.1936931665462
 30
0.0
 11
967.6280400800883
 21
786.1936931665462
 31
0.0
  0
LINE
  5
442
330
15
100
AcDbEntity
  8
4
100
AcDbLine
 10
962.6280400800883
 20
778.1936931665462
 30
0.0
 11
967.6280400800883
 21
778.1936931665462
 31
0.0
  0
LINE
  5
443
330
15
100
AcDbEntity
  8
4
100
AcDbLine
 10
962.6280400800883
 20
746.1936931665466
 30
0.0
 11
967.6280400800883
 21
746.1936931665466
 31
0.0
  0
LINE
  5
444
330
15
100
AcDbEntity
  8
4
100
AcDbLine
 10
954.6280400800883
 20
738.1936931665466
 30
0.0
 11
967.6280400800883
 21
738.1936931665466
 31
0.0
  0
LINE
  5
445
330
15
100
AcDbEntity
  8
4
100
AcDbLine
 10
924.6280400800883
 20
732.1936931665466
 30
0.0
 11
1029.628040080088
 21
732.1936931665466
 31
0.0
  0
LINE
  5
446
330
15
100
AcDbEntity
  8
4
100
AcDbLine
 10
924.6280400800883
 20
792.1936931665466
 30
0.0
 11
1029.628040080088
 21
792.1936931665466
 31
0.0
  0
ARC
  5
447
330
15
100
AcDbEntity
  8
4
100
AcDbCircle
 10
924.6280400800883
 20
787.1936931665466
 30
0.0
 40
5.0
100
AcDbArc
 50
90.0
 51
180.0
  0
LINE
  5
448
330
15
100
AcDbEntity
  8
4
100
AcDbLine
 10
924.6280400800883
 20
786.1936931665462
 30
0.0
 11
932.6280400800883
 21
786.1936931665462
 31
0.0
  0
LINE
  5
449
330
15
100
AcDbEntity
  8
4
100
AcDbLine
 10
949.6280400800883
 20
738.1936931665466
 30
0.0
 11
949.6280400800883
 21
746.1936931665466
 31
0.0
  0
LINE
  5
44A
330
15
100
AcDbEntity
  8
4
100
AcDbLine
 10
932.6280400800883
 20
746.1936931665466
 30
0.0
 11
949.6280400800883
 21
746.1936931665466
 31
0.0
  0
LINE
  5
44B
330
15
100
AcDbEntity
  8
4
100
AcDbLine
 10
924.6280400800883
 20
738.1936931665466
 30
0.0
 11
949.6280400800883
 21
738.1936931665466
 31
0.0
  0
ARC
  5
44C
330
15
100
AcDbEntity
  8
4
100
AcDbCircle
 10
924.6280400800883
 20
737.1936931665466
 30
0.0
 40
5.0
100
AcDbArc
 50
180.0
 51
270.0
  0
LINE
  5
44D
330
15
100
AcDbEntity
  8
4
100
AcDbLine
 10
962.6280400800883
 20
746.1936931665466
 30
0.0
 11
962.6280400800883
 21
778.1936931665462
 31
0.0
  0
LINE
  5
44E
330
15
100
AcDbEntity
  8
4
100
AcDbLine
 10
919.6280400800883
 20
737.1936931665466
 30
0.0
 11
919.6280400800883
 21
787.1936931665466
 31
0.0
  0
LINE
  5
44F
330
15
100
AcDbEntity
  8
4
100
AcDbLine
 10
924.6280400800883
 20
738.1936931665466
 30
0.0
 11
924.6280400800883
 21
786.1936931665462
 31
0.0
  0
LINE
  5
450
330
15
100
AcDbEntity
  8
4
100
AcDbLine
 10
932.6280400800883
 20
746.1936931665466
 30
0.0
 11
932.6280400800883
 21
786.1936931665462
 31
0.0
  0
LINE
  5
451
330
15
100
AcDbEntity
  8
4
100
AcDbLine
 10
954.6280400800883
 20
738.1936931665466
 30
0.0
 11
954.6280400800883
 21
786.1936931665462
 31
0.0
  0
ARC
  5
452
330
15
100
AcDbEntity
  8
4
100
AcDbCircle
 10
1029.628040080088
 20
787.1936931665466
 30
0.0
 40
5.0
100
AcDbArc
 50
0.0
 51
90.0
  0
LINE
  5
453
330
15
100
AcDbEntity
  8
4
100
AcDbLine
 10
1014.628040080088
 20
786.1936931665466
 30
0.0
 11
1019.628040080088
 21
786.1936931665466
 31
0.0
  0
LINE
  5
454
330
15
100
AcDbEntity
  8
4
100
AcDbLine
 10
1029.628040080088
 20
748.1936931665466
 30
0.0
 11
1029.628040080088
 21
776.1936931665466
 31
0.0
  0
LINE
  5
455
330
15
100
AcDbEntity
  8
4
100
AcDbLine
 10
1014.628040080088
 20
758.1936931665466
 30
0.0
 11
1017.128040080088
 21
758.1936931665466
 31
0.0
  0
LINE
  5
456
330
15
100
AcDbEntity
  8
4
100
AcDbLine
 10
1014.628040080088
 20
738.1936931665466
 30
0.0
 11
1019.628040080088
 21
738.1936931665466
 31
0.0
  0
LINE
  5
457
330
15
100
AcDbEntity
  8
4
100
AcDbLine
 10
1012.628040080088
 20
748.1936931665466
 30
0.0
 11
1012.628040080088
 21
750.1936931665466
 31
0.0
  0
LINE
  5
458
330
15
100
AcDbEntity
  8
4
100
AcDbLine
 10
1021.628040080088
 20
748.1936931665466
 30
0.0
 11
1021.628040080088
 21
759.0317893768563
 31
0.0
  0
ARC
  5
459
330
15
100
AcDbEntity
  8
4
100
AcDbCircle
 10
1014.628040080088
 20
748.1936931665466
 30
0.0
 40
2.0
100
AcDbArc
 50
180.0
 51
270.0
  0
ARC
  5
45A
330
15
100
AcDbEntity
  8
4
100
AcDbCircle
 10
1019.628040080088
 20
748.1936931665466
 30
0.0
 40
2.0
100
AcDbArc
 50
270.0
 51
0.0
  0
LINE
  5
45B
330
15
100
AcDbEntity
  8
4
100
AcDbLine
 10
1014.628040080088
 20
746.1936931665466
 30
0.0
 11
1019.628040080088
 21
746.1936931665466
 31
0.0
  0
LINE
  5
45C
330
15
100
AcDbEntity
  8
4
100
AcDbLine
 10
1012.628040080088
 20
770.6936931665466
 30
0.0
 11
1012.628040080088
 21
773.6936931665466
 31
0.0
  0
LINE
  5
45D
330
15
100
AcDbEntity
  8
4
100
AcDbLine
 10
1021.628040080088
 20
770.6936931665466
 30
0.0
 11
1021.628040080088
 21
773.6936931665466
 31
0.0
  0
ARC
  5
45E
330
15
100
AcDbEntity
  8
4
100
AcDbCircle
 10
1017.128040080088
 20
770.6936931665466
 30
0.0
 40
4.5
100
AcDbArc
 50
180.0
 51
0.0
  0
ARC
  5
45F
330
15
100
AcDbEntity
  8
4
100
AcDbCircle
 10
1017.128040080088
 20
770.6936931665466
 30
0.0
 40
12.5
100
AcDbArc
 50
270.0
 51
291.1001960240931
  0
LINE
  5
460
330
15
100
AcDbEntity
  8
4
100
AcDbLine
 10
999.6280400800883
 20
759.6936931665462
 30
0.0
 11
999.6280400800883
 21
764.6936931665462
 31
0.0
  0
LINE
  5
461
330
15
100
AcDbEntity
  8
4
100
AcDbLine
 10
984.6280400800883
 20
759.6936931665462
 30
0.0
 11
984.6280400800883
 21
764.6936931665462
 31
0.0
  0
LINE
  5
462
330
15
100
AcDbEntity
  8
4
100
AcDbLine
 10
984.6280400800883
 20
764.6936931665462
 30
0.0
 11
999.6280400800883
 21
764.6936931665462
 31
0.0
  0
LINE
  5
463
330
15
100
AcDbEntity
  8
4
100
AcDbLine
 10
984.6280400800883
 20
759.6936931665462
 30
0.0
 11
999.6280400800883
 21
759.6936931665462
 31
0.0
  0
LINE
  5
464
330
15
100
AcDbEntity
  8
4
100
AcDbLine
 10
1004.628040080088
 20
748.1936931665466
 30
0.0
 11
1004.628040080088
 21
750.1936931665466
 31
0.0
  0
LINE
  5
465
330
15
100
AcDbEntity
  8
4
100
AcDbLine
 10
1004.628040080088
 20
768.1936931665466
 30
0.0
 11
1004.628040080088
 21
776.1936931665466
 31
0.0
  0
LINE
  5
466
330
15
100
AcDbEntity
  8
4
100
AcDbLine
 10
1004.628040080088
 20
750.1936931665466
 30
0.0
 11
1012.628040080088
 21
750.1936931665466
 31
0.0
  0
ARC
  5
467
330
15
100
AcDbEntity
  8
4
100
AcDbCircle
 10
1014.628040080088
 20
768.1936931665466
 30
0.0
 40
10.0
100
AcDbArc
 50
180.0
 51
270.0
  0
ARC
  5
468
330
15
100
AcDbEntity
  8
4
100
AcDbCircle
 10
1029.628040080088
 20
737.1936931665466
 30
0.0
 40
5.0
100
AcDbArc
 50
270.0
 51
0.0
  0
ARC
  5
469
330
15
100
AcDbEntity
  8
4
100
AcDbCircle
 10
1014.628040080088
 20
748.1936931665466
 30
0.0
 40
10.0
100
AcDbArc
 50
180.0
 51
270.0
  0
ARC
  5
46A
330
15
100
AcDbEntity
  8
4
100
AcDbCircle
 10
1019.628040080088
 20
748.1936931665466
 30
0.0
 40
10.0
100
AcDbArc
 50
270.0
 51
0.0
  0
LINE
  5
46B
330
15
100
AcDbEntity
  8
4
100
AcDbLine
 10
1034.628040080088
 20
737.1936931665466
 30
0.0
 11
1034.628040080088
 21
787.1936931665466
 31
0.0
  0
ARC
  5
46C
330
15
100
AcDbEntity
  8
4
100
AcDbCircle
 10
1017.128040080088
 20
773.6936931665466
 30
0.0
 40
4.5
100
AcDbArc
 50
0.0
 51
180.0
  0
ARC
  5
46D
330
15
100
AcDbEntity
  8
4
100
AcDbCircle
 10
1014.628040080088
 20
776.1936931665466
 30
0.0
 40
10.0
100
AcDbArc
 50
90.0
 51
180.0
  0
ARC
  5
46E
330
15
100
AcDbEntity
  8
4
100
AcDbCircle
 10
1019.628040080088
 20
776.1936931665466
 30
0.0
 40
10.0
100
AcDbArc
 50
0.0
 51
90.0
  0
LINE
  5
46F
330
15
100
AcDbEntity
  8
4
100
AcDbLine
 10
979.6280400800883
 20
750.1936931665466
 30
0.0
 11
979.6280400800883
 21
774.1936931665462
 31
0.0
  0
LINE
  5
470
330
15
100
AcDbEntity
  8
4
100
AcDbLine
 10
971.6280400800883
 20
750.1936931665466
 30
0.0
 11
971.6280400800883
 21
774.1936931665462
 31
0.0
  0
ARC
  5
471
330
15
100
AcDbEntity
  8
4
100
AcDbCircle
 10
967.6280400800883
 20
750.1936931665466
 30
0.0
 40
4.0
100
AcDbArc
 50
270.0
 51
0.0
  0
ARC
  5
472
330
15
100
AcDbEntity
  8
4
100
AcDbCircle
 10
967.6280400800883
 20
774.1936931665462
 30
0.0
 40
4.0
100
AcDbArc
 50
0.0
 51
90.0
  0
ARC
  5
473
330
15
100
AcDbEntity
  8
4
100
AcDbCircle
 10
967.6280400800883
 20
750.1936931665466
 30
0.0
 40
12.0
100
AcDbArc
 50
270.0
 51
0.0
  0
ARC
  5
474
330
15
100
AcDbEntity
  8
4
100
AcDbCircle
 10
967.6280400800883
 20
774.1936931665462
 30
0.0
 40
12.0
100
AcDbArc
 50
0.0
 51
90.0
  0
ARC
  5
5D3
330
15
100
AcDbEntity
  8
4
100
AcDbCircle
 10
717.5380420800893
 20
1352.346297076862
 30
0.0
 40
1.0
100
AcDbArc
 50
180.0
 51
270.0
  0
ARC
  5
5D4
330
15
100
AcDbEntity
  8
4
100
AcDbCircle
 10
995.5380420800889
 20
1352.346297076862
 30
0.0
 40
1.0
100
AcDbArc
 50
270.0
 51
0.0
  0
ARC
  5
5D5
330
15
100
AcDbEntity
  8
4
100
AcDbCircle
 10
1017.538042080089
 20
1352.346297076861
 30
0.0
 40
1.0
100
AcDbArc
 50
180.0
 51
270.0
  0
ARC
  5
5D6
330
15
100
AcDbEntity
  8
4
100
AcDbCircle
 10
1235.538042080089
 20
1352.346297076861
 30
0.0
 40
1.0
100
AcDbArc
 50
270.0
 51
0.0
  0
ARC
  5
5D7
330
15
100
AcDbEntity
  8
4
100
AcDbCircle
 10
1998.311726026813
 20
622.693690166547
 30
0.0
 40
1.0
100
AcDbArc
 50
90.0
 51
180.0
  0
ARC
  5
5D8
330
15
100
AcDbEntity
  8
4
100
AcDbCircle
 10
1998.311726026813
 20
632.693694166547
 30
0.0
 40
1.0
100
AcDbArc
 50
90.0
 51
180.0
  0
ARC
  5
5D9
330
15
100
AcDbEntity
  8
4
100
AcDbCircle
 10
1998.311726026813
 20
404.6936931665471
 30
0.0
 40
1.0
100
AcDbArc
 50
180.0
 51
270.0
  0
ARC
  5
5DA
330
15
100
AcDbEntity
  8
4
100
AcDbCircle
 10
1998.311726026813
 20
354.6936941665469
 30
0.0
 40
1.0
100
AcDbArc
 50
180.0
 51
270.0
  0
ARC
  5
5DB
330
15
100
AcDbEntity
  8
4
100
AcDbCircle
 10
2370.111730026813
 20
622.693690166547
 30
0.0
 40
1.0
100
AcDbArc
 50
0.0
 51
90.0
  0
ARC
  5
5DC
330
15
100
AcDbEntity
  8
4
100
AcDbCircle
 10
2370.111730026813
 20
632.693694166547
 30
0.0
 40
1.0
100
AcDbArc
 50
0.0
 51
90.0
  0
ARC
  5
5DD
330
15
100
AcDbEntity
  8
4
100
AcDbCircle
 10
2370.111730026813
 20
404.6936931665471
 30
0.0
 40
1.0
100
AcDbArc
 50
270.0
 51
0.0
  0
ARC
  5
5DE
330
15
100
AcDbEntity
  8
4
100
AcDbCircle
 10
2370.111730026813
 20
354.6936941665469
 30
0.0
 40
1.0
100
AcDbArc
 50
270.0
 51
0.0
  0
ARC
  5
5DF
330
15
100
AcDbEntity
  8
4
100
AcDbCircle
 10
1365.128042080089
 20
1695.546297076861
 30
0.0
 40
2.0
100
AcDbArc
 50
0.0
 51
90.0
  0
ARC
  5
5E0
330
15
100
AcDbEntity
  8
4
100
AcDbCircle
 10
589.128042080089
 20
1695.546297076861
 30
0.0
 40
2.0
100
AcDbArc
 50
90.0
 51
180.0
  0
ARC
  5
5E1
330
15
100
AcDbEntity
  8
4
100
AcDbCircle
 10
1235.538042080089
 20
1724.446297076862
 30
0.0
 40
1.0
100
AcDbArc
 50
0.0
 51
90.0
  0
ARC
  5
5E2
330
15
100
AcDbEntity
  8
4
100
AcDbCircle
 10
1017.538042080089
 20
1724.446297076862
 30
0.0
 40
1.0
100
AcDbArc
 50
90.0
 51
180.0
  0
ARC
  5
5E3
330
15
100
AcDbEntity
  8
4
100
AcDbCircle
 10
995.5380420800889
 20
1724.446297076862
 30
0.0
 40
1.0
100
AcDbArc
 50
0.0
 51
90.0
  0
ARC
  5
5E4
330
15
100
AcDbEntity
  8
4
100
AcDbCircle
 10
717.5380420800893
 20
1724.446297076862
 30
0.0
 40
1.0
100
AcDbArc
 50
90.0
 51
180.0
  0
ARC
  5
5E5
330
15
100
AcDbEntity
  8
4
100
AcDbCircle
 10
1821.211734026812
 20
263.6936931665471
 30
0.0
 40
400.000069
100
AcDbArc
 50
348.0924590000001
 51
11.90700599999996
  0
ARC
  5
5E6
330
15
100
AcDbEntity
  8
4
100
AcDbCircle
 10
2207.712219026812
 20
182.192966166547
 30
0.0
 40
4.999939
100
AcDbArc
 50
281.908538999995
 51
348.0914609999994
  0
ARC
  5
5E7
330
15
100
AcDbEntity
  8
4
100
AcDbCircle
 10
2207.712219026812
 20
345.1944271665473
 30
0.0
 40
4.999939
100
AcDbArc
 50
11.9085389999945
 51
78.09146100000497
  0
LINE
  5
5E8
330
15
100
AcDbEntity
  8
4
100
AcDbLine
 10
1388.128035080089
 20
173.6936931665471
 30
0.0
 11
1383.128035080089
 21
168.6936931665471
 31
0.0
  0
LINE
  5
5E9
330
15
100
AcDbEntity
  8
4
100
AcDbLine
 10
1388.128035080089
 20
353.6936931665471
 30
0.0
 11
1383.128035080089
 21
358.6936931665471
 31
0.0
  0
LINE
  5
5EA
330
15
100
AcDbEntity
  8
4
100
AcDbLine
 10
566.1280490800887
 20
173.6936931665471
 30
0.0
 11
571.1280490800887
 21
168.6936931665471
 31
0.0
  0
LINE
  5
5EB
330
15
100
AcDbEntity
  8
4
100
AcDbLine
 10
566.1280490800887
 20
353.6936931665471
 30
0.0
 11
571.1280490800887
 21
358.6936931665471
 31
0.0
  0
LINE
  5
610
330
15
100
AcDbEntity
  8
L-CENTER
 48
2.0
100
AcDbLine
 10
1424.774524515909
 20
201.8218498127242
 30
0.0
 11
1365.486372367599
 21
201.8218498127242
 31
0.0
  0
LINE
  5
611
330
15
100
AcDbEntity
  8
L-CENTER
 48
2.0
100
AcDbLine
 10
529.4815596442688
 20
325.56553652037
 30
0.0
 11
588.7697117925791
 21
325.56553652037
 31
0.0
  0
LINE
  5
612
330
15
100
AcDbEntity
  8
L-CENTER
 48
2.0
100
AcDbLine
 10
529.4815596442688
 20
201.8218498127242
 30
0.0
 11
588.7697117925791
 21
201.8218498127242
 31
0.0
  0
LINE
  5
613
330
15
100
AcDbEntity
  8
L-CENTER
 48
2.0
100
AcDbLine
 10
1424.774524515909
 20
1542.118140430684
 30
0.0
 11
1365.486372367599
 21
1542.118140430684
 31
0.0
  0
LINE
  5
614
330
15
100
AcDbEntity
  8
L-CENTER
 48
2.0
100
AcDbLine
 10
1424.774524515909
 20
1418.374453723038
 30
0.0
 11
1365.486372367599
 21
1418.374453723038
 31
0.0
  0
LINE
  5
615
330
15
100
AcDbEntity
  8
L-CENTER
 48
2.0
100
AcDbLine
 10
529.4815596442688
 20
1542.118140430684
 30
0.0
 11
588.7697117925791
 21
1542.118140430684
 31
0.0
  0
LINE
  5
616
330
15
100
AcDbEntity
  8
L-CENTER
 48
2.0
100
AcDbLine
 10
529.4815596442688
 20
1418.374453723038
 30
0.0
 11
588.7697117925791
 21
1418.374453723038
 31
0.0
  0
LINE
  5
6E8
330
15
100
AcDbEntity
  8
4
100
AcDbLine
 10
523.1280480800892
 20
297.6936941665469
 30
0.0
 11
413.1280460800886
 21
297.6936941665469
 31
0.0
  0
LINE
  5
6E9
330
15
100
AcDbEntity
  8
4
100
AcDbLine
 10
533.1280450800882
 20
292.6936921665467
 30
0.0
 11
415.1280440800888
 21
292.6936921665467
 31
0.0
  0
LINE
  5
6EA
330
15
100
AcDbEntity
  8
4
100
AcDbLine
 10
533.1280450800882
 20
234.6936941665469
 30
0.0
 11
415.1280440800888
 21
234.6936941665469
 31
0.0
  0
LINE
  5
6EB
330
15
100
AcDbEntity
  8
4
100
AcDbLine
 10
533.1280450800882
 20
231.1936941665469
 30
0.0
 11
533.1280450800882
 21
296.1936921665467
 31
0.0
  0
LINE
  5
6EC
330
15
100
AcDbEntity
  8
4
100
AcDbLine
 10
546.8280440800881
 20
308.6936971665471
 30
0.0
 11
546.8280440800881
 21
218.6936961665472
 31
0.0
  0
LINE
  5
6ED
330
15
100
AcDbEntity
  8
4
100
AcDbLine
 10
546.8280440800881
 20
231.1936941665469
 30
0.0
 11
533.1280450800882
 21
231.1936941665469
 31
0.0
  0
LINE
  5
6EE
330
15
100
AcDbEntity
  8
4
100
AcDbLine
 10
523.1280480800892
 20
297.6936941665469
 30
0.0
 11
523.1280480800892
 21
292.6936921665467
 31
0.0
  0
LINE
  5
6EF
330
15
100
AcDbEntity
  8
4
100
AcDbLine
 10
546.8280440800881
 20
308.6936971665471
 30
0.0
 11
547.8280430800887
 21
308.6936971665471
 31
0.0
  0
LINE
  5
6F0
330
15
100
AcDbEntity
  8
4
100
AcDbLine
 10
546.8280440800881
 20
296.1936921665467
 30
0.0
 11
533.1280450800882
 21
296.1936921665467
 31
0.0
  0
LINE
  5
6F1
330
15
100
AcDbEntity
  8
4
100
AcDbLine
 10
413.1280460800886
 20
236.6936991665468
 30
0.0
 11
413.1280460800886
 21
297.6936941665469
 31
0.0
  0
LINE
  5
6F2
330
15
100
AcDbEntity
  8
4
100
AcDbLine
 10
415.1280440800888
 20
292.6936921665467
 30
0.0
 11
415.1280440800888
 21
234.6936941665469
 31
0.0
  0
LINE
  5
6F3
330
15
100
AcDbEntity
  8
4
100
AcDbLine
 10
413.1280460800886
 20
236.6936991665468
 30
0.0
 11
415.1280440800888
 21
234.6936941665469
 31
0.0
  0
LINE
  5
6F4
330
15
100
AcDbEntity
  8
4
100
AcDbLine
 10
415.1280440800888
 20
292.6936921665467
 30
0.0
 11
413.1280460800886
 21
290.6936941665469
 31
0.0
  0
LINE
  5
6F5
330
15
100
AcDbEntity
  8
4
100
AcDbLine
 10
546.8280440800881
 20
218.6936891665471
 30
0.0
 11
547.8280430800887
 21
218.6936891665471
 31
0.0
  0
LINE
  5
709
330
15
100
AcDbEntity
  8
4
100
AcDbLine
 10
547.8280380800898
 20
1525.246297076861
 30
0.0
 11
546.8280380800898
 21
1525.246297076861
 31
0.0
  0
LINE
  5
70A
330
15
100
AcDbEntity
  8
4
100
AcDbLine
 10
547.8280380800898
 20
1435.246297076861
 30
0.0
 11
546.8280380800898
 21
1435.246297076861
 31
0.0
  0
LINE
  5
70B
330
15
100
AcDbEntity
  8
4
100
AcDbLine
 10
546.8280380800898
 20
1435.246297076861
 30
0.0
 11
546.8280380800898
 21
1525.246297076861
 31
0.0
  0
LINE
  5
70C
330
15
100
AcDbEntity
  8
4
100
AcDbLine
 10
530.7180420800892
 20
1451.246297076863
 30
0.0
 11
414.7180420800892
 21
1451.246297076863
 31
0.0
  0
LINE
  5
70D
330
15
100
AcDbEntity
  8
4
100
AcDbLine
 10
515.2180420800892
 20
1472.746297076863
 30
0.0
 11
412.7180420800892
 21
1472.746297076863
 31
0.0
  0
LINE
  5
70E
330
15
100
AcDbEntity
  8
4
100
AcDbLine
 10
515.2180420800892
 20
1487.746297076863
 30
0.0
 11
412.7180420800892
 21
1487.746297076863
 31
0.0
  0
LINE
  5
70F
330
15
100
AcDbEntity
  8
4
100
AcDbLine
 10
530.7180420800892
 20
1509.246297076863
 30
0.0
 11
414.7180420800892
 21
1509.246297076863
 31
0.0
  0
ARC
  5
710
330
15
100
AcDbEntity
  8
4
100
AcDbCircle
 10
530.7180420800892
 20
1511.246297076863
 30
0.0
 40
2.0
100
AcDbArc
 50
270.0
 51
0.0
  0
ARC
  5
711
330
15
100
AcDbEntity
  8
4
100
AcDbCircle
 10
530.7180420800892
 20
1449.246297076863
 30
0.0
 40
2.0
100
AcDbArc
 50
0.0
 51
90.0
  0
ARC
  5
712
330
15
100
AcDbEntity
  8
4
100
AcDbCircle
 10
515.2180420800892
 20
1480.246297076863
 30
0.0
 40
7.5
100
AcDbArc
 50
270.0
 51
90.0
  0
LINE
  5
713
330
15
100
AcDbEntity
  8
4
100
AcDbLine
 10
532.7180420800892
 20
1512.746297076863
 30
0.0
 11
532.7180420800892
 21
1447.746297076863
 31
0.0
  0
LINE
  5
714
330
15
100
AcDbEntity
  8
4
100
AcDbLine
 10
414.7180420800892
 20
1509.246297076863
 30
0.0
 11
412.7180420800892
 21
1507.246297076863
 31
0.0
  0
LINE
  5
715
330
15
100
AcDbEntity
  8
4
100
AcDbLine
 10
414.7180420800892
 20
1509.246297076863
 30
0.0
 11
414.7180420800892
 21
1487.746297076863
 31
0.0
  0
LINE
  5
716
330
15
100
AcDbEntity
  8
4
100
AcDbLine
 10
414.7180420800892
 20
1451.246297076863
 30
0.0
 11
412.7180420800892
 21
1453.246297076863
 31
0.0
  0
LINE
  5
717
330
15
100
AcDbEntity
  8
4
100
AcDbLine
 10
414.7180420800892
 20
1472.746297076863
 30
0.0
 11
414.7180420800892
 21
1451.246297076863
 31
0.0
  0
LINE
  5
718
330
15
100
AcDbEntity
  8
4
100
AcDbLine
 10
412.7180420800892
 20
1507.246297076863
 30
0.0
 11
412.7180420800892
 21
1453.246297076863
 31
0.0
  0
LINE
  5
719
330
15
100
AcDbEntity
  8
4
100
AcDbLine
 10
546.8280380800898
 20
1512.746297076863
 30
0.0
 11
532.7180420800892
 21
1512.746297076863
 31
0.0
  0
LINE
  5
71A
330
15
100
AcDbEntity
  8
4
100
AcDbLine
 10
546.8280380800898
 20
1447.746297076863
 30
0.0
 11
532.7180420800892
 21
1447.746297076863
 31
0.0
  0
LINE
  5
720
330
15
100
AcDbEntity
  8
L-CENTER
 48
2.0
100
AcDbLine
 10
2767.111659698041
 20
414.2950111665471
 30
0.0
 11
2767.111659698041
 21
573.0923771665468
 31
0.0
  0
LINE
  5
721
330
15
100
AcDbEntity
  8
4
100
AcDbLine
 10
2753.111659698041
 20
555.1936921665467
 30
0.0
 11
2753.111659698041
 21
537.1936961665472
 31
0.0
  0
LINE
  5
722
330
15
100
AcDbEntity
  8
4
100
AcDbLine
 10
2781.111659698041
 20
555.1936921665467
 30
0.0
 11
2781.111659698041
 21
537.1936961665472
 31
0.0
  0
LINE
  5
723
330
15
100
AcDbEntity
  8
L-CENTER
 48
2.0
100
AcDbLine
 10
2846.510342698042
 20
493.6936941665469
 30
0.0
 11
2687.712976698042
 21
493.6936941665469
 31
0.0
  0
ARC
  5
724
330
15
100
AcDbEntity
  8
4
100
AcDbCircle
 10
2767.111659698041
 20
493.6936941665469
 30
0.0
 40
52.500014
100
AcDbArc
 50
105.4660057259743
 51
74.53399500000012
  0
LINE
  5
725
330
15
100
AcDbEntity
  8
4
100
AcDbLine
 10
2781.111659698041
 20
537.1936961665472
 30
0.0
 11
2753.111659698041
 21
537.1936961665472
 31
0.0
  0
LINE
  5
726
330
15
100
AcDbEntity
  8
4
100
AcDbLine
 10
2753.111659698041
 20
555.1936921665467
 30
0.0
 11
2781.111659698041
 21
555.1936921665467
 31
0.0
  0
ENDSEC
  0
SECTION
  2
OBJECTS
  0
DICTIONARY
  5
5
330
0
100
AcDbDictionary
281
     1
  3
ACAD_COLOR
350
28
  3
ACAD_GROUP
350
26
  3
ACAD_LAYOUT
350
1C
  3
ACAD_MATERIAL
350
7
  3
ACAD_MLEADERSTYLE
350
6C0
  3
ACAD_MLINESTYLE
350
13
  3
ACAD_PLOTSETTINGS
350
27
  3
ACAD_PLOTSTYLENAME
350
4
  3
ACAD_SCALELIST
350
2D
  3
ACAD_VISUALSTYLE
350
29
  3
ACDBHEADERROUNDTRIPXREC
350
72D
  3
AcDbVariableDictionary
350
6BD
  3
DWGPROPS
350
730
  0
DICTIONARY
  5
731
330
25
100
AcDbDictionary
280
     1
281
     1
  3
ACAD_XREC_ROUNDTRIP
360
732
  0
DICTIONARY
  5
16
330
15
100
AcDbDictionary
280
     1
281
     1
  3
ACAD_SORTENTS
360
17
  0
DICTIONARY
  5
28
102
{ACAD_REACTORS
330
5
102
}
330
5
100
AcDbDictionary
281
     1
  0
DICTIONARY
  5
26
102
{ACAD_REACTORS
330
5
102
}
330
5
100
AcDbDictionary
281
     1
  0
DICTIONARY
  5
1C
102
{ACAD_REACTORS
330
5
102
}
330
5
100
AcDbDictionary
281
     1
  3
Model
350
1B
  3
ﾚｲｱｳﾄ1
350
22
  0
DICTIONARY
  5
7
102
{ACAD_REACTORS
330
5
102
}
330
5
100
AcDbDictionary
281
     1
  3
ByBlock
350
70
  3
ByLayer
350
E
  3
Global
350
6
  0
DICTIONARY
  5
6C0
102
{ACAD_REACTORS
330
5
102
}
330
5
100
AcDbDictionary
281
     1
  3
Standard
350
6DB
  0
DICTIONARY
  5
13
102
{ACAD_REACTORS
330
5
102
}
330
5
100
AcDbDictionary
281
     1
  3
STANDARD
350
12
  0
DICTIONARY
  5
27
102
{ACAD_REACTORS
330
5
102
}
330
5
100
AcDbDictionary
281
     1
  0
ACDBDICTIONARYWDFLT
  5
4
102
{ACAD_REACTORS
330
5
102
}
330
5
100
AcDbDictionary
281
     1
  3
Normal
350
3
100
AcDbDictionaryWithDefault
340
3
  0
DICTIONARY
  5
2D
102
{ACAD_REACTORS
330
5
102
}
330
5
100
AcDbDictionary
281
     1
  3
*A1
350
4F
  3
*A10
350
58
  3
*A11
350
59
  3
*A12
350
5A
  3
*A13
350
5B
  3
*A14
350
5C
  3
*A15
350
5D
  3
*A16
350
5E
  3
*A17
350
5F
  3
*A18
350
60
  3
*A19
350
61
  3
*A2
350
50
  3
*A20
350
62
  3
*A21
350
63
  3
*A22
350
64
  3
*A23
350
65
  3
*A24
350
66
  3
*A25
350
67
  3
*A26
350
68
  3
*A27
350
69
  3
*A28
350
6A
  3
*A29
350
6B
  3
*A3
350
51
  3
*A30
350
6C
  3
*A31
350
6D
  3
*A32
350
6E
  3
*A33
350
6F
  3
*A4
350
52
  3
*A5
350
53
  3
*A6
350
54
  3
*A7
350
55
  3
*A8
350
56
  3
*A9
350
57
  0
DICTIONARY
  5
29
102
{ACAD_REACTORS
330
5
102
}
330
5
100
AcDbDictionary
281
     1
  3
2dWireframe
350
6C7
  3
Basic
350
6CA
  3
Brighten
350
6CE
  3
ColorChange
350
6D2
  3
Conceptual
350
6CC
  3
Dim
350
6CD
  3
EdgeColorOff
350
6D5
  3
Facepattern
350
6D1
  3
Flat
350
6C3
  3
FlatWithEdges
350
6C4
  3
Gouraud
350
6C5
  3
GouraudWithEdges
350
6C6
  3
Hidden
350
6C9
  3
JitterOff
350
6D3
  3
Linepattern
350
6D0
  3
OverhangOff
350
6D4
  3
Realistic
350
6CB
  3
Shaded
350
6DA
  3
Shaded with edges
350
6D9
  3
Shades of Gray
350
6D6
  3
Sketchy
350
6D7
  3
Thicken
350
6CF
  3
Wireframe
350
6C8
  3
X-Ray
350
6D8
  0
DICTIONARY
  5
72D
102
{ACAD_REACTORS
330
5
102
}
330
5
100
AcDbDictionary
281
     1
  3
COLORDICT
350
72E
  3
MATERIALDICT
350
72F
  0
DICTIONARY
  5
6BD
102
{ACAD_REACTORS
330
5
102
}
330
5
100
AcDbDictionary
281
     1
  3
CANNOSCALE
350
6BE
  3
CMLEADERSTYLE
350
6E4
  3
DIMASSOC
350
72B
  3
HIDETEXT
350
72C
  3
MSLTSCALE
350
733
  0
XRECORD
  5
730
102
{ACAD_REACTORS
330
5
102
}
330
5
100
AcDbXrecord
280
     1
  1
DWGPROPS COOKIE
  2

  3

  4

  6

  7

  8
sg-d03
  9

300
=
301
=
302
=
303
=
304
=
305
=
306
=
307
=
308
=
309
=
 40
0.0
 41
2449812.756805555
 42
2458114.370488391
  1

 90
        0
  0
XRECORD
  5
732
102
{ACAD_REACTORS
330
731
102
}
330
731
100
AcDbXrecord
280
     1
102
VTR_0.000_0.000_1.000_1.000_GRIDDISPLAY
 70
     3
102
VTR_0.000_0.000_1.000_1.000_GRIDMAJOR
 70
     5
102
VTR_0.000_0.000_1.000_1.000_DEFAULTLIGHTING
280
     1
102
VTR_0.000_0.000_1.000_1.000_DEFAULTLIGHTINGTYPE
 70
     1
102
VTR_0.000_0.000_1.000_1.000_BRIGHTNESS
141
0.0
102
VTR_0.000_0.000_1.000_1.000_CONTRAST
142
0.0
  0
SORTENTSTABLE
  5
17
102
{ACAD_REACTORS
330
16
102
}
330
16
100
AcDbSortentsTable
330
15
  0
LAYOUT
  5
1B
102
{ACAD_REACTORS
330
1C
102
}
330
1C
100
AcDbPlotSettings
  1

  2
Bullzip PDF Printer.pc3
  4
A3
  6

 40
0.2
 41
0.0
 42
0.0
 43
0.0
 44
420.2
 45
297.1
 46
25.0
 47
12.0
 48
139.9999997783334
 49
0.0
140
3195.999993887111
141
2179.999995704281
142
1.0
143
8.0
 70
 11936
 72
     1
 73
     0
 74
     4
  7
monochrome.ctb
 75
     0
147
1.0
148
-139.9999997783334
149
0.0
100
AcDbLayout
  1
Model
 70
     0
 71
     0
 10
0.0
 20
0.0
 11
12.0
 21
9.0
 12
0.0
 22
0.0
 32
0.0
 14
403.2965040800884
 24
63.69369316654706
 34
0.0
 15
2846.510342698042
 25
1930.425252076861
 35
0.0
146
0.0
 13
0.0
 23
0.0
 33
0.0
 16
1.0
 26
0.0
 36
0.0
 17
0.0
 27
1.0
 37
0.0
 76
     0
330
15
331
2B
1001
ACAD_PSEXT
1000
Bullzip PDF Printer.pc3
1000
Bullzip PDF Printer
1000
BULLZIP
1000
Bullzip PDF Printer 10.1.0.1871
1070
     0
  0
LAYOUT
  5
22
102
{ACAD_REACTORS
330
1C
102
}
330
1C
100
AcDbPlotSettings
  1

  2
SR-LP8300F
  4

  6

 40
0.0
 41
0.0
 42
0.0
 43
0.0
 44
0.0
 45
0.0
 46
0.0
 47
0.0
 48
0.0
 49
0.0
140
0.0
141
0.0
142
1.0
143
1.0
 70
   688
 72
     0
 73
     0
 74
     5
  7
monochrome.ctb
 75
    16
147
1.0
148
0.0
149
0.0
100
AcDbLayout
  1
ﾚｲｱｳﾄ1
 70
     0
 71
     1
 10
0.0
 20
0.0
 11
12.0
 21
9.0
 12
0.0
 22
0.0
 32
0.0
 14
1000000000000000E+20
 24
1000000000000000E+20
 34
1000000000000000E+20
 15
-1000000000000000E+20
 25
-1000000000000000E+20
 35
-1000000000000000E+20
146
0.0
 13
0.0
 23
0.0
 33
0.0
 16
1.0
 26
0.0
 36
0.0
 17
0.0
 27
1.0
 37
0.0
 76
     0
330
1F
  0
MATERIAL
  5
70
102
{ACAD_REACTORS
330
7
102
}
102
{ACAD_XDICTIONARY
360
738
102
}
330
7
100
AcDbMaterial
  1
ByBlock
  0
MATERIAL
  5
E
102
{ACAD_REACTORS
330
7
102
}
102
{ACAD_XDICTIONARY
360
734
102
}
330
7
100
AcDbMaterial
  1
ByLayer
  0
MATERIAL
  5
6
102
{ACAD_REACTORS
330
7
102
}
102
{ACAD_XDICTIONARY
360
736
102
}
330
7
100
AcDbMaterial
  1
Global
  0
MLEADERSTYLE
  5
6DB
102
{ACAD_REACTORS
330
6C0
102
}
102
{ACAD_XDICTIONARY
360
76A
102
}
330
6C0
100
AcDbMLeaderStyle
170
     2
171
     1
172
     0
 90
        2
 40
0.0
 41
0.0
173
     1
 91
-1056964608
340
B
 92
       -2
290
     1
 42
0.09
291
     1
 43
0.36
  3
Standard
341
0
 44
0.18
300

342
C
174
     1
178
     6
175
     1
176
     0
 93
-1056964608
 45
0.18
292
     0
297
     0
 46
0.18
343
0
 94
-1056964608
 47
1.0
 49
1.0
140
1.0
293
     1
141
0.0
294
     1
177
     0
142
1.0
295
     0
296
     0
143
0.125
1001
ACAD_MLEADERVER
1070
     2
  0
MLINESTYLE
  5
12
102
{ACAD_REACTORS
330
13
102
}
330
13
100
AcDbMlineStyle
  2
STANDARD
 70
     0
  3

 62
     0
 51
90.0
 52
90.0
 71
     2
 49
0.5
 62
   256
  6
BYLAYER
 49
-0.5
 62
   256
  6
BYLAYER
  0
ACDBPLACEHOLDER
  5
3
102
{ACAD_REACTORS
330
4
102
}
330
4
  0
SCALE
  5
4F
102
{ACAD_REACTORS
330
2D
102
}
330
2D
100
AcDbScale
 70
     0
300
1:1
140
1.0
141
1.0
290
     1
  0
SCALE
  5
58
102
{ACAD_REACTORS
330
2D
102
}
330
2D
100
AcDbScale
 70
     0
300
1:40
140
1.0
141
40.0
290
     0
  0
SCALE
  5
59
102
{ACAD_REACTORS
330
2D
102
}
330
2D
100
AcDbScale
 70
     0
300
1:50
140
1.0
141
50.0
290
     0
  0
SCALE
  5
5A
102
{ACAD_REACTORS
330
2D
102
}
330
2D
100
AcDbScale
 70
     0
300
1:100
140
1.0
141
100.0
290
     0
  0
SCALE
  5
5B
102
{ACAD_REACTORS
330
2D
102
}
330
2D
100
AcDbScale
 70
     0
300
2:1
140
2.0
141
1.0
290
     0
  0
SCALE
  5
5C
102
{ACAD_REACTORS
330
2D
102
}
330
2D
100
AcDbScale
 70
     0
300
4:1
140
4.0
141
1.0
290
     0
  0
SCALE
  5
5D
102
{ACAD_REACTORS
330
2D
102
}
330
2D
100
AcDbScale
 70
     0
300
8:1
140
8.0
141
1.0
290
     0
  0
SCALE
  5
5E
102
{ACAD_REACTORS
330
2D
102
}
330
2D
100
AcDbScale
 70
     0
300
10:1
140
10.0
141
1.0
290
     0
  0
SCALE
  5
5F
102
{ACAD_REACTORS
330
2D
102
}
330
2D
100
AcDbScale
 70
     0
300
100:1
140
100.0
141
1.0
290
     0
  0
SCALE
  5
60
102
{ACAD_REACTORS
330
2D
102
}
330
2D
100
AcDbScale
 70
     0
300
1/128" = 1'-0"
140
0.0078125
141
12.0
290
     0
  0
SCALE
  5
61
102
{ACAD_REACTORS
330
2D
102
}
330
2D
100
AcDbScale
 70
     0
300
1/64" = 1'-0"
140
0.015625
141
12.0
290
     0
  0
SCALE
  5
50
102
{ACAD_REACTORS
330
2D
102
}
330
2D
100
AcDbScale
 70
     0
300
1:2
140
1.0
141
2.0
290
     0
  0
SCALE
  5
62
102
{ACAD_REACTORS
330
2D
102
}
330
2D
100
AcDbScale
 70
     0
300
1/32" = 1'-0"
140
0.03125
141
12.0
290
     0
  0
SCALE
  5
63
102
{ACAD_REACTORS
330
2D
102
}
330
2D
100
AcDbScale
 70
     0
300
1/16" = 1'-0"
140
0.0625
141
12.0
290
     0
  0
SCALE
  5
64
102
{ACAD_REACTORS
330
2D
102
}
330
2D
100
AcDbScale
 70
     0
300
3/32" = 1'-0"
140
0.09375
141
12.0
290
     0
  0
SCALE
  5
65
102
{ACAD_REACTORS
330
2D
102
}
330
2D
100
AcDbScale
 70
     0
300
1/8" = 1'-0"
140
0.125
141
12.0
290
     0
  0
SCALE
  5
66
102
{ACAD_REACTORS
330
2D
102
}
330
2D
100
AcDbScale
 70
     0
300
3/16" = 1'-0"
140
0.1875
141
12.0
290
     0
  0
SCALE
  5
67
102
{ACAD_REACTORS
330
2D
102
}
330
2D
100
AcDbScale
 70
     0
300
1/4" = 1'-0"
140
0.25
141
12.0
290
     0
  0
SCALE
  5
68
102
{ACAD_REACTORS
330
2D
102
}
330
2D
100
AcDbScale
 70
     0
300
3/8" = 1'-0"
140
0.375
141
12.0
290
     0
  0
SCALE
  5
69
102
{ACAD_REACTORS
330
2D
102
}
330
2D
100
AcDbScale
 70
     0
300
1/2" = 1'-0"
140
0.5
141
12.0
290
     0
  0
SCALE
  5
6A
102
{ACAD_REACTORS
330
2D
102
}
330
2D
100
AcDbScale
 70
     0
300
3/4" = 1'-0"
140
0.75
141
12.0
290
     0
  0
SCALE
  5
6B
102
{ACAD_REACTORS
330
2D
102
}
330
2D
100
AcDbScale
 70
     0
300
1" = 1'-0"
140
1.0
141
12.0
290
     0
  0
SCALE
  5
51
102
{ACAD_REACTORS
330
2D
102
}
330
2D
100
AcDbScale
 70
     0
300
1:4
140
1.0
141
4.0
290
     0
  0
SCALE
  5
6C
102
{ACAD_REACTORS
330
2D
102
}
330
2D
100
AcDbScale
 70
     0
300
1-1/2" = 1'-0"
140
1.5
141
12.0
290
     0
  0
SCALE
  5
6D
102
{ACAD_REACTORS
330
2D
102
}
330
2D
100
AcDbScale
 70
     0
300
3" = 1'-0"
140
3.0
141
12.0
290
     0
  0
SCALE
  5
6E
102
{ACAD_REACTORS
330
2D
102
}
330
2D
100
AcDbScale
 70
     0
300
6" = 1'-0"
140
6.0
141
12.0
290
     0
  0
SCALE
  5
6F
102
{ACAD_REACTORS
330
2D
102
}
330
2D
100
AcDbScale
 70
     0
300
1'-0" = 1'-0"
140
12.0
141
12.0
290
     0
  0
SCALE
  5
52
102
{ACAD_REACTORS
330
2D
102
}
330
2D
100
AcDbScale
 70
     0
300
1:5
140
1.0
141
5.0
290
     0
  0
SCALE
  5
53
102
{ACAD_REACTORS
330
2D
102
}
330
2D
100
AcDbScale
 70
     0
300
1:8
140
1.0
141
8.0
290
     0
  0
SCALE
  5
54
102
{ACAD_REACTORS
330
2D
102
}
330
2D
100
AcDbScale
 70
     0
300
1:10
140
1.0
141
10.0
290
     0
  0
SCALE
  5
55
102
{ACAD_REACTORS
330
2D
102
}
330
2D
100
AcDbScale
 70
     0
300
1:16
140
1.0
141
16.0
290
     0
  0
SCALE
  5
56
102
{ACAD_REACTORS
330
2D
102
}
330
2D
100
AcDbScale
 70
     0
300
1:20
140
1.0
141
20.0
290
     0
  0
SCALE
  5
57
102
{ACAD_REACTORS
330
2D
102
}
330
2D
100
AcDbScale
 70
     0
300
1:30
140
1.0
141
30.0
290
     0
  0
VISUALSTYLE
  5
6C7
102
{ACAD_REACTORS
330
29
102
}
102
{ACAD_XDICTIONARY
360
742
102
}
330
29
100
AcDbVisualStyle
  2
2dWireframe
 70
     4
 71
     0
 72
     2
 73
     0
 90
        0
 40
0.6
 41
30.0
 62
     5
 63
     7
 74
     1
 91
        4
 64
     7
 65
   257
 75
     1
175
     1
 42
1.0
 92
        0
 66
   257
 43
1.0
 76
     1
 77
     6
 78
     2
 67
     7
 79
     5
170
     0
171
     0
290
     0
174
     0
 93
        1
 44
0.0
173
     0
291
     0
 45
0.0
1001
ACAD
1000
AcDbSavedByObjectVersion
1070
     0
  0
VISUALSTYLE
  5
6CA
102
{ACAD_REACTORS
330
29
102
}
102
{ACAD_XDICTIONARY
360
748
102
}
330
29
100
AcDbVisualStyle
  2
Basic
 70
     7
 71
     1
 72
     0
 73
     1
 90
        0
 40
0.6
 41
30.0
 62
     5
 63
     7
 74
     0
 91
        4
 64
     7
 65
   257
 75
     1
175
     1
 42
1.0
 92
        8
 66
     7
 43
1.0
 76
     1
 77
     6
 78
     2
 67
     7
 79
     5
170
     0
171
     0
290
     0
174
     0
 93
        1
 44
0.0
173
     0
291
     1
 45
0.0
1001
ACAD
1000
AcDbSavedByObjectVersion
1070
     0
  0
VISUALSTYLE
  5
6CE
102
{ACAD_REACTORS
330
29
102
}
102
{ACAD_XDICTIONARY
360
750
102
}
330
29
100
AcDbVisualStyle
  2
Brighten
 70
    12
 71
     2
 72
     2
 73
     0
 90
        0
 40
0.6
 41
30.0
 62
     5
 63
     7
 74
     1
 91
        4
 64
     7
 65
   257
 75
     1
175
     1
 42
1.0
 92
        8
 66
     7
 43
1.0
 76
     1
 77
     6
 78
     2
 67
     7
 79
     5
170
     0
171
     0
290
     0
174
     0
 93
        1
 44
50.0
173
     0
291
     1
 45
0.0
1001
ACAD
1000
AcDbSavedByObjectVersion
1070
     0
  0
VISUALSTYLE
  5
6D2
102
{ACAD_REACTORS
330
29
102
}
102
{ACAD_XDICTIONARY
360
758
102
}
330
29
100
AcDbVisualStyle
  2
ColorChange
 70
    16
 71
     2
 72
     2
 73
     3
 90
        0
 40
0.6
 41
30.0
 62
     5
 63
     8
 74
     1
 91
        4
 64
     7
 65
   257
 75
     1
175
     1
 42
1.0
 92
        8
 66
     8
 43
1.0
 76
     1
 77
     6
 78
     2
 67
     7
 79
     5
170
     0
171
     0
290
     0
174
     0
 93
        1
 44
0.0
173
     0
291
     1
 45
0.0
1001
ACAD
1000
AcDbSavedByObjectVersion
1070
     0
  0
VISUALSTYLE
  5
6CC
102
{ACAD_REACTORS
330
29
102
}
102
{ACAD_XDICTIONARY
360
74C
102
}
330
29
100
AcDbVisualStyle
  2
Conceptual
 70
     9
 71
     3
 72
     2
 73
     0
 90
        0
 40
0.6
 41
30.0
 62
     5
 63
     7
 74
     2
 91
        2
 64
     7
 65
   257
 75
     1
175
     1
 42
40.0
 92
        8
 66
     7
 43
1.0
 76
     1
 77
     6
 78
     2
 67
     7
 79
     3
170
     0
171
     0
290
     0
174
     0
 93
        1
 44
0.0
173
     0
291
     0
 45
0.0
1001
ACAD
1000
AcDbSavedByObjectVersion
1070
     0
  0
VISUALSTYLE
  5
6CD
102
{ACAD_REACTORS
330
29
102
}
102
{ACAD_XDICTIONARY
360
74E
102
}
330
29
100
AcDbVisualStyle
  2
Dim
 70
    11
 71
     2
 72
     2
 73
     0
 90
        0
 40
0.6
 41
30.0
 62
     5
 63
     7
 74
     1
 91
        4
 64
     7
 65
   257
 75
     1
175
     1
 42
1.0
 92
        8
 66
     7
 43
1.0
 76
     1
 77
     6
 78
     2
 67
     7
 79
     5
170
     0
171
     0
290
     0
174
     0
 93
        1
 44
-50.0
173
     0
291
     1
 45
0.0
1001
ACAD
1000
AcDbSavedByObjectVersion
1070
     0
  0
VISUALSTYLE
  5
6D5
102
{ACAD_REACTORS
330
29
102
}
102
{ACAD_XDICTIONARY
360
75E
102
}
330
29
100
AcDbVisualStyle
  2
EdgeColorOff
 70
    22
 71
     2
 72
     2
 73
     0
 90
        0
 40
0.6
 41
30.0
 62
     5
 63
     7
 74
     1
 91
        4
 64
     7
 65
   257
 75
     1
175
     1
 42
1.0
 92
        8
 66
     7
 43
1.0
 76
     1
 77
     6
 78
     2
 67
     7
 79
     5
170
     0
171
     0
290
     0
174
     0
 93
        1
 44
0.0
173
     0
291
     1
 45
0.0
1001
ACAD
1000
AcDbSavedByObjectVersion
1070
     0
  0
VISUALSTYLE
  5
6D1
102
{ACAD_REACTORS
330
29
102
}
102
{ACAD_XDICTIONARY
360
756
102
}
330
29
100
AcDbVisualStyle
  2
Facepattern
 70
    15
 71
     2
 72
     2
 73
     0
 90
        0
 40
0.6
 41
30.0
 62
     5
 63
     7
 74
     1
 91
        4
 64
     7
 65
   257
 75
     1
175
     1
 42
1.0
 92
        8
 66
     7
 43
1.0
 76
     1
 77
     6
 78
     2
 67
     7
 79
     5
170
     0
171
     0
290
     0
174
     0
 93
        1
 44
0.0
173
     0
291
     1
 45
0.0
1001
ACAD
1000
AcDbSavedByObjectVersion
1070
     0
  0
VISUALSTYLE
  5
6C3
102
{ACAD_REACTORS
330
29
102
}
102
{ACAD_XDICTIONARY
360
73A
102
}
330
29
100
AcDbVisualStyle
  2
Flat
 70
     0
 71
     2
 72
     1
 73
     1
 90
        2
 40
0.6
 41
30.0
 62
     5
 63
     7
 74
     0
 91
        4
 64
     7
 65
   257
 75
     1
175
     1
 42
1.0
 92
        8
 66
     7
 43
1.0
 76
     1
 77
     6
 78
     2
 67
     7
 79
     5
170
     0
171
     0
290
     0
174
     0
 93
       13
 44
0.0
173
     0
291
     1
 45
0.0
1001
ACAD
1000
AcDbSavedByObjectVersion
1070
     0
  0
VISUALSTYLE
  5
6C4
102
{ACAD_REACTORS
330
29
102
}
102
{ACAD_XDICTIONARY
360
73C
102
}
330
29
100
AcDbVisualStyle
  2
FlatWithEdges
 70
     1
 71
     2
 72
     1
 73
     1
 90
        2
 40
0.6
 41
30.0
 62
     5
 63
     7
 74
     1
 91
        4
 64
     7
 65
   257
 75
     1
175
     1
 42
1.0
 92
        0
 66
   257
 43
1.0
 76
     1
 77
     6
 78
     2
 67
     7
 79
     5
170
     0
171
     0
290
     0
174
     0
 93
       13
 44
0.0
173
     0
291
     1
 45
0.0
1001
ACAD
1000
AcDbSavedByObjectVersion
1070
     0
  0
VISUALSTYLE
  5
6C5
102
{ACAD_REACTORS
330
29
102
}
102
{ACAD_XDICTIONARY
360
73E
102
}
330
29
100
AcDbVisualStyle
  2
Gouraud
 70
     2
 71
     2
 72
     2
 73
     1
 90
        2
 40
0.6
 41
30.0
 62
     5
 63
     7
 74
     0
 91
        4
 64
     7
 65
   257
 75
     1
175
     1
 42
1.0
 92
        0
 66
     7
 43
1.0
 76
     1
 77
     6
 78
     2
 67
     7
 79
     5
170
     0
171
     0
290
     0
174
     0
 93
       13
 44
0.0
173
     0
291
     1
 45
0.0
1001
ACAD
1000
AcDbSavedByObjectVersion
1070
     0
  0
VISUALSTYLE
  5
6C6
102
{ACAD_REACTORS
330
29
102
}
102
{ACAD_XDICTIONARY
360
740
102
}
330
29
100
AcDbVisualStyle
  2
GouraudWithEdges
 70
     3
 71
     2
 72
     2
 73
     1
 90
        2
 40
0.6
 41
30.0
 62
     5
 63
     7
 74
     1
 91
        4
 64
     7
 65
   257
 75
     1
175
     1
 42
1.0
 92
        0
 66
   257
 43
1.0
 76
     1
 77
     6
 78
     2
 67
     7
 79
     5
170
     0
171
     0
290
     0
174
     0
 93
       13
 44
0.0
173
     0
291
     1
 45
0.0
1001
ACAD
1000
AcDbSavedByObjectVersion
1070
     0
  0
VISUALSTYLE
  5
6C9
102
{ACAD_REACTORS
330
29
102
}
102
{ACAD_XDICTIONARY
360
746
102
}
330
29
100
AcDbVisualStyle
  2
Hidden
 70
     6
 71
     1
 72
     2
 73
     2
 90
        0
 40
0.6
 41
30.0
 62
     5
 63
     7
 74
     2
 91
        2
 64
     7
 65
   257
 75
     2
175
     1
 42
40.0
 92
        0
 66
   257
 43
1.0
 76
     1
 77
     6
 78
     2
 67
     7
 79
     3
170
     0
171
     0
290
     0
174
     0
 93
        1
 44
0.0
173
     0
291
     0
 45
0.0
1001
ACAD
1000
AcDbSavedByObjectVersion
1070
     0
  0
VISUALSTYLE
  5
6D3
102
{ACAD_REACTORS
330
29
102
}
102
{ACAD_XDICTIONARY
360
75A
102
}
330
29
100
AcDbVisualStyle
  2
JitterOff
 70
    20
 71
     2
 72
     2
 73
     0
 90
        0
 40
0.6
 41
30.0
 62
     5
 63
     7
 74
     1
 91
        4
 64
     7
 65
   257
 75
     1
175
     1
 42
1.0
 92
       10
 66
     7
 43
1.0
 76
     1
 77
     6
 78
     2
 67
     7
 79
     5
170
     0
171
     0
290
     0
174
     0
 93
        1
 44
0.0
173
     0
291
     1
 45
0.0
1001
ACAD
1000
AcDbSavedByObjectVersion
1070
     0
  0
VISUALSTYLE
  5
6D0
102
{ACAD_REACTORS
330
29
102
}
102
{ACAD_XDICTIONARY
360
754
102
}
330
29
100
AcDbVisualStyle
  2
Linepattern
 70
    14
 71
     2
 72
     2
 73
     0
 90
        0
 40
0.6
 41
30.0
 62
     5
 63
     7
 74
     1
 91
        4
 64
     7
 65
   257
 75
     7
175
     7
 42
1.0
 92
        8
 66
     7
 43
1.0
 76
     1
 77
     6
 78
     2
 67
     7
 79
     5
170
     0
171
     0
290
     0
174
     0
 93
        1
 44
0.0
173
     0
291
     1
 45
0.0
1001
ACAD
1000
AcDbSavedByObjectVersion
1070
     0
  0
VISUALSTYLE
  5
6D4
102
{ACAD_REACTORS
330
29
102
}
102
{ACAD_XDICTIONARY
360
75C
102
}
330
29
100
AcDbVisualStyle
  2
OverhangOff
 70
    21
 71
     2
 72
     2
 73
     0
 90
        0
 40
0.6
 41
30.0
 62
     5
 63
     7
 74
     1
 91
        4
 64
     7
 65
   257
 75
     1
175
     1
 42
1.0
 92
        9
 66
     7
 43
1.0
 76
     1
 77
     6
 78
     2
 67
     7
 79
     5
170
     0
171
     0
290
     0
174
     0
 93
        1
 44
0.0
173
     0
291
     1
 45
0.0
1001
ACAD
1000
AcDbSavedByObjectVersion
1070
     0
  0
VISUALSTYLE
  5
6CB
102
{ACAD_REACTORS
330
29
102
}
102
{ACAD_XDICTIONARY
360
74A
102
}
330
29
100
AcDbVisualStyle
  2
Realistic
 70
     8
 71
     2
 72
     3
 73
     0
 90
        2
 40
0.6
 41
30.0
 62
     5
 63
     7
 74
     0
 91
        0
 64
     7
 65
   257
 75
     1
175
     1
 42
1.0
 92
        8
 66
   257
 43
1.0
 76
     1
 77
     6
 78
     2
 67
     7
 79
     3
170
     0
171
     0
290
     0
174
     0
 93
       13
 44
0.0
173
     0
291
     0
 45
0.0
1001
ACAD
1000
AcDbSavedByObjectVersion
1070
     0
  0
VISUALSTYLE
  5
6DA
102
{ACAD_REACTORS
330
29
102
}
102
{ACAD_XDICTIONARY
360
768
102
}
330
29
100
AcDbVisualStyle
  2
Shaded
 70
    27
 71
     2
 72
     2
 73
     1
 90
        2
 40
0.6
 41
30.0
 62
     5
 63
     7
 74
     0
 91
        4
 64
     7
 65
   257
 75
     1
175
     1
 42
1.0
 92
        8
 66
   257
 43
1.0
 76
     1
 77
     6
 78
     2
 67
   251
 79
     3
170
     0
171
     0
290
     0
174
     0
 93
        5
 44
0.0
173
     0
291
     0
 45
0.0
1001
ACAD
1000
AcDbSavedByObjectVersion
1070
     0
  0
VISUALSTYLE
  5
6D9
102
{ACAD_REACTORS
330
29
102
}
102
{ACAD_XDICTIONARY
360
766
102
}
330
29
100
AcDbVisualStyle
  2
Shaded with edges
 70
    26
 71
     2
 72
     2
 73
     1
 90
        2
 40
0.6
 41
30.0
 62
     5
 63
     7
 74
     1
 91
       10
 64
     7
 65
   257
 75
     2
175
     1
 42
1.0
 92
        8
 66
   257
 43
1.0
 76
     1
 77
     6
 78
     2
 67
     7
 79
     3
170
     0
171
     0
290
     0
174
     0
 93
        5
 44
0.0
173
     0
291
     0
 45
0.0
1001
ACAD
1000
AcDbSavedByObjectVersion
1070
     0
  0
VISUALSTYLE
  5
6D6
102
{ACAD_REACTORS
330
29
102
}
102
{ACAD_XDICTIONARY
360
760
102
}
330
29
100
AcDbVisualStyle
  2
Shades of Gray
 70
    23
 71
     2
 72
     2
 73
     3
 90
        0
 40
0.6
 41
30.0
 62
     5
 63
     7
 74
     2
 91
        2
 64
     7
 65
     7
 75
     1
175
     1
 42
40.0
 92
        8
 66
     7
 43
1.0
 76
     1
 77
     6
 78
     2
 67
     7
 79
     3
170
     0
171
     0
290
     0
174
     0
 93
        1
 44
0.0
173
     0
291
     0
 45
0.0
1001
ACAD
1000
AcDbSavedByObjectVersion
1070
     0
  0
VISUALSTYLE
  5
6D7
102
{ACAD_REACTORS
330
29
102
}
102
{ACAD_XDICTIONARY
360
762
102
}
330
29
100
AcDbVisualStyle
  2
Sketchy
 70
    24
 71
     1
 72
     2
 73
     2
 90
        0
 40
0.6
 41
30.0
 62
     5
 63
     7
 74
     2
 91
        2
 64
     7
 65
     7
 75
     1
175
     1
 42
40.0
 92
       11
 66
     7
 43
1.0
 76
     1
 77
     6
 78
     2
 67
     7
 79
     6
170
     0
171
     0
290
     0
174
     0
 93
        1
 44
0.0
173
     0
291
     0
 45
0.0
1001
ACAD
1000
AcDbSavedByObjectVersion
1070
     0
  0
VISUALSTYLE
  5
6CF
102
{ACAD_REACTORS
330
29
102
}
102
{ACAD_XDICTIONARY
360
752
102
}
330
29
100
AcDbVisualStyle
  2
Thicken
 70
    13
 71
     2
 72
     2
 73
     0
 90
        0
 40
0.6
 41
30.0
 62
     5
 63
     7
 74
     1
 91
        4
 64
     7
 65
   257
 75
     1
175
     1
 42
1.0
 92
       12
 66
     7
 43
1.0
 76
     1
 77
     6
 78
     2
 67
     7
 79
     5
170
     0
171
     0
290
     0
174
     0
 93
        1
 44
0.0
173
     0
291
     1
 45
0.0
1001
ACAD
1000
AcDbSavedByObjectVersion
1070
     0
  0
VISUALSTYLE
  5
6C8
102
{ACAD_REACTORS
330
29
102
}
102
{ACAD_XDICTIONARY
360
744
102
}
330
29
100
AcDbVisualStyle
  2
Wireframe
 70
     5
 71
     0
 72
     2
 73
     0
 90
        0
 40
0.6
 41
30.0
 62
     5
 63
     7
 74
     1
 91
        4
 64
     7
 65
   257
 75
     1
175
     1
 42
1.0
 92
        0
 66
   257
 43
1.0
 76
     1
 77
     6
 78
     2
 67
     7
 79
     5
170
     0
171
     0
290
     0
174
     0
 93
        1
 44
0.0
173
     0
291
     0
 45
0.0
1001
ACAD
1000
AcDbSavedByObjectVersion
1070
     0
  0
VISUALSTYLE
  5
6D8
102
{ACAD_REACTORS
330
29
102
}
102
{ACAD_XDICTIONARY
360
764
102
}
330
29
100
AcDbVisualStyle
  2
X-Ray
 70
    25
 71
     2
 72
     2
 73
     1
 90
        1
 40
0.5
 41
30.0
 62
     5
 63
     7
 74
     1
 91
        0
 64
     7
 65
   257
 75
     1
175
     1
 42
1.0
 92
        8
 66
     7
 43
1.0
 76
     1
 77
     6
 78
     2
 67
     7
 79
     3
170
     0
171
     0
290
     0
174
     0
 93
       13
 44
0.0
173
     0
291
     0
 45
0.0
1001
ACAD
1000
AcDbSavedByObjectVersion
1070
     0
  0
XRECORD
  5
72E
102
{ACAD_REACTORS
330
72D
102
}
330
72D
100
AcDbXrecord
280
     1
340
28
  0
XRECORD
  5
72F
102
{ACAD_REACTORS
330
72D
102
}
330
72D
100
AcDbXrecord
280
     1
340
7
  0
DICTIONARYVAR
  5
6BE
102
{ACAD_REACTORS
330
6BD
102
}
330
6BD
100
DictionaryVariables
280
     0
  1
1:1
  0
DICTIONARYVAR
  5
6E4
102
{ACAD_REACTORS
330
6BD
102
}
330
6BD
100
DictionaryVariables
280
     0
  1
Standard
  0
DICTIONARYVAR
  5
72B
102
{ACAD_REACTORS
330
6BD
102
}
330
6BD
100
DictionaryVariables
280
     0
  1
0
  0
DICTIONARYVAR
  5
72C
102
{ACAD_REACTORS
330
6BD
102
}
330
6BD
100
DictionaryVariables
280
     0
  1
1
  0
DICTIONARYVAR
  5
733
102
{ACAD_REACTORS
330
6BD
102
}
330
6BD
100
DictionaryVariables
280
     0
  1
1
  0
DICTIONARY
  5
738
330
70
100
AcDbDictionary
280
     1
281
     1
  3
ACAD_XREC_ROUNDTRIP
360
739
  0
DICTIONARY
  5
734
330
E
100
AcDbDictionary
280
     1
281
     1
  3
ACAD_XREC_ROUNDTRIP
360
735
  0
DICTIONARY
  5
736
330
6
100
AcDbDictionary
280
     1
281
     1
  3
ACAD_XREC_ROUNDTRIP
360
737
  0
DICTIONARY
  5
76A
330
6DB
100
AcDbDictionary
280
     1
281
     1
  3
ACAD_XREC_ROUNDTRIP
360
76B
  0
DICTIONARY
  5
742
330
6C7
100
AcDbDictionary
280
     1
281
     1
  3
ACAD_XREC_ROUNDTRIP
360
743
  0
DICTIONARY
  5
748
330
6CA
100
AcDbDictionary
280
     1
281
     1
  3
ACAD_XREC_ROUNDTRIP
360
749
  0
DICTIONARY
  5
750
330
6CE
100
AcDbDictionary
280
     1
281
     1
  3
ACAD_XREC_ROUNDTRIP
360
751
  0
DICTIONARY
  5
758
330
6D2
100
AcDbDictionary
280
     1
281
     1
  3
ACAD_XREC_ROUNDTRIP
360
759
  0
DICTIONARY
  5
74C
330
6CC
100
AcDbDictionary
280
     1
281
     1
  3
ACAD_XREC_ROUNDTRIP
360
74D
  0
DICTIONARY
  5
74E
330
6CD
100
AcDbDictionary
280
     1
281
     1
  3
ACAD_XREC_ROUNDTRIP
360
74F
  0
DICTIONARY
  5
75E
330
6D5
100
AcDbDictionary
280
     1
281
     1
  3
ACAD_XREC_ROUNDTRIP
360
75F
  0
DICTIONARY
  5
756
330
6D1
100
AcDbDictionary
280
     1
281
     1
  3
ACAD_XREC_ROUNDTRIP
360
757
  0
DICTIONARY
  5
73A
330
6C3
100
AcDbDictionary
280
     1
281
     1
  3
ACAD_XREC_ROUNDTRIP
360
73B
  0
DICTIONARY
  5
73C
330
6C4
100
AcDbDictionary
280
     1
281
     1
  3
ACAD_XREC_ROUNDTRIP
360
73D
  0
DICTIONARY
  5
73E
330
6C5
100
AcDbDictionary
280
     1
281
     1
  3
ACAD_XREC_ROUNDTRIP
360
73F
  0
DICTIONARY
  5
740
330
6C6
100
AcDbDictionary
280
     1
281
     1
  3
ACAD_XREC_ROUNDTRIP
360
741
  0
DICTIONARY
  5
746
330
6C9
100
AcDbDictionary
280
     1
281
     1
  3
ACAD_XREC_ROUNDTRIP
360
747
  0
DICTIONARY
  5
75A
330
6D3
100
AcDbDictionary
280
     1
281
     1
  3
ACAD_XREC_ROUNDTRIP
360
75B
  0
DICTIONARY
  5
754
330
6D0
100
AcDbDictionary
280
     1
281
     1
  3
ACAD_XREC_ROUNDTRIP
360
755
  0
DICTIONARY
  5
75C
330
6D4
100
AcDbDictionary
280
     1
281
     1
  3
ACAD_XREC_ROUNDTRIP
360
75D
  0
DICTIONARY
  5
74A
330
6CB
100
AcDbDictionary
280
     1
281
     1
  3
ACAD_XREC_ROUNDTRIP
360
74B
  0
DICTIONARY
  5
768
330
6DA
100
AcDbDictionary
280
     1
281
     1
  3
ACAD_XREC_ROUNDTRIP
360
769
  0
DICTIONARY
  5
766
330
6D9
100
AcDbDictionary
280
     1
281
     1
  3
ACAD_XREC_ROUNDTRIP
360
767
  0
DICTIONARY
  5
760
330
6D6
100
AcDbDictionary
280
     1
281
     1
  3
ACAD_XREC_ROUNDTRIP
360
761
  0
DICTIONARY
  5
762
330
6D7
100
AcDbDictionary
280
     1
281
     1
  3
ACAD_XREC_ROUNDTRIP
360
763
  0
DICTIONARY
  5
752
330
6CF
100
AcDbDictionary
280
     1
281
     1
  3
ACAD_XREC_ROUNDTRIP
360
753
  0
DICTIONARY
  5
744
330
6C8
100
AcDbDictionary
280
     1
281
     1
  3
ACAD_XREC_ROUNDTRIP
360
745
  0
DICTIONARY
  5
764
330
6D8
100
AcDbDictionary
280
     1
281
     1
  3
ACAD_XREC_ROUNDTRIP
360
765
  0
XRECORD
  5
739
102
{ACAD_REACTORS
330
738
102
}
330
738
100
AcDbXrecord
280
     1
102
MATERIAL
148
0.0
149
0.0
149
0.0
 93
        0
 94
      127
282
     0
 72
     1
 77
     1
171
     1
175
     1
179
     1
273
     0
  0
XRECORD
  5
735
102
{ACAD_REACTORS
330
734
102
}
330
734
100
AcDbXrecord
280
     1
102
MATERIAL
148
0.0
149
0.0
149
0.0
 93
        0
 94
      127
282
     0
 72
     1
 77
     1
171
     1
175
     1
179
     1
273
     0
  0
XRECORD
  5
737
102
{ACAD_REACTORS
330
736
102
}
330
736
100
AcDbXrecord
280
     1
102
MATERIAL
148
0.0
149
0.0
149
0.0
 93
        0
 94
      127
282
     0
 72
     1
 77
     1
171
     1
175
     1
179
     1
273
     0
  0
XRECORD
  5
76B
102
{ACAD_REACTORS
330
76A
102
}
330
76A
100
AcDbXrecord
280
     1
102
ACAD_ROUNDTRIP_2010_MLEADER_STYLE
  0
XRECORD
  5
743
102
{ACAD_REACTORS
330
742
102
}
330
742
100
AcDbXrecord
280
     1
102
RTVSPropertyOp0
 70
     1
102
RTVSPropertyOp1
 70
     1
102
RTVSPropertyOp2
 70
     1
102
RTVSPropertyOp3
 70
     1
102
RTVSPropertyOp4
 70
     1
102
RTVSPropertyOp5
 70
     1
102
RTVSPropertyOp6
 70
     1
102
RTVSPropertyOp7
 70
     1
102
RTVSPropertyOp8
 70
     1
102
RTVSPropertyOp9
 70
     1
102
RTVSPropertyOp10
 70
     1
102
RTVSPropertyOp11
 70
     1
102
RTVSPropertyOp12
 70
     1
102
RTVSPropertyOp13
 70
     1
102
RTVSPropertyOp14
 70
     1
102
RTVSPropertyOp15
 70
     1
102
RTVSPropertyOp16
 70
     1
102
RTVSPropertyOp17
 70
     1
102
RTVSPropertyOp18
 70
     1
102
RTVSPropertyOp19
 70
     1
102
RTVSPropertyOp20
 70
     1
102
RTVSPropertyOp21
 70
     1
102
RTVSPropertyOp22
 70
     1
102
RTVSPropertyOp23
 70
     1
102
RTVSPropertyOp24
 70
     1
102
RTVSPropertyOp25
 70
     1
102
RTVSPropertyOp26
 70
     1
102
RTVSPropertyOp27
 70
     1
102
RTVSPropertyOp28
 70
     1
102
RTVSPropertyOp29
 70
     1
102
RTVSPropertyOp30
 70
     1
102
RTVSPropertyOp31
 70
     1
102
RTVSPropertyOp32
 70
     1
102
RTVSPropertyOp33
 70
     1
102
RTVSPropertyOp34
 70
     1
102
RTVSPropertyOp35
 70
     1
102
RTVSPropertyOp36
 70
     1
102
RTVSPropertyOp37
 70
     1
102
RTVSPropertyOp38
 70
     1
102
RTVSPropertyOp39
 70
     1
102
RTVSPropertyOp40
 70
     1
102
RTVSPropertyOp41
 70
     1
102
RTVSPropertyOp42
 70
     1
102
RTVSPropertyOp43
 70
     1
102
RTVSPropertyOp44
 70
     1
102
RTVSPropertyOp45
 70
     1
102
RTVSPropertyOp46
 70
     1
102
RTVSPropertyOp47
 70
     1
102
RTVSPropertyOp48
 70
     1
102
RTVSPropertyOp49
 70
     1
102
RTVSPropertyOp50
 70
     1
102
RTVSPropertyOp51
 70
     0
102
RTVSPropertyOp52
 70
     0
102
RTVSPropertyOp53
 70
     1
102
RTVSPropertyOp54
 70
     1
102
RTVSPropertyOp55
 70
     1
102
RTVSPropertyOp56
 70
     1
102
RTVSPropertyOp57
 70
     1
102
RTVSPost2010Prop28
280
     1
102
RTVSPost2010PropOp28
 70
     1
102
RTVSPost2010Prop29
280
     1
102
RTVSPost2010PropOp29
 70
     1
102
RTVSPost2010Prop30
280
     0
102
RTVSPost2010PropOp30
 70
     1
102
RTVSPost2010Prop31
280
     0
102
RTVSPost2010PropOp31
 70
     1
102
RTVSPost2010Prop32
280
     0
102
RTVSPost2010PropOp32
 70
     1
102
RTVSPost2010Prop33
280
     0
102
RTVSPost2010PropOp33
 70
     1
102
RTVSPost2010Prop34
280
     0
102
RTVSPost2010PropOp34
 70
     1
102
RTVSPost2010Prop35
280
     0
102
RTVSPost2010PropOp35
 70
     1
102
RTVSPost2010Prop36
280
     0
102
RTVSPost2010PropOp36
 70
     1
102
RTVSPost2010Prop37
 90
       50
102
RTVSPost2010PropOp37
 70
     1
102
RTVSPost2010Prop38
140
0.0
102
RTVSPost2010PropOp38
 70
     1
102
RTVSPost2010Prop39
140
1.0
102
RTVSPost2010PropOp39
 70
     1
102
RTVSPost2010Prop40
 90
        0
102
RTVSPost2010PropOp40
 70
     1
102
RTVSPost2010Prop41ColorIndex
 90
       18
102
RTVSPost2010Prop41ColorRGB
 90
        0
102
RTVSPost2010PropOp41
 70
     1
102
RTVSPost2010Prop42
 90
       50
102
RTVSPost2010PropOp42
 70
     1
102
RTVSPost2010Prop43
 90
        3
102
RTVSPost2010PropOp43
 70
     1
102
RTVSPost2010Prop44ColorIndex
 90
        5
102
RTVSPost2010Prop44ColorRGB
 90
      255
102
RTVSPost2010PropOp44
 70
     1
102
RTVSPost2010Prop45
280
     0
102
RTVSPost2010PropOp45
 70
     1
102
RTVSPost2010Prop46
 90
       50
102
RTVSPost2010PropOp46
 70
     1
102
RTVSPost2010Prop47
 90
       50
102
RTVSPost2010PropOp47
 70
     1
102
RTVSPost2010Prop48
 90
       50
102
RTVSPost2010PropOp48
 70
     1
102
RTVSPost2010Prop49
280
     0
102
RTVSPost2010PropOp49
 70
     1
102
RTVSPost2010Prop50
 90
       50
102
RTVSPost2010PropOp50
 70
     1
102
RTVSPost2010Prop51ColorIndex
 90
      256
102
RTVSPost2010Prop51ColorRGB
 90
-16777216
102
RTVSPost2010PropOp51
 70
     0
102
RTVSPost2010Prop52
140
1.0
102
RTVSPost2010PropOp52
 70
     0
102
RTVSPost2010Prop53
 90
        2
102
RTVSPost2010PropOp53
 70
     1
102
RTVSPost2010Prop54
  1
strokes_ogs.tif
102
RTVSPost2010PropOp54
 70
     1
102
RTVSPost2010Prop55
280
     0
102
RTVSPost2010PropOp55
 70
     1
102
RTVSPost2010Prop56
140
1.0
102
RTVSPost2010PropOp56
 70
     1
102
RTVSPost2010Prop57
140
1.0
102
RTVSPost2010PropOp57
 70
     1
  0
XRECORD
  5
749
102
{ACAD_REACTORS
330
748
102
}
330
748
100
AcDbXrecord
280
     1
102
RTVSPropertyOp0
 70
     1
102
RTVSPropertyOp1
 70
     1
102
RTVSPropertyOp2
 70
     1
102
RTVSPropertyOp3
 70
     1
102
RTVSPropertyOp4
 70
     1
102
RTVSPropertyOp5
 70
     1
102
RTVSPropertyOp6
 70
     1
102
RTVSPropertyOp7
 70
     1
102
RTVSPropertyOp8
 70
     1
102
RTVSPropertyOp9
 70
     1
102
RTVSPropertyOp10
 70
     1
102
RTVSPropertyOp11
 70
     1
102
RTVSPropertyOp12
 70
     1
102
RTVSPropertyOp13
 70
     1
102
RTVSPropertyOp14
 70
     1
102
RTVSPropertyOp15
 70
     1
102
RTVSPropertyOp16
 70
     1
102
RTVSPropertyOp17
 70
     1
102
RTVSPropertyOp18
 70
     1
102
RTVSPropertyOp19
 70
     1
102
RTVSPropertyOp20
 70
     1
102
RTVSPropertyOp21
 70
     1
102
RTVSPropertyOp22
 70
     1
102
RTVSPropertyOp23
 70
     1
102
RTVSPropertyOp24
 70
     1
102
RTVSPropertyOp25
 70
     1
102
RTVSPropertyOp26
 70
     1
102
RTVSPropertyOp27
 70
     1
102
RTVSPropertyOp28
 70
     1
102
RTVSPropertyOp29
 70
     1
102
RTVSPropertyOp30
 70
     1
102
RTVSPropertyOp31
 70
     1
102
RTVSPropertyOp32
 70
     1
102
RTVSPropertyOp33
 70
     1
102
RTVSPropertyOp34
 70
     1
102
RTVSPropertyOp35
 70
     1
102
RTVSPropertyOp36
 70
     1
102
RTVSPropertyOp37
 70
     1
102
RTVSPropertyOp38
 70
     1
102
RTVSPropertyOp39
 70
     1
102
RTVSPropertyOp40
 70
     1
102
RTVSPropertyOp41
 70
     1
102
RTVSPropertyOp42
 70
     1
102
RTVSPropertyOp43
 70
     1
102
RTVSPropertyOp44
 70
     1
102
RTVSPropertyOp45
 70
     1
102
RTVSPropertyOp46
 70
     1
102
RTVSPropertyOp47
 70
     1
102
RTVSPropertyOp48
 70
     1
102
RTVSPropertyOp49
 70
     1
102
RTVSPropertyOp50
 70
     1
102
RTVSPropertyOp51
 70
     0
102
RTVSPropertyOp52
 70
     0
102
RTVSPropertyOp53
 70
     1
102
RTVSPropertyOp54
 70
     1
102
RTVSPropertyOp55
 70
     1
102
RTVSPropertyOp56
 70
     1
102
RTVSPropertyOp57
 70
     1
102
RTVSPost2010Prop28
280
     0
102
RTVSPost2010PropOp28
 70
     1
102
RTVSPost2010Prop29
280
     1
102
RTVSPost2010PropOp29
 70
     1
102
RTVSPost2010Prop30
280
     1
102
RTVSPost2010PropOp30
 70
     1
102
RTVSPost2010Prop31
280
     0
102
RTVSPost2010PropOp31
 70
     1
102
RTVSPost2010Prop32
280
     0
102
RTVSPost2010PropOp32
 70
     1
102
RTVSPost2010Prop33
280
     0
102
RTVSPost2010PropOp33
 70
     1
102
RTVSPost2010Prop34
280
     0
102
RTVSPost2010PropOp34
 70
     1
102
RTVSPost2010Prop35
280
     0
102
RTVSPost2010PropOp35
 70
     1
102
RTVSPost2010Prop36
280
     0
102
RTVSPost2010PropOp36
 70
     1
102
RTVSPost2010Prop37
 90
       50
102
RTVSPost2010PropOp37
 70
     1
102
RTVSPost2010Prop38
140
0.0
102
RTVSPost2010PropOp38
 70
     1
102
RTVSPost2010Prop39
140
1.0
102
RTVSPost2010PropOp39
 70
     1
102
RTVSPost2010Prop40
 90
        0
102
RTVSPost2010PropOp40
 70
     1
102
RTVSPost2010Prop41ColorIndex
 90
       18
102
RTVSPost2010Prop41ColorRGB
 90
        0
102
RTVSPost2010PropOp41
 70
     1
102
RTVSPost2010Prop42
 90
       50
102
RTVSPost2010PropOp42
 70
     1
102
RTVSPost2010Prop43
 90
        3
102
RTVSPost2010PropOp43
 70
     1
102
RTVSPost2010Prop44ColorIndex
 90
        5
102
RTVSPost2010Prop44ColorRGB
 90
      255
102
RTVSPost2010PropOp44
 70
     1
102
RTVSPost2010Prop45
280
     0
102
RTVSPost2010PropOp45
 70
     1
102
RTVSPost2010Prop46
 90
       50
102
RTVSPost2010PropOp46
 70
     1
102
RTVSPost2010Prop47
 90
       50
102
RTVSPost2010PropOp47
 70
     1
102
RTVSPost2010Prop48
 90
       50
102
RTVSPost2010PropOp48
 70
     1
102
RTVSPost2010Prop49
280
     0
102
RTVSPost2010PropOp49
 70
     1
102
RTVSPost2010Prop50
 90
       50
102
RTVSPost2010PropOp50
 70
     1
102
RTVSPost2010Prop51ColorIndex
 90
      256
102
RTVSPost2010Prop51ColorRGB
 90
-16777216
102
RTVSPost2010PropOp51
 70
     0
102
RTVSPost2010Prop52
140
1.0
102
RTVSPost2010PropOp52
 70
     0
102
RTVSPost2010Prop53
 90
        2
102
RTVSPost2010PropOp53
 70
     1
102
RTVSPost2010Prop54
  1
strokes_ogs.tif
102
RTVSPost2010PropOp54
 70
     1
102
RTVSPost2010Prop55
280
     0
102
RTVSPost2010PropOp55
 70
     1
102
RTVSPost2010Prop56
140
1.0
102
RTVSPost2010PropOp56
 70
     1
102
RTVSPost2010Prop57
140
1.0
102
RTVSPost2010PropOp57
 70
     1
  0
XRECORD
  5
751
102
{ACAD_REACTORS
330
750
102
}
330
750
100
AcDbXrecord
280
     1
102
RTVSPropertyOp0
 70
     1
102
RTVSPropertyOp1
 70
     1
102
RTVSPropertyOp2
 70
     1
102
RTVSPropertyOp3
 70
     1
102
RTVSPropertyOp4
 70
     1
102
RTVSPropertyOp5
 70
     1
102
RTVSPropertyOp6
 70
     1
102
RTVSPropertyOp7
 70
     1
102
RTVSPropertyOp8
 70
     1
102
RTVSPropertyOp9
 70
     1
102
RTVSPropertyOp10
 70
     1
102
RTVSPropertyOp11
 70
     1
102
RTVSPropertyOp12
 70
     1
102
RTVSPropertyOp13
 70
     1
102
RTVSPropertyOp14
 70
     1
102
RTVSPropertyOp15
 70
     1
102
RTVSPropertyOp16
 70
     1
102
RTVSPropertyOp17
 70
     1
102
RTVSPropertyOp18
 70
     1
102
RTVSPropertyOp19
 70
     1
102
RTVSPropertyOp20
 70
     1
102
RTVSPropertyOp21
 70
     1
102
RTVSPropertyOp22
 70
     1
102
RTVSPropertyOp23
 70
     1
102
RTVSPropertyOp24
 70
     1
102
RTVSPropertyOp25
 70
     1
102
RTVSPropertyOp26
 70
     1
102
RTVSPropertyOp27
 70
     1
102
RTVSPropertyOp28
 70
     1
102
RTVSPropertyOp29
 70
     1
102
RTVSPropertyOp30
 70
     1
102
RTVSPropertyOp31
 70
     1
102
RTVSPropertyOp32
 70
     1
102
RTVSPropertyOp33
 70
     1
102
RTVSPropertyOp34
 70
     1
102
RTVSPropertyOp35
 70
     1
102
RTVSPropertyOp36
 70
     1
102
RTVSPropertyOp37
 70
     1
102
RTVSPropertyOp38
 70
     1
102
RTVSPropertyOp39
 70
     1
102
RTVSPropertyOp40
 70
     1
102
RTVSPropertyOp41
 70
     1
102
RTVSPropertyOp42
 70
     1
102
RTVSPropertyOp43
 70
     1
102
RTVSPropertyOp44
 70
     1
102
RTVSPropertyOp45
 70
     1
102
RTVSPropertyOp46
 70
     1
102
RTVSPropertyOp47
 70
     1
102
RTVSPropertyOp48
 70
     1
102
RTVSPropertyOp49
 70
     1
102
RTVSPropertyOp50
 70
     1
102
RTVSPropertyOp51
 70
     0
102
RTVSPropertyOp52
 70
     0
102
RTVSPropertyOp53
 70
     1
102
RTVSPropertyOp54
 70
     1
102
RTVSPropertyOp55
 70
     1
102
RTVSPropertyOp56
 70
     1
102
RTVSPropertyOp57
 70
     1
102
RTVSPost2010Prop28
280
     0
102
RTVSPost2010PropOp28
 70
     1
102
RTVSPost2010Prop29
280
     1
102
RTVSPost2010PropOp29
 70
     1
102
RTVSPost2010Prop30
280
     1
102
RTVSPost2010PropOp30
 70
     1
102
RTVSPost2010Prop31
280
     0
102
RTVSPost2010PropOp31
 70
     1
102
RTVSPost2010Prop32
280
     0
102
RTVSPost2010PropOp32
 70
     1
102
RTVSPost2010Prop33
280
     0
102
RTVSPost2010PropOp33
 70
     1
102
RTVSPost2010Prop34
280
     0
102
RTVSPost2010PropOp34
 70
     1
102
RTVSPost2010Prop35
280
     0
102
RTVSPost2010PropOp35
 70
     1
102
RTVSPost2010Prop36
280
     0
102
RTVSPost2010PropOp36
 70
     1
102
RTVSPost2010Prop37
 90
       50
102
RTVSPost2010PropOp37
 70
     1
102
RTVSPost2010Prop38
140
0.0
102
RTVSPost2010PropOp38
 70
     1
102
RTVSPost2010Prop39
140
1.0
102
RTVSPost2010PropOp39
 70
     1
102
RTVSPost2010Prop40
 90
        0
102
RTVSPost2010PropOp40
 70
     1
102
RTVSPost2010Prop41ColorIndex
 90
       18
102
RTVSPost2010Prop41ColorRGB
 90
        0
102
RTVSPost2010PropOp41
 70
     1
102
RTVSPost2010Prop42
 90
       50
102
RTVSPost2010PropOp42
 70
     1
102
RTVSPost2010Prop43
 90
        3
102
RTVSPost2010PropOp43
 70
     1
102
RTVSPost2010Prop44ColorIndex
 90
        5
102
RTVSPost2010Prop44ColorRGB
 90
      255
102
RTVSPost2010PropOp44
 70
     1
102
RTVSPost2010Prop45
280
     0
102
RTVSPost2010PropOp45
 70
     1
102
RTVSPost2010Prop46
 90
       50
102
RTVSPost2010PropOp46
 70
     1
102
RTVSPost2010Prop47
 90
       50
102
RTVSPost2010PropOp47
 70
     1
102
RTVSPost2010Prop48
 90
       50
102
RTVSPost2010PropOp48
 70
     1
102
RTVSPost2010Prop49
280
     0
102
RTVSPost2010PropOp49
 70
     1
102
RTVSPost2010Prop50
 90
       50
102
RTVSPost2010PropOp50
 70
     1
102
RTVSPost2010Prop51ColorIndex
 90
      256
102
RTVSPost2010Prop51ColorRGB
 90
-16777216
102
RTVSPost2010PropOp51
 70
     0
102
RTVSPost2010Prop52
140
1.0
102
RTVSPost2010PropOp52
 70
     0
102
RTVSPost2010Prop53
 90
        2
102
RTVSPost2010PropOp53
 70
     1
102
RTVSPost2010Prop54
  1
strokes_ogs.tif
102
RTVSPost2010PropOp54
 70
     1
102
RTVSPost2010Prop55
280
     0
102
RTVSPost2010PropOp55
 70
     1
102
RTVSPost2010Prop56
140
1.0
102
RTVSPost2010PropOp56
 70
     1
102
RTVSPost2010Prop57
140
1.0
102
RTVSPost2010PropOp57
 70
     1
  0
XRECORD
  5
759
102
{ACAD_REACTORS
330
758
102
}
330
758
100
AcDbXrecord
280
     1
102
RTVSPropertyOp0
 70
     1
102
RTVSPropertyOp1
 70
     1
102
RTVSPropertyOp2
 70
     1
102
RTVSPropertyOp3
 70
     1
102
RTVSPropertyOp4
 70
     1
102
RTVSPropertyOp5
 70
     1
102
RTVSPropertyOp6
 70
     1
102
RTVSPropertyOp7
 70
     1
102
RTVSPropertyOp8
 70
     1
102
RTVSPropertyOp9
 70
     1
102
RTVSPropertyOp10
 70
     1
102
RTVSPropertyOp11
 70
     1
102
RTVSPropertyOp12
 70
     1
102
RTVSPropertyOp13
 70
     1
102
RTVSPropertyOp14
 70
     1
102
RTVSPropertyOp15
 70
     1
102
RTVSPropertyOp16
 70
     1
102
RTVSPropertyOp17
 70
     1
102
RTVSPropertyOp18
 70
     1
102
RTVSPropertyOp19
 70
     1
102
RTVSPropertyOp20
 70
     1
102
RTVSPropertyOp21
 70
     1
102
RTVSPropertyOp22
 70
     1
102
RTVSPropertyOp23
 70
     1
102
RTVSPropertyOp24
 70
     1
102
RTVSPropertyOp25
 70
     1
102
RTVSPropertyOp26
 70
     1
102
RTVSPropertyOp27
 70
     1
102
RTVSPropertyOp28
 70
     1
102
RTVSPropertyOp29
 70
     1
102
RTVSPropertyOp30
 70
     1
102
RTVSPropertyOp31
 70
     1
102
RTVSPropertyOp32
 70
     1
102
RTVSPropertyOp33
 70
     1
102
RTVSPropertyOp34
 70
     1
102
RTVSPropertyOp35
 70
     1
102
RTVSPropertyOp36
 70
     1
102
RTVSPropertyOp37
 70
     1
102
RTVSPropertyOp38
 70
     1
102
RTVSPropertyOp39
 70
     1
102
RTVSPropertyOp40
 70
     1
102
RTVSPropertyOp41
 70
     1
102
RTVSPropertyOp42
 70
     1
102
RTVSPropertyOp43
 70
     1
102
RTVSPropertyOp44
 70
     1
102
RTVSPropertyOp45
 70
     1
102
RTVSPropertyOp46
 70
     1
102
RTVSPropertyOp47
 70
     1
102
RTVSPropertyOp48
 70
     1
102
RTVSPropertyOp49
 70
     1
102
RTVSPropertyOp50
 70
     1
102
RTVSPropertyOp51
 70
     0
102
RTVSPropertyOp52
 70
     0
102
RTVSPropertyOp53
 70
     1
102
RTVSPropertyOp54
 70
     1
102
RTVSPropertyOp55
 70
     1
102
RTVSPropertyOp56
 70
     1
102
RTVSPropertyOp57
 70
     1
102
RTVSPost2010Prop28
280
     0
102
RTVSPost2010PropOp28
 70
     1
102
RTVSPost2010Prop29
280
     1
102
RTVSPost2010PropOp29
 70
     1
102
RTVSPost2010Prop30
280
     1
102
RTVSPost2010PropOp30
 70
     1
102
RTVSPost2010Prop31
280
     0
102
RTVSPost2010PropOp31
 70
     1
102
RTVSPost2010Prop32
280
     0
102
RTVSPost2010PropOp32
 70
     1
102
RTVSPost2010Prop33
280
     0
102
RTVSPost2010PropOp33
 70
     1
102
RTVSPost2010Prop34
280
     0
102
RTVSPost2010PropOp34
 70
     1
102
RTVSPost2010Prop35
280
     0
102
RTVSPost2010PropOp35
 70
     1
102
RTVSPost2010Prop36
280
     0
102
RTVSPost2010PropOp36
 70
     1
102
RTVSPost2010Prop37
 90
       50
102
RTVSPost2010PropOp37
 70
     1
102
RTVSPost2010Prop38
140
0.0
102
RTVSPost2010PropOp38
 70
     1
102
RTVSPost2010Prop39
140
1.0
102
RTVSPost2010PropOp39
 70
     1
102
RTVSPost2010Prop40
 90
        0
102
RTVSPost2010PropOp40
 70
     1
102
RTVSPost2010Prop41ColorIndex
 90
       18
102
RTVSPost2010Prop41ColorRGB
 90
        0
102
RTVSPost2010PropOp41
 70
     1
102
RTVSPost2010Prop42
 90
       50
102
RTVSPost2010PropOp42
 70
     1
102
RTVSPost2010Prop43
 90
        3
102
RTVSPost2010PropOp43
 70
     1
102
RTVSPost2010Prop44ColorIndex
 90
        5
102
RTVSPost2010Prop44ColorRGB
 90
      255
102
RTVSPost2010PropOp44
 70
     1
102
RTVSPost2010Prop45
280
     0
102
RTVSPost2010PropOp45
 70
     1
102
RTVSPost2010Prop46
 90
       50
102
RTVSPost2010PropOp46
 70
     1
102
RTVSPost2010Prop47
 90
       50
102
RTVSPost2010PropOp47
 70
     1
102
RTVSPost2010Prop48
 90
       50
102
RTVSPost2010PropOp48
 70
     1
102
RTVSPost2010Prop49
280
     0
102
RTVSPost2010PropOp49
 70
     1
102
RTVSPost2010Prop50
 90
       50
102
RTVSPost2010PropOp50
 70
     1
102
RTVSPost2010Prop51ColorIndex
 90
      256
102
RTVSPost2010Prop51ColorRGB
 90
-16777216
102
RTVSPost2010PropOp51
 70
     0
102
RTVSPost2010Prop52
140
1.0
102
RTVSPost2010PropOp52
 70
     0
102
RTVSPost2010Prop53
 90
        2
102
RTVSPost2010PropOp53
 70
     1
102
RTVSPost2010Prop54
  1
strokes_ogs.tif
102
RTVSPost2010PropOp54
 70
     1
102
RTVSPost2010Prop55
280
     0
102
RTVSPost2010PropOp55
 70
     1
102
RTVSPost2010Prop56
140
1.0
102
RTVSPost2010PropOp56
 70
     1
102
RTVSPost2010Prop57
140
1.0
102
RTVSPost2010PropOp57
 70
     1
  0
XRECORD
  5
74D
102
{ACAD_REACTORS
330
74C
102
}
330
74C
100
AcDbXrecord
280
     1
102
RTVSPropertyOp0
 70
     1
102
RTVSPropertyOp1
 70
     1
102
RTVSPropertyOp2
 70
     1
102
RTVSPropertyOp3
 70
     1
102
RTVSPropertyOp4
 70
     1
102
RTVSPropertyOp5
 70
     1
102
RTVSPropertyOp6
 70
     1
102
RTVSPropertyOp7
 70
     1
102
RTVSPropertyOp8
 70
     1
102
RTVSPropertyOp9
 70
     1
102
RTVSPropertyOp10
 70
     1
102
RTVSPropertyOp11
 70
     1
102
RTVSPropertyOp12
 70
     1
102
RTVSPropertyOp13
 70
     1
102
RTVSPropertyOp14
 70
     1
102
RTVSPropertyOp15
 70
     1
102
RTVSPropertyOp16
 70
     1
102
RTVSPropertyOp17
 70
     1
102
RTVSPropertyOp18
 70
     1
102
RTVSPropertyOp19
 70
     1
102
RTVSPropertyOp20
 70
     1
102
RTVSPropertyOp21
 70
     1
102
RTVSPropertyOp22
 70
     1
102
RTVSPropertyOp23
 70
     1
102
RTVSPropertyOp24
 70
     1
102
RTVSPropertyOp25
 70
     1
102
RTVSPropertyOp26
 70
     1
102
RTVSPropertyOp27
 70
     1
102
RTVSPropertyOp28
 70
     1
102
RTVSPropertyOp29
 70
     1
102
RTVSPropertyOp30
 70
     1
102
RTVSPropertyOp31
 70
     1
102
RTVSPropertyOp32
 70
     1
102
RTVSPropertyOp33
 70
     1
102
RTVSPropertyOp34
 70
     1
102
RTVSPropertyOp35
 70
     1
102
RTVSPropertyOp36
 70
     1
102
RTVSPropertyOp37
 70
     1
102
RTVSPropertyOp38
 70
     1
102
RTVSPropertyOp39
 70
     1
102
RTVSPropertyOp40
 70
     1
102
RTVSPropertyOp41
 70
     1
102
RTVSPropertyOp42
 70
     1
102
RTVSPropertyOp43
 70
     1
102
RTVSPropertyOp44
 70
     1
102
RTVSPropertyOp45
 70
     1
102
RTVSPropertyOp46
 70
     1
102
RTVSPropertyOp47
 70
     1
102
RTVSPropertyOp48
 70
     1
102
RTVSPropertyOp49
 70
     1
102
RTVSPropertyOp50
 70
     1
102
RTVSPropertyOp51
 70
     0
102
RTVSPropertyOp52
 70
     0
102
RTVSPropertyOp53
 70
     1
102
RTVSPropertyOp54
 70
     1
102
RTVSPropertyOp55
 70
     1
102
RTVSPropertyOp56
 70
     1
102
RTVSPropertyOp57
 70
     1
102
RTVSPost2010Prop28
280
     0
102
RTVSPost2010PropOp28
 70
     1
102
RTVSPost2010Prop29
280
     1
102
RTVSPost2010PropOp29
 70
     1
102
RTVSPost2010Prop30
280
     1
102
RTVSPost2010PropOp30
 70
     1
102
RTVSPost2010Prop31
280
     0
102
RTVSPost2010PropOp31
 70
     1
102
RTVSPost2010Prop32
280
     0
102
RTVSPost2010PropOp32
 70
     1
102
RTVSPost2010Prop33
280
     0
102
RTVSPost2010PropOp33
 70
     1
102
RTVSPost2010Prop34
280
     0
102
RTVSPost2010PropOp34
 70
     1
102
RTVSPost2010Prop35
280
     0
102
RTVSPost2010PropOp35
 70
     1
102
RTVSPost2010Prop36
280
     0
102
RTVSPost2010PropOp36
 70
     1
102
RTVSPost2010Prop37
 90
       50
102
RTVSPost2010PropOp37
 70
     1
102
RTVSPost2010Prop38
140
0.0
102
RTVSPost2010PropOp38
 70
     1
102
RTVSPost2010Prop39
140
1.0
102
RTVSPost2010PropOp39
 70
     1
102
RTVSPost2010Prop40
 90
        0
102
RTVSPost2010PropOp40
 70
     1
102
RTVSPost2010Prop41ColorIndex
 90
       18
102
RTVSPost2010Prop41ColorRGB
 90
        0
102
RTVSPost2010PropOp41
 70
     1
102
RTVSPost2010Prop42
 90
       50
102
RTVSPost2010PropOp42
 70
     1
102
RTVSPost2010Prop43
 90
        3
102
RTVSPost2010PropOp43
 70
     1
102
RTVSPost2010Prop44ColorIndex
 90
        5
102
RTVSPost2010Prop44ColorRGB
 90
      255
102
RTVSPost2010PropOp44
 70
     1
102
RTVSPost2010Prop45
280
     0
102
RTVSPost2010PropOp45
 70
     1
102
RTVSPost2010Prop46
 90
       50
102
RTVSPost2010PropOp46
 70
     1
102
RTVSPost2010Prop47
 90
       50
102
RTVSPost2010PropOp47
 70
     1
102
RTVSPost2010Prop48
 90
       50
102
RTVSPost2010PropOp48
 70
     1
102
RTVSPost2010Prop49
280
     0
102
RTVSPost2010PropOp49
 70
     1
102
RTVSPost2010Prop50
 90
       50
102
RTVSPost2010PropOp50
 70
     1
102
RTVSPost2010Prop51ColorIndex
 90
      256
102
RTVSPost2010Prop51ColorRGB
 90
-16777216
102
RTVSPost2010PropOp51
 70
     0
102
RTVSPost2010Prop52
140
1.0
102
RTVSPost2010PropOp52
 70
     0
102
RTVSPost2010Prop53
 90
        2
102
RTVSPost2010PropOp53
 70
     1
102
RTVSPost2010Prop54
  1
strokes_ogs.tif
102
RTVSPost2010PropOp54
 70
     1
102
RTVSPost2010Prop55
280
     0
102
RTVSPost2010PropOp55
 70
     1
102
RTVSPost2010Prop56
140
1.0
102
RTVSPost2010PropOp56
 70
     1
102
RTVSPost2010Prop57
140
1.0
102
RTVSPost2010PropOp57
 70
     1
  0
XRECORD
  5
74F
102
{ACAD_REACTORS
330
74E
102
}
330
74E
100
AcDbXrecord
280
     1
102
RTVSPropertyOp0
 70
     1
102
RTVSPropertyOp1
 70
     1
102
RTVSPropertyOp2
 70
     1
102
RTVSPropertyOp3
 70
     1
102
RTVSPropertyOp4
 70
     1
102
RTVSPropertyOp5
 70
     1
102
RTVSPropertyOp6
 70
     1
102
RTVSPropertyOp7
 70
     1
102
RTVSPropertyOp8
 70
     1
102
RTVSPropertyOp9
 70
     1
102
RTVSPropertyOp10
 70
     1
102
RTVSPropertyOp11
 70
     1
102
RTVSPropertyOp12
 70
     1
102
RTVSPropertyOp13
 70
     1
102
RTVSPropertyOp14
 70
     1
102
RTVSPropertyOp15
 70
     1
102
RTVSPropertyOp16
 70
     1
102
RTVSPropertyOp17
 70
     1
102
RTVSPropertyOp18
 70
     1
102
RTVSPropertyOp19
 70
     1
102
RTVSPropertyOp20
 70
     1
102
RTVSPropertyOp21
 70
     1
102
RTVSPropertyOp22
 70
     1
102
RTVSPropertyOp23
 70
     1
102
RTVSPropertyOp24
 70
     1
102
RTVSPropertyOp25
 70
     1
102
RTVSPropertyOp26
 70
     1
102
RTVSPropertyOp27
 70
     1
102
RTVSPropertyOp28
 70
     1
102
RTVSPropertyOp29
 70
     1
102
RTVSPropertyOp30
 70
     1
102
RTVSPropertyOp31
 70
     1
102
RTVSPropertyOp32
 70
     1
102
RTVSPropertyOp33
 70
     1
102
RTVSPropertyOp34
 70
     1
102
RTVSPropertyOp35
 70
     1
102
RTVSPropertyOp36
 70
     1
102
RTVSPropertyOp37
 70
     1
102
RTVSPropertyOp38
 70
     1
102
RTVSPropertyOp39
 70
     1
102
RTVSPropertyOp40
 70
     1
102
RTVSPropertyOp41
 70
     1
102
RTVSPropertyOp42
 70
     1
102
RTVSPropertyOp43
 70
     1
102
RTVSPropertyOp44
 70
     1
102
RTVSPropertyOp45
 70
     1
102
RTVSPropertyOp46
 70
     1
102
RTVSPropertyOp47
 70
     1
102
RTVSPropertyOp48
 70
     1
102
RTVSPropertyOp49
 70
     1
102
RTVSPropertyOp50
 70
     1
102
RTVSPropertyOp51
 70
     0
102
RTVSPropertyOp52
 70
     0
102
RTVSPropertyOp53
 70
     1
102
RTVSPropertyOp54
 70
     1
102
RTVSPropertyOp55
 70
     1
102
RTVSPropertyOp56
 70
     1
102
RTVSPropertyOp57
 70
     1
102
RTVSPost2010Prop28
280
     0
102
RTVSPost2010PropOp28
 70
     1
102
RTVSPost2010Prop29
280
     1
102
RTVSPost2010PropOp29
 70
     1
102
RTVSPost2010Prop30
280
     1
102
RTVSPost2010PropOp30
 70
     1
102
RTVSPost2010Prop31
280
     0
102
RTVSPost2010PropOp31
 70
     1
102
RTVSPost2010Prop32
280
     0
102
RTVSPost2010PropOp32
 70
     1
102
RTVSPost2010Prop33
280
     0
102
RTVSPost2010PropOp33
 70
     1
102
RTVSPost2010Prop34
280
     0
102
RTVSPost2010PropOp34
 70
     1
102
RTVSPost2010Prop35
280
     0
102
RTVSPost2010PropOp35
 70
     1
102
RTVSPost2010Prop36
280
     0
102
RTVSPost2010PropOp36
 70
     1
102
RTVSPost2010Prop37
 90
       50
102
RTVSPost2010PropOp37
 70
     1
102
RTVSPost2010Prop38
140
0.0
102
RTVSPost2010PropOp38
 70
     1
102
RTVSPost2010Prop39
140
1.0
102
RTVSPost2010PropOp39
 70
     1
102
RTVSPost2010Prop40
 90
        0
102
RTVSPost2010PropOp40
 70
     1
102
RTVSPost2010Prop41ColorIndex
 90
       18
102
RTVSPost2010Prop41ColorRGB
 90
        0
102
RTVSPost2010PropOp41
 70
     1
102
RTVSPost2010Prop42
 90
       50
102
RTVSPost2010PropOp42
 70
     1
102
RTVSPost2010Prop43
 90
        3
102
RTVSPost2010PropOp43
 70
     1
102
RTVSPost2010Prop44ColorIndex
 90
        5
102
RTVSPost2010Prop44ColorRGB
 90
      255
102
RTVSPost2010PropOp44
 70
     1
102
RTVSPost2010Prop45
280
     0
102
RTVSPost2010PropOp45
 70
     1
102
RTVSPost2010Prop46
 90
       50
102
RTVSPost2010PropOp46
 70
     1
102
RTVSPost2010Prop47
 90
       50
102
RTVSPost2010PropOp47
 70
     1
102
RTVSPost2010Prop48
 90
       50
102
RTVSPost2010PropOp48
 70
     1
102
RTVSPost2010Prop49
280
     0
102
RTVSPost2010PropOp49
 70
     1
102
RTVSPost2010Prop50
 90
       50
102
RTVSPost2010PropOp50
 70
     1
102
RTVSPost2010Prop51ColorIndex
 90
      256
102
RTVSPost2010Prop51ColorRGB
 90
-16777216
102
RTVSPost2010PropOp51
 70
     0
102
RTVSPost2010Prop52
140
1.0
102
RTVSPost2010PropOp52
 70
     0
102
RTVSPost2010Prop53
 90
        2
102
RTVSPost2010PropOp53
 70
     1
102
RTVSPost2010Prop54
  1
strokes_ogs.tif
102
RTVSPost2010PropOp54
 70
     1
102
RTVSPost2010Prop55
280
     0
102
RTVSPost2010PropOp55
 70
     1
102
RTVSPost2010Prop56
140
1.0
102
RTVSPost2010PropOp56
 70
     1
102
RTVSPost2010Prop57
140
1.0
102
RTVSPost2010PropOp57
 70
     1
  0
XRECORD
  5
75F
102
{ACAD_REACTORS
330
75E
102
}
330
75E
100
AcDbXrecord
280
     1
102
RTVSPropertyOp0
 70
     0
102
RTVSPropertyOp1
 70
     0
102
RTVSPropertyOp2
 70
     0
102
RTVSPropertyOp3
 70
     0
102
RTVSPropertyOp4
 70
     0
102
RTVSPropertyOp5
 70
     0
102
RTVSPropertyOp6
 70
     0
102
RTVSPropertyOp7
 70
     0
102
RTVSPropertyOp8
 70
     0
102
RTVSPropertyOp9
 70
     0
102
RTVSPropertyOp10
 70
     0
102
RTVSPropertyOp11
 70
     0
102
RTVSPropertyOp12
 70
     0
102
RTVSPropertyOp13
 70
     0
102
RTVSPropertyOp14
 70
     0
102
RTVSPropertyOp15
 70
     0
102
RTVSPropertyOp16
 70
     0
102
RTVSPropertyOp17
 70
     0
102
RTVSPropertyOp18
 70
     0
102
RTVSPropertyOp19
 70
     0
102
RTVSPropertyOp20
 70
     0
102
RTVSPropertyOp21
 70
     0
102
RTVSPropertyOp22
 70
     0
102
RTVSPropertyOp23
 70
     0
102
RTVSPropertyOp24
 70
     0
102
RTVSPropertyOp25
 70
     0
102
RTVSPropertyOp26
 70
     0
102
RTVSPropertyOp27
 70
     0
102
RTVSPropertyOp28
 70
     1
102
RTVSPropertyOp29
 70
     1
102
RTVSPropertyOp30
 70
     1
102
RTVSPropertyOp31
 70
     1
102
RTVSPropertyOp32
 70
     1
102
RTVSPropertyOp33
 70
     1
102
RTVSPropertyOp34
 70
     1
102
RTVSPropertyOp35
 70
     1
102
RTVSPropertyOp36
 70
     1
102
RTVSPropertyOp37
 70
     1
102
RTVSPropertyOp38
 70
     1
102
RTVSPropertyOp39
 70
     1
102
RTVSPropertyOp40
 70
     1
102
RTVSPropertyOp41
 70
     1
102
RTVSPropertyOp42
 70
     1
102
RTVSPropertyOp43
 70
     1
102
RTVSPropertyOp44
 70
     1
102
RTVSPropertyOp45
 70
     1
102
RTVSPropertyOp46
 70
     1
102
RTVSPropertyOp47
 70
     1
102
RTVSPropertyOp48
 70
     1
102
RTVSPropertyOp49
 70
     1
102
RTVSPropertyOp50
 70
     1
102
RTVSPropertyOp51
 70
     0
102
RTVSPropertyOp52
 70
     0
102
RTVSPropertyOp53
 70
     1
102
RTVSPropertyOp54
 70
     1
102
RTVSPropertyOp55
 70
     1
102
RTVSPropertyOp56
 70
     1
102
RTVSPropertyOp57
 70
     1
102
RTVSPost2010Prop28
280
     0
102
RTVSPost2010PropOp28
 70
     1
102
RTVSPost2010Prop29
280
     1
102
RTVSPost2010PropOp29
 70
     1
102
RTVSPost2010Prop30
280
     1
102
RTVSPost2010PropOp30
 70
     1
102
RTVSPost2010Prop31
280
     0
102
RTVSPost2010PropOp31
 70
     1
102
RTVSPost2010Prop32
280
     0
102
RTVSPost2010PropOp32
 70
     1
102
RTVSPost2010Prop33
280
     0
102
RTVSPost2010PropOp33
 70
     1
102
RTVSPost2010Prop34
280
     0
102
RTVSPost2010PropOp34
 70
     1
102
RTVSPost2010Prop35
280
     0
102
RTVSPost2010PropOp35
 70
     1
102
RTVSPost2010Prop36
280
     0
102
RTVSPost2010PropOp36
 70
     1
102
RTVSPost2010Prop37
 90
       50
102
RTVSPost2010PropOp37
 70
     1
102
RTVSPost2010Prop38
140
0.0
102
RTVSPost2010PropOp38
 70
     1
102
RTVSPost2010Prop39
140
1.0
102
RTVSPost2010PropOp39
 70
     1
102
RTVSPost2010Prop40
 90
        0
102
RTVSPost2010PropOp40
 70
     1
102
RTVSPost2010Prop41ColorIndex
 90
       18
102
RTVSPost2010Prop41ColorRGB
 90
        0
102
RTVSPost2010PropOp41
 70
     1
102
RTVSPost2010Prop42
 90
       50
102
RTVSPost2010PropOp42
 70
     1
102
RTVSPost2010Prop43
 90
        3
102
RTVSPost2010PropOp43
 70
     1
102
RTVSPost2010Prop44ColorIndex
 90
        5
102
RTVSPost2010Prop44ColorRGB
 90
      255
102
RTVSPost2010PropOp44
 70
     1
102
RTVSPost2010Prop45
280
     0
102
RTVSPost2010PropOp45
 70
     1
102
RTVSPost2010Prop46
 90
       50
102
RTVSPost2010PropOp46
 70
     1
102
RTVSPost2010Prop47
 90
       50
102
RTVSPost2010PropOp47
 70
     1
102
RTVSPost2010Prop48
 90
       50
102
RTVSPost2010PropOp48
 70
     1
102
RTVSPost2010Prop49
280
     0
102
RTVSPost2010PropOp49
 70
     1
102
RTVSPost2010Prop50
 90
       50
102
RTVSPost2010PropOp50
 70
     1
102
RTVSPost2010Prop51ColorIndex
 90
      256
102
RTVSPost2010Prop51ColorRGB
 90
-16777216
102
RTVSPost2010PropOp51
 70
     0
102
RTVSPost2010Prop52
140
1.0
102
RTVSPost2010PropOp52
 70
     0
102
RTVSPost2010Prop53
 90
        2
102
RTVSPost2010PropOp53
 70
     1
102
RTVSPost2010Prop54
  1
strokes_ogs.tif
102
RTVSPost2010PropOp54
 70
     1
102
RTVSPost2010Prop55
280
     0
102
RTVSPost2010PropOp55
 70
     1
102
RTVSPost2010Prop56
140
1.0
102
RTVSPost2010PropOp56
 70
     1
102
RTVSPost2010Prop57
140
1.0
102
RTVSPost2010PropOp57
 70
     1
  0
XRECORD
  5
757
102
{ACAD_REACTORS
330
756
102
}
330
756
100
AcDbXrecord
280
     1
102
RTVSPropertyOp0
 70
     1
102
RTVSPropertyOp1
 70
     1
102
RTVSPropertyOp2
 70
     1
102
RTVSPropertyOp3
 70
     1
102
RTVSPropertyOp4
 70
     1
102
RTVSPropertyOp5
 70
     1
102
RTVSPropertyOp6
 70
     1
102
RTVSPropertyOp7
 70
     1
102
RTVSPropertyOp8
 70
     1
102
RTVSPropertyOp9
 70
     1
102
RTVSPropertyOp10
 70
     1
102
RTVSPropertyOp11
 70
     1
102
RTVSPropertyOp12
 70
     1
102
RTVSPropertyOp13
 70
     1
102
RTVSPropertyOp14
 70
     1
102
RTVSPropertyOp15
 70
     1
102
RTVSPropertyOp16
 70
     1
102
RTVSPropertyOp17
 70
     1
102
RTVSPropertyOp18
 70
     1
102
RTVSPropertyOp19
 70
     1
102
RTVSPropertyOp20
 70
     1
102
RTVSPropertyOp21
 70
     1
102
RTVSPropertyOp22
 70
     1
102
RTVSPropertyOp23
 70
     1
102
RTVSPropertyOp24
 70
     1
102
RTVSPropertyOp25
 70
     1
102
RTVSPropertyOp26
 70
     1
102
RTVSPropertyOp27
 70
     1
102
RTVSPropertyOp28
 70
     1
102
RTVSPropertyOp29
 70
     1
102
RTVSPropertyOp30
 70
     1
102
RTVSPropertyOp31
 70
     1
102
RTVSPropertyOp32
 70
     1
102
RTVSPropertyOp33
 70
     1
102
RTVSPropertyOp34
 70
     1
102
RTVSPropertyOp35
 70
     1
102
RTVSPropertyOp36
 70
     1
102
RTVSPropertyOp37
 70
     1
102
RTVSPropertyOp38
 70
     1
102
RTVSPropertyOp39
 70
     1
102
RTVSPropertyOp40
 70
     1
102
RTVSPropertyOp41
 70
     1
102
RTVSPropertyOp42
 70
     1
102
RTVSPropertyOp43
 70
     1
102
RTVSPropertyOp44
 70
     1
102
RTVSPropertyOp45
 70
     1
102
RTVSPropertyOp46
 70
     1
102
RTVSPropertyOp47
 70
     1
102
RTVSPropertyOp48
 70
     1
102
RTVSPropertyOp49
 70
     1
102
RTVSPropertyOp50
 70
     1
102
RTVSPropertyOp51
 70
     0
102
RTVSPropertyOp52
 70
     0
102
RTVSPropertyOp53
 70
     1
102
RTVSPropertyOp54
 70
     1
102
RTVSPropertyOp55
 70
     1
102
RTVSPropertyOp56
 70
     1
102
RTVSPropertyOp57
 70
     1
102
RTVSPost2010Prop28
280
     0
102
RTVSPost2010PropOp28
 70
     1
102
RTVSPost2010Prop29
280
     1
102
RTVSPost2010PropOp29
 70
     1
102
RTVSPost2010Prop30
280
     1
102
RTVSPost2010PropOp30
 70
     1
102
RTVSPost2010Prop31
280
     0
102
RTVSPost2010PropOp31
 70
     1
102
RTVSPost2010Prop32
280
     0
102
RTVSPost2010PropOp32
 70
     1
102
RTVSPost2010Prop33
280
     0
102
RTVSPost2010PropOp33
 70
     1
102
RTVSPost2010Prop34
280
     0
102
RTVSPost2010PropOp34
 70
     1
102
RTVSPost2010Prop35
280
     0
102
RTVSPost2010PropOp35
 70
     1
102
RTVSPost2010Prop36
280
     0
102
RTVSPost2010PropOp36
 70
     1
102
RTVSPost2010Prop37
 90
       50
102
RTVSPost2010PropOp37
 70
     1
102
RTVSPost2010Prop38
140
0.0
102
RTVSPost2010PropOp38
 70
     1
102
RTVSPost2010Prop39
140
1.0
102
RTVSPost2010PropOp39
 70
     1
102
RTVSPost2010Prop40
 90
        0
102
RTVSPost2010PropOp40
 70
     1
102
RTVSPost2010Prop41ColorIndex
 90
       18
102
RTVSPost2010Prop41ColorRGB
 90
        0
102
RTVSPost2010PropOp41
 70
     1
102
RTVSPost2010Prop42
 90
       50
102
RTVSPost2010PropOp42
 70
     1
102
RTVSPost2010Prop43
 90
        3
102
RTVSPost2010PropOp43
 70
     1
102
RTVSPost2010Prop44ColorIndex
 90
        5
102
RTVSPost2010Prop44ColorRGB
 90
      255
102
RTVSPost2010PropOp44
 70
     1
102
RTVSPost2010Prop45
280
     0
102
RTVSPost2010PropOp45
 70
     1
102
RTVSPost2010Prop46
 90
       50
102
RTVSPost2010PropOp46
 70
     1
102
RTVSPost2010Prop47
 90
       50
102
RTVSPost2010PropOp47
 70
     1
102
RTVSPost2010Prop48
 90
       50
102
RTVSPost2010PropOp48
 70
     1
102
RTVSPost2010Prop49
280
     0
102
RTVSPost2010PropOp49
 70
     1
102
RTVSPost2010Prop50
 90
       50
102
RTVSPost2010PropOp50
 70
     1
102
RTVSPost2010Prop51ColorIndex
 90
      256
102
RTVSPost2010Prop51ColorRGB
 90
-16777216
102
RTVSPost2010PropOp51
 70
     0
102
RTVSPost2010Prop52
140
1.0
102
RTVSPost2010PropOp52
 70
     0
102
RTVSPost2010Prop53
 90
        2
102
RTVSPost2010PropOp53
 70
     1
102
RTVSPost2010Prop54
  1
strokes_ogs.tif
102
RTVSPost2010PropOp54
 70
     1
102
RTVSPost2010Prop55
280
     0
102
RTVSPost2010PropOp55
 70
     1
102
RTVSPost2010Prop56
140
1.0
102
RTVSPost2010PropOp56
 70
     1
102
RTVSPost2010Prop57
140
1.0
102
RTVSPost2010PropOp57
 70
     1
  0
XRECORD
  5
73B
102
{ACAD_REACTORS
330
73A
102
}
330
73A
100
AcDbXrecord
280
     1
102
RTVSPropertyOp0
 70
     1
102
RTVSPropertyOp1
 70
     1
102
RTVSPropertyOp2
 70
     1
102
RTVSPropertyOp3
 70
     1
102
RTVSPropertyOp4
 70
     1
102
RTVSPropertyOp5
 70
     1
102
RTVSPropertyOp6
 70
     1
102
RTVSPropertyOp7
 70
     1
102
RTVSPropertyOp8
 70
     1
102
RTVSPropertyOp9
 70
     1
102
RTVSPropertyOp10
 70
     1
102
RTVSPropertyOp11
 70
     1
102
RTVSPropertyOp12
 70
     1
102
RTVSPropertyOp13
 70
     1
102
RTVSPropertyOp14
 70
     1
102
RTVSPropertyOp15
 70
     1
102
RTVSPropertyOp16
 70
     1
102
RTVSPropertyOp17
 70
     1
102
RTVSPropertyOp18
 70
     1
102
RTVSPropertyOp19
 70
     1
102
RTVSPropertyOp20
 70
     1
102
RTVSPropertyOp21
 70
     1
102
RTVSPropertyOp22
 70
     1
102
RTVSPropertyOp23
 70
     1
102
RTVSPropertyOp24
 70
     1
102
RTVSPropertyOp25
 70
     1
102
RTVSPropertyOp26
 70
     1
102
RTVSPropertyOp27
 70
     1
102
RTVSPropertyOp28
 70
     1
102
RTVSPropertyOp29
 70
     1
102
RTVSPropertyOp30
 70
     1
102
RTVSPropertyOp31
 70
     1
102
RTVSPropertyOp32
 70
     1
102
RTVSPropertyOp33
 70
     1
102
RTVSPropertyOp34
 70
     1
102
RTVSPropertyOp35
 70
     1
102
RTVSPropertyOp36
 70
     1
102
RTVSPropertyOp37
 70
     1
102
RTVSPropertyOp38
 70
     1
102
RTVSPropertyOp39
 70
     1
102
RTVSPropertyOp40
 70
     1
102
RTVSPropertyOp41
 70
     1
102
RTVSPropertyOp42
 70
     1
102
RTVSPropertyOp43
 70
     1
102
RTVSPropertyOp44
 70
     1
102
RTVSPropertyOp45
 70
     1
102
RTVSPropertyOp46
 70
     1
102
RTVSPropertyOp47
 70
     1
102
RTVSPropertyOp48
 70
     1
102
RTVSPropertyOp49
 70
     1
102
RTVSPropertyOp50
 70
     1
102
RTVSPropertyOp51
 70
     0
102
RTVSPropertyOp52
 70
     0
102
RTVSPropertyOp53
 70
     1
102
RTVSPropertyOp54
 70
     1
102
RTVSPropertyOp55
 70
     1
102
RTVSPropertyOp56
 70
     1
102
RTVSPropertyOp57
 70
     1
102
RTVSPost2010Prop28
280
     0
102
RTVSPost2010PropOp28
 70
     1
102
RTVSPost2010Prop29
280
     1
102
RTVSPost2010PropOp29
 70
     1
102
RTVSPost2010Prop30
280
     1
102
RTVSPost2010PropOp30
 70
     1
102
RTVSPost2010Prop31
280
     0
102
RTVSPost2010PropOp31
 70
     1
102
RTVSPost2010Prop32
280
     0
102
RTVSPost2010PropOp32
 70
     1
102
RTVSPost2010Prop33
280
     0
102
RTVSPost2010PropOp33
 70
     1
102
RTVSPost2010Prop34
280
     0
102
RTVSPost2010PropOp34
 70
     1
102
RTVSPost2010Prop35
280
     0
102
RTVSPost2010PropOp35
 70
     1
102
RTVSPost2010Prop36
280
     0
102
RTVSPost2010PropOp36
 70
     1
102
RTVSPost2010Prop37
 90
       50
102
RTVSPost2010PropOp37
 70
     1
102
RTVSPost2010Prop38
140
0.0
102
RTVSPost2010PropOp38
 70
     1
102
RTVSPost2010Prop39
140
1.0
102
RTVSPost2010PropOp39
 70
     1
102
RTVSPost2010Prop40
 90
        0
102
RTVSPost2010PropOp40
 70
     1
102
RTVSPost2010Prop41ColorIndex
 90
       18
102
RTVSPost2010Prop41ColorRGB
 90
        0
102
RTVSPost2010PropOp41
 70
     1
102
RTVSPost2010Prop42
 90
       50
102
RTVSPost2010PropOp42
 70
     1
102
RTVSPost2010Prop43
 90
        3
102
RTVSPost2010PropOp43
 70
     1
102
RTVSPost2010Prop44ColorIndex
 90
        5
102
RTVSPost2010Prop44ColorRGB
 90
      255
102
RTVSPost2010PropOp44
 70
     1
102
RTVSPost2010Prop45
280
     0
102
RTVSPost2010PropOp45
 70
     1
102
RTVSPost2010Prop46
 90
       50
102
RTVSPost2010PropOp46
 70
     1
102
RTVSPost2010Prop47
 90
       50
102
RTVSPost2010PropOp47
 70
     1
102
RTVSPost2010Prop48
 90
       50
102
RTVSPost2010PropOp48
 70
     1
102
RTVSPost2010Prop49
280
     0
102
RTVSPost2010PropOp49
 70
     1
102
RTVSPost2010Prop50
 90
       50
102
RTVSPost2010PropOp50
 70
     1
102
RTVSPost2010Prop51ColorIndex
 90
      256
102
RTVSPost2010Prop51ColorRGB
 90
-16777216
102
RTVSPost2010PropOp51
 70
     0
102
RTVSPost2010Prop52
140
1.0
102
RTVSPost2010PropOp52
 70
     0
102
RTVSPost2010Prop53
 90
        2
102
RTVSPost2010PropOp53
 70
     1
102
RTVSPost2010Prop54
  1
strokes_ogs.tif
102
RTVSPost2010PropOp54
 70
     1
102
RTVSPost2010Prop55
280
     0
102
RTVSPost2010PropOp55
 70
     1
102
RTVSPost2010Prop56
140
1.0
102
RTVSPost2010PropOp56
 70
     1
102
RTVSPost2010Prop57
140
1.0
102
RTVSPost2010PropOp57
 70
     1
  0
XRECORD
  5
73D
102
{ACAD_REACTORS
330
73C
102
}
330
73C
100
AcDbXrecord
280
     1
102
RTVSPropertyOp0
 70
     1
102
RTVSPropertyOp1
 70
     1
102
RTVSPropertyOp2
 70
     1
102
RTVSPropertyOp3
 70
     1
102
RTVSPropertyOp4
 70
     1
102
RTVSPropertyOp5
 70
     1
102
RTVSPropertyOp6
 70
     1
102
RTVSPropertyOp7
 70
     1
102
RTVSPropertyOp8
 70
     1
102
RTVSPropertyOp9
 70
     1
102
RTVSPropertyOp10
 70
     1
102
RTVSPropertyOp11
 70
     1
102
RTVSPropertyOp12
 70
     1
102
RTVSPropertyOp13
 70
     1
102
RTVSPropertyOp14
 70
     1
102
RTVSPropertyOp15
 70
     1
102
RTVSPropertyOp16
 70
     1
102
RTVSPropertyOp17
 70
     1
102
RTVSPropertyOp18
 70
     1
102
RTVSPropertyOp19
 70
     1
102
RTVSPropertyOp20
 70
     1
102
RTVSPropertyOp21
 70
     1
102
RTVSPropertyOp22
 70
     1
102
RTVSPropertyOp23
 70
     1
102
RTVSPropertyOp24
 70
     1
102
RTVSPropertyOp25
 70
     1
102
RTVSPropertyOp26
 70
     1
102
RTVSPropertyOp27
 70
     1
102
RTVSPropertyOp28
 70
     1
102
RTVSPropertyOp29
 70
     1
102
RTVSPropertyOp30
 70
     1
102
RTVSPropertyOp31
 70
     1
102
RTVSPropertyOp32
 70
     1
102
RTVSPropertyOp33
 70
     1
102
RTVSPropertyOp34
 70
     1
102
RTVSPropertyOp35
 70
     1
102
RTVSPropertyOp36
 70
     1
102
RTVSPropertyOp37
 70
     1
102
RTVSPropertyOp38
 70
     1
102
RTVSPropertyOp39
 70
     1
102
RTVSPropertyOp40
 70
     1
102
RTVSPropertyOp41
 70
     1
102
RTVSPropertyOp42
 70
     1
102
RTVSPropertyOp43
 70
     1
102
RTVSPropertyOp44
 70
     1
102
RTVSPropertyOp45
 70
     1
102
RTVSPropertyOp46
 70
     1
102
RTVSPropertyOp47
 70
     1
102
RTVSPropertyOp48
 70
     1
102
RTVSPropertyOp49
 70
     1
102
RTVSPropertyOp50
 70
     1
102
RTVSPropertyOp51
 70
     0
102
RTVSPropertyOp52
 70
     0
102
RTVSPropertyOp53
 70
     1
102
RTVSPropertyOp54
 70
     1
102
RTVSPropertyOp55
 70
     1
102
RTVSPropertyOp56
 70
     1
102
RTVSPropertyOp57
 70
     1
102
RTVSPost2010Prop28
280
     0
102
RTVSPost2010PropOp28
 70
     1
102
RTVSPost2010Prop29
280
     1
102
RTVSPost2010PropOp29
 70
     1
102
RTVSPost2010Prop30
280
     1
102
RTVSPost2010PropOp30
 70
     1
102
RTVSPost2010Prop31
280
     0
102
RTVSPost2010PropOp31
 70
     1
102
RTVSPost2010Prop32
280
     0
102
RTVSPost2010PropOp32
 70
     1
102
RTVSPost2010Prop33
280
     0
102
RTVSPost2010PropOp33
 70
     1
102
RTVSPost2010Prop34
280
     0
102
RTVSPost2010PropOp34
 70
     1
102
RTVSPost2010Prop35
280
     0
102
RTVSPost2010PropOp35
 70
     1
102
RTVSPost2010Prop36
280
     0
102
RTVSPost2010PropOp36
 70
     1
102
RTVSPost2010Prop37
 90
       50
102
RTVSPost2010PropOp37
 70
     1
102
RTVSPost2010Prop38
140
0.0
102
RTVSPost2010PropOp38
 70
     1
102
RTVSPost2010Prop39
140
1.0
102
RTVSPost2010PropOp39
 70
     1
102
RTVSPost2010Prop40
 90
        0
102
RTVSPost2010PropOp40
 70
     1
102
RTVSPost2010Prop41ColorIndex
 90
       18
102
RTVSPost2010Prop41ColorRGB
 90
        0
102
RTVSPost2010PropOp41
 70
     1
102
RTVSPost2010Prop42
 90
       50
102
RTVSPost2010PropOp42
 70
     1
102
RTVSPost2010Prop43
 90
        3
102
RTVSPost2010PropOp43
 70
     1
102
RTVSPost2010Prop44ColorIndex
 90
        5
102
RTVSPost2010Prop44ColorRGB
 90
      255
102
RTVSPost2010PropOp44
 70
     1
102
RTVSPost2010Prop45
280
     0
102
RTVSPost2010PropOp45
 70
     1
102
RTVSPost2010Prop46
 90
       50
102
RTVSPost2010PropOp46
 70
     1
102
RTVSPost2010Prop47
 90
       50
102
RTVSPost2010PropOp47
 70
     1
102
RTVSPost2010Prop48
 90
       50
102
RTVSPost2010PropOp48
 70
     1
102
RTVSPost2010Prop49
280
     0
102
RTVSPost2010PropOp49
 70
     1
102
RTVSPost2010Prop50
 90
       50
102
RTVSPost2010PropOp50
 70
     1
102
RTVSPost2010Prop51ColorIndex
 90
      256
102
RTVSPost2010Prop51ColorRGB
 90
-16777216
102
RTVSPost2010PropOp51
 70
     0
102
RTVSPost2010Prop52
140
1.0
102
RTVSPost2010PropOp52
 70
     0
102
RTVSPost2010Prop53
 90
        2
102
RTVSPost2010PropOp53
 70
     1
102
RTVSPost2010Prop54
  1
strokes_ogs.tif
102
RTVSPost2010PropOp54
 70
     1
102
RTVSPost2010Prop55
280
     0
102
RTVSPost2010PropOp55
 70
     1
102
RTVSPost2010Prop56
140
1.0
102
RTVSPost2010PropOp56
 70
     1
102
RTVSPost2010Prop57
140
1.0
102
RTVSPost2010PropOp57
 70
     1
  0
XRECORD
  5
73F
102
{ACAD_REACTORS
330
73E
102
}
330
73E
100
AcDbXrecord
280
     1
102
RTVSPropertyOp0
 70
     1
102
RTVSPropertyOp1
 70
     1
102
RTVSPropertyOp2
 70
     1
102
RTVSPropertyOp3
 70
     1
102
RTVSPropertyOp4
 70
     1
102
RTVSPropertyOp5
 70
     1
102
RTVSPropertyOp6
 70
     1
102
RTVSPropertyOp7
 70
     1
102
RTVSPropertyOp8
 70
     1
102
RTVSPropertyOp9
 70
     1
102
RTVSPropertyOp10
 70
     1
102
RTVSPropertyOp11
 70
     1
102
RTVSPropertyOp12
 70
     1
102
RTVSPropertyOp13
 70
     1
102
RTVSPropertyOp14
 70
     1
102
RTVSPropertyOp15
 70
     1
102
RTVSPropertyOp16
 70
     1
102
RTVSPropertyOp17
 70
     1
102
RTVSPropertyOp18
 70
     1
102
RTVSPropertyOp19
 70
     1
102
RTVSPropertyOp20
 70
     1
102
RTVSPropertyOp21
 70
     1
102
RTVSPropertyOp22
 70
     1
102
RTVSPropertyOp23
 70
     1
102
RTVSPropertyOp24
 70
     1
102
RTVSPropertyOp25
 70
     1
102
RTVSPropertyOp26
 70
     1
102
RTVSPropertyOp27
 70
     1
102
RTVSPropertyOp28
 70
     1
102
RTVSPropertyOp29
 70
     1
102
RTVSPropertyOp30
 70
     1
102
RTVSPropertyOp31
 70
     1
102
RTVSPropertyOp32
 70
     1
102
RTVSPropertyOp33
 70
     1
102
RTVSPropertyOp34
 70
     1
102
RTVSPropertyOp35
 70
     1
102
RTVSPropertyOp36
 70
     1
102
RTVSPropertyOp37
 70
     1
102
RTVSPropertyOp38
 70
     1
102
RTVSPropertyOp39
 70
     1
102
RTVSPropertyOp40
 70
     1
102
RTVSPropertyOp41
 70
     1
102
RTVSPropertyOp42
 70
     1
102
RTVSPropertyOp43
 70
     1
102
RTVSPropertyOp44
 70
     1
102
RTVSPropertyOp45
 70
     1
102
RTVSPropertyOp46
 70
     1
102
RTVSPropertyOp47
 70
     1
102
RTVSPropertyOp48
 70
     1
102
RTVSPropertyOp49
 70
     1
102
RTVSPropertyOp50
 70
     1
102
RTVSPropertyOp51
 70
     0
102
RTVSPropertyOp52
 70
     0
102
RTVSPropertyOp53
 70
     1
102
RTVSPropertyOp54
 70
     1
102
RTVSPropertyOp55
 70
     1
102
RTVSPropertyOp56
 70
     1
102
RTVSPropertyOp57
 70
     1
102
RTVSPost2010Prop28
280
     0
102
RTVSPost2010PropOp28
 70
     1
102
RTVSPost2010Prop29
280
     1
102
RTVSPost2010PropOp29
 70
     1
102
RTVSPost2010Prop30
280
     1
102
RTVSPost2010PropOp30
 70
     1
102
RTVSPost2010Prop31
280
     0
102
RTVSPost2010PropOp31
 70
     1
102
RTVSPost2010Prop32
280
     0
102
RTVSPost2010PropOp32
 70
     1
102
RTVSPost2010Prop33
280
     0
102
RTVSPost2010PropOp33
 70
     1
102
RTVSPost2010Prop34
280
     0
102
RTVSPost2010PropOp34
 70
     1
102
RTVSPost2010Prop35
280
     0
102
RTVSPost2010PropOp35
 70
     1
102
RTVSPost2010Prop36
280
     0
102
RTVSPost2010PropOp36
 70
     1
102
RTVSPost2010Prop37
 90
       50
102
RTVSPost2010PropOp37
 70
     1
102
RTVSPost2010Prop38
140
0.0
102
RTVSPost2010PropOp38
 70
     1
102
RTVSPost2010Prop39
140
1.0
102
RTVSPost2010PropOp39
 70
     1
102
RTVSPost2010Prop40
 90
        0
102
RTVSPost2010PropOp40
 70
     1
102
RTVSPost2010Prop41ColorIndex
 90
       18
102
RTVSPost2010Prop41ColorRGB
 90
        0
102
RTVSPost2010PropOp41
 70
     1
102
RTVSPost2010Prop42
 90
       50
102
RTVSPost2010PropOp42
 70
     1
102
RTVSPost2010Prop43
 90
        3
102
RTVSPost2010PropOp43
 70
     1
102
RTVSPost2010Prop44ColorIndex
 90
        5
102
RTVSPost2010Prop44ColorRGB
 90
      255
102
RTVSPost2010PropOp44
 70
     1
102
RTVSPost2010Prop45
280
     0
102
RTVSPost2010PropOp45
 70
     1
102
RTVSPost2010Prop46
 90
       50
102
RTVSPost2010PropOp46
 70
     1
102
RTVSPost2010Prop47
 90
       50
102
RTVSPost2010PropOp47
 70
     1
102
RTVSPost2010Prop48
 90
       50
102
RTVSPost2010PropOp48
 70
     1
102
RTVSPost2010Prop49
280
     0
102
RTVSPost2010PropOp49
 70
     1
102
RTVSPost2010Prop50
 90
       50
102
RTVSPost2010PropOp50
 70
     1
102
RTVSPost2010Prop51ColorIndex
 90
      256
102
RTVSPost2010Prop51ColorRGB
 90
-16777216
102
RTVSPost2010PropOp51
 70
     0
102
RTVSPost2010Prop52
140
1.0
102
RTVSPost2010PropOp52
 70
     0
102
RTVSPost2010Prop53
 90
        2
102
RTVSPost2010PropOp53
 70
     1
102
RTVSPost2010Prop54
  1
strokes_ogs.tif
102
RTVSPost2010PropOp54
 70
     1
102
RTVSPost2010Prop55
280
     0
102
RTVSPost2010PropOp55
 70
     1
102
RTVSPost2010Prop56
140
1.0
102
RTVSPost2010PropOp56
 70
     1
102
RTVSPost2010Prop57
140
1.0
102
RTVSPost2010PropOp57
 70
     1
  0
XRECORD
  5
741
102
{ACAD_REACTORS
330
740
102
}
330
740
100
AcDbXrecord
280
     1
102
RTVSPropertyOp0
 70
     1
102
RTVSPropertyOp1
 70
     1
102
RTVSPropertyOp2
 70
     1
102
RTVSPropertyOp3
 70
     1
102
RTVSPropertyOp4
 70
     1
102
RTVSPropertyOp5
 70
     1
102
RTVSPropertyOp6
 70
     1
102
RTVSPropertyOp7
 70
     1
102
RTVSPropertyOp8
 70
     1
102
RTVSPropertyOp9
 70
     1
102
RTVSPropertyOp10
 70
     1
102
RTVSPropertyOp11
 70
     1
102
RTVSPropertyOp12
 70
     1
102
RTVSPropertyOp13
 70
     1
102
RTVSPropertyOp14
 70
     1
102
RTVSPropertyOp15
 70
     1
102
RTVSPropertyOp16
 70
     1
102
RTVSPropertyOp17
 70
     1
102
RTVSPropertyOp18
 70
     1
102
RTVSPropertyOp19
 70
     1
102
RTVSPropertyOp20
 70
     1
102
RTVSPropertyOp21
 70
     1
102
RTVSPropertyOp22
 70
     1
102
RTVSPropertyOp23
 70
     1
102
RTVSPropertyOp24
 70
     1
102
RTVSPropertyOp25
 70
     1
102
RTVSPropertyOp26
 70
     1
102
RTVSPropertyOp27
 70
     1
102
RTVSPropertyOp28
 70
     1
102
RTVSPropertyOp29
 70
     1
102
RTVSPropertyOp30
 70
     1
102
RTVSPropertyOp31
 70
     1
102
RTVSPropertyOp32
 70
     1
102
RTVSPropertyOp33
 70
     1
102
RTVSPropertyOp34
 70
     1
102
RTVSPropertyOp35
 70
     1
102
RTVSPropertyOp36
 70
     1
102
RTVSPropertyOp37
 70
     1
102
RTVSPropertyOp38
 70
     1
102
RTVSPropertyOp39
 70
     1
102
RTVSPropertyOp40
 70
     1
102
RTVSPropertyOp41
 70
     1
102
RTVSPropertyOp42
 70
     1
102
RTVSPropertyOp43
 70
     1
102
RTVSPropertyOp44
 70
     1
102
RTVSPropertyOp45
 70
     1
102
RTVSPropertyOp46
 70
     1
102
RTVSPropertyOp47
 70
     1
102
RTVSPropertyOp48
 70
     1
102
RTVSPropertyOp49
 70
     1
102
RTVSPropertyOp50
 70
     1
102
RTVSPropertyOp51
 70
     0
102
RTVSPropertyOp52
 70
     0
102
RTVSPropertyOp53
 70
     1
102
RTVSPropertyOp54
 70
     1
102
RTVSPropertyOp55
 70
     1
102
RTVSPropertyOp56
 70
     1
102
RTVSPropertyOp57
 70
     1
102
RTVSPost2010Prop28
280
     0
102
RTVSPost2010PropOp28
 70
     1
102
RTVSPost2010Prop29
280
     1
102
RTVSPost2010PropOp29
 70
     1
102
RTVSPost2010Prop30
280
     1
102
RTVSPost2010PropOp30
 70
     1
102
RTVSPost2010Prop31
280
     0
102
RTVSPost2010PropOp31
 70
     1
102
RTVSPost2010Prop32
280
     0
102
RTVSPost2010PropOp32
 70
     1
102
RTVSPost2010Prop33
280
     0
102
RTVSPost2010PropOp33
 70
     1
102
RTVSPost2010Prop34
280
     0
102
RTVSPost2010PropOp34
 70
     1
102
RTVSPost2010Prop35
280
     0
102
RTVSPost2010PropOp35
 70
     1
102
RTVSPost2010Prop36
280
     0
102
RTVSPost2010PropOp36
 70
     1
102
RTVSPost2010Prop37
 90
       50
102
RTVSPost2010PropOp37
 70
     1
102
RTVSPost2010Prop38
140
0.0
102
RTVSPost2010PropOp38
 70
     1
102
RTVSPost2010Prop39
140
1.0
102
RTVSPost2010PropOp39
 70
     1
102
RTVSPost2010Prop40
 90
        0
102
RTVSPost2010PropOp40
 70
     1
102
RTVSPost2010Prop41ColorIndex
 90
       18
102
RTVSPost2010Prop41ColorRGB
 90
        0
102
RTVSPost2010PropOp41
 70
     1
102
RTVSPost2010Prop42
 90
       50
102
RTVSPost2010PropOp42
 70
     1
102
RTVSPost2010Prop43
 90
        3
102
RTVSPost2010PropOp43
 70
     1
102
RTVSPost2010Prop44ColorIndex
 90
        5
102
RTVSPost2010Prop44ColorRGB
 90
      255
102
RTVSPost2010PropOp44
 70
     1
102
RTVSPost2010Prop45
280
     0
102
RTVSPost2010PropOp45
 70
     1
102
RTVSPost2010Prop46
 90
       50
102
RTVSPost2010PropOp46
 70
     1
102
RTVSPost2010Prop47
 90
       50
102
RTVSPost2010PropOp47
 70
     1
102
RTVSPost2010Prop48
 90
       50
102
RTVSPost2010PropOp48
 70
     1
102
RTVSPost2010Prop49
280
     0
102
RTVSPost2010PropOp49
 70
     1
102
RTVSPost2010Prop50
 90
       50
102
RTVSPost2010PropOp50
 70
     1
102
RTVSPost2010Prop51ColorIndex
 90
      256
102
RTVSPost2010Prop51ColorRGB
 90
-16777216
102
RTVSPost2010PropOp51
 70
     0
102
RTVSPost2010Prop52
140
1.0
102
RTVSPost2010PropOp52
 70
     0
102
RTVSPost2010Prop53
 90
        2
102
RTVSPost2010PropOp53
 70
     1
102
RTVSPost2010Prop54
  1
strokes_ogs.tif
102
RTVSPost2010PropOp54
 70
     1
102
RTVSPost2010Prop55
280
     0
102
RTVSPost2010PropOp55
 70
     1
102
RTVSPost2010Prop56
140
1.0
102
RTVSPost2010PropOp56
 70
     1
102
RTVSPost2010Prop57
140
1.0
102
RTVSPost2010PropOp57
 70
     1
  0
XRECORD
  5
747
102
{ACAD_REACTORS
330
746
102
}
330
746
100
AcDbXrecord
280
     1
102
RTVSPropertyOp0
 70
     1
102
RTVSPropertyOp1
 70
     1
102
RTVSPropertyOp2
 70
     1
102
RTVSPropertyOp3
 70
     1
102
RTVSPropertyOp4
 70
     1
102
RTVSPropertyOp5
 70
     1
102
RTVSPropertyOp6
 70
     1
102
RTVSPropertyOp7
 70
     1
102
RTVSPropertyOp8
 70
     1
102
RTVSPropertyOp9
 70
     1
102
RTVSPropertyOp10
 70
     1
102
RTVSPropertyOp11
 70
     1
102
RTVSPropertyOp12
 70
     1
102
RTVSPropertyOp13
 70
     1
102
RTVSPropertyOp14
 70
     1
102
RTVSPropertyOp15
 70
     1
102
RTVSPropertyOp16
 70
     1
102
RTVSPropertyOp17
 70
     1
102
RTVSPropertyOp18
 70
     1
102
RTVSPropertyOp19
 70
     1
102
RTVSPropertyOp20
 70
     1
102
RTVSPropertyOp21
 70
     1
102
RTVSPropertyOp22
 70
     1
102
RTVSPropertyOp23
 70
     1
102
RTVSPropertyOp24
 70
     1
102
RTVSPropertyOp25
 70
     1
102
RTVSPropertyOp26
 70
     1
102
RTVSPropertyOp27
 70
     1
102
RTVSPropertyOp28
 70
     1
102
RTVSPropertyOp29
 70
     1
102
RTVSPropertyOp30
 70
     1
102
RTVSPropertyOp31
 70
     1
102
RTVSPropertyOp32
 70
     1
102
RTVSPropertyOp33
 70
     1
102
RTVSPropertyOp34
 70
     1
102
RTVSPropertyOp35
 70
     1
102
RTVSPropertyOp36
 70
     1
102
RTVSPropertyOp37
 70
     1
102
RTVSPropertyOp38
 70
     1
102
RTVSPropertyOp39
 70
     1
102
RTVSPropertyOp40
 70
     1
102
RTVSPropertyOp41
 70
     1
102
RTVSPropertyOp42
 70
     1
102
RTVSPropertyOp43
 70
     1
102
RTVSPropertyOp44
 70
     1
102
RTVSPropertyOp45
 70
     1
102
RTVSPropertyOp46
 70
     1
102
RTVSPropertyOp47
 70
     1
102
RTVSPropertyOp48
 70
     1
102
RTVSPropertyOp49
 70
     1
102
RTVSPropertyOp50
 70
     1
102
RTVSPropertyOp51
 70
     0
102
RTVSPropertyOp52
 70
     0
102
RTVSPropertyOp53
 70
     1
102
RTVSPropertyOp54
 70
     1
102
RTVSPropertyOp55
 70
     1
102
RTVSPropertyOp56
 70
     1
102
RTVSPropertyOp57
 70
     1
102
RTVSPost2010Prop28
280
     0
102
RTVSPost2010PropOp28
 70
     1
102
RTVSPost2010Prop29
280
     1
102
RTVSPost2010PropOp29
 70
     1
102
RTVSPost2010Prop30
280
     1
102
RTVSPost2010PropOp30
 70
     1
102
RTVSPost2010Prop31
280
     0
102
RTVSPost2010PropOp31
 70
     1
102
RTVSPost2010Prop32
280
     0
102
RTVSPost2010PropOp32
 70
     1
102
RTVSPost2010Prop33
280
     0
102
RTVSPost2010PropOp33
 70
     1
102
RTVSPost2010Prop34
280
     0
102
RTVSPost2010PropOp34
 70
     1
102
RTVSPost2010Prop35
280
     0
102
RTVSPost2010PropOp35
 70
     1
102
RTVSPost2010Prop36
280
     0
102
RTVSPost2010PropOp36
 70
     1
102
RTVSPost2010Prop37
 90
       50
102
RTVSPost2010PropOp37
 70
     1
102
RTVSPost2010Prop38
140
0.0
102
RTVSPost2010PropOp38
 70
     1
102
RTVSPost2010Prop39
140
1.0
102
RTVSPost2010PropOp39
 70
     1
102
RTVSPost2010Prop40
 90
        0
102
RTVSPost2010PropOp40
 70
     1
102
RTVSPost2010Prop41ColorIndex
 90
       18
102
RTVSPost2010Prop41ColorRGB
 90
        0
102
RTVSPost2010PropOp41
 70
     1
102
RTVSPost2010Prop42
 90
       50
102
RTVSPost2010PropOp42
 70
     1
102
RTVSPost2010Prop43
 90
        3
102
RTVSPost2010PropOp43
 70
     1
102
RTVSPost2010Prop44ColorIndex
 90
        5
102
RTVSPost2010Prop44ColorRGB
 90
      255
102
RTVSPost2010PropOp44
 70
     1
102
RTVSPost2010Prop45
280
     0
102
RTVSPost2010PropOp45
 70
     1
102
RTVSPost2010Prop46
 90
       50
102
RTVSPost2010PropOp46
 70
     1
102
RTVSPost2010Prop47
 90
       50
102
RTVSPost2010PropOp47
 70
     1
102
RTVSPost2010Prop48
 90
       50
102
RTVSPost2010PropOp48
 70
     1
102
RTVSPost2010Prop49
280
     0
102
RTVSPost2010PropOp49
 70
     1
102
RTVSPost2010Prop50
 90
       50
102
RTVSPost2010PropOp50
 70
     1
102
RTVSPost2010Prop51ColorIndex
 90
      256
102
RTVSPost2010Prop51ColorRGB
 90
-16777216
102
RTVSPost2010PropOp51
 70
     0
102
RTVSPost2010Prop52
140
1.0
102
RTVSPost2010PropOp52
 70
     0
102
RTVSPost2010Prop53
 90
        2
102
RTVSPost2010PropOp53
 70
     1
102
RTVSPost2010Prop54
  1
strokes_ogs.tif
102
RTVSPost2010PropOp54
 70
     1
102
RTVSPost2010Prop55
280
     0
102
RTVSPost2010PropOp55
 70
     1
102
RTVSPost2010Prop56
140
1.0
102
RTVSPost2010PropOp56
 70
     1
102
RTVSPost2010Prop57
140
1.0
102
RTVSPost2010PropOp57
 70
     1
  0
XRECORD
  5
75B
102
{ACAD_REACTORS
330
75A
102
}
330
75A
100
AcDbXrecord
280
     1
102
RTVSPropertyOp0
 70
     0
102
RTVSPropertyOp1
 70
     0
102
RTVSPropertyOp2
 70
     0
102
RTVSPropertyOp3
 70
     0
102
RTVSPropertyOp4
 70
     0
102
RTVSPropertyOp5
 70
     0
102
RTVSPropertyOp6
 70
     0
102
RTVSPropertyOp7
 70
     0
102
RTVSPropertyOp8
 70
     0
102
RTVSPropertyOp9
 70
     0
102
RTVSPropertyOp10
 70
     0
102
RTVSPropertyOp11
 70
     0
102
RTVSPropertyOp12
 70
     0
102
RTVSPropertyOp13
 70
     0
102
RTVSPropertyOp14
 70
     0
102
RTVSPropertyOp15
 70
     0
102
RTVSPropertyOp16
 70
     0
102
RTVSPropertyOp17
 70
     0
102
RTVSPropertyOp18
 70
     0
102
RTVSPropertyOp19
 70
     0
102
RTVSPropertyOp20
 70
     0
102
RTVSPropertyOp21
 70
     0
102
RTVSPropertyOp22
 70
     0
102
RTVSPropertyOp23
 70
     0
102
RTVSPropertyOp24
 70
     0
102
RTVSPropertyOp25
 70
     0
102
RTVSPropertyOp26
 70
     0
102
RTVSPropertyOp27
 70
     0
102
RTVSPropertyOp28
 70
     1
102
RTVSPropertyOp29
 70
     1
102
RTVSPropertyOp30
 70
     1
102
RTVSPropertyOp31
 70
     1
102
RTVSPropertyOp32
 70
     1
102
RTVSPropertyOp33
 70
     1
102
RTVSPropertyOp34
 70
     1
102
RTVSPropertyOp35
 70
     1
102
RTVSPropertyOp36
 70
     1
102
RTVSPropertyOp37
 70
     1
102
RTVSPropertyOp38
 70
     1
102
RTVSPropertyOp39
 70
     1
102
RTVSPropertyOp40
 70
     1
102
RTVSPropertyOp41
 70
     1
102
RTVSPropertyOp42
 70
     1
102
RTVSPropertyOp43
 70
     1
102
RTVSPropertyOp44
 70
     1
102
RTVSPropertyOp45
 70
     1
102
RTVSPropertyOp46
 70
     1
102
RTVSPropertyOp47
 70
     1
102
RTVSPropertyOp48
 70
     1
102
RTVSPropertyOp49
 70
     1
102
RTVSPropertyOp50
 70
     1
102
RTVSPropertyOp51
 70
     0
102
RTVSPropertyOp52
 70
     0
102
RTVSPropertyOp53
 70
     1
102
RTVSPropertyOp54
 70
     1
102
RTVSPropertyOp55
 70
     1
102
RTVSPropertyOp56
 70
     1
102
RTVSPropertyOp57
 70
     1
102
RTVSPost2010Prop28
280
     0
102
RTVSPost2010PropOp28
 70
     1
102
RTVSPost2010Prop29
280
     1
102
RTVSPost2010PropOp29
 70
     1
102
RTVSPost2010Prop30
280
     1
102
RTVSPost2010PropOp30
 70
     1
102
RTVSPost2010Prop31
280
     0
102
RTVSPost2010PropOp31
 70
     1
102
RTVSPost2010Prop32
280
     0
102
RTVSPost2010PropOp32
 70
     1
102
RTVSPost2010Prop33
280
     0
102
RTVSPost2010PropOp33
 70
     1
102
RTVSPost2010Prop34
280
     0
102
RTVSPost2010PropOp34
 70
     1
102
RTVSPost2010Prop35
280
     0
102
RTVSPost2010PropOp35
 70
     1
102
RTVSPost2010Prop36
280
     0
102
RTVSPost2010PropOp36
 70
     1
102
RTVSPost2010Prop37
 90
       50
102
RTVSPost2010PropOp37
 70
     1
102
RTVSPost2010Prop38
140
0.0
102
RTVSPost2010PropOp38
 70
     1
102
RTVSPost2010Prop39
140
1.0
102
RTVSPost2010PropOp39
 70
     1
102
RTVSPost2010Prop40
 90
        0
102
RTVSPost2010PropOp40
 70
     1
102
RTVSPost2010Prop41ColorIndex
 90
       18
102
RTVSPost2010Prop41ColorRGB
 90
        0
102
RTVSPost2010PropOp41
 70
     1
102
RTVSPost2010Prop42
 90
       50
102
RTVSPost2010PropOp42
 70
     1
102
RTVSPost2010Prop43
 90
        3
102
RTVSPost2010PropOp43
 70
     1
102
RTVSPost2010Prop44ColorIndex
 90
        5
102
RTVSPost2010Prop44ColorRGB
 90
      255
102
RTVSPost2010PropOp44
 70
     1
102
RTVSPost2010Prop45
280
     0
102
RTVSPost2010PropOp45
 70
     1
102
RTVSPost2010Prop46
 90
       50
102
RTVSPost2010PropOp46
 70
     1
102
RTVSPost2010Prop47
 90
       50
102
RTVSPost2010PropOp47
 70
     1
102
RTVSPost2010Prop48
 90
       50
102
RTVSPost2010PropOp48
 70
     1
102
RTVSPost2010Prop49
280
     0
102
RTVSPost2010PropOp49
 70
     1
102
RTVSPost2010Prop50
 90
       50
102
RTVSPost2010PropOp50
 70
     1
102
RTVSPost2010Prop51ColorIndex
 90
      256
102
RTVSPost2010Prop51ColorRGB
 90
-16777216
102
RTVSPost2010PropOp51
 70
     0
102
RTVSPost2010Prop52
140
1.0
102
RTVSPost2010PropOp52
 70
     0
102
RTVSPost2010Prop53
 90
        2
102
RTVSPost2010PropOp53
 70
     1
102
RTVSPost2010Prop54
  1
strokes_ogs.tif
102
RTVSPost2010PropOp54
 70
     1
102
RTVSPost2010Prop55
280
     0
102
RTVSPost2010PropOp55
 70
     1
102
RTVSPost2010Prop56
140
1.0
102
RTVSPost2010PropOp56
 70
     1
102
RTVSPost2010Prop57
140
1.0
102
RTVSPost2010PropOp57
 70
     1
  0
XRECORD
  5
755
102
{ACAD_REACTORS
330
754
102
}
330
754
100
AcDbXrecord
280
     1
102
RTVSPropertyOp0
 70
     1
102
RTVSPropertyOp1
 70
     1
102
RTVSPropertyOp2
 70
     1
102
RTVSPropertyOp3
 70
     1
102
RTVSPropertyOp4
 70
     1
102
RTVSPropertyOp5
 70
     1
102
RTVSPropertyOp6
 70
     1
102
RTVSPropertyOp7
 70
     1
102
RTVSPropertyOp8
 70
     1
102
RTVSPropertyOp9
 70
     1
102
RTVSPropertyOp10
 70
     1
102
RTVSPropertyOp11
 70
     1
102
RTVSPropertyOp12
 70
     1
102
RTVSPropertyOp13
 70
     1
102
RTVSPropertyOp14
 70
     1
102
RTVSPropertyOp15
 70
     1
102
RTVSPropertyOp16
 70
     1
102
RTVSPropertyOp17
 70
     1
102
RTVSPropertyOp18
 70
     1
102
RTVSPropertyOp19
 70
     1
102
RTVSPropertyOp20
 70
     1
102
RTVSPropertyOp21
 70
     1
102
RTVSPropertyOp22
 70
     1
102
RTVSPropertyOp23
 70
     1
102
RTVSPropertyOp24
 70
     1
102
RTVSPropertyOp25
 70
     1
102
RTVSPropertyOp26
 70
     1
102
RTVSPropertyOp27
 70
     1
102
RTVSPropertyOp28
 70
     1
102
RTVSPropertyOp29
 70
     1
102
RTVSPropertyOp30
 70
     1
102
RTVSPropertyOp31
 70
     1
102
RTVSPropertyOp32
 70
     1
102
RTVSPropertyOp33
 70
     1
102
RTVSPropertyOp34
 70
     1
102
RTVSPropertyOp35
 70
     1
102
RTVSPropertyOp36
 70
     1
102
RTVSPropertyOp37
 70
     1
102
RTVSPropertyOp38
 70
     1
102
RTVSPropertyOp39
 70
     1
102
RTVSPropertyOp40
 70
     1
102
RTVSPropertyOp41
 70
     1
102
RTVSPropertyOp42
 70
     1
102
RTVSPropertyOp43
 70
     1
102
RTVSPropertyOp44
 70
     1
102
RTVSPropertyOp45
 70
     1
102
RTVSPropertyOp46
 70
     1
102
RTVSPropertyOp47
 70
     1
102
RTVSPropertyOp48
 70
     1
102
RTVSPropertyOp49
 70
     1
102
RTVSPropertyOp50
 70
     1
102
RTVSPropertyOp51
 70
     0
102
RTVSPropertyOp52
 70
     0
102
RTVSPropertyOp53
 70
     1
102
RTVSPropertyOp54
 70
     1
102
RTVSPropertyOp55
 70
     1
102
RTVSPropertyOp56
 70
     1
102
RTVSPropertyOp57
 70
     1
102
RTVSPost2010Prop28
280
     0
102
RTVSPost2010PropOp28
 70
     1
102
RTVSPost2010Prop29
280
     1
102
RTVSPost2010PropOp29
 70
     1
102
RTVSPost2010Prop30
280
     1
102
RTVSPost2010PropOp30
 70
     1
102
RTVSPost2010Prop31
280
     0
102
RTVSPost2010PropOp31
 70
     1
102
RTVSPost2010Prop32
280
     0
102
RTVSPost2010PropOp32
 70
     1
102
RTVSPost2010Prop33
280
     0
102
RTVSPost2010PropOp33
 70
     1
102
RTVSPost2010Prop34
280
     0
102
RTVSPost2010PropOp34
 70
     1
102
RTVSPost2010Prop35
280
     0
102
RTVSPost2010PropOp35
 70
     1
102
RTVSPost2010Prop36
280
     0
102
RTVSPost2010PropOp36
 70
     1
102
RTVSPost2010Prop37
 90
       50
102
RTVSPost2010PropOp37
 70
     1
102
RTVSPost2010Prop38
140
0.0
102
RTVSPost2010PropOp38
 70
     1
102
RTVSPost2010Prop39
140
1.0
102
RTVSPost2010PropOp39
 70
     1
102
RTVSPost2010Prop40
 90
        0
102
RTVSPost2010PropOp40
 70
     1
102
RTVSPost2010Prop41ColorIndex
 90
       18
102
RTVSPost2010Prop41ColorRGB
 90
        0
102
RTVSPost2010PropOp41
 70
     1
102
RTVSPost2010Prop42
 90
       50
102
RTVSPost2010PropOp42
 70
     1
102
RTVSPost2010Prop43
 90
        3
102
RTVSPost2010PropOp43
 70
     1
102
RTVSPost2010Prop44ColorIndex
 90
        5
102
RTVSPost2010Prop44ColorRGB
 90
      255
102
RTVSPost2010PropOp44
 70
     1
102
RTVSPost2010Prop45
280
     0
102
RTVSPost2010PropOp45
 70
     1
102
RTVSPost2010Prop46
 90
       50
102
RTVSPost2010PropOp46
 70
     1
102
RTVSPost2010Prop47
 90
       50
102
RTVSPost2010PropOp47
 70
     1
102
RTVSPost2010Prop48
 90
       50
102
RTVSPost2010PropOp48
 70
     1
102
RTVSPost2010Prop49
280
     0
102
RTVSPost2010PropOp49
 70
     1
102
RTVSPost2010Prop50
 90
       50
102
RTVSPost2010PropOp50
 70
     1
102
RTVSPost2010Prop51ColorIndex
 90
      256
102
RTVSPost2010Prop51ColorRGB
 90
-16777216
102
RTVSPost2010PropOp51
 70
     0
102
RTVSPost2010Prop52
140
1.0
102
RTVSPost2010PropOp52
 70
     0
102
RTVSPost2010Prop53
 90
        2
102
RTVSPost2010PropOp53
 70
     1
102
RTVSPost2010Prop54
  1
strokes_ogs.tif
102
RTVSPost2010PropOp54
 70
     1
102
RTVSPost2010Prop55
280
     0
102
RTVSPost2010PropOp55
 70
     1
102
RTVSPost2010Prop56
140
1.0
102
RTVSPost2010PropOp56
 70
     1
102
RTVSPost2010Prop57
140
1.0
102
RTVSPost2010PropOp57
 70
     1
  0
XRECORD
  5
75D
102
{ACAD_REACTORS
330
75C
102
}
330
75C
100
AcDbXrecord
280
     1
102
RTVSPropertyOp0
 70
     0
102
RTVSPropertyOp1
 70
     0
102
RTVSPropertyOp2
 70
     0
102
RTVSPropertyOp3
 70
     0
102
RTVSPropertyOp4
 70
     0
102
RTVSPropertyOp5
 70
     0
102
RTVSPropertyOp6
 70
     0
102
RTVSPropertyOp7
 70
     0
102
RTVSPropertyOp8
 70
     0
102
RTVSPropertyOp9
 70
     0
102
RTVSPropertyOp10
 70
     0
102
RTVSPropertyOp11
 70
     0
102
RTVSPropertyOp12
 70
     0
102
RTVSPropertyOp13
 70
     0
102
RTVSPropertyOp14
 70
     0
102
RTVSPropertyOp15
 70
     0
102
RTVSPropertyOp16
 70
     0
102
RTVSPropertyOp17
 70
     0
102
RTVSPropertyOp18
 70
     0
102
RTVSPropertyOp19
 70
     0
102
RTVSPropertyOp20
 70
     0
102
RTVSPropertyOp21
 70
     0
102
RTVSPropertyOp22
 70
     0
102
RTVSPropertyOp23
 70
     0
102
RTVSPropertyOp24
 70
     0
102
RTVSPropertyOp25
 70
     0
102
RTVSPropertyOp26
 70
     0
102
RTVSPropertyOp27
 70
     0
102
RTVSPropertyOp28
 70
     1
102
RTVSPropertyOp29
 70
     1
102
RTVSPropertyOp30
 70
     1
102
RTVSPropertyOp31
 70
     1
102
RTVSPropertyOp32
 70
     1
102
RTVSPropertyOp33
 70
     1
102
RTVSPropertyOp34
 70
     1
102
RTVSPropertyOp35
 70
     1
102
RTVSPropertyOp36
 70
     1
102
RTVSPropertyOp37
 70
     1
102
RTVSPropertyOp38
 70
     1
102
RTVSPropertyOp39
 70
     1
102
RTVSPropertyOp40
 70
     1
102
RTVSPropertyOp41
 70
     1
102
RTVSPropertyOp42
 70
     1
102
RTVSPropertyOp43
 70
     1
102
RTVSPropertyOp44
 70
     1
102
RTVSPropertyOp45
 70
     1
102
RTVSPropertyOp46
 70
     1
102
RTVSPropertyOp47
 70
     1
102
RTVSPropertyOp48
 70
     1
102
RTVSPropertyOp49
 70
     1
102
RTVSPropertyOp50
 70
     1
102
RTVSPropertyOp51
 70
     0
102
RTVSPropertyOp52
 70
     0
102
RTVSPropertyOp53
 70
     1
102
RTVSPropertyOp54
 70
     1
102
RTVSPropertyOp55
 70
     1
102
RTVSPropertyOp56
 70
     1
102
RTVSPropertyOp57
 70
     1
102
RTVSPost2010Prop28
280
     0
102
RTVSPost2010PropOp28
 70
     1
102
RTVSPost2010Prop29
280
     1
102
RTVSPost2010PropOp29
 70
     1
102
RTVSPost2010Prop30
280
     1
102
RTVSPost2010PropOp30
 70
     1
102
RTVSPost2010Prop31
280
     0
102
RTVSPost2010PropOp31
 70
     1
102
RTVSPost2010Prop32
280
     0
102
RTVSPost2010PropOp32
 70
     1
102
RTVSPost2010Prop33
280
     0
102
RTVSPost2010PropOp33
 70
     1
102
RTVSPost2010Prop34
280
     0
102
RTVSPost2010PropOp34
 70
     1
102
RTVSPost2010Prop35
280
     0
102
RTVSPost2010PropOp35
 70
     1
102
RTVSPost2010Prop36
280
     0
102
RTVSPost2010PropOp36
 70
     1
102
RTVSPost2010Prop37
 90
       50
102
RTVSPost2010PropOp37
 70
     1
102
RTVSPost2010Prop38
140
0.0
102
RTVSPost2010PropOp38
 70
     1
102
RTVSPost2010Prop39
140
1.0
102
RTVSPost2010PropOp39
 70
     1
102
RTVSPost2010Prop40
 90
        0
102
RTVSPost2010PropOp40
 70
     1
102
RTVSPost2010Prop41ColorIndex
 90
       18
102
RTVSPost2010Prop41ColorRGB
 90
        0
102
RTVSPost2010PropOp41
 70
     1
102
RTVSPost2010Prop42
 90
       50
102
RTVSPost2010PropOp42
 70
     1
102
RTVSPost2010Prop43
 90
        3
102
RTVSPost2010PropOp43
 70
     1
102
RTVSPost2010Prop44ColorIndex
 90
        5
102
RTVSPost2010Prop44ColorRGB
 90
      255
102
RTVSPost2010PropOp44
 70
     1
102
RTVSPost2010Prop45
280
     0
102
RTVSPost2010PropOp45
 70
     1
102
RTVSPost2010Prop46
 90
       50
102
RTVSPost2010PropOp46
 70
     1
102
RTVSPost2010Prop47
 90
       50
102
RTVSPost2010PropOp47
 70
     1
102
RTVSPost2010Prop48
 90
       50
102
RTVSPost2010PropOp48
 70
     1
102
RTVSPost2010Prop49
280
     0
102
RTVSPost2010PropOp49
 70
     1
102
RTVSPost2010Prop50
 90
       50
102
RTVSPost2010PropOp50
 70
     1
102
RTVSPost2010Prop51ColorIndex
 90
      256
102
RTVSPost2010Prop51ColorRGB
 90
-16777216
102
RTVSPost2010PropOp51
 70
     0
102
RTVSPost2010Prop52
140
1.0
102
RTVSPost2010PropOp52
 70
     0
102
RTVSPost2010Prop53
 90
        2
102
RTVSPost2010PropOp53
 70
     1
102
RTVSPost2010Prop54
  1
strokes_ogs.tif
102
RTVSPost2010PropOp54
 70
     1
102
RTVSPost2010Prop55
280
     0
102
RTVSPost2010PropOp55
 70
     1
102
RTVSPost2010Prop56
140
1.0
102
RTVSPost2010PropOp56
 70
     1
102
RTVSPost2010Prop57
140
1.0
102
RTVSPost2010PropOp57
 70
     1
  0
XRECORD
  5
74B
102
{ACAD_REACTORS
330
74A
102
}
330
74A
100
AcDbXrecord
280
     1
102
RTVSPropertyOp0
 70
     1
102
RTVSPropertyOp1
 70
     1
102
RTVSPropertyOp2
 70
     1
102
RTVSPropertyOp3
 70
     1
102
RTVSPropertyOp4
 70
     1
102
RTVSPropertyOp5
 70
     1
102
RTVSPropertyOp6
 70
     1
102
RTVSPropertyOp7
 70
     1
102
RTVSPropertyOp8
 70
     1
102
RTVSPropertyOp9
 70
     1
102
RTVSPropertyOp10
 70
     1
102
RTVSPropertyOp11
 70
     1
102
RTVSPropertyOp12
 70
     1
102
RTVSPropertyOp13
 70
     1
102
RTVSPropertyOp14
 70
     1
102
RTVSPropertyOp15
 70
     1
102
RTVSPropertyOp16
 70
     1
102
RTVSPropertyOp17
 70
     1
102
RTVSPropertyOp18
 70
     1
102
RTVSPropertyOp19
 70
     1
102
RTVSPropertyOp20
 70
     1
102
RTVSPropertyOp21
 70
     1
102
RTVSPropertyOp22
 70
     1
102
RTVSPropertyOp23
 70
     1
102
RTVSPropertyOp24
 70
     1
102
RTVSPropertyOp25
 70
     1
102
RTVSPropertyOp26
 70
     1
102
RTVSPropertyOp27
 70
     1
102
RTVSPropertyOp28
 70
     1
102
RTVSPropertyOp29
 70
     1
102
RTVSPropertyOp30
 70
     1
102
RTVSPropertyOp31
 70
     1
102
RTVSPropertyOp32
 70
     1
102
RTVSPropertyOp33
 70
     1
102
RTVSPropertyOp34
 70
     1
102
RTVSPropertyOp35
 70
     1
102
RTVSPropertyOp36
 70
     1
102
RTVSPropertyOp37
 70
     1
102
RTVSPropertyOp38
 70
     1
102
RTVSPropertyOp39
 70
     1
102
RTVSPropertyOp40
 70
     1
102
RTVSPropertyOp41
 70
     1
102
RTVSPropertyOp42
 70
     1
102
RTVSPropertyOp43
 70
     1
102
RTVSPropertyOp44
 70
     1
102
RTVSPropertyOp45
 70
     1
102
RTVSPropertyOp46
 70
     1
102
RTVSPropertyOp47
 70
     1
102
RTVSPropertyOp48
 70
     1
102
RTVSPropertyOp49
 70
     1
102
RTVSPropertyOp50
 70
     1
102
RTVSPropertyOp51
 70
     0
102
RTVSPropertyOp52
 70
     0
102
RTVSPropertyOp53
 70
     1
102
RTVSPropertyOp54
 70
     1
102
RTVSPropertyOp55
 70
     1
102
RTVSPropertyOp56
 70
     1
102
RTVSPropertyOp57
 70
     1
102
RTVSPost2010Prop28
280
     0
102
RTVSPost2010PropOp28
 70
     1
102
RTVSPost2010Prop29
280
     1
102
RTVSPost2010PropOp29
 70
     1
102
RTVSPost2010Prop30
280
     1
102
RTVSPost2010PropOp30
 70
     1
102
RTVSPost2010Prop31
280
     0
102
RTVSPost2010PropOp31
 70
     1
102
RTVSPost2010Prop32
280
     0
102
RTVSPost2010PropOp32
 70
     1
102
RTVSPost2010Prop33
280
     0
102
RTVSPost2010PropOp33
 70
     1
102
RTVSPost2010Prop34
280
     0
102
RTVSPost2010PropOp34
 70
     1
102
RTVSPost2010Prop35
280
     0
102
RTVSPost2010PropOp35
 70
     1
102
RTVSPost2010Prop36
280
     0
102
RTVSPost2010PropOp36
 70
     1
102
RTVSPost2010Prop37
 90
       50
102
RTVSPost2010PropOp37
 70
     1
102
RTVSPost2010Prop38
140
0.0
102
RTVSPost2010PropOp38
 70
     1
102
RTVSPost2010Prop39
140
1.0
102
RTVSPost2010PropOp39
 70
     1
102
RTVSPost2010Prop40
 90
        0
102
RTVSPost2010PropOp40
 70
     1
102
RTVSPost2010Prop41ColorIndex
 90
       18
102
RTVSPost2010Prop41ColorRGB
 90
        0
102
RTVSPost2010PropOp41
 70
     1
102
RTVSPost2010Prop42
 90
       50
102
RTVSPost2010PropOp42
 70
     1
102
RTVSPost2010Prop43
 90
        3
102
RTVSPost2010PropOp43
 70
     1
102
RTVSPost2010Prop44ColorIndex
 90
        5
102
RTVSPost2010Prop44ColorRGB
 90
      255
102
RTVSPost2010PropOp44
 70
     1
102
RTVSPost2010Prop45
280
     0
102
RTVSPost2010PropOp45
 70
     1
102
RTVSPost2010Prop46
 90
       50
102
RTVSPost2010PropOp46
 70
     1
102
RTVSPost2010Prop47
 90
       50
102
RTVSPost2010PropOp47
 70
     1
102
RTVSPost2010Prop48
 90
       50
102
RTVSPost2010PropOp48
 70
     1
102
RTVSPost2010Prop49
280
     0
102
RTVSPost2010PropOp49
 70
     1
102
RTVSPost2010Prop50
 90
       50
102
RTVSPost2010PropOp50
 70
     1
102
RTVSPost2010Prop51ColorIndex
 90
      256
102
RTVSPost2010Prop51ColorRGB
 90
-16777216
102
RTVSPost2010PropOp51
 70
     0
102
RTVSPost2010Prop52
140
1.0
102
RTVSPost2010PropOp52
 70
     0
102
RTVSPost2010Prop53
 90
        2
102
RTVSPost2010PropOp53
 70
     1
102
RTVSPost2010Prop54
  1
strokes_ogs.tif
102
RTVSPost2010PropOp54
 70
     1
102
RTVSPost2010Prop55
280
     0
102
RTVSPost2010PropOp55
 70
     1
102
RTVSPost2010Prop56
140
1.0
102
RTVSPost2010PropOp56
 70
     1
102
RTVSPost2010Prop57
140
1.0
102
RTVSPost2010PropOp57
 70
     1
  0
XRECORD
  5
769
102
{ACAD_REACTORS
330
768
102
}
330
768
100
AcDbXrecord
280
     1
102
RTVSPropertyOp0
 70
     1
102
RTVSPropertyOp1
 70
     1
102
RTVSPropertyOp2
 70
     1
102
RTVSPropertyOp3
 70
     1
102
RTVSPropertyOp4
 70
     1
102
RTVSPropertyOp5
 70
     1
102
RTVSPropertyOp6
 70
     1
102
RTVSPropertyOp7
 70
     1
102
RTVSPropertyOp8
 70
     1
102
RTVSPropertyOp9
 70
     1
102
RTVSPropertyOp10
 70
     1
102
RTVSPropertyOp11
 70
     1
102
RTVSPropertyOp12
 70
     1
102
RTVSPropertyOp13
 70
     1
102
RTVSPropertyOp14
 70
     1
102
RTVSPropertyOp15
 70
     1
102
RTVSPropertyOp16
 70
     1
102
RTVSPropertyOp17
 70
     1
102
RTVSPropertyOp18
 70
     1
102
RTVSPropertyOp19
 70
     1
102
RTVSPropertyOp20
 70
     1
102
RTVSPropertyOp21
 70
     1
102
RTVSPropertyOp22
 70
     1
102
RTVSPropertyOp23
 70
     1
102
RTVSPropertyOp24
 70
     1
102
RTVSPropertyOp25
 70
     1
102
RTVSPropertyOp26
 70
     1
102
RTVSPropertyOp27
 70
     1
102
RTVSPropertyOp28
 70
     1
102
RTVSPropertyOp29
 70
     1
102
RTVSPropertyOp30
 70
     1
102
RTVSPropertyOp31
 70
     1
102
RTVSPropertyOp32
 70
     1
102
RTVSPropertyOp33
 70
     1
102
RTVSPropertyOp34
 70
     1
102
RTVSPropertyOp35
 70
     1
102
RTVSPropertyOp36
 70
     1
102
RTVSPropertyOp37
 70
     1
102
RTVSPropertyOp38
 70
     1
102
RTVSPropertyOp39
 70
     1
102
RTVSPropertyOp40
 70
     1
102
RTVSPropertyOp41
 70
     1
102
RTVSPropertyOp42
 70
     1
102
RTVSPropertyOp43
 70
     1
102
RTVSPropertyOp44
 70
     1
102
RTVSPropertyOp45
 70
     1
102
RTVSPropertyOp46
 70
     1
102
RTVSPropertyOp47
 70
     1
102
RTVSPropertyOp48
 70
     1
102
RTVSPropertyOp49
 70
     1
102
RTVSPropertyOp50
 70
     1
102
RTVSPropertyOp51
 70
     0
102
RTVSPropertyOp52
 70
     0
102
RTVSPropertyOp53
 70
     1
102
RTVSPropertyOp54
 70
     1
102
RTVSPropertyOp55
 70
     1
102
RTVSPropertyOp56
 70
     1
102
RTVSPropertyOp57
 70
     1
102
RTVSPost2010Prop28
280
     0
102
RTVSPost2010PropOp28
 70
     1
102
RTVSPost2010Prop29
280
     1
102
RTVSPost2010PropOp29
 70
     1
102
RTVSPost2010Prop30
280
     1
102
RTVSPost2010PropOp30
 70
     1
102
RTVSPost2010Prop31
280
     0
102
RTVSPost2010PropOp31
 70
     1
102
RTVSPost2010Prop32
280
     0
102
RTVSPost2010PropOp32
 70
     1
102
RTVSPost2010Prop33
280
     0
102
RTVSPost2010PropOp33
 70
     1
102
RTVSPost2010Prop34
280
     0
102
RTVSPost2010PropOp34
 70
     1
102
RTVSPost2010Prop35
280
     0
102
RTVSPost2010PropOp35
 70
     1
102
RTVSPost2010Prop36
280
     0
102
RTVSPost2010PropOp36
 70
     1
102
RTVSPost2010Prop37
 90
       50
102
RTVSPost2010PropOp37
 70
     1
102
RTVSPost2010Prop38
140
0.0
102
RTVSPost2010PropOp38
 70
     1
102
RTVSPost2010Prop39
140
1.0
102
RTVSPost2010PropOp39
 70
     1
102
RTVSPost2010Prop40
 90
        0
102
RTVSPost2010PropOp40
 70
     1
102
RTVSPost2010Prop41ColorIndex
 90
       18
102
RTVSPost2010Prop41ColorRGB
 90
        0
102
RTVSPost2010PropOp41
 70
     1
102
RTVSPost2010Prop42
 90
       50
102
RTVSPost2010PropOp42
 70
     1
102
RTVSPost2010Prop43
 90
        3
102
RTVSPost2010PropOp43
 70
     1
102
RTVSPost2010Prop44ColorIndex
 90
        5
102
RTVSPost2010Prop44ColorRGB
 90
      255
102
RTVSPost2010PropOp44
 70
     1
102
RTVSPost2010Prop45
280
     0
102
RTVSPost2010PropOp45
 70
     1
102
RTVSPost2010Prop46
 90
       50
102
RTVSPost2010PropOp46
 70
     1
102
RTVSPost2010Prop47
 90
       50
102
RTVSPost2010PropOp47
 70
     1
102
RTVSPost2010Prop48
 90
       50
102
RTVSPost2010PropOp48
 70
     1
102
RTVSPost2010Prop49
280
     0
102
RTVSPost2010PropOp49
 70
     1
102
RTVSPost2010Prop50
 90
       50
102
RTVSPost2010PropOp50
 70
     1
102
RTVSPost2010Prop51ColorIndex
 90
      256
102
RTVSPost2010Prop51ColorRGB
 90
-16777216
102
RTVSPost2010PropOp51
 70
     0
102
RTVSPost2010Prop52
140
1.0
102
RTVSPost2010PropOp52
 70
     0
102
RTVSPost2010Prop53
 90
        2
102
RTVSPost2010PropOp53
 70
     1
102
RTVSPost2010Prop54
  1
strokes_ogs.tif
102
RTVSPost2010PropOp54
 70
     1
102
RTVSPost2010Prop55
280
     0
102
RTVSPost2010PropOp55
 70
     1
102
RTVSPost2010Prop56
140
1.0
102
RTVSPost2010PropOp56
 70
     1
102
RTVSPost2010Prop57
140
1.0
102
RTVSPost2010PropOp57
 70
     1
  0
XRECORD
  5
767
102
{ACAD_REACTORS
330
766
102
}
330
766
100
AcDbXrecord
280
     1
102
RTVSPropertyOp0
 70
     1
102
RTVSPropertyOp1
 70
     1
102
RTVSPropertyOp2
 70
     1
102
RTVSPropertyOp3
 70
     1
102
RTVSPropertyOp4
 70
     1
102
RTVSPropertyOp5
 70
     1
102
RTVSPropertyOp6
 70
     1
102
RTVSPropertyOp7
 70
     1
102
RTVSPropertyOp8
 70
     1
102
RTVSPropertyOp9
 70
     1
102
RTVSPropertyOp10
 70
     1
102
RTVSPropertyOp11
 70
     1
102
RTVSPropertyOp12
 70
     1
102
RTVSPropertyOp13
 70
     1
102
RTVSPropertyOp14
 70
     1
102
RTVSPropertyOp15
 70
     1
102
RTVSPropertyOp16
 70
     1
102
RTVSPropertyOp17
 70
     1
102
RTVSPropertyOp18
 70
     1
102
RTVSPropertyOp19
 70
     1
102
RTVSPropertyOp20
 70
     1
102
RTVSPropertyOp21
 70
     1
102
RTVSPropertyOp22
 70
     1
102
RTVSPropertyOp23
 70
     1
102
RTVSPropertyOp24
 70
     1
102
RTVSPropertyOp25
 70
     1
102
RTVSPropertyOp26
 70
     1
102
RTVSPropertyOp27
 70
     1
102
RTVSPropertyOp28
 70
     1
102
RTVSPropertyOp29
 70
     1
102
RTVSPropertyOp30
 70
     1
102
RTVSPropertyOp31
 70
     1
102
RTVSPropertyOp32
 70
     1
102
RTVSPropertyOp33
 70
     1
102
RTVSPropertyOp34
 70
     1
102
RTVSPropertyOp35
 70
     1
102
RTVSPropertyOp36
 70
     1
102
RTVSPropertyOp37
 70
     1
102
RTVSPropertyOp38
 70
     1
102
RTVSPropertyOp39
 70
     1
102
RTVSPropertyOp40
 70
     1
102
RTVSPropertyOp41
 70
     1
102
RTVSPropertyOp42
 70
     1
102
RTVSPropertyOp43
 70
     1
102
RTVSPropertyOp44
 70
     1
102
RTVSPropertyOp45
 70
     1
102
RTVSPropertyOp46
 70
     1
102
RTVSPropertyOp47
 70
     1
102
RTVSPropertyOp48
 70
     1
102
RTVSPropertyOp49
 70
     1
102
RTVSPropertyOp50
 70
     1
102
RTVSPropertyOp51
 70
     0
102
RTVSPropertyOp52
 70
     0
102
RTVSPropertyOp53
 70
     1
102
RTVSPropertyOp54
 70
     1
102
RTVSPropertyOp55
 70
     1
102
RTVSPropertyOp56
 70
     1
102
RTVSPropertyOp57
 70
     1
102
RTVSPost2010Prop28
280
     0
102
RTVSPost2010PropOp28
 70
     1
102
RTVSPost2010Prop29
280
     1
102
RTVSPost2010PropOp29
 70
     1
102
RTVSPost2010Prop30
280
     1
102
RTVSPost2010PropOp30
 70
     1
102
RTVSPost2010Prop31
280
     0
102
RTVSPost2010PropOp31
 70
     1
102
RTVSPost2010Prop32
280
     0
102
RTVSPost2010PropOp32
 70
     1
102
RTVSPost2010Prop33
280
     0
102
RTVSPost2010PropOp33
 70
     1
102
RTVSPost2010Prop34
280
     0
102
RTVSPost2010PropOp34
 70
     1
102
RTVSPost2010Prop35
280
     0
102
RTVSPost2010PropOp35
 70
     1
102
RTVSPost2010Prop36
280
     0
102
RTVSPost2010PropOp36
 70
     1
102
RTVSPost2010Prop37
 90
       50
102
RTVSPost2010PropOp37
 70
     1
102
RTVSPost2010Prop38
140
0.0
102
RTVSPost2010PropOp38
 70
     1
102
RTVSPost2010Prop39
140
1.0
102
RTVSPost2010PropOp39
 70
     1
102
RTVSPost2010Prop40
 90
        0
102
RTVSPost2010PropOp40
 70
     1
102
RTVSPost2010Prop41ColorIndex
 90
       18
102
RTVSPost2010Prop41ColorRGB
 90
        0
102
RTVSPost2010PropOp41
 70
     1
102
RTVSPost2010Prop42
 90
       50
102
RTVSPost2010PropOp42
 70
     1
102
RTVSPost2010Prop43
 90
        3
102
RTVSPost2010PropOp43
 70
     1
102
RTVSPost2010Prop44ColorIndex
 90
        5
102
RTVSPost2010Prop44ColorRGB
 90
      255
102
RTVSPost2010PropOp44
 70
     1
102
RTVSPost2010Prop45
280
     0
102
RTVSPost2010PropOp45
 70
     1
102
RTVSPost2010Prop46
 90
       50
102
RTVSPost2010PropOp46
 70
     1
102
RTVSPost2010Prop47
 90
       50
102
RTVSPost2010PropOp47
 70
     1
102
RTVSPost2010Prop48
 90
       50
102
RTVSPost2010PropOp48
 70
     1
102
RTVSPost2010Prop49
280
     0
102
RTVSPost2010PropOp49
 70
     1
102
RTVSPost2010Prop50
 90
       50
102
RTVSPost2010PropOp50
 70
     1
102
RTVSPost2010Prop51ColorIndex
 90
      256
102
RTVSPost2010Prop51ColorRGB
 90
-16777216
102
RTVSPost2010PropOp51
 70
     0
102
RTVSPost2010Prop52
140
1.0
102
RTVSPost2010PropOp52
 70
     0
102
RTVSPost2010Prop53
 90
        2
102
RTVSPost2010PropOp53
 70
     1
102
RTVSPost2010Prop54
  1
strokes_ogs.tif
102
RTVSPost2010PropOp54
 70
     1
102
RTVSPost2010Prop55
280
     0
102
RTVSPost2010PropOp55
 70
     1
102
RTVSPost2010Prop56
140
1.0
102
RTVSPost2010PropOp56
 70
     1
102
RTVSPost2010Prop57
140
1.0
102
RTVSPost2010PropOp57
 70
     1
  0
XRECORD
  5
761
102
{ACAD_REACTORS
330
760
102
}
330
760
100
AcDbXrecord
280
     1
102
RTVSPropertyOp0
 70
     1
102
RTVSPropertyOp1
 70
     1
102
RTVSPropertyOp2
 70
     1
102
RTVSPropertyOp3
 70
     1
102
RTVSPropertyOp4
 70
     1
102
RTVSPropertyOp5
 70
     1
102
RTVSPropertyOp6
 70
     1
102
RTVSPropertyOp7
 70
     1
102
RTVSPropertyOp8
 70
     1
102
RTVSPropertyOp9
 70
     1
102
RTVSPropertyOp10
 70
     1
102
RTVSPropertyOp11
 70
     1
102
RTVSPropertyOp12
 70
     1
102
RTVSPropertyOp13
 70
     1
102
RTVSPropertyOp14
 70
     1
102
RTVSPropertyOp15
 70
     1
102
RTVSPropertyOp16
 70
     1
102
RTVSPropertyOp17
 70
     1
102
RTVSPropertyOp18
 70
     1
102
RTVSPropertyOp19
 70
     1
102
RTVSPropertyOp20
 70
     1
102
RTVSPropertyOp21
 70
     1
102
RTVSPropertyOp22
 70
     1
102
RTVSPropertyOp23
 70
     1
102
RTVSPropertyOp24
 70
     1
102
RTVSPropertyOp25
 70
     1
102
RTVSPropertyOp26
 70
     1
102
RTVSPropertyOp27
 70
     1
102
RTVSPropertyOp28
 70
     1
102
RTVSPropertyOp29
 70
     1
102
RTVSPropertyOp30
 70
     1
102
RTVSPropertyOp31
 70
     1
102
RTVSPropertyOp32
 70
     1
102
RTVSPropertyOp33
 70
     1
102
RTVSPropertyOp34
 70
     1
102
RTVSPropertyOp35
 70
     1
102
RTVSPropertyOp36
 70
     1
102
RTVSPropertyOp37
 70
     1
102
RTVSPropertyOp38
 70
     1
102
RTVSPropertyOp39
 70
     1
102
RTVSPropertyOp40
 70
     1
102
RTVSPropertyOp41
 70
     1
102
RTVSPropertyOp42
 70
     1
102
RTVSPropertyOp43
 70
     1
102
RTVSPropertyOp44
 70
     1
102
RTVSPropertyOp45
 70
     1
102
RTVSPropertyOp46
 70
     1
102
RTVSPropertyOp47
 70
     1
102
RTVSPropertyOp48
 70
     1
102
RTVSPropertyOp49
 70
     1
102
RTVSPropertyOp50
 70
     1
102
RTVSPropertyOp51
 70
     0
102
RTVSPropertyOp52
 70
     0
102
RTVSPropertyOp53
 70
     1
102
RTVSPropertyOp54
 70
     1
102
RTVSPropertyOp55
 70
     1
102
RTVSPropertyOp56
 70
     1
102
RTVSPropertyOp57
 70
     1
102
RTVSPost2010Prop28
280
     0
102
RTVSPost2010PropOp28
 70
     1
102
RTVSPost2010Prop29
280
     1
102
RTVSPost2010PropOp29
 70
     1
102
RTVSPost2010Prop30
280
     1
102
RTVSPost2010PropOp30
 70
     1
102
RTVSPost2010Prop31
280
     0
102
RTVSPost2010PropOp31
 70
     1
102
RTVSPost2010Prop32
280
     0
102
RTVSPost2010PropOp32
 70
     1
102
RTVSPost2010Prop33
280
     0
102
RTVSPost2010PropOp33
 70
     1
102
RTVSPost2010Prop34
280
     0
102
RTVSPost2010PropOp34
 70
     1
102
RTVSPost2010Prop35
280
     0
102
RTVSPost2010PropOp35
 70
     1
102
RTVSPost2010Prop36
280
     0
102
RTVSPost2010PropOp36
 70
     1
102
RTVSPost2010Prop37
 90
       50
102
RTVSPost2010PropOp37
 70
     1
102
RTVSPost2010Prop38
140
0.0
102
RTVSPost2010PropOp38
 70
     1
102
RTVSPost2010Prop39
140
1.0
102
RTVSPost2010PropOp39
 70
     1
102
RTVSPost2010Prop40
 90
        0
102
RTVSPost2010PropOp40
 70
     1
102
RTVSPost2010Prop41ColorIndex
 90
       18
102
RTVSPost2010Prop41ColorRGB
 90
        0
102
RTVSPost2010PropOp41
 70
     1
102
RTVSPost2010Prop42
 90
       50
102
RTVSPost2010PropOp42
 70
     1
102
RTVSPost2010Prop43
 90
        3
102
RTVSPost2010PropOp43
 70
     1
102
RTVSPost2010Prop44ColorIndex
 90
        5
102
RTVSPost2010Prop44ColorRGB
 90
      255
102
RTVSPost2010PropOp44
 70
     1
102
RTVSPost2010Prop45
280
     0
102
RTVSPost2010PropOp45
 70
     1
102
RTVSPost2010Prop46
 90
       50
102
RTVSPost2010PropOp46
 70
     1
102
RTVSPost2010Prop47
 90
       50
102
RTVSPost2010PropOp47
 70
     1
102
RTVSPost2010Prop48
 90
       50
102
RTVSPost2010PropOp48
 70
     1
102
RTVSPost2010Prop49
280
     0
102
RTVSPost2010PropOp49
 70
     1
102
RTVSPost2010Prop50
 90
       50
102
RTVSPost2010PropOp50
 70
     1
102
RTVSPost2010Prop51ColorIndex
 90
      256
102
RTVSPost2010Prop51ColorRGB
 90
-16777216
102
RTVSPost2010PropOp51
 70
     0
102
RTVSPost2010Prop52
140
1.0
102
RTVSPost2010PropOp52
 70
     0
102
RTVSPost2010Prop53
 90
        2
102
RTVSPost2010PropOp53
 70
     1
102
RTVSPost2010Prop54
  1
strokes_ogs.tif
102
RTVSPost2010PropOp54
 70
     1
102
RTVSPost2010Prop55
280
     0
102
RTVSPost2010PropOp55
 70
     1
102
RTVSPost2010Prop56
140
1.0
102
RTVSPost2010PropOp56
 70
     1
102
RTVSPost2010Prop57
140
1.0
102
RTVSPost2010PropOp57
 70
     1
  0
XRECORD
  5
763
102
{ACAD_REACTORS
330
762
102
}
330
762
100
AcDbXrecord
280
     1
102
RTVSPropertyOp0
 70
     1
102
RTVSPropertyOp1
 70
     1
102
RTVSPropertyOp2
 70
     1
102
RTVSPropertyOp3
 70
     1
102
RTVSPropertyOp4
 70
     1
102
RTVSPropertyOp5
 70
     1
102
RTVSPropertyOp6
 70
     1
102
RTVSPropertyOp7
 70
     1
102
RTVSPropertyOp8
 70
     1
102
RTVSPropertyOp9
 70
     1
102
RTVSPropertyOp10
 70
     1
102
RTVSPropertyOp11
 70
     1
102
RTVSPropertyOp12
 70
     1
102
RTVSPropertyOp13
 70
     1
102
RTVSPropertyOp14
 70
     1
102
RTVSPropertyOp15
 70
     1
102
RTVSPropertyOp16
 70
     1
102
RTVSPropertyOp17
 70
     1
102
RTVSPropertyOp18
 70
     1
102
RTVSPropertyOp19
 70
     1
102
RTVSPropertyOp20
 70
     1
102
RTVSPropertyOp21
 70
     1
102
RTVSPropertyOp22
 70
     1
102
RTVSPropertyOp23
 70
     1
102
RTVSPropertyOp24
 70
     1
102
RTVSPropertyOp25
 70
     1
102
RTVSPropertyOp26
 70
     1
102
RTVSPropertyOp27
 70
     1
102
RTVSPropertyOp28
 70
     1
102
RTVSPropertyOp29
 70
     1
102
RTVSPropertyOp30
 70
     1
102
RTVSPropertyOp31
 70
     1
102
RTVSPropertyOp32
 70
     1
102
RTVSPropertyOp33
 70
     1
102
RTVSPropertyOp34
 70
     1
102
RTVSPropertyOp35
 70
     1
102
RTVSPropertyOp36
 70
     1
102
RTVSPropertyOp37
 70
     1
102
RTVSPropertyOp38
 70
     1
102
RTVSPropertyOp39
 70
     1
102
RTVSPropertyOp40
 70
     1
102
RTVSPropertyOp41
 70
     1
102
RTVSPropertyOp42
 70
     1
102
RTVSPropertyOp43
 70
     1
102
RTVSPropertyOp44
 70
     1
102
RTVSPropertyOp45
 70
     1
102
RTVSPropertyOp46
 70
     1
102
RTVSPropertyOp47
 70
     1
102
RTVSPropertyOp48
 70
     1
102
RTVSPropertyOp49
 70
     1
102
RTVSPropertyOp50
 70
     1
102
RTVSPropertyOp51
 70
     0
102
RTVSPropertyOp52
 70
     0
102
RTVSPropertyOp53
 70
     1
102
RTVSPropertyOp54
 70
     1
102
RTVSPropertyOp55
 70
     1
102
RTVSPropertyOp56
 70
     1
102
RTVSPropertyOp57
 70
     1
102
RTVSPost2010Prop28
280
     0
102
RTVSPost2010PropOp28
 70
     1
102
RTVSPost2010Prop29
280
     1
102
RTVSPost2010PropOp29
 70
     1
102
RTVSPost2010Prop30
280
     1
102
RTVSPost2010PropOp30
 70
     1
102
RTVSPost2010Prop31
280
     0
102
RTVSPost2010PropOp31
 70
     1
102
RTVSPost2010Prop32
280
     0
102
RTVSPost2010PropOp32
 70
     1
102
RTVSPost2010Prop33
280
     0
102
RTVSPost2010PropOp33
 70
     1
102
RTVSPost2010Prop34
280
     0
102
RTVSPost2010PropOp34
 70
     1
102
RTVSPost2010Prop35
280
     0
102
RTVSPost2010PropOp35
 70
     1
102
RTVSPost2010Prop36
280
     0
102
RTVSPost2010PropOp36
 70
     1
102
RTVSPost2010Prop37
 90
       50
102
RTVSPost2010PropOp37
 70
     1
102
RTVSPost2010Prop38
140
0.0
102
RTVSPost2010PropOp38
 70
     1
102
RTVSPost2010Prop39
140
1.0
102
RTVSPost2010PropOp39
 70
     1
102
RTVSPost2010Prop40
 90
        0
102
RTVSPost2010PropOp40
 70
     1
102
RTVSPost2010Prop41ColorIndex
 90
       18
102
RTVSPost2010Prop41ColorRGB
 90
        0
102
RTVSPost2010PropOp41
 70
     1
102
RTVSPost2010Prop42
 90
       50
102
RTVSPost2010PropOp42
 70
     1
102
RTVSPost2010Prop43
 90
        3
102
RTVSPost2010PropOp43
 70
     1
102
RTVSPost2010Prop44ColorIndex
 90
        5
102
RTVSPost2010Prop44ColorRGB
 90
      255
102
RTVSPost2010PropOp44
 70
     1
102
RTVSPost2010Prop45
280
     0
102
RTVSPost2010PropOp45
 70
     1
102
RTVSPost2010Prop46
 90
       50
102
RTVSPost2010PropOp46
 70
     1
102
RTVSPost2010Prop47
 90
       50
102
RTVSPost2010PropOp47
 70
     1
102
RTVSPost2010Prop48
 90
       50
102
RTVSPost2010PropOp48
 70
     1
102
RTVSPost2010Prop49
280
     0
102
RTVSPost2010PropOp49
 70
     1
102
RTVSPost2010Prop50
 90
       50
102
RTVSPost2010PropOp50
 70
     1
102
RTVSPost2010Prop51ColorIndex
 90
      256
102
RTVSPost2010Prop51ColorRGB
 90
-16777216
102
RTVSPost2010PropOp51
 70
     0
102
RTVSPost2010Prop52
140
1.0
102
RTVSPost2010PropOp52
 70
     0
102
RTVSPost2010Prop53
 90
        2
102
RTVSPost2010PropOp53
 70
     1
102
RTVSPost2010Prop54
  1
strokes_ogs.tif
102
RTVSPost2010PropOp54
 70
     1
102
RTVSPost2010Prop55
280
     0
102
RTVSPost2010PropOp55
 70
     1
102
RTVSPost2010Prop56
140
1.0
102
RTVSPost2010PropOp56
 70
     1
102
RTVSPost2010Prop57
140
1.0
102
RTVSPost2010PropOp57
 70
     1
  0
XRECORD
  5
753
102
{ACAD_REACTORS
330
752
102
}
330
752
100
AcDbXrecord
280
     1
102
RTVSPropertyOp0
 70
     1
102
RTVSPropertyOp1
 70
     1
102
RTVSPropertyOp2
 70
     1
102
RTVSPropertyOp3
 70
     1
102
RTVSPropertyOp4
 70
     1
102
RTVSPropertyOp5
 70
     1
102
RTVSPropertyOp6
 70
     1
102
RTVSPropertyOp7
 70
     1
102
RTVSPropertyOp8
 70
     1
102
RTVSPropertyOp9
 70
     1
102
RTVSPropertyOp10
 70
     1
102
RTVSPropertyOp11
 70
     1
102
RTVSPropertyOp12
 70
     1
102
RTVSPropertyOp13
 70
     1
102
RTVSPropertyOp14
 70
     1
102
RTVSPropertyOp15
 70
     1
102
RTVSPropertyOp16
 70
     1
102
RTVSPropertyOp17
 70
     1
102
RTVSPropertyOp18
 70
     1
102
RTVSPropertyOp19
 70
     1
102
RTVSPropertyOp20
 70
     1
102
RTVSPropertyOp21
 70
     1
102
RTVSPropertyOp22
 70
     1
102
RTVSPropertyOp23
 70
     1
102
RTVSPropertyOp24
 70
     1
102
RTVSPropertyOp25
 70
     1
102
RTVSPropertyOp26
 70
     1
102
RTVSPropertyOp27
 70
     1
102
RTVSPropertyOp28
 70
     1
102
RTVSPropertyOp29
 70
     1
102
RTVSPropertyOp30
 70
     1
102
RTVSPropertyOp31
 70
     1
102
RTVSPropertyOp32
 70
     1
102
RTVSPropertyOp33
 70
     1
102
RTVSPropertyOp34
 70
     1
102
RTVSPropertyOp35
 70
     1
102
RTVSPropertyOp36
 70
     1
102
RTVSPropertyOp37
 70
     1
102
RTVSPropertyOp38
 70
     1
102
RTVSPropertyOp39
 70
     1
102
RTVSPropertyOp40
 70
     1
102
RTVSPropertyOp41
 70
     1
102
RTVSPropertyOp42
 70
     1
102
RTVSPropertyOp43
 70
     1
102
RTVSPropertyOp44
 70
     1
102
RTVSPropertyOp45
 70
     1
102
RTVSPropertyOp46
 70
     1
102
RTVSPropertyOp47
 70
     1
102
RTVSPropertyOp48
 70
     1
102
RTVSPropertyOp49
 70
     1
102
RTVSPropertyOp50
 70
     1
102
RTVSPropertyOp51
 70
     0
102
RTVSPropertyOp52
 70
     0
102
RTVSPropertyOp53
 70
     1
102
RTVSPropertyOp54
 70
     1
102
RTVSPropertyOp55
 70
     1
102
RTVSPropertyOp56
 70
     1
102
RTVSPropertyOp57
 70
     1
102
RTVSPost2010Prop28
280
     0
102
RTVSPost2010PropOp28
 70
     1
102
RTVSPost2010Prop29
280
     1
102
RTVSPost2010PropOp29
 70
     1
102
RTVSPost2010Prop30
280
     1
102
RTVSPost2010PropOp30
 70
     1
102
RTVSPost2010Prop31
280
     0
102
RTVSPost2010PropOp31
 70
     1
102
RTVSPost2010Prop32
280
     0
102
RTVSPost2010PropOp32
 70
     1
102
RTVSPost2010Prop33
280
     0
102
RTVSPost2010PropOp33
 70
     1
102
RTVSPost2010Prop34
280
     0
102
RTVSPost2010PropOp34
 70
     1
102
RTVSPost2010Prop35
280
     0
102
RTVSPost2010PropOp35
 70
     1
102
RTVSPost2010Prop36
280
     0
102
RTVSPost2010PropOp36
 70
     1
102
RTVSPost2010Prop37
 90
       50
102
RTVSPost2010PropOp37
 70
     1
102
RTVSPost2010Prop38
140
0.0
102
RTVSPost2010PropOp38
 70
     1
102
RTVSPost2010Prop39
140
1.0
102
RTVSPost2010PropOp39
 70
     1
102
RTVSPost2010Prop40
 90
        0
102
RTVSPost2010PropOp40
 70
     1
102
RTVSPost2010Prop41ColorIndex
 90
       18
102
RTVSPost2010Prop41ColorRGB
 90
        0
102
RTVSPost2010PropOp41
 70
     1
102
RTVSPost2010Prop42
 90
       50
102
RTVSPost2010PropOp42
 70
     1
102
RTVSPost2010Prop43
 90
        3
102
RTVSPost2010PropOp43
 70
     1
102
RTVSPost2010Prop44ColorIndex
 90
        5
102
RTVSPost2010Prop44ColorRGB
 90
      255
102
RTVSPost2010PropOp44
 70
     1
102
RTVSPost2010Prop45
280
     0
102
RTVSPost2010PropOp45
 70
     1
102
RTVSPost2010Prop46
 90
       50
102
RTVSPost2010PropOp46
 70
     1
102
RTVSPost2010Prop47
 90
       50
102
RTVSPost2010PropOp47
 70
     1
102
RTVSPost2010Prop48
 90
       50
102
RTVSPost2010PropOp48
 70
     1
102
RTVSPost2010Prop49
280
     0
102
RTVSPost2010PropOp49
 70
     1
102
RTVSPost2010Prop50
 90
       50
102
RTVSPost2010PropOp50
 70
     1
102
RTVSPost2010Prop51ColorIndex
 90
      256
102
RTVSPost2010Prop51ColorRGB
 90
-16777216
102
RTVSPost2010PropOp51
 70
     0
102
RTVSPost2010Prop52
140
1.0
102
RTVSPost2010PropOp52
 70
     0
102
RTVSPost2010Prop53
 90
        2
102
RTVSPost2010PropOp53
 70
     1
102
RTVSPost2010Prop54
  1
strokes_ogs.tif
102
RTVSPost2010PropOp54
 70
     1
102
RTVSPost2010Prop55
280
     0
102
RTVSPost2010PropOp55
 70
     1
102
RTVSPost2010Prop56
140
1.0
102
RTVSPost2010PropOp56
 70
     1
102
RTVSPost2010Prop57
140
1.0
102
RTVSPost2010PropOp57
 70
     1
  0
XRECORD
  5
745
102
{ACAD_REACTORS
330
744
102
}
330
744
100
AcDbXrecord
280
     1
102
RTVSPropertyOp0
 70
     1
102
RTVSPropertyOp1
 70
     1
102
RTVSPropertyOp2
 70
     1
102
RTVSPropertyOp3
 70
     1
102
RTVSPropertyOp4
 70
     1
102
RTVSPropertyOp5
 70
     1
102
RTVSPropertyOp6
 70
     1
102
RTVSPropertyOp7
 70
     1
102
RTVSPropertyOp8
 70
     1
102
RTVSPropertyOp9
 70
     1
102
RTVSPropertyOp10
 70
     1
102
RTVSPropertyOp11
 70
     1
102
RTVSPropertyOp12
 70
     1
102
RTVSPropertyOp13
 70
     1
102
RTVSPropertyOp14
 70
     1
102
RTVSPropertyOp15
 70
     1
102
RTVSPropertyOp16
 70
     1
102
RTVSPropertyOp17
 70
     1
102
RTVSPropertyOp18
 70
     1
102
RTVSPropertyOp19
 70
     1
102
RTVSPropertyOp20
 70
     1
102
RTVSPropertyOp21
 70
     1
102
RTVSPropertyOp22
 70
     1
102
RTVSPropertyOp23
 70
     1
102
RTVSPropertyOp24
 70
     1
102
RTVSPropertyOp25
 70
     1
102
RTVSPropertyOp26
 70
     1
102
RTVSPropertyOp27
 70
     1
102
RTVSPropertyOp28
 70
     1
102
RTVSPropertyOp29
 70
     1
102
RTVSPropertyOp30
 70
     1
102
RTVSPropertyOp31
 70
     1
102
RTVSPropertyOp32
 70
     1
102
RTVSPropertyOp33
 70
     1
102
RTVSPropertyOp34
 70
     1
102
RTVSPropertyOp35
 70
     1
102
RTVSPropertyOp36
 70
     1
102
RTVSPropertyOp37
 70
     1
102
RTVSPropertyOp38
 70
     1
102
RTVSPropertyOp39
 70
     1
102
RTVSPropertyOp40
 70
     1
102
RTVSPropertyOp41
 70
     1
102
RTVSPropertyOp42
 70
     1
102
RTVSPropertyOp43
 70
     1
102
RTVSPropertyOp44
 70
     1
102
RTVSPropertyOp45
 70
     1
102
RTVSPropertyOp46
 70
     1
102
RTVSPropertyOp47
 70
     1
102
RTVSPropertyOp48
 70
     1
102
RTVSPropertyOp49
 70
     1
102
RTVSPropertyOp50
 70
     1
102
RTVSPropertyOp51
 70
     0
102
RTVSPropertyOp52
 70
     0
102
RTVSPropertyOp53
 70
     1
102
RTVSPropertyOp54
 70
     1
102
RTVSPropertyOp55
 70
     1
102
RTVSPropertyOp56
 70
     1
102
RTVSPropertyOp57
 70
     1
102
RTVSPost2010Prop28
280
     0
102
RTVSPost2010PropOp28
 70
     1
102
RTVSPost2010Prop29
280
     1
102
RTVSPost2010PropOp29
 70
     1
102
RTVSPost2010Prop30
280
     1
102
RTVSPost2010PropOp30
 70
     1
102
RTVSPost2010Prop31
280
     0
102
RTVSPost2010PropOp31
 70
     1
102
RTVSPost2010Prop32
280
     0
102
RTVSPost2010PropOp32
 70
     1
102
RTVSPost2010Prop33
280
     0
102
RTVSPost2010PropOp33
 70
     1
102
RTVSPost2010Prop34
280
     0
102
RTVSPost2010PropOp34
 70
     1
102
RTVSPost2010Prop35
280
     0
102
RTVSPost2010PropOp35
 70
     1
102
RTVSPost2010Prop36
280
     0
102
RTVSPost2010PropOp36
 70
     1
102
RTVSPost2010Prop37
 90
       50
102
RTVSPost2010PropOp37
 70
     1
102
RTVSPost2010Prop38
140
0.0
102
RTVSPost2010PropOp38
 70
     1
102
RTVSPost2010Prop39
140
1.0
102
RTVSPost2010PropOp39
 70
     1
102
RTVSPost2010Prop40
 90
        0
102
RTVSPost2010PropOp40
 70
     1
102
RTVSPost2010Prop41ColorIndex
 90
       18
102
RTVSPost2010Prop41ColorRGB
 90
        0
102
RTVSPost2010PropOp41
 70
     1
102
RTVSPost2010Prop42
 90
       50
102
RTVSPost2010PropOp42
 70
     1
102
RTVSPost2010Prop43
 90
        3
102
RTVSPost2010PropOp43
 70
     1
102
RTVSPost2010Prop44ColorIndex
 90
        5
102
RTVSPost2010Prop44ColorRGB
 90
      255
102
RTVSPost2010PropOp44
 70
     1
102
RTVSPost2010Prop45
280
     0
102
RTVSPost2010PropOp45
 70
     1
102
RTVSPost2010Prop46
 90
       50
102
RTVSPost2010PropOp46
 70
     1
102
RTVSPost2010Prop47
 90
       50
102
RTVSPost2010PropOp47
 70
     1
102
RTVSPost2010Prop48
 90
       50
102
RTVSPost2010PropOp48
 70
     1
102
RTVSPost2010Prop49
280
     0
102
RTVSPost2010PropOp49
 70
     1
102
RTVSPost2010Prop50
 90
       50
102
RTVSPost2010PropOp50
 70
     1
102
RTVSPost2010Prop51ColorIndex
 90
      256
102
RTVSPost2010Prop51ColorRGB
 90
-16777216
102
RTVSPost2010PropOp51
 70
     0
102
RTVSPost2010Prop52
140
1.0
102
RTVSPost2010PropOp52
 70
     0
102
RTVSPost2010Prop53
 90
        2
102
RTVSPost2010PropOp53
 70
     1
102
RTVSPost2010Prop54
  1
strokes_ogs.tif
102
RTVSPost2010PropOp54
 70
     1
102
RTVSPost2010Prop55
280
     0
102
RTVSPost2010PropOp55
 70
     1
102
RTVSPost2010Prop56
140
1.0
102
RTVSPost2010PropOp56
 70
     1
102
RTVSPost2010Prop57
140
1.0
102
RTVSPost2010PropOp57
 70
     1
  0
XRECORD
  5
765
102
{ACAD_REACTORS
330
764
102
}
330
764
100
AcDbXrecord
280
     1
102
RTVSPropertyOp0
 70
     1
102
RTVSPropertyOp1
 70
     1
102
RTVSPropertyOp2
 70
     1
102
RTVSPropertyOp3
 70
     1
102
RTVSPropertyOp4
 70
     1
102
RTVSPropertyOp5
 70
     1
102
RTVSPropertyOp6
 70
     1
102
RTVSPropertyOp7
 70
     1
102
RTVSPropertyOp8
 70
     1
102
RTVSPropertyOp9
 70
     1
102
RTVSPropertyOp10
 70
     1
102
RTVSPropertyOp11
 70
     1
102
RTVSPropertyOp12
 70
     1
102
RTVSPropertyOp13
 70
     1
102
RTVSPropertyOp14
 70
     1
102
RTVSPropertyOp15
 70
     1
102
RTVSPropertyOp16
 70
     1
102
RTVSPropertyOp17
 70
     1
102
RTVSPropertyOp18
 70
     1
102
RTVSPropertyOp19
 70
     1
102
RTVSPropertyOp20
 70
     1
102
RTVSPropertyOp21
 70
     1
102
RTVSPropertyOp22
 70
     1
102
RTVSPropertyOp23
 70
     1
102
RTVSPropertyOp24
 70
     1
102
RTVSPropertyOp25
 70
     1
102
RTVSPropertyOp26
 70
     1
102
RTVSPropertyOp27
 70
     1
102
RTVSPropertyOp28
 70
     1
102
RTVSPropertyOp29
 70
     1
102
RTVSPropertyOp30
 70
     1
102
RTVSPropertyOp31
 70
     1
102
RTVSPropertyOp32
 70
     1
102
RTVSPropertyOp33
 70
     1
102
RTVSPropertyOp34
 70
     1
102
RTVSPropertyOp35
 70
     1
102
RTVSPropertyOp36
 70
     1
102
RTVSPropertyOp37
 70
     1
102
RTVSPropertyOp38
 70
     1
102
RTVSPropertyOp39
 70
     1
102
RTVSPropertyOp40
 70
     1
102
RTVSPropertyOp41
 70
     1
102
RTVSPropertyOp42
 70
     1
102
RTVSPropertyOp43
 70
     1
102
RTVSPropertyOp44
 70
     1
102
RTVSPropertyOp45
 70
     1
102
RTVSPropertyOp46
 70
     1
102
RTVSPropertyOp47
 70
     1
102
RTVSPropertyOp48
 70
     1
102
RTVSPropertyOp49
 70
     1
102
RTVSPropertyOp50
 70
     1
102
RTVSPropertyOp51
 70
     0
102
RTVSPropertyOp52
 70
     0
102
RTVSPropertyOp53
 70
     1
102
RTVSPropertyOp54
 70
     1
102
RTVSPropertyOp55
 70
     1
102
RTVSPropertyOp56
 70
     1
102
RTVSPropertyOp57
 70
     1
102
RTVSPost2010Prop28
280
     0
102
RTVSPost2010PropOp28
 70
     1
102
RTVSPost2010Prop29
280
     1
102
RTVSPost2010PropOp29
 70
     1
102
RTVSPost2010Prop30
280
     1
102
RTVSPost2010PropOp30
 70
     1
102
RTVSPost2010Prop31
280
     0
102
RTVSPost2010PropOp31
 70
     1
102
RTVSPost2010Prop32
280
     0
102
RTVSPost2010PropOp32
 70
     1
102
RTVSPost2010Prop33
280
     0
102
RTVSPost2010PropOp33
 70
     1
102
RTVSPost2010Prop34
280
     0
102
RTVSPost2010PropOp34
 70
     1
102
RTVSPost2010Prop35
280
     0
102
RTVSPost2010PropOp35
 70
     1
102
RTVSPost2010Prop36
280
     0
102
RTVSPost2010PropOp36
 70
     1
102
RTVSPost2010Prop37
 90
       50
102
RTVSPost2010PropOp37
 70
     1
102
RTVSPost2010Prop38
140
0.0
102
RTVSPost2010PropOp38
 70
     1
102
RTVSPost2010Prop39
140
1.0
102
RTVSPost2010PropOp39
 70
     1
102
RTVSPost2010Prop40
 90
        0
102
RTVSPost2010PropOp40
 70
     1
102
RTVSPost2010Prop41ColorIndex
 90
       18
102
RTVSPost2010Prop41ColorRGB
 90
        0
102
RTVSPost2010PropOp41
 70
     1
102
RTVSPost2010Prop42
 90
       50
102
RTVSPost2010PropOp42
 70
     1
102
RTVSPost2010Prop43
 90
        3
102
RTVSPost2010PropOp43
 70
     1
102
RTVSPost2010Prop44ColorIndex
 90
        5
102
RTVSPost2010Prop44ColorRGB
 90
      255
102
RTVSPost2010PropOp44
 70
     1
102
RTVSPost2010Prop45
280
     0
102
RTVSPost2010PropOp45
 70
     1
102
RTVSPost2010Prop46
 90
       50
102
RTVSPost2010PropOp46
 70
     1
102
RTVSPost2010Prop47
 90
       50
102
RTVSPost2010PropOp47
 70
     1
102
RTVSPost2010Prop48
 90
       50
102
RTVSPost2010PropOp48
 70
     1
102
RTVSPost2010Prop49
280
     0
102
RTVSPost2010PropOp49
 70
     1
102
RTVSPost2010Prop50
 90
       50
102
RTVSPost2010PropOp50
 70
     1
102
RTVSPost2010Prop51ColorIndex
 90
      256
102
RTVSPost2010Prop51ColorRGB
 90
-16777216
102
RTVSPost2010PropOp51
 70
     0
102
RTVSPost2010Prop52
140
1.0
102
RTVSPost2010PropOp52
 70
     0
102
RTVSPost2010Prop53
 90
        2
102
RTVSPost2010PropOp53
 70
     1
102
RTVSPost2010Prop54
  1
strokes_ogs.tif
102
RTVSPost2010PropOp54
 70
     1
102
RTVSPost2010Prop55
280
     0
102
RTVSPost2010PropOp55
 70
     1
102
RTVSPost2010Prop56
140
1.0
102
RTVSPost2010PropOp56
 70
     1
102
RTVSPost2010Prop57
140
1.0
102
RTVSPost2010PropOp57
 70
     1
  0
ENDSEC
  0
SECTION
  2
THUMBNAILIMAGE
 90
    16364
310
28000000B4000000550000000100080000000000C43B000000000000000000000001000000010000FFFFFF000000FF0000FFFF0000FF0000FFFF0000FF000000FF00FF000000000080808000C0C0C0000000FF007F7FFF000000A5005252A50000007F003F3F7F0000004C0026264C000000260013132600003FFF007F9FFF
310
000029A5005267A500001F7F003F4F7F0000134C00262F4C000009260013172600007FFF007FBFFF000052A500527CA500003F7F003F5F7F0000264C0026394C0000132600131C260000BFFF007FDFFF00007CA5005291A500005F7F003F6F7F0000394C0026424C00001C26001321260000FFFF007FFFFF0000A5A50052A5
310
A500007F7F003F7F7F00004C4C00264C4C00002626001326260000FFBF007FFFDF0000A57C0052A59100007F5F003F7F6F00004C3900264C420000261C001326210000FF7F007FFFBF0000A5520052A57C00007F3F003F7F5F00004C2600264C39000026130013261C0000FF3F007FFF9F0000A5290052A56700007F1F003F
310
7F4F00004C1300264C2F00002609001326170000FF00007FFF7F0000A5000052A55200007F00003F7F3F00004C0000264C260000260000132613003FFF00009FFF7F0029A5000067A552001F7F00004F7F3F00134C00002F4C260009260000172613007FFF0000BFFF7F0052A500007CA552003F7F00005F7F3F00264C0000
310
394C2600132600001C261300BFFF0000DFFF7F007CA5000091A552005F7F00006F7F3F00394C0000424C26001C26000021261300FFFF0000FFFF7F00A5A50000A5A552007F7F00007F7F3F004C4C00004C4C26002626000026261300FFBF0000FFDF7F00A57C0000A59152007F5F00007F6F3F004C3900004C422600261C00
310
0026211300FF7F0000FFBF7F00A5520000A57C52007F3F00007F5F3F004C2600004C39260026130000261C1300FF3F0000FF9F7F00A5290000A56752007F1F00007F4F3F004C1300004C2F26002609000026171300FF000000FF7F7F00A5000000A55252007F0000007F3F3F004C0000004C2626002600000026131300FF00
310
3F00FF7F9F00A5002900A55267007F001F007F3F4F004C0013004C262F002600090026131700FF007F00FF7FBF00A5005200A5527C007F003F007F3F5F004C0026004C2639002600130026131C00FF00BF00FF7FDF00A5007C00A55291007F005F007F3F6F004C0039004C26420026001C0026132100FF00FF00FF7FFF00A5
310
00A500A552A5007F007F007F3F7F004C004C004C264C002600260026132600BF00FF00DF7FFF007C00A5009152A5005F007F006F3F7F0039004C0042264C001C002600211326007F00FF00BF7FFF005200A5007C52A5003F007F005F3F7F0026004C0039264C00130026001C1326003F00FF009F7FFF002900A5006752A500
310
1F007F004F3F7F0013004C002F264C000900260017132600000000002D2D2D005B5B5B0089898900B7B7B700B3B3B30000000000000000000000000000000000000000000000000000000000000000000000000000000000000000000000000000000000000000000000000000000000000000000000000000000000000000
310
00000000000000000000000000000000000000000000000000000000000000000000000000000000000000000000000000000000000000000000000000000000000000000000000000000000000000000000000000000000000000000000000000000000000000000000000000000000000000000000000000000000000000
310
00000000000000000000000000000000000000000000000000000000000000000000000000000000000000000000000000000000000000000000000000000000000000000000000000000000000000000000000000000000000000000000000000000000000000000000000000000000000000000000000000000000000000
310
00000000000000000000000000000000000000000000000000000000000000000000000000000000000000000000000000000000000000000000000000000000000000000000000000000000000000000000000000000000000000000000000000000000000000000000000000000000000000000000000000000000000000
310
00000000000000000000000000000000000000000000000000000000000000000000000000000000000000000000000000000000000000000000000000000000000000000000000000000000000000000000000000000000000000000000000000000000000000000000000000000000000000000000000000000000000000
310
00000000000000000000000000000000000000000000000000000000000000000000000000000000000000000000000000000000000000000000000000000000000000000000000000000000000000000000000000000000000000000000000000000000000000000000000000000000000000000000000000000000000000
310
00000000000000000000000000000000000000000000000000000000000000000000000000000000000000000000000000000000000000000000000000000000000000000000000000000000000000000000000000000000000000000000000000000000000000000000000000000000000000000000000000000000000000
310
00000000000000000000000000000000000000000000000000000000000000000000000000000000000000000000000000000000000000000000000000000000000000000000000000000000000000000000000000000000000000000000000000000000000000000000000000000000000000000000000000000000000000
310
00000000000000000000000000000000000000000000000000000000000000000000000000000000000000000000000000000000000000000000000000000000000000000000000000000000000000000000000000000000000000000000000000000000000000000000000000000000000000000000000000000000000000
310
00000000000000000000000000000000000000000000000000000000000000000000000000000000000000000000000000000000000000000000000000000000000000000000000000000000000000000000000000000000000000000000000000000000000000000000000000000000000000000000000000000000000000
310
00000000000000000000000000000000000000000000000000000000000000000000000000000000000000000000000000000000000000000000000000000000000000000000000000000000000000000000000000000000000000000000000000000000000000000000000000000000000000000000000000000000000000
310
00000000000000000000000000000000000000000000000000000000000000000000000000000000000000000000000000000000000000000000000000000000000000000000000000000000000000000000000000000000000000000000000000000000000000000000000000000000000000000000000000000000000000
310
00000000000000000000000000000000000000000000000000000000000000000000000000000000000000000000000000000000000000000000000000000000000000000000000000000000000000000000000000000000000000000000000000000000000000000000000000000000000000000000000000000000000000
310
00000000000000000000000000000000000000000000000000000000000000000000000000000000000000000000000000000000000000010000000000000000000000000000000000000000000000000100000000000000000000000000000000000000000000000000000100000000000000010000000000000100000000
310
00000000000000000000000000000000000000000000000000000000000000000000000000000000000000000000000000000000000000000000000000000000000000000000000000000000000000000000000000000000000000000000000000000000000000000303030301030303030300000000000001000000000000
310
03030303030301030303000000000000000002020202020200000000000000030301030303030303030303030303030303030300000000000000000000000000000000000000000000000000000000000000000000000000000000000000000000000000000000000000000000000000000000000000000000000000000000
310
00000000000000000000000000000000000000000000000000000000000003000000010000000303030303030303030303030303030303000000000100000300000000000000000000000000000000000000000003000100000000000000010000000000030303030000000000000000000000000000000000000000000000
310
00000000000000000000000000000000000000000000000000000000000000000000000000000000000000000000000000000000000000000000000000000000000000000000000000000000000000000000000303030301030303030303030300000104040000000303030303030303010303030000000000000000000000
310
00000000000000000000030301030303030303030303030303030303030300000000000000000000000000000000000000000000000000000000000000000000000000000000000000000000000000000000000000000000000000000000000000000000000000000000000000000000000000000000000000000000000000
310
00000000000000000303030303030303030303000303030303030303030303000003030303030303030303000000000000000000000000000000000000000000000100030303030303030000000003030100000000000000000000000000000000000000000000000000000000000000000000000000000000000000000000
310
00000000000000000000000000000000000000000000000000000000000000000000000000000000000000000000000000000000000000000000000000010101000000000303000003000000000001000000000003030000030000000000010101000000000000000000000000000000000000000000000003030301010103
310
03000000030300000000000000000000000000000000000000000000000000000000000000000000000000000000000000000000000000000000000000000000000000000000000000000000000000000000000000000000000000000000000000000000000000000000000000000000000003040300000003000003030000
310
00000000010000000000000003030003000000000403030000000000000000000000000000000000000000000000030303030303030300000003030000000000000000000000000000000000000000000000000000000000000000000000000000000000000000000000000000000000000000000000000000000000000000
310
00000000000000000000000000000000000000000000000000000000000000000000000303030303030403000000000003000000000000000001000000000000000000030000000000040303030303030300000000000000000000000000000000000003000303030301030000000303000000000000000000000000000000
310
00000000000000000000000000000000000000000000000000000000000000000000000000000000000000000000000000000000000000000000000000000000000000000000000000000000000000000000000000000000030101010103040301010101010101010101010101010101010101010101010101010101010303
310
03030101010303000000000000000000000000000000000001030103030103010301000003030000000000000000000000000000000000000000000000000000000000000000000000000000000000000000000000000000000000000000000000000000000000000000000000000000000000000000000000000000000000
310
00000000000000000000000000000303030303030400000300030000000000000000000003030000000000000000000300000300040303030303030300000000000000000000000000000000000303000303030301030000000303000000000000000000000000000000000000000000000000000000000000000000000000
310
00000000000000000000000000000000000000000000000000000000000000000000000000000000000000000000000000000000000000000000000000000000000000000000000003010100030003000003030303030303010303010303030303030300000300030001030300000000000000000000000000000000000000
310
00000003030303030303030300000003030000000000000000000000000000000000000000000000000000000000000000000000000000000000000000000000000000000000000000000000000000000000000000000000000000000000000000000000000000000000000000000000000000000000000000000000000303
310
03030003030303000000000100000001000000000000000000030303030303030303000000000000000000000000000000000000000000030303030301010103030000000303030000000000000000000000000000000000000000000000000000000000000000000000000000000000000000000000000000000000000000
310
00000000000000000000000000000000000000000000000000000000000000000000000000000000000000000000000000000000030303000300000000030303030303000100000000000000000000000003000303000000000000000000000000000000000000000000000003010103030303030100000000030103030000
310
00000000000000000000000000000000000000000000000000000000000000000000000000000000000000000000000000000000000000000000000000000000000000000000000000000000000000000000000000000000000000000000000000000000000000000003000303000000000301010303010103010000000003
310
03030000000000030003030000000000000000000000000000000000000000000000030303030000000001000000000303030300000000000000000000000000000000000000000000000000000000000000000000000000000000000000000000000000000000000000000000000000000000000000000000000000000000
310
00000000000000000000000000000000000000000000000000000000000000030300030000000303000303010300030300000303010303030300000000030303000000000000000000000000000000000000000000000003010103000000000100000000030103030000000000000000000000000000010000000000000000
310
00000000000000000000000000000000000000000000000000000000000000000000000000000000000000000000000000000000000000000000000000000000000000000000000000000000000000000000000003030003000003030303000001000303030300030101030301010000000003030300000000000000000000
310
00000000000000000000000000030101030000000001000000000301030303030303030303000000000000030303000000000000000000000000000000000000000000000000000000000000000000000000000000000000000000000000000000000000000000000000000000000000000000000000000000000000000000
310
00000000000000000000030300030000030103000000010000030103010303030103010303000000030003000000000000000000000000000000000000000000000003010103000000000100000000030103030000000000000300000000000300010303000000000000000000000000000000000000000000000000000000
310
00000000000000000000000000000000000000000000000000000000000000000000000000000000000000000000000000000000000000000000000000000003010101010101010301010101010103010103010301010103010101010101010301000000000000000000000000000000000000000000000304030301010101
310
01010101010103030301010101010103000000000103010101030100000000000000000000000000000000000000000000000000000000000000000000000000000000000000000000000000000000000000000000000000000000000000000000000000000000000000000000000000000000000303000300000301030000
310
00010000030101030103010101030301030000030003000000000000000000000000000000000000000000000003040303000000000100000000030303030000000000000300000000000300010303000000000000000000000000000000000000000000000000000000000000000000000000000000000000000000000000
310
00000000000000000000000000000000000000000000000000000000000000000000000000000000000003030003000003030303000001000303030303030100010001030100000003000300000000000000000000000000000000000000000000000301010300000000010000000003010303030303030303030000000000
310
00030303000000000000000000000000000000000000000000000000000000000000000000000000000000000000000000000000000000000000000000000000000000000000000000000000000000000000000000000000000000000000000303000300000003030003030103000303000103030303030303030000000300
310
03000000000000000000000000000000000000000000000003010103000000000100000000030103030000000000000000000000000000010000000000000000000000000000000000000000000000000000000000000000000000000000000000000000000000000000000000000000000000000000000000000000000000
310
00000000000000000000000000000000000000000003030003000000000301010303010103010000030101030301030000000003030300000000000000000000000000000000000000000000000101010300000000010000000003010303000000000000000000000000000000000000000000000000000000000000000000
310
00000000000000000000000000000000000000000000000000000000000000000000000000000000000000000000000000000000000000000000000000000000000000000000000000000300030303030000000303030303030001000000030303030300000003030003030000000000000000000000000000000000000000
310
00000003030103000000000100000000030103030000000000000000000000000000000000000000000000000000000000000000000000000000000000000000000000000000000000000000000000000000000000000000000000000000000000000000000000000000000000000000000000000000000000000000000000
310
00030300030003030303000001000000010000000000010003030303000300030300000000000000000000000000000000000000000000000003030300000000010000000003030000000000000000000000000000000000000000000000000000000000000000000000000000000000000000000000000000000000000000
310
00000000000000000000000000000000000000000000000000000000000000000000000000000000000000000000000000000000000003030000030000000003030303030303030303030303030000000003000300030000000000000000000000000000000000000000000000000303030000000001000000000303000000
310
00000000000000000000000000000000000000000000000000000000000000000000000000000000000000000000000000000000000000000000000000000000000000000000000000000000000000000000000000000000000000000000000000000000000000000000000300030003000000000000000000000100000000
310
00000000000003000003000300000000000000000000000000000000000000000000000003030300000000010000000003030000000000000000000000000000000000000000000000000000000000000000000000000000000000000000000000000000000000000000000000000000000000000000000000000000000000
310
00000000000000000000000000000000000000000000000000000000000000000003000003000300000000000000030303030303000000000000030000030003000000000000000000000000000000000000000000000000000303030000000001000000000303000000000000000000000000000000000000000000000000
310
00000000000000000000000000000000000000000000000000000000000000000000000000000000000000000000000000000000000000000000000000000000000000000000000000000000000000000000000000000300000003000300000000000003030303030300000000000300000300000300000000000000000000
310
00000000000000000000000000000003030300000000010000000003030000000000000000000000000000000000000000000000000000000000000000000000000000000000000000000000000000000000000000000000000000000000000000000000000000000000000000000000000000000000000000000000000000
310
00000000000000000000000000030000000300030300000000030303030303000000000300000300000003000000000000000000000000000000000000000000000000000003030000000001000000000303000000000000000000000000000000000000000000000000000000000000000000000000000000000000000000
310
00000000000000000000000000000000000000000000000000000000000000000000000000000000000000000000000000000000000000000000000000000000000003000000000300000300000003030303030300000003000003000000000300000000000000000000000000000000000000000000000000000303000000
310
00010000000003030000000000000000000000000000000000000000000000000000000000000000000000000000000000000000000000000000000000000000000000000000000000000000000000000000000000000000000000000000000000000000000000000000000000000000000000000000000300000000000300
310
00030300000001000000030303000303000000000003000000000000000000000000000000000000000000000000000003030000000001000000000303000000000000000000000000000000000000000000000000000000000000000000000000000000000000000000000000000000000000000000000000000000000000
310
00000000000000000000000000000000000000000000000000000000000000000000000000000000000000000003030000000000030303000303030103030300000303000000000000030000000000000000000000000000000000000000000000000000000303000000000100000000030300000000000000000000000000
310
00000000000000000000000000000000000000000000000000000000000000000000000000000000000000000000000000000000000000000000000000000000000000000000000000000000000000000000000000000000000000000000000000000003030303030300000003030300010000030303000003030303030303
310
00000000000000000000000000000000000000000000000000000003030000000001000000000303000000000000000000000000000000000000000000000000000000000000000000000000000000000000000000000000000000000000000000000000000000000000000000000000000000000000000000000000000000
310
00000000000000000000000000000000000000000000000000000000030300030303030303030303030303030303000000000000000000000000000000000000000000000000000000000000000000000303030303030303030303030300000000000000000000000000000000000000000000000000000000000000000000
310
00000000000000000000000000000000000000000000000000000000000000000000000000000000000000000000000000000000000000000000000000000000000000000000000000000000000000000000000000000000000003030300000000000000000000000000000000000000000000000000000000000000000000
310
00000000000000000000030303030300000000000000000000000000000000000000000000000000000000000000000000000000000000000000000000000000000000000000000000000000000000000000000000000000000000000000000000000000000000000000000000000000000000000000000000000000000000
310
00000000000000000000000000000000010101000000000000000000000000000000000000000000000000000000000000000000000000000000000000000001030103010000000000000000000000000000000000000000000000000000000000000000000000000000000000000000000000000000000000000000000000
310
00000000000000000000000000000000000000000000000000000000000000000000000000000000000000000000000000000000000000000000000000000000000000000000030300000000000000000000000000000000000000000000000000000000000000000000000000000000000000000303030300000000000000
310
00000000000000000000000000000000000000000000000000000000000000000000000000000000000000000000000000000000000000000000000000000000000000000000000000000000000000000000000000000000000000000000000000000000000000000000000000000000000000000000000000000003000000
310
00000000000000000000000000000000000000000000000000000000000000000000000000000000000000000300000000000000000000000000000000000000000000000000000000000000000000000000000000000000000000000000000000000000000000000000000000000000000000000000000000000000000000
310
00000000000000000000000000000000000000000000000000000000000000000000000000000000000000000000000000000000000000000000000000000000000000000000000000000000000000000000000000000000000000000000000000000000000000000000000000000000000000000000000000000000000000
310
00000000000000000000000000000000000000000000000000000000000000000000000000000000000000000000000000000000000000000000000000000000000000000000000000000000000000000000000000000000000000000000000000000000000000000000000000000000000000000000000000000000000000
310
00000000000000000000000000000000000000000000000000000000000000000000000000000000000000000000000000000000000000000000000000000000000000000000000000000000000000000000000000000000000000000000000000000000000000000000000000000000000000000000000000000000000000
310
00000000000000000000000000000000000000000000000000000000000000000000000000000000000000000000000000000000000000000000000000000000000000000000000000000000000000000000000000000000000000000000000000000000000000000000000000000000000000000000000000000000000000
310
00000000000000000000000000000000000000000000000000000000000000000000000000000000000000000000000000000000000000000000000000000000000000000000000000000000000000000000000000000000000000000000000000000000000000000000000000000000000000000000000000000000000000
310
00000000000000000000000000000000000000000000000000000000000000000000000000000000000000000000000000000000000000000000000000000000000000000000000000000000000000000000000000000000000000000000000000000000000000000000000000000000000000000000000000000000000000
310
00000000000000000000000000000000000000000000000000000000000000000000000000000000000000000000000000000000000000000000000000000000000000000000000000000000000000000000000000000000000000000000000000000000000000000000000000000000000000000000000000000000000000
310
00000000000000000000000000000000000000000000000000000000000000000000000000000000000000000000000000000000000000000000000000000000000000000000000000000000000000000000000000000000000000000000000000000000000000000000000000000000000000000000000000000000000000
310
00000000000000000000000000000000000000000000000000000000000000000000000000000000000000000000000000000000000000000000000000000000000000000000000000000000000000000000000000000000000000000000000000000000000000000000000000000000000000000000000000000000000000
310
00000000000000000000000000000000000000000000000000000000000000000000000000000000000000000000000000000000000000000000000000000000000000000000000000000000000000000000000000000000000000000000000000000000000000000000000000000000000000000000000000000000000000
310
00000000000000000000000000000000000000000000000000000000000000000000000000000000000000000000000000000000000000000000000000000000000000000000000000000000000000000000000000000000000000000000000000000000000000000000000000000000000000000000000000000000000000
310
00000000000000000000000000000000000000000000000000000000000000000000000000000000000000000000000000000000000000000000000000000000000000000000000000000000000000000000000000000000000000000000000000000000000000000000000000000000000000000000000000000000000000
310
00000000000000000000000000000000000000000000000000000000000000000000000000000000000000000000000000000000000000000000000000000000000000000000000000000000000000000000000000000000000000000000000000000000000000000000000000000000000000000000000000000000000000
310
00000000000000000000000000000000000000000000000000000000000000000000000000000000000000000000000000000000000000000000000000000000000000000000000000000000000000000000000000000000000000000000000000000000000000000000000000000000000000000000000000000000000000
310
00000000000000000000000000000000000000000000000000000000000000000000000000000000000000000000000000000000000000000000000000000000000000000000000000000000000000000000000000000000000000000000000000000000000000000000000000000000000000000000000000000000000000
310
00000000000000000000000000000000000000000000000000000000000000000000000000000000000000000000000000000000000000000000000000000000000000000000000000000000000000000000000000000000000000000000000000000000000000000000000003030303010303030300000000000000000000
310
00000000000303030303010303030000000000000000000000000000000000000000000000000000000000000000000000000000000000000000000000000000000000000000000000000000000000000000000000000000000000000000000000000000000000000000000000000000000000000000000000000000000000
310
00000000000000000000000000000000000000000000000000000000000000000000030000030300000103000003030000030100000103000303030103000301000003000000000000000000000000000000000000000000000000000000000000000000000000000000000000000000000000000000000000000000000000
310
00000000000000000000000000000000000000000000000000000000000000000000000000000000000000000000000000000000000000000000000000000000000000000000000000000000000000000000000000000003030103030103010304040303040403010303010304030304010303010101030300000000000000
310
00000000000000000000000000000000000000000000000000000000000000000000000000000000000000000000000000000000000000000000000000000000000000000000000000000000000000000000000000000000000000000000000000000000000000000000000000000000000000000000000000000000000000
310
00000000000000000000000003030303030103030103030303010303030103030103030103030103030301030303030000000000000000000000000000000000000000000000000000000000000000000000000000000000000000000000000000000000000000000000000000000000000000000000000000000000000000
310
00000000000000000000000000000000000000000000000000000000000000000000000000000000000000000000000000000000000000000000000000000000000101010303030303030303030301030303010303030303010303030303030303030101010000000000000000000000000000000000000000000000000000
310
00000000000000000000000000000000000000000000000000000000000000000000000000000000000000000000000000000000000000000000000000000000000000000000000000000000000000000000000000000000000000000000000000000000000000000000000000000000000000000000030400000000000000
310
00000000010000000100000000000100000000000000000004030300000000000000000000000000000000000000000000000000000000000000000000000000000000000000000000000000000000000000000000000000000000000000000000000000000000000000000000000000000000000000000000000000000000
310
00000000000000000000000000000000000000000000000000000000000000000000000000000003030303030304000000000000000000000001000000010000000000010000000000000000000403030303030303000000000000000000000000000000000000000000000000000000000000000000000000000000000000
310
00000000000000000000000000000000000000000000000000000000000000000000000000000000000000000000000000000000000000000000000000000000000000000000000000000000000000000000000000000000000000000303030303030101010101010101010101010101010103030101010101010101010101
310
01010101030303030303030000000000000000000000000000000000000000000000000000000000000000000000000000000000000000000000000000000000000000000000000000000000000000000000000000000000000000000000000000000000000000000000000000000000000000000000000000000000000000
310
00000000000000000000000000000000000003030303030304000000000003030000000001000003030300000000010000000000000000000403030303030303000000000000000000000000000000000000000000000000000000000000000000000000000000000000000000000000000000000000000000000000000000
310
00000000000000000000000000000000000000000000000000000000000000000000000000000000000000000000000000000000000000000000000000000000000000000000000000000000030101010101030303010101010101010303030101010101010101010101010101010101000000000000000000000000000000
310
00000000000000000000000000000000000000000000000000000000000000000000000000000000000000000000000000000000000000000000000000000000000000000000000000000000000000000000000000000000000000000000000000000000000000000000000000000000000000000000000000000000000000
310
00000303000000000003030000000001000003030300000000010000000000000000000303030000000000000000000000000000000000000000000000000000000000000000000000000000000000000000000000000000000000000000000000000000000000000000000000000000000000000000000000000000000000
310
00000000000000000000000000000000000000000000000000000000000000000000000000000000000000000000000000000000000000000300000000000000000000000100000303030000000001000000000000000000030000000000000000000000000000000000000000000000000000000000000000000000000000
310
00000000000000000000000000000000000000000000000000000000000000000000000000000000000000000000000000000000000000000000000000000000000000000000000000000000000000000000000000000000000000000000000000000000000000000000000000030000000000000000000000010000000100
310
00000000010000000000000000000300000000000000000000000000000000000000000000000000000000000000000000000000000000000000000000000000000000000000000000000000000000000000000000000000000000000000000000000000000000000000000000000000000000000000000000000000000000
310
00000000000000000000000000000000000000000000000000000000000000000000000300000000000000000000000100000001000000000001000000000000000000030000000000000000000000000000000000000000000000000000000000000000000000000000000000000000000000000000000000000000000000
310
00000000000000000000000000000000000000000000000000000000000000000000000000000000000000000000000000000000000000000000000000000000000000000000000000000000000000000000000000000000030404040404040404040404010404040404040404040104040404040404040404000000000000
310
00000000000000000000000000000000000000000000000000000000000000000000000000000000000000000000000000000000000000000000000000000000000000000000000000000000000000000000000000000000000000000000000000000000000000000000000000000000000000000000000000000000000000
310
00000000000000000000000000000303030303030301030303030103030301030301030301030301030303030303030000000000000000000000000000000000000000000000000000000000000000000000000000000000000000000000000000000000000000000000000000000000000000000000000000000000000000
310
00000000000000000000000000000000000000000000000000000000000000000000000000000000000000000000000000000000000000000000000000000000000000030300030100030303030403030403030103030303040303040103030301000303000000000000000000000000000000000000000000000000000000
310
00000000000000000000000000000000000000000000000000000000000000000000000000000000000000000000000000000000000000000000000000000000000000000000000000000000000000000000000000000000000000000000000000000000000000000000000000000000000000000000000003030101010100
310
03030303030303030301000003030003030301030003010103030000000000000000000000000000000000000000000000000000000000000000000000000000000000000000000000000000000000000000000000000000000000000000000000000000000000000000000000000000000000000000000000000000000000
310
00000000000000000000000000000000000000000000000000000000000000000000000000000000000000000000030000000100000003030003030003000000000000000000030300000001000003000000000000000000000000000000000000000000000000000000000000000000000000000000000000000000000000
310
00000000000000000000000000000000000000000000000000000000000000000000000000000000000000000000000000000000000000000000000000000000000000000000000000000000000000000000000000000000000000000000000000000000030303030303030303000303000300000000000000000000030303
310
03030303030000000000000000000000000000000000000000000000000000000000000000000000000000000000000000000000000000000000000000000000000000000000000000000000000000000000000000000000000000000000000000000000000000000000000000000000000000000000000000000000000000
310
00000000000000000000000000000000000000000000000000000000000000000000030003030003000000000000000000000000000000000000000000000000000000000000000000000000000000000000000000000000000000000000000000000000000000000000000000000000000000000000000000000000000000
310
00000000000000000000000000000000000000000000000000000000000000000000000000000000000000000000000000000000000000000000000000000000000000000000000000000000000000000000000000000003000303000300000000000000000000000000000000000000000000000000000000000000000000
310
00000000000000000000000000000000000000000000000000000000000000000000000000000000000000000000000000000000000000000000000000000000000000000000000000000000000000000000000000000000000000000000000000000000000000000000000000000000000000000000000000000000000000
310
00000000000000000000000000030003030003000000000000000000000000000000000000000000000000000000000000000000000000000000000000000000000000000000000000000000000000000000000000000000000000000000000000000000000000000000000000000000000000000000000000000000000000
310
00000000000000000000000000000000000000000000000000000000000000000000000000000000000000000000000000000000000000000000000000000000000003000303000300000000000000000000000000000000000000000000000000000000000000000000000000000000000000000000000000000000000000
310
00000000000000000000000000000000000000000000000000000000000000000000000000000000000000000000000000000000000000000000000000000000000000000000000000000000000000000000000000000000000000000000000000000000000000000000000000000000000000000000000303030303030000
310
00000000000000000000000000000000000000000000000000000000000000000000000000000000000000000000000000000000000000000000000000000000000000000000000000000000000000000000000000000000000000000000000000000000000000000000000000000000000000000000000000000000000000
310
00000000000000000000000000000000000000000000000000000000000000000000000000000000000000000000000001000000000000000000000000000000000000000000000000000000000000000000000000000000000000000000000000000000000000000000000000000000000000000000000000000000000000
310
00000000000000000000000000000000000000000000000000000000000000000000000000000000000000000000000000000000000000000000000000000000000000000000000000000000000000000000000000000000000000000000000000000000000000000000000000000000000000000000000000000000000000
310
000000000000000000000000000000000000000000000000000000000000000000000000000000000000000000000000000000000000000000000000000000000000000000000000000000000000000000000000000000000000000000000000000000000000000000000000
  0
ENDSEC
  0
EOF
