  0
SECTION
  2
HEADER
  9
$ACADVER
  1
AC1015
  9
$ACADMAINTVER
 70
     6
  9
$DWGCODEPAGE
  3
ANSI_932
  9
$INSBASE
 10
3317.288936485714
 20
2479.48433400707
 30
0.0
  9
$EXTMIN
 10
239.7840237167775
 20
49.00744733066904
 30
0.0
  9
$EXTMAX
 10
2305.007912279056
 20
2031.13889759391
 30
0.0
  9
$LIMMIN
 10
0.0
 20
0.0
  9
$LIMMAX
 10
816.5000000000001
 20
565.0
  9
$ORTHOMODE
 70
     0
  9
$REGENMODE
 70
     1
  9
$FILLMODE
 70
     1
  9
$QTEXTMODE
 70
     0
  9
$MIRRTEXT
 70
     1
  9
$LTSCALE
 40
20.0
  9
$ATTMODE
 70
     1
  9
$TEXTSIZE
 40
21.0
  9
$TRACEWID
 40
0.05
  9
$TEXTSTYLE
  7
KANJI
  9
$CLAYER
  8
2
  9
$CELTYPE
  6
BYLAYER
  9
$CECOLOR
 62
   256
  9
$CELTSCALE
 40
1.0
  9
$DISPSILH
 70
     0
  9
$DIMSCALE
 40
8.0
  9
$DIMASZ
 40
2.0
  9
$DIMEXO
 40
0.5
  9
$DIMDLI
 40
0.0
  9
$DIMRND
 40
0.0
  9
$DIMDLE
 40
0.0
  9
$DIMEXE
 40
1.0
  9
$DIMTP
 40
0.0
  9
$DIMTM
 40
0.0
  9
$DIMTXT
 40
3.0
  9
$DIMCEN
 40
0.09
  9
$DIMTSZ
 40
0.0
  9
$DIMTOL
 70
     0
  9
$DIMLIM
 70
     0
  9
$DIMTIH
 70
     0
  9
$DIMTOH
 70
     0
  9
$DIMSE1
 70
     0
  9
$DIMSE2
 70
     0
  9
$DIMTAD
 70
     0
  9
$DIMZIN
 70
     8
  9
$DIMBLK
  1

  9
$DIMASO
 70
     0
  9
$DIMSHO
 70
     0
  9
$DIMPOST
  1

  9
$DIMAPOST
  1

  9
$DIMALT
 70
     0
  9
$DIMALTD
 70
     2
  9
$DIMALTF
 40
25.4
  9
$DIMLFAC
 40
1.0
  9
$DIMTOFL
 70
     1
  9
$DIMTVP
 40
1.0
  9
$DIMTIX
 70
     1
  9
$DIMSOXD
 70
     1
  9
$DIMSAH
 70
     0
  9
$DIMBLK1
  1

  9
$DIMBLK2
  1

  9
$DIMSTYLE
  2
STANDARD
  9
$DIMCLRD
 70
   256
  9
$DIMCLRE
 70
   256
  9
$DIMCLRT
 70
   256
  9
$DIMTFAC
 40
1.0
  9
$DIMGAP
 40
0.09
  9
$DIMJUST
 70
     0
  9
$DIMSD1
 70
     0
  9
$DIMSD2
 70
     0
  9
$DIMTOLJ
 70
     1
  9
$DIMTZIN
 70
     0
  9
$DIMALTZ
 70
     0
  9
$DIMALTTZ
 70
     0
  9
$DIMUPT
 70
     0
  9
$DIMDEC
 70
     1
  9
$DIMTDEC
 70
     4
  9
$DIMALTU
 70
     2
  9
$DIMALTTD
 70
     2
  9
$DIMTXSTY
  7
STANDARD
  9
$DIMAUNIT
 70
     0
  9
$DIMADEC
 70
     0
  9
$DIMALTRND
 40
0.0
  9
$DIMAZIN
 70
     0
  9
$DIMDSEP
 70
    46
  9
$DIMATFIT
 70
     3
  9
$DIMFRAC
 70
     0
  9
$DIMLDRBLK
  1

  9
$DIMLUNIT
 70
     2
  9
$DIMLWD
 70
    -2
  9
$DIMLWE
 70
    -2
  9
$DIMTMOVE
 70
     0
  9
$LUNITS
 70
     2
  9
$LUPREC
 70
     3
  9
$SKETCHINC
 40
0.1
  9
$FILLETRAD
 40
1.0
  9
$AUNITS
 70
     0
  9
$AUPREC
 70
     3
  9
$MENU
  1
C:\R13\WIN\SUPPORT\ACADFULL
  9
$ELEVATION
 40
0.0
  9
$PELEVATION
 40
0.0
  9
$THICKNESS
 40
0.0
  9
$LIMCHECK
 70
     0
  9
$CHAMFERA
 40
0.0
  9
$CHAMFERB
 40
0.0
  9
$CHAMFERC
 40
0.0
  9
$CHAMFERD
 40
0.0
  9
$SKPOLY
 70
     0
  9
$TDCREATE
 40
2449813.131805555
  9
$TDUCREATE
 40
2449812.756805555
  9
$TDUPDATE
 40
2458114.740245231
  9
$TDUUPDATE
 40
2458114.365245231
  9
$TDINDWG
 40
1.3346532407
  9
$TDUSRTIMER
 40
1.3346529167
  9
$USRTIMER
 70
     1
  9
$ANGBASE
 50
0.0
  9
$ANGDIR
 70
     0
  9
$PDMODE
 70
     0
  9
$PDSIZE
 40
0.0
  9
$PLINEWID
 40
0.0
  9
$SPLFRAME
 70
     0
  9
$SPLINETYPE
 70
     6
  9
$SPLINESEGS
 70
     8
  9
$HANDSEED
  5
7D6
  9
$SURFTAB1
 70
     6
  9
$SURFTAB2
 70
     6
  9
$SURFTYPE
 70
     6
  9
$SURFU
 70
     6
  9
$SURFV
 70
     6
  9
$UCSBASE
  2

  9
$UCSNAME
  2

  9
$UCSORG
 10
0.0
 20
0.0
 30
0.0
  9
$UCSXDIR
 10
1.0
 20
0.0
 30
0.0
  9
$UCSYDIR
 10
0.0
 20
1.0
 30
0.0
  9
$UCSORTHOREF
  2

  9
$UCSORTHOVIEW
 70
     0
  9
$UCSORGTOP
 10
0.0
 20
0.0
 30
0.0
  9
$UCSORGBOTTOM
 10
0.0
 20
0.0
 30
0.0
  9
$UCSORGLEFT
 10
0.0
 20
0.0
 30
0.0
  9
$UCSORGRIGHT
 10
0.0
 20
0.0
 30
0.0
  9
$UCSORGFRONT
 10
0.0
 20
0.0
 30
0.0
  9
$UCSORGBACK
 10
0.0
 20
0.0
 30
0.0
  9
$PUCSBASE
  2

  9
$PUCSNAME
  2

  9
$PUCSORG
 10
0.0
 20
0.0
 30
0.0
  9
$PUCSXDIR
 10
1.0
 20
0.0
 30
0.0
  9
$PUCSYDIR
 10
0.0
 20
1.0
 30
0.0
  9
$PUCSORTHOREF
  2

  9
$PUCSORTHOVIEW
 70
     0
  9
$PUCSORGTOP
 10
0.0
 20
0.0
 30
0.0
  9
$PUCSORGBOTTOM
 10
0.0
 20
0.0
 30
0.0
  9
$PUCSORGLEFT
 10
0.0
 20
0.0
 30
0.0
  9
$PUCSORGRIGHT
 10
0.0
 20
0.0
 30
0.0
  9
$PUCSORGFRONT
 10
0.0
 20
0.0
 30
0.0
  9
$PUCSORGBACK
 10
0.0
 20
0.0
 30
0.0
  9
$USERI1
 70
     0
  9
$USERI2
 70
     0
  9
$USERI3
 70
     0
  9
$USERI4
 70
     0
  9
$USERI5
 70
     0
  9
$USERR1
 40
0.0
  9
$USERR2
 40
0.0
  9
$USERR3
 40
0.0
  9
$USERR4
 40
2448925.372986111
  9
$USERR5
 40
0.04166667
  9
$WORLDVIEW
 70
     1
  9
$SHADEDGE
 70
     3
  9
$SHADEDIF
 70
    70
  9
$TILEMODE
 70
     1
  9
$MAXACTVP
 70
    16
  9
$PINSBASE
 10
0.0
 20
0.0
 30
0.0
  9
$PLIMCHECK
 70
     0
  9
$PEXTMIN
 10
1000000000000000E+20
 20
1000000000000000E+20
 30
1000000000000000E+20
  9
$PEXTMAX
 10
-1000000000000000E+20
 20
-1000000000000000E+20
 30
-1000000000000000E+20
  9
$PLIMMIN
 10
0.0
 20
0.0
  9
$PLIMMAX
 10
12.0
 20
9.0
  9
$UNITMODE
 70
     0
  9
$VISRETAIN
 70
     0
  9
$PLINEGEN
 70
     0
  9
$PSLTSCALE
 70
     0
  9
$TREEDEPTH
 70
  3020
  9
$CMLSTYLE
  2
STANDARD
  9
$CMLJUST
 70
     0
  9
$CMLSCALE
 40
1.0
  9
$PROXYGRAPHICS
 70
     1
  9
$MEASUREMENT
 70
     0
  9
$CELWEIGHT
370
    -1
  9
$ENDCAPS
280
     0
  9
$JOINSTYLE
280
     0
  9
$LWDISPLAY
290
     0
  9
$INSUNITS
 70
     0
  9
$HYPERLINKBASE
  1

  9
$STYLESHEET
  1
monochrome.ctb
  9
$XEDIT
290
     1
  9
$CEPSNTYPE
380
     0
  9
$PSTYLEMODE
290
     1
  9
$FINGERPRINTGUID
  2
{07528633-0641-4FB2-9331-EE77C6B48313}
  9
$VERSIONGUID
  2
{24E79080-B05A-4593-A4A5-E7A641596B18}
  9
$EXTNAMES
290
     1
  9
$PSVPSCALE
 40
0.0
  9
$OLESTARTUP
290
     0
  0
ENDSEC
  0
SECTION
  2
CLASSES
  0
CLASS
  1
ACDBDICTIONARYWDFLT
  2
AcDbDictionaryWithDefault
  3
ObjectDBX Classes
 90
        0
280
     0
281
     0
  0
CLASS
  1
MATERIAL
  2
AcDbMaterial
  3
ObjectDBX Classes
 90
     1153
280
     0
281
     0
  0
CLASS
  1
SORTENTSTABLE
  2
AcDbSortentsTable
  3
ObjectDBX Classes
 90
        0
280
     0
281
     0
  0
CLASS
  1
SCALE
  2
AcDbScale
  3
ObjectDBX Classes
 90
     1153
280
     0
281
     0
  0
CLASS
  1
DICTIONARYVAR
  2
AcDbDictionaryVar
  3
ObjectDBX Classes
 90
        0
280
     0
281
     0
  0
CLASS
  1
VISUALSTYLE
  2
AcDbVisualStyle
  3
ObjectDBX Classes
 90
     4095
280
     0
281
     0
  0
CLASS
  1
MLEADERSTYLE
  2
AcDbMLeaderStyle
  3
ACDB_MLEADERSTYLE_CLASS
 90
     4095
280
     0
281
     0
  0
CLASS
  1
ACDBPLACEHOLDER
  2
AcDbPlaceHolder
  3
ObjectDBX Classes
 90
        0
280
     0
281
     0
  0
CLASS
  1
LAYOUT
  2
AcDbLayout
  3
ObjectDBX Classes
 90
        0
280
     0
281
     0
  0
ENDSEC
  0
SECTION
  2
TABLES
  0
TABLE
  2
VPORT
  5
25
102
{ACAD_XDICTIONARY
360
79B
102
}
330
0
100
AcDbSymbolTable
 70
     2
  0
VPORT
  5
2B
330
25
100
AcDbSymbolTableRecord
100
AcDbViewportTableRecord
  2
*Active
 70
     0
 10
0.0
 20
0.0
 11
1.0
 21
1.0
 12
1957.564693088788
 22
1021.341047537999
 13
0.0
 23
0.0
 14
1.0
 24
1.0
 15
50.0
 25
50.0
 16
0.0
 26
0.0
 36
1.0
 17
0.0
 27
0.0
 37
0.0
 40
2158.599149937994
 41
1.82716049382716
 42
50.0
 43
0.0
 44
0.0
 50
0.0
 51
0.0
 71
     0
 72
  5000
 73
     1
 74
     0
 75
     1
 76
     0
 77
     0
 78
     0
281
     0
 65
     1
110
0.0
120
0.0
130
0.0
111
1.0
121
0.0
131
0.0
112
0.0
122
1.0
132
0.0
 79
     0
146
0.0
  0
ENDTAB
  0
TABLE
  2
LTYPE
  5
9
330
0
100
AcDbSymbolTable
 70
     2
  0
LTYPE
  5
A
330
9
100
AcDbSymbolTableRecord
100
AcDbLinetypeTableRecord
  2
BYBLOCK
 70
     0
  3

 72
    65
 73
     0
 40
0.0
  0
LTYPE
  5
B
330
9
100
AcDbSymbolTableRecord
100
AcDbLinetypeTableRecord
  2
BYLAYER
 70
     0
  3

 72
    65
 73
     0
 40
0.0
  0
LTYPE
  5
8
330
9
100
AcDbSymbolTableRecord
100
AcDbLinetypeTableRecord
  2
CONTINUOUS
 70
     0
  3
Solid line
 72
    65
 73
     0
 40
0.0
  0
LTYPE
  5
7B
330
9
100
AcDbSymbolTableRecord
100
AcDbLinetypeTableRecord
  2
CENTER
 70
     0
  3
____ _ ____ _ ____ _ ____ _ ____ _ ____ _ ____
 72
    65
 73
     4
 40
2.0
 49
1.25
 74
     0
 49
-0.25
 74
     0
 49
0.25
 74
     0
 49
-0.25
 74
     0
  0
ENDTAB
  0
TABLE
  2
LAYER
  5
2
330
0
100
AcDbSymbolTable
 70
     9
  0
LAYER
  5
19
330
2
100
AcDbSymbolTableRecord
100
AcDbLayerTableRecord
  2
0
 70
     0
 62
     7
  6
CONTINUOUS
370
    -3
390
3
  0
LAYER
  5
507
330
2
100
AcDbSymbolTableRecord
100
AcDbLayerTableRecord
  2
1
 70
     0
 62
     9
  6
CONTINUOUS
370
    -3
390
3
  0
LAYER
  5
1
330
2
100
AcDbSymbolTableRecord
100
AcDbLayerTableRecord
  2
2
 70
     0
 62
     4
  6
CONTINUOUS
370
    -3
390
3
  0
LAYER
  5
72
330
2
100
AcDbSymbolTableRecord
100
AcDbLayerTableRecord
  2
4
 70
     0
 62
     3
  6
CONTINUOUS
370
    -3
390
3
  0
LAYER
  5
7A
330
2
100
AcDbSymbolTableRecord
100
AcDbLayerTableRecord
  2
L-CENTER
 70
     0
 62
     1
  6
CENTER
370
    -3
390
3
  0
LAYER
  5
81
330
2
100
AcDbSymbolTableRecord
100
AcDbLayerTableRecord
  2
3
 70
     0
 62
     2
  6
CONTINUOUS
370
    -3
390
3
  0
LAYER
  5
501
330
2
100
AcDbSymbolTableRecord
100
AcDbLayerTableRecord
  2
5
 70
     0
 62
     6
  6
CONTINUOUS
370
    -3
390
3
  0
LAYER
  5
6DD
330
2
100
AcDbSymbolTableRecord
100
AcDbLayerTableRecord
  2
Defpoints
 70
     0
 62
     7
  6
CONTINUOUS
290
     0
370
    -3
390
3
  0
ENDTAB
  0
TABLE
  2
STYLE
  5
D
330
0
100
AcDbSymbolTable
 70
     2
  0
STYLE
  5
11
330
D
100
AcDbSymbolTableRecord
100
AcDbTextStyleTableRecord
  2
STANDARD
 70
     0
 40
0.0
 41
1.0
 50
0.0
 71
     0
 42
12.6
  3
TXT
  4

  0
STYLE
  5
C
330
D
100
AcDbSymbolTableRecord
100
AcDbTextStyleTableRecord
  2
KANJI
 70
     0
 40
0.0
 41
1.0
 50
0.0
 71
     0
 42
21.0
  3
TXT
  4
BIGFONT
  0
ENDTAB
  0
TABLE
  2
VIEW
  5
23
330
0
100
AcDbSymbolTable
 70
     0
  0
ENDTAB
  0
TABLE
  2
UCS
  5
24
330
0
100
AcDbSymbolTable
 70
     0
  0
ENDTAB
  0
TABLE
  2
APPID
  5
1E
330
0
100
AcDbSymbolTable
 70
     4
  0
APPID
  5
2A
330
1E
100
AcDbSymbolTableRecord
100
AcDbRegAppTableRecord
  2
ACAD
 70
     0
  0
APPID
  5
1D
330
1E
100
AcDbSymbolTableRecord
100
AcDbRegAppTableRecord
  2
ACAD_PSEXT
 70
     0
  0
APPID
  5
6DC
330
1E
100
AcDbSymbolTableRecord
100
AcDbRegAppTableRecord
  2
ACAD_MLEADERVER
 70
     0
  0
ENDTAB
  0
TABLE
  2
DIMSTYLE
  5
10
330
0
100
AcDbSymbolTable
 70
     1
100
AcDbDimStyleTable
  0
DIMSTYLE
105
F
330
10
100
AcDbSymbolTableRecord
100
AcDbDimStyleTableRecord
  2
STANDARD
 70
     0
178
     0
340
11
  0
ENDTAB
  0
TABLE
  2
BLOCK_RECORD
  5
14
330
0
100
AcDbSymbolTable
 70
     0
  0
BLOCK_RECORD
  5
15
102
{ACAD_XDICTIONARY
360
16
102
}
330
14
100
AcDbSymbolTableRecord
100
AcDbBlockTableRecord
  2
*MODEL_SPACE
340
1B
  0
BLOCK_RECORD
  5
1F
330
14
100
AcDbSymbolTableRecord
100
AcDbBlockTableRecord
  2
*PAPER_SPACE
340
22
  0
ENDTAB
  0
ENDSEC
  0
SECTION
  2
BLOCKS
  0
BLOCK
  5
18
330
15
100
AcDbEntity
  8
0
100
AcDbBlockBegin
  2
*MODEL_SPACE
 70
     0
 10
0.0
 20
0.0
 30
0.0
  3
*MODEL_SPACE
  1

  0
ENDBLK
  5
1A
330
15
100
AcDbEntity
  8
0
100
AcDbBlockEnd
  0
BLOCK
  5
20
330
1F
100
AcDbEntity
 67
     1
  8
0
100
AcDbBlockBegin
  2
*PAPER_SPACE
 70
     0
 10
0.0
 20
0.0
 30
0.0
  3
*PAPER_SPACE
  1

  0
ENDBLK
  5
21
330
1F
100
AcDbEntity
 67
     1
  8
0
100
AcDbBlockEnd
  0
ENDSEC
  0
SECTION
  2
ENTITIES
  0
LINE
  5
71
330
15
100
AcDbEntity
  8
4
100
AcDbLine
 10
1075.430503152599
 20
249.007447330669
 30
0.0
 11
1075.430503152599
 21
139.0074523306689
 31
0.0
  0
ARC
  5
73
330
15
100
AcDbEntity
  8
4
100
AcDbCircle
 10
687.4305061525979
 20
486.0074483306689
 30
0.0
 40
389.999974
100
AcDbArc
 50
225.245606
 51
314.755231
  0
LINE
  5
74
330
15
100
AcDbEntity
  8
4
100
AcDbLine
 10
299.430509152598
 20
249.007447330669
 30
0.0
 11
299.430509152598
 21
139.0074523306689
 31
0.0
  0
ARC
  5
75
330
15
100
AcDbEntity
  8
4
100
AcDbCircle
 10
687.4305061525979
 20
486.0074483306689
 30
0.0
 40
347.999953
100
AcDbArc
 50
271.6942290000001
 51
268.306615
  0
ARC
  5
76
330
15
100
AcDbEntity
  8
4
100
AcDbCircle
 10
687.4305061525979
 20
486.0074483306689
 30
0.0
 40
390.000002
100
AcDbArc
 50
329.6524129999999
 51
210.348473
  0
LINE
  5
77
330
15
100
AcDbEntity
  8
4
100
AcDbLine
 10
281.4305061525984
 20
486.0074483306689
 30
0.0
 11
281.4305061525984
 21
74.00744733066904
 31
0.0
  0
LINE
  5
78
330
15
100
AcDbEntity
  8
4
100
AcDbLine
 10
1093.430499152598
 20
486.0074483306689
 30
0.0
 11
1093.430499152598
 21
74.00744733066904
 31
0.0
  0
LINE
  5
79
330
15
100
AcDbEntity
  8
L-CENTER
 48
2.0
100
AcDbLine
 10
687.4305061525979
 20
75.0074463306687
 30
0.0
 11
687.4305061525979
 21
987.9813193306695
 31
0.0
  0
LINE
  5
7C
330
15
100
AcDbEntity
  8
4
100
AcDbLine
 10
506.4305051525985
 20
124.0074533306688
 30
0.0
 11
284.4305101525983
 21
124.0074533306688
 31
0.0
  0
LINE
  5
7D
330
15
100
AcDbEntity
  8
4
100
AcDbLine
 10
281.4305061525984
 20
74.00744733066904
 30
0.0
 11
509.430509152598
 21
74.00744733066904
 31
0.0
  0
LINE
  5
7E
330
15
100
AcDbEntity
  8
4
100
AcDbLine
 10
482.7942771525982
 20
154.007451330669
 30
0.0
 11
299.430509152598
 21
154.007451330669
 31
0.0
  0
ARC
  5
89
330
15
100
AcDbEntity
  8
4
100
AcDbCircle
 10
284.4305101525983
 20
121.0074493306688
 30
0.0
 40
2.999997
100
AcDbArc
 50
90.0
 51
180.0
  0
ARC
  5
8A
330
15
100
AcDbEntity
  8
4
100
AcDbCircle
 10
314.4305081525981
 20
139.0074523306689
 30
0.0
 40
14.999999
100
AcDbArc
 50
180.0
 51
270.0009319999996
  0
LINE
  5
8B
330
15
100
AcDbEntity
  8
L-CENTER
 48
2.0
100
AcDbLine
 10
367.4305041525981
 20
49.00744733066904
 30
0.0
 11
367.4305041525981
 21
149.0074533306688
 31
0.0
  0
LINE
  5
8E
330
15
100
AcDbEntity
  8
4
100
AcDbLine
 10
892.0667351525976
 20
154.007451330669
 30
0.0
 11
1075.430503152599
 21
154.007451330669
 31
0.0
  0
LINE
  5
8F
330
15
100
AcDbEntity
  8
4
100
AcDbLine
 10
1093.430499152598
 20
74.00744733066904
 30
0.0
 11
865.4305031525987
 21
74.00744733066904
 31
0.0
  0
LINE
  5
90
330
15
100
AcDbEntity
  8
4
100
AcDbLine
 10
868.4305071525982
 20
124.0074533306688
 30
0.0
 11
1090.430502152598
 21
124.0074533306688
 31
0.0
  0
LINE
  5
98
330
15
100
AcDbEntity
  8
4
100
AcDbLine
 10
515.4305031525987
 20
89.0074533306688
 30
0.0
 11
859.4305021525984
 21
89.0074533306688
 31
0.0
  0
LINE
  5
99
330
15
100
AcDbEntity
  8
4
100
AcDbLine
 10
479.4305041525981
 20
74.00744733066904
 30
0.0
 11
479.4305041525981
 21
121.0074493306688
 31
0.0
  0
LINE
  5
9A
330
15
100
AcDbEntity
  8
4
100
AcDbLine
 10
509.430509152598
 20
74.00744733066904
 30
0.0
 11
509.430509152598
 21
121.0074493306688
 31
0.0
  0
ARC
  5
9B
330
15
100
AcDbEntity
  8
4
100
AcDbCircle
 10
515.4305031525987
 20
83.00745233066891
 30
0.0
 40
6.000001
100
AcDbArc
 50
90.0
 51
180.0
  0
ARC
  5
9C
330
15
100
AcDbEntity
  8
4
100
AcDbCircle
 10
476.4305071525982
 20
121.0074493306688
 30
0.0
 40
2.999997
100
AcDbArc
 50
0.0
 51
90.0
  0
ARC
  5
9D
330
15
100
AcDbEntity
  8
4
100
AcDbCircle
 10
506.4305051525985
 20
121.0074493306688
 30
0.0
 40
2.999997
100
AcDbArc
 50
0.0
 51
90.0
  0
CIRCLE
  5
9E
330
15
100
AcDbEntity
  8
2
100
AcDbCircle
 10
687.4305061525979
 20
121.0074493306688
 30
0.0
 40
8.331057
  0
CIRCLE
  5
9F
330
15
100
AcDbEntity
  8
4
100
AcDbCircle
 10
687.4305061525979
 20
121.0074493306688
 30
0.0
 40
9.331057
  0
LINE
  5
A0
330
15
100
AcDbEntity
  8
2
100
AcDbLine
 10
681.215633152598
 20
117.4192213306692
 30
0.0
 11
687.4305061525979
 21
113.8310913306691
 31
0.0
  0
LINE
  5
A1
330
15
100
AcDbEntity
  8
2
100
AcDbLine
 10
693.6453791525987
 20
117.4192213306692
 30
0.0
 11
687.4305061525979
 21
113.8310913306691
 31
0.0
  0
LINE
  5
A2
330
15
100
AcDbEntity
  8
2
100
AcDbLine
 10
687.4305061525979
 20
128.183807330669
 30
0.0
 11
681.215633152598
 21
124.5956773306689
 31
0.0
  0
ARC
  5
A3
330
15
100
AcDbEntity
  8
4
100
AcDbCircle
 10
687.4305061525979
 20
121.0074493306688
 30
0.0
 40
20.000099
100
AcDbArc
 50
59.04823900000044
 51
120.9517609999987
  0
LINE
  5
A4
330
15
100
AcDbEntity
  8
L-CENTER
 48
2.0
100
AcDbLine
 10
712.8527722374788
 20
121.0074493306688
 30
0.0
 11
662.008240067717
 21
121.0074493306688
 31
0.0
  0
LINE
  5
A5
330
15
100
AcDbEntity
  8
2
100
AcDbLine
 10
681.215633152598
 20
124.5956773306689
 30
0.0
 11
681.215633152598
 21
117.4192213306692
 31
0.0
  0
LINE
  5
A6
330
15
100
AcDbEntity
  8
2
100
AcDbLine
 10
687.4305061525979
 20
128.183807330669
 30
0.0
 11
693.6453791525987
 21
124.5956773306689
 31
0.0
  0
LINE
  5
A7
330
15
100
AcDbEntity
  8
2
100
AcDbLine
 10
693.6453791525987
 20
124.5956773306689
 30
0.0
 11
693.6453791525987
 21
117.4192213306692
 31
0.0
  0
LINE
  5
A8
330
15
100
AcDbEntity
  8
4
100
AcDbLine
 10
865.4305031525987
 20
74.00744733066904
 30
0.0
 11
865.4305031525987
 21
121.0074493306688
 31
0.0
  0
LINE
  5
A9
330
15
100
AcDbEntity
  8
4
100
AcDbLine
 10
895.430501152598
 20
74.00744733066904
 30
0.0
 11
895.430501152598
 21
121.0074493306688
 31
0.0
  0
ARC
  5
AA
330
15
100
AcDbEntity
  8
4
100
AcDbCircle
 10
859.4305021525984
 20
83.00745233066891
 30
0.0
 40
6.000001
100
AcDbArc
 50
0.0
 51
90.0
  0
ARC
  5
AB
330
15
100
AcDbEntity
  8
4
100
AcDbCircle
 10
868.4305071525982
 20
121.0074493306688
 30
0.0
 40
2.999997
100
AcDbArc
 50
90.0
 51
180.0
  0
ARC
  5
AC
330
15
100
AcDbEntity
  8
4
100
AcDbCircle
 10
898.4305051525985
 20
121.0074493306688
 30
0.0
 40
2.999997
100
AcDbArc
 50
90.0
 51
180.0
  0
LINE
  5
AD
330
15
100
AcDbEntity
  8
L-CENTER
 48
2.0
100
AcDbLine
 10
1007.430501152598
 20
49.00744733066904
 30
0.0
 11
1007.430501152598
 21
149.0074533306688
 31
0.0
  0
ARC
  5
AE
330
15
100
AcDbEntity
  8
4
100
AcDbCircle
 10
1060.430504152598
 20
139.0074523306689
 30
0.0
 40
14.999999
100
AcDbArc
 50
270.0009319999996
 51
0.0
  0
ARC
  5
AF
330
15
100
AcDbEntity
  8
4
100
AcDbCircle
 10
1090.430502152598
 20
121.0074493306688
 30
0.0
 40
2.999997
100
AcDbArc
 50
0.0
 51
90.0
  0
LINE
  5
B0
330
15
100
AcDbEntity
  8
L-CENTER
 48
2.0
100
AcDbLine
 10
483.6991251898565
 20
527.2003931774384
 30
0.0
 11
442.7993379253226
 21
550.8139031684159
 31
0.0
  0
LINE
  5
B1
330
15
100
AcDbEntity
  8
L-CENTER
 48
2.0
100
AcDbLine
 10
483.6994702747769
 20
430.8139057792682
 30
0.0
 11
442.7996821308006
 21
407.2003973115293
 31
0.0
  0
CIRCLE
  5
B2
330
15
100
AcDbEntity
  8
L-CENTER
 48
2.0
100
AcDbCircle
 10
567.172452152598
 20
479.0074483306689
 30
0.0
 40
119.999999
  0
CIRCLE
  5
B3
330
15
100
AcDbEntity
  8
4
100
AcDbCircle
 10
567.172452152598
 20
479.0074483306689
 30
0.0
 40
140.0
  0
LINE
  5
B4
330
15
100
AcDbEntity
  8
L-CENTER
 48
2.0
100
AcDbLine
 10
731.1600235583369
 20
479.0074483306689
 30
0.0
 11
403.118879456254
 21
479.0074483306689
 31
0.0
  0
ARC
  5
B5
330
15
100
AcDbEntity
  8
4
100
AcDbCircle
 10
687.4305061525979
 20
-538.992548669331
 30
0.0
 40
1200.000025
100
AcDbArc
 50
74.41223299999999
 51
105.588059
  0
ARC
  5
B6
330
15
100
AcDbEntity
  8
4
100
AcDbCircle
 10
687.4305061525979
 20
-913.9925516693311
 30
0.0
 40
1797.000002
100
AcDbArc
 50
78.96179199999999
 51
101.038208
  0
LINE
  5
B7
330
15
100
AcDbEntity
  8
L-CENTER
 48
2.0
100
AcDbLine
 10
1107.698536734721
 20
486.0074483306689
 30
0.0
 11
267.1624755704752
 21
486.0074483306689
 31
0.0
  0
LINE
  5
B8
330
15
100
AcDbEntity
  8
4
100
AcDbLine
 10
474.8958411525987
 20
159.0074533306688
 30
0.0
 11
299.430509152598
 21
159.0074533306688
 31
0.0
  0
ARC
  5
B9
330
15
100
AcDbEntity
  8
4
100
AcDbCircle
 10
687.4305061525979
 20
1497.007445330668
 30
0.0
 40
1200.000095
100
AcDbArc
 50
254.755403
 51
269.091313
  0
LINE
  5
BA
330
15
100
AcDbEntity
  8
L-CENTER
 48
2.0
100
AcDbLine
 10
1261.262044152598
 20
249.007447330669
 30
0.0
 11
247.099017819329
 21
249.007447330669
 31
0.0
  0
ARC
  5
BB
330
15
100
AcDbEntity
  8
4
100
AcDbCircle
 10
1481.430503152599
 20
486.0074483306689
 30
0.0
 40
1199.999934
100
AcDbArc
 50
162.696777
 51
180.0003499992971
  0
LINE
  5
BC
330
15
100
AcDbEntity
  8
4
100
AcDbLine
 10
276.4305041525981
 20
159.0074533306688
 30
0.0
 11
276.4305041525981
 21
339.0074483306689
 31
0.0
  0
LINE
  5
BD
330
15
100
AcDbEntity
  8
2
100
AcDbLine
 10
276.1305041525982
 20
159.0074533306688
 30
0.0
 11
276.1305041525982
 21
339.0074483306689
 31
0.0
  0
LINE
  5
BE
330
15
100
AcDbEntity
  8
4
100
AcDbLine
 10
258.1305071525982
 20
159.0074533306688
 30
0.0
 11
258.1305071525982
 21
339.0074483306689
 31
0.0
  0
LINE
  5
BF
330
15
100
AcDbEntity
  8
4
100
AcDbLine
 10
258.1305071525982
 20
159.0074533306688
 30
0.0
 11
276.4305041525981
 21
159.0074533306688
 31
0.0
  0
ARC
  5
C0
330
15
100
AcDbEntity
  8
4
100
AcDbCircle
 10
306.430509152598
 20
249.007447330669
 30
0.0
 40
7.0
100
AcDbArc
 50
90.0
 51
180.0
  0
LINE
  5
C1
330
15
100
AcDbEntity
  8
4
100
AcDbLine
 10
258.1305071525982
 20
339.0074483306689
 30
0.0
 11
276.4305041525981
 21
339.0074483306689
 31
0.0
  0
LINE
  5
C2
330
15
100
AcDbEntity
  8
4
100
AcDbLine
 10
312.6665921525982
 20
344.0074503306691
 30
0.0
 11
281.4305061525984
 21
344.0074503306691
 31
0.0
  0
LINE
  5
C3
330
15
100
AcDbEntity
  8
4
100
AcDbLine
 10
314.4922761525982
 20
339.0074483306689
 30
0.0
 11
276.4305041525981
 21
339.0074483306689
 31
0.0
  0
ARC
  5
C4
330
15
100
AcDbEntity
  8
4
100
AcDbCircle
 10
312.6665921525982
 20
352.0074493306688
 30
0.0
 40
7.999991999999999
100
AcDbArc
 50
270.0
 51
19.67417600000242
  0
ARC
  5
C5
330
15
100
AcDbEntity
  8
4
100
AcDbCircle
 10
314.4922761525982
 20
347.007447330669
 30
0.0
 40
8.000041
100
AcDbArc
 50
270.0
 51
20.44083299999911
  0
ARC
  5
C6
330
15
100
AcDbEntity
  8
4
100
AcDbCircle
 10
345.2851221525984
 20
839.9474473306686
 30
0.0
 40
9.999996999999999
100
AcDbArc
 50
101.0382080000015
 51
162.6967769999991
  0
LINE
  5
C7
330
15
100
AcDbEntity
  8
L-CENTER
 48
2.0
100
AcDbLine
 10
437.4305041525981
 20
851.0922733306688
 30
0.0
 11
437.4305041525981
 21
889.515140330669
 31
0.0
  0
LINE
  5
C8
330
15
100
AcDbEntity
  8
4
100
AcDbLine
 10
414.4305061525984
 20
882.3657253306687
 30
0.0
 11
460.430509152598
 21
882.3657253306687
 31
0.0
  0
LINE
  5
C9
330
15
100
AcDbEntity
  8
4
100
AcDbLine
 10
414.4305061525984
 20
877.365723330669
 30
0.0
 11
460.430509152598
 21
877.365723330669
 31
0.0
  0
LINE
  5
CA
330
15
100
AcDbEntity
  8
4
100
AcDbLine
 10
414.4305061525984
 20
873.3657203306689
 30
0.0
 11
460.430509152598
 21
873.3657203306689
 31
0.0
  0
LINE
  5
CB
330
15
100
AcDbEntity
  8
4
100
AcDbLine
 10
415.4305051525985
 20
871.8657253306687
 30
0.0
 11
459.4305031525987
 21
871.8657253306687
 31
0.0
  0
LINE
  5
CC
330
15
100
AcDbEntity
  8
4
100
AcDbLine
 10
462.4305071525982
 20
871.8659633306688
 30
0.0
 11
412.4305081525981
 21
871.8659633306688
 31
0.0
  0
LINE
  5
CD
330
15
100
AcDbEntity
  8
4
100
AcDbLine
 10
425.9305051525985
 20
877.365723330669
 30
0.0
 11
425.9305051525985
 21
882.3657253306687
 31
0.0
  0
LINE
  5
CE
330
15
100
AcDbEntity
  8
4
100
AcDbLine
 10
414.4305061525984
 20
873.3657203306689
 30
0.0
 11
414.4305061525984
 21
882.3657253306687
 31
0.0
  0
LINE
  5
CF
330
15
100
AcDbEntity
  8
4
100
AcDbLine
 10
415.4305051525985
 20
873.3657203306689
 30
0.0
 11
415.4305051525985
 21
871.8657253306687
 31
0.0
  0
LINE
  5
D0
330
15
100
AcDbEntity
  8
4
100
AcDbLine
 10
412.4305081525981
 20
861.840773330669
 30
0.0
 11
412.4305081525981
 21
871.8659633306688
 31
0.0
  0
LINE
  5
D1
330
15
100
AcDbEntity
  8
4
100
AcDbLine
 10
448.9305031525987
 20
877.365723330669
 30
0.0
 11
448.9305031525987
 21
882.3657253306687
 31
0.0
  0
LINE
  5
D2
330
15
100
AcDbEntity
  8
4
100
AcDbLine
 10
460.430509152598
 20
873.3657203306689
 30
0.0
 11
460.430509152598
 21
882.3657253306687
 31
0.0
  0
LINE
  5
D3
330
15
100
AcDbEntity
  8
4
100
AcDbLine
 10
459.4305031525987
 20
873.3657203306689
 30
0.0
 11
459.4305031525987
 21
871.8657253306687
 31
0.0
  0
LINE
  5
D4
330
15
100
AcDbEntity
  8
4
100
AcDbLine
 10
462.4305071525982
 20
868.8659663306689
 30
0.0
 11
462.4305071525982
 21
871.8659633306688
 31
0.0
  0
ARC
  5
D5
330
15
100
AcDbEntity
  8
4
100
AcDbCircle
 10
-106.569490847402
 20
486.0074483306689
 30
0.0
 40
1199.999927
100
AcDbArc
 50
0.0
 51
17.30322399999999
  0
LINE
  5
D6
330
15
100
AcDbEntity
  8
L-CENTER
 48
2.0
100
AcDbLine
 10
705.7364161525979
 20
499.0074493306688
 30
0.0
 11
967.1245921525983
 21
499.0074493306688
 31
0.0
  0
LINE
  5
D7
330
15
100
AcDbEntity
  8
4
100
AcDbLine
 10
899.965171152598
 20
159.0074533306688
 30
0.0
 11
1075.430503152599
 21
159.0074533306688
 31
0.0
  0
ARC
  5
D8
330
15
100
AcDbEntity
  8
4
100
AcDbCircle
 10
687.4305061525979
 20
1497.007445330668
 30
0.0
 40
1200.000095
100
AcDbArc
 50
270.908687
 51
285.2448720000001
  0
LINE
  5
D9
330
15
100
AcDbEntity
  8
L-CENTER
 48
2.0
100
AcDbLine
 10
836.4305041525981
 20
368.3133613306686
 30
0.0
 11
836.4305041525981
 21
629.701537330669
 31
0.0
  0
CIRCLE
  5
DB
330
15
100
AcDbEntity
  8
4
100
AcDbCircle
 10
836.4305041525981
 20
499.0074493306688
 30
0.0
 40
60.000003
  0
LINE
  5
DC
330
15
100
AcDbEntity
  8
L-CENTER
 48
2.0
100
AcDbLine
 10
567.172452152598
 20
315.01987692493
 30
0.0
 11
567.172452152598
 21
642.9950197364078
 31
0.0
  0
CIRCLE
  5
DD
330
15
100
AcDbEntity
  8
4
100
AcDbCircle
 10
836.4305041525981
 20
499.0074493306688
 30
0.0
 40
110.000002
  0
CIRCLE
  5
DE
330
15
100
AcDbEntity
  8
L-CENTER
 48
2.0
100
AcDbCircle
 10
836.4305041525981
 20
499.0074493306688
 30
0.0
 40
90.000001
  0
LINE
  5
DF
330
15
100
AcDbEntity
  8
L-CENTER
 48
2.0
100
AcDbLine
 10
723.7434961525973
 20
291.007447330669
 30
0.0
 11
651.1175161525985
 21
291.007447330669
 31
0.0
  0
LINE
  5
E0
330
15
100
AcDbEntity
  8
4
100
AcDbLine
 10
671.8418841525986
 20
282.0074493306688
 30
0.0
 11
687.4305061525979
 21
273.007451330669
 31
0.0
  0
LINE
  5
E1
330
15
100
AcDbEntity
  8
4
100
AcDbLine
 10
687.4305061525979
 20
273.007451330669
 30
0.0
 11
703.0188831525979
 21
282.0074493306688
 31
0.0
  0
CIRCLE
  5
E2
330
15
100
AcDbEntity
  8
4
100
AcDbCircle
 10
687.4305061525979
 20
291.007447330669
 30
0.0
 40
20.000001
  0
LINE
  5
E3
330
15
100
AcDbEntity
  8
4
100
AcDbLine
 10
687.4305061525979
 20
309.0074503306691
 30
0.0
 11
671.8418841525986
 21
300.0074523306689
 31
0.0
  0
LINE
  5
E4
330
15
100
AcDbEntity
  8
4
100
AcDbLine
 10
671.8418841525986
 20
282.0074493306688
 30
0.0
 11
671.8418841525986
 21
300.0074523306689
 31
0.0
  0
LINE
  5
E5
330
15
100
AcDbEntity
  8
4
100
AcDbLine
 10
703.0188831525979
 20
282.0074493306688
 30
0.0
 11
703.0188831525979
 21
300.0074523306689
 31
0.0
  0
LINE
  5
E6
330
15
100
AcDbEntity
  8
4
100
AcDbLine
 10
703.0188831525979
 20
300.0074523306689
 30
0.0
 11
687.4305061525979
 21
309.0074503306691
 31
0.0
  0
LINE
  5
E7
330
15
100
AcDbEntity
  8
L-CENTER
 48
2.0
100
AcDbLine
 10
650.6457778919744
 20
430.8145013649605
 30
0.0
 11
691.5455665222016
 21
407.2009937394332
 31
0.0
  0
LINE
  5
E8
330
15
100
AcDbEntity
  8
L-CENTER
 48
2.0
100
AcDbLine
 10
738.0384095846287
 20
442.2005444098932
 30
0.0
 11
778.9381974314051
 21
465.8140533923975
 31
0.0
  0
LINE
  5
E9
330
15
100
AcDbEntity
  8
L-CENTER
 48
2.0
100
AcDbLine
 10
934.822772953768
 20
442.2008461906485
 30
0.0
 11
893.9229831938201
 21
465.8143518594425
 31
0.0
  0
LINE
  5
EA
330
15
100
AcDbEntity
  8
L-CENTER
 48
2.0
100
AcDbLine
 10
650.6454291525984
 20
527.2009993306688
 30
0.0
 11
691.5452208451727
 21
550.8145016520557
 31
0.0
  0
LINE
  5
EB
330
15
100
AcDbEntity
  8
L-CENTER
 48
2.0
100
AcDbLine
 10
738.0382352140116
 20
555.8140522326821
 30
0.0
 11
778.9380267699878
 21
532.2005496747001
 31
0.0
  0
LINE
  5
EC
330
15
100
AcDbEntity
  8
L-CENTER
 48
2.0
100
AcDbLine
 10
934.8225987748972
 20
555.8143541573418
 30
0.0
 11
893.9228102180195
 21
532.200846404769
 31
0.0
  0
LINE
  5
ED
330
15
100
AcDbEntity
  8
4
100
AcDbLine
 10
1141.430500152598
 20
283.0074483306689
 30
0.0
 11
1251.430502152598
 21
283.0074483306689
 31
0.0
  0
LINE
  5
EE
330
15
100
AcDbEntity
  8
4
100
AcDbLine
 10
1131.430503152599
 20
278.0074463306687
 30
0.0
 11
1249.430504152598
 21
278.0074463306687
 31
0.0
  0
LINE
  5
EF
330
15
100
AcDbEntity
  8
4
100
AcDbLine
 10
1131.430503152599
 20
220.0074483306689
 30
0.0
 11
1249.430504152598
 21
220.0074483306689
 31
0.0
  0
LINE
  5
F0
330
15
100
AcDbEntity
  8
4
100
AcDbLine
 10
1116.730505152598
 20
159.0074533306688
 30
0.0
 11
1116.730505152598
 21
339.0074483306689
 31
0.0
  0
LINE
  5
F1
330
15
100
AcDbEntity
  8
4
100
AcDbLine
 10
1098.430501152598
 20
159.0074533306688
 30
0.0
 11
1098.430501152598
 21
339.0074483306689
 31
0.0
  0
LINE
  5
F2
330
15
100
AcDbEntity
  8
2
100
AcDbLine
 10
1098.730501152598
 20
159.0074533306688
 30
0.0
 11
1098.730501152598
 21
339.0074483306689
 31
0.0
  0
ARC
  5
F3
330
15
100
AcDbEntity
  8
4
100
AcDbCircle
 10
1068.430503152599
 20
249.007447330669
 30
0.0
 40
7.0
100
AcDbArc
 50
0.0
 51
90.0
  0
LINE
  5
F4
330
15
100
AcDbEntity
  8
4
100
AcDbLine
 10
1131.430503152599
 20
216.5074483306689
 30
0.0
 11
1131.430503152599
 21
281.5074463306687
 31
0.0
  0
LINE
  5
F5
330
15
100
AcDbEntity
  8
4
100
AcDbLine
 10
1117.730504152599
 20
294.007451330669
 30
0.0
 11
1117.730504152599
 21
204.0074503306691
 31
0.0
  0
LINE
  5
F6
330
15
100
AcDbEntity
  8
4
100
AcDbLine
 10
1116.730505152598
 20
159.0074533306688
 30
0.0
 11
1098.430501152598
 21
159.0074533306688
 31
0.0
  0
LINE
  5
F7
330
15
100
AcDbEntity
  8
4
100
AcDbLine
 10
1117.730504152599
 20
216.5074483306689
 30
0.0
 11
1131.430503152599
 21
216.5074483306689
 31
0.0
  0
LINE
  5
F8
330
15
100
AcDbEntity
  8
4
100
AcDbLine
 10
1141.430500152598
 20
283.0074483306689
 30
0.0
 11
1141.430500152598
 21
278.0074463306687
 31
0.0
  0
LINE
  5
F9
330
15
100
AcDbEntity
  8
4
100
AcDbLine
 10
1117.730504152599
 20
294.007451330669
 30
0.0
 11
1116.730505152598
 21
294.007451330669
 31
0.0
  0
LINE
  5
FA
330
15
100
AcDbEntity
  8
4
100
AcDbLine
 10
1117.730504152599
 20
281.5074463306687
 30
0.0
 11
1131.430503152599
 21
281.5074463306687
 31
0.0
  0
LINE
  5
FB
330
15
100
AcDbEntity
  8
4
100
AcDbLine
 10
1062.194420152598
 20
344.0074503306691
 30
0.0
 11
1093.430499152598
 21
344.0074503306691
 31
0.0
  0
LINE
  5
FC
330
15
100
AcDbEntity
  8
4
100
AcDbLine
 10
1060.368736152598
 20
339.0074483306689
 30
0.0
 11
1098.430501152598
 21
339.0074483306689
 31
0.0
  0
ARC
  5
FD
330
15
100
AcDbEntity
  8
4
100
AcDbCircle
 10
1062.194420152598
 20
352.0074493306688
 30
0.0
 40
7.999991999999999
100
AcDbArc
 50
160.3258239999976
 51
270.0
  0
ARC
  5
FE
330
15
100
AcDbEntity
  8
4
100
AcDbCircle
 10
1060.368736152598
 20
347.007447330669
 30
0.0
 40
8.000041
100
AcDbArc
 50
159.5591670000012
 51
270.0
  0
LINE
  5
FF
330
15
100
AcDbEntity
  8
4
100
AcDbLine
 10
1116.730505152598
 20
339.0074483306689
 30
0.0
 11
1098.430498152598
 21
339.0074483306689
 31
0.0
  0
LINE
  5
100
330
15
100
AcDbEntity
  8
4
100
AcDbLine
 10
1251.430502152598
 20
222.0074533306688
 30
0.0
 11
1251.430502152598
 21
283.0074483306689
 31
0.0
  0
LINE
  5
101
330
15
100
AcDbEntity
  8
4
100
AcDbLine
 10
1249.430504152598
 20
278.0074463306687
 30
0.0
 11
1249.430504152598
 21
220.0074483306689
 31
0.0
  0
LINE
  5
102
330
15
100
AcDbEntity
  8
4
100
AcDbLine
 10
1251.430502152598
 20
222.0074533306688
 30
0.0
 11
1249.430504152598
 21
220.0074483306689
 31
0.0
  0
LINE
  5
103
330
15
100
AcDbEntity
  8
4
100
AcDbLine
 10
1249.430504152598
 20
278.0074463306687
 30
0.0
 11
1251.430502152598
 21
276.0074483306689
 31
0.0
  0
LINE
  5
106
330
15
100
AcDbEntity
  8
4
100
AcDbLine
 10
687.4305061525979
 20
886.007447330669
 30
0.0
 11
717.4305041525981
 21
886.007447330669
 31
0.0
  0
ARC
  5
107
330
15
100
AcDbEntity
  8
4
100
AcDbCircle
 10
687.4305061525979
 20
966.0074443306689
 30
0.0
 40
9.999996999999999
100
AcDbArc
 50
0.0
 51
180.0
  0
LINE
  5
108
330
15
100
AcDbEntity
  8
4
100
AcDbLine
 10
708.3557951525986
 20
904.007443330669
 30
0.0
 11
709.9305081525986
 21
886.007447330669
 31
0.0
  0
ARC
  5
109
330
15
100
AcDbEntity
  8
4
100
AcDbCircle
 10
673.4305061525979
 20
894.0074463306687
 30
0.0
 40
4.000003
100
AcDbArc
 50
270.0
 51
0.0
  0
ARC
  5
10A
330
15
100
AcDbEntity
  8
4
100
AcDbCircle
 10
701.4305061525979
 20
894.0074463306687
 30
0.0
 40
4.000003
100
AcDbArc
 50
180.0
 51
270.0
  0
LINE
  5
10B
330
15
100
AcDbEntity
  8
4
100
AcDbLine
 10
666.5052101525985
 20
904.007443330669
 30
0.0
 11
664.9305041525981
 21
886.007447330669
 31
0.0
  0
LINE
  5
10C
330
15
100
AcDbEntity
  8
4
100
AcDbLine
 10
687.4305061525979
 20
886.007447330669
 30
0.0
 11
657.4305081525986
 21
886.007447330669
 31
0.0
  0
LINE
  5
10D
330
15
100
AcDbEntity
  8
4
100
AcDbLine
 10
657.4305081525986
 20
882.7570113306688
 30
0.0
 11
657.4305081525986
 21
886.007447330669
 31
0.0
  0
LINE
  5
10E
330
15
100
AcDbEntity
  8
4
100
AcDbLine
 10
677.4305021525984
 20
894.0074463306687
 30
0.0
 11
677.4305021525984
 21
966.0074443306689
 31
0.0
  0
LINE
  5
10F
330
15
100
AcDbEntity
  8
4
100
AcDbLine
 10
697.4305031525987
 20
894.0074463306687
 30
0.0
 11
697.4305031525987
 21
966.0074443306689
 31
0.0
  0
LINE
  5
110
330
15
100
AcDbEntity
  8
L-CENTER
 48
2.0
100
AcDbLine
 10
660.6117912488912
 20
931.0074443306689
 30
0.0
 11
714.2492210563046
 21
931.0074443306689
 31
0.0
  0
LINE
  5
111
330
15
100
AcDbEntity
  8
4
100
AcDbLine
 10
666.5052101525985
 20
904.007443330669
 30
0.0
 11
677.4305021525984
 21
904.007443330669
 31
0.0
  0
LINE
  5
112
330
15
100
AcDbEntity
  8
4
100
AcDbLine
 10
677.4305021525984
 20
905.0516333306691
 30
0.0
 11
666.5052101525985
 21
904.007443330669
 31
0.0
  0
LINE
  5
113
330
15
100
AcDbEntity
  8
4
100
AcDbLine
 10
697.4305031525987
 20
904.007443330669
 30
0.0
 11
708.3557951525986
 21
904.007443330669
 31
0.0
  0
LINE
  5
114
330
15
100
AcDbEntity
  8
4
100
AcDbLine
 10
697.4305031525987
 20
905.0516333306691
 30
0.0
 11
708.3557951525986
 21
904.007443330669
 31
0.0
  0
LINE
  5
115
330
15
100
AcDbEntity
  8
4
100
AcDbLine
 10
717.4305041525981
 20
882.7570113306688
 30
0.0
 11
717.4305041525981
 21
886.007447330669
 31
0.0
  0
ARC
  5
116
330
15
100
AcDbEntity
  8
4
100
AcDbCircle
 10
1029.575883152599
 20
839.9474543306687
 30
0.0
 40
9.999996999999999
100
AcDbArc
 50
17.30322399999971
 51
78.96179200000134
  0
LINE
  5
117
330
15
100
AcDbEntity
  8
4
100
AcDbLine
 10
2196.007916279057
 20
132.0074523306689
 30
0.0
 11
2196.007916279057
 21
876.007443330669
 31
0.0
  0
ARC
  5
118
330
15
100
AcDbEntity
  8
4
100
AcDbCircle
 10
9502.004327279057
 20
486.0074483306689
 30
0.0
 40
7599.999952999999
100
AcDbArc
 50
177.3761340000001
 51
182.624778
  0
LINE
  5
119
330
15
100
AcDbEntity
  8
4
100
AcDbLine
 10
2192.007913279057
 20
881.0074453306688
 30
0.0
 11
2192.007913279057
 21
144.007447330669
 31
0.0
  0
LINE
  5
11A
330
15
100
AcDbEntity
  8
4
100
AcDbLine
 10
2224.007916279057
 20
874.0074453306688
 30
0.0
 11
2224.007916279057
 21
124.0074533306688
 31
0.0
  0
LINE
  5
11B
330
15
100
AcDbEntity
  8
L-CENTER
 48
2.0
100
AcDbLine
 10
2007.007916279056
 20
356.2772183306693
 30
0.0
 11
2007.007916279056
 21
141.7376763306688
 31
0.0
  0
LINE
  5
11C
330
15
100
AcDbEntity
  8
4
100
AcDbLine
 10
1909.977759279056
 20
137.9672943306691
 30
0.0
 11
1909.977759279056
 21
834.007443330669
 31
0.0
  0
LINE
  5
11D
330
15
100
AcDbEntity
  8
L-CENTER
 48
2.0
100
AcDbLine
 10
2065.007914279057
 20
987.9813193306695
 30
0.0
 11
2065.007914279057
 21
53.43368214860584
 31
0.0
  0
LINE
  5
11E
330
15
100
AcDbEntity
  8
4
100
AcDbLine
 10
1914.007918279056
 20
124.0074533306688
 30
0.0
 11
1914.007918279056
 21
209.0575023306687
 31
0.0
  0
LINE
  5
11F
330
15
100
AcDbEntity
  8
4
100
AcDbLine
 10
1912.972758279057
 20
138.0074533306688
 30
0.0
 11
1912.972758279057
 21
221.2415833306691
 31
0.0
  0
ARC
  5
120
330
15
100
AcDbEntity
  8
4
100
AcDbCircle
 10
1933.007913279057
 20
155.8250783306689
 30
0.0
 40
4.999974
100
AcDbArc
 50
0.0
 51
79.47195000000592
  0
TEXT
  5
122
330
15
100
AcDbEntity
  8
3
100
AcDbText
 10
1322.846990579603
 20
54.56639979097145
 30
0.0
 40
24.0
  1
LD9-02
  7
KANJI
100
AcDbText
  0
LINE
  5
123
330
15
100
AcDbEntity
  8
4
100
AcDbLine
 10
2302.007915279056
 20
124.0074533306688
 30
0.0
 11
1828.007913279057
 21
124.0074533306688
 31
0.0
  0
LINE
  5
124
330
15
100
AcDbEntity
  8
4
100
AcDbLine
 10
2305.007912279056
 20
74.00744733066904
 30
0.0
 11
1825.007916279057
 21
74.00744733066904
 31
0.0
  0
LINE
  5
125
330
15
100
AcDbEntity
  8
4
100
AcDbLine
 10
1825.007916279057
 20
74.00744733066904
 30
0.0
 11
1825.007916279057
 21
121.0074493306688
 31
0.0
  0
ARC
  5
126
330
15
100
AcDbEntity
  8
4
100
AcDbCircle
 10
1828.007913279057
 20
121.0074493306688
 30
0.0
 40
2.999997
100
AcDbArc
 50
90.0
 51
180.0
  0
LINE
  5
127
330
15
100
AcDbEntity
  8
L-CENTER
 48
2.0
100
AcDbLine
 10
1875.007915279056
 20
49.00744733066904
 30
0.0
 11
1875.007915279056
 21
149.0074533306688
 31
0.0
  0
ARC
  5
128
330
15
100
AcDbEntity
  8
4
100
AcDbCircle
 10
1918.007914279057
 20
144.007447330669
 30
0.0
 40
20.000001
100
AcDbArc
 50
270.0006989999989
 51
0.0
  0
LINE
  5
129
330
15
100
AcDbEntity
  8
4
100
AcDbLine
 10
1914.007918279056
 20
138.0074533306688
 30
0.0
 11
1909.975918279056
 21
138.0074533306688
 31
0.0
  0
LINE
  5
12A
330
15
100
AcDbEntity
  8
4
100
AcDbLine
 10
1938.007915279057
 20
155.8250783306689
 30
0.0
 11
1938.007915279057
 21
144.007447330669
 31
0.0
  0
ARC
  5
12B
330
15
100
AcDbEntity
  8
4
100
AcDbCircle
 10
2212.007914279057
 20
144.007447330669
 30
0.0
 40
20.000001
100
AcDbArc
 50
180.0
 51
270.0006989999989
  0
LINE
  5
12C
330
15
100
AcDbEntity
  8
4
100
AcDbLine
 10
2305.007912279056
 20
74.00744733066904
 30
0.0
 11
2305.007912279056
 21
121.0074493306688
 31
0.0
  0
LINE
  5
12D
330
15
100
AcDbEntity
  8
L-CENTER
 48
2.0
100
AcDbLine
 10
2255.007913279057
 20
49.00744733066904
 30
0.0
 11
2255.007913279057
 21
149.0074533306688
 31
0.0
  0
LINE
  5
12E
330
15
100
AcDbEntity
  8
4
100
AcDbLine
 10
2242.007912279056
 20
124.0074533306688
 30
0.0
 11
2242.007912279056
 21
74.00744733066904
 31
0.0
  0
LINE
  5
12F
330
15
100
AcDbEntity
  8
4
100
AcDbLine
 10
2268.007914279057
 20
124.0074533306688
 30
0.0
 11
2268.007914279057
 21
74.00744733066904
 31
0.0
  0
ARC
  5
130
330
15
100
AcDbEntity
  8
4
100
AcDbCircle
 10
2213.278666279057
 20
80.17005133066914
 30
0.0
 40
7.616209999999999
100
AcDbArc
 50
305.987537999995
 51
30.25471399999766
  0
ARC
  5
131
330
15
100
AcDbEntity
  8
4
100
AcDbCircle
 10
2213.278666279057
 20
80.17005133066914
 30
0.0
 40
7.616209999999999
100
AcDbArc
 50
305.987537999995
 51
30.25471399999766
  0
ARC
  5
132
330
15
100
AcDbEntity
  8
4
100
AcDbCircle
 10
2221.692729279056
 20
120.1700463306688
 30
0.0
 40
7.616209999999999
100
AcDbArc
 50
305.9875319999977
 51
30.25471799999914
  0
ARC
  5
133
330
15
100
AcDbEntity
  8
4
100
AcDbCircle
 10
2221.692729279056
 20
120.1700463306688
 30
0.0
 40
7.616209999999999
100
AcDbArc
 50
305.9875319999977
 51
30.25471799999914
  0
ARC
  5
134
330
15
100
AcDbEntity
  8
4
100
AcDbCircle
 10
2217.485694279056
 20
100.1700453306689
 30
0.0
 40
7.616209999999999
100
AcDbArc
 50
305.987538000003
 51
30.25471399999988
  0
ARC
  5
135
330
15
100
AcDbEntity
  8
4
100
AcDbCircle
 10
2217.485694279056
 20
100.1700453306689
 30
0.0
 40
7.616209999999999
100
AcDbArc
 50
305.987538000003
 51
30.25471399999988
  0
ARC
  5
136
330
15
100
AcDbEntity
  8
4
100
AcDbCircle
 10
2226.436377279057
 20
87.84485133066892
 30
0.0
 40
7.616209999999999
100
AcDbArc
 50
125.9875430000022
 51
210.2547239999982
  0
ARC
  5
137
330
15
100
AcDbEntity
  8
4
100
AcDbCircle
 10
2226.436377279057
 20
87.84485133066892
 30
0.0
 40
7.616209999999999
100
AcDbArc
 50
125.9875430000022
 51
210.2547239999982
  0
ARC
  5
138
330
15
100
AcDbEntity
  8
4
100
AcDbCircle
 10
2230.643412279057
 20
107.8448523306688
 30
0.0
 40
7.616209999999999
100
AcDbArc
 50
125.9875430000022
 51
210.2547239999974
  0
ARC
  5
139
330
15
100
AcDbEntity
  8
4
100
AcDbCircle
 10
2230.643412279057
 20
107.8448523306688
 30
0.0
 40
7.616209999999999
100
AcDbArc
 50
125.9875430000022
 51
210.2547239999974
  0
ARC
  5
13A
330
15
100
AcDbEntity
  8
4
100
AcDbCircle
 10
2302.007915279056
 20
121.0074493306688
 30
0.0
 40
2.999997
100
AcDbArc
 50
0.0
 51
90.0
  0
LINE
  5
13B
330
15
100
AcDbEntity
  8
L-CENTER
 48
2.0
100
AcDbLine
 10
2266.50875615916
 20
479.0074483306689
 30
0.0
 11
1672.828959279057
 21
479.0074483306689
 31
0.0
  0
LINE
  5
13C
330
15
100
AcDbEntity
  8
4
100
AcDbLine
 10
1914.007918279056
 20
288.957399330669
 30
0.0
 11
1914.007918279056
 21
874.0074453306688
 31
0.0
  0
LINE
  5
13D
330
15
100
AcDbEntity
  8
4
100
AcDbLine
 10
1938.007915279057
 20
342.1898233306688
 30
0.0
 11
1938.007915279057
 21
881.0074453306688
 31
0.0
  0
ARC
  5
13E
330
15
100
AcDbEntity
  8
4
100
AcDbCircle
 10
2007.007916279056
 20
-60.99230566933102
 30
0.0
 40
400.000013
100
AcDbArc
 50
78.70689099999996
 51
101.2931849999999
  0
ARC
  5
13F
330
15
100
AcDbEntity
  8
4
100
AcDbCircle
 10
2007.007916279056
 20
559.0072073306687
 30
0.0
 40
399.999943
100
AcDbArc
 50
258.7073500000001
 51
281.2935410000001
  0
LINE
  5
140
330
15
100
AcDbEntity
  8
L-CENTER
 48
2.0
100
AcDbLine
 10
1899.738145279056
 20
249.007447330669
 30
0.0
 11
2114.277687279056
 21
249.007447330669
 31
0.0
  0
CIRCLE
  5
141
330
15
100
AcDbEntity
  8
L-CENTER
 48
2.0
100
AcDbCircle
 10
2007.007916279056
 20
249.007447330669
 30
0.0
 40
87.5
  0
LINE
  5
142
330
15
100
AcDbEntity
  8
L-CENTER
 48
2.0
100
AcDbLine
 10
1929.26443238002
 20
171.263970431633
 30
0.0
 11
1961.007706470446
 21
203.0072445220585
 31
0.0
  0
LINE
  5
143
330
15
100
AcDbEntity
  8
L-CENTER
 48
2.0
100
AcDbLine
 10
1929.26443588002
 20
326.7509277297049
 30
0.0
 11
1961.007709970445
 21
295.0076536392794
 31
0.0
  0
LINE
  5
144
330
15
100
AcDbEntity
  8
4
100
AcDbLine
 10
1893.007918279056
 20
339.0074483306689
 30
0.0
 11
1893.007918279056
 21
619.0074483306689
 31
0.0
  0
LINE
  5
145
330
15
100
AcDbEntity
  8
2
100
AcDbLine
 10
1892.707918279056
 20
339.0074483306689
 30
0.0
 11
1892.707918279056
 21
619.0074483306689
 31
0.0
  0
LINE
  5
146
330
15
100
AcDbEntity
  8
4
100
AcDbLine
 10
1878.107912279056
 20
618.0074483306689
 30
0.0
 11
1878.107912279056
 21
340.0074483306689
 31
0.0
  0
ARC
  5
147
330
15
100
AcDbEntity
  8
4
100
AcDbCircle
 10
2317.007914279057
 20
249.007447330669
 30
0.0
 40
399.999985
100
AcDbArc
 50
168.707247
 51
191.2931499999999
  0
ARC
  5
148
330
15
100
AcDbEntity
  8
4
100
AcDbCircle
 10
2312.007912279056
 20
249.007447330669
 30
0.0
 40
400.000069
100
AcDbArc
 50
168.092994
 51
191.9075409999999
  0
ARC
  5
149
330
15
100
AcDbEntity
  8
4
100
AcDbCircle
 10
1925.507427279056
 20
167.5067203306689
 30
0.0
 40
4.999939
100
AcDbArc
 50
191.9085390000007
 51
258.091461000005
  0
ARC
  5
14A
330
15
100
AcDbEntity
  8
4
100
AcDbCircle
 10
1929.655865279056
 20
171.6551583306687
 30
0.0
 40
4.999910999999999
100
AcDbArc
 50
191.2945689999995
 51
258.7054310000055
  0
ARC
  5
14B
330
15
100
AcDbEntity
  8
4
100
AcDbCircle
 10
2007.007750396293
 20
554.0063944937847
 30
0.0
 40
399.9991223837034
100
AcDbArc
 50
258.0930282865401
 51
281.9074510154804
  0
LINE
  5
14C
330
15
100
AcDbEntity
  8
L-CENTER
 48
2.0
100
AcDbLine
 10
1920.363309279056
 20
286.0074523306689
 30
0.0
 11
1888.985410279056
 21
286.0074523306689
 31
0.0
  0
LINE
  5
14D
330
15
100
AcDbEntity
  8
4
100
AcDbLine
 10
1902.633401279056
 20
306.0074463306687
 30
0.0
 11
1902.633401279056
 21
266.007451330669
 31
0.0
  0
LINE
  5
14E
330
15
100
AcDbEntity
  8
4
100
AcDbLine
 10
1894.133406279056
 20
268.0074493306688
 30
0.0
 11
1894.133406279056
 21
304.0074483306689
 31
0.0
  0
LINE
  5
14F
330
15
100
AcDbEntity
  8
4
100
AcDbLine
 10
1902.633401279056
 20
269.0074483306689
 30
0.0
 11
1902.633401279056
 21
303.0074493306688
 31
0.0
  0
LINE
  5
150
330
15
100
AcDbEntity
  8
4
100
AcDbLine
 10
1901.133406279056
 20
268.0074493306688
 30
0.0
 11
1901.133406279056
 21
304.0074483306689
 31
0.0
  0
LINE
  5
151
330
15
100
AcDbEntity
  8
4
100
AcDbLine
 10
1899.133401279056
 20
268.0074493306688
 30
0.0
 11
1899.133401279056
 21
304.0074483306689
 31
0.0
  0
LINE
  5
152
330
15
100
AcDbEntity
  8
4
100
AcDbLine
 10
1899.133401279056
 20
277.007447330669
 30
0.0
 11
1894.133406279056
 21
277.007447330669
 31
0.0
  0
LINE
  5
153
330
15
100
AcDbEntity
  8
4
100
AcDbLine
 10
1901.133406279056
 20
268.0074493306688
 30
0.0
 11
1894.133406279056
 21
268.0074493306688
 31
0.0
  0
LINE
  5
154
330
15
100
AcDbEntity
  8
4
100
AcDbLine
 10
1905.189248279056
 20
266.007451330669
 30
0.0
 11
1902.633401279056
 21
266.007451330669
 31
0.0
  0
LINE
  5
155
330
15
100
AcDbEntity
  8
4
100
AcDbLine
 10
1901.133406279056
 20
269.0074483306689
 30
0.0
 11
1902.633401279056
 21
269.0074483306689
 31
0.0
  0
LINE
  5
156
330
15
100
AcDbEntity
  8
4
100
AcDbLine
 10
1899.133401279056
 20
295.0074503306691
 30
0.0
 11
1894.133406279056
 21
295.0074503306691
 31
0.0
  0
LINE
  5
157
330
15
100
AcDbEntity
  8
4
100
AcDbLine
 10
1901.133406279056
 20
304.0074483306689
 30
0.0
 11
1894.133406279056
 21
304.0074483306689
 31
0.0
  0
LINE
  5
158
330
15
100
AcDbEntity
  8
4
100
AcDbLine
 10
1902.633401279056
 20
306.0074463306687
 30
0.0
 11
1904.136245279057
 21
306.0074463306687
 31
0.0
  0
LINE
  5
159
330
15
100
AcDbEntity
  8
4
100
AcDbLine
 10
1902.633401279056
 20
303.0074493306688
 30
0.0
 11
1901.133406279056
 21
303.0074493306688
 31
0.0
  0
LINE
  5
15A
330
15
100
AcDbEntity
  8
4
100
AcDbLine
 10
1879.107912279056
 20
339.0074483306689
 30
0.0
 11
1893.007918279056
 21
339.0074483306689
 31
0.0
  0
LINE
  5
15B
330
15
100
AcDbEntity
  8
4
100
AcDbLine
 10
1879.107912279056
 20
389.007447330669
 30
0.0
 11
1893.007918279056
 21
389.007447330669
 31
0.0
  0
ARC
  5
15C
330
15
100
AcDbEntity
  8
4
100
AcDbCircle
 10
1925.507427279056
 20
330.5081813306692
 30
0.0
 40
4.999939
100
AcDbArc
 50
101.908538999995
 51
168.0914610000055
  0
LINE
  5
15D
330
15
100
AcDbEntity
  8
4
100
AcDbLine
 10
1903.426144279056
 20
339.0074483306689
 30
0.0
 11
1893.007918279056
 21
339.0074483306689
 31
0.0
  0
ARC
  5
15E
330
15
100
AcDbEntity
  8
4
100
AcDbCircle
 10
1933.007913279057
 20
342.1898233306688
 30
0.0
 40
4.999974
100
AcDbArc
 50
280.5280519999891
 51
0.0
  0
ARC
  5
15F
330
15
100
AcDbEntity
  8
4
100
AcDbCircle
 10
1929.655865279056
 20
326.3597433306691
 30
0.0
 40
4.999910999999999
100
AcDbArc
 50
101.2945689999944
 51
168.7054310000005
  0
ARC
  5
160
330
15
100
AcDbEntity
  8
4
100
AcDbCircle
 10
2007.007648618144
 20
-55.99099539749614
 30
0.0
 40
399.9986566525608
100
AcDbArc
 50
78.09252001788643
 51
101.9074731511712
  0
LINE
  5
161
330
15
100
AcDbEntity
  8
4
100
AcDbLine
 10
1893.007918279056
 20
389.007447330669
 30
0.0
 11
1902.623405279056
 21
389.007447330669
 31
0.0
  0
LINE
  5
162
330
15
100
AcDbEntity
  8
4
100
AcDbLine
 10
1879.107912279056
 20
609.0074443306689
 30
0.0
 11
1893.007918279056
 21
609.0074443306689
 31
0.0
  0
LINE
  5
163
330
15
100
AcDbEntity
  8
4
100
AcDbLine
 10
1879.107912279056
 20
619.0074483306689
 30
0.0
 11
1893.007918279056
 21
619.0074483306689
 31
0.0
  0
LINE
  5
164
330
15
100
AcDbEntity
  8
4
100
AcDbLine
 10
1903.168208279056
 20
619.0074483306689
 30
0.0
 11
1893.007918279056
 21
619.0074483306689
 31
0.0
  0
LINE
  5
165
330
15
100
AcDbEntity
  8
4
100
AcDbLine
 10
1902.999760279056
 20
609.0074443306689
 30
0.0
 11
1893.007918279056
 21
609.0074443306689
 31
0.0
  0
LINE
  5
166
330
15
100
AcDbEntity
  8
4
100
AcDbLine
 10
2237.007910279056
 20
339.0074483306689
 30
0.0
 11
2237.007910279056
 21
619.0074483306689
 31
0.0
  0
LINE
  5
167
330
15
100
AcDbEntity
  8
2
100
AcDbLine
 10
2237.307910279057
 20
339.0074483306689
 30
0.0
 11
2237.307910279057
 21
619.0074483306689
 31
0.0
  0
ARC
  5
168
330
15
100
AcDbEntity
  8
4
100
AcDbCircle
 10
-5371.988869720944
 20
486.0074483306689
 30
0.0
 40
7599.999925
100
AcDbArc
 50
358.1402670000001
 51
1.859732999999974
  0
LINE
  5
169
330
15
100
AcDbEntity
  8
4
100
AcDbLine
 10
2251.907916279057
 20
340.0074483306689
 30
0.0
 11
2251.907916279057
 21
618.0074483306689
 31
0.0
  0
ARC
  5
16F
330
15
100
AcDbEntity
  8
4
100
AcDbCircle
 10
1697.007918279056
 20
249.007447330669
 30
0.0
 40
399.999894
100
AcDbArc
 50
348.7075629999999
 51
11.29315000000009
  0
LINE
  5
170
330
15
100
AcDbEntity
  8
L-CENTER
 48
2.0
100
AcDbLine
 10
2053.008119510408
 20
295.0076567165374
 30
0.0
 11
2084.751397355828
 21
326.7509270519677
 31
0.0
  0
LINE
  5
171
330
15
100
AcDbEntity
  8
L-CENTER
 48
2.0
100
AcDbLine
 10
2053.008122587667
 20
203.0072410220591
 30
0.0
 11
2084.751396678092
 21
171.2639669316336
 31
0.0
  0
CIRCLE
  5
172
330
15
100
AcDbEntity
  8
4
100
AcDbCircle
 10
2007.007916279056
 20
249.007447330669
 30
0.0
 40
44.999997
  0
ARC
  5
173
330
15
100
AcDbEntity
  8
4
100
AcDbCircle
 10
2007.007916279056
 20
249.007447330669
 30
0.0
 40
29.000034
100
AcDbArc
 50
104.988214999998
 51
75.01178499999833
  0
LINE
  5
174
330
15
100
AcDbEntity
  8
4
100
AcDbLine
 10
1999.507913279057
 20
283.0074483306689
 30
0.0
 11
1999.507913279057
 21
273.007451330669
 31
0.0
  0
LINE
  5
175
330
15
100
AcDbEntity
  8
4
100
AcDbLine
 10
2014.507912279056
 20
273.007451330669
 30
0.0
 11
2014.507912279056
 21
283.0074483306689
 31
0.0
  0
LINE
  5
176
330
15
100
AcDbEntity
  8
4
100
AcDbLine
 10
2014.507912279056
 20
273.007451330669
 30
0.0
 11
1999.507913279057
 21
273.007451330669
 31
0.0
  0
LINE
  5
177
330
15
100
AcDbEntity
  8
4
100
AcDbLine
 10
2014.507912279056
 20
283.0074483306689
 30
0.0
 11
1999.507913279057
 21
283.0074483306689
 31
0.0
  0
ARC
  5
178
330
15
100
AcDbEntity
  8
4
100
AcDbCircle
 10
2084.359967279056
 20
171.6551583306687
 30
0.0
 40
4.999910999999999
100
AcDbArc
 50
281.2945689999945
 51
348.7054310000055
  0
ARC
  5
179
330
15
100
AcDbEntity
  8
4
100
AcDbCircle
 10
2084.359967279056
 20
326.3597433306691
 30
0.0
 40
4.999910999999999
100
AcDbArc
 50
11.29456899999443
 51
78.70543100000558
  0
LINE
  5
17B
330
15
100
AcDbEntity
  8
4
100
AcDbLine
 10
2226.589285279057
 20
339.0074483306689
 30
0.0
 11
2237.007910279056
 21
339.0074483306689
 31
0.0
  0
LINE
  5
17C
330
15
100
AcDbEntity
  8
4
100
AcDbLine
 10
2250.907916279057
 20
339.0074483306689
 30
0.0
 11
2237.007910279056
 21
339.0074483306689
 31
0.0
  0
LINE
  5
17D
330
15
100
AcDbEntity
  8
4
100
AcDbLine
 10
2237.007910279056
 20
389.007447330669
 30
0.0
 11
2227.392024279056
 21
389.007447330669
 31
0.0
  0
LINE
  5
17E
330
15
100
AcDbEntity
  8
4
100
AcDbLine
 10
2250.907916279057
 20
389.007447330669
 30
0.0
 11
2237.007910279056
 21
389.007447330669
 31
0.0
  0
LINE
  5
180
330
15
100
AcDbEntity
  8
4
100
AcDbLine
 10
2252.907915279056
 20
409.0074483306689
 30
0.0
 11
2251.907916279057
 21
409.0074483306689
 31
0.0
  0
LINE
  5
186
330
15
100
AcDbEntity
  8
4
100
AcDbLine
 10
2227.015669279056
 20
609.0074443306689
 30
0.0
 11
2237.007910279056
 21
609.0074443306689
 31
0.0
  0
LINE
  5
187
330
15
100
AcDbEntity
  8
4
100
AcDbLine
 10
2226.847221279057
 20
619.0074483306689
 30
0.0
 11
2237.007910279056
 21
619.0074483306689
 31
0.0
  0
LINE
  5
188
330
15
100
AcDbEntity
  8
4
100
AcDbLine
 10
2250.907916279057
 20
609.0074443306689
 30
0.0
 11
2237.007910279056
 21
609.0074443306689
 31
0.0
  0
LINE
  5
189
330
15
100
AcDbEntity
  8
4
100
AcDbLine
 10
2250.907916279057
 20
619.0074483306689
 30
0.0
 11
2237.007910279056
 21
619.0074483306689
 31
0.0
  0
LINE
  5
18B
330
15
100
AcDbEntity
  8
4
100
AcDbLine
 10
2190.007915279056
 20
883.007443330669
 30
0.0
 11
1940.007913279057
 21
883.007443330669
 31
0.0
  0
LINE
  5
18C
330
15
100
AcDbEntity
  8
4
100
AcDbLine
 10
1909.975918279056
 20
834.007443330669
 30
0.0
 11
1914.007918279056
 21
834.007443330669
 31
0.0
  0
LINE
  5
18D
330
15
100
AcDbEntity
  8
4
100
AcDbLine
 10
1916.007916279057
 20
876.007443330669
 30
0.0
 11
1938.007915279057
 21
876.007443330669
 31
0.0
  0
ARC
  5
18E
330
15
100
AcDbEntity
  8
4
100
AcDbCircle
 10
1916.007916279057
 20
874.0074453306688
 30
0.0
 40
1.999998
100
AcDbArc
 50
90.0
 51
180.0
  0
ARC
  5
18F
330
15
100
AcDbEntity
  8
4
100
AcDbCircle
 10
1940.007913279057
 20
881.0074453306688
 30
0.0
 40
1.999998
100
AcDbArc
 50
90.0
 51
180.0
  0
LINE
  5
190
330
15
100
AcDbEntity
  8
4
100
AcDbLine
 10
2222.007911279056
 20
876.007443330669
 30
0.0
 11
2196.007916279057
 21
876.007443330669
 31
0.0
  0
ARC
  5
191
330
15
100
AcDbEntity
  8
4
100
AcDbCircle
 10
2065.007914279057
 20
931.0074443306689
 30
0.0
 40
45.000025
100
AcDbArc
 50
299.2650449999991
 51
240.7363439999996
  0
LINE
  5
192
330
15
100
AcDbEntity
  8
4
100
AcDbLine
 10
2123.007912279056
 20
886.007447330669
 30
0.0
 11
2007.007916279056
 21
886.007447330669
 31
0.0
  0
LINE
  5
193
330
15
100
AcDbEntity
  8
L-CENTER
 48
2.0
100
AcDbLine
 10
2008.034039279056
 20
931.0074443306689
 30
0.0
 11
2121.981789279057
 21
931.0074443306689
 31
0.0
  0
CIRCLE
  5
194
330
15
100
AcDbEntity
  8
4
100
AcDbCircle
 10
2065.007914279057
 20
931.0074443306689
 30
0.0
 40
25.000003
  0
LINE
  5
195
330
15
100
AcDbEntity
  8
4
100
AcDbLine
 10
2085.933448279057
 20
904.007443330669
 30
0.0
 11
2044.082863279057
 21
904.007443330669
 31
0.0
  0
LINE
  5
196
330
15
100
AcDbEntity
  8
4
100
AcDbLine
 10
2065.007914279057
 20
906.0074483306689
 30
0.0
 11
2085.933448279057
 21
904.007443330669
 31
0.0
  0
LINE
  5
197
330
15
100
AcDbEntity
  8
4
100
AcDbLine
 10
2043.007915279056
 20
886.007447330669
 30
0.0
 11
2087.007913279057
 21
886.007447330669
 31
0.0
  0
LINE
  5
198
330
15
100
AcDbEntity
  8
4
100
AcDbLine
 10
2087.007913279057
 20
886.007447330669
 30
0.0
 11
2043.007915279056
 21
886.007447330669
 31
0.0
  0
LINE
  5
199
330
15
100
AcDbEntity
  8
4
100
AcDbLine
 10
2044.082863279057
 20
904.007443330669
 30
0.0
 11
2042.507912279056
 21
886.007447330669
 31
0.0
  0
LINE
  5
19A
330
15
100
AcDbEntity
  8
4
100
AcDbLine
 10
2007.007916279056
 20
883.007443330669
 30
0.0
 11
2007.007916279056
 21
886.007447330669
 31
0.0
  0
LINE
  5
19B
330
15
100
AcDbEntity
  8
4
100
AcDbLine
 10
2042.007916279057
 20
888.0074453306688
 30
0.0
 11
2042.007916279057
 21
892.0074483306689
 31
0.0
  0
LINE
  5
19C
330
15
100
AcDbEntity
  8
4
100
AcDbLine
 10
2042.007916279057
 20
888.0074453306688
 30
0.0
 11
2042.682961279056
 21
888.0074453306688
 31
0.0
  0
LINE
  5
19D
330
15
100
AcDbEntity
  8
4
100
AcDbLine
 10
2042.007916279057
 20
892.0074483306689
 30
0.0
 11
2042.557962279056
 21
892.0074483306689
 31
0.0
  0
LINE
  5
19E
330
15
100
AcDbEntity
  8
4
100
AcDbLine
 10
2044.082863279057
 20
904.007443330669
 30
0.0
 11
2065.007914279057
 21
906.0074483306689
 31
0.0
  0
LINE
  5
19F
330
15
100
AcDbEntity
  8
4
100
AcDbLine
 10
2085.933448279057
 20
904.007443330669
 30
0.0
 11
2087.508161279057
 21
886.007447330669
 31
0.0
  0
LINE
  5
1A0
330
15
100
AcDbEntity
  8
4
100
AcDbLine
 10
2088.007912279056
 20
888.0074453306688
 30
0.0
 11
2088.007912279056
 21
892.0074483306689
 31
0.0
  0
LINE
  5
1A1
330
15
100
AcDbEntity
  8
4
100
AcDbLine
 10
2087.333112279056
 20
888.0074453306688
 30
0.0
 11
2088.007912279056
 21
888.0074453306688
 31
0.0
  0
LINE
  5
1A2
330
15
100
AcDbEntity
  8
4
100
AcDbLine
 10
2087.457866279056
 20
892.0074483306689
 30
0.0
 11
2088.007912279056
 21
892.0074483306689
 31
0.0
  0
LINE
  5
1A3
330
15
100
AcDbEntity
  8
4
100
AcDbLine
 10
2123.007912279056
 20
883.007443330669
 30
0.0
 11
2123.007912279056
 21
886.007447330669
 31
0.0
  0
LINE
  5
1A4
330
15
100
AcDbEntity
  8
4
100
AcDbLine
 10
2192.007913279057
 20
876.007443330669
 30
0.0
 11
2196.007916279057
 21
876.007443330669
 31
0.0
  0
ARC
  5
1A5
330
15
100
AcDbEntity
  8
4
100
AcDbCircle
 10
2190.007915279056
 20
881.0074453306688
 30
0.0
 40
1.999998
100
AcDbArc
 50
0.0
 51
90.0
  0
ARC
  5
1A6
330
15
100
AcDbEntity
  8
4
100
AcDbCircle
 10
2222.007911279056
 20
874.0074453306688
 30
0.0
 40
1.999998
100
AcDbArc
 50
0.0
 51
90.0
  0
LINE
  5
1A9
330
15
100
AcDbEntity
  8
L-CENTER
 48
2.0
100
AcDbLine
 10
267.1624755704752
 20
1791.13889759391
 30
0.0
 11
1107.698536734721
 21
1791.13889759391
 31
0.0
  0
LINE
  5
1AA
330
15
100
AcDbEntity
  8
4
100
AcDbLine
 10
297.4305061525979
 20
1922.13889759391
 30
0.0
 11
1077.430506152598
 21
1922.13889759391
 31
0.0
  0
LINE
  5
1AB
330
15
100
AcDbEntity
  8
4
100
AcDbLine
 10
426.8405061525982
 20
1619.13889759391
 30
0.0
 11
706.8405061525978
 21
1619.13889759391
 31
0.0
  0
ARC
  5
1AC
330
15
100
AcDbEntity
  8
4
100
AcDbCircle
 10
687.4305061525979
 20
9228.167348541652
 30
0.0
 40
7600.0
100
AcDbArc
 50
267.375538758927
 51
272.624461241073
  0
LINE
  5
1AD
330
15
100
AcDbEntity
  8
4
100
AcDbLine
 10
281.4305061525984
 20
1566.13889759391
 30
0.0
 11
281.4305061525974
 21
2016.13889759391
 31
0.0
  0
LINE
  5
1AE
330
15
100
AcDbEntity
  8
4
100
AcDbLine
 10
276.4305061525984
 20
1643.13889759391
 30
0.0
 11
276.4305061525984
 21
1823.13889759391
 31
0.0
  0
LINE
  5
1AF
330
15
100
AcDbEntity
  8
2
100
AcDbLine
 10
276.1305061525984
 20
1643.13889759391
 30
0.0
 11
276.1305061525984
 21
1823.13889759391
 31
0.0
  0
LINE
  5
1B0
330
15
100
AcDbEntity
  8
4
100
AcDbLine
 10
297.4305061525984
 20
1662.13889759391
 30
0.0
 11
297.4305061525984
 21
1642.138897593909
 31
0.0
  0
ARC
  5
1B1
330
15
100
AcDbEntity
  8
4
100
AcDbCircle
 10
687.4305061525979
 20
9228.167348541652
 30
0.0
 40
7604.0
100
AcDbArc
 50
267.3769202932932
 51
272.6230797067068
  0
LINE
  5
1B2
330
15
100
AcDbEntity
  8
4
100
AcDbLine
 10
473.7389575974507
 20
1551.13889759391
 30
0.0
 11
296.4305061525984
 21
1551.13889759391
 31
0.0
  0
LINE
  5
1B3
330
15
100
AcDbEntity
  8
L-CENTER
 48
2.0
100
AcDbLine
 10
402.4305061525974
 20
1601.13889759391
 30
0.0
 11
332.4305061525974
 21
1601.13889759391
 31
0.0
  0
ARC
  5
1B4
330
15
100
AcDbEntity
  8
4
100
AcDbCircle
 10
296.4305061525984
 20
1566.13889759391
 30
0.0
 40
15.0
100
AcDbArc
 50
180.0
 51
270.0
  0
LINE
  5
1B5
330
15
100
AcDbEntity
  8
4
100
AcDbLine
 10
299.4305061525984
 20
1640.138897593909
 30
0.0
 11
1075.430506152598
 21
1640.138897593909
 31
0.0
  0
LINE
  5
1B6
330
15
100
AcDbEntity
  8
4
100
AcDbLine
 10
281.4305061525984
 20
1638.138897593908
 30
0.0
 11
339.2589332773287
 21
1638.138897593909
 31
0.0
  0
LINE
  5
1B7
330
15
100
AcDbEntity
  8
4
100
AcDbLine
 10
301.4305061525984
 20
1601.13889759391
 30
0.0
 11
301.4305061525984
 21
1635.138897593908
 31
0.0
  0
LINE
  5
1B8
330
15
100
AcDbEntity
  8
4
100
AcDbLine
 10
304.4305061525984
 20
1601.13889759391
 30
0.0
 11
304.4305061525984
 21
1635.138897593909
 31
0.0
  0
LINE
  5
1B9
330
15
100
AcDbEntity
  8
4
100
AcDbLine
 10
304.4305061525984
 20
1601.13889759391
 30
0.0
 11
281.4305061525984
 21
1601.13889759391
 31
0.0
  0
ARC
  5
1BA
330
15
100
AcDbEntity
  8
4
100
AcDbCircle
 10
304.4305061525984
 20
1635.138897593908
 30
0.0
 40
3.0
100
AcDbArc
 50
90.0
 51
180.0
  0
ARC
  5
1BB
330
15
100
AcDbEntity
  8
4
100
AcDbCircle
 10
299.4305061525984
 20
1642.138897593909
 30
0.0
 40
2.0
100
AcDbArc
 50
180.0
 51
270.0
  0
LINE
  5
1BC
330
15
100
AcDbEntity
  8
4
100
AcDbLine
 10
276.4305061525984
 20
1643.13889759391
 30
0.0
 11
281.4305061525974
 21
1638.13889759391
 31
0.0
  0
ARC
  5
1BD
330
15
100
AcDbEntity
  8
4
100
AcDbCircle
 10
307.4305061525984
 20
1635.138897593909
 30
0.0
 40
3.0
100
AcDbArc
 50
90.0
 51
180.0
  0
LINE
  5
1BE
330
15
100
AcDbEntity
  8
L-CENTER
 48
2.0
100
AcDbLine
 10
367.4305061525974
 20
1566.13889759391
 30
0.0
 11
367.4305061525965
 21
1636.13889759391
 31
0.0
  0
CIRCLE
  5
1BF
330
15
100
AcDbEntity
  8
4
100
AcDbCircle
 10
367.4305061525974
 20
1601.13889759391
 30
0.0
 40
13.0
  0
LINE
  5
1C0
330
15
100
AcDbEntity
  8
4
100
AcDbLine
 10
339.4305061525984
 20
1637.138897593909
 30
0.0
 11
339.4305061525984
 21
1632.134699849311
 31
0.0
  0
ARC
  5
1C1
330
15
100
AcDbEntity
  8
4
100
AcDbCircle
 10
336.4305061525984
 20
1637.138897593909
 30
0.0
 40
3.0
100
AcDbArc
 50
0.0
 51
90.0
  0
LINE
  5
1C2
330
15
100
AcDbEntity
  8
4
100
AcDbLine
 10
495.5278512853413
 20
1604.23889759391
 30
0.0
 11
483.4041403833658
 21
1558.572919863136
 31
0.0
  0
ARC
  5
1C3
330
15
100
AcDbEntity
  8
4
100
AcDbCircle
 10
473.7389575974507
 20
1561.13889759391
 30
0.0
 40
10.0
100
AcDbArc
 50
270.0
 51
345.1317186415046
  0
ARC
  5
1C4
330
15
100
AcDbEntity
  8
4
100
AcDbCircle
 10
421.8405061525982
 20
1623.803933245144
 30
0.0
 40
5.0
100
AcDbArc
 50
0.0
 51
87.99970065370903
  0
LINE
  5
1C5
330
15
100
AcDbEntity
  8
4
100
AcDbLine
 10
426.8405061525982
 20
1619.13889759391
 30
0.0
 11
426.8405061525982
 21
1623.803933245144
 31
0.0
  0
ARC
  5
1C6
330
15
100
AcDbEntity
  8
4
100
AcDbCircle
 10
295.4305061525984
 20
1662.13889759391
 30
0.0
 40
2.0
100
AcDbArc
 50
0.0
 51
90.0
  0
LINE
  5
1C7
330
15
100
AcDbEntity
  8
4
100
AcDbLine
 10
283.4305061525984
 20
1664.138897593909
 30
0.0
 11
1091.430506152598
 21
1664.138897593939
 31
0.0
  0
ARC
  5
1C8
330
15
100
AcDbEntity
  8
4
100
AcDbCircle
 10
283.4305061525984
 20
1666.138897593909
 30
0.0
 40
2.0
100
AcDbArc
 50
180.0
 51
270.0
  0
LINE
  5
1C9
330
15
100
AcDbEntity
  8
4
100
AcDbLine
 10
304.4305061525974
 20
1950.43889759391
 30
0.0
 11
304.4305061525974
 21
1981.13889759391
 31
0.0
  0
LINE
  5
1CA
330
15
100
AcDbEntity
  8
4
100
AcDbLine
 10
301.4305061525974
 20
1950.43889759391
 30
0.0
 11
301.4305061525974
 21
1981.13889759391
 31
0.0
  0
CIRCLE
  5
1CB
330
15
100
AcDbEntity
  8
4
100
AcDbCircle
 10
367.4305061525974
 20
1981.13889759391
 30
0.0
 40
13.0
  0
LINE
  5
1CC
330
15
100
AcDbEntity
  8
L-CENTER
 48
2.0
100
AcDbLine
 10
367.4305061525974
 20
2016.13889759391
 30
0.0
 11
367.4305061525965
 21
1946.13889759391
 31
0.0
  0
LINE
  5
1CD
330
15
100
AcDbEntity
  8
4
100
AcDbLine
 10
484.3909574987488
 20
2019.987864190072
 30
0.0
 11
495.4482052676412
 21
1978.338897593911
 31
0.0
  0
LINE
  5
1CE
330
15
100
AcDbEntity
  8
4
100
AcDbLine
 10
276.4305061525984
 20
1823.13889759391
 30
0.0
 11
281.4305061525974
 21
1828.13889759391
 31
0.0
  0
ARC
  5
1CF
330
15
100
AcDbEntity
  8
4
100
AcDbCircle
 10
283.4305061525984
 20
1916.13889759391
 30
0.0
 40
2.0
100
AcDbArc
 50
90.0
 51
180.0
  0
LINE
  5
1D0
330
15
100
AcDbEntity
  8
4
100
AcDbLine
 10
283.4305061525984
 20
1918.13889759391
 30
0.0
 11
1091.430506152598
 21
1918.13889759391
 31
0.0
  0
LINE
  5
1D1
330
15
100
AcDbEntity
  8
4
100
AcDbLine
 10
296.4305061525974
 20
2031.13889759391
 30
0.0
 11
469.8931833198753
 21
2031.13889759391
 31
0.0
  0
LINE
  5
1D2
330
15
100
AcDbEntity
  8
L-CENTER
 48
2.0
100
AcDbLine
 10
402.4305061525974
 20
1981.13889759391
 30
0.0
 11
332.4305061525974
 21
1981.13889759391
 31
0.0
  0
LINE
  5
1D3
330
15
100
AcDbEntity
  8
4
100
AcDbLine
 10
304.4305061525974
 20
1981.13889759391
 30
0.0
 11
281.4305061525974
 21
1981.138897593909
 31
0.0
  0
ARC
  5
1D4
330
15
100
AcDbEntity
  8
4
100
AcDbCircle
 10
296.4305061525974
 20
2016.13889759391
 30
0.0
 40
15.0
100
AcDbArc
 50
90.0
 51
180.0
  0
ARC
  5
1D5
330
15
100
AcDbEntity
  8
4
100
AcDbCircle
 10
469.8931833198753
 20
2016.13889759391
 30
0.0
 40
15.0
100
AcDbArc
 50
14.86828135850259
 51
90.0
  0
LINE
  5
1D6
330
15
100
AcDbEntity
  8
L-CENTER
 48
2.0
100
AcDbLine
 10
972.4305061525997
 20
1981.13889759391
 30
0.0
 11
1042.4305061526
 21
1981.13889759391
 31
0.0
  0
CIRCLE
  5
1D7
330
15
100
AcDbEntity
  8
4
100
AcDbCircle
 10
1007.4305061526
 20
1981.13889759391
 30
0.0
 40
13.0
  0
LINE
  5
1D8
330
15
100
AcDbEntity
  8
4
100
AcDbLine
 10
1078.430506152598
 20
2031.13889759391
 30
0.0
 11
904.9678289853205
 21
2031.13889759391
 31
0.0
  0
CIRCLE
  5
1D9
330
15
100
AcDbEntity
  8
4
100
AcDbCircle
 10
1007.4305061526
 20
1601.13889759391
 30
0.0
 40
13.0
  0
LINE
  5
1DA
330
15
100
AcDbEntity
  8
L-CENTER
 48
2.0
100
AcDbLine
 10
972.4305061525997
 20
1601.13889759391
 30
0.0
 11
1042.4305061526
 21
1601.13889759391
 31
0.0
  0
LINE
  5
1DB
330
15
100
AcDbEntity
  8
4
100
AcDbLine
 10
901.1220547077469
 20
1551.13889759391
 30
0.0
 11
1078.430506152598
 21
1551.13889759391
 31
0.0
  0
LINE
  5
1DC
330
15
100
AcDbEntity
  8
L-CENTER
 48
2.0
100
AcDbLine
 10
687.4305061525979
 20
1969.707628222564
 30
0.0
 11
687.4305061525979
 21
1612.570166965255
 31
0.0
  0
LINE
  5
1DD
330
15
100
AcDbEntity
  8
4
100
AcDbLine
 10
297.4305061525979
 20
1948.43889759391
 30
0.0
 11
297.4305061525979
 21
1918.13889759391
 31
0.0
  0
LINE
  5
1DE
330
15
100
AcDbEntity
  8
4
100
AcDbLine
 10
1077.430506152598
 20
1948.43889759391
 30
0.0
 11
1077.430506152598
 21
1918.13889759391
 31
0.0
  0
LINE
  5
1DF
330
15
100
AcDbEntity
  8
4
100
AcDbLine
 10
726.8405061525978
 20
1619.13889759391
 30
0.0
 11
946.8405061525978
 21
1619.13889759391
 31
0.0
  0
LINE
  5
1E0
330
15
100
AcDbEntity
  8
4
100
AcDbLine
 10
706.8405061525978
 20
1619.13889759391
 30
0.0
 11
706.8405061525978
 21
1619.206502808512
 31
0.0
  0
LINE
  5
1E1
330
15
100
AcDbEntity
  8
4
100
AcDbLine
 10
726.8405061525978
 20
1619.13889759391
 30
0.0
 11
726.8405061525978
 21
1619.245154702371
 31
0.0
  0
ARC
  5
1E2
330
15
100
AcDbEntity
  8
4
100
AcDbCircle
 10
711.8405061525978
 20
1619.206502808512
 30
0.0
 40
5.0
100
AcDbArc
 50
90.18380764576611
 51
180.0
  0
ARC
  5
1E3
330
15
100
AcDbEntity
  8
4
100
AcDbCircle
 10
721.8405061525978
 20
1619.245154702371
 30
0.0
 40
5.0
100
AcDbArc
 50
0.0
 51
90.25910822621238
  0
LINE
  5
1E4
330
15
100
AcDbEntity
  8
4
100
AcDbLine
 10
879.3331610198554
 20
1604.238897593909
 30
0.0
 11
891.45687192183
 21
1558.572919863135
 31
0.0
  0
ARC
  5
1E5
330
15
100
AcDbEntity
  8
4
100
AcDbCircle
 10
901.1220547077469
 20
1561.13889759391
 30
0.0
 40
10.0
100
AcDbArc
 50
194.8682813585007
 51
270.0
  0
LINE
  5
1E6
330
15
100
AcDbEntity
  8
4
100
AcDbLine
 10
946.8405061525978
 20
1619.13889759391
 30
0.0
 11
946.8405061525978
 21
1623.762812228504
 31
0.0
  0
ARC
  5
1E7
330
15
100
AcDbEntity
  8
4
100
AcDbCircle
 10
951.8405061525978
 20
1623.762812228504
 30
0.0
 40
5.0
100
AcDbArc
 50
91.9914085511411
 51
180.0
  0
LINE
  5
1E8
330
15
100
AcDbEntity
  8
L-CENTER
 48
2.0
100
AcDbLine
 10
1007.430506152598
 20
1566.13889759391
 30
0.0
 11
1007.4305061526
 21
1636.13889759391
 31
0.0
  0
LINE
  5
1E9
330
15
100
AcDbEntity
  8
L-CENTER
 48
2.0
100
AcDbLine
 10
1007.430506152598
 20
2016.13889759391
 30
0.0
 11
1007.4305061526
 21
1946.13889759391
 31
0.0
  0
LINE
  5
1EA
330
15
100
AcDbEntity
  8
4
100
AcDbLine
 10
890.4700548064452
 20
2019.98786419007
 30
0.0
 11
879.4128070375536
 21
1978.338897593911
 31
0.0
  0
ARC
  5
1EB
330
15
100
AcDbEntity
  8
4
100
AcDbCircle
 10
904.9678289853205
 20
2016.13889759391
 30
0.0
 40
15.0
100
AcDbArc
 50
90.0
 51
165.1317186415047
  0
LINE
  5
1EC
330
15
100
AcDbEntity
  8
4
100
AcDbLine
 10
1093.430506152598
 20
1566.13889759391
 30
0.0
 11
1093.430506152598
 21
2016.13889759391
 31
0.0
  0
LINE
  5
1ED
330
15
100
AcDbEntity
  8
4
100
AcDbLine
 10
1098.430506152598
 20
1643.13889759391
 30
0.0
 11
1098.430506152598
 21
1823.13889759391
 31
0.0
  0
LINE
  5
1EE
330
15
100
AcDbEntity
  8
2
100
AcDbLine
 10
1098.730506152598
 20
1643.13889759391
 30
0.0
 11
1098.730506152598
 21
1823.13889759391
 31
0.0
  0
LINE
  5
1EF
330
15
100
AcDbEntity
  8
4
100
AcDbLine
 10
1077.430506152598
 20
1662.13889759391
 30
0.0
 11
1077.430506152598
 21
1642.138897593909
 31
0.0
  0
ARC
  5
1F0
330
15
100
AcDbEntity
  8
4
100
AcDbCircle
 10
1078.430506152598
 20
1566.13889759391
 30
0.0
 40
15.0
100
AcDbArc
 50
270.0
 51
0.0
  0
ARC
  5
1F1
330
15
100
AcDbEntity
  8
4
100
AcDbCircle
 10
1075.430506152598
 20
1642.138897593909
 30
0.0
 40
2.0
100
AcDbArc
 50
270.0
 51
0.0
  0
LINE
  5
1F2
330
15
100
AcDbEntity
  8
4
100
AcDbLine
 10
1070.430506152598
 20
1601.13889759391
 30
0.0
 11
1093.430506152598
 21
1601.13889759391
 31
0.0
  0
LINE
  5
1F3
330
15
100
AcDbEntity
  8
4
100
AcDbLine
 10
1093.430506152598
 20
1638.138897593908
 30
0.0
 11
1035.602079027868
 21
1638.138897593909
 31
0.0
  0
LINE
  5
1F4
330
15
100
AcDbEntity
  8
4
100
AcDbLine
 10
1073.430506152598
 20
1601.13889759391
 30
0.0
 11
1073.430506152598
 21
1635.138897593908
 31
0.0
  0
LINE
  5
1F5
330
15
100
AcDbEntity
  8
4
100
AcDbLine
 10
1070.430506152598
 20
1601.13889759391
 30
0.0
 11
1070.430506152598
 21
1635.138897593909
 31
0.0
  0
LINE
  5
1F6
330
15
100
AcDbEntity
  8
4
100
AcDbLine
 10
1035.430506152598
 20
1637.138897593909
 30
0.0
 11
1035.430506152598
 21
1632.134699849311
 31
0.0
  0
ARC
  5
1F7
330
15
100
AcDbEntity
  8
4
100
AcDbCircle
 10
1038.430506152598
 20
1637.138897593909
 30
0.0
 40
3.0
100
AcDbArc
 50
90.0
 51
180.0
  0
ARC
  5
1F8
330
15
100
AcDbEntity
  8
4
100
AcDbCircle
 10
1070.430506152598
 20
1635.138897593908
 30
0.0
 40
3.0
100
AcDbArc
 50
0.0
 51
90.0
  0
ARC
  5
1F9
330
15
100
AcDbEntity
  8
4
100
AcDbCircle
 10
1067.430506152598
 20
1635.138897593909
 30
0.0
 40
3.0
100
AcDbArc
 50
0.0
 51
90.0
  0
LINE
  5
1FA
330
15
100
AcDbEntity
  8
4
100
AcDbLine
 10
1098.430506152598
 20
1643.13889759391
 30
0.0
 11
1093.430506152598
 21
1638.13889759391
 31
0.0
  0
ARC
  5
1FB
330
15
100
AcDbEntity
  8
4
100
AcDbCircle
 10
1079.430506152598
 20
1662.13889759391
 30
0.0
 40
2.0
100
AcDbArc
 50
90.0
 51
180.0
  0
ARC
  5
1FC
330
15
100
AcDbEntity
  8
4
100
AcDbCircle
 10
1091.430506152598
 20
1666.138897593909
 30
0.0
 40
2.0
100
AcDbArc
 50
270.0
 51
0.0
  0
LINE
  5
1FD
330
15
100
AcDbEntity
  8
4
100
AcDbLine
 10
1073.4305061526
 20
1950.43889759391
 30
0.0
 11
1073.4305061526
 21
1981.13889759391
 31
0.0
  0
LINE
  5
1FE
330
15
100
AcDbEntity
  8
4
100
AcDbLine
 10
1070.4305061526
 20
1950.43889759391
 30
0.0
 11
1070.4305061526
 21
1981.13889759391
 31
0.0
  0
LINE
  5
1FF
330
15
100
AcDbEntity
  8
4
100
AcDbLine
 10
1098.430506152598
 20
1823.13889759391
 30
0.0
 11
1093.430506152598
 21
1828.13889759391
 31
0.0
  0
ARC
  5
200
330
15
100
AcDbEntity
  8
4
100
AcDbCircle
 10
1091.430506152598
 20
1916.13889759391
 30
0.0
 40
2.0
100
AcDbArc
 50
0.0
 51
90.0
  0
LINE
  5
201
330
15
100
AcDbEntity
  8
4
100
AcDbLine
 10
1070.4305061526
 20
1981.13889759391
 30
0.0
 11
1093.4305061526
 21
1981.138897593909
 31
0.0
  0
ARC
  5
202
330
15
100
AcDbEntity
  8
4
100
AcDbCircle
 10
1078.430506152598
 20
2016.13889759391
 30
0.0
 40
15.0
100
AcDbArc
 50
0.0
 51
90.0
  0
LINE
  5
203
330
15
100
AcDbEntity
  8
4
100
AcDbLine
 10
717.4305061525979
 20
1736.13889759391
 30
0.0
 11
717.4305061525979
 21
1846.13889759391
 31
0.0
  0
LINE
  5
204
330
15
100
AcDbEntity
  8
4
100
AcDbLine
 10
660.4305061525979
 20
1733.13889759391
 30
0.0
 11
714.4305061525979
 21
1733.13889759391
 31
0.0
  0
ARC
  5
205
330
15
100
AcDbEntity
  8
4
100
AcDbCircle
 10
714.4305061525979
 20
1736.13889759391
 30
0.0
 40
3.0
100
AcDbArc
 50
270.0
 51
0.0
  0
LINE
  5
206
330
15
100
AcDbEntity
  8
4
100
AcDbLine
 10
657.4305061525979
 20
1736.13889759391
 30
0.0
 11
657.4305061525979
 21
1846.13889759391
 31
0.0
  0
ARC
  5
207
330
15
100
AcDbEntity
  8
4
100
AcDbCircle
 10
660.4305061525979
 20
1736.13889759391
 30
0.0
 40
3.0
100
AcDbArc
 50
180.0
 51
270.0
  0
LINE
  5
208
330
15
100
AcDbEntity
  8
4
100
AcDbLine
 10
660.4305061525979
 20
1849.13889759391
 30
0.0
 11
714.4305061525979
 21
1849.13889759391
 31
0.0
  0
ARC
  5
209
330
15
100
AcDbEntity
  8
4
100
AcDbCircle
 10
660.4305061525979
 20
1846.13889759391
 30
0.0
 40
3.0
100
AcDbArc
 50
90.0
 51
180.0
  0
ARC
  5
20A
330
15
100
AcDbEntity
  8
4
100
AcDbCircle
 10
714.4305061525979
 20
1846.13889759391
 30
0.0
 40
3.0
100
AcDbArc
 50
0.0
 51
90.0
  0
CIRCLE
  5
20B
330
15
100
AcDbEntity
  8
4
100
AcDbCircle
 10
437.4305061525984
 20
1791.13889759391
 30
0.0
 40
25.0
  0
LINE
  5
20C
330
15
100
AcDbEntity
  8
L-CENTER
 48
2.0
100
AcDbLine
 10
437.4305061525984
 20
1756.138897593911
 30
0.0
 11
437.4305061525984
 21
1826.138897593908
 31
0.0
  0
LINE
  5
20D
330
15
100
AcDbEntity
  8
L-CENTER
 48
2.0
100
AcDbLine
 10
247.099017819329
 20
1733.13889759391
 30
0.0
 11
1261.262044152598
 21
1733.13889759391
 31
0.0
  0
ARC
  5
20E
330
15
100
AcDbEntity
  8
4
100
AcDbCircle
 10
687.4305061525997
 20
-5645.589553353835
 30
0.0
 40
7600.0
100
AcDbArc
 50
88.14762157577965
 51
91.85237842422035
  0
ARC
  5
20F
330
15
100
AcDbEntity
  8
4
100
AcDbCircle
 10
687.4305061525997
 20
-5645.589553353835
 30
0.0
 40
7604.0
100
AcDbArc
 50
87.37622925480406
 51
92.6237707451959
  0
LINE
  5
210
330
15
100
AcDbEntity
  8
2
100
AcDbLine
 10
297.4305061525979
 20
1922.43889759391
 30
0.0
 11
1077.430506152598
 21
1922.43889759391
 31
0.0
  0
LINE
  5
211
330
15
100
AcDbEntity
  8
4
100
AcDbLine
 10
299.4305061525979
 20
1950.43889759391
 30
0.0
 11
1075.430506152598
 21
1950.43889759391
 31
0.0
  0
LINE
  5
212
330
15
100
AcDbEntity
  8
4
100
AcDbLine
 10
426.8405061525982
 20
1963.43889759391
 30
0.0
 11
706.8405061525978
 21
1963.438897593911
 31
0.0
  0
ARC
  5
213
330
15
100
AcDbEntity
  8
4
100
AcDbCircle
 10
421.8405061525978
 20
1958.773861942676
 30
0.0
 40
5.0
100
AcDbArc
 50
272.0002993462543
 51
0.0
  0
LINE
  5
214
330
15
100
AcDbEntity
  8
4
100
AcDbLine
 10
426.8405061525982
 20
1958.773861942675
 30
0.0
 11
426.8405061525982
 21
1963.43889759391
 31
0.0
  0
LINE
  5
215
330
15
100
AcDbEntity
  8
L-CENTER
 48
2.0
100
AcDbLine
 10
566.8405061525978
 20
1398.95994259391
 30
0.0
 11
566.8405061525978
 21
1992.939737474015
 31
0.0
  0
LINE
  5
216
330
15
100
AcDbEntity
  8
L-CENTER
 48
2.0
100
AcDbLine
 10
836.8405061525978
 20
1584.046138713863
 30
0.0
 11
836.8405061525978
 21
1995.252526246652
 31
0.0
  0
LINE
  5
217
330
15
100
AcDbEntity
  8
4
100
AcDbLine
 10
726.8405061525978
 20
1963.438897593911
 30
0.0
 11
946.8405061525978
 21
1963.438897593911
 31
0.0
  0
ARC
  5
218
330
15
100
AcDbEntity
  8
4
100
AcDbCircle
 10
711.8405061525978
 20
1963.371292379308
 30
0.0
 40
5.0
100
AcDbArc
 50
180.0
 51
269.8161923541921
  0
LINE
  5
219
330
15
100
AcDbEntity
  8
4
100
AcDbLine
 10
706.8405061525978
 20
1963.371292379308
 30
0.0
 11
706.8405061525978
 21
1963.438897593911
 31
0.0
  0
LINE
  5
21A
330
15
100
AcDbEntity
  8
4
100
AcDbLine
 10
726.8405061525978
 20
1963.332640485449
 30
0.0
 11
726.8405061525978
 21
1963.438897593911
 31
0.0
  0
ARC
  5
21B
330
15
100
AcDbEntity
  8
4
100
AcDbCircle
 10
721.8405061525978
 20
1963.332640485449
 30
0.0
 40
5.0
100
AcDbArc
 50
269.7408917738189
 51
0.0
  0
LINE
  5
21C
330
15
100
AcDbEntity
  8
4
100
AcDbLine
 10
946.8405061525978
 20
1958.814982959315
 30
0.0
 11
946.8405061525978
 21
1963.438897593911
 31
0.0
  0
ARC
  5
21D
330
15
100
AcDbEntity
  8
4
100
AcDbCircle
 10
951.8405061525978
 20
1958.814982959315
 30
0.0
 40
5.0
100
AcDbArc
 50
180.0
 51
268.0085914488276
  0
LINE
  5
21E
330
15
100
AcDbEntity
  8
4
100
AcDbLine
 10
427.8405061525982
 20
1978.338897593911
 30
0.0
 11
705.8405061525978
 21
1978.338897593911
 31
0.0
  0
LINE
  5
21F
330
15
100
AcDbEntity
  8
4
100
AcDbLine
 10
427.8405061525982
 20
1604.23889759391
 30
0.0
 11
705.8405061525978
 21
1604.23889759391
 31
0.0
  0
LINE
  5
220
330
15
100
AcDbEntity
  8
4
100
AcDbLine
 10
426.8405061525982
 20
1963.43889759391
 30
0.0
 11
426.8405061525982
 21
1977.338897593911
 31
0.0
  0
LINE
  5
221
330
15
100
AcDbEntity
  8
4
100
AcDbLine
 10
706.8405061525978
 20
1963.438897593911
 30
0.0
 11
706.8405061525978
 21
1977.338897593911
 31
0.0
  0
LINE
  5
222
330
15
100
AcDbEntity
  8
4
100
AcDbLine
 10
706.8405061525978
 20
1619.206502808512
 30
0.0
 11
706.8405061525978
 21
1605.23889759391
 31
0.0
  0
LINE
  5
223
330
15
100
AcDbEntity
  8
4
100
AcDbLine
 10
426.8405061525982
 20
1619.13889759391
 30
0.0
 11
426.8405061525982
 21
1605.23889759391
 31
0.0
  0
LINE
  5
224
330
15
100
AcDbEntity
  8
2
100
AcDbLine
 10
426.8405061525982
 20
1618.838897593911
 30
0.0
 11
706.8405061525978
 21
1618.83889759391
 31
0.0
  0
LINE
  5
225
330
15
100
AcDbEntity
  8
2
100
AcDbLine
 10
426.8405061525982
 20
1963.73889759391
 30
0.0
 11
706.8405061525978
 21
1963.73889759391
 31
0.0
  0
LINE
  5
226
330
15
100
AcDbEntity
  8
4
100
AcDbLine
 10
727.8405061525978
 20
1978.338897593911
 30
0.0
 11
945.8405061525978
 21
1978.338897593911
 31
0.0
  0
LINE
  5
227
330
15
100
AcDbEntity
  8
4
100
AcDbLine
 10
727.8405061525978
 20
1604.238897593909
 30
0.0
 11
945.8405061525978
 21
1604.238897593909
 31
0.0
  0
LINE
  5
228
330
15
100
AcDbEntity
  8
4
100
AcDbLine
 10
726.8405061525978
 20
1963.438897593911
 30
0.0
 11
726.8405061525978
 21
1977.338897593911
 31
0.0
  0
LINE
  5
229
330
15
100
AcDbEntity
  8
4
100
AcDbLine
 10
946.8405061525978
 20
1977.338897593911
 30
0.0
 11
946.8405061525978
 21
1963.438897593911
 31
0.0
  0
LINE
  5
22A
330
15
100
AcDbEntity
  8
4
100
AcDbLine
 10
946.8405061525978
 20
1619.13889759391
 30
0.0
 11
946.8405061525978
 21
1605.238897593909
 31
0.0
  0
LINE
  5
22B
330
15
100
AcDbEntity
  8
4
100
AcDbLine
 10
726.8405061525978
 20
1619.13889759391
 30
0.0
 11
726.8405061525978
 21
1605.238897593909
 31
0.0
  0
LINE
  5
22C
330
15
100
AcDbEntity
  8
2
100
AcDbLine
 10
726.8405061525978
 20
1618.838897593909
 30
0.0
 11
946.8405061525978
 21
1618.838897593909
 31
0.0
  0
LINE
  5
22D
330
15
100
AcDbEntity
  8
2
100
AcDbLine
 10
726.8405061525978
 20
1963.73889759391
 30
0.0
 11
946.8405061525978
 21
1963.73889759391
 31
0.0
  0
LINE
  5
22E
330
15
100
AcDbEntity
  8
4
100
AcDbLine
 10
1116.730510152597
 20
1643.138903904256
 30
0.0
 11
1116.730510152597
 21
1823.138898645633
 31
0.0
  0
LINE
  5
22F
330
15
100
AcDbEntity
  8
4
100
AcDbLine
 10
1098.430506152598
 20
1643.13889759391
 30
0.0
 11
1116.730510152597
 21
1643.138903904256
 31
0.0
  0
LINE
  5
230
330
15
100
AcDbEntity
  8
4
100
AcDbLine
 10
1098.430506152598
 20
1823.13889759391
 30
0.0
 11
1116.730510152597
 21
1823.138898645633
 31
0.0
  0
LINE
  5
231
330
15
100
AcDbEntity
  8
4
100
AcDbLine
 10
258.1305021525951
 20
1643.138903904266
 30
0.0
 11
258.1305021525997
 21
1823.138898645644
 31
0.0
  0
LINE
  5
232
330
15
100
AcDbEntity
  8
4
100
AcDbLine
 10
276.4305061525952
 20
1643.138897593919
 30
0.0
 11
258.1305021525951
 21
1643.138903904266
 31
0.0
  0
LINE
  5
233
330
15
100
AcDbEntity
  8
4
100
AcDbLine
 10
276.4305061525997
 20
1823.138897593919
 30
0.0
 11
258.1305021525997
 21
1823.138898645644
 31
0.0
  0
LINE
  5
234
330
15
100
AcDbEntity
  8
4
100
AcDbLine
 10
1116.730510152597
 20
1778.13889759391
 30
0.0
 11
1117.730510152597
 21
1778.13889759391
 31
0.0
  0
LINE
  5
235
330
15
100
AcDbEntity
  8
4
100
AcDbLine
 10
1116.730510152597
 20
1688.13889759391
 30
0.0
 11
1117.730510152597
 21
1688.13889759391
 31
0.0
  0
LINE
  5
236
330
15
100
AcDbEntity
  8
4
100
AcDbLine
 10
1117.730510152597
 20
1688.13889759391
 30
0.0
 11
1117.730510152597
 21
1778.13889759391
 31
0.0
  0
LINE
  5
237
330
15
100
AcDbEntity
  8
4
100
AcDbLine
 10
561.6876245952967
 20
608.507447330669
 30
0.0
 11
556.2027970379954
 21
599.007447330669
 31
0.0
  0
LINE
  5
238
330
15
100
AcDbEntity
  8
4
100
AcDbLine
 10
578.1421072672015
 20
599.007447330669
 30
0.0
 11
572.6572797098993
 21
608.507447330669
 31
0.0
  0
CIRCLE
  5
239
330
15
100
AcDbEntity
  8
4
100
AcDbCircle
 10
567.172452152598
 20
599.007447330669
 30
0.0
 40
9.5
  0
LINE
  5
23A
330
15
100
AcDbEntity
  8
4
100
AcDbLine
 10
556.2027970379954
 20
599.007447330669
 30
0.0
 11
561.6876245952967
 21
589.507447330669
 31
0.0
  0
LINE
  5
23B
330
15
100
AcDbEntity
  8
4
100
AcDbLine
 10
561.6876245952967
 20
589.507447330669
 30
0.0
 11
572.6572797098993
 21
589.507447330669
 31
0.0
  0
LINE
  5
23C
330
15
100
AcDbEntity
  8
4
100
AcDbLine
 10
572.6572797098993
 20
589.507447330669
 30
0.0
 11
578.1421072672015
 21
599.007447330669
 31
0.0
  0
LINE
  5
23D
330
15
100
AcDbEntity
  8
4
100
AcDbLine
 10
572.6572797098993
 20
608.507447330669
 30
0.0
 11
561.6876245952967
 21
608.507447330669
 31
0.0
  0
LINE
  5
23E
330
15
100
AcDbEntity
  8
4
100
AcDbLine
 10
457.7644040002883
 20
548.5071481729274
 30
0.0
 11
452.279576442987
 21
539.0071481729274
 31
0.0
  0
LINE
  5
23F
330
15
100
AcDbEntity
  8
4
100
AcDbLine
 10
474.2188866721931
 20
539.0071481729274
 30
0.0
 11
468.7340591148909
 21
548.5071481729274
 31
0.0
  0
CIRCLE
  5
240
330
15
100
AcDbEntity
  8
4
100
AcDbCircle
 10
463.2492315575896
 20
539.0071481729274
 30
0.0
 40
9.5
  0
LINE
  5
241
330
15
100
AcDbEntity
  8
4
100
AcDbLine
 10
452.279576442987
 20
539.0071481729274
 30
0.0
 11
457.7644040002883
 21
529.5071481729274
 31
0.0
  0
LINE
  5
242
330
15
100
AcDbEntity
  8
4
100
AcDbLine
 10
457.7644040002883
 20
529.5071481729274
 30
0.0
 11
468.7340591148909
 21
529.5071481729274
 31
0.0
  0
LINE
  5
243
330
15
100
AcDbEntity
  8
4
100
AcDbLine
 10
468.7340591148909
 20
529.5071481729274
 30
0.0
 11
474.2188866721931
 21
539.0071481729274
 31
0.0
  0
LINE
  5
244
330
15
100
AcDbEntity
  8
4
100
AcDbLine
 10
468.7340591148909
 20
548.5071481729274
 30
0.0
 11
457.7644040002883
 21
548.5071481729274
 31
0.0
  0
LINE
  5
245
330
15
100
AcDbEntity
  8
4
100
AcDbLine
 10
457.7647486454875
 20
428.5071515453988
 30
0.0
 11
452.2799210881863
 21
419.0071515453988
 31
0.0
  0
LINE
  5
246
330
15
100
AcDbEntity
  8
4
100
AcDbLine
 10
474.2192313173923
 20
419.0071515453988
 30
0.0
 11
468.7344037600901
 21
428.5071515453988
 31
0.0
  0
CIRCLE
  5
247
330
15
100
AcDbEntity
  8
4
100
AcDbCircle
 10
463.2495762027888
 20
419.0071515453988
 30
0.0
 40
9.5
  0
LINE
  5
248
330
15
100
AcDbEntity
  8
4
100
AcDbLine
 10
452.2799210881863
 20
419.0071515453988
 30
0.0
 11
457.7647486454875
 21
409.5071515453988
 31
0.0
  0
LINE
  5
249
330
15
100
AcDbEntity
  8
4
100
AcDbLine
 10
457.7647486454875
 20
409.5071515453988
 30
0.0
 11
468.7344037600901
 21
409.5071515453988
 31
0.0
  0
LINE
  5
24A
330
15
100
AcDbEntity
  8
4
100
AcDbLine
 10
468.7344037600901
 20
409.5071515453988
 30
0.0
 11
474.2192313173923
 21
419.0071515453988
 31
0.0
  0
LINE
  5
24B
330
15
100
AcDbEntity
  8
4
100
AcDbLine
 10
468.7344037600901
 20
428.5071515453988
 30
0.0
 11
457.7647486454875
 21
428.5071515453988
 31
0.0
  0
LINE
  5
24C
330
15
100
AcDbEntity
  8
4
100
AcDbLine
 10
665.6104974415834
 20
548.507750491362
 30
0.0
 11
660.1256698842822
 21
539.007750491362
 31
0.0
  0
LINE
  5
24D
330
15
100
AcDbEntity
  8
4
100
AcDbLine
 10
682.0649801134882
 20
539.007750491362
 30
0.0
 11
676.580152556186
 21
548.507750491362
 31
0.0
  0
CIRCLE
  5
24E
330
15
100
AcDbEntity
  8
4
100
AcDbCircle
 10
671.0953249988856
 20
539.007750491362
 30
0.0
 40
9.5
  0
LINE
  5
24F
330
15
100
AcDbEntity
  8
4
100
AcDbLine
 10
660.1256698842822
 20
539.007750491362
 30
0.0
 11
665.6104974415834
 21
529.507750491362
 31
0.0
  0
LINE
  5
250
330
15
100
AcDbEntity
  8
4
100
AcDbLine
 10
665.6104974415834
 20
529.507750491362
 30
0.0
 11
676.580152556186
 21
529.507750491362
 31
0.0
  0
LINE
  5
251
330
15
100
AcDbEntity
  8
4
100
AcDbLine
 10
676.580152556186
 20
529.507750491362
 30
0.0
 11
682.0649801134882
 21
539.007750491362
 31
0.0
  0
LINE
  5
252
330
15
100
AcDbEntity
  8
4
100
AcDbLine
 10
676.580152556186
 20
548.507750491362
 30
0.0
 11
665.6104974415834
 21
548.507750491362
 31
0.0
  0
LINE
  5
253
330
15
100
AcDbEntity
  8
4
100
AcDbLine
 10
561.6876245952967
 20
368.5074493306688
 30
0.0
 11
556.2027970379954
 21
359.0074493306688
 31
0.0
  0
LINE
  5
254
330
15
100
AcDbEntity
  8
4
100
AcDbLine
 10
578.1421072672015
 20
359.0074493306688
 30
0.0
 11
572.6572797098993
 21
368.5074493306688
 31
0.0
  0
CIRCLE
  5
255
330
15
100
AcDbEntity
  8
4
100
AcDbCircle
 10
567.172452152598
 20
359.0074493306688
 30
0.0
 40
9.5
  0
LINE
  5
256
330
15
100
AcDbEntity
  8
4
100
AcDbLine
 10
556.2027970379954
 20
359.0074493306688
 30
0.0
 11
561.6876245952967
 21
349.5074493306688
 31
0.0
  0
LINE
  5
257
330
15
100
AcDbEntity
  8
4
100
AcDbLine
 10
561.6876245952967
 20
349.5074493306688
 30
0.0
 11
572.6572797098993
 21
349.5074493306688
 31
0.0
  0
LINE
  5
258
330
15
100
AcDbEntity
  8
4
100
AcDbLine
 10
572.6572797098993
 20
349.5074493306688
 30
0.0
 11
578.1421072672015
 21
359.0074493306688
 31
0.0
  0
LINE
  5
259
330
15
100
AcDbEntity
  8
4
100
AcDbLine
 10
572.6572797098993
 20
368.5074493306688
 30
0.0
 11
561.6876245952967
 21
368.5074493306688
 31
0.0
  0
LINE
  5
25A
330
15
100
AcDbEntity
  8
4
100
AcDbLine
 10
665.610844649786
 20
428.5077475521971
 30
0.0
 11
660.1260170924847
 21
419.0077475521971
 31
0.0
  0
LINE
  5
25B
330
15
100
AcDbEntity
  8
4
100
AcDbLine
 10
682.0653273216908
 20
419.0077475521971
 30
0.0
 11
676.5804997643886
 21
428.5077475521971
 31
0.0
  0
CIRCLE
  5
25C
330
15
100
AcDbEntity
  8
4
100
AcDbCircle
 10
671.0956722070882
 20
419.0077475521971
 30
0.0
 40
9.5
  0
LINE
  5
25D
330
15
100
AcDbEntity
  8
4
100
AcDbLine
 10
660.1260170924847
 20
419.0077475521971
 30
0.0
 11
665.610844649786
 21
409.5077475521971
 31
0.0
  0
LINE
  5
25E
330
15
100
AcDbEntity
  8
4
100
AcDbLine
 10
665.610844649786
 20
409.5077475521971
 30
0.0
 11
676.5804997643886
 21
409.5077475521971
 31
0.0
  0
LINE
  5
25F
330
15
100
AcDbEntity
  8
4
100
AcDbLine
 10
676.5804997643886
 20
409.5077475521971
 30
0.0
 11
682.0653273216908
 21
419.0077475521971
 31
0.0
  0
LINE
  5
260
330
15
100
AcDbEntity
  8
4
100
AcDbLine
 10
676.5804997643886
 20
428.5077475521971
 30
0.0
 11
665.610844649786
 21
428.5077475521971
 31
0.0
  0
LINE
  5
261
330
15
100
AcDbEntity
  8
4
100
AcDbLine
 10
830.9456765952968
 20
598.5074503306687
 30
0.0
 11
825.4608490379956
 21
589.0074503306687
 31
0.0
  0
LINE
  5
262
330
15
100
AcDbEntity
  8
4
100
AcDbLine
 10
847.4001592672016
 20
589.0074503306687
 30
0.0
 11
841.9153317098994
 21
598.5074503306687
 31
0.0
  0
CIRCLE
  5
263
330
15
100
AcDbEntity
  8
4
100
AcDbCircle
 10
836.4305041525981
 20
589.0074503306687
 30
0.0
 40
9.5
  0
LINE
  5
264
330
15
100
AcDbEntity
  8
4
100
AcDbLine
 10
825.4608490379956
 20
589.0074503306687
 30
0.0
 11
830.9456765952968
 21
579.5074503306687
 31
0.0
  0
LINE
  5
265
330
15
100
AcDbEntity
  8
4
100
AcDbLine
 10
830.9456765952968
 20
579.5074503306687
 30
0.0
 11
841.9153317098994
 21
579.5074503306687
 31
0.0
  0
LINE
  5
266
330
15
100
AcDbEntity
  8
4
100
AcDbLine
 10
841.9153317098994
 20
579.5074503306687
 30
0.0
 11
847.4001592672016
 21
589.0074503306687
 31
0.0
  0
LINE
  5
267
330
15
100
AcDbEntity
  8
4
100
AcDbLine
 10
841.9153317098994
 20
598.5074503306687
 30
0.0
 11
830.9456765952968
 21
598.5074503306687
 31
0.0
  0
LINE
  5
268
330
15
100
AcDbEntity
  8
4
100
AcDbLine
 10
753.0033034346984
 20
553.5073009536914
 30
0.0
 11
747.5184758773971
 21
544.0073009536914
 31
0.0
  0
LINE
  5
269
330
15
100
AcDbEntity
  8
4
100
AcDbLine
 10
769.4577861066032
 20
544.0073009536914
 30
0.0
 11
763.972958549301
 21
553.5073009536914
 31
0.0
  0
CIRCLE
  5
26A
330
15
100
AcDbEntity
  8
4
100
AcDbCircle
 10
758.4881309919997
 20
544.0073009536914
 30
0.0
 40
9.5
  0
LINE
  5
26B
330
15
100
AcDbEntity
  8
4
100
AcDbLine
 10
747.5184758773971
 20
544.0073009536914
 30
0.0
 11
753.0033034346984
 21
534.5073009536914
 31
0.0
  0
LINE
  5
26C
330
15
100
AcDbEntity
  8
4
100
AcDbLine
 10
753.0033034346984
 20
534.5073009536914
 30
0.0
 11
763.972958549301
 21
534.5073009536914
 31
0.0
  0
LINE
  5
26D
330
15
100
AcDbEntity
  8
4
100
AcDbLine
 10
763.972958549301
 20
534.5073009536914
 30
0.0
 11
769.4577861066032
 21
544.0073009536914
 31
0.0
  0
LINE
  5
26E
330
15
100
AcDbEntity
  8
4
100
AcDbLine
 10
763.972958549301
 20
553.5073009536914
 30
0.0
 11
753.0033034346984
 21
553.5073009536914
 31
0.0
  0
LINE
  5
26F
330
15
100
AcDbEntity
  8
4
100
AcDbLine
 10
753.0034759507148
 20
463.5072989011451
 30
0.0
 11
747.5186483934135
 21
454.0072989011451
 31
0.0
  0
LINE
  5
270
330
15
100
AcDbEntity
  8
4
100
AcDbLine
 10
769.4579586226196
 20
454.0072989011451
 30
0.0
 11
763.9731310653174
 21
463.5072989011451
 31
0.0
  0
CIRCLE
  5
271
330
15
100
AcDbEntity
  8
4
100
AcDbCircle
 10
758.488303508017
 20
454.0072989011451
 30
0.0
 40
9.5
  0
LINE
  5
272
330
15
100
AcDbEntity
  8
4
100
AcDbLine
 10
747.5186483934135
 20
454.0072989011451
 30
0.0
 11
753.0034759507148
 21
444.5072989011451
 31
0.0
  0
LINE
  5
273
330
15
100
AcDbEntity
  8
4
100
AcDbLine
 10
753.0034759507148
 20
444.5072989011451
 30
0.0
 11
763.9731310653174
 21
444.5072989011451
 31
0.0
  0
LINE
  5
274
330
15
100
AcDbEntity
  8
4
100
AcDbLine
 10
763.9731310653174
 20
444.5072989011451
 30
0.0
 11
769.4579586226196
 21
454.0072989011451
 31
0.0
  0
LINE
  5
275
330
15
100
AcDbEntity
  8
4
100
AcDbLine
 10
763.9731310653174
 20
463.5072989011451
 30
0.0
 11
753.0034759507148
 21
463.5072989011451
 31
0.0
  0
LINE
  5
276
330
15
100
AcDbEntity
  8
4
100
AcDbLine
 10
830.9456765952968
 20
418.5074483306689
 30
0.0
 11
825.4608490379956
 21
409.0074483306689
 31
0.0
  0
LINE
  5
277
330
15
100
AcDbEntity
  8
4
100
AcDbLine
 10
847.4001592672016
 20
409.0074483306689
 30
0.0
 11
841.9153317098994
 21
418.5074483306689
 31
0.0
  0
CIRCLE
  5
278
330
15
100
AcDbEntity
  8
4
100
AcDbCircle
 10
836.4305041525981
 20
409.0074483306689
 30
0.0
 40
9.5
  0
LINE
  5
279
330
15
100
AcDbEntity
  8
4
100
AcDbLine
 10
825.4608490379956
 20
409.0074483306689
 30
0.0
 11
830.9456765952968
 21
399.5074483306689
 31
0.0
  0
LINE
  5
27A
330
15
100
AcDbEntity
  8
4
100
AcDbLine
 10
830.9456765952968
 20
399.5074483306689
 30
0.0
 11
841.9153317098994
 21
399.5074483306689
 31
0.0
  0
LINE
  5
27B
330
15
100
AcDbEntity
  8
4
100
AcDbLine
 10
841.9153317098994
 20
399.5074483306689
 30
0.0
 11
847.4001592672016
 21
409.0074483306689
 31
0.0
  0
LINE
  5
27C
330
15
100
AcDbEntity
  8
4
100
AcDbLine
 10
841.9153317098994
 20
418.5074483306689
 30
0.0
 11
830.9456765952968
 21
418.5074483306689
 31
0.0
  0
LINE
  5
27D
330
15
100
AcDbEntity
  8
4
100
AcDbLine
 10
908.8878769391572
 20
553.5076002810551
 30
0.0
 11
903.4030493818559
 21
544.0076002810551
 31
0.0
  0
LINE
  5
27E
330
15
100
AcDbEntity
  8
4
100
AcDbLine
 10
925.342359611062
 20
544.0076002810551
 30
0.0
 11
919.8575320537598
 21
553.5076002810551
 31
0.0
  0
CIRCLE
  5
27F
330
15
100
AcDbEntity
  8
4
100
AcDbCircle
 10
914.3727044964585
 20
544.0076002810551
 30
0.0
 40
9.5
  0
LINE
  5
280
330
15
100
AcDbEntity
  8
4
100
AcDbLine
 10
903.4030493818559
 20
544.0076002810551
 30
0.0
 11
908.8878769391572
 21
534.5076002810551
 31
0.0
  0
LINE
  5
281
330
15
100
AcDbEntity
  8
4
100
AcDbLine
 10
908.8878769391572
 20
534.5076002810551
 30
0.0
 11
919.8575320537598
 21
534.5076002810551
 31
0.0
  0
LINE
  5
282
330
15
100
AcDbEntity
  8
4
100
AcDbLine
 10
919.8575320537598
 20
534.5076002810551
 30
0.0
 11
925.342359611062
 21
544.0076002810551
 31
0.0
  0
LINE
  5
283
330
15
100
AcDbEntity
  8
4
100
AcDbLine
 10
919.8575320537598
 20
553.5076002810551
 30
0.0
 11
908.8878769391572
 21
553.5076002810551
 31
0.0
  0
LINE
  5
284
330
15
100
AcDbEntity
  8
4
100
AcDbLine
 10
908.888050516493
 20
463.5075990250457
 30
0.0
 11
903.4032229591917
 21
454.0075990250457
 31
0.0
  0
LINE
  5
285
330
15
100
AcDbEntity
  8
4
100
AcDbLine
 10
925.3425331883977
 20
454.0075990250457
 30
0.0
 11
919.8577056310955
 21
463.5075990250457
 31
0.0
  0
CIRCLE
  5
286
330
15
100
AcDbEntity
  8
4
100
AcDbCircle
 10
914.3728780737943
 20
454.0075990250457
 30
0.0
 40
9.5
  0
LINE
  5
287
330
15
100
AcDbEntity
  8
4
100
AcDbLine
 10
903.4032229591917
 20
454.0075990250457
 30
0.0
 11
908.888050516493
 21
444.5075990250457
 31
0.0
  0
LINE
  5
288
330
15
100
AcDbEntity
  8
4
100
AcDbLine
 10
908.888050516493
 20
444.5075990250457
 30
0.0
 11
919.8577056310955
 21
444.5075990250457
 31
0.0
  0
LINE
  5
289
330
15
100
AcDbEntity
  8
4
100
AcDbLine
 10
919.8577056310955
 20
444.5075990250457
 30
0.0
 11
925.3425331883977
 21
454.0075990250457
 31
0.0
  0
LINE
  5
28A
330
15
100
AcDbEntity
  8
4
100
AcDbLine
 10
919.8577056310955
 20
463.5075990250457
 30
0.0
 11
908.888050516493
 21
463.5075990250457
 31
0.0
  0
LINE
  5
28B
330
15
100
AcDbEntity
  8
L-CENTER
 48
2.0
100
AcDbLine
 10
463.2492315575896
 20
1992.939737474015
 30
0.0
 11
463.2492315575896
 21
1939.856203266874
 31
0.0
  0
LINE
  5
28C
330
15
100
AcDbEntity
  8
4
100
AcDbLine
 10
474.2188866721922
 20
1978.338897593911
 30
0.0
 11
474.2188866721922
 21
1988.201716683283
 31
0.0
  0
LINE
  5
28D
330
15
100
AcDbEntity
  8
4
100
AcDbLine
 10
468.73405911489
 20
1988.201716683283
 30
0.0
 11
468.73405911489
 21
1981.338897593911
 31
0.0
  0
LINE
  5
28E
330
15
100
AcDbEntity
  8
4
100
AcDbLine
 10
452.2795764429852
 20
1988.201716683283
 30
0.0
 11
452.2795764429852
 21
1978.338897593911
 31
0.0
  0
LINE
  5
28F
330
15
100
AcDbEntity
  8
4
100
AcDbLine
 10
457.7644040002874
 20
1988.201716683283
 30
0.0
 11
457.7644040002874
 21
1981.338897593911
 31
0.0
  0
ARC
  5
290
330
15
100
AcDbEntity
  8
4
100
AcDbCircle
 10
471.4764728935411
 20
1985.46351871863
 30
0.0
 40
3.875378875279264
100
AcDbArc
 50
44.95592676274281
 51
135.0440732372382
  0
ARC
  5
291
330
15
100
AcDbEntity
  8
4
100
AcDbCircle
 10
455.0219902216363
 20
1985.46351871863
 30
0.0
 40
3.875378875279244
100
AcDbArc
 50
44.95592676274281
 51
135.0440732372382
  0
LINE
  5
292
330
15
100
AcDbEntity
  8
4
100
AcDbLine
 10
471.4764728935411
 20
1989.338897593911
 30
0.0
 11
455.0219902216363
 21
1989.338897593911
 31
0.0
  0
ARC
  5
293
330
15
100
AcDbEntity
  8
4
100
AcDbCircle
 10
463.2492315575896
 20
1975.543153458733
 30
0.0
 40
13.7957441351769
100
AcDbArc
 50
66.57340249137208
 51
113.4265975086326
  0
LINE
  5
294
330
15
100
AcDbEntity
  8
4
100
AcDbLine
 10
452.2795764429852
 20
1981.338897593911
 30
0.0
 11
474.2188866721922
 21
1981.338897593911
 31
0.0
  0
LINE
  5
295
330
15
100
AcDbEntity
  8
4
100
AcDbLine
 10
452.2795764429852
 20
1978.338897593911
 30
0.0
 11
474.2188866721922
 21
1978.338897593911
 31
0.0
  0
LINE
  5
296
330
15
100
AcDbEntity
  8
L-CENTER
 48
2.0
100
AcDbLine
 10
758.4881309919997
 20
1992.939737474015
 30
0.0
 11
758.4881309919997
 21
1939.856203266874
 31
0.0
  0
LINE
  5
297
330
15
100
AcDbEntity
  8
4
100
AcDbLine
 10
769.4577861066023
 20
1978.338897593911
 30
0.0
 11
769.4577861066023
 21
1988.201716683284
 31
0.0
  0
LINE
  5
298
330
15
100
AcDbEntity
  8
4
100
AcDbLine
 10
763.972958549301
 20
1988.201716683284
 30
0.0
 11
763.972958549301
 21
1981.338897593911
 31
0.0
  0
LINE
  5
299
330
15
100
AcDbEntity
  8
4
100
AcDbLine
 10
747.5184758773962
 20
1988.201716683284
 30
0.0
 11
747.5184758773962
 21
1978.338897593911
 31
0.0
  0
LINE
  5
29A
330
15
100
AcDbEntity
  8
4
100
AcDbLine
 10
753.0033034346984
 20
1988.201716683284
 30
0.0
 11
753.0033034346984
 21
1981.338897593911
 31
0.0
  0
ARC
  5
29B
330
15
100
AcDbEntity
  8
4
100
AcDbCircle
 10
766.7153723279521
 20
1985.463518718631
 30
0.0
 40
3.875378875279264
100
AcDbArc
 50
44.95592676274281
 51
135.0440732372572
  0
ARC
  5
29C
330
15
100
AcDbEntity
  8
4
100
AcDbCircle
 10
750.2608896560473
 20
1985.463518718631
 30
0.0
 40
3.875378875279244
100
AcDbArc
 50
44.95592676274281
 51
135.0440732372572
  0
LINE
  5
29D
330
15
100
AcDbEntity
  8
4
100
AcDbLine
 10
766.7153723279521
 20
1989.338897593911
 30
0.0
 11
750.2608896560473
 21
1989.338897593911
 31
0.0
  0
ARC
  5
29E
330
15
100
AcDbEntity
  8
4
100
AcDbCircle
 10
758.4881309919997
 20
1975.543153458733
 30
0.0
 40
13.7957441351769
100
AcDbArc
 50
66.5734024913725
 51
113.4265975086275
  0
LINE
  5
29F
330
15
100
AcDbEntity
  8
4
100
AcDbLine
 10
747.5184758773962
 20
1981.338897593911
 30
0.0
 11
769.4577861066023
 21
1981.338897593911
 31
0.0
  0
LINE
  5
2A0
330
15
100
AcDbEntity
  8
4
100
AcDbLine
 10
747.5184758773962
 20
1978.338897593911
 30
0.0
 11
769.4577861066023
 21
1978.338897593911
 31
0.0
  0
LINE
  5
2A1
330
15
100
AcDbEntity
  8
4
100
AcDbLine
 10
681.4014358622103
 20
1978.338897593911
 30
0.0
 11
659.4621256330051
 21
1978.338897593911
 31
0.0
  0
LINE
  5
2A2
330
15
100
AcDbEntity
  8
4
100
AcDbLine
 10
681.4014358622103
 20
1981.338897593911
 30
0.0
 11
659.4621256330051
 21
1981.338897593911
 31
0.0
  0
ARC
  5
2A3
330
15
100
AcDbEntity
  8
4
100
AcDbCircle
 10
670.4317807476077
 20
1975.543153458733
 30
0.0
 40
13.7957441351769
100
AcDbArc
 50
66.57340249137208
 51
113.4265975086326
  0
LINE
  5
2A4
330
15
100
AcDbEntity
  8
4
100
AcDbLine
 10
662.2045394116544
 20
1989.338897593911
 30
0.0
 11
678.6590220835592
 21
1989.338897593911
 31
0.0
  0
LINE
  5
2A5
330
15
100
AcDbEntity
  8
4
100
AcDbLine
 10
681.4014358622103
 20
1988.201716683283
 30
0.0
 11
681.4014358622103
 21
1978.338897593911
 31
0.0
  0
ARC
  5
2A6
330
15
100
AcDbEntity
  8
4
100
AcDbCircle
 10
678.6590220835592
 20
1985.46351871863
 30
0.0
 40
3.875378875279244
100
AcDbArc
 50
44.95592676274281
 51
135.0440732372382
  0
LINE
  5
2A7
330
15
100
AcDbEntity
  8
4
100
AcDbLine
 10
675.9166083049081
 20
1988.201716683283
 30
0.0
 11
675.9166083049081
 21
1981.338897593911
 31
0.0
  0
LINE
  5
2A8
330
15
100
AcDbEntity
  8
4
100
AcDbLine
 10
659.4621256330051
 20
1978.338897593911
 30
0.0
 11
659.4621256330051
 21
1988.201716683283
 31
0.0
  0
ARC
  5
2A9
330
15
100
AcDbEntity
  8
4
100
AcDbCircle
 10
662.2045394116544
 20
1985.46351871863
 30
0.0
 40
3.875378875279264
100
AcDbArc
 50
44.95592676274281
 51
135.0440732372382
  0
LINE
  5
2AA
330
15
100
AcDbEntity
  8
4
100
AcDbLine
 10
664.9469531903055
 20
1988.201716683283
 30
0.0
 11
664.9469531903055
 21
1981.338897593911
 31
0.0
  0
LINE
  5
2AB
330
15
100
AcDbEntity
  8
L-CENTER
 48
2.0
100
AcDbLine
 10
670.4317807476077
 20
1992.939737474015
 30
0.0
 11
670.4317807476077
 21
1939.856203266874
 31
0.0
  0
LINE
  5
2AC
330
15
100
AcDbEntity
  8
4
100
AcDbLine
 10
926.1625364277975
 20
1988.201716683287
 30
0.0
 11
926.1625364277975
 21
1978.338897593913
 31
0.0
  0
LINE
  5
2AD
330
15
100
AcDbEntity
  8
4
100
AcDbLine
 10
904.2232261985923
 20
1978.338897593912
 30
0.0
 11
904.2232261985914
 21
1988.201716683286
 31
0.0
  0
LINE
  5
2AE
330
15
100
AcDbEntity
  8
4
100
AcDbLine
 10
926.1625364277975
 20
1978.338897593913
 30
0.0
 11
904.2232261985923
 21
1978.338897593912
 31
0.0
  0
LINE
  5
2AF
330
15
100
AcDbEntity
  8
4
100
AcDbLine
 10
926.1625364277975
 20
1981.338897593913
 30
0.0
 11
904.2232261985914
 21
1981.338897593912
 31
0.0
  0
ARC
  5
2B0
330
15
100
AcDbEntity
  8
4
100
AcDbCircle
 10
915.1928813131949
 20
1975.543153458735
 30
0.0
 40
13.7957441351769
100
AcDbArc
 50
66.57340249137758
 51
113.4265975086301
  0
LINE
  5
2B1
330
15
100
AcDbEntity
  8
4
100
AcDbLine
 10
906.9656399772416
 20
1989.338897593912
 30
0.0
 11
923.4201226491464
 21
1989.338897593913
 31
0.0
  0
ARC
  5
2B2
330
15
100
AcDbEntity
  8
4
100
AcDbCircle
 10
923.4201226491464
 20
1985.463518718634
 30
0.0
 40
3.875378875279244
100
AcDbArc
 50
44.95592676274281
 51
135.0440732372572
  0
ARC
  5
2B3
330
15
100
AcDbEntity
  8
4
100
AcDbCircle
 10
906.9656399772416
 20
1985.463518718634
 30
0.0
 40
3.875378875279264
100
AcDbArc
 50
44.95592676274281
 51
135.0440732372572
  0
LINE
  5
2B4
330
15
100
AcDbEntity
  8
4
100
AcDbLine
 10
920.6777088704953
 20
1988.201716683287
 30
0.0
 11
920.6777088704953
 21
1981.338897593913
 31
0.0
  0
LINE
  5
2B5
330
15
100
AcDbEntity
  8
4
100
AcDbLine
 10
909.7080537558927
 20
1988.201716683287
 30
0.0
 11
909.7080537558927
 21
1981.338897593912
 31
0.0
  0
LINE
  5
2B6
330
15
100
AcDbEntity
  8
L-CENTER
 48
2.0
100
AcDbLine
 10
915.192881313194
 20
1992.939737474017
 30
0.0
 11
915.1928813131949
 21
1939.856203266876
 31
0.0
  0
LINE
  5
2B7
330
15
100
AcDbEntity
  8
4
100
AcDbLine
 10
452.2795764429852
 20
1604.238897593908
 30
0.0
 11
474.2188866721922
 21
1604.238897593908
 31
0.0
  0
LINE
  5
2B8
330
15
100
AcDbEntity
  8
4
100
AcDbLine
 10
452.2795764429852
 20
1601.238897593908
 30
0.0
 11
474.2188866721922
 21
1601.238897593908
 31
0.0
  0
ARC
  5
2B9
330
15
100
AcDbEntity
  8
4
100
AcDbCircle
 10
463.2492315575896
 20
1607.034641729086
 30
0.0
 40
13.7957441351769
100
AcDbArc
 50
246.5734024913674
 51
293.4265975086279
  0
LINE
  5
2BA
330
15
100
AcDbEntity
  8
4
100
AcDbLine
 10
471.4764728935411
 20
1593.238897593908
 30
0.0
 11
455.0219902216363
 21
1593.238897593908
 31
0.0
  0
LINE
  5
2BB
330
15
100
AcDbEntity
  8
4
100
AcDbLine
 10
452.2795764429852
 20
1594.376078504536
 30
0.0
 11
452.2795764429852
 21
1604.238897593908
 31
0.0
  0
ARC
  5
2BC
330
15
100
AcDbEntity
  8
4
100
AcDbCircle
 10
455.0219902216363
 20
1597.114276469189
 30
0.0
 40
3.875378875279244
100
AcDbArc
 50
224.9559267627618
 51
315.0440732372572
  0
LINE
  5
2BD
330
15
100
AcDbEntity
  8
4
100
AcDbLine
 10
457.7644040002874
 20
1594.376078504536
 30
0.0
 11
457.7644040002874
 21
1601.238897593908
 31
0.0
  0
LINE
  5
2BE
330
15
100
AcDbEntity
  8
4
100
AcDbLine
 10
474.2188866721922
 20
1604.238897593908
 30
0.0
 11
474.2188866721922
 21
1594.376078504536
 31
0.0
  0
ARC
  5
2BF
330
15
100
AcDbEntity
  8
4
100
AcDbCircle
 10
471.4764728935411
 20
1597.114276469189
 30
0.0
 40
3.875378875279264
100
AcDbArc
 50
224.9559267627618
 51
315.0440732372572
  0
LINE
  5
2C0
330
15
100
AcDbEntity
  8
4
100
AcDbLine
 10
468.73405911489
 20
1594.376078504536
 30
0.0
 11
468.73405911489
 21
1601.238897593908
 31
0.0
  0
LINE
  5
2C1
330
15
100
AcDbEntity
  8
4
100
AcDbLine
 10
659.4621256330051
 20
1604.238897593908
 30
0.0
 11
659.4621256330051
 21
1594.376078504536
 31
0.0
  0
LINE
  5
2C2
330
15
100
AcDbEntity
  8
4
100
AcDbLine
 10
681.4014358622103
 20
1594.376078504536
 30
0.0
 11
681.4014358622103
 21
1604.238897593908
 31
0.0
  0
LINE
  5
2C3
330
15
100
AcDbEntity
  8
4
100
AcDbLine
 10
681.4014358622103
 20
1604.238897593908
 30
0.0
 11
659.4621256330051
 21
1604.238897593908
 31
0.0
  0
LINE
  5
2C4
330
15
100
AcDbEntity
  8
4
100
AcDbLine
 10
664.9469531903055
 20
1594.376078504536
 30
0.0
 11
664.9469531903055
 21
1601.238897593908
 31
0.0
  0
ARC
  5
2C5
330
15
100
AcDbEntity
  8
4
100
AcDbCircle
 10
662.2045394116544
 20
1597.114276469189
 30
0.0
 40
3.875378875279264
100
AcDbArc
 50
224.9559267627618
 51
315.0440732372572
  0
LINE
  5
2C6
330
15
100
AcDbEntity
  8
4
100
AcDbLine
 10
675.9166083049081
 20
1594.376078504536
 30
0.0
 11
675.9166083049081
 21
1601.238897593908
 31
0.0
  0
ARC
  5
2C7
330
15
100
AcDbEntity
  8
4
100
AcDbCircle
 10
678.6590220835592
 20
1597.114276469189
 30
0.0
 40
3.875378875279244
100
AcDbArc
 50
224.9559267627618
 51
315.0440732372572
  0
LINE
  5
2C8
330
15
100
AcDbEntity
  8
4
100
AcDbLine
 10
662.2045394116544
 20
1593.238897593908
 30
0.0
 11
678.6590220835592
 21
1593.238897593908
 31
0.0
  0
ARC
  5
2C9
330
15
100
AcDbEntity
  8
4
100
AcDbCircle
 10
670.4317807476077
 20
1607.034641729086
 30
0.0
 40
13.7957441351769
100
AcDbArc
 50
246.5734024913674
 51
293.4265975086279
  0
LINE
  5
2CA
330
15
100
AcDbEntity
  8
4
100
AcDbLine
 10
681.4014358622103
 20
1601.238897593908
 30
0.0
 11
659.4621256330051
 21
1601.238897593908
 31
0.0
  0
LINE
  5
2CB
330
15
100
AcDbEntity
  8
L-CENTER
 48
2.0
100
AcDbLine
 10
670.4317807476077
 20
1589.638057713804
 30
0.0
 11
670.4317807476077
 21
1642.721591920945
 31
0.0
  0
LINE
  5
2CC
330
15
100
AcDbEntity
  8
L-CENTER
 48
2.0
100
AcDbLine
 10
463.2492315575896
 20
1589.638057713804
 30
0.0
 11
463.2492315575896
 21
1642.721591920945
 31
0.0
  0
LINE
  5
2CD
330
15
100
AcDbEntity
  8
4
100
AcDbLine
 10
747.5184758773962
 20
1594.376078504535
 30
0.0
 11
747.5184758773962
 21
1604.238897593908
 31
0.0
  0
LINE
  5
2CE
330
15
100
AcDbEntity
  8
4
100
AcDbLine
 10
769.4577861066023
 20
1604.238897593908
 30
0.0
 11
769.4577861066023
 21
1594.376078504535
 31
0.0
  0
LINE
  5
2CF
330
15
100
AcDbEntity
  8
4
100
AcDbLine
 10
747.5184758773962
 20
1604.238897593908
 30
0.0
 11
769.4577861066023
 21
1604.238897593908
 31
0.0
  0
LINE
  5
2D0
330
15
100
AcDbEntity
  8
4
100
AcDbLine
 10
747.5184758773962
 20
1601.238897593908
 30
0.0
 11
769.4577861066023
 21
1601.238897593908
 31
0.0
  0
ARC
  5
2D1
330
15
100
AcDbEntity
  8
4
100
AcDbCircle
 10
758.4881309919997
 20
1607.034641729086
 30
0.0
 40
13.7957441351769
100
AcDbArc
 50
246.5734024913725
 51
293.4265975086275
  0
LINE
  5
2D2
330
15
100
AcDbEntity
  8
4
100
AcDbLine
 10
766.7153723279521
 20
1593.238897593908
 30
0.0
 11
750.2608896560473
 21
1593.238897593908
 31
0.0
  0
ARC
  5
2D3
330
15
100
AcDbEntity
  8
4
100
AcDbCircle
 10
750.2608896560473
 20
1597.114276469188
 30
0.0
 40
3.875378875279244
100
AcDbArc
 50
224.9559267627428
 51
315.0440732372572
  0
ARC
  5
2D4
330
15
100
AcDbEntity
  8
4
100
AcDbCircle
 10
766.7153723279521
 20
1597.114276469188
 30
0.0
 40
3.875378875279264
100
AcDbArc
 50
224.9559267627428
 51
315.0440732372572
  0
LINE
  5
2D5
330
15
100
AcDbEntity
  8
4
100
AcDbLine
 10
753.0033034346984
 20
1594.376078504535
 30
0.0
 11
753.0033034346984
 21
1601.238897593908
 31
0.0
  0
LINE
  5
2D6
330
15
100
AcDbEntity
  8
4
100
AcDbLine
 10
763.972958549301
 20
1594.376078504535
 30
0.0
 11
763.972958549301
 21
1601.238897593908
 31
0.0
  0
LINE
  5
2D7
330
15
100
AcDbEntity
  8
L-CENTER
 48
2.0
100
AcDbLine
 10
758.4881309919997
 20
1589.538057713804
 30
0.0
 11
758.4881309919997
 21
1642.621591920944
 31
0.0
  0
LINE
  5
2D8
330
15
100
AcDbEntity
  8
4
100
AcDbLine
 10
904.2232261985923
 20
1604.238897593907
 30
0.0
 11
904.2232261985914
 21
1594.376078504533
 31
0.0
  0
LINE
  5
2D9
330
15
100
AcDbEntity
  8
4
100
AcDbLine
 10
926.1625364277975
 20
1594.376078504532
 30
0.0
 11
926.1625364277975
 21
1604.238897593906
 31
0.0
  0
LINE
  5
2DA
330
15
100
AcDbEntity
  8
4
100
AcDbLine
 10
926.1625364277975
 20
1604.238897593906
 30
0.0
 11
904.2232261985923
 21
1604.238897593907
 31
0.0
  0
LINE
  5
2DB
330
15
100
AcDbEntity
  8
4
100
AcDbLine
 10
909.7080537558927
 20
1594.376078504532
 30
0.0
 11
909.7080537558927
 21
1601.238897593907
 31
0.0
  0
LINE
  5
2DC
330
15
100
AcDbEntity
  8
4
100
AcDbLine
 10
920.6777088704953
 20
1594.376078504532
 30
0.0
 11
920.6777088704953
 21
1601.238897593906
 31
0.0
  0
ARC
  5
2DD
330
15
100
AcDbEntity
  8
4
100
AcDbCircle
 10
906.9656399772416
 20
1597.114276469185
 30
0.0
 40
3.875378875279264
100
AcDbArc
 50
224.9559267627428
 51
315.0440732372572
  0
ARC
  5
2DE
330
15
100
AcDbEntity
  8
4
100
AcDbCircle
 10
923.4201226491464
 20
1597.114276469185
 30
0.0
 40
3.875378875279244
100
AcDbArc
 50
224.9559267627428
 51
315.0440732372572
  0
LINE
  5
2DF
330
15
100
AcDbEntity
  8
4
100
AcDbLine
 10
906.9656399772416
 20
1593.238897593907
 30
0.0
 11
923.4201226491464
 21
1593.238897593906
 31
0.0
  0
ARC
  5
2E0
330
15
100
AcDbEntity
  8
4
100
AcDbCircle
 10
915.1928813131949
 20
1607.034641729084
 30
0.0
 40
13.7957441351769
100
AcDbArc
 50
246.5734024913699
 51
293.4265975086224
  0
LINE
  5
2E1
330
15
100
AcDbEntity
  8
4
100
AcDbLine
 10
926.1625364277975
 20
1601.238897593906
 30
0.0
 11
904.2232261985914
 21
1601.238897593907
 31
0.0
  0
LINE
  5
2E2
330
15
100
AcDbEntity
  8
L-CENTER
 48
2.0
100
AcDbLine
 10
915.192881313194
 20
1589.638057713802
 30
0.0
 11
915.1928813131949
 21
1642.721591920943
 31
0.0
  0
CIRCLE
  5
2E3
330
15
100
AcDbEntity
  8
4
100
AcDbCircle
 10
1945.136072925232
 20
310.8792906844919
 30
0.0
 40
12.0
  0
LINE
  5
2E4
330
15
100
AcDbEntity
  8
4
100
AcDbLine
 10
1931.751812065428
 20
314.465592573164
 30
0.0
 11
1935.3381139541
 21
301.0813317133593
 31
0.0
  0
LINE
  5
2E5
330
15
100
AcDbEntity
  8
4
100
AcDbLine
 10
1958.520333785038
 20
307.2929887958198
 30
0.0
 11
1954.934031896366
 21
320.6772496556246
 31
0.0
  0
LINE
  5
2E6
330
15
100
AcDbEntity
  8
4
100
AcDbLine
 10
1948.722374813906
 20
297.4950298246863
 30
0.0
 11
1958.520333785038
 21
307.2929887958198
 31
0.0
  0
LINE
  5
2E7
330
15
100
AcDbEntity
  8
4
100
AcDbLine
 10
1935.3381139541
 20
301.0813317133593
 30
0.0
 11
1948.722374813906
 21
297.4950298246863
 31
0.0
  0
LINE
  5
2E8
330
15
100
AcDbEntity
  8
4
100
AcDbLine
 10
1954.934031896366
 20
320.6772496556246
 30
0.0
 11
1941.549771036561
 21
324.2635515442967
 31
0.0
  0
LINE
  5
2E9
330
15
100
AcDbEntity
  8
4
100
AcDbLine
 10
1941.549771036561
 20
324.2635515442967
 30
0.0
 11
1931.751812065428
 21
314.465592573164
 31
0.0
  0
CIRCLE
  5
2EA
330
15
100
AcDbEntity
  8
4
100
AcDbCircle
 10
2068.879759632879
 20
187.1356039768466
 30
0.0
 40
12.0
  0
LINE
  5
2EB
330
15
100
AcDbEntity
  8
4
100
AcDbLine
 10
2055.495498773075
 20
190.7219058655187
 30
0.0
 11
2059.081800661747
 21
177.337645005714
 31
0.0
  0
LINE
  5
2EC
330
15
100
AcDbEntity
  8
4
100
AcDbLine
 10
2082.264020492684
 20
183.5493020881745
 30
0.0
 11
2078.677718604012
 21
196.9335629479788
 31
0.0
  0
LINE
  5
2ED
330
15
100
AcDbEntity
  8
4
100
AcDbLine
 10
2072.466061521551
 20
173.751343117041
 30
0.0
 11
2082.264020492684
 21
183.5493020881745
 31
0.0
  0
LINE
  5
2EE
330
15
100
AcDbEntity
  8
4
100
AcDbLine
 10
2059.081800661747
 20
177.337645005714
 30
0.0
 11
2072.466061521551
 21
173.751343117041
 31
0.0
  0
LINE
  5
2EF
330
15
100
AcDbEntity
  8
4
100
AcDbLine
 10
2078.677718604012
 20
196.9335629479788
 30
0.0
 11
2065.293457744207
 21
200.5198648366509
 31
0.0
  0
LINE
  5
2F0
330
15
100
AcDbEntity
  8
4
100
AcDbLine
 10
2065.293457744207
 20
200.5198648366509
 30
0.0
 11
2055.495498773075
 21
190.7219058655187
 31
0.0
  0
LINE
  5
2F1
330
15
100
AcDbEntity
  8
4
100
AcDbLine
 10
1958.520330285039
 20
190.7219093655185
 30
0.0
 11
1948.722371313905
 21
200.5198683366507
 31
0.0
  0
LINE
  5
2F2
330
15
100
AcDbEntity
  8
4
100
AcDbLine
 10
1948.722371313905
 20
200.5198683366507
 30
0.0
 11
1935.338110454101
 21
196.9335664479786
 31
0.0
  0
LINE
  5
2F3
330
15
100
AcDbEntity
  8
4
100
AcDbLine
 10
1931.751808565429
 20
183.5493055881739
 30
0.0
 11
1941.549767536561
 21
173.7513466170412
 31
0.0
  0
CIRCLE
  5
2F4
330
15
100
AcDbEntity
  8
4
100
AcDbCircle
 10
1945.136069425233
 20
187.135607476846
 30
0.0
 40
12.0
  0
LINE
  5
2F5
330
15
100
AcDbEntity
  8
4
100
AcDbLine
 10
1935.338110454101
 20
196.9335664479786
 30
0.0
 11
1931.751808565429
 21
183.5493055881739
 31
0.0
  0
LINE
  5
2F6
330
15
100
AcDbEntity
  8
4
100
AcDbLine
 10
1954.934028396366
 20
177.3376485057133
 30
0.0
 11
1958.520330285039
 21
190.7219093655185
 31
0.0
  0
LINE
  5
2F7
330
15
100
AcDbEntity
  8
4
100
AcDbLine
 10
1941.549767536561
 20
173.7513466170412
 30
0.0
 11
1954.934028396366
 21
177.3376485057133
 31
0.0
  0
LINE
  5
2F8
330
15
100
AcDbEntity
  8
4
100
AcDbLine
 10
2082.264019292923
 20
314.4655937729253
 30
0.0
 11
2072.46606032179
 21
324.2635527440575
 31
0.0
  0
LINE
  5
2F9
330
15
100
AcDbEntity
  8
4
100
AcDbLine
 10
2072.46606032179
 20
324.2635527440575
 30
0.0
 11
2059.081799461985
 21
320.6772508553854
 31
0.0
  0
LINE
  5
2FA
330
15
100
AcDbEntity
  8
4
100
AcDbLine
 10
2055.495497573313
 20
307.2929899955807
 30
0.0
 11
2065.293456544446
 21
297.4950310244481
 31
0.0
  0
CIRCLE
  5
2FB
330
15
100
AcDbEntity
  8
4
100
AcDbCircle
 10
2068.879758433118
 20
310.8792918842528
 30
0.0
 40
12.0
  0
LINE
  5
2FC
330
15
100
AcDbEntity
  8
4
100
AcDbLine
 10
2059.081799461985
 20
320.6772508553854
 30
0.0
 11
2055.495497573313
 21
307.2929899955807
 31
0.0
  0
LINE
  5
2FD
330
15
100
AcDbEntity
  8
4
100
AcDbLine
 10
2078.677717404251
 20
301.0813329131201
 30
0.0
 11
2082.264019292923
 21
314.4655937729253
 31
0.0
  0
LINE
  5
2FE
330
15
100
AcDbEntity
  8
4
100
AcDbLine
 10
2065.293456544446
 20
297.4950310244481
 30
0.0
 11
2078.677717404251
 21
301.0813329131201
 31
0.0
  0
LINE
  5
2FF
330
15
100
AcDbEntity
  8
L-CENTER
 48
2.0
100
AcDbLine
 10
1135.076988588418
 20
310.8792906844919
 30
0.0
 11
1075.788836440108
 21
310.8792906844919
 31
0.0
  0
LINE
  5
300
330
15
100
AcDbEntity
  8
4
100
AcDbLine
 10
1129.370033248279
 20
303.9510874542166
 30
0.0
 11
1120.730505152598
 21
303.9510874542166
 31
0.0
  0
LINE
  5
301
330
15
100
AcDbEntity
  8
4
100
AcDbLine
 10
1116.730505152598
 20
297.0228842239412
 30
0.0
 11
1129.370033248279
 21
297.0228842239412
 31
0.0
  0
LINE
  5
302
330
15
100
AcDbEntity
  8
4
100
AcDbLine
 10
1129.370033248279
 20
317.8074939147673
 30
0.0
 11
1120.730505152598
 21
317.8074939147673
 31
0.0
  0
LINE
  5
303
330
15
100
AcDbEntity
  8
4
100
AcDbLine
 10
1129.370033248279
 20
324.7356971450436
 30
0.0
 11
1116.730505152598
 21
324.7356971450436
 31
0.0
  0
LINE
  5
304
330
15
100
AcDbEntity
  8
4
100
AcDbLine
 10
1120.730505152598
 20
324.7356971450436
 30
0.0
 11
1120.730505152598
 21
297.0228842239412
 31
0.0
  0
LINE
  5
305
330
15
100
AcDbEntity
  8
4
100
AcDbLine
 10
1116.730505152598
 20
324.7356971450436
 30
0.0
 11
1116.730505152598
 21
297.0228842239412
 31
0.0
  0
ARC
  5
306
330
15
100
AcDbEntity
  8
4
100
AcDbCircle
 10
1125.640034795045
 20
300.4869858390784
 30
0.0
 40
5.090470357553002
100
AcDbArc
 50
317.1167115949141
 51
42.88328840508593
  0
ARC
  5
307
330
15
100
AcDbEntity
  8
4
100
AcDbCircle
 10
1125.640034795045
 20
321.2715955299054
 30
0.0
 40
5.090470357553012
100
AcDbArc
 50
317.1167115949141
 51
42.88328840508593
  0
ARC
  5
308
330
15
100
AcDbEntity
  8
4
100
AcDbCircle
 10
1112.409331578865
 20
310.8792906844919
 30
0.0
 40
18.32117357373317
100
AcDbArc
 50
337.7806898294696
 51
22.21931017052721
  0
LINE
  5
309
330
15
100
AcDbEntity
  8
4
100
AcDbLine
 10
1130.730505152598
 20
300.4869858390784
 30
0.0
 11
1130.730505152598
 21
321.2715955299054
 31
0.0
  0
ARC
  5
30A
330
15
100
AcDbEntity
  8
4
100
AcDbCircle
 10
1112.409331578866
 20
187.1356039768457
 30
0.0
 40
18.32117357373317
100
AcDbArc
 50
337.7806898294712
 51
22.21931017052882
  0
ARC
  5
30B
330
15
100
AcDbEntity
  8
4
100
AcDbCircle
 10
1125.640034795047
 20
176.7432991314322
 30
0.0
 40
5.090470357553012
100
AcDbArc
 50
317.1167115949141
 51
42.88328840509315
  0
LINE
  5
30C
330
15
100
AcDbEntity
  8
4
100
AcDbLine
 10
1129.37003324828
 20
173.2791975162941
 30
0.0
 11
1116.7305051526
 21
173.2791975162941
 31
0.0
  0
LINE
  5
30D
330
15
100
AcDbEntity
  8
4
100
AcDbLine
 10
1129.37003324828
 20
180.2074007465703
 30
0.0
 11
1120.7305051526
 21
180.2074007465703
 31
0.0
  0
LINE
  5
30E
330
15
100
AcDbEntity
  8
4
100
AcDbLine
 10
1129.370033248279
 20
194.063807207121
 30
0.0
 11
1120.730505152599
 21
194.063807207121
 31
0.0
  0
LINE
  5
30F
330
15
100
AcDbEntity
  8
4
100
AcDbLine
 10
1130.730505152599
 20
197.5279088222592
 30
0.0
 11
1130.7305051526
 21
176.7432991314322
 31
0.0
  0
ARC
  5
310
330
15
100
AcDbEntity
  8
4
100
AcDbCircle
 10
1125.640034795046
 20
197.5279088222592
 30
0.0
 40
5.090470357553002
100
AcDbArc
 50
317.1167115949141
 51
42.88328840509141
  0
LINE
  5
311
330
15
100
AcDbEntity
  8
4
100
AcDbLine
 10
1116.7305051526
 20
173.2791975162941
 30
0.0
 11
1116.730505152599
 21
200.9920104373964
 31
0.0
  0
LINE
  5
312
330
15
100
AcDbEntity
  8
4
100
AcDbLine
 10
1120.7305051526
 20
173.2791975162941
 30
0.0
 11
1120.730505152599
 21
200.9920104373964
 31
0.0
  0
LINE
  5
313
330
15
100
AcDbEntity
  8
4
100
AcDbLine
 10
1116.730505152599
 20
200.9920104373964
 30
0.0
 11
1129.370033248279
 21
200.9920104373964
 31
0.0
  0
LINE
  5
314
330
15
100
AcDbEntity
  8
4
100
AcDbLine
 10
1117.730504152599
 20
204.007443330669
 30
0.0
 11
1116.730505152598
 21
204.007443330669
 31
0.0
  0
LINE
  5
315
330
15
100
AcDbEntity
  8
4
100
AcDbLine
 10
258.1305071525973
 20
200.9920104373964
 30
0.0
 11
245.4909790569169
 21
200.9920104373964
 31
0.0
  0
LINE
  5
316
330
15
100
AcDbEntity
  8
4
100
AcDbLine
 10
254.1305071525968
 20
173.2791975162941
 30
0.0
 11
254.1305071525973
 21
200.9920104373964
 31
0.0
  0
LINE
  5
317
330
15
100
AcDbEntity
  8
4
100
AcDbLine
 10
258.1305071525968
 20
173.2791975162941
 30
0.0
 11
258.1305071525973
 21
200.9920104373964
 31
0.0
  0
ARC
  5
318
330
15
100
AcDbEntity
  8
4
100
AcDbCircle
 10
249.2209775101506
 20
197.5279088222592
 30
0.0
 40
5.090470357553002
100
AcDbArc
 50
137.1167115949077
 51
222.8832884050859
  0
LINE
  5
319
330
15
100
AcDbEntity
  8
4
100
AcDbLine
 10
244.1305071525973
 20
197.5279088222592
 30
0.0
 11
244.1305071525968
 21
176.7432991314322
 31
0.0
  0
LINE
  5
31A
330
15
100
AcDbEntity
  8
4
100
AcDbLine
 10
245.4909790569169
 20
194.063807207121
 30
0.0
 11
254.1305071525973
 21
194.063807207121
 31
0.0
  0
LINE
  5
31B
330
15
100
AcDbEntity
  8
4
100
AcDbLine
 10
245.4909790569164
 20
180.2074007465703
 30
0.0
 11
254.1305071525968
 21
180.2074007465703
 31
0.0
  0
LINE
  5
31C
330
15
100
AcDbEntity
  8
4
100
AcDbLine
 10
245.4909790569164
 20
173.2791975162941
 30
0.0
 11
258.1305071525968
 21
173.2791975162941
 31
0.0
  0
ARC
  5
31D
330
15
100
AcDbEntity
  8
4
100
AcDbCircle
 10
249.2209775101502
 20
176.7432991314322
 30
0.0
 40
5.090470357553012
100
AcDbArc
 50
137.1167115949141
 51
222.8832884050859
  0
ARC
  5
31E
330
15
100
AcDbEntity
  8
4
100
AcDbCircle
 10
262.45168072633
 20
187.1356039768457
 30
0.0
 40
18.32117357373317
100
AcDbArc
 50
157.7806898294696
 51
202.2193101705288
  0
LINE
  5
31F
330
15
100
AcDbEntity
  8
4
100
AcDbLine
 10
244.1305071525986
 20
300.4869858390784
 30
0.0
 11
244.1305071525986
 21
321.2715955299054
 31
0.0
  0
ARC
  5
320
330
15
100
AcDbEntity
  8
4
100
AcDbCircle
 10
262.4516807263318
 20
310.8792906844919
 30
0.0
 40
18.32117357373317
100
AcDbArc
 50
157.7806898294712
 51
202.2193101705304
  0
ARC
  5
321
330
15
100
AcDbEntity
  8
4
100
AcDbCircle
 10
249.220977510152
 20
321.2715955299054
 30
0.0
 40
5.090470357553012
100
AcDbArc
 50
137.1167115949141
 51
222.8832884050859
  0
ARC
  5
322
330
15
100
AcDbEntity
  8
4
100
AcDbCircle
 10
249.220977510152
 20
300.4869858390784
 30
0.0
 40
5.090470357553002
100
AcDbArc
 50
137.1167115949141
 51
222.8832884050859
  0
LINE
  5
323
330
15
100
AcDbEntity
  8
4
100
AcDbLine
 10
258.1305071525986
 20
324.7356971450436
 30
0.0
 11
258.1305071525986
 21
297.0228842239412
 31
0.0
  0
LINE
  5
324
330
15
100
AcDbEntity
  8
4
100
AcDbLine
 10
254.1305071525986
 20
324.7356971450436
 30
0.0
 11
254.1305071525986
 21
297.0228842239412
 31
0.0
  0
LINE
  5
325
330
15
100
AcDbEntity
  8
4
100
AcDbLine
 10
245.4909790569183
 20
324.7356971450436
 30
0.0
 11
258.1305071525986
 21
324.7356971450436
 31
0.0
  0
LINE
  5
326
330
15
100
AcDbEntity
  8
4
100
AcDbLine
 10
245.4909790569183
 20
317.8074939147673
 30
0.0
 11
254.1305071525986
 21
317.8074939147673
 31
0.0
  0
LINE
  5
327
330
15
100
AcDbEntity
  8
4
100
AcDbLine
 10
258.1305071525986
 20
297.0228842239412
 30
0.0
 11
245.4909790569183
 21
297.0228842239412
 31
0.0
  0
LINE
  5
328
330
15
100
AcDbEntity
  8
4
100
AcDbLine
 10
245.4909790569183
 20
303.9510874542166
 30
0.0
 11
254.1305071525986
 21
303.9510874542166
 31
0.0
  0
LINE
  5
329
330
15
100
AcDbEntity
  8
4
100
AcDbLine
 10
1116.730505152599
 20
1685.123460700637
 30
0.0
 11
1129.370033248279
 21
1685.123460700637
 31
0.0
  0
LINE
  5
32A
330
15
100
AcDbEntity
  8
4
100
AcDbLine
 10
1120.7305051526
 20
1657.410647779534
 30
0.0
 11
1120.730505152599
 21
1685.123460700637
 31
0.0
  0
LINE
  5
32B
330
15
100
AcDbEntity
  8
4
100
AcDbLine
 10
1116.7305051526
 20
1657.410647779534
 30
0.0
 11
1116.730505152599
 21
1685.123460700637
 31
0.0
  0
ARC
  5
32C
330
15
100
AcDbEntity
  8
4
100
AcDbCircle
 10
1125.640034795047
 20
1681.659359085499
 30
0.0
 40
5.090470357553002
100
AcDbArc
 50
317.1167115949086
 51
42.88328840509141
  0
LINE
  5
32D
330
15
100
AcDbEntity
  8
4
100
AcDbLine
 10
1130.730505152599
 20
1681.659359085499
 30
0.0
 11
1130.7305051526
 21
1660.874749394672
 31
0.0
  0
LINE
  5
32E
330
15
100
AcDbEntity
  8
4
100
AcDbLine
 10
1129.370033248279
 20
1678.195257470361
 30
0.0
 11
1120.730505152599
 21
1678.195257470361
 31
0.0
  0
LINE
  5
32F
330
15
100
AcDbEntity
  8
4
100
AcDbLine
 10
1129.37003324828
 20
1664.33885100981
 30
0.0
 11
1120.7305051526
 21
1664.33885100981
 31
0.0
  0
LINE
  5
330
330
15
100
AcDbEntity
  8
4
100
AcDbLine
 10
1129.37003324828
 20
1657.410647779534
 30
0.0
 11
1116.7305051526
 21
1657.410647779534
 31
0.0
  0
ARC
  5
331
330
15
100
AcDbEntity
  8
4
100
AcDbCircle
 10
1125.640034795047
 20
1660.874749394672
 30
0.0
 40
5.090470357553012
100
AcDbArc
 50
317.1167115949213
 51
42.88328840509141
  0
ARC
  5
332
330
15
100
AcDbEntity
  8
4
100
AcDbCircle
 10
1112.409331578866
 20
1671.267054240087
 30
0.0
 40
18.32117357373317
100
AcDbArc
 50
337.7806898294712
 51
22.2193101705259
  0
LINE
  5
333
330
15
100
AcDbEntity
  8
4
100
AcDbLine
 10
1130.730505152598
 20
1784.618436102319
 30
0.0
 11
1130.730505152598
 21
1805.403045793146
 31
0.0
  0
ARC
  5
334
330
15
100
AcDbEntity
  8
4
100
AcDbCircle
 10
1112.409331578865
 20
1795.010740947732
 30
0.0
 40
18.32117357373317
100
AcDbArc
 50
337.7806898294712
 51
22.21931017052882
  0
ARC
  5
335
330
15
100
AcDbEntity
  8
4
100
AcDbCircle
 10
1125.640034795045
 20
1805.403045793146
 30
0.0
 40
5.090470357553012
100
AcDbArc
 50
317.1167115949086
 51
42.88328840509141
  0
ARC
  5
336
330
15
100
AcDbEntity
  8
4
100
AcDbCircle
 10
1125.640034795045
 20
1784.618436102319
 30
0.0
 40
5.090470357553002
100
AcDbArc
 50
317.1167115949086
 51
42.88328840509141
  0
LINE
  5
337
330
15
100
AcDbEntity
  8
4
100
AcDbLine
 10
1116.730505152598
 20
1808.867147408284
 30
0.0
 11
1116.730505152598
 21
1781.154334487182
 31
0.0
  0
LINE
  5
338
330
15
100
AcDbEntity
  8
4
100
AcDbLine
 10
1120.730505152598
 20
1808.867147408284
 30
0.0
 11
1120.730505152598
 21
1781.154334487182
 31
0.0
  0
LINE
  5
339
330
15
100
AcDbEntity
  8
4
100
AcDbLine
 10
1129.370033248279
 20
1808.867147408284
 30
0.0
 11
1116.730505152598
 21
1808.867147408284
 31
0.0
  0
LINE
  5
33A
330
15
100
AcDbEntity
  8
4
100
AcDbLine
 10
1129.370033248279
 20
1801.938944178008
 30
0.0
 11
1120.730505152598
 21
1801.938944178008
 31
0.0
  0
LINE
  5
33B
330
15
100
AcDbEntity
  8
4
100
AcDbLine
 10
1116.730505152598
 20
1781.154334487182
 30
0.0
 11
1129.370033248279
 21
1781.154334487182
 31
0.0
  0
LINE
  5
33C
330
15
100
AcDbEntity
  8
4
100
AcDbLine
 10
1129.370033248279
 20
1788.082537717457
 30
0.0
 11
1120.730505152598
 21
1788.082537717457
 31
0.0
  0
ARC
  5
33D
330
15
100
AcDbEntity
  8
4
100
AcDbCircle
 10
262.4516807263304
 20
1671.267054240087
 30
0.0
 40
18.32117357373317
100
AcDbArc
 50
157.7806898294711
 51
202.2193101705288
  0
ARC
  5
33E
330
15
100
AcDbEntity
  8
4
100
AcDbCircle
 10
249.2209775101502
 20
1660.874749394672
 30
0.0
 40
5.090470357553012
100
AcDbArc
 50
137.1167115949077
 51
222.8832884050787
  0
LINE
  5
33F
330
15
100
AcDbEntity
  8
4
100
AcDbLine
 10
245.4909790569164
 20
1657.410647779534
 30
0.0
 11
258.1305071525968
 21
1657.410647779534
 31
0.0
  0
LINE
  5
340
330
15
100
AcDbEntity
  8
4
100
AcDbLine
 10
245.4909790569164
 20
1664.33885100981
 30
0.0
 11
254.1305071525968
 21
1664.33885100981
 31
0.0
  0
LINE
  5
341
330
15
100
AcDbEntity
  8
4
100
AcDbLine
 10
245.4909790569169
 20
1678.195257470361
 30
0.0
 11
254.1305071525973
 21
1678.195257470361
 31
0.0
  0
LINE
  5
342
330
15
100
AcDbEntity
  8
4
100
AcDbLine
 10
244.1305071525973
 20
1681.659359085499
 30
0.0
 11
244.1305071525968
 21
1660.874749394672
 31
0.0
  0
ARC
  5
343
330
15
100
AcDbEntity
  8
4
100
AcDbCircle
 10
249.2209775101506
 20
1681.659359085499
 30
0.0
 40
5.090470357553002
100
AcDbArc
 50
137.1167115949077
 51
222.8832884050795
  0
LINE
  5
344
330
15
100
AcDbEntity
  8
4
100
AcDbLine
 10
258.1305071525968
 20
1657.410647779534
 30
0.0
 11
258.1305071525973
 21
1685.123460700637
 31
0.0
  0
LINE
  5
345
330
15
100
AcDbEntity
  8
4
100
AcDbLine
 10
254.1305071525968
 20
1657.410647779534
 30
0.0
 11
254.1305071525973
 21
1685.123460700637
 31
0.0
  0
LINE
  5
346
330
15
100
AcDbEntity
  8
4
100
AcDbLine
 10
258.1305071525973
 20
1685.123460700637
 30
0.0
 11
245.4909790569169
 21
1685.123460700637
 31
0.0
  0
LINE
  5
347
330
15
100
AcDbEntity
  8
4
100
AcDbLine
 10
245.4909790569183
 20
1788.082537717457
 30
0.0
 11
254.1305071525986
 21
1788.082537717457
 31
0.0
  0
LINE
  5
348
330
15
100
AcDbEntity
  8
4
100
AcDbLine
 10
258.1305071525986
 20
1781.154334487182
 30
0.0
 11
245.4909790569183
 21
1781.154334487182
 31
0.0
  0
LINE
  5
349
330
15
100
AcDbEntity
  8
4
100
AcDbLine
 10
245.4909790569183
 20
1801.938944178008
 30
0.0
 11
254.1305071525986
 21
1801.938944178008
 31
0.0
  0
LINE
  5
34A
330
15
100
AcDbEntity
  8
4
100
AcDbLine
 10
245.4909790569183
 20
1808.867147408284
 30
0.0
 11
258.1305071525986
 21
1808.867147408284
 31
0.0
  0
LINE
  5
34B
330
15
100
AcDbEntity
  8
4
100
AcDbLine
 10
254.1305071525986
 20
1808.867147408284
 30
0.0
 11
254.1305071525986
 21
1781.154334487182
 31
0.0
  0
LINE
  5
34C
330
15
100
AcDbEntity
  8
4
100
AcDbLine
 10
258.1305071525986
 20
1808.867147408284
 30
0.0
 11
258.1305071525986
 21
1781.154334487182
 31
0.0
  0
ARC
  5
34D
330
15
100
AcDbEntity
  8
4
100
AcDbCircle
 10
249.220977510152
 20
1784.618436102319
 30
0.0
 40
5.090470357553002
100
AcDbArc
 50
137.1167115949077
 51
222.8832884050923
  0
ARC
  5
34E
330
15
100
AcDbEntity
  8
4
100
AcDbCircle
 10
249.220977510152
 20
1805.403045793146
 30
0.0
 40
5.090470357553012
100
AcDbArc
 50
137.1167115949077
 51
222.8832884050923
  0
ARC
  5
34F
330
15
100
AcDbEntity
  8
4
100
AcDbCircle
 10
262.4516807263318
 20
1795.010740947732
 30
0.0
 40
18.32117357373317
100
AcDbArc
 50
157.7806898294712
 51
202.2193101705288
  0
LINE
  5
350
330
15
100
AcDbEntity
  8
4
100
AcDbLine
 10
244.1305071525986
 20
1784.618436102319
 30
0.0
 11
244.1305071525986
 21
1805.403045793146
 31
0.0
  0
LINE
  5
351
330
15
100
AcDbEntity
  8
4
100
AcDbLine
 10
1875.107912279056
 20
588.0377922160656
 30
0.0
 11
1875.107912279056
 21
609.9771024452716
 31
0.0
  0
ARC
  5
352
330
15
100
AcDbEntity
  8
4
100
AcDbCircle
 10
1880.903656414233
 20
599.007447330669
 30
0.0
 40
13.7957441351769
100
AcDbArc
 50
156.573402491369
 51
184.8215478413528
  0
LINE
  5
353
330
15
100
AcDbEntity
  8
4
100
AcDbLine
 10
1867.107912279056
 20
607.2346886666214
 30
0.0
 11
1867.107912279056
 21
590.7802059947167
 31
0.0
  0
LINE
  5
354
330
15
100
AcDbEntity
  8
4
100
AcDbLine
 10
1878.107912279056
 20
588.0377922160656
 30
0.0
 11
1878.107912279056
 21
609.9771024452716
 31
0.0
  0
LINE
  5
355
330
15
100
AcDbEntity
  8
4
100
AcDbLine
 10
1868.245093189683
 20
604.4922748879703
 30
0.0
 11
1875.107912279056
 21
604.4922748879703
 31
0.0
  0
LINE
  5
356
330
15
100
AcDbEntity
  8
4
100
AcDbLine
 10
1878.107912279056
 20
609.9771024452716
 30
0.0
 11
1868.245093189683
 21
609.9771024452716
 31
0.0
  0
LINE
  5
357
330
15
100
AcDbEntity
  8
L-CENTER
 48
2.0
100
AcDbLine
 10
1863.507072398952
 20
599.007447330669
 30
0.0
 11
1916.590606606092
 21
599.007447330669
 31
0.0
  0
ARC
  5
358
330
15
100
AcDbEntity
  8
4
100
AcDbCircle
 10
1870.983291154335
 20
607.2346886666214
 30
0.0
 40
3.875378875279264
100
AcDbArc
 50
134.9559267627452
 51
225.0440732372548
  0
LINE
  5
359
330
15
100
AcDbEntity
  8
4
100
AcDbLine
 10
1875.107912279056
 20
578.0377952160652
 30
0.0
 11
1875.107912279056
 21
599.9771054452713
 31
0.0
  0
ARC
  5
35A
330
15
100
AcDbEntity
  8
4
100
AcDbCircle
 10
1880.903656414233
 20
589.0074503306687
 30
0.0
 40
13.7957441351769
100
AcDbArc
 50
156.5734024913708
 51
203.4265975086292
  0
LINE
  5
35B
330
15
100
AcDbEntity
  8
4
100
AcDbLine
 10
1867.107912279056
 20
597.2346916666211
 30
0.0
 11
1867.107912279056
 21
580.7802089947163
 31
0.0
  0
LINE
  5
35C
330
15
100
AcDbEntity
  8
4
100
AcDbLine
 10
1878.107912279056
 20
578.0377952160652
 30
0.0
 11
1878.107912279056
 21
599.9771054452713
 31
0.0
  0
LINE
  5
35D
330
15
100
AcDbEntity
  8
4
100
AcDbLine
 10
1868.245093189683
 20
583.5226227733674
 30
0.0
 11
1875.107912279056
 21
583.5226227733674
 31
0.0
  0
LINE
  5
35E
330
15
100
AcDbEntity
  8
4
100
AcDbLine
 10
1868.245093189683
 20
578.0377952160652
 30
0.0
 11
1878.107912279056
 21
578.0377952160652
 31
0.0
  0
ARC
  5
35F
330
15
100
AcDbEntity
  8
4
100
AcDbCircle
 10
1870.983291154335
 20
580.7802089947163
 30
0.0
 40
3.875378875279244
100
AcDbArc
 50
134.9559267627452
 51
225.0440732372548
  0
LINE
  5
360
330
15
100
AcDbEntity
  8
4
100
AcDbLine
 10
1868.245093189683
 20
594.49227788797
 30
0.0
 11
1875.107912279056
 21
594.49227788797
 31
0.0
  0
LINE
  5
361
330
15
100
AcDbEntity
  8
4
100
AcDbLine
 10
1878.107912279056
 20
599.9771054452713
 30
0.0
 11
1868.245093189683
 21
599.9771054452713
 31
0.0
  0
LINE
  5
362
330
15
100
AcDbEntity
  8
L-CENTER
 48
2.0
100
AcDbLine
 10
1863.507072398952
 20
589.0074503306687
 30
0.0
 11
1916.590606606092
 21
589.0074503306687
 31
0.0
  0
ARC
  5
363
330
15
100
AcDbEntity
  8
4
100
AcDbCircle
 10
1870.983291154335
 20
597.2346916666211
 30
0.0
 40
3.875378875279264
100
AcDbArc
 50
134.9559267627452
 51
225.0440732372548
  0
LINE
  5
364
330
15
100
AcDbEntity
  8
4
100
AcDbLine
 10
1875.107912279056
 20
528.0380953767585
 30
0.0
 11
1875.107912279056
 21
549.9774056059646
 31
0.0
  0
LINE
  5
365
330
15
100
AcDbEntity
  8
4
100
AcDbLine
 10
1867.107912279056
 20
535.7803589451028
 30
0.0
 11
1867.107912279057
 21
530.7805091554096
 31
0.0
  0
LINE
  5
366
330
15
100
AcDbEntity
  8
4
100
AcDbLine
 10
1878.107912279056
 20
528.0380953767585
 30
0.0
 11
1878.107912279056
 21
549.9774056059646
 31
0.0
  0
LINE
  5
367
330
15
100
AcDbEntity
  8
4
100
AcDbLine
 10
1868.245093189684
 20
528.0380953767585
 30
0.0
 11
1878.107912279056
 21
528.0380953767585
 31
0.0
  0
ARC
  5
368
330
15
100
AcDbEntity
  8
4
100
AcDbCircle
 10
1870.983291154335
 20
530.7805091554096
 30
0.0
 40
3.875378875279244
100
AcDbArc
 50
139.8284134034343
 51
225.0440732372477
  0
LINE
  5
369
330
15
100
AcDbEntity
  8
L-CENTER
 48
2.0
100
AcDbLine
 10
1863.507072398952
 20
539.007750491362
 30
0.0
 11
1916.590606606092
 21
539.007750491362
 31
0.0
  0
LINE
  5
36A
330
15
100
AcDbEntity
  8
4
100
AcDbLine
 10
1875.107912279056
 20
533.0379451664517
 30
0.0
 11
1875.107912279056
 21
554.9772553956577
 31
0.0
  0
ARC
  5
36B
330
15
100
AcDbEntity
  8
4
100
AcDbCircle
 10
1880.903656414233
 20
544.0076002810551
 30
0.0
 40
13.7957441351769
100
AcDbArc
 50
156.573402491369
 51
203.426597508631
  0
LINE
  5
36C
330
15
100
AcDbEntity
  8
4
100
AcDbLine
 10
1867.107912279056
 20
552.2348416170075
 30
0.0
 11
1867.107912279056
 21
535.7803589451028
 31
0.0
  0
LINE
  5
36D
330
15
100
AcDbEntity
  8
4
100
AcDbLine
 10
1878.107912279056
 20
533.0379451664517
 30
0.0
 11
1878.107912279056
 21
554.9772553956577
 31
0.0
  0
LINE
  5
36E
330
15
100
AcDbEntity
  8
4
100
AcDbLine
 10
1868.245093189684
 20
538.5227727237539
 30
0.0
 11
1875.107912279056
 21
538.5227727237539
 31
0.0
  0
LINE
  5
36F
330
15
100
AcDbEntity
  8
4
100
AcDbLine
 10
1868.245093189684
 20
533.0379451664517
 30
0.0
 11
1878.107912279056
 21
533.0379451664517
 31
0.0
  0
ARC
  5
370
330
15
100
AcDbEntity
  8
4
100
AcDbCircle
 10
1870.983291154335
 20
535.7803589451028
 30
0.0
 40
3.875378875279244
100
AcDbArc
 50
134.9559267627452
 51
225.0440732372548
  0
LINE
  5
371
330
15
100
AcDbEntity
  8
4
100
AcDbLine
 10
1868.245093189684
 20
549.4924278383564
 30
0.0
 11
1875.107912279056
 21
549.4924278383564
 31
0.0
  0
LINE
  5
372
330
15
100
AcDbEntity
  8
4
100
AcDbLine
 10
1878.107912279056
 20
554.9772553956577
 30
0.0
 11
1868.245093189684
 21
554.9772553956577
 31
0.0
  0
LINE
  5
373
330
15
100
AcDbEntity
  8
L-CENTER
 48
2.0
100
AcDbLine
 10
1863.507072398952
 20
544.0076002810551
 30
0.0
 11
1916.590606606092
 21
544.0076002810551
 31
0.0
  0
ARC
  5
374
330
15
100
AcDbEntity
  8
4
100
AcDbCircle
 10
1870.983291154335
 20
552.2348416170075
 30
0.0
 40
3.875378875279264
100
AcDbArc
 50
134.9559267627452
 51
225.0440732372548
  0
LINE
  5
375
330
15
100
AcDbEntity
  8
4
100
AcDbLine
 10
1875.107912279056
 20
443.0376437865416
 30
0.0
 11
1875.107912279056
 21
464.9769540157477
 31
0.0
  0
ARC
  5
376
330
15
100
AcDbEntity
  8
4
100
AcDbCircle
 10
1880.903656414233
 20
454.0072989011451
 30
0.0
 40
13.7957441351769
100
AcDbArc
 50
156.5734024913708
 51
203.4265975086292
  0
LINE
  5
377
330
15
100
AcDbEntity
  8
4
100
AcDbLine
 10
1867.107912279056
 20
462.2345402370975
 30
0.0
 11
1867.107912279056
 21
445.7800575651927
 31
0.0
  0
LINE
  5
378
330
15
100
AcDbEntity
  8
4
100
AcDbLine
 10
1878.107912279056
 20
443.0376437865416
 30
0.0
 11
1878.107912279056
 21
464.9769540157477
 31
0.0
  0
LINE
  5
379
330
15
100
AcDbEntity
  8
4
100
AcDbLine
 10
1868.245093189684
 20
448.5224713438438
 30
0.0
 11
1875.107912279056
 21
448.5224713438438
 31
0.0
  0
LINE
  5
37A
330
15
100
AcDbEntity
  8
4
100
AcDbLine
 10
1868.245093189684
 20
443.0376437865416
 30
0.0
 11
1878.107912279056
 21
443.0376437865416
 31
0.0
  0
ARC
  5
37B
330
15
100
AcDbEntity
  8
4
100
AcDbCircle
 10
1870.983291154335
 20
445.7800575651927
 30
0.0
 40
3.875378875279244
100
AcDbArc
 50
134.9559267627452
 51
225.0440732372548
  0
LINE
  5
37C
330
15
100
AcDbEntity
  8
4
100
AcDbLine
 10
1868.245093189684
 20
459.4921264584464
 30
0.0
 11
1875.107912279056
 21
459.4921264584464
 31
0.0
  0
LINE
  5
37D
330
15
100
AcDbEntity
  8
4
100
AcDbLine
 10
1878.107912279056
 20
464.9769540157477
 30
0.0
 11
1868.245093189684
 21
464.9769540157477
 31
0.0
  0
LINE
  5
37E
330
15
100
AcDbEntity
  8
L-CENTER
 48
2.0
100
AcDbLine
 10
1863.507072398952
 20
454.0072989011451
 30
0.0
 11
1916.590606606092
 21
454.0072989011451
 31
0.0
  0
ARC
  5
37F
330
15
100
AcDbEntity
  8
4
100
AcDbCircle
 10
1870.983291154335
 20
462.2345402370975
 30
0.0
 40
3.875378875279264
100
AcDbArc
 50
134.9559267627452
 51
225.0440732372548
  0
LINE
  5
380
330
15
100
AcDbEntity
  8
4
100
AcDbLine
 10
1875.107912279056
 20
408.0380924375936
 30
0.0
 11
1875.107912279056
 21
429.9774026667997
 31
0.0
  0
ARC
  5
381
330
15
100
AcDbEntity
  8
4
100
AcDbCircle
 10
1880.903656414233
 20
419.0077475521971
 30
0.0
 40
13.7957441351769
100
AcDbArc
 50
156.573402491369
 51
184.8223730769658
  0
LINE
  5
382
330
15
100
AcDbEntity
  8
4
100
AcDbLine
 10
1867.107912279056
 20
427.2349888881495
 30
0.0
 11
1867.107912279056
 21
410.7805062162447
 31
0.0
  0
LINE
  5
383
330
15
100
AcDbEntity
  8
4
100
AcDbLine
 10
1878.107912279056
 20
408.0380924375936
 30
0.0
 11
1878.107912279056
 21
429.9774026667997
 31
0.0
  0
LINE
  5
384
330
15
100
AcDbEntity
  8
4
100
AcDbLine
 10
1868.245093189684
 20
424.4925751094984
 30
0.0
 11
1875.107912279056
 21
424.4925751094984
 31
0.0
  0
LINE
  5
385
330
15
100
AcDbEntity
  8
4
100
AcDbLine
 10
1878.107912279056
 20
429.9774026667997
 30
0.0
 11
1868.245093189684
 21
429.9774026667997
 31
0.0
  0
LINE
  5
386
330
15
100
AcDbEntity
  8
L-CENTER
 48
2.0
100
AcDbLine
 10
1863.507072398952
 20
419.0077475521971
 30
0.0
 11
1916.590606606092
 21
419.0077475521971
 31
0.0
  0
ARC
  5
387
330
15
100
AcDbEntity
  8
4
100
AcDbCircle
 10
1870.983291154335
 20
427.2349888881495
 30
0.0
 40
3.875378875279264
100
AcDbArc
 50
134.9559267627452
 51
225.0440732372548
  0
LINE
  5
388
330
15
100
AcDbEntity
  8
4
100
AcDbLine
 10
1875.107912279056
 20
398.0377932160654
 30
0.0
 11
1875.107912279056
 21
419.9771034452715
 31
0.0
  0
ARC
  5
389
330
15
100
AcDbEntity
  8
4
100
AcDbCircle
 10
1880.903656414233
 20
409.0074483306689
 30
0.0
 40
13.7957441351769
100
AcDbArc
 50
156.5734024913708
 51
203.4265975086292
  0
LINE
  5
38A
330
15
100
AcDbEntity
  8
4
100
AcDbLine
 10
1867.107912279056
 20
417.2346896666213
 30
0.0
 11
1867.107912279056
 21
400.7802069947165
 31
0.0
  0
LINE
  5
38B
330
15
100
AcDbEntity
  8
4
100
AcDbLine
 10
1878.107912279056
 20
398.0377932160654
 30
0.0
 11
1878.107912279056
 21
419.9771034452715
 31
0.0
  0
LINE
  5
38C
330
15
100
AcDbEntity
  8
4
100
AcDbLine
 10
1868.245093189683
 20
403.5226207733676
 30
0.0
 11
1875.107912279056
 21
403.5226207733676
 31
0.0
  0
LINE
  5
38D
330
15
100
AcDbEntity
  8
4
100
AcDbLine
 10
1868.245093189683
 20
398.0377932160654
 30
0.0
 11
1878.107912279056
 21
398.0377932160654
 31
0.0
  0
ARC
  5
38E
330
15
100
AcDbEntity
  8
4
100
AcDbCircle
 10
1870.983291154335
 20
400.7802069947165
 30
0.0
 40
3.875378875279244
100
AcDbArc
 50
134.9559267627452
 51
225.0440732372548
  0
LINE
  5
38F
330
15
100
AcDbEntity
  8
4
100
AcDbLine
 10
1868.245093189683
 20
414.4922758879702
 30
0.0
 11
1875.107912279056
 21
414.4922758879702
 31
0.0
  0
LINE
  5
390
330
15
100
AcDbEntity
  8
4
100
AcDbLine
 10
1878.107912279056
 20
419.9771034452715
 30
0.0
 11
1868.245093189683
 21
419.9771034452715
 31
0.0
  0
LINE
  5
391
330
15
100
AcDbEntity
  8
L-CENTER
 48
2.0
100
AcDbLine
 10
1863.507072398952
 20
409.0074483306689
 30
0.0
 11
1916.590606606092
 21
409.0074483306689
 31
0.0
  0
ARC
  5
392
330
15
100
AcDbEntity
  8
4
100
AcDbCircle
 10
1870.983291154335
 20
417.2346896666213
 30
0.0
 40
3.875378875279264
100
AcDbArc
 50
134.9559267627452
 51
225.0440732372548
  0
LINE
  5
393
330
15
100
AcDbEntity
  8
4
100
AcDbLine
 10
1875.107912279056
 20
348.0377942160653
 30
0.0
 11
1875.107912279056
 21
369.9771044452714
 31
0.0
  0
ARC
  5
394
330
15
100
AcDbEntity
  8
4
100
AcDbCircle
 10
1880.903656414233
 20
359.0074493306688
 30
0.0
 40
13.7957441351769
100
AcDbArc
 50
156.5734024913725
 51
203.4265975086275
  0
LINE
  5
395
330
15
100
AcDbEntity
  8
4
100
AcDbLine
 10
1867.107912279056
 20
367.2346906666212
 30
0.0
 11
1867.107912279056
 21
350.7802079947164
 31
0.0
  0
LINE
  5
396
330
15
100
AcDbEntity
  8
4
100
AcDbLine
 10
1878.107912279056
 20
348.0377942160653
 30
0.0
 11
1878.107912279056
 21
369.9771044452714
 31
0.0
  0
LINE
  5
397
330
15
100
AcDbEntity
  8
4
100
AcDbLine
 10
1868.245093189683
 20
353.5226217733675
 30
0.0
 11
1875.107912279056
 21
353.5226217733675
 31
0.0
  0
LINE
  5
398
330
15
100
AcDbEntity
  8
4
100
AcDbLine
 10
1868.245093189683
 20
348.0377942160653
 30
0.0
 11
1878.107912279056
 21
348.0377942160653
 31
0.0
  0
ARC
  5
399
330
15
100
AcDbEntity
  8
4
100
AcDbCircle
 10
1870.983291154335
 20
350.7802079947164
 30
0.0
 40
3.875378875279244
100
AcDbArc
 50
134.9559267627452
 51
225.0440732372548
  0
LINE
  5
39A
330
15
100
AcDbEntity
  8
4
100
AcDbLine
 10
1868.245093189683
 20
364.4922768879701
 30
0.0
 11
1875.107912279056
 21
364.4922768879701
 31
0.0
  0
LINE
  5
39B
330
15
100
AcDbEntity
  8
4
100
AcDbLine
 10
1878.107912279056
 20
369.9771044452714
 30
0.0
 11
1868.245093189683
 21
369.9771044452714
 31
0.0
  0
LINE
  5
39C
330
15
100
AcDbEntity
  8
L-CENTER
 48
2.0
100
AcDbLine
 10
1863.507072398952
 20
359.0074493306688
 30
0.0
 11
1916.590606606092
 21
359.0074493306688
 31
0.0
  0
ARC
  5
39D
330
15
100
AcDbEntity
  8
4
100
AcDbCircle
 10
1870.983291154335
 20
367.2346906666212
 30
0.0
 40
3.875378875279264
100
AcDbArc
 50
134.9559267627452
 51
225.0440732372548
  0
LINE
  5
39E
330
15
100
AcDbEntity
  8
L-CENTER
 48
2.0
100
AcDbLine
 10
2266.508756159161
 20
359.0074493306688
 30
0.0
 11
2213.42522195202
 21
359.0074493306688
 31
0.0
  0
ARC
  5
39F
330
15
100
AcDbEntity
  8
4
100
AcDbCircle
 10
2259.032537403777
 20
367.2346906666212
 30
0.0
 40
3.875378875279264
100
AcDbArc
 50
314.9559267627452
 51
45.04407323725481
  0
LINE
  5
3A0
330
15
100
AcDbEntity
  8
4
100
AcDbLine
 10
2251.907916279057
 20
369.9771044452714
 30
0.0
 11
2261.77073536843
 21
369.9771044452714
 31
0.0
  0
LINE
  5
3A1
330
15
100
AcDbEntity
  8
4
100
AcDbLine
 10
2261.77073536843
 20
364.4922768879701
 30
0.0
 11
2254.907916279057
 21
364.4922768879701
 31
0.0
  0
ARC
  5
3A2
330
15
100
AcDbEntity
  8
4
100
AcDbCircle
 10
2259.032537403777
 20
350.7802079947164
 30
0.0
 40
3.875378875279244
100
AcDbArc
 50
314.9559267627452
 51
45.04407323725481
  0
LINE
  5
3A3
330
15
100
AcDbEntity
  8
4
100
AcDbLine
 10
2261.77073536843
 20
348.0377942160653
 30
0.0
 11
2251.907916279057
 21
348.0377942160653
 31
0.0
  0
LINE
  5
3A4
330
15
100
AcDbEntity
  8
4
100
AcDbLine
 10
2261.77073536843
 20
353.5226217733675
 30
0.0
 11
2254.907916279057
 21
353.5226217733675
 31
0.0
  0
LINE
  5
3A5
330
15
100
AcDbEntity
  8
4
100
AcDbLine
 10
2251.907916279057
 20
348.0377942160653
 30
0.0
 11
2251.907916279057
 21
369.9771044452714
 31
0.0
  0
LINE
  5
3A6
330
15
100
AcDbEntity
  8
4
100
AcDbLine
 10
2262.907916279057
 20
367.2346906666212
 30
0.0
 11
2262.907916279057
 21
350.7802079947164
 31
0.0
  0
ARC
  5
3A7
330
15
100
AcDbEntity
  8
4
100
AcDbCircle
 10
2249.11217214388
 20
359.0074493306688
 30
0.0
 40
13.7957441351769
100
AcDbArc
 50
336.5734024913691
 51
23.42659750863096
  0
LINE
  5
3A8
330
15
100
AcDbEntity
  8
4
100
AcDbLine
 10
2254.907916279057
 20
348.0377942160653
 30
0.0
 11
2254.907916279057
 21
369.9771044452714
 31
0.0
  0
LINE
  5
3A9
330
15
100
AcDbEntity
  8
L-CENTER
 48
2.0
100
AcDbLine
 10
2266.50875615916
 20
409.0074483306689
 30
0.0
 11
2213.425221952019
 21
409.0074483306689
 31
0.0
  0
LINE
  5
3AA
330
15
100
AcDbEntity
  8
L-CENTER
 48
2.0
100
AcDbLine
 10
2266.50875615916
 20
419.0077475521971
 30
0.0
 11
2213.425221952019
 21
419.0077475521971
 31
0.0
  0
LINE
  5
3AB
330
15
100
AcDbEntity
  8
L-CENTER
 48
2.0
100
AcDbLine
 10
2266.50875615916
 20
454.0072989011451
 30
0.0
 11
2213.425221952019
 21
454.0072989011451
 31
0.0
  0
ARC
  5
3AC
330
15
100
AcDbEntity
  8
4
100
AcDbCircle
 10
2249.112172143879
 20
419.0077475521971
 30
0.0
 40
13.7957441351769
100
AcDbArc
 50
355.1776269230342
 51
23.42659750862749
  0
ARC
  5
3AD
330
15
100
AcDbEntity
  8
4
100
AcDbCircle
 10
2259.032537403777
 20
417.2346896666213
 30
0.0
 40
3.875378875279264
100
AcDbArc
 50
314.9559267627452
 51
45.04407323725481
  0
LINE
  5
3AE
330
15
100
AcDbEntity
  8
4
100
AcDbLine
 10
2251.907916279056
 20
419.9771034452715
 30
0.0
 11
2261.77073536843
 21
419.9771034452715
 31
0.0
  0
LINE
  5
3AF
330
15
100
AcDbEntity
  8
4
100
AcDbLine
 10
2261.77073536843
 20
414.4922758879702
 30
0.0
 11
2254.907916279056
 21
414.4922758879702
 31
0.0
  0
ARC
  5
3B0
330
15
100
AcDbEntity
  8
4
100
AcDbCircle
 10
2259.032537403777
 20
400.7802069947165
 30
0.0
 40
3.875378875279244
100
AcDbArc
 50
314.9559267627452
 51
45.04407323725481
  0
LINE
  5
3B1
330
15
100
AcDbEntity
  8
4
100
AcDbLine
 10
2261.77073536843
 20
398.0377932160654
 30
0.0
 11
2251.907916279056
 21
398.0377932160654
 31
0.0
  0
LINE
  5
3B2
330
15
100
AcDbEntity
  8
4
100
AcDbLine
 10
2261.77073536843
 20
403.5226207733676
 30
0.0
 11
2254.907916279056
 21
403.5226207733676
 31
0.0
  0
LINE
  5
3B3
330
15
100
AcDbEntity
  8
4
100
AcDbLine
 10
2251.907916279056
 20
398.0377932160654
 30
0.0
 11
2251.907916279056
 21
419.9771034452715
 31
0.0
  0
LINE
  5
3B4
330
15
100
AcDbEntity
  8
4
100
AcDbLine
 10
2262.907916279056
 20
417.2346896666213
 30
0.0
 11
2262.907916279056
 21
400.7802069947165
 31
0.0
  0
ARC
  5
3B5
330
15
100
AcDbEntity
  8
4
100
AcDbCircle
 10
2249.112172143879
 20
409.0074483306689
 30
0.0
 40
13.7957441351769
100
AcDbArc
 50
336.5734024913725
 51
23.42659750862749
  0
LINE
  5
3B6
330
15
100
AcDbEntity
  8
4
100
AcDbLine
 10
2254.907916279056
 20
398.0377932160654
 30
0.0
 11
2254.907916279056
 21
419.9771034452715
 31
0.0
  0
ARC
  5
3B7
330
15
100
AcDbEntity
  8
4
100
AcDbCircle
 10
2259.032537403777
 20
427.2349888881495
 30
0.0
 40
3.875378875279264
100
AcDbArc
 50
314.9559267627452
 51
45.04407323725481
  0
LINE
  5
3B8
330
15
100
AcDbEntity
  8
4
100
AcDbLine
 10
2251.907916279056
 20
429.9774026667997
 30
0.0
 11
2261.77073536843
 21
429.9774026667997
 31
0.0
  0
LINE
  5
3B9
330
15
100
AcDbEntity
  8
4
100
AcDbLine
 10
2261.77073536843
 20
424.4925751094984
 30
0.0
 11
2254.907916279056
 21
424.4925751094984
 31
0.0
  0
LINE
  5
3BA
330
15
100
AcDbEntity
  8
4
100
AcDbLine
 10
2251.907916279056
 20
408.0380924375936
 30
0.0
 11
2251.907916279056
 21
429.9774026667997
 31
0.0
  0
LINE
  5
3BB
330
15
100
AcDbEntity
  8
4
100
AcDbLine
 10
2262.907916279056
 20
427.2349888881495
 30
0.0
 11
2262.907916279056
 21
410.7805062162447
 31
0.0
  0
LINE
  5
3BC
330
15
100
AcDbEntity
  8
4
100
AcDbLine
 10
2254.907916279056
 20
408.0380924375936
 30
0.0
 11
2254.907916279056
 21
429.9774026667997
 31
0.0
  0
LINE
  5
3BD
330
15
100
AcDbEntity
  8
4
100
AcDbLine
 10
2261.77073536843
 20
459.4921264584464
 30
0.0
 11
2254.907916279056
 21
459.4921264584464
 31
0.0
  0
ARC
  5
3BE
330
15
100
AcDbEntity
  8
4
100
AcDbCircle
 10
2259.032537403777
 20
445.7800575651927
 30
0.0
 40
3.875378875279244
100
AcDbArc
 50
314.9559267627452
 51
45.04407323725481
  0
LINE
  5
3BF
330
15
100
AcDbEntity
  8
4
100
AcDbLine
 10
2261.77073536843
 20
443.0376437865416
 30
0.0
 11
2251.907916279056
 21
443.0376437865416
 31
0.0
  0
LINE
  5
3C0
330
15
100
AcDbEntity
  8
4
100
AcDbLine
 10
2261.77073536843
 20
448.5224713438438
 30
0.0
 11
2254.907916279056
 21
448.5224713438438
 31
0.0
  0
LINE
  5
3C1
330
15
100
AcDbEntity
  8
4
100
AcDbLine
 10
2262.907916279056
 20
462.2345402370975
 30
0.0
 11
2262.907916279056
 21
445.7800575651927
 31
0.0
  0
ARC
  5
3C2
330
15
100
AcDbEntity
  8
4
100
AcDbCircle
 10
2249.112172143879
 20
454.0072989011451
 30
0.0
 40
13.7957441351769
100
AcDbArc
 50
336.5734024913725
 51
23.42659750862749
  0
ARC
  5
3C3
330
15
100
AcDbEntity
  8
4
100
AcDbCircle
 10
2259.032537403777
 20
597.2346916666211
 30
0.0
 40
3.875378875279264
100
AcDbArc
 50
314.9559267627452
 51
45.04407323725481
  0
LINE
  5
3C4
330
15
100
AcDbEntity
  8
4
100
AcDbLine
 10
2251.907916279056
 20
578.0377952160652
 30
0.0
 11
2251.907916279056
 21
599.9771054452713
 31
0.0
  0
LINE
  5
3C5
330
15
100
AcDbEntity
  8
4
100
AcDbLine
 10
2254.907916279056
 20
578.0377952160652
 30
0.0
 11
2254.907916279056
 21
599.9771054452713
 31
0.0
  0
LINE
  5
3C6
330
15
100
AcDbEntity
  8
L-CENTER
 48
2.0
100
AcDbLine
 10
2266.50875615916
 20
544.0076002810551
 30
0.0
 11
2213.425221952019
 21
544.0076002810551
 31
0.0
  0
LINE
  5
3C7
330
15
100
AcDbEntity
  8
L-CENTER
 48
2.0
100
AcDbLine
 10
2266.50875615916
 20
539.007750491362
 30
0.0
 11
2213.425221952019
 21
539.007750491362
 31
0.0
  0
LINE
  5
3C8
330
15
100
AcDbEntity
  8
L-CENTER
 48
2.0
100
AcDbLine
 10
2266.50875615916
 20
589.0074503306687
 30
0.0
 11
2213.425221952019
 21
589.0074503306687
 31
0.0
  0
LINE
  5
3C9
330
15
100
AcDbEntity
  8
4
100
AcDbLine
 10
2251.907916279056
 20
528.0380953767585
 30
0.0
 11
2251.907916279056
 21
549.9774056059646
 31
0.0
  0
LINE
  5
3CA
330
15
100
AcDbEntity
  8
4
100
AcDbLine
 10
2254.907916279056
 20
528.0380953767585
 30
0.0
 11
2254.907916279056
 21
549.9774056059646
 31
0.0
  0
ARC
  5
3CB
330
15
100
AcDbEntity
  8
4
100
AcDbCircle
 10
2259.032537403777
 20
530.7805091554096
 30
0.0
 40
3.875378875279244
100
AcDbArc
 50
314.9559267627523
 51
40.17158659654934
  0
LINE
  5
3CC
330
15
100
AcDbEntity
  8
4
100
AcDbLine
 10
2261.77073536843
 20
528.0380953767585
 30
0.0
 11
2251.907916279056
 21
528.0380953767585
 31
0.0
  0
LINE
  5
3CD
330
15
100
AcDbEntity
  8
4
100
AcDbLine
 10
2262.907916279056
 20
535.7803589451028
 30
0.0
 11
2262.907916279056
 21
530.7805091554096
 31
0.0
  0
ARC
  5
3CE
330
15
100
AcDbEntity
  8
4
100
AcDbCircle
 10
2259.032537403777
 20
552.2348416170075
 30
0.0
 40
3.875378875279264
100
AcDbArc
 50
314.9559267627452
 51
45.04407323725481
  0
LINE
  5
3CF
330
15
100
AcDbEntity
  8
4
100
AcDbLine
 10
2251.907916279056
 20
554.9772553956577
 30
0.0
 11
2261.77073536843
 21
554.9772553956577
 31
0.0
  0
LINE
  5
3D0
330
15
100
AcDbEntity
  8
4
100
AcDbLine
 10
2261.77073536843
 20
549.4924278383564
 30
0.0
 11
2254.907916279056
 21
549.4924278383564
 31
0.0
  0
ARC
  5
3D1
330
15
100
AcDbEntity
  8
4
100
AcDbCircle
 10
2259.032537403777
 20
535.7803589451028
 30
0.0
 40
3.875378875279244
100
AcDbArc
 50
314.9559267627452
 51
45.04407323725481
  0
LINE
  5
3D2
330
15
100
AcDbEntity
  8
4
100
AcDbLine
 10
2261.77073536843
 20
533.0379451664517
 30
0.0
 11
2251.907916279056
 21
533.0379451664517
 31
0.0
  0
LINE
  5
3D3
330
15
100
AcDbEntity
  8
4
100
AcDbLine
 10
2261.77073536843
 20
538.5227727237539
 30
0.0
 11
2254.907916279056
 21
538.5227727237539
 31
0.0
  0
LINE
  5
3D4
330
15
100
AcDbEntity
  8
4
100
AcDbLine
 10
2251.907916279056
 20
533.0379451664517
 30
0.0
 11
2251.907916279056
 21
554.9772553956577
 31
0.0
  0
LINE
  5
3D5
330
15
100
AcDbEntity
  8
4
100
AcDbLine
 10
2262.907916279056
 20
552.2348416170075
 30
0.0
 11
2262.907916279056
 21
535.7803589451028
 31
0.0
  0
ARC
  5
3D6
330
15
100
AcDbEntity
  8
4
100
AcDbCircle
 10
2249.112172143879
 20
544.0076002810551
 30
0.0
 40
13.7957441351769
100
AcDbArc
 50
336.5734024913725
 51
23.42659750862749
  0
LINE
  5
3D7
330
15
100
AcDbEntity
  8
4
100
AcDbLine
 10
2254.907916279056
 20
533.0379451664517
 30
0.0
 11
2254.907916279056
 21
554.9772553956577
 31
0.0
  0
LINE
  5
3D8
330
15
100
AcDbEntity
  8
4
100
AcDbLine
 10
2261.77073536843
 20
594.49227788797
 30
0.0
 11
2254.907916279056
 21
594.49227788797
 31
0.0
  0
ARC
  5
3D9
330
15
100
AcDbEntity
  8
4
100
AcDbCircle
 10
2259.032537403777
 20
580.7802089947163
 30
0.0
 40
3.875378875279244
100
AcDbArc
 50
314.9559267627452
 51
45.04407323725481
  0
LINE
  5
3DA
330
15
100
AcDbEntity
  8
4
100
AcDbLine
 10
2261.77073536843
 20
578.0377952160652
 30
0.0
 11
2251.907916279056
 21
578.0377952160652
 31
0.0
  0
LINE
  5
3DB
330
15
100
AcDbEntity
  8
4
100
AcDbLine
 10
2261.77073536843
 20
583.5226227733674
 30
0.0
 11
2254.907916279056
 21
583.5226227733674
 31
0.0
  0
LINE
  5
3DC
330
15
100
AcDbEntity
  8
4
100
AcDbLine
 10
2262.907916279056
 20
597.2346916666211
 30
0.0
 11
2262.907916279056
 21
580.7802089947163
 31
0.0
  0
ARC
  5
3DD
330
15
100
AcDbEntity
  8
4
100
AcDbCircle
 10
2249.112172143879
 20
589.0074503306687
 30
0.0
 40
13.7957441351769
100
AcDbArc
 50
336.5734024913725
 51
23.42659750862749
  0
LINE
  5
3DE
330
15
100
AcDbEntity
  8
L-CENTER
 48
2.0
100
AcDbLine
 10
2266.50875615916
 20
599.007447330669
 30
0.0
 11
2213.425221952019
 21
599.007447330669
 31
0.0
  0
LINE
  5
3DF
330
15
100
AcDbEntity
  8
4
100
AcDbLine
 10
2251.907916279056
 20
599.9771054452713
 30
0.0
 11
2261.77073536843
 21
599.9771054452713
 31
0.0
  0
ARC
  5
3E0
330
15
100
AcDbEntity
  8
4
100
AcDbCircle
 10
2249.112172143879
 20
599.007447330669
 30
0.0
 40
13.7957441351769
100
AcDbArc
 50
355.1784521586471
 51
23.42659750862749
  0
LINE
  5
3E1
330
15
100
AcDbEntity
  8
4
100
AcDbLine
 10
2251.907916279056
 20
588.0377922160656
 30
0.0
 11
2251.907916279056
 21
609.9771024452716
 31
0.0
  0
LINE
  5
3E2
330
15
100
AcDbEntity
  8
4
100
AcDbLine
 10
2262.907916279056
 20
607.2346886666214
 30
0.0
 11
2262.907916279056
 21
590.7802059947167
 31
0.0
  0
LINE
  5
3E3
330
15
100
AcDbEntity
  8
4
100
AcDbLine
 10
2254.907916279056
 20
588.0377922160656
 30
0.0
 11
2254.907916279056
 21
609.9771024452716
 31
0.0
  0
ARC
  5
3E4
330
15
100
AcDbEntity
  8
4
100
AcDbCircle
 10
2259.032537403777
 20
607.2346886666214
 30
0.0
 40
3.875378875279264
100
AcDbArc
 50
314.9559267627452
 51
45.04407323725481
  0
LINE
  5
3E5
330
15
100
AcDbEntity
  8
4
100
AcDbLine
 10
2251.907916279056
 20
609.9771024452716
 30
0.0
 11
2261.77073536843
 21
609.9771024452716
 31
0.0
  0
LINE
  5
3E6
330
15
100
AcDbEntity
  8
4
100
AcDbLine
 10
2261.77073536843
 20
604.4922748879703
 30
0.0
 11
2254.907916279056
 21
604.4922748879703
 31
0.0
  0
ARC
  5
3E7
330
15
100
AcDbEntity
  8
4
100
AcDbCircle
 10
2259.032537403777
 20
462.2345402370975
 30
0.0
 40
3.875378875279264
100
AcDbArc
 50
314.9559267627452
 51
45.04407323725481
  0
LINE
  5
3E8
330
15
100
AcDbEntity
  8
4
100
AcDbLine
 10
2251.907916279056
 20
464.9769540157477
 30
0.0
 11
2261.77073536843
 21
464.9769540157477
 31
0.0
  0
LINE
  5
3E9
330
15
100
AcDbEntity
  8
4
100
AcDbLine
 10
2251.907916279056
 20
443.0376437865416
 30
0.0
 11
2251.907916279056
 21
464.9769540157477
 31
0.0
  0
LINE
  5
3EA
330
15
100
AcDbEntity
  8
4
100
AcDbLine
 10
2254.907916279056
 20
443.0376437865416
 30
0.0
 11
2254.907916279056
 21
464.9769540157477
 31
0.0
  0
LINE
  5
3EB
330
15
100
AcDbEntity
  8
4
100
AcDbLine
 10
572.3253337099
 20
1988.201716683283
 30
0.0
 11
572.3253337099
 21
1981.338897593911
 31
0.0
  0
LINE
  5
3EC
330
15
100
AcDbEntity
  8
4
100
AcDbLine
 10
577.8101612672003
 20
1978.338897593911
 30
0.0
 11
577.8101612672003
 21
1988.201716683283
 31
0.0
  0
LINE
  5
3ED
330
15
100
AcDbEntity
  8
4
100
AcDbLine
 10
561.3556785952974
 20
1988.201716683283
 30
0.0
 11
561.3556785952974
 21
1981.338897593911
 31
0.0
  0
LINE
  5
3EE
330
15
100
AcDbEntity
  8
4
100
AcDbLine
 10
555.8708510379952
 20
1988.201716683283
 30
0.0
 11
555.8708510379952
 21
1978.338897593911
 31
0.0
  0
LINE
  5
3EF
330
15
100
AcDbEntity
  8
4
100
AcDbLine
 10
555.8708510379952
 20
1978.338897593911
 30
0.0
 11
577.8101612672003
 21
1978.338897593911
 31
0.0
  0
LINE
  5
3F0
330
15
100
AcDbEntity
  8
4
100
AcDbLine
 10
555.8708510379952
 20
1981.338897593911
 30
0.0
 11
577.8101612672003
 21
1981.338897593911
 31
0.0
  0
ARC
  5
3F1
330
15
100
AcDbEntity
  8
4
100
AcDbCircle
 10
566.8405061525978
 20
1975.543153458733
 30
0.0
 40
13.7957441351769
100
AcDbArc
 50
66.57340249136743
 51
113.4265975086279
  0
LINE
  5
3F2
330
15
100
AcDbEntity
  8
4
100
AcDbLine
 10
575.067747488551
 20
1989.338897593911
 30
0.0
 11
558.6132648166463
 21
1989.338897593911
 31
0.0
  0
ARC
  5
3F3
330
15
100
AcDbEntity
  8
4
100
AcDbCircle
 10
558.6132648166463
 20
1985.46351871863
 30
0.0
 40
3.875378875279244
100
AcDbArc
 50
44.95592676276183
 51
135.044073237256
  0
ARC
  5
3F4
330
15
100
AcDbEntity
  8
4
100
AcDbCircle
 10
575.067747488551
 20
1985.46351871863
 30
0.0
 40
3.875378875279264
100
AcDbArc
 50
44.95592676276183
 51
135.0440732372572
  0
LINE
  5
3F5
330
15
100
AcDbEntity
  8
4
100
AcDbLine
 10
825.8708510379952
 20
1981.338897593911
 30
0.0
 11
847.8101612672003
 21
1981.338897593911
 31
0.0
  0
ARC
  5
3F6
330
15
100
AcDbEntity
  8
4
100
AcDbCircle
 10
836.8405061525978
 20
1975.543153458733
 30
0.0
 40
13.7957441351769
100
AcDbArc
 50
66.5734024913683
 51
113.4265975086275
  0
LINE
  5
3F7
330
15
100
AcDbEntity
  8
4
100
AcDbLine
 10
845.067747488551
 20
1989.338897593911
 30
0.0
 11
828.6132648166463
 21
1989.338897593911
 31
0.0
  0
LINE
  5
3F8
330
15
100
AcDbEntity
  8
4
100
AcDbLine
 10
825.8708510379952
 20
1978.338897593911
 30
0.0
 11
847.8101612672003
 21
1978.338897593911
 31
0.0
  0
LINE
  5
3F9
330
15
100
AcDbEntity
  8
4
100
AcDbLine
 10
831.3556785952974
 20
1988.201716683284
 30
0.0
 11
831.3556785952974
 21
1981.338897593911
 31
0.0
  0
LINE
  5
3FA
330
15
100
AcDbEntity
  8
4
100
AcDbLine
 10
825.8708510379952
 20
1988.201716683284
 30
0.0
 11
825.8708510379952
 21
1978.338897593911
 31
0.0
  0
ARC
  5
3FB
330
15
100
AcDbEntity
  8
4
100
AcDbCircle
 10
828.6132648166463
 20
1985.463518718631
 30
0.0
 40
3.875378875279244
100
AcDbArc
 50
44.95592676276183
 51
135.0440732372572
  0
LINE
  5
3FC
330
15
100
AcDbEntity
  8
4
100
AcDbLine
 10
842.3253337099
 20
1988.201716683284
 30
0.0
 11
842.3253337099
 21
1981.338897593911
 31
0.0
  0
LINE
  5
3FD
330
15
100
AcDbEntity
  8
4
100
AcDbLine
 10
847.8101612672003
 20
1978.338897593911
 30
0.0
 11
847.8101612672003
 21
1988.201716683284
 31
0.0
  0
ARC
  5
3FE
330
15
100
AcDbEntity
  8
4
100
AcDbCircle
 10
845.067747488551
 20
1985.463518718631
 30
0.0
 40
3.875378875279264
100
AcDbArc
 50
44.95592676276183
 51
135.0440732372572
  0
LINE
  5
3FF
330
15
100
AcDbEntity
  8
4
100
AcDbLine
 10
577.8101612672003
 20
1604.238897593908
 30
0.0
 11
577.8101612672003
 21
1594.376078504536
 31
0.0
  0
LINE
  5
400
330
15
100
AcDbEntity
  8
4
100
AcDbLine
 10
572.3253337099
 20
1594.376078504536
 30
0.0
 11
572.3253337099
 21
1601.238897593908
 31
0.0
  0
LINE
  5
401
330
15
100
AcDbEntity
  8
4
100
AcDbLine
 10
555.8708510379952
 20
1594.376078504536
 30
0.0
 11
555.8708510379952
 21
1604.238897593908
 31
0.0
  0
LINE
  5
402
330
15
100
AcDbEntity
  8
4
100
AcDbLine
 10
561.3556785952974
 20
1594.376078504536
 30
0.0
 11
561.3556785952974
 21
1601.238897593908
 31
0.0
  0
ARC
  5
403
330
15
100
AcDbEntity
  8
4
100
AcDbCircle
 10
566.8405061525978
 20
1607.034641729086
 30
0.0
 40
13.7957441351769
100
AcDbArc
 50
246.5734024913716
 51
293.4265975086321
  0
LINE
  5
404
330
15
100
AcDbEntity
  8
4
100
AcDbLine
 10
575.067747488551
 20
1593.238897593908
 30
0.0
 11
558.6132648166463
 21
1593.238897593908
 31
0.0
  0
ARC
  5
405
330
15
100
AcDbEntity
  8
4
100
AcDbCircle
 10
558.6132648166463
 20
1597.114276469189
 30
0.0
 40
3.875378875279244
100
AcDbArc
 50
224.9559267627428
 51
315.0440732372381
  0
ARC
  5
406
330
15
100
AcDbEntity
  8
4
100
AcDbCircle
 10
575.067747488551
 20
1597.114276469189
 30
0.0
 40
3.875378875279264
100
AcDbArc
 50
224.9559267627428
 51
315.0440732372381
  0
LINE
  5
407
330
15
100
AcDbEntity
  8
4
100
AcDbLine
 10
555.8708510379952
 20
1604.238897593908
 30
0.0
 11
577.8101612672003
 21
1604.238897593908
 31
0.0
  0
LINE
  5
408
330
15
100
AcDbEntity
  8
4
100
AcDbLine
 10
555.8708510379952
 20
1601.238897593908
 30
0.0
 11
577.8101612672003
 21
1601.238897593908
 31
0.0
  0
LINE
  5
409
330
15
100
AcDbEntity
  8
4
100
AcDbLine
 10
825.8708510379952
 20
1594.376078504535
 30
0.0
 11
825.8708510379952
 21
1604.238897593908
 31
0.0
  0
LINE
  5
40A
330
15
100
AcDbEntity
  8
4
100
AcDbLine
 10
847.8101612672003
 20
1604.238897593908
 30
0.0
 11
847.8101612672003
 21
1594.376078504535
 31
0.0
  0
LINE
  5
40B
330
15
100
AcDbEntity
  8
4
100
AcDbLine
 10
831.3556785952974
 20
1594.376078504535
 30
0.0
 11
831.3556785952974
 21
1601.238897593908
 31
0.0
  0
LINE
  5
40C
330
15
100
AcDbEntity
  8
4
100
AcDbLine
 10
842.3253337099
 20
1594.376078504535
 30
0.0
 11
842.3253337099
 21
1601.238897593908
 31
0.0
  0
ARC
  5
40D
330
15
100
AcDbEntity
  8
4
100
AcDbCircle
 10
836.8405061525978
 20
1607.034641729086
 30
0.0
 40
13.7957441351769
100
AcDbArc
 50
246.5734024913725
 51
293.4265975086317
  0
LINE
  5
40E
330
15
100
AcDbEntity
  8
4
100
AcDbLine
 10
845.067747488551
 20
1593.238897593908
 30
0.0
 11
828.6132648166463
 21
1593.238897593908
 31
0.0
  0
ARC
  5
40F
330
15
100
AcDbEntity
  8
4
100
AcDbCircle
 10
828.6132648166463
 20
1597.114276469188
 30
0.0
 40
3.875378875279244
100
AcDbArc
 50
224.9559267627428
 51
315.0440732372381
  0
ARC
  5
410
330
15
100
AcDbEntity
  8
4
100
AcDbCircle
 10
845.067747488551
 20
1597.114276469188
 30
0.0
 40
3.875378875279264
100
AcDbArc
 50
224.9559267627428
 51
315.0440732372381
  0
LINE
  5
411
330
15
100
AcDbEntity
  8
4
100
AcDbLine
 10
825.8708510379952
 20
1604.238897593908
 30
0.0
 11
847.8101612672003
 21
1604.238897593908
 31
0.0
  0
LINE
  5
412
330
15
100
AcDbEntity
  8
4
100
AcDbLine
 10
825.8708510379952
 20
1601.238897593908
 30
0.0
 11
847.8101612672003
 21
1601.238897593908
 31
0.0
  0
LINE
  5
413
330
15
100
AcDbEntity
  8
4
100
AcDbLine
 10
1133.840506152598
 20
1704.138897593912
 30
0.0
 11
1249.840506152598
 21
1704.138897593912
 31
0.0
  0
LINE
  5
414
330
15
100
AcDbEntity
  8
4
100
AcDbLine
 10
1149.340506152598
 20
1725.638897593912
 30
0.0
 11
1251.840506152598
 21
1725.638897593912
 31
0.0
  0
LINE
  5
415
330
15
100
AcDbEntity
  8
4
100
AcDbLine
 10
1149.340506152598
 20
1740.638897593912
 30
0.0
 11
1251.840506152598
 21
1740.638897593912
 31
0.0
  0
LINE
  5
416
330
15
100
AcDbEntity
  8
4
100
AcDbLine
 10
1133.840506152598
 20
1762.138897593912
 30
0.0
 11
1249.840506152598
 21
1762.138897593912
 31
0.0
  0
ARC
  5
417
330
15
100
AcDbEntity
  8
4
100
AcDbCircle
 10
1133.840506152598
 20
1764.138897593912
 30
0.0
 40
2.0
100
AcDbArc
 50
180.0
 51
270.0
  0
ARC
  5
418
330
15
100
AcDbEntity
  8
4
100
AcDbCircle
 10
1133.840506152598
 20
1702.138897593912
 30
0.0
 40
2.0
100
AcDbArc
 50
90.0
 51
180.0
  0
ARC
  5
419
330
15
100
AcDbEntity
  8
4
100
AcDbCircle
 10
1149.340506152598
 20
1733.138897593912
 30
0.0
 40
7.5
100
AcDbArc
 50
90.0
 51
270.0
  0
LINE
  5
41A
330
15
100
AcDbEntity
  8
4
100
AcDbLine
 10
1131.840506152598
 20
1765.638897593912
 30
0.0
 11
1131.840506152598
 21
1700.638897593912
 31
0.0
  0
LINE
  5
41B
330
15
100
AcDbEntity
  8
4
100
AcDbLine
 10
1249.840506152598
 20
1762.138897593912
 30
0.0
 11
1251.840506152598
 21
1760.138897593912
 31
0.0
  0
LINE
  5
41C
330
15
100
AcDbEntity
  8
4
100
AcDbLine
 10
1249.840506152598
 20
1762.138897593912
 30
0.0
 11
1249.840506152598
 21
1740.638897593912
 31
0.0
  0
LINE
  5
41D
330
15
100
AcDbEntity
  8
4
100
AcDbLine
 10
1249.840506152598
 20
1704.138897593912
 30
0.0
 11
1251.840506152598
 21
1706.138897593912
 31
0.0
  0
LINE
  5
41E
330
15
100
AcDbEntity
  8
4
100
AcDbLine
 10
1249.840506152598
 20
1725.638897593912
 30
0.0
 11
1249.840506152598
 21
1704.138897593912
 31
0.0
  0
LINE
  5
41F
330
15
100
AcDbEntity
  8
4
100
AcDbLine
 10
1251.840506152598
 20
1760.138897593912
 30
0.0
 11
1251.840506152598
 21
1706.138897593912
 31
0.0
  0
LINE
  5
420
330
15
100
AcDbEntity
  8
4
100
AcDbLine
 10
1117.730510152597
 20
1765.638897593912
 30
0.0
 11
1131.840506152598
 21
1765.638897593912
 31
0.0
  0
LINE
  5
421
330
15
100
AcDbEntity
  8
4
100
AcDbLine
 10
1117.730510152597
 20
1700.638897593912
 30
0.0
 11
1131.840506152598
 21
1700.638897593912
 31
0.0
  0
CIRCLE
  5
437
330
15
100
AcDbEntity
  8
4
100
AcDbCircle
 10
437.4305061525984
 20
1791.13889759391
 30
0.0
 40
23.0
  0
LWPOLYLINE
  5
438
330
15
100
AcDbEntity
  8
4
100
AcDbPolyline
 90
        6
 70
     1
 43
0.0
 10
460.4305061525979
 20
1791.13889759391
 10
448.9305061525979
 20
1811.057481880951
 10
425.9305061525984
 20
1811.057481880951
 10
414.4305061525984
 20
1791.13889759391
 10
425.9305061525984
 20
1771.220313306867
 10
448.9305061525979
 20
1771.220313306867
  0
LINE
  5
439
330
15
100
AcDbEntity
  8
4
100
AcDbLine
 10
677.4305061525979
 20
1756.13889759391
 30
0.0
 11
677.4305061525979
 21
1826.13889759391
 31
0.0
  0
LINE
  5
43A
330
15
100
AcDbEntity
  8
4
100
AcDbLine
 10
697.4305061525979
 20
1756.13889759391
 30
0.0
 11
697.4305061525979
 21
1826.13889759391
 31
0.0
  0
ARC
  5
43B
330
15
100
AcDbEntity
  8
4
100
AcDbCircle
 10
687.4305061525988
 20
1791.13889759391
 30
0.0
 40
20.0
100
AcDbArc
 50
119.9999999999999
 51
240.0000000000001
  0
ARC
  5
43C
330
15
100
AcDbEntity
  8
4
100
AcDbCircle
 10
687.4305061525988
 20
1791.13889759391
 30
0.0
 40
22.5
100
AcDbArc
 50
116.3877999612435
 51
243.6122000387572
  0
ARC
  5
43D
330
15
100
AcDbEntity
  8
4
100
AcDbCircle
 10
687.4305061525988
 20
1791.13889759391
 30
0.0
 40
22.5
100
AcDbArc
 50
296.3877999612425
 51
63.61220003875647
  0
ARC
  5
43E
330
15
100
AcDbEntity
  8
4
100
AcDbCircle
 10
687.4305061525988
 20
1791.13889759391
 30
0.0
 40
20.0
100
AcDbArc
 50
299.9999999999998
 51
60.00000000000011
  0
ARC
  5
43F
330
15
100
AcDbEntity
  8
4
100
AcDbCircle
 10
687.4305061525988
 20
1756.13889759391
 30
0.0
 40
10.0
100
AcDbArc
 50
180.0
 51
0.0
  0
ARC
  5
440
330
15
100
AcDbEntity
  8
4
100
AcDbCircle
 10
687.4305061525988
 20
1826.13889759391
 30
0.0
 40
10.0
100
AcDbArc
 50
0.0
 51
180.0
  0
LINE
  5
441
330
15
100
AcDbEntity
  8
4
100
AcDbLine
 10
664.9305041525972
 20
771.5074473306681
 30
0.0
 11
677.9305041525972
 21
771.5074473306681
 31
0.0
  0
LINE
  5
442
330
15
100
AcDbEntity
  8
4
100
AcDbLine
 10
672.9305041525972
 20
763.5074473306681
 30
0.0
 11
677.9305041525972
 21
763.5074473306681
 31
0.0
  0
LINE
  5
443
330
15
100
AcDbEntity
  8
4
100
AcDbLine
 10
672.9305041525972
 20
731.5074473306686
 30
0.0
 11
677.9305041525972
 21
731.5074473306686
 31
0.0
  0
LINE
  5
444
330
15
100
AcDbEntity
  8
4
100
AcDbLine
 10
664.9305041525972
 20
723.5074473306686
 30
0.0
 11
677.9305041525972
 21
723.5074473306686
 31
0.0
  0
LINE
  5
445
330
15
100
AcDbEntity
  8
4
100
AcDbLine
 10
634.9305041525972
 20
717.5074473306686
 30
0.0
 11
739.9305041525972
 21
717.5074473306686
 31
0.0
  0
LINE
  5
446
330
15
100
AcDbEntity
  8
4
100
AcDbLine
 10
634.9305041525972
 20
777.5074473306686
 30
0.0
 11
739.9305041525972
 21
777.5074473306686
 31
0.0
  0
ARC
  5
447
330
15
100
AcDbEntity
  8
4
100
AcDbCircle
 10
634.9305041525972
 20
772.5074473306686
 30
0.0
 40
5.0
100
AcDbArc
 50
90.0
 51
180.0
  0
LINE
  5
448
330
15
100
AcDbEntity
  8
4
100
AcDbLine
 10
634.9305041525972
 20
771.5074473306681
 30
0.0
 11
642.9305041525972
 21
771.5074473306681
 31
0.0
  0
LINE
  5
449
330
15
100
AcDbEntity
  8
4
100
AcDbLine
 10
659.9305041525972
 20
723.5074473306686
 30
0.0
 11
659.9305041525972
 21
731.5074473306686
 31
0.0
  0
LINE
  5
44A
330
15
100
AcDbEntity
  8
4
100
AcDbLine
 10
642.9305041525972
 20
731.5074473306686
 30
0.0
 11
659.9305041525972
 21
731.5074473306686
 31
0.0
  0
LINE
  5
44B
330
15
100
AcDbEntity
  8
4
100
AcDbLine
 10
634.9305041525972
 20
723.5074473306686
 30
0.0
 11
659.9305041525972
 21
723.5074473306686
 31
0.0
  0
ARC
  5
44C
330
15
100
AcDbEntity
  8
4
100
AcDbCircle
 10
634.9305041525972
 20
722.5074473306686
 30
0.0
 40
5.0
100
AcDbArc
 50
180.0
 51
270.0
  0
LINE
  5
44D
330
15
100
AcDbEntity
  8
4
100
AcDbLine
 10
672.9305041525972
 20
731.5074473306686
 30
0.0
 11
672.9305041525972
 21
763.5074473306681
 31
0.0
  0
LINE
  5
44E
330
15
100
AcDbEntity
  8
4
100
AcDbLine
 10
629.9305041525972
 20
722.5074473306686
 30
0.0
 11
629.9305041525972
 21
772.5074473306686
 31
0.0
  0
LINE
  5
44F
330
15
100
AcDbEntity
  8
4
100
AcDbLine
 10
634.9305041525972
 20
723.5074473306686
 30
0.0
 11
634.9305041525972
 21
771.5074473306681
 31
0.0
  0
LINE
  5
450
330
15
100
AcDbEntity
  8
4
100
AcDbLine
 10
642.9305041525972
 20
731.5074473306686
 30
0.0
 11
642.9305041525972
 21
771.5074473306681
 31
0.0
  0
LINE
  5
451
330
15
100
AcDbEntity
  8
4
100
AcDbLine
 10
664.9305041525972
 20
723.5074473306686
 30
0.0
 11
664.9305041525972
 21
771.5074473306681
 31
0.0
  0
ARC
  5
452
330
15
100
AcDbEntity
  8
4
100
AcDbCircle
 10
739.9305041525972
 20
772.5074473306686
 30
0.0
 40
5.0
100
AcDbArc
 50
0.0
 51
90.0
  0
LINE
  5
453
330
15
100
AcDbEntity
  8
4
100
AcDbLine
 10
724.9305041525972
 20
771.5074473306686
 30
0.0
 11
729.9305041525972
 21
771.5074473306686
 31
0.0
  0
LINE
  5
454
330
15
100
AcDbEntity
  8
4
100
AcDbLine
 10
739.9305041525972
 20
733.5074473306686
 30
0.0
 11
739.9305041525972
 21
761.5074473306686
 31
0.0
  0
LINE
  5
455
330
15
100
AcDbEntity
  8
4
100
AcDbLine
 10
724.9305041525972
 20
743.5074473306686
 30
0.0
 11
727.4305041525972
 21
743.5074473306686
 31
0.0
  0
LINE
  5
456
330
15
100
AcDbEntity
  8
4
100
AcDbLine
 10
724.9305041525972
 20
723.5074473306686
 30
0.0
 11
729.9305041525972
 21
723.5074473306686
 31
0.0
  0
LINE
  5
457
330
15
100
AcDbEntity
  8
4
100
AcDbLine
 10
722.9305041525972
 20
733.5074473306686
 30
0.0
 11
722.9305041525972
 21
735.5074473306686
 31
0.0
  0
LINE
  5
458
330
15
100
AcDbEntity
  8
4
100
AcDbLine
 10
731.9305041525972
 20
733.5074473306686
 30
0.0
 11
731.9305041525972
 21
744.3455435409783
 31
0.0
  0
ARC
  5
459
330
15
100
AcDbEntity
  8
4
100
AcDbCircle
 10
724.9305041525972
 20
733.5074473306686
 30
0.0
 40
2.0
100
AcDbArc
 50
180.0
 51
270.0
  0
ARC
  5
45A
330
15
100
AcDbEntity
  8
4
100
AcDbCircle
 10
729.9305041525972
 20
733.5074473306686
 30
0.0
 40
2.0
100
AcDbArc
 50
270.0
 51
0.0
  0
LINE
  5
45B
330
15
100
AcDbEntity
  8
4
100
AcDbLine
 10
724.9305041525972
 20
731.5074473306686
 30
0.0
 11
729.9305041525972
 21
731.5074473306686
 31
0.0
  0
LINE
  5
45C
330
15
100
AcDbEntity
  8
4
100
AcDbLine
 10
722.9305041525972
 20
756.0074473306686
 30
0.0
 11
722.9305041525972
 21
759.0074473306686
 31
0.0
  0
LINE
  5
45D
330
15
100
AcDbEntity
  8
4
100
AcDbLine
 10
731.9305041525972
 20
756.0074473306686
 30
0.0
 11
731.9305041525972
 21
759.0074473306686
 31
0.0
  0
ARC
  5
45E
330
15
100
AcDbEntity
  8
4
100
AcDbCircle
 10
727.4305041525972
 20
756.0074473306686
 30
0.0
 40
4.5
100
AcDbArc
 50
180.0
 51
0.0
  0
ARC
  5
45F
330
15
100
AcDbEntity
  8
4
100
AcDbCircle
 10
727.4305041525972
 20
756.0074473306686
 30
0.0
 40
12.5
100
AcDbArc
 50
270.0
 51
291.1001960240931
  0
LINE
  5
460
330
15
100
AcDbEntity
  8
4
100
AcDbLine
 10
709.9305041525972
 20
745.0074473306681
 30
0.0
 11
709.9305041525972
 21
750.0074473306681
 31
0.0
  0
LINE
  5
461
330
15
100
AcDbEntity
  8
4
100
AcDbLine
 10
694.9305041525972
 20
745.0074473306681
 30
0.0
 11
694.9305041525972
 21
750.0074473306681
 31
0.0
  0
LINE
  5
462
330
15
100
AcDbEntity
  8
4
100
AcDbLine
 10
694.9305041525972
 20
750.0074473306681
 30
0.0
 11
709.9305041525972
 21
750.0074473306681
 31
0.0
  0
LINE
  5
463
330
15
100
AcDbEntity
  8
4
100
AcDbLine
 10
694.9305041525972
 20
745.0074473306681
 30
0.0
 11
709.9305041525972
 21
745.0074473306681
 31
0.0
  0
LINE
  5
464
330
15
100
AcDbEntity
  8
4
100
AcDbLine
 10
714.9305041525972
 20
733.5074473306686
 30
0.0
 11
714.9305041525972
 21
735.5074473306686
 31
0.0
  0
LINE
  5
465
330
15
100
AcDbEntity
  8
4
100
AcDbLine
 10
714.9305041525972
 20
753.5074473306686
 30
0.0
 11
714.9305041525972
 21
761.5074473306686
 31
0.0
  0
LINE
  5
466
330
15
100
AcDbEntity
  8
4
100
AcDbLine
 10
714.9305041525972
 20
735.5074473306686
 30
0.0
 11
722.9305041525972
 21
735.5074473306686
 31
0.0
  0
ARC
  5
467
330
15
100
AcDbEntity
  8
4
100
AcDbCircle
 10
724.9305041525972
 20
753.5074473306686
 30
0.0
 40
10.0
100
AcDbArc
 50
180.0
 51
270.0
  0
ARC
  5
468
330
15
100
AcDbEntity
  8
4
100
AcDbCircle
 10
739.9305041525972
 20
722.5074473306686
 30
0.0
 40
5.0
100
AcDbArc
 50
270.0
 51
0.0
  0
ARC
  5
469
330
15
100
AcDbEntity
  8
4
100
AcDbCircle
 10
724.9305041525972
 20
733.5074473306686
 30
0.0
 40
10.0
100
AcDbArc
 50
180.0
 51
270.0
  0
ARC
  5
46A
330
15
100
AcDbEntity
  8
4
100
AcDbCircle
 10
729.9305041525972
 20
733.5074473306686
 30
0.0
 40
10.0
100
AcDbArc
 50
270.0
 51
0.0
  0
LINE
  5
46B
330
15
100
AcDbEntity
  8
4
100
AcDbLine
 10
744.9305041525972
 20
722.5074473306686
 30
0.0
 11
744.9305041525972
 21
772.5074473306686
 31
0.0
  0
ARC
  5
46C
330
15
100
AcDbEntity
  8
4
100
AcDbCircle
 10
727.4305041525972
 20
759.0074473306686
 30
0.0
 40
4.5
100
AcDbArc
 50
0.0
 51
180.0
  0
ARC
  5
46D
330
15
100
AcDbEntity
  8
4
100
AcDbCircle
 10
724.9305041525972
 20
761.5074473306686
 30
0.0
 40
10.0
100
AcDbArc
 50
90.0
 51
180.0
  0
ARC
  5
46E
330
15
100
AcDbEntity
  8
4
100
AcDbCircle
 10
729.9305041525972
 20
761.5074473306686
 30
0.0
 40
10.0
100
AcDbArc
 50
0.0
 51
90.0
  0
LINE
  5
46F
330
15
100
AcDbEntity
  8
4
100
AcDbLine
 10
689.9305041525972
 20
735.5074473306686
 30
0.0
 11
689.9305041525972
 21
759.5074473306681
 31
0.0
  0
LINE
  5
470
330
15
100
AcDbEntity
  8
4
100
AcDbLine
 10
681.9305041525972
 20
735.5074473306686
 30
0.0
 11
681.9305041525972
 21
759.5074473306681
 31
0.0
  0
ARC
  5
471
330
15
100
AcDbEntity
  8
4
100
AcDbCircle
 10
677.9305041525972
 20
735.5074473306686
 30
0.0
 40
4.0
100
AcDbArc
 50
270.0
 51
0.0
  0
ARC
  5
472
330
15
100
AcDbEntity
  8
4
100
AcDbCircle
 10
677.9305041525972
 20
759.5074473306681
 30
0.0
 40
4.0
100
AcDbArc
 50
0.0
 51
90.0
  0
ARC
  5
473
330
15
100
AcDbEntity
  8
4
100
AcDbCircle
 10
677.9305041525972
 20
735.5074473306686
 30
0.0
 40
12.0
100
AcDbArc
 50
270.0
 51
0.0
  0
ARC
  5
474
330
15
100
AcDbEntity
  8
4
100
AcDbCircle
 10
677.9305041525972
 20
759.5074473306681
 30
0.0
 40
12.0
100
AcDbArc
 50
0.0
 51
90.0
  0
ARC
  5
5D3
330
15
100
AcDbEntity
  8
4
100
AcDbCircle
 10
427.8405061525982
 20
1605.23889759391
 30
0.0
 40
1.0
100
AcDbArc
 50
180.0
 51
270.0
  0
ARC
  5
5D4
330
15
100
AcDbEntity
  8
4
100
AcDbCircle
 10
705.8405061525978
 20
1605.23889759391
 30
0.0
 40
1.0
100
AcDbArc
 50
270.0
 51
0.0
  0
ARC
  5
5D5
330
15
100
AcDbEntity
  8
4
100
AcDbCircle
 10
727.8405061525978
 20
1605.238897593909
 30
0.0
 40
1.0
100
AcDbArc
 50
180.0
 51
270.0
  0
ARC
  5
5D6
330
15
100
AcDbEntity
  8
4
100
AcDbCircle
 10
945.8405061525978
 20
1605.238897593909
 30
0.0
 40
1.0
100
AcDbArc
 50
270.0
 51
0.0
  0
ARC
  5
5D7
330
15
100
AcDbEntity
  8
4
100
AcDbCircle
 10
1879.107912279056
 20
608.0074443306689
 30
0.0
 40
1.0
100
AcDbArc
 50
90.0
 51
180.0
  0
ARC
  5
5D8
330
15
100
AcDbEntity
  8
4
100
AcDbCircle
 10
1879.107912279056
 20
618.0074483306689
 30
0.0
 40
1.0
100
AcDbArc
 50
90.0
 51
180.0
  0
ARC
  5
5D9
330
15
100
AcDbEntity
  8
4
100
AcDbCircle
 10
1879.107912279056
 20
390.007447330669
 30
0.0
 40
1.0
100
AcDbArc
 50
180.0
 51
270.0
  0
ARC
  5
5DA
330
15
100
AcDbEntity
  8
4
100
AcDbCircle
 10
1879.107912279056
 20
340.0074483306689
 30
0.0
 40
1.0
100
AcDbArc
 50
180.0
 51
270.0
  0
ARC
  5
5DB
330
15
100
AcDbEntity
  8
4
100
AcDbCircle
 10
2250.907916279057
 20
608.0074443306689
 30
0.0
 40
1.0
100
AcDbArc
 50
0.0
 51
90.0
  0
ARC
  5
5DC
330
15
100
AcDbEntity
  8
4
100
AcDbCircle
 10
2250.907916279057
 20
618.0074483306689
 30
0.0
 40
1.0
100
AcDbArc
 50
0.0
 51
90.0
  0
ARC
  5
5DD
330
15
100
AcDbEntity
  8
4
100
AcDbCircle
 10
2250.907916279057
 20
390.007447330669
 30
0.0
 40
1.0
100
AcDbArc
 50
270.0
 51
0.0
  0
ARC
  5
5DE
330
15
100
AcDbEntity
  8
4
100
AcDbCircle
 10
2250.907916279057
 20
340.0074483306689
 30
0.0
 40
1.0
100
AcDbArc
 50
270.0
 51
0.0
  0
ARC
  5
5DF
330
15
100
AcDbEntity
  8
4
100
AcDbCircle
 10
1075.430506152598
 20
1948.43889759391
 30
0.0
 40
2.0
100
AcDbArc
 50
0.0
 51
90.0
  0
ARC
  5
5E0
330
15
100
AcDbEntity
  8
4
100
AcDbCircle
 10
299.4305061525979
 20
1948.43889759391
 30
0.0
 40
2.0
100
AcDbArc
 50
90.0
 51
180.0
  0
ARC
  5
5E1
330
15
100
AcDbEntity
  8
4
100
AcDbCircle
 10
945.8405061525978
 20
1977.338897593911
 30
0.0
 40
1.0
100
AcDbArc
 50
0.0
 51
90.0
  0
ARC
  5
5E2
330
15
100
AcDbEntity
  8
4
100
AcDbCircle
 10
727.8405061525978
 20
1977.338897593911
 30
0.0
 40
1.0
100
AcDbArc
 50
90.0
 51
180.0
  0
ARC
  5
5E3
330
15
100
AcDbEntity
  8
4
100
AcDbCircle
 10
705.8405061525978
 20
1977.338897593911
 30
0.0
 40
1.0
100
AcDbArc
 50
0.0
 51
90.0
  0
ARC
  5
5E4
330
15
100
AcDbEntity
  8
4
100
AcDbCircle
 10
427.8405061525982
 20
1977.338897593911
 30
0.0
 40
1.0
100
AcDbArc
 50
90.0
 51
180.0
  0
ARC
  5
5E5
330
15
100
AcDbEntity
  8
4
100
AcDbCircle
 10
1702.007920279055
 20
249.007447330669
 30
0.0
 40
400.000069
100
AcDbArc
 50
348.0924590000001
 51
11.90700599999996
  0
ARC
  5
5E6
330
15
100
AcDbEntity
  8
4
100
AcDbCircle
 10
2088.508405279056
 20
167.5067203306689
 30
0.0
 40
4.999939
100
AcDbArc
 50
281.908538999995
 51
348.0914609999994
  0
ARC
  5
5E7
330
15
100
AcDbEntity
  8
4
100
AcDbCircle
 10
2088.508405279056
 20
330.5081813306692
 30
0.0
 40
4.999939
100
AcDbArc
 50
11.9085389999945
 51
78.09146100000497
  0
LINE
  5
5E8
330
15
100
AcDbEntity
  8
4
100
AcDbLine
 10
1098.430499152598
 20
159.007447330669
 30
0.0
 11
1093.430499152598
 21
154.007447330669
 31
0.0
  0
LINE
  5
5E9
330
15
100
AcDbEntity
  8
4
100
AcDbLine
 10
1098.430499152598
 20
339.007447330669
 30
0.0
 11
1093.430499152598
 21
344.007447330669
 31
0.0
  0
LINE
  5
5EA
330
15
100
AcDbEntity
  8
4
100
AcDbLine
 10
276.4305131525975
 20
159.007447330669
 30
0.0
 11
281.4305131525975
 21
154.007447330669
 31
0.0
  0
LINE
  5
5EB
330
15
100
AcDbEntity
  8
4
100
AcDbLine
 10
276.4305131525975
 20
339.007447330669
 30
0.0
 11
281.4305131525975
 21
344.007447330669
 31
0.0
  0
LINE
  5
610
330
15
100
AcDbEntity
  8
L-CENTER
 48
2.0
100
AcDbLine
 10
1135.076988588418
 20
187.1356039768461
 30
0.0
 11
1075.788836440108
 21
187.1356039768461
 31
0.0
  0
LINE
  5
611
330
15
100
AcDbEntity
  8
L-CENTER
 48
2.0
100
AcDbLine
 10
239.7840237167777
 20
310.8792906844919
 30
0.0
 11
299.072175865088
 21
310.8792906844919
 31
0.0
  0
LINE
  5
612
330
15
100
AcDbEntity
  8
L-CENTER
 48
2.0
100
AcDbLine
 10
239.7840237167777
 20
187.1356039768461
 30
0.0
 11
299.072175865088
 21
187.1356039768461
 31
0.0
  0
LINE
  5
613
330
15
100
AcDbEntity
  8
L-CENTER
 48
2.0
100
AcDbLine
 10
1135.076988588418
 20
1795.010740947732
 30
0.0
 11
1075.788836440108
 21
1795.010740947732
 31
0.0
  0
LINE
  5
614
330
15
100
AcDbEntity
  8
L-CENTER
 48
2.0
100
AcDbLine
 10
1135.076988588418
 20
1671.267054240087
 30
0.0
 11
1075.788836440108
 21
1671.267054240087
 31
0.0
  0
LINE
  5
615
330
15
100
AcDbEntity
  8
L-CENTER
 48
2.0
100
AcDbLine
 10
239.7840237167777
 20
1795.010740947732
 30
0.0
 11
299.072175865088
 21
1795.010740947732
 31
0.0
  0
LINE
  5
616
330
15
100
AcDbEntity
  8
L-CENTER
 48
2.0
100
AcDbLine
 10
239.7840237167777
 20
1671.267054240087
 30
0.0
 11
299.072175865088
 21
1671.267054240087
 31
0.0
  0
LINE
  5
6E7
330
15
100
AcDbEntity
  8
4
100
AcDbLine
 10
553.172452152598
 20
540.5074463306687
 30
0.0
 11
553.172452152598
 21
522.5074503306691
 31
0.0
  0
LINE
  5
6E8
330
15
100
AcDbEntity
  8
4
100
AcDbLine
 10
581.172452152598
 20
540.5074463306687
 30
0.0
 11
581.172452152598
 21
522.5074503306691
 31
0.0
  0
ARC
  5
6E9
330
15
100
AcDbEntity
  8
4
100
AcDbCircle
 10
567.172452152598
 20
479.0074483306689
 30
0.0
 40
52.500014
100
AcDbArc
 50
105.4660057259743
 51
74.53399500000012
  0
LINE
  5
6EA
330
15
100
AcDbEntity
  8
4
100
AcDbLine
 10
581.172452152598
 20
522.5074503306691
 30
0.0
 11
553.172452152598
 21
522.5074503306691
 31
0.0
  0
LINE
  5
6EB
330
15
100
AcDbEntity
  8
4
100
AcDbLine
 10
553.172452152598
 20
540.5074463306687
 30
0.0
 11
581.172452152598
 21
540.5074463306687
 31
0.0
  0
CIRCLE
  5
6EC
330
15
100
AcDbEntity
  8
4
100
AcDbCircle
 10
567.172452152598
 20
479.0074483306689
 30
0.0
 40
70.0
  0
LINE
  5
6ED
330
15
100
AcDbEntity
  8
4
100
AcDbLine
 10
1877.107913279057
 20
429.9774026667997
 30
0.0
 11
1877.107913279057
 21
443.0376437865416
 31
0.0
  0
LINE
  5
6EE
330
15
100
AcDbEntity
  8
4
100
AcDbLine
 10
1863.007913279057
 20
424.007447330669
 30
0.0
 11
1863.007913279057
 21
534.0074493306688
 31
0.0
  0
LINE
  5
6EF
330
15
100
AcDbEntity
  8
4
100
AcDbLine
 10
1685.007916279058
 20
531.5074483306689
 30
0.0
 11
1685.007916279058
 21
426.5074483306689
 31
0.0
  0
LINE
  5
6F0
330
15
100
AcDbEntity
  8
4
100
AcDbLine
 10
1683.007918279057
 20
428.5074463306687
 30
0.0
 11
1683.007918279057
 21
540.5074463306687
 31
0.0
  0
LINE
  5
6F1
330
15
100
AcDbEntity
  8
4
100
AcDbLine
 10
1863.007913279057
 20
426.5074483306689
 30
0.0
 11
1685.007916279058
 21
426.5074483306689
 31
0.0
  0
LINE
  5
6F2
330
15
100
AcDbEntity
  8
4
100
AcDbLine
 10
1867.107912279058
 20
424.007447330669
 30
0.0
 11
1863.007913279057
 21
424.007447330669
 31
0.0
  0
LINE
  5
6F3
330
15
100
AcDbEntity
  8
4
100
AcDbLine
 10
1683.007918279057
 20
428.5074463306687
 30
0.0
 11
1685.007916279058
 21
426.5074483306689
 31
0.0
  0
LINE
  5
6F4
330
15
100
AcDbEntity
  8
4
100
AcDbLine
 10
1683.007918279057
 20
540.5074463306687
 30
0.0
 11
1853.007916279058
 21
540.5074463306687
 31
0.0
  0
LINE
  5
6F5
330
15
100
AcDbEntity
  8
4
100
AcDbLine
 10
1867.107912279058
 20
534.0074493306688
 30
0.0
 11
1863.007913279057
 21
534.0074493306688
 31
0.0
  0
LINE
  5
6F6
330
15
100
AcDbEntity
  8
4
100
AcDbLine
 10
1853.007916279058
 20
531.5074483306689
 30
0.0
 11
1853.007916279058
 21
540.5074463306687
 31
0.0
  0
LINE
  5
6F7
330
15
100
AcDbEntity
  8
4
100
AcDbLine
 10
1685.007916279058
 20
531.5074483306689
 30
0.0
 11
1683.007918279057
 21
529.5074503306691
 31
0.0
  0
LINE
  5
6F9
330
15
100
AcDbEntity
  8
4
100
AcDbLine
 10
1863.007913279057
 20
531.5074483306689
 30
0.0
 11
1685.007916279058
 21
531.5074483306689
 31
0.0
  0
LINE
  5
711
330
15
100
AcDbEntity
  8
4
100
AcDbLine
 10
1877.107913279057
 20
464.9769540157477
 30
0.0
 11
1877.107913279057
 21
528.0380953767585
 31
0.0
  0
LINE
  5
712
330
15
100
AcDbEntity
  8
4
100
AcDbLine
 10
514.3405061525978
 20
1411.13889759391
 30
0.0
 11
552.8405061525978
 21
1411.13889759391
 31
0.0
  0
LINE
  5
713
330
15
100
AcDbEntity
  8
4
100
AcDbLine
 10
516.3405061525978
 20
1409.13889759391
 30
0.0
 11
617.3405061525978
 21
1409.13889759391
 31
0.0
  0
LINE
  5
714
330
15
100
AcDbEntity
  8
4
100
AcDbLine
 10
511.8405061525978
 20
1589.13889759391
 30
0.0
 11
621.8405061525978
 21
1589.13889759391
 31
0.0
  0
ARC
  5
715
330
15
100
AcDbEntity
  8
4
100
AcDbCircle
 10
621.8405061525987
 20
1586.63889759391
 30
0.0
 40
2.5
100
AcDbArc
 50
90.0
 51
180.0
  0
LINE
  5
716
330
15
100
AcDbEntity
  8
4
100
AcDbLine
 10
552.8405061525978
 20
1409.13889759391
 30
0.0
 11
552.8405061525978
 21
1565.13889759391
 31
0.0
  0
LINE
  5
717
330
15
100
AcDbEntity
  8
4
100
AcDbLine
 10
619.3405061525978
 20
1411.13889759391
 30
0.0
 11
619.3405061525978
 21
1586.63889759391
 31
0.0
  0
LINE
  5
718
330
15
100
AcDbEntity
  8
4
100
AcDbLine
 10
580.8405061525978
 20
1409.13889759391
 30
0.0
 11
580.8405061525978
 21
1565.13889759391
 31
0.0
  0
LINE
  5
719
330
15
100
AcDbEntity
  8
4
100
AcDbLine
 10
566.8405061525978
 20
1579.13889759391
 30
0.0
 11
566.8405061525978
 21
1579.13889759391
 31
0.0
  0
ARC
  5
71A
330
15
100
AcDbEntity
  8
4
100
AcDbCircle
 10
566.8405061525987
 20
1565.13889759391
 30
0.0
 40
14.0
100
AcDbArc
 50
90.0
 51
180.0
  0
ARC
  5
71B
330
15
100
AcDbEntity
  8
4
100
AcDbCircle
 10
566.8405061525987
 20
1565.13889759391
 30
0.0
 40
14.0
100
AcDbArc
 50
0.0
 51
90.0
  0
LINE
  5
71C
330
15
100
AcDbEntity
  8
4
100
AcDbLine
 10
617.3405061525978
 20
1409.13889759391
 30
0.0
 11
619.3405061525978
 21
1411.13889759391
 31
0.0
  0
LINE
  5
71D
330
15
100
AcDbEntity
  8
4
100
AcDbLine
 10
580.8405061525978
 20
1411.13889759391
 30
0.0
 11
619.3405061525978
 21
1411.13889759391
 31
0.0
  0
ARC
  5
71E
330
15
100
AcDbEntity
  8
4
100
AcDbCircle
 10
511.8405061525987
 20
1586.63889759391
 30
0.0
 40
2.5
100
AcDbArc
 50
0.0
 51
90.0
  0
LINE
  5
71F
330
15
100
AcDbEntity
  8
4
100
AcDbLine
 10
514.3405061525978
 20
1411.13889759391
 30
0.0
 11
514.3405061525978
 21
1586.63889759391
 31
0.0
  0
LINE
  5
720
330
15
100
AcDbEntity
  8
4
100
AcDbLine
 10
514.3405061525978
 20
1411.13889759391
 30
0.0
 11
516.3405061525978
 21
1409.13889759391
 31
0.0
  0
LINE
  5
721
330
15
100
AcDbEntity
  8
4
100
AcDbLine
 10
511.8405061525978
 20
1589.13889759391
 30
0.0
 11
511.8405061525978
 21
1603.238897593908
 31
0.0
  0
LINE
  5
722
330
15
100
AcDbEntity
  8
4
100
AcDbLine
 10
621.8405061525978
 20
1589.13889759391
 30
0.0
 11
621.8405061525987
 21
1603.238897593908
 31
0.0
  0
LINE
  5
723
330
15
100
AcDbEntity
  8
4
100
AcDbLine
 10
496.8405061525987
 20
1604.238897593908
 30
0.0
 11
496.8405061525987
 21
1603.238897593908
 31
0.0
  0
LINE
  5
724
330
15
100
AcDbEntity
  8
4
100
AcDbLine
 10
636.8405061525987
 20
1604.238897593908
 30
0.0
 11
636.8405061525987
 21
1603.238897593908
 31
0.0
  0
LINE
  5
725
330
15
100
AcDbEntity
  8
4
100
AcDbLine
 10
496.8405061525987
 20
1603.238897593908
 30
0.0
 11
555.8708510379952
 21
1603.238897593908
 31
0.0
  0
LINE
  5
726
330
15
100
AcDbEntity
  8
4
100
AcDbLine
 10
577.8101612672003
 20
1603.238897593908
 30
0.0
 11
636.8405061525978
 21
1603.238897593908
 31
0.0
  0
ENDSEC
  0
SECTION
  2
OBJECTS
  0
DICTIONARY
  5
5
330
0
100
AcDbDictionary
281
     1
  3
ACAD_COLOR
350
28
  3
ACAD_GROUP
350
26
  3
ACAD_LAYOUT
350
1C
  3
ACAD_MATERIAL
350
7
  3
ACAD_MLEADERSTYLE
350
6C0
  3
ACAD_MLINESTYLE
350
13
  3
ACAD_PLOTSETTINGS
350
27
  3
ACAD_PLOTSTYLENAME
350
4
  3
ACAD_SCALELIST
350
2D
  3
ACAD_VISUALSTYLE
350
29
  3
ACDBHEADERROUNDTRIPXREC
350
797
  3
AcDbVariableDictionary
350
6BD
  3
DWGPROPS
350
79A
  0
DICTIONARY
  5
79B
330
25
100
AcDbDictionary
280
     1
281
     1
  3
ACAD_XREC_ROUNDTRIP
360
79C
  0
DICTIONARY
  5
16
330
15
100
AcDbDictionary
280
     1
281
     1
  3
ACAD_SORTENTS
360
17
  0
DICTIONARY
  5
28
102
{ACAD_REACTORS
330
5
102
}
330
5
100
AcDbDictionary
281
     1
  0
DICTIONARY
  5
26
102
{ACAD_REACTORS
330
5
102
}
330
5
100
AcDbDictionary
281
     1
  0
DICTIONARY
  5
1C
102
{ACAD_REACTORS
330
5
102
}
330
5
100
AcDbDictionary
281
     1
  3
Model
350
1B
  3
ﾚｲｱｳﾄ1
350
22
  0
DICTIONARY
  5
7
102
{ACAD_REACTORS
330
5
102
}
330
5
100
AcDbDictionary
281
     1
  3
ByBlock
350
70
  3
ByLayer
350
E
  3
Global
350
6
  0
DICTIONARY
  5
6C0
102
{ACAD_REACTORS
330
5
102
}
330
5
100
AcDbDictionary
281
     1
  3
Standard
350
6DB
  0
DICTIONARY
  5
13
102
{ACAD_REACTORS
330
5
102
}
330
5
100
AcDbDictionary
281
     1
  3
STANDARD
350
12
  0
DICTIONARY
  5
27
102
{ACAD_REACTORS
330
5
102
}
330
5
100
AcDbDictionary
281
     1
  0
ACDBDICTIONARYWDFLT
  5
4
102
{ACAD_REACTORS
330
5
102
}
330
5
100
AcDbDictionary
281
     1
  3
Normal
350
3
100
AcDbDictionaryWithDefault
340
3
  0
DICTIONARY
  5
2D
102
{ACAD_REACTORS
330
5
102
}
330
5
100
AcDbDictionary
281
     1
  3
*A1
350
4F
  3
*A10
350
58
  3
*A11
350
59
  3
*A12
350
5A
  3
*A13
350
5B
  3
*A14
350
5C
  3
*A15
350
5D
  3
*A16
350
5E
  3
*A17
350
5F
  3
*A18
350
60
  3
*A19
350
61
  3
*A2
350
50
  3
*A20
350
62
  3
*A21
350
63
  3
*A22
350
64
  3
*A23
350
65
  3
*A24
350
66
  3
*A25
350
67
  3
*A26
350
68
  3
*A27
350
69
  3
*A28
350
6A
  3
*A29
350
6B
  3
*A3
350
51
  3
*A30
350
6C
  3
*A31
350
6D
  3
*A32
350
6E
  3
*A33
350
6F
  3
*A4
350
52
  3
*A5
350
53
  3
*A6
350
54
  3
*A7
350
55
  3
*A8
350
56
  3
*A9
350
57
  0
DICTIONARY
  5
29
102
{ACAD_REACTORS
330
5
102
}
330
5
100
AcDbDictionary
281
     1
  3
2dWireframe
350
6C7
  3
Basic
350
6CA
  3
Brighten
350
6CE
  3
ColorChange
350
6D2
  3
Conceptual
350
6CC
  3
Dim
350
6CD
  3
EdgeColorOff
350
6D5
  3
Facepattern
350
6D1
  3
Flat
350
6C3
  3
FlatWithEdges
350
6C4
  3
Gouraud
350
6C5
  3
GouraudWithEdges
350
6C6
  3
Hidden
350
6C9
  3
JitterOff
350
6D3
  3
Linepattern
350
6D0
  3
OverhangOff
350
6D4
  3
Realistic
350
6CB
  3
Shaded
350
6DA
  3
Shaded with edges
350
6D9
  3
Shades of Gray
350
6D6
  3
Sketchy
350
6D7
  3
Thicken
350
6CF
  3
Wireframe
350
6C8
  3
X-Ray
350
6D8
  0
DICTIONARY
  5
797
102
{ACAD_REACTORS
330
5
102
}
330
5
100
AcDbDictionary
281
     1
  3
COLORDICT
350
798
  3
MATERIALDICT
350
799
  0
DICTIONARY
  5
6BD
102
{ACAD_REACTORS
330
5
102
}
330
5
100
AcDbDictionary
281
     1
  3
CANNOSCALE
350
6BE
  3
CMLEADERSTYLE
350
6E4
  3
DIMASSOC
350
795
  3
HIDETEXT
350
796
  3
MSLTSCALE
350
79D
  0
XRECORD
  5
79A
102
{ACAD_REACTORS
330
5
102
}
330
5
100
AcDbXrecord
280
     1
  1
DWGPROPS COOKIE
  2

  3

  4

  6

  7

  8
sg-d03
  9

300
=
301
=
302
=
303
=
304
=
305
=
306
=
307
=
308
=
309
=
 40
0.0
 41
2449812.756805555
 42
2458114.365245231
  1

 90
        0
  0
XRECORD
  5
79C
102
{ACAD_REACTORS
330
79B
102
}
330
79B
100
AcDbXrecord
280
     1
102
VTR_0.000_0.000_1.000_1.000_GRIDDISPLAY
 70
     3
102
VTR_0.000_0.000_1.000_1.000_GRIDMAJOR
 70
     5
102
VTR_0.000_0.000_1.000_1.000_DEFAULTLIGHTING
280
     1
102
VTR_0.000_0.000_1.000_1.000_DEFAULTLIGHTINGTYPE
 70
     1
102
VTR_0.000_0.000_1.000_1.000_BRIGHTNESS
141
0.0
102
VTR_0.000_0.000_1.000_1.000_CONTRAST
142
0.0
  0
SORTENTSTABLE
  5
17
102
{ACAD_REACTORS
330
16
102
}
330
16
100
AcDbSortentsTable
330
15
331
0
  5
6F9
331
6EE
  5
6EF
331
6EF
  5
6F0
331
6F0
  5
6F1
331
6F1
  5
6F2
331
6F2
  5
6F3
331
6F3
  5
6F4
331
6F4
  5
6F5
331
6F5
  5
6F6
331
6F6
  5
6F7
331
6F7
  5
6F8
331
6F9
  5
6FA
331
0
  5
6FB
331
0
  5
6FC
331
0
  5
6FD
331
0
  5
6FE
331
0
  5
6FF
331
0
  5
700
331
0
  5
701
331
0
  5
702
331
0
  5
703
331
0
  5
704
331
0
  5
705
331
0
  5
706
331
0
  5
70D
331
0
  5
70E
331
0
  5
70F
331
0
  5
710
331
0
  5
711
331
711
  5
6EE
  0
LAYOUT
  5
1B
102
{ACAD_REACTORS
330
1C
102
}
330
1C
100
AcDbPlotSettings
  1

  2
Bullzip PDF Printer.pc3
  4
A3
  6

 40
0.2
 41
0.0
 42
0.0
 43
0.0
 44
420.2
 45
297.1
 46
25.0
 47
12.0
 48
139.9999997783334
 49
0.0
140
3195.999993887111
141
2179.999995704281
142
1.0
143
8.0
 70
 11936
 72
     1
 73
     0
 74
     4
  7
monochrome.ctb
 75
     0
147
1.0
148
-139.9999997783334
149
0.0
100
AcDbLayout
  1
Model
 70
     0
 71
     0
 10
0.0
 20
0.0
 11
12.0
 21
9.0
 12
0.0
 22
0.0
 32
0.0
 14
239.7840237167775
 24
49.00744733066904
 34
0.0
 15
2305.007912279056
 25
2031.13889759391
 35
0.0
146
0.0
 13
0.0
 23
0.0
 33
0.0
 16
1.0
 26
0.0
 36
0.0
 17
0.0
 27
1.0
 37
0.0
 76
     0
330
15
331
2B
1001
ACAD_PSEXT
1000
Bullzip PDF Printer.pc3
1000
Bullzip PDF Printer
1000
BULLZIP
1000
Bullzip PDF Printer 10.1.0.1871
1070
     0
  0
LAYOUT
  5
22
102
{ACAD_REACTORS
330
1C
102
}
330
1C
100
AcDbPlotSettings
  1

  2
SR-LP8300F
  4

  6

 40
0.0
 41
0.0
 42
0.0
 43
0.0
 44
0.0
 45
0.0
 46
0.0
 47
0.0
 48
0.0
 49
0.0
140
0.0
141
0.0
142
1.0
143
1.0
 70
   688
 72
     0
 73
     0
 74
     5
  7
monochrome.ctb
 75
    16
147
1.0
148
0.0
149
0.0
100
AcDbLayout
  1
ﾚｲｱｳﾄ1
 70
     0
 71
     1
 10
0.0
 20
0.0
 11
12.0
 21
9.0
 12
0.0
 22
0.0
 32
0.0
 14
1000000000000000E+20
 24
1000000000000000E+20
 34
1000000000000000E+20
 15
-1000000000000000E+20
 25
-1000000000000000E+20
 35
-1000000000000000E+20
146
0.0
 13
0.0
 23
0.0
 33
0.0
 16
1.0
 26
0.0
 36
0.0
 17
0.0
 27
1.0
 37
0.0
 76
     0
330
1F
  0
MATERIAL
  5
70
102
{ACAD_REACTORS
330
7
102
}
102
{ACAD_XDICTIONARY
360
7A2
102
}
330
7
100
AcDbMaterial
  1
ByBlock
  0
MATERIAL
  5
E
102
{ACAD_REACTORS
330
7
102
}
102
{ACAD_XDICTIONARY
360
79E
102
}
330
7
100
AcDbMaterial
  1
ByLayer
  0
MATERIAL
  5
6
102
{ACAD_REACTORS
330
7
102
}
102
{ACAD_XDICTIONARY
360
7A0
102
}
330
7
100
AcDbMaterial
  1
Global
  0
MLEADERSTYLE
  5
6DB
102
{ACAD_REACTORS
330
6C0
102
}
102
{ACAD_XDICTIONARY
360
7D4
102
}
330
6C0
100
AcDbMLeaderStyle
170
     2
171
     1
172
     0
 90
        2
 40
0.0
 41
0.0
173
     1
 91
-1056964608
340
B
 92
       -2
290
     1
 42
0.09
291
     1
 43
0.36
  3
Standard
341
0
 44
0.18
300

342
C
174
     1
178
     6
175
     1
176
     0
 93
-1056964608
 45
0.18
292
     0
297
     0
 46
0.18
343
0
 94
-1056964608
 47
1.0
 49
1.0
140
1.0
293
     1
141
0.0
294
     1
177
     0
142
1.0
295
     0
296
     0
143
0.125
1001
ACAD_MLEADERVER
1070
     2
  0
MLINESTYLE
  5
12
102
{ACAD_REACTORS
330
13
102
}
330
13
100
AcDbMlineStyle
  2
STANDARD
 70
     0
  3

 62
     0
 51
90.0
 52
90.0
 71
     2
 49
0.5
 62
   256
  6
BYLAYER
 49
-0.5
 62
   256
  6
BYLAYER
  0
ACDBPLACEHOLDER
  5
3
102
{ACAD_REACTORS
330
4
102
}
330
4
  0
SCALE
  5
4F
102
{ACAD_REACTORS
330
2D
102
}
330
2D
100
AcDbScale
 70
     0
300
1:1
140
1.0
141
1.0
290
     1
  0
SCALE
  5
58
102
{ACAD_REACTORS
330
2D
102
}
330
2D
100
AcDbScale
 70
     0
300
1:40
140
1.0
141
40.0
290
     0
  0
SCALE
  5
59
102
{ACAD_REACTORS
330
2D
102
}
330
2D
100
AcDbScale
 70
     0
300
1:50
140
1.0
141
50.0
290
     0
  0
SCALE
  5
5A
102
{ACAD_REACTORS
330
2D
102
}
330
2D
100
AcDbScale
 70
     0
300
1:100
140
1.0
141
100.0
290
     0
  0
SCALE
  5
5B
102
{ACAD_REACTORS
330
2D
102
}
330
2D
100
AcDbScale
 70
     0
300
2:1
140
2.0
141
1.0
290
     0
  0
SCALE
  5
5C
102
{ACAD_REACTORS
330
2D
102
}
330
2D
100
AcDbScale
 70
     0
300
4:1
140
4.0
141
1.0
290
     0
  0
SCALE
  5
5D
102
{ACAD_REACTORS
330
2D
102
}
330
2D
100
AcDbScale
 70
     0
300
8:1
140
8.0
141
1.0
290
     0
  0
SCALE
  5
5E
102
{ACAD_REACTORS
330
2D
102
}
330
2D
100
AcDbScale
 70
     0
300
10:1
140
10.0
141
1.0
290
     0
  0
SCALE
  5
5F
102
{ACAD_REACTORS
330
2D
102
}
330
2D
100
AcDbScale
 70
     0
300
100:1
140
100.0
141
1.0
290
     0
  0
SCALE
  5
60
102
{ACAD_REACTORS
330
2D
102
}
330
2D
100
AcDbScale
 70
     0
300
1/128" = 1'-0"
140
0.0078125
141
12.0
290
     0
  0
SCALE
  5
61
102
{ACAD_REACTORS
330
2D
102
}
330
2D
100
AcDbScale
 70
     0
300
1/64" = 1'-0"
140
0.015625
141
12.0
290
     0
  0
SCALE
  5
50
102
{ACAD_REACTORS
330
2D
102
}
330
2D
100
AcDbScale
 70
     0
300
1:2
140
1.0
141
2.0
290
     0
  0
SCALE
  5
62
102
{ACAD_REACTORS
330
2D
102
}
330
2D
100
AcDbScale
 70
     0
300
1/32" = 1'-0"
140
0.03125
141
12.0
290
     0
  0
SCALE
  5
63
102
{ACAD_REACTORS
330
2D
102
}
330
2D
100
AcDbScale
 70
     0
300
1/16" = 1'-0"
140
0.0625
141
12.0
290
     0
  0
SCALE
  5
64
102
{ACAD_REACTORS
330
2D
102
}
330
2D
100
AcDbScale
 70
     0
300
3/32" = 1'-0"
140
0.09375
141
12.0
290
     0
  0
SCALE
  5
65
102
{ACAD_REACTORS
330
2D
102
}
330
2D
100
AcDbScale
 70
     0
300
1/8" = 1'-0"
140
0.125
141
12.0
290
     0
  0
SCALE
  5
66
102
{ACAD_REACTORS
330
2D
102
}
330
2D
100
AcDbScale
 70
     0
300
3/16" = 1'-0"
140
0.1875
141
12.0
290
     0
  0
SCALE
  5
67
102
{ACAD_REACTORS
330
2D
102
}
330
2D
100
AcDbScale
 70
     0
300
1/4" = 1'-0"
140
0.25
141
12.0
290
     0
  0
SCALE
  5
68
102
{ACAD_REACTORS
330
2D
102
}
330
2D
100
AcDbScale
 70
     0
300
3/8" = 1'-0"
140
0.375
141
12.0
290
     0
  0
SCALE
  5
69
102
{ACAD_REACTORS
330
2D
102
}
330
2D
100
AcDbScale
 70
     0
300
1/2" = 1'-0"
140
0.5
141
12.0
290
     0
  0
SCALE
  5
6A
102
{ACAD_REACTORS
330
2D
102
}
330
2D
100
AcDbScale
 70
     0
300
3/4" = 1'-0"
140
0.75
141
12.0
290
     0
  0
SCALE
  5
6B
102
{ACAD_REACTORS
330
2D
102
}
330
2D
100
AcDbScale
 70
     0
300
1" = 1'-0"
140
1.0
141
12.0
290
     0
  0
SCALE
  5
51
102
{ACAD_REACTORS
330
2D
102
}
330
2D
100
AcDbScale
 70
     0
300
1:4
140
1.0
141
4.0
290
     0
  0
SCALE
  5
6C
102
{ACAD_REACTORS
330
2D
102
}
330
2D
100
AcDbScale
 70
     0
300
1-1/2" = 1'-0"
140
1.5
141
12.0
290
     0
  0
SCALE
  5
6D
102
{ACAD_REACTORS
330
2D
102
}
330
2D
100
AcDbScale
 70
     0
300
3" = 1'-0"
140
3.0
141
12.0
290
     0
  0
SCALE
  5
6E
102
{ACAD_REACTORS
330
2D
102
}
330
2D
100
AcDbScale
 70
     0
300
6" = 1'-0"
140
6.0
141
12.0
290
     0
  0
SCALE
  5
6F
102
{ACAD_REACTORS
330
2D
102
}
330
2D
100
AcDbScale
 70
     0
300
1'-0" = 1'-0"
140
12.0
141
12.0
290
     0
  0
SCALE
  5
52
102
{ACAD_REACTORS
330
2D
102
}
330
2D
100
AcDbScale
 70
     0
300
1:5
140
1.0
141
5.0
290
     0
  0
SCALE
  5
53
102
{ACAD_REACTORS
330
2D
102
}
330
2D
100
AcDbScale
 70
     0
300
1:8
140
1.0
141
8.0
290
     0
  0
SCALE
  5
54
102
{ACAD_REACTORS
330
2D
102
}
330
2D
100
AcDbScale
 70
     0
300
1:10
140
1.0
141
10.0
290
     0
  0
SCALE
  5
55
102
{ACAD_REACTORS
330
2D
102
}
330
2D
100
AcDbScale
 70
     0
300
1:16
140
1.0
141
16.0
290
     0
  0
SCALE
  5
56
102
{ACAD_REACTORS
330
2D
102
}
330
2D
100
AcDbScale
 70
     0
300
1:20
140
1.0
141
20.0
290
     0
  0
SCALE
  5
57
102
{ACAD_REACTORS
330
2D
102
}
330
2D
100
AcDbScale
 70
     0
300
1:30
140
1.0
141
30.0
290
     0
  0
VISUALSTYLE
  5
6C7
102
{ACAD_REACTORS
330
29
102
}
102
{ACAD_XDICTIONARY
360
7AC
102
}
330
29
100
AcDbVisualStyle
  2
2dWireframe
 70
     4
 71
     0
 72
     2
 73
     0
 90
        0
 40
0.6
 41
30.0
 62
     5
 63
     7
 74
     1
 91
        4
 64
     7
 65
   257
 75
     1
175
     1
 42
1.0
 92
        0
 66
   257
 43
1.0
 76
     1
 77
     6
 78
     2
 67
     7
 79
     5
170
     0
171
     0
290
     0
174
     0
 93
        1
 44
0.0
173
     0
291
     0
 45
0.0
1001
ACAD
1000
AcDbSavedByObjectVersion
1070
     0
  0
VISUALSTYLE
  5
6CA
102
{ACAD_REACTORS
330
29
102
}
102
{ACAD_XDICTIONARY
360
7B2
102
}
330
29
100
AcDbVisualStyle
  2
Basic
 70
     7
 71
     1
 72
     0
 73
     1
 90
        0
 40
0.6
 41
30.0
 62
     5
 63
     7
 74
     0
 91
        4
 64
     7
 65
   257
 75
     1
175
     1
 42
1.0
 92
        8
 66
     7
 43
1.0
 76
     1
 77
     6
 78
     2
 67
     7
 79
     5
170
     0
171
     0
290
     0
174
     0
 93
        1
 44
0.0
173
     0
291
     1
 45
0.0
1001
ACAD
1000
AcDbSavedByObjectVersion
1070
     0
  0
VISUALSTYLE
  5
6CE
102
{ACAD_REACTORS
330
29
102
}
102
{ACAD_XDICTIONARY
360
7BA
102
}
330
29
100
AcDbVisualStyle
  2
Brighten
 70
    12
 71
     2
 72
     2
 73
     0
 90
        0
 40
0.6
 41
30.0
 62
     5
 63
     7
 74
     1
 91
        4
 64
     7
 65
   257
 75
     1
175
     1
 42
1.0
 92
        8
 66
     7
 43
1.0
 76
     1
 77
     6
 78
     2
 67
     7
 79
     5
170
     0
171
     0
290
     0
174
     0
 93
        1
 44
50.0
173
     0
291
     1
 45
0.0
1001
ACAD
1000
AcDbSavedByObjectVersion
1070
     0
  0
VISUALSTYLE
  5
6D2
102
{ACAD_REACTORS
330
29
102
}
102
{ACAD_XDICTIONARY
360
7C2
102
}
330
29
100
AcDbVisualStyle
  2
ColorChange
 70
    16
 71
     2
 72
     2
 73
     3
 90
        0
 40
0.6
 41
30.0
 62
     5
 63
     8
 74
     1
 91
        4
 64
     7
 65
   257
 75
     1
175
     1
 42
1.0
 92
        8
 66
     8
 43
1.0
 76
     1
 77
     6
 78
     2
 67
     7
 79
     5
170
     0
171
     0
290
     0
174
     0
 93
        1
 44
0.0
173
     0
291
     1
 45
0.0
1001
ACAD
1000
AcDbSavedByObjectVersion
1070
     0
  0
VISUALSTYLE
  5
6CC
102
{ACAD_REACTORS
330
29
102
}
102
{ACAD_XDICTIONARY
360
7B6
102
}
330
29
100
AcDbVisualStyle
  2
Conceptual
 70
     9
 71
     3
 72
     2
 73
     0
 90
        0
 40
0.6
 41
30.0
 62
     5
 63
     7
 74
     2
 91
        2
 64
     7
 65
   257
 75
     1
175
     1
 42
40.0
 92
        8
 66
     7
 43
1.0
 76
     1
 77
     6
 78
     2
 67
     7
 79
     3
170
     0
171
     0
290
     0
174
     0
 93
        1
 44
0.0
173
     0
291
     0
 45
0.0
1001
ACAD
1000
AcDbSavedByObjectVersion
1070
     0
  0
VISUALSTYLE
  5
6CD
102
{ACAD_REACTORS
330
29
102
}
102
{ACAD_XDICTIONARY
360
7B8
102
}
330
29
100
AcDbVisualStyle
  2
Dim
 70
    11
 71
     2
 72
     2
 73
     0
 90
        0
 40
0.6
 41
30.0
 62
     5
 63
     7
 74
     1
 91
        4
 64
     7
 65
   257
 75
     1
175
     1
 42
1.0
 92
        8
 66
     7
 43
1.0
 76
     1
 77
     6
 78
     2
 67
     7
 79
     5
170
     0
171
     0
290
     0
174
     0
 93
        1
 44
-50.0
173
     0
291
     1
 45
0.0
1001
ACAD
1000
AcDbSavedByObjectVersion
1070
     0
  0
VISUALSTYLE
  5
6D5
102
{ACAD_REACTORS
330
29
102
}
102
{ACAD_XDICTIONARY
360
7C8
102
}
330
29
100
AcDbVisualStyle
  2
EdgeColorOff
 70
    22
 71
     2
 72
     2
 73
     0
 90
        0
 40
0.6
 41
30.0
 62
     5
 63
     7
 74
     1
 91
        4
 64
     7
 65
   257
 75
     1
175
     1
 42
1.0
 92
        8
 66
     7
 43
1.0
 76
     1
 77
     6
 78
     2
 67
     7
 79
     5
170
     0
171
     0
290
     0
174
     0
 93
        1
 44
0.0
173
     0
291
     1
 45
0.0
1001
ACAD
1000
AcDbSavedByObjectVersion
1070
     0
  0
VISUALSTYLE
  5
6D1
102
{ACAD_REACTORS
330
29
102
}
102
{ACAD_XDICTIONARY
360
7C0
102
}
330
29
100
AcDbVisualStyle
  2
Facepattern
 70
    15
 71
     2
 72
     2
 73
     0
 90
        0
 40
0.6
 41
30.0
 62
     5
 63
     7
 74
     1
 91
        4
 64
     7
 65
   257
 75
     1
175
     1
 42
1.0
 92
        8
 66
     7
 43
1.0
 76
     1
 77
     6
 78
     2
 67
     7
 79
     5
170
     0
171
     0
290
     0
174
     0
 93
        1
 44
0.0
173
     0
291
     1
 45
0.0
1001
ACAD
1000
AcDbSavedByObjectVersion
1070
     0
  0
VISUALSTYLE
  5
6C3
102
{ACAD_REACTORS
330
29
102
}
102
{ACAD_XDICTIONARY
360
7A4
102
}
330
29
100
AcDbVisualStyle
  2
Flat
 70
     0
 71
     2
 72
     1
 73
     1
 90
        2
 40
0.6
 41
30.0
 62
     5
 63
     7
 74
     0
 91
        4
 64
     7
 65
   257
 75
     1
175
     1
 42
1.0
 92
        8
 66
     7
 43
1.0
 76
     1
 77
     6
 78
     2
 67
     7
 79
     5
170
     0
171
     0
290
     0
174
     0
 93
       13
 44
0.0
173
     0
291
     1
 45
0.0
1001
ACAD
1000
AcDbSavedByObjectVersion
1070
     0
  0
VISUALSTYLE
  5
6C4
102
{ACAD_REACTORS
330
29
102
}
102
{ACAD_XDICTIONARY
360
7A6
102
}
330
29
100
AcDbVisualStyle
  2
FlatWithEdges
 70
     1
 71
     2
 72
     1
 73
     1
 90
        2
 40
0.6
 41
30.0
 62
     5
 63
     7
 74
     1
 91
        4
 64
     7
 65
   257
 75
     1
175
     1
 42
1.0
 92
        0
 66
   257
 43
1.0
 76
     1
 77
     6
 78
     2
 67
     7
 79
     5
170
     0
171
     0
290
     0
174
     0
 93
       13
 44
0.0
173
     0
291
     1
 45
0.0
1001
ACAD
1000
AcDbSavedByObjectVersion
1070
     0
  0
VISUALSTYLE
  5
6C5
102
{ACAD_REACTORS
330
29
102
}
102
{ACAD_XDICTIONARY
360
7A8
102
}
330
29
100
AcDbVisualStyle
  2
Gouraud
 70
     2
 71
     2
 72
     2
 73
     1
 90
        2
 40
0.6
 41
30.0
 62
     5
 63
     7
 74
     0
 91
        4
 64
     7
 65
   257
 75
     1
175
     1
 42
1.0
 92
        0
 66
     7
 43
1.0
 76
     1
 77
     6
 78
     2
 67
     7
 79
     5
170
     0
171
     0
290
     0
174
     0
 93
       13
 44
0.0
173
     0
291
     1
 45
0.0
1001
ACAD
1000
AcDbSavedByObjectVersion
1070
     0
  0
VISUALSTYLE
  5
6C6
102
{ACAD_REACTORS
330
29
102
}
102
{ACAD_XDICTIONARY
360
7AA
102
}
330
29
100
AcDbVisualStyle
  2
GouraudWithEdges
 70
     3
 71
     2
 72
     2
 73
     1
 90
        2
 40
0.6
 41
30.0
 62
     5
 63
     7
 74
     1
 91
        4
 64
     7
 65
   257
 75
     1
175
     1
 42
1.0
 92
        0
 66
   257
 43
1.0
 76
     1
 77
     6
 78
     2
 67
     7
 79
     5
170
     0
171
     0
290
     0
174
     0
 93
       13
 44
0.0
173
     0
291
     1
 45
0.0
1001
ACAD
1000
AcDbSavedByObjectVersion
1070
     0
  0
VISUALSTYLE
  5
6C9
102
{ACAD_REACTORS
330
29
102
}
102
{ACAD_XDICTIONARY
360
7B0
102
}
330
29
100
AcDbVisualStyle
  2
Hidden
 70
     6
 71
     1
 72
     2
 73
     2
 90
        0
 40
0.6
 41
30.0
 62
     5
 63
     7
 74
     2
 91
        2
 64
     7
 65
   257
 75
     2
175
     1
 42
40.0
 92
        0
 66
   257
 43
1.0
 76
     1
 77
     6
 78
     2
 67
     7
 79
     3
170
     0
171
     0
290
     0
174
     0
 93
        1
 44
0.0
173
     0
291
     0
 45
0.0
1001
ACAD
1000
AcDbSavedByObjectVersion
1070
     0
  0
VISUALSTYLE
  5
6D3
102
{ACAD_REACTORS
330
29
102
}
102
{ACAD_XDICTIONARY
360
7C4
102
}
330
29
100
AcDbVisualStyle
  2
JitterOff
 70
    20
 71
     2
 72
     2
 73
     0
 90
        0
 40
0.6
 41
30.0
 62
     5
 63
     7
 74
     1
 91
        4
 64
     7
 65
   257
 75
     1
175
     1
 42
1.0
 92
       10
 66
     7
 43
1.0
 76
     1
 77
     6
 78
     2
 67
     7
 79
     5
170
     0
171
     0
290
     0
174
     0
 93
        1
 44
0.0
173
     0
291
     1
 45
0.0
1001
ACAD
1000
AcDbSavedByObjectVersion
1070
     0
  0
VISUALSTYLE
  5
6D0
102
{ACAD_REACTORS
330
29
102
}
102
{ACAD_XDICTIONARY
360
7BE
102
}
330
29
100
AcDbVisualStyle
  2
Linepattern
 70
    14
 71
     2
 72
     2
 73
     0
 90
        0
 40
0.6
 41
30.0
 62
     5
 63
     7
 74
     1
 91
        4
 64
     7
 65
   257
 75
     7
175
     7
 42
1.0
 92
        8
 66
     7
 43
1.0
 76
     1
 77
     6
 78
     2
 67
     7
 79
     5
170
     0
171
     0
290
     0
174
     0
 93
        1
 44
0.0
173
     0
291
     1
 45
0.0
1001
ACAD
1000
AcDbSavedByObjectVersion
1070
     0
  0
VISUALSTYLE
  5
6D4
102
{ACAD_REACTORS
330
29
102
}
102
{ACAD_XDICTIONARY
360
7C6
102
}
330
29
100
AcDbVisualStyle
  2
OverhangOff
 70
    21
 71
     2
 72
     2
 73
     0
 90
        0
 40
0.6
 41
30.0
 62
     5
 63
     7
 74
     1
 91
        4
 64
     7
 65
   257
 75
     1
175
     1
 42
1.0
 92
        9
 66
     7
 43
1.0
 76
     1
 77
     6
 78
     2
 67
     7
 79
     5
170
     0
171
     0
290
     0
174
     0
 93
        1
 44
0.0
173
     0
291
     1
 45
0.0
1001
ACAD
1000
AcDbSavedByObjectVersion
1070
     0
  0
VISUALSTYLE
  5
6CB
102
{ACAD_REACTORS
330
29
102
}
102
{ACAD_XDICTIONARY
360
7B4
102
}
330
29
100
AcDbVisualStyle
  2
Realistic
 70
     8
 71
     2
 72
     3
 73
     0
 90
        2
 40
0.6
 41
30.0
 62
     5
 63
     7
 74
     0
 91
        0
 64
     7
 65
   257
 75
     1
175
     1
 42
1.0
 92
        8
 66
   257
 43
1.0
 76
     1
 77
     6
 78
     2
 67
     7
 79
     3
170
     0
171
     0
290
     0
174
     0
 93
       13
 44
0.0
173
     0
291
     0
 45
0.0
1001
ACAD
1000
AcDbSavedByObjectVersion
1070
     0
  0
VISUALSTYLE
  5
6DA
102
{ACAD_REACTORS
330
29
102
}
102
{ACAD_XDICTIONARY
360
7D2
102
}
330
29
100
AcDbVisualStyle
  2
Shaded
 70
    27
 71
     2
 72
     2
 73
     1
 90
        2
 40
0.6
 41
30.0
 62
     5
 63
     7
 74
     0
 91
        4
 64
     7
 65
   257
 75
     1
175
     1
 42
1.0
 92
        8
 66
   257
 43
1.0
 76
     1
 77
     6
 78
     2
 67
   251
 79
     3
170
     0
171
     0
290
     0
174
     0
 93
        5
 44
0.0
173
     0
291
     0
 45
0.0
1001
ACAD
1000
AcDbSavedByObjectVersion
1070
     0
  0
VISUALSTYLE
  5
6D9
102
{ACAD_REACTORS
330
29
102
}
102
{ACAD_XDICTIONARY
360
7D0
102
}
330
29
100
AcDbVisualStyle
  2
Shaded with edges
 70
    26
 71
     2
 72
     2
 73
     1
 90
        2
 40
0.6
 41
30.0
 62
     5
 63
     7
 74
     1
 91
       10
 64
     7
 65
   257
 75
     2
175
     1
 42
1.0
 92
        8
 66
   257
 43
1.0
 76
     1
 77
     6
 78
     2
 67
     7
 79
     3
170
     0
171
     0
290
     0
174
     0
 93
        5
 44
0.0
173
     0
291
     0
 45
0.0
1001
ACAD
1000
AcDbSavedByObjectVersion
1070
     0
  0
VISUALSTYLE
  5
6D6
102
{ACAD_REACTORS
330
29
102
}
102
{ACAD_XDICTIONARY
360
7CA
102
}
330
29
100
AcDbVisualStyle
  2
Shades of Gray
 70
    23
 71
     2
 72
     2
 73
     3
 90
        0
 40
0.6
 41
30.0
 62
     5
 63
     7
 74
     2
 91
        2
 64
     7
 65
     7
 75
     1
175
     1
 42
40.0
 92
        8
 66
     7
 43
1.0
 76
     1
 77
     6
 78
     2
 67
     7
 79
     3
170
     0
171
     0
290
     0
174
     0
 93
        1
 44
0.0
173
     0
291
     0
 45
0.0
1001
ACAD
1000
AcDbSavedByObjectVersion
1070
     0
  0
VISUALSTYLE
  5
6D7
102
{ACAD_REACTORS
330
29
102
}
102
{ACAD_XDICTIONARY
360
7CC
102
}
330
29
100
AcDbVisualStyle
  2
Sketchy
 70
    24
 71
     1
 72
     2
 73
     2
 90
        0
 40
0.6
 41
30.0
 62
     5
 63
     7
 74
     2
 91
        2
 64
     7
 65
     7
 75
     1
175
     1
 42
40.0
 92
       11
 66
     7
 43
1.0
 76
     1
 77
     6
 78
     2
 67
     7
 79
     6
170
     0
171
     0
290
     0
174
     0
 93
        1
 44
0.0
173
     0
291
     0
 45
0.0
1001
ACAD
1000
AcDbSavedByObjectVersion
1070
     0
  0
VISUALSTYLE
  5
6CF
102
{ACAD_REACTORS
330
29
102
}
102
{ACAD_XDICTIONARY
360
7BC
102
}
330
29
100
AcDbVisualStyle
  2
Thicken
 70
    13
 71
     2
 72
     2
 73
     0
 90
        0
 40
0.6
 41
30.0
 62
     5
 63
     7
 74
     1
 91
        4
 64
     7
 65
   257
 75
     1
175
     1
 42
1.0
 92
       12
 66
     7
 43
1.0
 76
     1
 77
     6
 78
     2
 67
     7
 79
     5
170
     0
171
     0
290
     0
174
     0
 93
        1
 44
0.0
173
     0
291
     1
 45
0.0
1001
ACAD
1000
AcDbSavedByObjectVersion
1070
     0
  0
VISUALSTYLE
  5
6C8
102
{ACAD_REACTORS
330
29
102
}
102
{ACAD_XDICTIONARY
360
7AE
102
}
330
29
100
AcDbVisualStyle
  2
Wireframe
 70
     5
 71
     0
 72
     2
 73
     0
 90
        0
 40
0.6
 41
30.0
 62
     5
 63
     7
 74
     1
 91
        4
 64
     7
 65
   257
 75
     1
175
     1
 42
1.0
 92
        0
 66
   257
 43
1.0
 76
     1
 77
     6
 78
     2
 67
     7
 79
     5
170
     0
171
     0
290
     0
174
     0
 93
        1
 44
0.0
173
     0
291
     0
 45
0.0
1001
ACAD
1000
AcDbSavedByObjectVersion
1070
     0
  0
VISUALSTYLE
  5
6D8
102
{ACAD_REACTORS
330
29
102
}
102
{ACAD_XDICTIONARY
360
7CE
102
}
330
29
100
AcDbVisualStyle
  2
X-Ray
 70
    25
 71
     2
 72
     2
 73
     1
 90
        1
 40
0.5
 41
30.0
 62
     5
 63
     7
 74
     1
 91
        0
 64
     7
 65
   257
 75
     1
175
     1
 42
1.0
 92
        8
 66
     7
 43
1.0
 76
     1
 77
     6
 78
     2
 67
     7
 79
     3
170
     0
171
     0
290
     0
174
     0
 93
       13
 44
0.0
173
     0
291
     0
 45
0.0
1001
ACAD
1000
AcDbSavedByObjectVersion
1070
     0
  0
XRECORD
  5
798
102
{ACAD_REACTORS
330
797
102
}
330
797
100
AcDbXrecord
280
     1
340
28
  0
XRECORD
  5
799
102
{ACAD_REACTORS
330
797
102
}
330
797
100
AcDbXrecord
280
     1
340
7
  0
DICTIONARYVAR
  5
6BE
102
{ACAD_REACTORS
330
6BD
102
}
330
6BD
100
DictionaryVariables
280
     0
  1
1:1
  0
DICTIONARYVAR
  5
6E4
102
{ACAD_REACTORS
330
6BD
102
}
330
6BD
100
DictionaryVariables
280
     0
  1
Standard
  0
DICTIONARYVAR
  5
795
102
{ACAD_REACTORS
330
6BD
102
}
330
6BD
100
DictionaryVariables
280
     0
  1
0
  0
DICTIONARYVAR
  5
796
102
{ACAD_REACTORS
330
6BD
102
}
330
6BD
100
DictionaryVariables
280
     0
  1
1
  0
DICTIONARYVAR
  5
79D
102
{ACAD_REACTORS
330
6BD
102
}
330
6BD
100
DictionaryVariables
280
     0
  1
1
  0
DICTIONARY
  5
7A2
330
70
100
AcDbDictionary
280
     1
281
     1
  3
ACAD_XREC_ROUNDTRIP
360
7A3
  0
DICTIONARY
  5
79E
330
E
100
AcDbDictionary
280
     1
281
     1
  3
ACAD_XREC_ROUNDTRIP
360
79F
  0
DICTIONARY
  5
7A0
330
6
100
AcDbDictionary
280
     1
281
     1
  3
ACAD_XREC_ROUNDTRIP
360
7A1
  0
DICTIONARY
  5
7D4
330
6DB
100
AcDbDictionary
280
     1
281
     1
  3
ACAD_XREC_ROUNDTRIP
360
7D5
  0
DICTIONARY
  5
7AC
330
6C7
100
AcDbDictionary
280
     1
281
     1
  3
ACAD_XREC_ROUNDTRIP
360
7AD
  0
DICTIONARY
  5
7B2
330
6CA
100
AcDbDictionary
280
     1
281
     1
  3
ACAD_XREC_ROUNDTRIP
360
7B3
  0
DICTIONARY
  5
7BA
330
6CE
100
AcDbDictionary
280
     1
281
     1
  3
ACAD_XREC_ROUNDTRIP
360
7BB
  0
DICTIONARY
  5
7C2
330
6D2
100
AcDbDictionary
280
     1
281
     1
  3
ACAD_XREC_ROUNDTRIP
360
7C3
  0
DICTIONARY
  5
7B6
330
6CC
100
AcDbDictionary
280
     1
281
     1
  3
ACAD_XREC_ROUNDTRIP
360
7B7
  0
DICTIONARY
  5
7B8
330
6CD
100
AcDbDictionary
280
     1
281
     1
  3
ACAD_XREC_ROUNDTRIP
360
7B9
  0
DICTIONARY
  5
7C8
330
6D5
100
AcDbDictionary
280
     1
281
     1
  3
ACAD_XREC_ROUNDTRIP
360
7C9
  0
DICTIONARY
  5
7C0
330
6D1
100
AcDbDictionary
280
     1
281
     1
  3
ACAD_XREC_ROUNDTRIP
360
7C1
  0
DICTIONARY
  5
7A4
330
6C3
100
AcDbDictionary
280
     1
281
     1
  3
ACAD_XREC_ROUNDTRIP
360
7A5
  0
DICTIONARY
  5
7A6
330
6C4
100
AcDbDictionary
280
     1
281
     1
  3
ACAD_XREC_ROUNDTRIP
360
7A7
  0
DICTIONARY
  5
7A8
330
6C5
100
AcDbDictionary
280
     1
281
     1
  3
ACAD_XREC_ROUNDTRIP
360
7A9
  0
DICTIONARY
  5
7AA
330
6C6
100
AcDbDictionary
280
     1
281
     1
  3
ACAD_XREC_ROUNDTRIP
360
7AB
  0
DICTIONARY
  5
7B0
330
6C9
100
AcDbDictionary
280
     1
281
     1
  3
ACAD_XREC_ROUNDTRIP
360
7B1
  0
DICTIONARY
  5
7C4
330
6D3
100
AcDbDictionary
280
     1
281
     1
  3
ACAD_XREC_ROUNDTRIP
360
7C5
  0
DICTIONARY
  5
7BE
330
6D0
100
AcDbDictionary
280
     1
281
     1
  3
ACAD_XREC_ROUNDTRIP
360
7BF
  0
DICTIONARY
  5
7C6
330
6D4
100
AcDbDictionary
280
     1
281
     1
  3
ACAD_XREC_ROUNDTRIP
360
7C7
  0
DICTIONARY
  5
7B4
330
6CB
100
AcDbDictionary
280
     1
281
     1
  3
ACAD_XREC_ROUNDTRIP
360
7B5
  0
DICTIONARY
  5
7D2
330
6DA
100
AcDbDictionary
280
     1
281
     1
  3
ACAD_XREC_ROUNDTRIP
360
7D3
  0
DICTIONARY
  5
7D0
330
6D9
100
AcDbDictionary
280
     1
281
     1
  3
ACAD_XREC_ROUNDTRIP
360
7D1
  0
DICTIONARY
  5
7CA
330
6D6
100
AcDbDictionary
280
     1
281
     1
  3
ACAD_XREC_ROUNDTRIP
360
7CB
  0
DICTIONARY
  5
7CC
330
6D7
100
AcDbDictionary
280
     1
281
     1
  3
ACAD_XREC_ROUNDTRIP
360
7CD
  0
DICTIONARY
  5
7BC
330
6CF
100
AcDbDictionary
280
     1
281
     1
  3
ACAD_XREC_ROUNDTRIP
360
7BD
  0
DICTIONARY
  5
7AE
330
6C8
100
AcDbDictionary
280
     1
281
     1
  3
ACAD_XREC_ROUNDTRIP
360
7AF
  0
DICTIONARY
  5
7CE
330
6D8
100
AcDbDictionary
280
     1
281
     1
  3
ACAD_XREC_ROUNDTRIP
360
7CF
  0
XRECORD
  5
7A3
102
{ACAD_REACTORS
330
7A2
102
}
330
7A2
100
AcDbXrecord
280
     1
102
MATERIAL
148
0.0
149
0.0
149
0.0
 93
        0
 94
      127
282
     0
 72
     1
 77
     1
171
     1
175
     1
179
     1
273
     0
  0
XRECORD
  5
79F
102
{ACAD_REACTORS
330
79E
102
}
330
79E
100
AcDbXrecord
280
     1
102
MATERIAL
148
0.0
149
0.0
149
0.0
 93
        0
 94
      127
282
     0
 72
     1
 77
     1
171
     1
175
     1
179
     1
273
     0
  0
XRECORD
  5
7A1
102
{ACAD_REACTORS
330
7A0
102
}
330
7A0
100
AcDbXrecord
280
     1
102
MATERIAL
148
0.0
149
0.0
149
0.0
 93
        0
 94
      127
282
     0
 72
     1
 77
     1
171
     1
175
     1
179
     1
273
     0
  0
XRECORD
  5
7D5
102
{ACAD_REACTORS
330
7D4
102
}
330
7D4
100
AcDbXrecord
280
     1
102
ACAD_ROUNDTRIP_2010_MLEADER_STYLE
  0
XRECORD
  5
7AD
102
{ACAD_REACTORS
330
7AC
102
}
330
7AC
100
AcDbXrecord
280
     1
102
RTVSPropertyOp0
 70
     1
102
RTVSPropertyOp1
 70
     1
102
RTVSPropertyOp2
 70
     1
102
RTVSPropertyOp3
 70
     1
102
RTVSPropertyOp4
 70
     1
102
RTVSPropertyOp5
 70
     1
102
RTVSPropertyOp6
 70
     1
102
RTVSPropertyOp7
 70
     1
102
RTVSPropertyOp8
 70
     1
102
RTVSPropertyOp9
 70
     1
102
RTVSPropertyOp10
 70
     1
102
RTVSPropertyOp11
 70
     1
102
RTVSPropertyOp12
 70
     1
102
RTVSPropertyOp13
 70
     1
102
RTVSPropertyOp14
 70
     1
102
RTVSPropertyOp15
 70
     1
102
RTVSPropertyOp16
 70
     1
102
RTVSPropertyOp17
 70
     1
102
RTVSPropertyOp18
 70
     1
102
RTVSPropertyOp19
 70
     1
102
RTVSPropertyOp20
 70
     1
102
RTVSPropertyOp21
 70
     1
102
RTVSPropertyOp22
 70
     1
102
RTVSPropertyOp23
 70
     1
102
RTVSPropertyOp24
 70
     1
102
RTVSPropertyOp25
 70
     1
102
RTVSPropertyOp26
 70
     1
102
RTVSPropertyOp27
 70
     1
102
RTVSPropertyOp28
 70
     1
102
RTVSPropertyOp29
 70
     1
102
RTVSPropertyOp30
 70
     1
102
RTVSPropertyOp31
 70
     1
102
RTVSPropertyOp32
 70
     1
102
RTVSPropertyOp33
 70
     1
102
RTVSPropertyOp34
 70
     1
102
RTVSPropertyOp35
 70
     1
102
RTVSPropertyOp36
 70
     1
102
RTVSPropertyOp37
 70
     1
102
RTVSPropertyOp38
 70
     1
102
RTVSPropertyOp39
 70
     1
102
RTVSPropertyOp40
 70
     1
102
RTVSPropertyOp41
 70
     1
102
RTVSPropertyOp42
 70
     1
102
RTVSPropertyOp43
 70
     1
102
RTVSPropertyOp44
 70
     1
102
RTVSPropertyOp45
 70
     1
102
RTVSPropertyOp46
 70
     1
102
RTVSPropertyOp47
 70
     1
102
RTVSPropertyOp48
 70
     1
102
RTVSPropertyOp49
 70
     1
102
RTVSPropertyOp50
 70
     1
102
RTVSPropertyOp51
 70
     0
102
RTVSPropertyOp52
 70
     0
102
RTVSPropertyOp53
 70
     1
102
RTVSPropertyOp54
 70
     1
102
RTVSPropertyOp55
 70
     1
102
RTVSPropertyOp56
 70
     1
102
RTVSPropertyOp57
 70
     1
102
RTVSPost2010Prop28
280
     1
102
RTVSPost2010PropOp28
 70
     1
102
RTVSPost2010Prop29
280
     1
102
RTVSPost2010PropOp29
 70
     1
102
RTVSPost2010Prop30
280
     0
102
RTVSPost2010PropOp30
 70
     1
102
RTVSPost2010Prop31
280
     0
102
RTVSPost2010PropOp31
 70
     1
102
RTVSPost2010Prop32
280
     0
102
RTVSPost2010PropOp32
 70
     1
102
RTVSPost2010Prop33
280
     0
102
RTVSPost2010PropOp33
 70
     1
102
RTVSPost2010Prop34
280
     0
102
RTVSPost2010PropOp34
 70
     1
102
RTVSPost2010Prop35
280
     0
102
RTVSPost2010PropOp35
 70
     1
102
RTVSPost2010Prop36
280
     0
102
RTVSPost2010PropOp36
 70
     1
102
RTVSPost2010Prop37
 90
       50
102
RTVSPost2010PropOp37
 70
     1
102
RTVSPost2010Prop38
140
0.0
102
RTVSPost2010PropOp38
 70
     1
102
RTVSPost2010Prop39
140
1.0
102
RTVSPost2010PropOp39
 70
     1
102
RTVSPost2010Prop40
 90
        0
102
RTVSPost2010PropOp40
 70
     1
102
RTVSPost2010Prop41ColorIndex
 90
       18
102
RTVSPost2010Prop41ColorRGB
 90
        0
102
RTVSPost2010PropOp41
 70
     1
102
RTVSPost2010Prop42
 90
       50
102
RTVSPost2010PropOp42
 70
     1
102
RTVSPost2010Prop43
 90
        3
102
RTVSPost2010PropOp43
 70
     1
102
RTVSPost2010Prop44ColorIndex
 90
        5
102
RTVSPost2010Prop44ColorRGB
 90
      255
102
RTVSPost2010PropOp44
 70
     1
102
RTVSPost2010Prop45
280
     0
102
RTVSPost2010PropOp45
 70
     1
102
RTVSPost2010Prop46
 90
       50
102
RTVSPost2010PropOp46
 70
     1
102
RTVSPost2010Prop47
 90
       50
102
RTVSPost2010PropOp47
 70
     1
102
RTVSPost2010Prop48
 90
       50
102
RTVSPost2010PropOp48
 70
     1
102
RTVSPost2010Prop49
280
     0
102
RTVSPost2010PropOp49
 70
     1
102
RTVSPost2010Prop50
 90
       50
102
RTVSPost2010PropOp50
 70
     1
102
RTVSPost2010Prop51ColorIndex
 90
      256
102
RTVSPost2010Prop51ColorRGB
 90
-16777216
102
RTVSPost2010PropOp51
 70
     0
102
RTVSPost2010Prop52
140
1.0
102
RTVSPost2010PropOp52
 70
     0
102
RTVSPost2010Prop53
 90
        2
102
RTVSPost2010PropOp53
 70
     1
102
RTVSPost2010Prop54
  1
strokes_ogs.tif
102
RTVSPost2010PropOp54
 70
     1
102
RTVSPost2010Prop55
280
     0
102
RTVSPost2010PropOp55
 70
     1
102
RTVSPost2010Prop56
140
1.0
102
RTVSPost2010PropOp56
 70
     1
102
RTVSPost2010Prop57
140
1.0
102
RTVSPost2010PropOp57
 70
     1
  0
XRECORD
  5
7B3
102
{ACAD_REACTORS
330
7B2
102
}
330
7B2
100
AcDbXrecord
280
     1
102
RTVSPropertyOp0
 70
     1
102
RTVSPropertyOp1
 70
     1
102
RTVSPropertyOp2
 70
     1
102
RTVSPropertyOp3
 70
     1
102
RTVSPropertyOp4
 70
     1
102
RTVSPropertyOp5
 70
     1
102
RTVSPropertyOp6
 70
     1
102
RTVSPropertyOp7
 70
     1
102
RTVSPropertyOp8
 70
     1
102
RTVSPropertyOp9
 70
     1
102
RTVSPropertyOp10
 70
     1
102
RTVSPropertyOp11
 70
     1
102
RTVSPropertyOp12
 70
     1
102
RTVSPropertyOp13
 70
     1
102
RTVSPropertyOp14
 70
     1
102
RTVSPropertyOp15
 70
     1
102
RTVSPropertyOp16
 70
     1
102
RTVSPropertyOp17
 70
     1
102
RTVSPropertyOp18
 70
     1
102
RTVSPropertyOp19
 70
     1
102
RTVSPropertyOp20
 70
     1
102
RTVSPropertyOp21
 70
     1
102
RTVSPropertyOp22
 70
     1
102
RTVSPropertyOp23
 70
     1
102
RTVSPropertyOp24
 70
     1
102
RTVSPropertyOp25
 70
     1
102
RTVSPropertyOp26
 70
     1
102
RTVSPropertyOp27
 70
     1
102
RTVSPropertyOp28
 70
     1
102
RTVSPropertyOp29
 70
     1
102
RTVSPropertyOp30
 70
     1
102
RTVSPropertyOp31
 70
     1
102
RTVSPropertyOp32
 70
     1
102
RTVSPropertyOp33
 70
     1
102
RTVSPropertyOp34
 70
     1
102
RTVSPropertyOp35
 70
     1
102
RTVSPropertyOp36
 70
     1
102
RTVSPropertyOp37
 70
     1
102
RTVSPropertyOp38
 70
     1
102
RTVSPropertyOp39
 70
     1
102
RTVSPropertyOp40
 70
     1
102
RTVSPropertyOp41
 70
     1
102
RTVSPropertyOp42
 70
     1
102
RTVSPropertyOp43
 70
     1
102
RTVSPropertyOp44
 70
     1
102
RTVSPropertyOp45
 70
     1
102
RTVSPropertyOp46
 70
     1
102
RTVSPropertyOp47
 70
     1
102
RTVSPropertyOp48
 70
     1
102
RTVSPropertyOp49
 70
     1
102
RTVSPropertyOp50
 70
     1
102
RTVSPropertyOp51
 70
     0
102
RTVSPropertyOp52
 70
     0
102
RTVSPropertyOp53
 70
     1
102
RTVSPropertyOp54
 70
     1
102
RTVSPropertyOp55
 70
     1
102
RTVSPropertyOp56
 70
     1
102
RTVSPropertyOp57
 70
     1
102
RTVSPost2010Prop28
280
     0
102
RTVSPost2010PropOp28
 70
     1
102
RTVSPost2010Prop29
280
     1
102
RTVSPost2010PropOp29
 70
     1
102
RTVSPost2010Prop30
280
     1
102
RTVSPost2010PropOp30
 70
     1
102
RTVSPost2010Prop31
280
     0
102
RTVSPost2010PropOp31
 70
     1
102
RTVSPost2010Prop32
280
     0
102
RTVSPost2010PropOp32
 70
     1
102
RTVSPost2010Prop33
280
     0
102
RTVSPost2010PropOp33
 70
     1
102
RTVSPost2010Prop34
280
     0
102
RTVSPost2010PropOp34
 70
     1
102
RTVSPost2010Prop35
280
     0
102
RTVSPost2010PropOp35
 70
     1
102
RTVSPost2010Prop36
280
     0
102
RTVSPost2010PropOp36
 70
     1
102
RTVSPost2010Prop37
 90
       50
102
RTVSPost2010PropOp37
 70
     1
102
RTVSPost2010Prop38
140
0.0
102
RTVSPost2010PropOp38
 70
     1
102
RTVSPost2010Prop39
140
1.0
102
RTVSPost2010PropOp39
 70
     1
102
RTVSPost2010Prop40
 90
        0
102
RTVSPost2010PropOp40
 70
     1
102
RTVSPost2010Prop41ColorIndex
 90
       18
102
RTVSPost2010Prop41ColorRGB
 90
        0
102
RTVSPost2010PropOp41
 70
     1
102
RTVSPost2010Prop42
 90
       50
102
RTVSPost2010PropOp42
 70
     1
102
RTVSPost2010Prop43
 90
        3
102
RTVSPost2010PropOp43
 70
     1
102
RTVSPost2010Prop44ColorIndex
 90
        5
102
RTVSPost2010Prop44ColorRGB
 90
      255
102
RTVSPost2010PropOp44
 70
     1
102
RTVSPost2010Prop45
280
     0
102
RTVSPost2010PropOp45
 70
     1
102
RTVSPost2010Prop46
 90
       50
102
RTVSPost2010PropOp46
 70
     1
102
RTVSPost2010Prop47
 90
       50
102
RTVSPost2010PropOp47
 70
     1
102
RTVSPost2010Prop48
 90
       50
102
RTVSPost2010PropOp48
 70
     1
102
RTVSPost2010Prop49
280
     0
102
RTVSPost2010PropOp49
 70
     1
102
RTVSPost2010Prop50
 90
       50
102
RTVSPost2010PropOp50
 70
     1
102
RTVSPost2010Prop51ColorIndex
 90
      256
102
RTVSPost2010Prop51ColorRGB
 90
-16777216
102
RTVSPost2010PropOp51
 70
     0
102
RTVSPost2010Prop52
140
1.0
102
RTVSPost2010PropOp52
 70
     0
102
RTVSPost2010Prop53
 90
        2
102
RTVSPost2010PropOp53
 70
     1
102
RTVSPost2010Prop54
  1
strokes_ogs.tif
102
RTVSPost2010PropOp54
 70
     1
102
RTVSPost2010Prop55
280
     0
102
RTVSPost2010PropOp55
 70
     1
102
RTVSPost2010Prop56
140
1.0
102
RTVSPost2010PropOp56
 70
     1
102
RTVSPost2010Prop57
140
1.0
102
RTVSPost2010PropOp57
 70
     1
  0
XRECORD
  5
7BB
102
{ACAD_REACTORS
330
7BA
102
}
330
7BA
100
AcDbXrecord
280
     1
102
RTVSPropertyOp0
 70
     1
102
RTVSPropertyOp1
 70
     1
102
RTVSPropertyOp2
 70
     1
102
RTVSPropertyOp3
 70
     1
102
RTVSPropertyOp4
 70
     1
102
RTVSPropertyOp5
 70
     1
102
RTVSPropertyOp6
 70
     1
102
RTVSPropertyOp7
 70
     1
102
RTVSPropertyOp8
 70
     1
102
RTVSPropertyOp9
 70
     1
102
RTVSPropertyOp10
 70
     1
102
RTVSPropertyOp11
 70
     1
102
RTVSPropertyOp12
 70
     1
102
RTVSPropertyOp13
 70
     1
102
RTVSPropertyOp14
 70
     1
102
RTVSPropertyOp15
 70
     1
102
RTVSPropertyOp16
 70
     1
102
RTVSPropertyOp17
 70
     1
102
RTVSPropertyOp18
 70
     1
102
RTVSPropertyOp19
 70
     1
102
RTVSPropertyOp20
 70
     1
102
RTVSPropertyOp21
 70
     1
102
RTVSPropertyOp22
 70
     1
102
RTVSPropertyOp23
 70
     1
102
RTVSPropertyOp24
 70
     1
102
RTVSPropertyOp25
 70
     1
102
RTVSPropertyOp26
 70
     1
102
RTVSPropertyOp27
 70
     1
102
RTVSPropertyOp28
 70
     1
102
RTVSPropertyOp29
 70
     1
102
RTVSPropertyOp30
 70
     1
102
RTVSPropertyOp31
 70
     1
102
RTVSPropertyOp32
 70
     1
102
RTVSPropertyOp33
 70
     1
102
RTVSPropertyOp34
 70
     1
102
RTVSPropertyOp35
 70
     1
102
RTVSPropertyOp36
 70
     1
102
RTVSPropertyOp37
 70
     1
102
RTVSPropertyOp38
 70
     1
102
RTVSPropertyOp39
 70
     1
102
RTVSPropertyOp40
 70
     1
102
RTVSPropertyOp41
 70
     1
102
RTVSPropertyOp42
 70
     1
102
RTVSPropertyOp43
 70
     1
102
RTVSPropertyOp44
 70
     1
102
RTVSPropertyOp45
 70
     1
102
RTVSPropertyOp46
 70
     1
102
RTVSPropertyOp47
 70
     1
102
RTVSPropertyOp48
 70
     1
102
RTVSPropertyOp49
 70
     1
102
RTVSPropertyOp50
 70
     1
102
RTVSPropertyOp51
 70
     0
102
RTVSPropertyOp52
 70
     0
102
RTVSPropertyOp53
 70
     1
102
RTVSPropertyOp54
 70
     1
102
RTVSPropertyOp55
 70
     1
102
RTVSPropertyOp56
 70
     1
102
RTVSPropertyOp57
 70
     1
102
RTVSPost2010Prop28
280
     0
102
RTVSPost2010PropOp28
 70
     1
102
RTVSPost2010Prop29
280
     1
102
RTVSPost2010PropOp29
 70
     1
102
RTVSPost2010Prop30
280
     1
102
RTVSPost2010PropOp30
 70
     1
102
RTVSPost2010Prop31
280
     0
102
RTVSPost2010PropOp31
 70
     1
102
RTVSPost2010Prop32
280
     0
102
RTVSPost2010PropOp32
 70
     1
102
RTVSPost2010Prop33
280
     0
102
RTVSPost2010PropOp33
 70
     1
102
RTVSPost2010Prop34
280
     0
102
RTVSPost2010PropOp34
 70
     1
102
RTVSPost2010Prop35
280
     0
102
RTVSPost2010PropOp35
 70
     1
102
RTVSPost2010Prop36
280
     0
102
RTVSPost2010PropOp36
 70
     1
102
RTVSPost2010Prop37
 90
       50
102
RTVSPost2010PropOp37
 70
     1
102
RTVSPost2010Prop38
140
0.0
102
RTVSPost2010PropOp38
 70
     1
102
RTVSPost2010Prop39
140
1.0
102
RTVSPost2010PropOp39
 70
     1
102
RTVSPost2010Prop40
 90
        0
102
RTVSPost2010PropOp40
 70
     1
102
RTVSPost2010Prop41ColorIndex
 90
       18
102
RTVSPost2010Prop41ColorRGB
 90
        0
102
RTVSPost2010PropOp41
 70
     1
102
RTVSPost2010Prop42
 90
       50
102
RTVSPost2010PropOp42
 70
     1
102
RTVSPost2010Prop43
 90
        3
102
RTVSPost2010PropOp43
 70
     1
102
RTVSPost2010Prop44ColorIndex
 90
        5
102
RTVSPost2010Prop44ColorRGB
 90
      255
102
RTVSPost2010PropOp44
 70
     1
102
RTVSPost2010Prop45
280
     0
102
RTVSPost2010PropOp45
 70
     1
102
RTVSPost2010Prop46
 90
       50
102
RTVSPost2010PropOp46
 70
     1
102
RTVSPost2010Prop47
 90
       50
102
RTVSPost2010PropOp47
 70
     1
102
RTVSPost2010Prop48
 90
       50
102
RTVSPost2010PropOp48
 70
     1
102
RTVSPost2010Prop49
280
     0
102
RTVSPost2010PropOp49
 70
     1
102
RTVSPost2010Prop50
 90
       50
102
RTVSPost2010PropOp50
 70
     1
102
RTVSPost2010Prop51ColorIndex
 90
      256
102
RTVSPost2010Prop51ColorRGB
 90
-16777216
102
RTVSPost2010PropOp51
 70
     0
102
RTVSPost2010Prop52
140
1.0
102
RTVSPost2010PropOp52
 70
     0
102
RTVSPost2010Prop53
 90
        2
102
RTVSPost2010PropOp53
 70
     1
102
RTVSPost2010Prop54
  1
strokes_ogs.tif
102
RTVSPost2010PropOp54
 70
     1
102
RTVSPost2010Prop55
280
     0
102
RTVSPost2010PropOp55
 70
     1
102
RTVSPost2010Prop56
140
1.0
102
RTVSPost2010PropOp56
 70
     1
102
RTVSPost2010Prop57
140
1.0
102
RTVSPost2010PropOp57
 70
     1
  0
XRECORD
  5
7C3
102
{ACAD_REACTORS
330
7C2
102
}
330
7C2
100
AcDbXrecord
280
     1
102
RTVSPropertyOp0
 70
     1
102
RTVSPropertyOp1
 70
     1
102
RTVSPropertyOp2
 70
     1
102
RTVSPropertyOp3
 70
     1
102
RTVSPropertyOp4
 70
     1
102
RTVSPropertyOp5
 70
     1
102
RTVSPropertyOp6
 70
     1
102
RTVSPropertyOp7
 70
     1
102
RTVSPropertyOp8
 70
     1
102
RTVSPropertyOp9
 70
     1
102
RTVSPropertyOp10
 70
     1
102
RTVSPropertyOp11
 70
     1
102
RTVSPropertyOp12
 70
     1
102
RTVSPropertyOp13
 70
     1
102
RTVSPropertyOp14
 70
     1
102
RTVSPropertyOp15
 70
     1
102
RTVSPropertyOp16
 70
     1
102
RTVSPropertyOp17
 70
     1
102
RTVSPropertyOp18
 70
     1
102
RTVSPropertyOp19
 70
     1
102
RTVSPropertyOp20
 70
     1
102
RTVSPropertyOp21
 70
     1
102
RTVSPropertyOp22
 70
     1
102
RTVSPropertyOp23
 70
     1
102
RTVSPropertyOp24
 70
     1
102
RTVSPropertyOp25
 70
     1
102
RTVSPropertyOp26
 70
     1
102
RTVSPropertyOp27
 70
     1
102
RTVSPropertyOp28
 70
     1
102
RTVSPropertyOp29
 70
     1
102
RTVSPropertyOp30
 70
     1
102
RTVSPropertyOp31
 70
     1
102
RTVSPropertyOp32
 70
     1
102
RTVSPropertyOp33
 70
     1
102
RTVSPropertyOp34
 70
     1
102
RTVSPropertyOp35
 70
     1
102
RTVSPropertyOp36
 70
     1
102
RTVSPropertyOp37
 70
     1
102
RTVSPropertyOp38
 70
     1
102
RTVSPropertyOp39
 70
     1
102
RTVSPropertyOp40
 70
     1
102
RTVSPropertyOp41
 70
     1
102
RTVSPropertyOp42
 70
     1
102
RTVSPropertyOp43
 70
     1
102
RTVSPropertyOp44
 70
     1
102
RTVSPropertyOp45
 70
     1
102
RTVSPropertyOp46
 70
     1
102
RTVSPropertyOp47
 70
     1
102
RTVSPropertyOp48
 70
     1
102
RTVSPropertyOp49
 70
     1
102
RTVSPropertyOp50
 70
     1
102
RTVSPropertyOp51
 70
     0
102
RTVSPropertyOp52
 70
     0
102
RTVSPropertyOp53
 70
     1
102
RTVSPropertyOp54
 70
     1
102
RTVSPropertyOp55
 70
     1
102
RTVSPropertyOp56
 70
     1
102
RTVSPropertyOp57
 70
     1
102
RTVSPost2010Prop28
280
     0
102
RTVSPost2010PropOp28
 70
     1
102
RTVSPost2010Prop29
280
     1
102
RTVSPost2010PropOp29
 70
     1
102
RTVSPost2010Prop30
280
     1
102
RTVSPost2010PropOp30
 70
     1
102
RTVSPost2010Prop31
280
     0
102
RTVSPost2010PropOp31
 70
     1
102
RTVSPost2010Prop32
280
     0
102
RTVSPost2010PropOp32
 70
     1
102
RTVSPost2010Prop33
280
     0
102
RTVSPost2010PropOp33
 70
     1
102
RTVSPost2010Prop34
280
     0
102
RTVSPost2010PropOp34
 70
     1
102
RTVSPost2010Prop35
280
     0
102
RTVSPost2010PropOp35
 70
     1
102
RTVSPost2010Prop36
280
     0
102
RTVSPost2010PropOp36
 70
     1
102
RTVSPost2010Prop37
 90
       50
102
RTVSPost2010PropOp37
 70
     1
102
RTVSPost2010Prop38
140
0.0
102
RTVSPost2010PropOp38
 70
     1
102
RTVSPost2010Prop39
140
1.0
102
RTVSPost2010PropOp39
 70
     1
102
RTVSPost2010Prop40
 90
        0
102
RTVSPost2010PropOp40
 70
     1
102
RTVSPost2010Prop41ColorIndex
 90
       18
102
RTVSPost2010Prop41ColorRGB
 90
        0
102
RTVSPost2010PropOp41
 70
     1
102
RTVSPost2010Prop42
 90
       50
102
RTVSPost2010PropOp42
 70
     1
102
RTVSPost2010Prop43
 90
        3
102
RTVSPost2010PropOp43
 70
     1
102
RTVSPost2010Prop44ColorIndex
 90
        5
102
RTVSPost2010Prop44ColorRGB
 90
      255
102
RTVSPost2010PropOp44
 70
     1
102
RTVSPost2010Prop45
280
     0
102
RTVSPost2010PropOp45
 70
     1
102
RTVSPost2010Prop46
 90
       50
102
RTVSPost2010PropOp46
 70
     1
102
RTVSPost2010Prop47
 90
       50
102
RTVSPost2010PropOp47
 70
     1
102
RTVSPost2010Prop48
 90
       50
102
RTVSPost2010PropOp48
 70
     1
102
RTVSPost2010Prop49
280
     0
102
RTVSPost2010PropOp49
 70
     1
102
RTVSPost2010Prop50
 90
       50
102
RTVSPost2010PropOp50
 70
     1
102
RTVSPost2010Prop51ColorIndex
 90
      256
102
RTVSPost2010Prop51ColorRGB
 90
-16777216
102
RTVSPost2010PropOp51
 70
     0
102
RTVSPost2010Prop52
140
1.0
102
RTVSPost2010PropOp52
 70
     0
102
RTVSPost2010Prop53
 90
        2
102
RTVSPost2010PropOp53
 70
     1
102
RTVSPost2010Prop54
  1
strokes_ogs.tif
102
RTVSPost2010PropOp54
 70
     1
102
RTVSPost2010Prop55
280
     0
102
RTVSPost2010PropOp55
 70
     1
102
RTVSPost2010Prop56
140
1.0
102
RTVSPost2010PropOp56
 70
     1
102
RTVSPost2010Prop57
140
1.0
102
RTVSPost2010PropOp57
 70
     1
  0
XRECORD
  5
7B7
102
{ACAD_REACTORS
330
7B6
102
}
330
7B6
100
AcDbXrecord
280
     1
102
RTVSPropertyOp0
 70
     1
102
RTVSPropertyOp1
 70
     1
102
RTVSPropertyOp2
 70
     1
102
RTVSPropertyOp3
 70
     1
102
RTVSPropertyOp4
 70
     1
102
RTVSPropertyOp5
 70
     1
102
RTVSPropertyOp6
 70
     1
102
RTVSPropertyOp7
 70
     1
102
RTVSPropertyOp8
 70
     1
102
RTVSPropertyOp9
 70
     1
102
RTVSPropertyOp10
 70
     1
102
RTVSPropertyOp11
 70
     1
102
RTVSPropertyOp12
 70
     1
102
RTVSPropertyOp13
 70
     1
102
RTVSPropertyOp14
 70
     1
102
RTVSPropertyOp15
 70
     1
102
RTVSPropertyOp16
 70
     1
102
RTVSPropertyOp17
 70
     1
102
RTVSPropertyOp18
 70
     1
102
RTVSPropertyOp19
 70
     1
102
RTVSPropertyOp20
 70
     1
102
RTVSPropertyOp21
 70
     1
102
RTVSPropertyOp22
 70
     1
102
RTVSPropertyOp23
 70
     1
102
RTVSPropertyOp24
 70
     1
102
RTVSPropertyOp25
 70
     1
102
RTVSPropertyOp26
 70
     1
102
RTVSPropertyOp27
 70
     1
102
RTVSPropertyOp28
 70
     1
102
RTVSPropertyOp29
 70
     1
102
RTVSPropertyOp30
 70
     1
102
RTVSPropertyOp31
 70
     1
102
RTVSPropertyOp32
 70
     1
102
RTVSPropertyOp33
 70
     1
102
RTVSPropertyOp34
 70
     1
102
RTVSPropertyOp35
 70
     1
102
RTVSPropertyOp36
 70
     1
102
RTVSPropertyOp37
 70
     1
102
RTVSPropertyOp38
 70
     1
102
RTVSPropertyOp39
 70
     1
102
RTVSPropertyOp40
 70
     1
102
RTVSPropertyOp41
 70
     1
102
RTVSPropertyOp42
 70
     1
102
RTVSPropertyOp43
 70
     1
102
RTVSPropertyOp44
 70
     1
102
RTVSPropertyOp45
 70
     1
102
RTVSPropertyOp46
 70
     1
102
RTVSPropertyOp47
 70
     1
102
RTVSPropertyOp48
 70
     1
102
RTVSPropertyOp49
 70
     1
102
RTVSPropertyOp50
 70
     1
102
RTVSPropertyOp51
 70
     0
102
RTVSPropertyOp52
 70
     0
102
RTVSPropertyOp53
 70
     1
102
RTVSPropertyOp54
 70
     1
102
RTVSPropertyOp55
 70
     1
102
RTVSPropertyOp56
 70
     1
102
RTVSPropertyOp57
 70
     1
102
RTVSPost2010Prop28
280
     0
102
RTVSPost2010PropOp28
 70
     1
102
RTVSPost2010Prop29
280
     1
102
RTVSPost2010PropOp29
 70
     1
102
RTVSPost2010Prop30
280
     1
102
RTVSPost2010PropOp30
 70
     1
102
RTVSPost2010Prop31
280
     0
102
RTVSPost2010PropOp31
 70
     1
102
RTVSPost2010Prop32
280
     0
102
RTVSPost2010PropOp32
 70
     1
102
RTVSPost2010Prop33
280
     0
102
RTVSPost2010PropOp33
 70
     1
102
RTVSPost2010Prop34
280
     0
102
RTVSPost2010PropOp34
 70
     1
102
RTVSPost2010Prop35
280
     0
102
RTVSPost2010PropOp35
 70
     1
102
RTVSPost2010Prop36
280
     0
102
RTVSPost2010PropOp36
 70
     1
102
RTVSPost2010Prop37
 90
       50
102
RTVSPost2010PropOp37
 70
     1
102
RTVSPost2010Prop38
140
0.0
102
RTVSPost2010PropOp38
 70
     1
102
RTVSPost2010Prop39
140
1.0
102
RTVSPost2010PropOp39
 70
     1
102
RTVSPost2010Prop40
 90
        0
102
RTVSPost2010PropOp40
 70
     1
102
RTVSPost2010Prop41ColorIndex
 90
       18
102
RTVSPost2010Prop41ColorRGB
 90
        0
102
RTVSPost2010PropOp41
 70
     1
102
RTVSPost2010Prop42
 90
       50
102
RTVSPost2010PropOp42
 70
     1
102
RTVSPost2010Prop43
 90
        3
102
RTVSPost2010PropOp43
 70
     1
102
RTVSPost2010Prop44ColorIndex
 90
        5
102
RTVSPost2010Prop44ColorRGB
 90
      255
102
RTVSPost2010PropOp44
 70
     1
102
RTVSPost2010Prop45
280
     0
102
RTVSPost2010PropOp45
 70
     1
102
RTVSPost2010Prop46
 90
       50
102
RTVSPost2010PropOp46
 70
     1
102
RTVSPost2010Prop47
 90
       50
102
RTVSPost2010PropOp47
 70
     1
102
RTVSPost2010Prop48
 90
       50
102
RTVSPost2010PropOp48
 70
     1
102
RTVSPost2010Prop49
280
     0
102
RTVSPost2010PropOp49
 70
     1
102
RTVSPost2010Prop50
 90
       50
102
RTVSPost2010PropOp50
 70
     1
102
RTVSPost2010Prop51ColorIndex
 90
      256
102
RTVSPost2010Prop51ColorRGB
 90
-16777216
102
RTVSPost2010PropOp51
 70
     0
102
RTVSPost2010Prop52
140
1.0
102
RTVSPost2010PropOp52
 70
     0
102
RTVSPost2010Prop53
 90
        2
102
RTVSPost2010PropOp53
 70
     1
102
RTVSPost2010Prop54
  1
strokes_ogs.tif
102
RTVSPost2010PropOp54
 70
     1
102
RTVSPost2010Prop55
280
     0
102
RTVSPost2010PropOp55
 70
     1
102
RTVSPost2010Prop56
140
1.0
102
RTVSPost2010PropOp56
 70
     1
102
RTVSPost2010Prop57
140
1.0
102
RTVSPost2010PropOp57
 70
     1
  0
XRECORD
  5
7B9
102
{ACAD_REACTORS
330
7B8
102
}
330
7B8
100
AcDbXrecord
280
     1
102
RTVSPropertyOp0
 70
     1
102
RTVSPropertyOp1
 70
     1
102
RTVSPropertyOp2
 70
     1
102
RTVSPropertyOp3
 70
     1
102
RTVSPropertyOp4
 70
     1
102
RTVSPropertyOp5
 70
     1
102
RTVSPropertyOp6
 70
     1
102
RTVSPropertyOp7
 70
     1
102
RTVSPropertyOp8
 70
     1
102
RTVSPropertyOp9
 70
     1
102
RTVSPropertyOp10
 70
     1
102
RTVSPropertyOp11
 70
     1
102
RTVSPropertyOp12
 70
     1
102
RTVSPropertyOp13
 70
     1
102
RTVSPropertyOp14
 70
     1
102
RTVSPropertyOp15
 70
     1
102
RTVSPropertyOp16
 70
     1
102
RTVSPropertyOp17
 70
     1
102
RTVSPropertyOp18
 70
     1
102
RTVSPropertyOp19
 70
     1
102
RTVSPropertyOp20
 70
     1
102
RTVSPropertyOp21
 70
     1
102
RTVSPropertyOp22
 70
     1
102
RTVSPropertyOp23
 70
     1
102
RTVSPropertyOp24
 70
     1
102
RTVSPropertyOp25
 70
     1
102
RTVSPropertyOp26
 70
     1
102
RTVSPropertyOp27
 70
     1
102
RTVSPropertyOp28
 70
     1
102
RTVSPropertyOp29
 70
     1
102
RTVSPropertyOp30
 70
     1
102
RTVSPropertyOp31
 70
     1
102
RTVSPropertyOp32
 70
     1
102
RTVSPropertyOp33
 70
     1
102
RTVSPropertyOp34
 70
     1
102
RTVSPropertyOp35
 70
     1
102
RTVSPropertyOp36
 70
     1
102
RTVSPropertyOp37
 70
     1
102
RTVSPropertyOp38
 70
     1
102
RTVSPropertyOp39
 70
     1
102
RTVSPropertyOp40
 70
     1
102
RTVSPropertyOp41
 70
     1
102
RTVSPropertyOp42
 70
     1
102
RTVSPropertyOp43
 70
     1
102
RTVSPropertyOp44
 70
     1
102
RTVSPropertyOp45
 70
     1
102
RTVSPropertyOp46
 70
     1
102
RTVSPropertyOp47
 70
     1
102
RTVSPropertyOp48
 70
     1
102
RTVSPropertyOp49
 70
     1
102
RTVSPropertyOp50
 70
     1
102
RTVSPropertyOp51
 70
     0
102
RTVSPropertyOp52
 70
     0
102
RTVSPropertyOp53
 70
     1
102
RTVSPropertyOp54
 70
     1
102
RTVSPropertyOp55
 70
     1
102
RTVSPropertyOp56
 70
     1
102
RTVSPropertyOp57
 70
     1
102
RTVSPost2010Prop28
280
     0
102
RTVSPost2010PropOp28
 70
     1
102
RTVSPost2010Prop29
280
     1
102
RTVSPost2010PropOp29
 70
     1
102
RTVSPost2010Prop30
280
     1
102
RTVSPost2010PropOp30
 70
     1
102
RTVSPost2010Prop31
280
     0
102
RTVSPost2010PropOp31
 70
     1
102
RTVSPost2010Prop32
280
     0
102
RTVSPost2010PropOp32
 70
     1
102
RTVSPost2010Prop33
280
     0
102
RTVSPost2010PropOp33
 70
     1
102
RTVSPost2010Prop34
280
     0
102
RTVSPost2010PropOp34
 70
     1
102
RTVSPost2010Prop35
280
     0
102
RTVSPost2010PropOp35
 70
     1
102
RTVSPost2010Prop36
280
     0
102
RTVSPost2010PropOp36
 70
     1
102
RTVSPost2010Prop37
 90
       50
102
RTVSPost2010PropOp37
 70
     1
102
RTVSPost2010Prop38
140
0.0
102
RTVSPost2010PropOp38
 70
     1
102
RTVSPost2010Prop39
140
1.0
102
RTVSPost2010PropOp39
 70
     1
102
RTVSPost2010Prop40
 90
        0
102
RTVSPost2010PropOp40
 70
     1
102
RTVSPost2010Prop41ColorIndex
 90
       18
102
RTVSPost2010Prop41ColorRGB
 90
        0
102
RTVSPost2010PropOp41
 70
     1
102
RTVSPost2010Prop42
 90
       50
102
RTVSPost2010PropOp42
 70
     1
102
RTVSPost2010Prop43
 90
        3
102
RTVSPost2010PropOp43
 70
     1
102
RTVSPost2010Prop44ColorIndex
 90
        5
102
RTVSPost2010Prop44ColorRGB
 90
      255
102
RTVSPost2010PropOp44
 70
     1
102
RTVSPost2010Prop45
280
     0
102
RTVSPost2010PropOp45
 70
     1
102
RTVSPost2010Prop46
 90
       50
102
RTVSPost2010PropOp46
 70
     1
102
RTVSPost2010Prop47
 90
       50
102
RTVSPost2010PropOp47
 70
     1
102
RTVSPost2010Prop48
 90
       50
102
RTVSPost2010PropOp48
 70
     1
102
RTVSPost2010Prop49
280
     0
102
RTVSPost2010PropOp49
 70
     1
102
RTVSPost2010Prop50
 90
       50
102
RTVSPost2010PropOp50
 70
     1
102
RTVSPost2010Prop51ColorIndex
 90
      256
102
RTVSPost2010Prop51ColorRGB
 90
-16777216
102
RTVSPost2010PropOp51
 70
     0
102
RTVSPost2010Prop52
140
1.0
102
RTVSPost2010PropOp52
 70
     0
102
RTVSPost2010Prop53
 90
        2
102
RTVSPost2010PropOp53
 70
     1
102
RTVSPost2010Prop54
  1
strokes_ogs.tif
102
RTVSPost2010PropOp54
 70
     1
102
RTVSPost2010Prop55
280
     0
102
RTVSPost2010PropOp55
 70
     1
102
RTVSPost2010Prop56
140
1.0
102
RTVSPost2010PropOp56
 70
     1
102
RTVSPost2010Prop57
140
1.0
102
RTVSPost2010PropOp57
 70
     1
  0
XRECORD
  5
7C9
102
{ACAD_REACTORS
330
7C8
102
}
330
7C8
100
AcDbXrecord
280
     1
102
RTVSPropertyOp0
 70
     0
102
RTVSPropertyOp1
 70
     0
102
RTVSPropertyOp2
 70
     0
102
RTVSPropertyOp3
 70
     0
102
RTVSPropertyOp4
 70
     0
102
RTVSPropertyOp5
 70
     0
102
RTVSPropertyOp6
 70
     0
102
RTVSPropertyOp7
 70
     0
102
RTVSPropertyOp8
 70
     0
102
RTVSPropertyOp9
 70
     0
102
RTVSPropertyOp10
 70
     0
102
RTVSPropertyOp11
 70
     0
102
RTVSPropertyOp12
 70
     0
102
RTVSPropertyOp13
 70
     0
102
RTVSPropertyOp14
 70
     0
102
RTVSPropertyOp15
 70
     0
102
RTVSPropertyOp16
 70
     0
102
RTVSPropertyOp17
 70
     0
102
RTVSPropertyOp18
 70
     0
102
RTVSPropertyOp19
 70
     0
102
RTVSPropertyOp20
 70
     0
102
RTVSPropertyOp21
 70
     0
102
RTVSPropertyOp22
 70
     0
102
RTVSPropertyOp23
 70
     0
102
RTVSPropertyOp24
 70
     0
102
RTVSPropertyOp25
 70
     0
102
RTVSPropertyOp26
 70
     0
102
RTVSPropertyOp27
 70
     0
102
RTVSPropertyOp28
 70
     1
102
RTVSPropertyOp29
 70
     1
102
RTVSPropertyOp30
 70
     1
102
RTVSPropertyOp31
 70
     1
102
RTVSPropertyOp32
 70
     1
102
RTVSPropertyOp33
 70
     1
102
RTVSPropertyOp34
 70
     1
102
RTVSPropertyOp35
 70
     1
102
RTVSPropertyOp36
 70
     1
102
RTVSPropertyOp37
 70
     1
102
RTVSPropertyOp38
 70
     1
102
RTVSPropertyOp39
 70
     1
102
RTVSPropertyOp40
 70
     1
102
RTVSPropertyOp41
 70
     1
102
RTVSPropertyOp42
 70
     1
102
RTVSPropertyOp43
 70
     1
102
RTVSPropertyOp44
 70
     1
102
RTVSPropertyOp45
 70
     1
102
RTVSPropertyOp46
 70
     1
102
RTVSPropertyOp47
 70
     1
102
RTVSPropertyOp48
 70
     1
102
RTVSPropertyOp49
 70
     1
102
RTVSPropertyOp50
 70
     1
102
RTVSPropertyOp51
 70
     0
102
RTVSPropertyOp52
 70
     0
102
RTVSPropertyOp53
 70
     1
102
RTVSPropertyOp54
 70
     1
102
RTVSPropertyOp55
 70
     1
102
RTVSPropertyOp56
 70
     1
102
RTVSPropertyOp57
 70
     1
102
RTVSPost2010Prop28
280
     0
102
RTVSPost2010PropOp28
 70
     1
102
RTVSPost2010Prop29
280
     1
102
RTVSPost2010PropOp29
 70
     1
102
RTVSPost2010Prop30
280
     1
102
RTVSPost2010PropOp30
 70
     1
102
RTVSPost2010Prop31
280
     0
102
RTVSPost2010PropOp31
 70
     1
102
RTVSPost2010Prop32
280
     0
102
RTVSPost2010PropOp32
 70
     1
102
RTVSPost2010Prop33
280
     0
102
RTVSPost2010PropOp33
 70
     1
102
RTVSPost2010Prop34
280
     0
102
RTVSPost2010PropOp34
 70
     1
102
RTVSPost2010Prop35
280
     0
102
RTVSPost2010PropOp35
 70
     1
102
RTVSPost2010Prop36
280
     0
102
RTVSPost2010PropOp36
 70
     1
102
RTVSPost2010Prop37
 90
       50
102
RTVSPost2010PropOp37
 70
     1
102
RTVSPost2010Prop38
140
0.0
102
RTVSPost2010PropOp38
 70
     1
102
RTVSPost2010Prop39
140
1.0
102
RTVSPost2010PropOp39
 70
     1
102
RTVSPost2010Prop40
 90
        0
102
RTVSPost2010PropOp40
 70
     1
102
RTVSPost2010Prop41ColorIndex
 90
       18
102
RTVSPost2010Prop41ColorRGB
 90
        0
102
RTVSPost2010PropOp41
 70
     1
102
RTVSPost2010Prop42
 90
       50
102
RTVSPost2010PropOp42
 70
     1
102
RTVSPost2010Prop43
 90
        3
102
RTVSPost2010PropOp43
 70
     1
102
RTVSPost2010Prop44ColorIndex
 90
        5
102
RTVSPost2010Prop44ColorRGB
 90
      255
102
RTVSPost2010PropOp44
 70
     1
102
RTVSPost2010Prop45
280
     0
102
RTVSPost2010PropOp45
 70
     1
102
RTVSPost2010Prop46
 90
       50
102
RTVSPost2010PropOp46
 70
     1
102
RTVSPost2010Prop47
 90
       50
102
RTVSPost2010PropOp47
 70
     1
102
RTVSPost2010Prop48
 90
       50
102
RTVSPost2010PropOp48
 70
     1
102
RTVSPost2010Prop49
280
     0
102
RTVSPost2010PropOp49
 70
     1
102
RTVSPost2010Prop50
 90
       50
102
RTVSPost2010PropOp50
 70
     1
102
RTVSPost2010Prop51ColorIndex
 90
      256
102
RTVSPost2010Prop51ColorRGB
 90
-16777216
102
RTVSPost2010PropOp51
 70
     0
102
RTVSPost2010Prop52
140
1.0
102
RTVSPost2010PropOp52
 70
     0
102
RTVSPost2010Prop53
 90
        2
102
RTVSPost2010PropOp53
 70
     1
102
RTVSPost2010Prop54
  1
strokes_ogs.tif
102
RTVSPost2010PropOp54
 70
     1
102
RTVSPost2010Prop55
280
     0
102
RTVSPost2010PropOp55
 70
     1
102
RTVSPost2010Prop56
140
1.0
102
RTVSPost2010PropOp56
 70
     1
102
RTVSPost2010Prop57
140
1.0
102
RTVSPost2010PropOp57
 70
     1
  0
XRECORD
  5
7C1
102
{ACAD_REACTORS
330
7C0
102
}
330
7C0
100
AcDbXrecord
280
     1
102
RTVSPropertyOp0
 70
     1
102
RTVSPropertyOp1
 70
     1
102
RTVSPropertyOp2
 70
     1
102
RTVSPropertyOp3
 70
     1
102
RTVSPropertyOp4
 70
     1
102
RTVSPropertyOp5
 70
     1
102
RTVSPropertyOp6
 70
     1
102
RTVSPropertyOp7
 70
     1
102
RTVSPropertyOp8
 70
     1
102
RTVSPropertyOp9
 70
     1
102
RTVSPropertyOp10
 70
     1
102
RTVSPropertyOp11
 70
     1
102
RTVSPropertyOp12
 70
     1
102
RTVSPropertyOp13
 70
     1
102
RTVSPropertyOp14
 70
     1
102
RTVSPropertyOp15
 70
     1
102
RTVSPropertyOp16
 70
     1
102
RTVSPropertyOp17
 70
     1
102
RTVSPropertyOp18
 70
     1
102
RTVSPropertyOp19
 70
     1
102
RTVSPropertyOp20
 70
     1
102
RTVSPropertyOp21
 70
     1
102
RTVSPropertyOp22
 70
     1
102
RTVSPropertyOp23
 70
     1
102
RTVSPropertyOp24
 70
     1
102
RTVSPropertyOp25
 70
     1
102
RTVSPropertyOp26
 70
     1
102
RTVSPropertyOp27
 70
     1
102
RTVSPropertyOp28
 70
     1
102
RTVSPropertyOp29
 70
     1
102
RTVSPropertyOp30
 70
     1
102
RTVSPropertyOp31
 70
     1
102
RTVSPropertyOp32
 70
     1
102
RTVSPropertyOp33
 70
     1
102
RTVSPropertyOp34
 70
     1
102
RTVSPropertyOp35
 70
     1
102
RTVSPropertyOp36
 70
     1
102
RTVSPropertyOp37
 70
     1
102
RTVSPropertyOp38
 70
     1
102
RTVSPropertyOp39
 70
     1
102
RTVSPropertyOp40
 70
     1
102
RTVSPropertyOp41
 70
     1
102
RTVSPropertyOp42
 70
     1
102
RTVSPropertyOp43
 70
     1
102
RTVSPropertyOp44
 70
     1
102
RTVSPropertyOp45
 70
     1
102
RTVSPropertyOp46
 70
     1
102
RTVSPropertyOp47
 70
     1
102
RTVSPropertyOp48
 70
     1
102
RTVSPropertyOp49
 70
     1
102
RTVSPropertyOp50
 70
     1
102
RTVSPropertyOp51
 70
     0
102
RTVSPropertyOp52
 70
     0
102
RTVSPropertyOp53
 70
     1
102
RTVSPropertyOp54
 70
     1
102
RTVSPropertyOp55
 70
     1
102
RTVSPropertyOp56
 70
     1
102
RTVSPropertyOp57
 70
     1
102
RTVSPost2010Prop28
280
     0
102
RTVSPost2010PropOp28
 70
     1
102
RTVSPost2010Prop29
280
     1
102
RTVSPost2010PropOp29
 70
     1
102
RTVSPost2010Prop30
280
     1
102
RTVSPost2010PropOp30
 70
     1
102
RTVSPost2010Prop31
280
     0
102
RTVSPost2010PropOp31
 70
     1
102
RTVSPost2010Prop32
280
     0
102
RTVSPost2010PropOp32
 70
     1
102
RTVSPost2010Prop33
280
     0
102
RTVSPost2010PropOp33
 70
     1
102
RTVSPost2010Prop34
280
     0
102
RTVSPost2010PropOp34
 70
     1
102
RTVSPost2010Prop35
280
     0
102
RTVSPost2010PropOp35
 70
     1
102
RTVSPost2010Prop36
280
     0
102
RTVSPost2010PropOp36
 70
     1
102
RTVSPost2010Prop37
 90
       50
102
RTVSPost2010PropOp37
 70
     1
102
RTVSPost2010Prop38
140
0.0
102
RTVSPost2010PropOp38
 70
     1
102
RTVSPost2010Prop39
140
1.0
102
RTVSPost2010PropOp39
 70
     1
102
RTVSPost2010Prop40
 90
        0
102
RTVSPost2010PropOp40
 70
     1
102
RTVSPost2010Prop41ColorIndex
 90
       18
102
RTVSPost2010Prop41ColorRGB
 90
        0
102
RTVSPost2010PropOp41
 70
     1
102
RTVSPost2010Prop42
 90
       50
102
RTVSPost2010PropOp42
 70
     1
102
RTVSPost2010Prop43
 90
        3
102
RTVSPost2010PropOp43
 70
     1
102
RTVSPost2010Prop44ColorIndex
 90
        5
102
RTVSPost2010Prop44ColorRGB
 90
      255
102
RTVSPost2010PropOp44
 70
     1
102
RTVSPost2010Prop45
280
     0
102
RTVSPost2010PropOp45
 70
     1
102
RTVSPost2010Prop46
 90
       50
102
RTVSPost2010PropOp46
 70
     1
102
RTVSPost2010Prop47
 90
       50
102
RTVSPost2010PropOp47
 70
     1
102
RTVSPost2010Prop48
 90
       50
102
RTVSPost2010PropOp48
 70
     1
102
RTVSPost2010Prop49
280
     0
102
RTVSPost2010PropOp49
 70
     1
102
RTVSPost2010Prop50
 90
       50
102
RTVSPost2010PropOp50
 70
     1
102
RTVSPost2010Prop51ColorIndex
 90
      256
102
RTVSPost2010Prop51ColorRGB
 90
-16777216
102
RTVSPost2010PropOp51
 70
     0
102
RTVSPost2010Prop52
140
1.0
102
RTVSPost2010PropOp52
 70
     0
102
RTVSPost2010Prop53
 90
        2
102
RTVSPost2010PropOp53
 70
     1
102
RTVSPost2010Prop54
  1
strokes_ogs.tif
102
RTVSPost2010PropOp54
 70
     1
102
RTVSPost2010Prop55
280
     0
102
RTVSPost2010PropOp55
 70
     1
102
RTVSPost2010Prop56
140
1.0
102
RTVSPost2010PropOp56
 70
     1
102
RTVSPost2010Prop57
140
1.0
102
RTVSPost2010PropOp57
 70
     1
  0
XRECORD
  5
7A5
102
{ACAD_REACTORS
330
7A4
102
}
330
7A4
100
AcDbXrecord
280
     1
102
RTVSPropertyOp0
 70
     1
102
RTVSPropertyOp1
 70
     1
102
RTVSPropertyOp2
 70
     1
102
RTVSPropertyOp3
 70
     1
102
RTVSPropertyOp4
 70
     1
102
RTVSPropertyOp5
 70
     1
102
RTVSPropertyOp6
 70
     1
102
RTVSPropertyOp7
 70
     1
102
RTVSPropertyOp8
 70
     1
102
RTVSPropertyOp9
 70
     1
102
RTVSPropertyOp10
 70
     1
102
RTVSPropertyOp11
 70
     1
102
RTVSPropertyOp12
 70
     1
102
RTVSPropertyOp13
 70
     1
102
RTVSPropertyOp14
 70
     1
102
RTVSPropertyOp15
 70
     1
102
RTVSPropertyOp16
 70
     1
102
RTVSPropertyOp17
 70
     1
102
RTVSPropertyOp18
 70
     1
102
RTVSPropertyOp19
 70
     1
102
RTVSPropertyOp20
 70
     1
102
RTVSPropertyOp21
 70
     1
102
RTVSPropertyOp22
 70
     1
102
RTVSPropertyOp23
 70
     1
102
RTVSPropertyOp24
 70
     1
102
RTVSPropertyOp25
 70
     1
102
RTVSPropertyOp26
 70
     1
102
RTVSPropertyOp27
 70
     1
102
RTVSPropertyOp28
 70
     1
102
RTVSPropertyOp29
 70
     1
102
RTVSPropertyOp30
 70
     1
102
RTVSPropertyOp31
 70
     1
102
RTVSPropertyOp32
 70
     1
102
RTVSPropertyOp33
 70
     1
102
RTVSPropertyOp34
 70
     1
102
RTVSPropertyOp35
 70
     1
102
RTVSPropertyOp36
 70
     1
102
RTVSPropertyOp37
 70
     1
102
RTVSPropertyOp38
 70
     1
102
RTVSPropertyOp39
 70
     1
102
RTVSPropertyOp40
 70
     1
102
RTVSPropertyOp41
 70
     1
102
RTVSPropertyOp42
 70
     1
102
RTVSPropertyOp43
 70
     1
102
RTVSPropertyOp44
 70
     1
102
RTVSPropertyOp45
 70
     1
102
RTVSPropertyOp46
 70
     1
102
RTVSPropertyOp47
 70
     1
102
RTVSPropertyOp48
 70
     1
102
RTVSPropertyOp49
 70
     1
102
RTVSPropertyOp50
 70
     1
102
RTVSPropertyOp51
 70
     0
102
RTVSPropertyOp52
 70
     0
102
RTVSPropertyOp53
 70
     1
102
RTVSPropertyOp54
 70
     1
102
RTVSPropertyOp55
 70
     1
102
RTVSPropertyOp56
 70
     1
102
RTVSPropertyOp57
 70
     1
102
RTVSPost2010Prop28
280
     0
102
RTVSPost2010PropOp28
 70
     1
102
RTVSPost2010Prop29
280
     1
102
RTVSPost2010PropOp29
 70
     1
102
RTVSPost2010Prop30
280
     1
102
RTVSPost2010PropOp30
 70
     1
102
RTVSPost2010Prop31
280
     0
102
RTVSPost2010PropOp31
 70
     1
102
RTVSPost2010Prop32
280
     0
102
RTVSPost2010PropOp32
 70
     1
102
RTVSPost2010Prop33
280
     0
102
RTVSPost2010PropOp33
 70
     1
102
RTVSPost2010Prop34
280
     0
102
RTVSPost2010PropOp34
 70
     1
102
RTVSPost2010Prop35
280
     0
102
RTVSPost2010PropOp35
 70
     1
102
RTVSPost2010Prop36
280
     0
102
RTVSPost2010PropOp36
 70
     1
102
RTVSPost2010Prop37
 90
       50
102
RTVSPost2010PropOp37
 70
     1
102
RTVSPost2010Prop38
140
0.0
102
RTVSPost2010PropOp38
 70
     1
102
RTVSPost2010Prop39
140
1.0
102
RTVSPost2010PropOp39
 70
     1
102
RTVSPost2010Prop40
 90
        0
102
RTVSPost2010PropOp40
 70
     1
102
RTVSPost2010Prop41ColorIndex
 90
       18
102
RTVSPost2010Prop41ColorRGB
 90
        0
102
RTVSPost2010PropOp41
 70
     1
102
RTVSPost2010Prop42
 90
       50
102
RTVSPost2010PropOp42
 70
     1
102
RTVSPost2010Prop43
 90
        3
102
RTVSPost2010PropOp43
 70
     1
102
RTVSPost2010Prop44ColorIndex
 90
        5
102
RTVSPost2010Prop44ColorRGB
 90
      255
102
RTVSPost2010PropOp44
 70
     1
102
RTVSPost2010Prop45
280
     0
102
RTVSPost2010PropOp45
 70
     1
102
RTVSPost2010Prop46
 90
       50
102
RTVSPost2010PropOp46
 70
     1
102
RTVSPost2010Prop47
 90
       50
102
RTVSPost2010PropOp47
 70
     1
102
RTVSPost2010Prop48
 90
       50
102
RTVSPost2010PropOp48
 70
     1
102
RTVSPost2010Prop49
280
     0
102
RTVSPost2010PropOp49
 70
     1
102
RTVSPost2010Prop50
 90
       50
102
RTVSPost2010PropOp50
 70
     1
102
RTVSPost2010Prop51ColorIndex
 90
      256
102
RTVSPost2010Prop51ColorRGB
 90
-16777216
102
RTVSPost2010PropOp51
 70
     0
102
RTVSPost2010Prop52
140
1.0
102
RTVSPost2010PropOp52
 70
     0
102
RTVSPost2010Prop53
 90
        2
102
RTVSPost2010PropOp53
 70
     1
102
RTVSPost2010Prop54
  1
strokes_ogs.tif
102
RTVSPost2010PropOp54
 70
     1
102
RTVSPost2010Prop55
280
     0
102
RTVSPost2010PropOp55
 70
     1
102
RTVSPost2010Prop56
140
1.0
102
RTVSPost2010PropOp56
 70
     1
102
RTVSPost2010Prop57
140
1.0
102
RTVSPost2010PropOp57
 70
     1
  0
XRECORD
  5
7A7
102
{ACAD_REACTORS
330
7A6
102
}
330
7A6
100
AcDbXrecord
280
     1
102
RTVSPropertyOp0
 70
     1
102
RTVSPropertyOp1
 70
     1
102
RTVSPropertyOp2
 70
     1
102
RTVSPropertyOp3
 70
     1
102
RTVSPropertyOp4
 70
     1
102
RTVSPropertyOp5
 70
     1
102
RTVSPropertyOp6
 70
     1
102
RTVSPropertyOp7
 70
     1
102
RTVSPropertyOp8
 70
     1
102
RTVSPropertyOp9
 70
     1
102
RTVSPropertyOp10
 70
     1
102
RTVSPropertyOp11
 70
     1
102
RTVSPropertyOp12
 70
     1
102
RTVSPropertyOp13
 70
     1
102
RTVSPropertyOp14
 70
     1
102
RTVSPropertyOp15
 70
     1
102
RTVSPropertyOp16
 70
     1
102
RTVSPropertyOp17
 70
     1
102
RTVSPropertyOp18
 70
     1
102
RTVSPropertyOp19
 70
     1
102
RTVSPropertyOp20
 70
     1
102
RTVSPropertyOp21
 70
     1
102
RTVSPropertyOp22
 70
     1
102
RTVSPropertyOp23
 70
     1
102
RTVSPropertyOp24
 70
     1
102
RTVSPropertyOp25
 70
     1
102
RTVSPropertyOp26
 70
     1
102
RTVSPropertyOp27
 70
     1
102
RTVSPropertyOp28
 70
     1
102
RTVSPropertyOp29
 70
     1
102
RTVSPropertyOp30
 70
     1
102
RTVSPropertyOp31
 70
     1
102
RTVSPropertyOp32
 70
     1
102
RTVSPropertyOp33
 70
     1
102
RTVSPropertyOp34
 70
     1
102
RTVSPropertyOp35
 70
     1
102
RTVSPropertyOp36
 70
     1
102
RTVSPropertyOp37
 70
     1
102
RTVSPropertyOp38
 70
     1
102
RTVSPropertyOp39
 70
     1
102
RTVSPropertyOp40
 70
     1
102
RTVSPropertyOp41
 70
     1
102
RTVSPropertyOp42
 70
     1
102
RTVSPropertyOp43
 70
     1
102
RTVSPropertyOp44
 70
     1
102
RTVSPropertyOp45
 70
     1
102
RTVSPropertyOp46
 70
     1
102
RTVSPropertyOp47
 70
     1
102
RTVSPropertyOp48
 70
     1
102
RTVSPropertyOp49
 70
     1
102
RTVSPropertyOp50
 70
     1
102
RTVSPropertyOp51
 70
     0
102
RTVSPropertyOp52
 70
     0
102
RTVSPropertyOp53
 70
     1
102
RTVSPropertyOp54
 70
     1
102
RTVSPropertyOp55
 70
     1
102
RTVSPropertyOp56
 70
     1
102
RTVSPropertyOp57
 70
     1
102
RTVSPost2010Prop28
280
     0
102
RTVSPost2010PropOp28
 70
     1
102
RTVSPost2010Prop29
280
     1
102
RTVSPost2010PropOp29
 70
     1
102
RTVSPost2010Prop30
280
     1
102
RTVSPost2010PropOp30
 70
     1
102
RTVSPost2010Prop31
280
     0
102
RTVSPost2010PropOp31
 70
     1
102
RTVSPost2010Prop32
280
     0
102
RTVSPost2010PropOp32
 70
     1
102
RTVSPost2010Prop33
280
     0
102
RTVSPost2010PropOp33
 70
     1
102
RTVSPost2010Prop34
280
     0
102
RTVSPost2010PropOp34
 70
     1
102
RTVSPost2010Prop35
280
     0
102
RTVSPost2010PropOp35
 70
     1
102
RTVSPost2010Prop36
280
     0
102
RTVSPost2010PropOp36
 70
     1
102
RTVSPost2010Prop37
 90
       50
102
RTVSPost2010PropOp37
 70
     1
102
RTVSPost2010Prop38
140
0.0
102
RTVSPost2010PropOp38
 70
     1
102
RTVSPost2010Prop39
140
1.0
102
RTVSPost2010PropOp39
 70
     1
102
RTVSPost2010Prop40
 90
        0
102
RTVSPost2010PropOp40
 70
     1
102
RTVSPost2010Prop41ColorIndex
 90
       18
102
RTVSPost2010Prop41ColorRGB
 90
        0
102
RTVSPost2010PropOp41
 70
     1
102
RTVSPost2010Prop42
 90
       50
102
RTVSPost2010PropOp42
 70
     1
102
RTVSPost2010Prop43
 90
        3
102
RTVSPost2010PropOp43
 70
     1
102
RTVSPost2010Prop44ColorIndex
 90
        5
102
RTVSPost2010Prop44ColorRGB
 90
      255
102
RTVSPost2010PropOp44
 70
     1
102
RTVSPost2010Prop45
280
     0
102
RTVSPost2010PropOp45
 70
     1
102
RTVSPost2010Prop46
 90
       50
102
RTVSPost2010PropOp46
 70
     1
102
RTVSPost2010Prop47
 90
       50
102
RTVSPost2010PropOp47
 70
     1
102
RTVSPost2010Prop48
 90
       50
102
RTVSPost2010PropOp48
 70
     1
102
RTVSPost2010Prop49
280
     0
102
RTVSPost2010PropOp49
 70
     1
102
RTVSPost2010Prop50
 90
       50
102
RTVSPost2010PropOp50
 70
     1
102
RTVSPost2010Prop51ColorIndex
 90
      256
102
RTVSPost2010Prop51ColorRGB
 90
-16777216
102
RTVSPost2010PropOp51
 70
     0
102
RTVSPost2010Prop52
140
1.0
102
RTVSPost2010PropOp52
 70
     0
102
RTVSPost2010Prop53
 90
        2
102
RTVSPost2010PropOp53
 70
     1
102
RTVSPost2010Prop54
  1
strokes_ogs.tif
102
RTVSPost2010PropOp54
 70
     1
102
RTVSPost2010Prop55
280
     0
102
RTVSPost2010PropOp55
 70
     1
102
RTVSPost2010Prop56
140
1.0
102
RTVSPost2010PropOp56
 70
     1
102
RTVSPost2010Prop57
140
1.0
102
RTVSPost2010PropOp57
 70
     1
  0
XRECORD
  5
7A9
102
{ACAD_REACTORS
330
7A8
102
}
330
7A8
100
AcDbXrecord
280
     1
102
RTVSPropertyOp0
 70
     1
102
RTVSPropertyOp1
 70
     1
102
RTVSPropertyOp2
 70
     1
102
RTVSPropertyOp3
 70
     1
102
RTVSPropertyOp4
 70
     1
102
RTVSPropertyOp5
 70
     1
102
RTVSPropertyOp6
 70
     1
102
RTVSPropertyOp7
 70
     1
102
RTVSPropertyOp8
 70
     1
102
RTVSPropertyOp9
 70
     1
102
RTVSPropertyOp10
 70
     1
102
RTVSPropertyOp11
 70
     1
102
RTVSPropertyOp12
 70
     1
102
RTVSPropertyOp13
 70
     1
102
RTVSPropertyOp14
 70
     1
102
RTVSPropertyOp15
 70
     1
102
RTVSPropertyOp16
 70
     1
102
RTVSPropertyOp17
 70
     1
102
RTVSPropertyOp18
 70
     1
102
RTVSPropertyOp19
 70
     1
102
RTVSPropertyOp20
 70
     1
102
RTVSPropertyOp21
 70
     1
102
RTVSPropertyOp22
 70
     1
102
RTVSPropertyOp23
 70
     1
102
RTVSPropertyOp24
 70
     1
102
RTVSPropertyOp25
 70
     1
102
RTVSPropertyOp26
 70
     1
102
RTVSPropertyOp27
 70
     1
102
RTVSPropertyOp28
 70
     1
102
RTVSPropertyOp29
 70
     1
102
RTVSPropertyOp30
 70
     1
102
RTVSPropertyOp31
 70
     1
102
RTVSPropertyOp32
 70
     1
102
RTVSPropertyOp33
 70
     1
102
RTVSPropertyOp34
 70
     1
102
RTVSPropertyOp35
 70
     1
102
RTVSPropertyOp36
 70
     1
102
RTVSPropertyOp37
 70
     1
102
RTVSPropertyOp38
 70
     1
102
RTVSPropertyOp39
 70
     1
102
RTVSPropertyOp40
 70
     1
102
RTVSPropertyOp41
 70
     1
102
RTVSPropertyOp42
 70
     1
102
RTVSPropertyOp43
 70
     1
102
RTVSPropertyOp44
 70
     1
102
RTVSPropertyOp45
 70
     1
102
RTVSPropertyOp46
 70
     1
102
RTVSPropertyOp47
 70
     1
102
RTVSPropertyOp48
 70
     1
102
RTVSPropertyOp49
 70
     1
102
RTVSPropertyOp50
 70
     1
102
RTVSPropertyOp51
 70
     0
102
RTVSPropertyOp52
 70
     0
102
RTVSPropertyOp53
 70
     1
102
RTVSPropertyOp54
 70
     1
102
RTVSPropertyOp55
 70
     1
102
RTVSPropertyOp56
 70
     1
102
RTVSPropertyOp57
 70
     1
102
RTVSPost2010Prop28
280
     0
102
RTVSPost2010PropOp28
 70
     1
102
RTVSPost2010Prop29
280
     1
102
RTVSPost2010PropOp29
 70
     1
102
RTVSPost2010Prop30
280
     1
102
RTVSPost2010PropOp30
 70
     1
102
RTVSPost2010Prop31
280
     0
102
RTVSPost2010PropOp31
 70
     1
102
RTVSPost2010Prop32
280
     0
102
RTVSPost2010PropOp32
 70
     1
102
RTVSPost2010Prop33
280
     0
102
RTVSPost2010PropOp33
 70
     1
102
RTVSPost2010Prop34
280
     0
102
RTVSPost2010PropOp34
 70
     1
102
RTVSPost2010Prop35
280
     0
102
RTVSPost2010PropOp35
 70
     1
102
RTVSPost2010Prop36
280
     0
102
RTVSPost2010PropOp36
 70
     1
102
RTVSPost2010Prop37
 90
       50
102
RTVSPost2010PropOp37
 70
     1
102
RTVSPost2010Prop38
140
0.0
102
RTVSPost2010PropOp38
 70
     1
102
RTVSPost2010Prop39
140
1.0
102
RTVSPost2010PropOp39
 70
     1
102
RTVSPost2010Prop40
 90
        0
102
RTVSPost2010PropOp40
 70
     1
102
RTVSPost2010Prop41ColorIndex
 90
       18
102
RTVSPost2010Prop41ColorRGB
 90
        0
102
RTVSPost2010PropOp41
 70
     1
102
RTVSPost2010Prop42
 90
       50
102
RTVSPost2010PropOp42
 70
     1
102
RTVSPost2010Prop43
 90
        3
102
RTVSPost2010PropOp43
 70
     1
102
RTVSPost2010Prop44ColorIndex
 90
        5
102
RTVSPost2010Prop44ColorRGB
 90
      255
102
RTVSPost2010PropOp44
 70
     1
102
RTVSPost2010Prop45
280
     0
102
RTVSPost2010PropOp45
 70
     1
102
RTVSPost2010Prop46
 90
       50
102
RTVSPost2010PropOp46
 70
     1
102
RTVSPost2010Prop47
 90
       50
102
RTVSPost2010PropOp47
 70
     1
102
RTVSPost2010Prop48
 90
       50
102
RTVSPost2010PropOp48
 70
     1
102
RTVSPost2010Prop49
280
     0
102
RTVSPost2010PropOp49
 70
     1
102
RTVSPost2010Prop50
 90
       50
102
RTVSPost2010PropOp50
 70
     1
102
RTVSPost2010Prop51ColorIndex
 90
      256
102
RTVSPost2010Prop51ColorRGB
 90
-16777216
102
RTVSPost2010PropOp51
 70
     0
102
RTVSPost2010Prop52
140
1.0
102
RTVSPost2010PropOp52
 70
     0
102
RTVSPost2010Prop53
 90
        2
102
RTVSPost2010PropOp53
 70
     1
102
RTVSPost2010Prop54
  1
strokes_ogs.tif
102
RTVSPost2010PropOp54
 70
     1
102
RTVSPost2010Prop55
280
     0
102
RTVSPost2010PropOp55
 70
     1
102
RTVSPost2010Prop56
140
1.0
102
RTVSPost2010PropOp56
 70
     1
102
RTVSPost2010Prop57
140
1.0
102
RTVSPost2010PropOp57
 70
     1
  0
XRECORD
  5
7AB
102
{ACAD_REACTORS
330
7AA
102
}
330
7AA
100
AcDbXrecord
280
     1
102
RTVSPropertyOp0
 70
     1
102
RTVSPropertyOp1
 70
     1
102
RTVSPropertyOp2
 70
     1
102
RTVSPropertyOp3
 70
     1
102
RTVSPropertyOp4
 70
     1
102
RTVSPropertyOp5
 70
     1
102
RTVSPropertyOp6
 70
     1
102
RTVSPropertyOp7
 70
     1
102
RTVSPropertyOp8
 70
     1
102
RTVSPropertyOp9
 70
     1
102
RTVSPropertyOp10
 70
     1
102
RTVSPropertyOp11
 70
     1
102
RTVSPropertyOp12
 70
     1
102
RTVSPropertyOp13
 70
     1
102
RTVSPropertyOp14
 70
     1
102
RTVSPropertyOp15
 70
     1
102
RTVSPropertyOp16
 70
     1
102
RTVSPropertyOp17
 70
     1
102
RTVSPropertyOp18
 70
     1
102
RTVSPropertyOp19
 70
     1
102
RTVSPropertyOp20
 70
     1
102
RTVSPropertyOp21
 70
     1
102
RTVSPropertyOp22
 70
     1
102
RTVSPropertyOp23
 70
     1
102
RTVSPropertyOp24
 70
     1
102
RTVSPropertyOp25
 70
     1
102
RTVSPropertyOp26
 70
     1
102
RTVSPropertyOp27
 70
     1
102
RTVSPropertyOp28
 70
     1
102
RTVSPropertyOp29
 70
     1
102
RTVSPropertyOp30
 70
     1
102
RTVSPropertyOp31
 70
     1
102
RTVSPropertyOp32
 70
     1
102
RTVSPropertyOp33
 70
     1
102
RTVSPropertyOp34
 70
     1
102
RTVSPropertyOp35
 70
     1
102
RTVSPropertyOp36
 70
     1
102
RTVSPropertyOp37
 70
     1
102
RTVSPropertyOp38
 70
     1
102
RTVSPropertyOp39
 70
     1
102
RTVSPropertyOp40
 70
     1
102
RTVSPropertyOp41
 70
     1
102
RTVSPropertyOp42
 70
     1
102
RTVSPropertyOp43
 70
     1
102
RTVSPropertyOp44
 70
     1
102
RTVSPropertyOp45
 70
     1
102
RTVSPropertyOp46
 70
     1
102
RTVSPropertyOp47
 70
     1
102
RTVSPropertyOp48
 70
     1
102
RTVSPropertyOp49
 70
     1
102
RTVSPropertyOp50
 70
     1
102
RTVSPropertyOp51
 70
     0
102
RTVSPropertyOp52
 70
     0
102
RTVSPropertyOp53
 70
     1
102
RTVSPropertyOp54
 70
     1
102
RTVSPropertyOp55
 70
     1
102
RTVSPropertyOp56
 70
     1
102
RTVSPropertyOp57
 70
     1
102
RTVSPost2010Prop28
280
     0
102
RTVSPost2010PropOp28
 70
     1
102
RTVSPost2010Prop29
280
     1
102
RTVSPost2010PropOp29
 70
     1
102
RTVSPost2010Prop30
280
     1
102
RTVSPost2010PropOp30
 70
     1
102
RTVSPost2010Prop31
280
     0
102
RTVSPost2010PropOp31
 70
     1
102
RTVSPost2010Prop32
280
     0
102
RTVSPost2010PropOp32
 70
     1
102
RTVSPost2010Prop33
280
     0
102
RTVSPost2010PropOp33
 70
     1
102
RTVSPost2010Prop34
280
     0
102
RTVSPost2010PropOp34
 70
     1
102
RTVSPost2010Prop35
280
     0
102
RTVSPost2010PropOp35
 70
     1
102
RTVSPost2010Prop36
280
     0
102
RTVSPost2010PropOp36
 70
     1
102
RTVSPost2010Prop37
 90
       50
102
RTVSPost2010PropOp37
 70
     1
102
RTVSPost2010Prop38
140
0.0
102
RTVSPost2010PropOp38
 70
     1
102
RTVSPost2010Prop39
140
1.0
102
RTVSPost2010PropOp39
 70
     1
102
RTVSPost2010Prop40
 90
        0
102
RTVSPost2010PropOp40
 70
     1
102
RTVSPost2010Prop41ColorIndex
 90
       18
102
RTVSPost2010Prop41ColorRGB
 90
        0
102
RTVSPost2010PropOp41
 70
     1
102
RTVSPost2010Prop42
 90
       50
102
RTVSPost2010PropOp42
 70
     1
102
RTVSPost2010Prop43
 90
        3
102
RTVSPost2010PropOp43
 70
     1
102
RTVSPost2010Prop44ColorIndex
 90
        5
102
RTVSPost2010Prop44ColorRGB
 90
      255
102
RTVSPost2010PropOp44
 70
     1
102
RTVSPost2010Prop45
280
     0
102
RTVSPost2010PropOp45
 70
     1
102
RTVSPost2010Prop46
 90
       50
102
RTVSPost2010PropOp46
 70
     1
102
RTVSPost2010Prop47
 90
       50
102
RTVSPost2010PropOp47
 70
     1
102
RTVSPost2010Prop48
 90
       50
102
RTVSPost2010PropOp48
 70
     1
102
RTVSPost2010Prop49
280
     0
102
RTVSPost2010PropOp49
 70
     1
102
RTVSPost2010Prop50
 90
       50
102
RTVSPost2010PropOp50
 70
     1
102
RTVSPost2010Prop51ColorIndex
 90
      256
102
RTVSPost2010Prop51ColorRGB
 90
-16777216
102
RTVSPost2010PropOp51
 70
     0
102
RTVSPost2010Prop52
140
1.0
102
RTVSPost2010PropOp52
 70
     0
102
RTVSPost2010Prop53
 90
        2
102
RTVSPost2010PropOp53
 70
     1
102
RTVSPost2010Prop54
  1
strokes_ogs.tif
102
RTVSPost2010PropOp54
 70
     1
102
RTVSPost2010Prop55
280
     0
102
RTVSPost2010PropOp55
 70
     1
102
RTVSPost2010Prop56
140
1.0
102
RTVSPost2010PropOp56
 70
     1
102
RTVSPost2010Prop57
140
1.0
102
RTVSPost2010PropOp57
 70
     1
  0
XRECORD
  5
7B1
102
{ACAD_REACTORS
330
7B0
102
}
330
7B0
100
AcDbXrecord
280
     1
102
RTVSPropertyOp0
 70
     1
102
RTVSPropertyOp1
 70
     1
102
RTVSPropertyOp2
 70
     1
102
RTVSPropertyOp3
 70
     1
102
RTVSPropertyOp4
 70
     1
102
RTVSPropertyOp5
 70
     1
102
RTVSPropertyOp6
 70
     1
102
RTVSPropertyOp7
 70
     1
102
RTVSPropertyOp8
 70
     1
102
RTVSPropertyOp9
 70
     1
102
RTVSPropertyOp10
 70
     1
102
RTVSPropertyOp11
 70
     1
102
RTVSPropertyOp12
 70
     1
102
RTVSPropertyOp13
 70
     1
102
RTVSPropertyOp14
 70
     1
102
RTVSPropertyOp15
 70
     1
102
RTVSPropertyOp16
 70
     1
102
RTVSPropertyOp17
 70
     1
102
RTVSPropertyOp18
 70
     1
102
RTVSPropertyOp19
 70
     1
102
RTVSPropertyOp20
 70
     1
102
RTVSPropertyOp21
 70
     1
102
RTVSPropertyOp22
 70
     1
102
RTVSPropertyOp23
 70
     1
102
RTVSPropertyOp24
 70
     1
102
RTVSPropertyOp25
 70
     1
102
RTVSPropertyOp26
 70
     1
102
RTVSPropertyOp27
 70
     1
102
RTVSPropertyOp28
 70
     1
102
RTVSPropertyOp29
 70
     1
102
RTVSPropertyOp30
 70
     1
102
RTVSPropertyOp31
 70
     1
102
RTVSPropertyOp32
 70
     1
102
RTVSPropertyOp33
 70
     1
102
RTVSPropertyOp34
 70
     1
102
RTVSPropertyOp35
 70
     1
102
RTVSPropertyOp36
 70
     1
102
RTVSPropertyOp37
 70
     1
102
RTVSPropertyOp38
 70
     1
102
RTVSPropertyOp39
 70
     1
102
RTVSPropertyOp40
 70
     1
102
RTVSPropertyOp41
 70
     1
102
RTVSPropertyOp42
 70
     1
102
RTVSPropertyOp43
 70
     1
102
RTVSPropertyOp44
 70
     1
102
RTVSPropertyOp45
 70
     1
102
RTVSPropertyOp46
 70
     1
102
RTVSPropertyOp47
 70
     1
102
RTVSPropertyOp48
 70
     1
102
RTVSPropertyOp49
 70
     1
102
RTVSPropertyOp50
 70
     1
102
RTVSPropertyOp51
 70
     0
102
RTVSPropertyOp52
 70
     0
102
RTVSPropertyOp53
 70
     1
102
RTVSPropertyOp54
 70
     1
102
RTVSPropertyOp55
 70
     1
102
RTVSPropertyOp56
 70
     1
102
RTVSPropertyOp57
 70
     1
102
RTVSPost2010Prop28
280
     0
102
RTVSPost2010PropOp28
 70
     1
102
RTVSPost2010Prop29
280
     1
102
RTVSPost2010PropOp29
 70
     1
102
RTVSPost2010Prop30
280
     1
102
RTVSPost2010PropOp30
 70
     1
102
RTVSPost2010Prop31
280
     0
102
RTVSPost2010PropOp31
 70
     1
102
RTVSPost2010Prop32
280
     0
102
RTVSPost2010PropOp32
 70
     1
102
RTVSPost2010Prop33
280
     0
102
RTVSPost2010PropOp33
 70
     1
102
RTVSPost2010Prop34
280
     0
102
RTVSPost2010PropOp34
 70
     1
102
RTVSPost2010Prop35
280
     0
102
RTVSPost2010PropOp35
 70
     1
102
RTVSPost2010Prop36
280
     0
102
RTVSPost2010PropOp36
 70
     1
102
RTVSPost2010Prop37
 90
       50
102
RTVSPost2010PropOp37
 70
     1
102
RTVSPost2010Prop38
140
0.0
102
RTVSPost2010PropOp38
 70
     1
102
RTVSPost2010Prop39
140
1.0
102
RTVSPost2010PropOp39
 70
     1
102
RTVSPost2010Prop40
 90
        0
102
RTVSPost2010PropOp40
 70
     1
102
RTVSPost2010Prop41ColorIndex
 90
       18
102
RTVSPost2010Prop41ColorRGB
 90
        0
102
RTVSPost2010PropOp41
 70
     1
102
RTVSPost2010Prop42
 90
       50
102
RTVSPost2010PropOp42
 70
     1
102
RTVSPost2010Prop43
 90
        3
102
RTVSPost2010PropOp43
 70
     1
102
RTVSPost2010Prop44ColorIndex
 90
        5
102
RTVSPost2010Prop44ColorRGB
 90
      255
102
RTVSPost2010PropOp44
 70
     1
102
RTVSPost2010Prop45
280
     0
102
RTVSPost2010PropOp45
 70
     1
102
RTVSPost2010Prop46
 90
       50
102
RTVSPost2010PropOp46
 70
     1
102
RTVSPost2010Prop47
 90
       50
102
RTVSPost2010PropOp47
 70
     1
102
RTVSPost2010Prop48
 90
       50
102
RTVSPost2010PropOp48
 70
     1
102
RTVSPost2010Prop49
280
     0
102
RTVSPost2010PropOp49
 70
     1
102
RTVSPost2010Prop50
 90
       50
102
RTVSPost2010PropOp50
 70
     1
102
RTVSPost2010Prop51ColorIndex
 90
      256
102
RTVSPost2010Prop51ColorRGB
 90
-16777216
102
RTVSPost2010PropOp51
 70
     0
102
RTVSPost2010Prop52
140
1.0
102
RTVSPost2010PropOp52
 70
     0
102
RTVSPost2010Prop53
 90
        2
102
RTVSPost2010PropOp53
 70
     1
102
RTVSPost2010Prop54
  1
strokes_ogs.tif
102
RTVSPost2010PropOp54
 70
     1
102
RTVSPost2010Prop55
280
     0
102
RTVSPost2010PropOp55
 70
     1
102
RTVSPost2010Prop56
140
1.0
102
RTVSPost2010PropOp56
 70
     1
102
RTVSPost2010Prop57
140
1.0
102
RTVSPost2010PropOp57
 70
     1
  0
XRECORD
  5
7C5
102
{ACAD_REACTORS
330
7C4
102
}
330
7C4
100
AcDbXrecord
280
     1
102
RTVSPropertyOp0
 70
     0
102
RTVSPropertyOp1
 70
     0
102
RTVSPropertyOp2
 70
     0
102
RTVSPropertyOp3
 70
     0
102
RTVSPropertyOp4
 70
     0
102
RTVSPropertyOp5
 70
     0
102
RTVSPropertyOp6
 70
     0
102
RTVSPropertyOp7
 70
     0
102
RTVSPropertyOp8
 70
     0
102
RTVSPropertyOp9
 70
     0
102
RTVSPropertyOp10
 70
     0
102
RTVSPropertyOp11
 70
     0
102
RTVSPropertyOp12
 70
     0
102
RTVSPropertyOp13
 70
     0
102
RTVSPropertyOp14
 70
     0
102
RTVSPropertyOp15
 70
     0
102
RTVSPropertyOp16
 70
     0
102
RTVSPropertyOp17
 70
     0
102
RTVSPropertyOp18
 70
     0
102
RTVSPropertyOp19
 70
     0
102
RTVSPropertyOp20
 70
     0
102
RTVSPropertyOp21
 70
     0
102
RTVSPropertyOp22
 70
     0
102
RTVSPropertyOp23
 70
     0
102
RTVSPropertyOp24
 70
     0
102
RTVSPropertyOp25
 70
     0
102
RTVSPropertyOp26
 70
     0
102
RTVSPropertyOp27
 70
     0
102
RTVSPropertyOp28
 70
     1
102
RTVSPropertyOp29
 70
     1
102
RTVSPropertyOp30
 70
     1
102
RTVSPropertyOp31
 70
     1
102
RTVSPropertyOp32
 70
     1
102
RTVSPropertyOp33
 70
     1
102
RTVSPropertyOp34
 70
     1
102
RTVSPropertyOp35
 70
     1
102
RTVSPropertyOp36
 70
     1
102
RTVSPropertyOp37
 70
     1
102
RTVSPropertyOp38
 70
     1
102
RTVSPropertyOp39
 70
     1
102
RTVSPropertyOp40
 70
     1
102
RTVSPropertyOp41
 70
     1
102
RTVSPropertyOp42
 70
     1
102
RTVSPropertyOp43
 70
     1
102
RTVSPropertyOp44
 70
     1
102
RTVSPropertyOp45
 70
     1
102
RTVSPropertyOp46
 70
     1
102
RTVSPropertyOp47
 70
     1
102
RTVSPropertyOp48
 70
     1
102
RTVSPropertyOp49
 70
     1
102
RTVSPropertyOp50
 70
     1
102
RTVSPropertyOp51
 70
     0
102
RTVSPropertyOp52
 70
     0
102
RTVSPropertyOp53
 70
     1
102
RTVSPropertyOp54
 70
     1
102
RTVSPropertyOp55
 70
     1
102
RTVSPropertyOp56
 70
     1
102
RTVSPropertyOp57
 70
     1
102
RTVSPost2010Prop28
280
     0
102
RTVSPost2010PropOp28
 70
     1
102
RTVSPost2010Prop29
280
     1
102
RTVSPost2010PropOp29
 70
     1
102
RTVSPost2010Prop30
280
     1
102
RTVSPost2010PropOp30
 70
     1
102
RTVSPost2010Prop31
280
     0
102
RTVSPost2010PropOp31
 70
     1
102
RTVSPost2010Prop32
280
     0
102
RTVSPost2010PropOp32
 70
     1
102
RTVSPost2010Prop33
280
     0
102
RTVSPost2010PropOp33
 70
     1
102
RTVSPost2010Prop34
280
     0
102
RTVSPost2010PropOp34
 70
     1
102
RTVSPost2010Prop35
280
     0
102
RTVSPost2010PropOp35
 70
     1
102
RTVSPost2010Prop36
280
     0
102
RTVSPost2010PropOp36
 70
     1
102
RTVSPost2010Prop37
 90
       50
102
RTVSPost2010PropOp37
 70
     1
102
RTVSPost2010Prop38
140
0.0
102
RTVSPost2010PropOp38
 70
     1
102
RTVSPost2010Prop39
140
1.0
102
RTVSPost2010PropOp39
 70
     1
102
RTVSPost2010Prop40
 90
        0
102
RTVSPost2010PropOp40
 70
     1
102
RTVSPost2010Prop41ColorIndex
 90
       18
102
RTVSPost2010Prop41ColorRGB
 90
        0
102
RTVSPost2010PropOp41
 70
     1
102
RTVSPost2010Prop42
 90
       50
102
RTVSPost2010PropOp42
 70
     1
102
RTVSPost2010Prop43
 90
        3
102
RTVSPost2010PropOp43
 70
     1
102
RTVSPost2010Prop44ColorIndex
 90
        5
102
RTVSPost2010Prop44ColorRGB
 90
      255
102
RTVSPost2010PropOp44
 70
     1
102
RTVSPost2010Prop45
280
     0
102
RTVSPost2010PropOp45
 70
     1
102
RTVSPost2010Prop46
 90
       50
102
RTVSPost2010PropOp46
 70
     1
102
RTVSPost2010Prop47
 90
       50
102
RTVSPost2010PropOp47
 70
     1
102
RTVSPost2010Prop48
 90
       50
102
RTVSPost2010PropOp48
 70
     1
102
RTVSPost2010Prop49
280
     0
102
RTVSPost2010PropOp49
 70
     1
102
RTVSPost2010Prop50
 90
       50
102
RTVSPost2010PropOp50
 70
     1
102
RTVSPost2010Prop51ColorIndex
 90
      256
102
RTVSPost2010Prop51ColorRGB
 90
-16777216
102
RTVSPost2010PropOp51
 70
     0
102
RTVSPost2010Prop52
140
1.0
102
RTVSPost2010PropOp52
 70
     0
102
RTVSPost2010Prop53
 90
        2
102
RTVSPost2010PropOp53
 70
     1
102
RTVSPost2010Prop54
  1
strokes_ogs.tif
102
RTVSPost2010PropOp54
 70
     1
102
RTVSPost2010Prop55
280
     0
102
RTVSPost2010PropOp55
 70
     1
102
RTVSPost2010Prop56
140
1.0
102
RTVSPost2010PropOp56
 70
     1
102
RTVSPost2010Prop57
140
1.0
102
RTVSPost2010PropOp57
 70
     1
  0
XRECORD
  5
7BF
102
{ACAD_REACTORS
330
7BE
102
}
330
7BE
100
AcDbXrecord
280
     1
102
RTVSPropertyOp0
 70
     1
102
RTVSPropertyOp1
 70
     1
102
RTVSPropertyOp2
 70
     1
102
RTVSPropertyOp3
 70
     1
102
RTVSPropertyOp4
 70
     1
102
RTVSPropertyOp5
 70
     1
102
RTVSPropertyOp6
 70
     1
102
RTVSPropertyOp7
 70
     1
102
RTVSPropertyOp8
 70
     1
102
RTVSPropertyOp9
 70
     1
102
RTVSPropertyOp10
 70
     1
102
RTVSPropertyOp11
 70
     1
102
RTVSPropertyOp12
 70
     1
102
RTVSPropertyOp13
 70
     1
102
RTVSPropertyOp14
 70
     1
102
RTVSPropertyOp15
 70
     1
102
RTVSPropertyOp16
 70
     1
102
RTVSPropertyOp17
 70
     1
102
RTVSPropertyOp18
 70
     1
102
RTVSPropertyOp19
 70
     1
102
RTVSPropertyOp20
 70
     1
102
RTVSPropertyOp21
 70
     1
102
RTVSPropertyOp22
 70
     1
102
RTVSPropertyOp23
 70
     1
102
RTVSPropertyOp24
 70
     1
102
RTVSPropertyOp25
 70
     1
102
RTVSPropertyOp26
 70
     1
102
RTVSPropertyOp27
 70
     1
102
RTVSPropertyOp28
 70
     1
102
RTVSPropertyOp29
 70
     1
102
RTVSPropertyOp30
 70
     1
102
RTVSPropertyOp31
 70
     1
102
RTVSPropertyOp32
 70
     1
102
RTVSPropertyOp33
 70
     1
102
RTVSPropertyOp34
 70
     1
102
RTVSPropertyOp35
 70
     1
102
RTVSPropertyOp36
 70
     1
102
RTVSPropertyOp37
 70
     1
102
RTVSPropertyOp38
 70
     1
102
RTVSPropertyOp39
 70
     1
102
RTVSPropertyOp40
 70
     1
102
RTVSPropertyOp41
 70
     1
102
RTVSPropertyOp42
 70
     1
102
RTVSPropertyOp43
 70
     1
102
RTVSPropertyOp44
 70
     1
102
RTVSPropertyOp45
 70
     1
102
RTVSPropertyOp46
 70
     1
102
RTVSPropertyOp47
 70
     1
102
RTVSPropertyOp48
 70
     1
102
RTVSPropertyOp49
 70
     1
102
RTVSPropertyOp50
 70
     1
102
RTVSPropertyOp51
 70
     0
102
RTVSPropertyOp52
 70
     0
102
RTVSPropertyOp53
 70
     1
102
RTVSPropertyOp54
 70
     1
102
RTVSPropertyOp55
 70
     1
102
RTVSPropertyOp56
 70
     1
102
RTVSPropertyOp57
 70
     1
102
RTVSPost2010Prop28
280
     0
102
RTVSPost2010PropOp28
 70
     1
102
RTVSPost2010Prop29
280
     1
102
RTVSPost2010PropOp29
 70
     1
102
RTVSPost2010Prop30
280
     1
102
RTVSPost2010PropOp30
 70
     1
102
RTVSPost2010Prop31
280
     0
102
RTVSPost2010PropOp31
 70
     1
102
RTVSPost2010Prop32
280
     0
102
RTVSPost2010PropOp32
 70
     1
102
RTVSPost2010Prop33
280
     0
102
RTVSPost2010PropOp33
 70
     1
102
RTVSPost2010Prop34
280
     0
102
RTVSPost2010PropOp34
 70
     1
102
RTVSPost2010Prop35
280
     0
102
RTVSPost2010PropOp35
 70
     1
102
RTVSPost2010Prop36
280
     0
102
RTVSPost2010PropOp36
 70
     1
102
RTVSPost2010Prop37
 90
       50
102
RTVSPost2010PropOp37
 70
     1
102
RTVSPost2010Prop38
140
0.0
102
RTVSPost2010PropOp38
 70
     1
102
RTVSPost2010Prop39
140
1.0
102
RTVSPost2010PropOp39
 70
     1
102
RTVSPost2010Prop40
 90
        0
102
RTVSPost2010PropOp40
 70
     1
102
RTVSPost2010Prop41ColorIndex
 90
       18
102
RTVSPost2010Prop41ColorRGB
 90
        0
102
RTVSPost2010PropOp41
 70
     1
102
RTVSPost2010Prop42
 90
       50
102
RTVSPost2010PropOp42
 70
     1
102
RTVSPost2010Prop43
 90
        3
102
RTVSPost2010PropOp43
 70
     1
102
RTVSPost2010Prop44ColorIndex
 90
        5
102
RTVSPost2010Prop44ColorRGB
 90
      255
102
RTVSPost2010PropOp44
 70
     1
102
RTVSPost2010Prop45
280
     0
102
RTVSPost2010PropOp45
 70
     1
102
RTVSPost2010Prop46
 90
       50
102
RTVSPost2010PropOp46
 70
     1
102
RTVSPost2010Prop47
 90
       50
102
RTVSPost2010PropOp47
 70
     1
102
RTVSPost2010Prop48
 90
       50
102
RTVSPost2010PropOp48
 70
     1
102
RTVSPost2010Prop49
280
     0
102
RTVSPost2010PropOp49
 70
     1
102
RTVSPost2010Prop50
 90
       50
102
RTVSPost2010PropOp50
 70
     1
102
RTVSPost2010Prop51ColorIndex
 90
      256
102
RTVSPost2010Prop51ColorRGB
 90
-16777216
102
RTVSPost2010PropOp51
 70
     0
102
RTVSPost2010Prop52
140
1.0
102
RTVSPost2010PropOp52
 70
     0
102
RTVSPost2010Prop53
 90
        2
102
RTVSPost2010PropOp53
 70
     1
102
RTVSPost2010Prop54
  1
strokes_ogs.tif
102
RTVSPost2010PropOp54
 70
     1
102
RTVSPost2010Prop55
280
     0
102
RTVSPost2010PropOp55
 70
     1
102
RTVSPost2010Prop56
140
1.0
102
RTVSPost2010PropOp56
 70
     1
102
RTVSPost2010Prop57
140
1.0
102
RTVSPost2010PropOp57
 70
     1
  0
XRECORD
  5
7C7
102
{ACAD_REACTORS
330
7C6
102
}
330
7C6
100
AcDbXrecord
280
     1
102
RTVSPropertyOp0
 70
     0
102
RTVSPropertyOp1
 70
     0
102
RTVSPropertyOp2
 70
     0
102
RTVSPropertyOp3
 70
     0
102
RTVSPropertyOp4
 70
     0
102
RTVSPropertyOp5
 70
     0
102
RTVSPropertyOp6
 70
     0
102
RTVSPropertyOp7
 70
     0
102
RTVSPropertyOp8
 70
     0
102
RTVSPropertyOp9
 70
     0
102
RTVSPropertyOp10
 70
     0
102
RTVSPropertyOp11
 70
     0
102
RTVSPropertyOp12
 70
     0
102
RTVSPropertyOp13
 70
     0
102
RTVSPropertyOp14
 70
     0
102
RTVSPropertyOp15
 70
     0
102
RTVSPropertyOp16
 70
     0
102
RTVSPropertyOp17
 70
     0
102
RTVSPropertyOp18
 70
     0
102
RTVSPropertyOp19
 70
     0
102
RTVSPropertyOp20
 70
     0
102
RTVSPropertyOp21
 70
     0
102
RTVSPropertyOp22
 70
     0
102
RTVSPropertyOp23
 70
     0
102
RTVSPropertyOp24
 70
     0
102
RTVSPropertyOp25
 70
     0
102
RTVSPropertyOp26
 70
     0
102
RTVSPropertyOp27
 70
     0
102
RTVSPropertyOp28
 70
     1
102
RTVSPropertyOp29
 70
     1
102
RTVSPropertyOp30
 70
     1
102
RTVSPropertyOp31
 70
     1
102
RTVSPropertyOp32
 70
     1
102
RTVSPropertyOp33
 70
     1
102
RTVSPropertyOp34
 70
     1
102
RTVSPropertyOp35
 70
     1
102
RTVSPropertyOp36
 70
     1
102
RTVSPropertyOp37
 70
     1
102
RTVSPropertyOp38
 70
     1
102
RTVSPropertyOp39
 70
     1
102
RTVSPropertyOp40
 70
     1
102
RTVSPropertyOp41
 70
     1
102
RTVSPropertyOp42
 70
     1
102
RTVSPropertyOp43
 70
     1
102
RTVSPropertyOp44
 70
     1
102
RTVSPropertyOp45
 70
     1
102
RTVSPropertyOp46
 70
     1
102
RTVSPropertyOp47
 70
     1
102
RTVSPropertyOp48
 70
     1
102
RTVSPropertyOp49
 70
     1
102
RTVSPropertyOp50
 70
     1
102
RTVSPropertyOp51
 70
     0
102
RTVSPropertyOp52
 70
     0
102
RTVSPropertyOp53
 70
     1
102
RTVSPropertyOp54
 70
     1
102
RTVSPropertyOp55
 70
     1
102
RTVSPropertyOp56
 70
     1
102
RTVSPropertyOp57
 70
     1
102
RTVSPost2010Prop28
280
     0
102
RTVSPost2010PropOp28
 70
     1
102
RTVSPost2010Prop29
280
     1
102
RTVSPost2010PropOp29
 70
     1
102
RTVSPost2010Prop30
280
     1
102
RTVSPost2010PropOp30
 70
     1
102
RTVSPost2010Prop31
280
     0
102
RTVSPost2010PropOp31
 70
     1
102
RTVSPost2010Prop32
280
     0
102
RTVSPost2010PropOp32
 70
     1
102
RTVSPost2010Prop33
280
     0
102
RTVSPost2010PropOp33
 70
     1
102
RTVSPost2010Prop34
280
     0
102
RTVSPost2010PropOp34
 70
     1
102
RTVSPost2010Prop35
280
     0
102
RTVSPost2010PropOp35
 70
     1
102
RTVSPost2010Prop36
280
     0
102
RTVSPost2010PropOp36
 70
     1
102
RTVSPost2010Prop37
 90
       50
102
RTVSPost2010PropOp37
 70
     1
102
RTVSPost2010Prop38
140
0.0
102
RTVSPost2010PropOp38
 70
     1
102
RTVSPost2010Prop39
140
1.0
102
RTVSPost2010PropOp39
 70
     1
102
RTVSPost2010Prop40
 90
        0
102
RTVSPost2010PropOp40
 70
     1
102
RTVSPost2010Prop41ColorIndex
 90
       18
102
RTVSPost2010Prop41ColorRGB
 90
        0
102
RTVSPost2010PropOp41
 70
     1
102
RTVSPost2010Prop42
 90
       50
102
RTVSPost2010PropOp42
 70
     1
102
RTVSPost2010Prop43
 90
        3
102
RTVSPost2010PropOp43
 70
     1
102
RTVSPost2010Prop44ColorIndex
 90
        5
102
RTVSPost2010Prop44ColorRGB
 90
      255
102
RTVSPost2010PropOp44
 70
     1
102
RTVSPost2010Prop45
280
     0
102
RTVSPost2010PropOp45
 70
     1
102
RTVSPost2010Prop46
 90
       50
102
RTVSPost2010PropOp46
 70
     1
102
RTVSPost2010Prop47
 90
       50
102
RTVSPost2010PropOp47
 70
     1
102
RTVSPost2010Prop48
 90
       50
102
RTVSPost2010PropOp48
 70
     1
102
RTVSPost2010Prop49
280
     0
102
RTVSPost2010PropOp49
 70
     1
102
RTVSPost2010Prop50
 90
       50
102
RTVSPost2010PropOp50
 70
     1
102
RTVSPost2010Prop51ColorIndex
 90
      256
102
RTVSPost2010Prop51ColorRGB
 90
-16777216
102
RTVSPost2010PropOp51
 70
     0
102
RTVSPost2010Prop52
140
1.0
102
RTVSPost2010PropOp52
 70
     0
102
RTVSPost2010Prop53
 90
        2
102
RTVSPost2010PropOp53
 70
     1
102
RTVSPost2010Prop54
  1
strokes_ogs.tif
102
RTVSPost2010PropOp54
 70
     1
102
RTVSPost2010Prop55
280
     0
102
RTVSPost2010PropOp55
 70
     1
102
RTVSPost2010Prop56
140
1.0
102
RTVSPost2010PropOp56
 70
     1
102
RTVSPost2010Prop57
140
1.0
102
RTVSPost2010PropOp57
 70
     1
  0
XRECORD
  5
7B5
102
{ACAD_REACTORS
330
7B4
102
}
330
7B4
100
AcDbXrecord
280
     1
102
RTVSPropertyOp0
 70
     1
102
RTVSPropertyOp1
 70
     1
102
RTVSPropertyOp2
 70
     1
102
RTVSPropertyOp3
 70
     1
102
RTVSPropertyOp4
 70
     1
102
RTVSPropertyOp5
 70
     1
102
RTVSPropertyOp6
 70
     1
102
RTVSPropertyOp7
 70
     1
102
RTVSPropertyOp8
 70
     1
102
RTVSPropertyOp9
 70
     1
102
RTVSPropertyOp10
 70
     1
102
RTVSPropertyOp11
 70
     1
102
RTVSPropertyOp12
 70
     1
102
RTVSPropertyOp13
 70
     1
102
RTVSPropertyOp14
 70
     1
102
RTVSPropertyOp15
 70
     1
102
RTVSPropertyOp16
 70
     1
102
RTVSPropertyOp17
 70
     1
102
RTVSPropertyOp18
 70
     1
102
RTVSPropertyOp19
 70
     1
102
RTVSPropertyOp20
 70
     1
102
RTVSPropertyOp21
 70
     1
102
RTVSPropertyOp22
 70
     1
102
RTVSPropertyOp23
 70
     1
102
RTVSPropertyOp24
 70
     1
102
RTVSPropertyOp25
 70
     1
102
RTVSPropertyOp26
 70
     1
102
RTVSPropertyOp27
 70
     1
102
RTVSPropertyOp28
 70
     1
102
RTVSPropertyOp29
 70
     1
102
RTVSPropertyOp30
 70
     1
102
RTVSPropertyOp31
 70
     1
102
RTVSPropertyOp32
 70
     1
102
RTVSPropertyOp33
 70
     1
102
RTVSPropertyOp34
 70
     1
102
RTVSPropertyOp35
 70
     1
102
RTVSPropertyOp36
 70
     1
102
RTVSPropertyOp37
 70
     1
102
RTVSPropertyOp38
 70
     1
102
RTVSPropertyOp39
 70
     1
102
RTVSPropertyOp40
 70
     1
102
RTVSPropertyOp41
 70
     1
102
RTVSPropertyOp42
 70
     1
102
RTVSPropertyOp43
 70
     1
102
RTVSPropertyOp44
 70
     1
102
RTVSPropertyOp45
 70
     1
102
RTVSPropertyOp46
 70
     1
102
RTVSPropertyOp47
 70
     1
102
RTVSPropertyOp48
 70
     1
102
RTVSPropertyOp49
 70
     1
102
RTVSPropertyOp50
 70
     1
102
RTVSPropertyOp51
 70
     0
102
RTVSPropertyOp52
 70
     0
102
RTVSPropertyOp53
 70
     1
102
RTVSPropertyOp54
 70
     1
102
RTVSPropertyOp55
 70
     1
102
RTVSPropertyOp56
 70
     1
102
RTVSPropertyOp57
 70
     1
102
RTVSPost2010Prop28
280
     0
102
RTVSPost2010PropOp28
 70
     1
102
RTVSPost2010Prop29
280
     1
102
RTVSPost2010PropOp29
 70
     1
102
RTVSPost2010Prop30
280
     1
102
RTVSPost2010PropOp30
 70
     1
102
RTVSPost2010Prop31
280
     0
102
RTVSPost2010PropOp31
 70
     1
102
RTVSPost2010Prop32
280
     0
102
RTVSPost2010PropOp32
 70
     1
102
RTVSPost2010Prop33
280
     0
102
RTVSPost2010PropOp33
 70
     1
102
RTVSPost2010Prop34
280
     0
102
RTVSPost2010PropOp34
 70
     1
102
RTVSPost2010Prop35
280
     0
102
RTVSPost2010PropOp35
 70
     1
102
RTVSPost2010Prop36
280
     0
102
RTVSPost2010PropOp36
 70
     1
102
RTVSPost2010Prop37
 90
       50
102
RTVSPost2010PropOp37
 70
     1
102
RTVSPost2010Prop38
140
0.0
102
RTVSPost2010PropOp38
 70
     1
102
RTVSPost2010Prop39
140
1.0
102
RTVSPost2010PropOp39
 70
     1
102
RTVSPost2010Prop40
 90
        0
102
RTVSPost2010PropOp40
 70
     1
102
RTVSPost2010Prop41ColorIndex
 90
       18
102
RTVSPost2010Prop41ColorRGB
 90
        0
102
RTVSPost2010PropOp41
 70
     1
102
RTVSPost2010Prop42
 90
       50
102
RTVSPost2010PropOp42
 70
     1
102
RTVSPost2010Prop43
 90
        3
102
RTVSPost2010PropOp43
 70
     1
102
RTVSPost2010Prop44ColorIndex
 90
        5
102
RTVSPost2010Prop44ColorRGB
 90
      255
102
RTVSPost2010PropOp44
 70
     1
102
RTVSPost2010Prop45
280
     0
102
RTVSPost2010PropOp45
 70
     1
102
RTVSPost2010Prop46
 90
       50
102
RTVSPost2010PropOp46
 70
     1
102
RTVSPost2010Prop47
 90
       50
102
RTVSPost2010PropOp47
 70
     1
102
RTVSPost2010Prop48
 90
       50
102
RTVSPost2010PropOp48
 70
     1
102
RTVSPost2010Prop49
280
     0
102
RTVSPost2010PropOp49
 70
     1
102
RTVSPost2010Prop50
 90
       50
102
RTVSPost2010PropOp50
 70
     1
102
RTVSPost2010Prop51ColorIndex
 90
      256
102
RTVSPost2010Prop51ColorRGB
 90
-16777216
102
RTVSPost2010PropOp51
 70
     0
102
RTVSPost2010Prop52
140
1.0
102
RTVSPost2010PropOp52
 70
     0
102
RTVSPost2010Prop53
 90
        2
102
RTVSPost2010PropOp53
 70
     1
102
RTVSPost2010Prop54
  1
strokes_ogs.tif
102
RTVSPost2010PropOp54
 70
     1
102
RTVSPost2010Prop55
280
     0
102
RTVSPost2010PropOp55
 70
     1
102
RTVSPost2010Prop56
140
1.0
102
RTVSPost2010PropOp56
 70
     1
102
RTVSPost2010Prop57
140
1.0
102
RTVSPost2010PropOp57
 70
     1
  0
XRECORD
  5
7D3
102
{ACAD_REACTORS
330
7D2
102
}
330
7D2
100
AcDbXrecord
280
     1
102
RTVSPropertyOp0
 70
     1
102
RTVSPropertyOp1
 70
     1
102
RTVSPropertyOp2
 70
     1
102
RTVSPropertyOp3
 70
     1
102
RTVSPropertyOp4
 70
     1
102
RTVSPropertyOp5
 70
     1
102
RTVSPropertyOp6
 70
     1
102
RTVSPropertyOp7
 70
     1
102
RTVSPropertyOp8
 70
     1
102
RTVSPropertyOp9
 70
     1
102
RTVSPropertyOp10
 70
     1
102
RTVSPropertyOp11
 70
     1
102
RTVSPropertyOp12
 70
     1
102
RTVSPropertyOp13
 70
     1
102
RTVSPropertyOp14
 70
     1
102
RTVSPropertyOp15
 70
     1
102
RTVSPropertyOp16
 70
     1
102
RTVSPropertyOp17
 70
     1
102
RTVSPropertyOp18
 70
     1
102
RTVSPropertyOp19
 70
     1
102
RTVSPropertyOp20
 70
     1
102
RTVSPropertyOp21
 70
     1
102
RTVSPropertyOp22
 70
     1
102
RTVSPropertyOp23
 70
     1
102
RTVSPropertyOp24
 70
     1
102
RTVSPropertyOp25
 70
     1
102
RTVSPropertyOp26
 70
     1
102
RTVSPropertyOp27
 70
     1
102
RTVSPropertyOp28
 70
     1
102
RTVSPropertyOp29
 70
     1
102
RTVSPropertyOp30
 70
     1
102
RTVSPropertyOp31
 70
     1
102
RTVSPropertyOp32
 70
     1
102
RTVSPropertyOp33
 70
     1
102
RTVSPropertyOp34
 70
     1
102
RTVSPropertyOp35
 70
     1
102
RTVSPropertyOp36
 70
     1
102
RTVSPropertyOp37
 70
     1
102
RTVSPropertyOp38
 70
     1
102
RTVSPropertyOp39
 70
     1
102
RTVSPropertyOp40
 70
     1
102
RTVSPropertyOp41
 70
     1
102
RTVSPropertyOp42
 70
     1
102
RTVSPropertyOp43
 70
     1
102
RTVSPropertyOp44
 70
     1
102
RTVSPropertyOp45
 70
     1
102
RTVSPropertyOp46
 70
     1
102
RTVSPropertyOp47
 70
     1
102
RTVSPropertyOp48
 70
     1
102
RTVSPropertyOp49
 70
     1
102
RTVSPropertyOp50
 70
     1
102
RTVSPropertyOp51
 70
     0
102
RTVSPropertyOp52
 70
     0
102
RTVSPropertyOp53
 70
     1
102
RTVSPropertyOp54
 70
     1
102
RTVSPropertyOp55
 70
     1
102
RTVSPropertyOp56
 70
     1
102
RTVSPropertyOp57
 70
     1
102
RTVSPost2010Prop28
280
     0
102
RTVSPost2010PropOp28
 70
     1
102
RTVSPost2010Prop29
280
     1
102
RTVSPost2010PropOp29
 70
     1
102
RTVSPost2010Prop30
280
     1
102
RTVSPost2010PropOp30
 70
     1
102
RTVSPost2010Prop31
280
     0
102
RTVSPost2010PropOp31
 70
     1
102
RTVSPost2010Prop32
280
     0
102
RTVSPost2010PropOp32
 70
     1
102
RTVSPost2010Prop33
280
     0
102
RTVSPost2010PropOp33
 70
     1
102
RTVSPost2010Prop34
280
     0
102
RTVSPost2010PropOp34
 70
     1
102
RTVSPost2010Prop35
280
     0
102
RTVSPost2010PropOp35
 70
     1
102
RTVSPost2010Prop36
280
     0
102
RTVSPost2010PropOp36
 70
     1
102
RTVSPost2010Prop37
 90
       50
102
RTVSPost2010PropOp37
 70
     1
102
RTVSPost2010Prop38
140
0.0
102
RTVSPost2010PropOp38
 70
     1
102
RTVSPost2010Prop39
140
1.0
102
RTVSPost2010PropOp39
 70
     1
102
RTVSPost2010Prop40
 90
        0
102
RTVSPost2010PropOp40
 70
     1
102
RTVSPost2010Prop41ColorIndex
 90
       18
102
RTVSPost2010Prop41ColorRGB
 90
        0
102
RTVSPost2010PropOp41
 70
     1
102
RTVSPost2010Prop42
 90
       50
102
RTVSPost2010PropOp42
 70
     1
102
RTVSPost2010Prop43
 90
        3
102
RTVSPost2010PropOp43
 70
     1
102
RTVSPost2010Prop44ColorIndex
 90
        5
102
RTVSPost2010Prop44ColorRGB
 90
      255
102
RTVSPost2010PropOp44
 70
     1
102
RTVSPost2010Prop45
280
     0
102
RTVSPost2010PropOp45
 70
     1
102
RTVSPost2010Prop46
 90
       50
102
RTVSPost2010PropOp46
 70
     1
102
RTVSPost2010Prop47
 90
       50
102
RTVSPost2010PropOp47
 70
     1
102
RTVSPost2010Prop48
 90
       50
102
RTVSPost2010PropOp48
 70
     1
102
RTVSPost2010Prop49
280
     0
102
RTVSPost2010PropOp49
 70
     1
102
RTVSPost2010Prop50
 90
       50
102
RTVSPost2010PropOp50
 70
     1
102
RTVSPost2010Prop51ColorIndex
 90
      256
102
RTVSPost2010Prop51ColorRGB
 90
-16777216
102
RTVSPost2010PropOp51
 70
     0
102
RTVSPost2010Prop52
140
1.0
102
RTVSPost2010PropOp52
 70
     0
102
RTVSPost2010Prop53
 90
        2
102
RTVSPost2010PropOp53
 70
     1
102
RTVSPost2010Prop54
  1
strokes_ogs.tif
102
RTVSPost2010PropOp54
 70
     1
102
RTVSPost2010Prop55
280
     0
102
RTVSPost2010PropOp55
 70
     1
102
RTVSPost2010Prop56
140
1.0
102
RTVSPost2010PropOp56
 70
     1
102
RTVSPost2010Prop57
140
1.0
102
RTVSPost2010PropOp57
 70
     1
  0
XRECORD
  5
7D1
102
{ACAD_REACTORS
330
7D0
102
}
330
7D0
100
AcDbXrecord
280
     1
102
RTVSPropertyOp0
 70
     1
102
RTVSPropertyOp1
 70
     1
102
RTVSPropertyOp2
 70
     1
102
RTVSPropertyOp3
 70
     1
102
RTVSPropertyOp4
 70
     1
102
RTVSPropertyOp5
 70
     1
102
RTVSPropertyOp6
 70
     1
102
RTVSPropertyOp7
 70
     1
102
RTVSPropertyOp8
 70
     1
102
RTVSPropertyOp9
 70
     1
102
RTVSPropertyOp10
 70
     1
102
RTVSPropertyOp11
 70
     1
102
RTVSPropertyOp12
 70
     1
102
RTVSPropertyOp13
 70
     1
102
RTVSPropertyOp14
 70
     1
102
RTVSPropertyOp15
 70
     1
102
RTVSPropertyOp16
 70
     1
102
RTVSPropertyOp17
 70
     1
102
RTVSPropertyOp18
 70
     1
102
RTVSPropertyOp19
 70
     1
102
RTVSPropertyOp20
 70
     1
102
RTVSPropertyOp21
 70
     1
102
RTVSPropertyOp22
 70
     1
102
RTVSPropertyOp23
 70
     1
102
RTVSPropertyOp24
 70
     1
102
RTVSPropertyOp25
 70
     1
102
RTVSPropertyOp26
 70
     1
102
RTVSPropertyOp27
 70
     1
102
RTVSPropertyOp28
 70
     1
102
RTVSPropertyOp29
 70
     1
102
RTVSPropertyOp30
 70
     1
102
RTVSPropertyOp31
 70
     1
102
RTVSPropertyOp32
 70
     1
102
RTVSPropertyOp33
 70
     1
102
RTVSPropertyOp34
 70
     1
102
RTVSPropertyOp35
 70
     1
102
RTVSPropertyOp36
 70
     1
102
RTVSPropertyOp37
 70
     1
102
RTVSPropertyOp38
 70
     1
102
RTVSPropertyOp39
 70
     1
102
RTVSPropertyOp40
 70
     1
102
RTVSPropertyOp41
 70
     1
102
RTVSPropertyOp42
 70
     1
102
RTVSPropertyOp43
 70
     1
102
RTVSPropertyOp44
 70
     1
102
RTVSPropertyOp45
 70
     1
102
RTVSPropertyOp46
 70
     1
102
RTVSPropertyOp47
 70
     1
102
RTVSPropertyOp48
 70
     1
102
RTVSPropertyOp49
 70
     1
102
RTVSPropertyOp50
 70
     1
102
RTVSPropertyOp51
 70
     0
102
RTVSPropertyOp52
 70
     0
102
RTVSPropertyOp53
 70
     1
102
RTVSPropertyOp54
 70
     1
102
RTVSPropertyOp55
 70
     1
102
RTVSPropertyOp56
 70
     1
102
RTVSPropertyOp57
 70
     1
102
RTVSPost2010Prop28
280
     0
102
RTVSPost2010PropOp28
 70
     1
102
RTVSPost2010Prop29
280
     1
102
RTVSPost2010PropOp29
 70
     1
102
RTVSPost2010Prop30
280
     1
102
RTVSPost2010PropOp30
 70
     1
102
RTVSPost2010Prop31
280
     0
102
RTVSPost2010PropOp31
 70
     1
102
RTVSPost2010Prop32
280
     0
102
RTVSPost2010PropOp32
 70
     1
102
RTVSPost2010Prop33
280
     0
102
RTVSPost2010PropOp33
 70
     1
102
RTVSPost2010Prop34
280
     0
102
RTVSPost2010PropOp34
 70
     1
102
RTVSPost2010Prop35
280
     0
102
RTVSPost2010PropOp35
 70
     1
102
RTVSPost2010Prop36
280
     0
102
RTVSPost2010PropOp36
 70
     1
102
RTVSPost2010Prop37
 90
       50
102
RTVSPost2010PropOp37
 70
     1
102
RTVSPost2010Prop38
140
0.0
102
RTVSPost2010PropOp38
 70
     1
102
RTVSPost2010Prop39
140
1.0
102
RTVSPost2010PropOp39
 70
     1
102
RTVSPost2010Prop40
 90
        0
102
RTVSPost2010PropOp40
 70
     1
102
RTVSPost2010Prop41ColorIndex
 90
       18
102
RTVSPost2010Prop41ColorRGB
 90
        0
102
RTVSPost2010PropOp41
 70
     1
102
RTVSPost2010Prop42
 90
       50
102
RTVSPost2010PropOp42
 70
     1
102
RTVSPost2010Prop43
 90
        3
102
RTVSPost2010PropOp43
 70
     1
102
RTVSPost2010Prop44ColorIndex
 90
        5
102
RTVSPost2010Prop44ColorRGB
 90
      255
102
RTVSPost2010PropOp44
 70
     1
102
RTVSPost2010Prop45
280
     0
102
RTVSPost2010PropOp45
 70
     1
102
RTVSPost2010Prop46
 90
       50
102
RTVSPost2010PropOp46
 70
     1
102
RTVSPost2010Prop47
 90
       50
102
RTVSPost2010PropOp47
 70
     1
102
RTVSPost2010Prop48
 90
       50
102
RTVSPost2010PropOp48
 70
     1
102
RTVSPost2010Prop49
280
     0
102
RTVSPost2010PropOp49
 70
     1
102
RTVSPost2010Prop50
 90
       50
102
RTVSPost2010PropOp50
 70
     1
102
RTVSPost2010Prop51ColorIndex
 90
      256
102
RTVSPost2010Prop51ColorRGB
 90
-16777216
102
RTVSPost2010PropOp51
 70
     0
102
RTVSPost2010Prop52
140
1.0
102
RTVSPost2010PropOp52
 70
     0
102
RTVSPost2010Prop53
 90
        2
102
RTVSPost2010PropOp53
 70
     1
102
RTVSPost2010Prop54
  1
strokes_ogs.tif
102
RTVSPost2010PropOp54
 70
     1
102
RTVSPost2010Prop55
280
     0
102
RTVSPost2010PropOp55
 70
     1
102
RTVSPost2010Prop56
140
1.0
102
RTVSPost2010PropOp56
 70
     1
102
RTVSPost2010Prop57
140
1.0
102
RTVSPost2010PropOp57
 70
     1
  0
XRECORD
  5
7CB
102
{ACAD_REACTORS
330
7CA
102
}
330
7CA
100
AcDbXrecord
280
     1
102
RTVSPropertyOp0
 70
     1
102
RTVSPropertyOp1
 70
     1
102
RTVSPropertyOp2
 70
     1
102
RTVSPropertyOp3
 70
     1
102
RTVSPropertyOp4
 70
     1
102
RTVSPropertyOp5
 70
     1
102
RTVSPropertyOp6
 70
     1
102
RTVSPropertyOp7
 70
     1
102
RTVSPropertyOp8
 70
     1
102
RTVSPropertyOp9
 70
     1
102
RTVSPropertyOp10
 70
     1
102
RTVSPropertyOp11
 70
     1
102
RTVSPropertyOp12
 70
     1
102
RTVSPropertyOp13
 70
     1
102
RTVSPropertyOp14
 70
     1
102
RTVSPropertyOp15
 70
     1
102
RTVSPropertyOp16
 70
     1
102
RTVSPropertyOp17
 70
     1
102
RTVSPropertyOp18
 70
     1
102
RTVSPropertyOp19
 70
     1
102
RTVSPropertyOp20
 70
     1
102
RTVSPropertyOp21
 70
     1
102
RTVSPropertyOp22
 70
     1
102
RTVSPropertyOp23
 70
     1
102
RTVSPropertyOp24
 70
     1
102
RTVSPropertyOp25
 70
     1
102
RTVSPropertyOp26
 70
     1
102
RTVSPropertyOp27
 70
     1
102
RTVSPropertyOp28
 70
     1
102
RTVSPropertyOp29
 70
     1
102
RTVSPropertyOp30
 70
     1
102
RTVSPropertyOp31
 70
     1
102
RTVSPropertyOp32
 70
     1
102
RTVSPropertyOp33
 70
     1
102
RTVSPropertyOp34
 70
     1
102
RTVSPropertyOp35
 70
     1
102
RTVSPropertyOp36
 70
     1
102
RTVSPropertyOp37
 70
     1
102
RTVSPropertyOp38
 70
     1
102
RTVSPropertyOp39
 70
     1
102
RTVSPropertyOp40
 70
     1
102
RTVSPropertyOp41
 70
     1
102
RTVSPropertyOp42
 70
     1
102
RTVSPropertyOp43
 70
     1
102
RTVSPropertyOp44
 70
     1
102
RTVSPropertyOp45
 70
     1
102
RTVSPropertyOp46
 70
     1
102
RTVSPropertyOp47
 70
     1
102
RTVSPropertyOp48
 70
     1
102
RTVSPropertyOp49
 70
     1
102
RTVSPropertyOp50
 70
     1
102
RTVSPropertyOp51
 70
     0
102
RTVSPropertyOp52
 70
     0
102
RTVSPropertyOp53
 70
     1
102
RTVSPropertyOp54
 70
     1
102
RTVSPropertyOp55
 70
     1
102
RTVSPropertyOp56
 70
     1
102
RTVSPropertyOp57
 70
     1
102
RTVSPost2010Prop28
280
     0
102
RTVSPost2010PropOp28
 70
     1
102
RTVSPost2010Prop29
280
     1
102
RTVSPost2010PropOp29
 70
     1
102
RTVSPost2010Prop30
280
     1
102
RTVSPost2010PropOp30
 70
     1
102
RTVSPost2010Prop31
280
     0
102
RTVSPost2010PropOp31
 70
     1
102
RTVSPost2010Prop32
280
     0
102
RTVSPost2010PropOp32
 70
     1
102
RTVSPost2010Prop33
280
     0
102
RTVSPost2010PropOp33
 70
     1
102
RTVSPost2010Prop34
280
     0
102
RTVSPost2010PropOp34
 70
     1
102
RTVSPost2010Prop35
280
     0
102
RTVSPost2010PropOp35
 70
     1
102
RTVSPost2010Prop36
280
     0
102
RTVSPost2010PropOp36
 70
     1
102
RTVSPost2010Prop37
 90
       50
102
RTVSPost2010PropOp37
 70
     1
102
RTVSPost2010Prop38
140
0.0
102
RTVSPost2010PropOp38
 70
     1
102
RTVSPost2010Prop39
140
1.0
102
RTVSPost2010PropOp39
 70
     1
102
RTVSPost2010Prop40
 90
        0
102
RTVSPost2010PropOp40
 70
     1
102
RTVSPost2010Prop41ColorIndex
 90
       18
102
RTVSPost2010Prop41ColorRGB
 90
        0
102
RTVSPost2010PropOp41
 70
     1
102
RTVSPost2010Prop42
 90
       50
102
RTVSPost2010PropOp42
 70
     1
102
RTVSPost2010Prop43
 90
        3
102
RTVSPost2010PropOp43
 70
     1
102
RTVSPost2010Prop44ColorIndex
 90
        5
102
RTVSPost2010Prop44ColorRGB
 90
      255
102
RTVSPost2010PropOp44
 70
     1
102
RTVSPost2010Prop45
280
     0
102
RTVSPost2010PropOp45
 70
     1
102
RTVSPost2010Prop46
 90
       50
102
RTVSPost2010PropOp46
 70
     1
102
RTVSPost2010Prop47
 90
       50
102
RTVSPost2010PropOp47
 70
     1
102
RTVSPost2010Prop48
 90
       50
102
RTVSPost2010PropOp48
 70
     1
102
RTVSPost2010Prop49
280
     0
102
RTVSPost2010PropOp49
 70
     1
102
RTVSPost2010Prop50
 90
       50
102
RTVSPost2010PropOp50
 70
     1
102
RTVSPost2010Prop51ColorIndex
 90
      256
102
RTVSPost2010Prop51ColorRGB
 90
-16777216
102
RTVSPost2010PropOp51
 70
     0
102
RTVSPost2010Prop52
140
1.0
102
RTVSPost2010PropOp52
 70
     0
102
RTVSPost2010Prop53
 90
        2
102
RTVSPost2010PropOp53
 70
     1
102
RTVSPost2010Prop54
  1
strokes_ogs.tif
102
RTVSPost2010PropOp54
 70
     1
102
RTVSPost2010Prop55
280
     0
102
RTVSPost2010PropOp55
 70
     1
102
RTVSPost2010Prop56
140
1.0
102
RTVSPost2010PropOp56
 70
     1
102
RTVSPost2010Prop57
140
1.0
102
RTVSPost2010PropOp57
 70
     1
  0
XRECORD
  5
7CD
102
{ACAD_REACTORS
330
7CC
102
}
330
7CC
100
AcDbXrecord
280
     1
102
RTVSPropertyOp0
 70
     1
102
RTVSPropertyOp1
 70
     1
102
RTVSPropertyOp2
 70
     1
102
RTVSPropertyOp3
 70
     1
102
RTVSPropertyOp4
 70
     1
102
RTVSPropertyOp5
 70
     1
102
RTVSPropertyOp6
 70
     1
102
RTVSPropertyOp7
 70
     1
102
RTVSPropertyOp8
 70
     1
102
RTVSPropertyOp9
 70
     1
102
RTVSPropertyOp10
 70
     1
102
RTVSPropertyOp11
 70
     1
102
RTVSPropertyOp12
 70
     1
102
RTVSPropertyOp13
 70
     1
102
RTVSPropertyOp14
 70
     1
102
RTVSPropertyOp15
 70
     1
102
RTVSPropertyOp16
 70
     1
102
RTVSPropertyOp17
 70
     1
102
RTVSPropertyOp18
 70
     1
102
RTVSPropertyOp19
 70
     1
102
RTVSPropertyOp20
 70
     1
102
RTVSPropertyOp21
 70
     1
102
RTVSPropertyOp22
 70
     1
102
RTVSPropertyOp23
 70
     1
102
RTVSPropertyOp24
 70
     1
102
RTVSPropertyOp25
 70
     1
102
RTVSPropertyOp26
 70
     1
102
RTVSPropertyOp27
 70
     1
102
RTVSPropertyOp28
 70
     1
102
RTVSPropertyOp29
 70
     1
102
RTVSPropertyOp30
 70
     1
102
RTVSPropertyOp31
 70
     1
102
RTVSPropertyOp32
 70
     1
102
RTVSPropertyOp33
 70
     1
102
RTVSPropertyOp34
 70
     1
102
RTVSPropertyOp35
 70
     1
102
RTVSPropertyOp36
 70
     1
102
RTVSPropertyOp37
 70
     1
102
RTVSPropertyOp38
 70
     1
102
RTVSPropertyOp39
 70
     1
102
RTVSPropertyOp40
 70
     1
102
RTVSPropertyOp41
 70
     1
102
RTVSPropertyOp42
 70
     1
102
RTVSPropertyOp43
 70
     1
102
RTVSPropertyOp44
 70
     1
102
RTVSPropertyOp45
 70
     1
102
RTVSPropertyOp46
 70
     1
102
RTVSPropertyOp47
 70
     1
102
RTVSPropertyOp48
 70
     1
102
RTVSPropertyOp49
 70
     1
102
RTVSPropertyOp50
 70
     1
102
RTVSPropertyOp51
 70
     0
102
RTVSPropertyOp52
 70
     0
102
RTVSPropertyOp53
 70
     1
102
RTVSPropertyOp54
 70
     1
102
RTVSPropertyOp55
 70
     1
102
RTVSPropertyOp56
 70
     1
102
RTVSPropertyOp57
 70
     1
102
RTVSPost2010Prop28
280
     0
102
RTVSPost2010PropOp28
 70
     1
102
RTVSPost2010Prop29
280
     1
102
RTVSPost2010PropOp29
 70
     1
102
RTVSPost2010Prop30
280
     1
102
RTVSPost2010PropOp30
 70
     1
102
RTVSPost2010Prop31
280
     0
102
RTVSPost2010PropOp31
 70
     1
102
RTVSPost2010Prop32
280
     0
102
RTVSPost2010PropOp32
 70
     1
102
RTVSPost2010Prop33
280
     0
102
RTVSPost2010PropOp33
 70
     1
102
RTVSPost2010Prop34
280
     0
102
RTVSPost2010PropOp34
 70
     1
102
RTVSPost2010Prop35
280
     0
102
RTVSPost2010PropOp35
 70
     1
102
RTVSPost2010Prop36
280
     0
102
RTVSPost2010PropOp36
 70
     1
102
RTVSPost2010Prop37
 90
       50
102
RTVSPost2010PropOp37
 70
     1
102
RTVSPost2010Prop38
140
0.0
102
RTVSPost2010PropOp38
 70
     1
102
RTVSPost2010Prop39
140
1.0
102
RTVSPost2010PropOp39
 70
     1
102
RTVSPost2010Prop40
 90
        0
102
RTVSPost2010PropOp40
 70
     1
102
RTVSPost2010Prop41ColorIndex
 90
       18
102
RTVSPost2010Prop41ColorRGB
 90
        0
102
RTVSPost2010PropOp41
 70
     1
102
RTVSPost2010Prop42
 90
       50
102
RTVSPost2010PropOp42
 70
     1
102
RTVSPost2010Prop43
 90
        3
102
RTVSPost2010PropOp43
 70
     1
102
RTVSPost2010Prop44ColorIndex
 90
        5
102
RTVSPost2010Prop44ColorRGB
 90
      255
102
RTVSPost2010PropOp44
 70
     1
102
RTVSPost2010Prop45
280
     0
102
RTVSPost2010PropOp45
 70
     1
102
RTVSPost2010Prop46
 90
       50
102
RTVSPost2010PropOp46
 70
     1
102
RTVSPost2010Prop47
 90
       50
102
RTVSPost2010PropOp47
 70
     1
102
RTVSPost2010Prop48
 90
       50
102
RTVSPost2010PropOp48
 70
     1
102
RTVSPost2010Prop49
280
     0
102
RTVSPost2010PropOp49
 70
     1
102
RTVSPost2010Prop50
 90
       50
102
RTVSPost2010PropOp50
 70
     1
102
RTVSPost2010Prop51ColorIndex
 90
      256
102
RTVSPost2010Prop51ColorRGB
 90
-16777216
102
RTVSPost2010PropOp51
 70
     0
102
RTVSPost2010Prop52
140
1.0
102
RTVSPost2010PropOp52
 70
     0
102
RTVSPost2010Prop53
 90
        2
102
RTVSPost2010PropOp53
 70
     1
102
RTVSPost2010Prop54
  1
strokes_ogs.tif
102
RTVSPost2010PropOp54
 70
     1
102
RTVSPost2010Prop55
280
     0
102
RTVSPost2010PropOp55
 70
     1
102
RTVSPost2010Prop56
140
1.0
102
RTVSPost2010PropOp56
 70
     1
102
RTVSPost2010Prop57
140
1.0
102
RTVSPost2010PropOp57
 70
     1
  0
XRECORD
  5
7BD
102
{ACAD_REACTORS
330
7BC
102
}
330
7BC
100
AcDbXrecord
280
     1
102
RTVSPropertyOp0
 70
     1
102
RTVSPropertyOp1
 70
     1
102
RTVSPropertyOp2
 70
     1
102
RTVSPropertyOp3
 70
     1
102
RTVSPropertyOp4
 70
     1
102
RTVSPropertyOp5
 70
     1
102
RTVSPropertyOp6
 70
     1
102
RTVSPropertyOp7
 70
     1
102
RTVSPropertyOp8
 70
     1
102
RTVSPropertyOp9
 70
     1
102
RTVSPropertyOp10
 70
     1
102
RTVSPropertyOp11
 70
     1
102
RTVSPropertyOp12
 70
     1
102
RTVSPropertyOp13
 70
     1
102
RTVSPropertyOp14
 70
     1
102
RTVSPropertyOp15
 70
     1
102
RTVSPropertyOp16
 70
     1
102
RTVSPropertyOp17
 70
     1
102
RTVSPropertyOp18
 70
     1
102
RTVSPropertyOp19
 70
     1
102
RTVSPropertyOp20
 70
     1
102
RTVSPropertyOp21
 70
     1
102
RTVSPropertyOp22
 70
     1
102
RTVSPropertyOp23
 70
     1
102
RTVSPropertyOp24
 70
     1
102
RTVSPropertyOp25
 70
     1
102
RTVSPropertyOp26
 70
     1
102
RTVSPropertyOp27
 70
     1
102
RTVSPropertyOp28
 70
     1
102
RTVSPropertyOp29
 70
     1
102
RTVSPropertyOp30
 70
     1
102
RTVSPropertyOp31
 70
     1
102
RTVSPropertyOp32
 70
     1
102
RTVSPropertyOp33
 70
     1
102
RTVSPropertyOp34
 70
     1
102
RTVSPropertyOp35
 70
     1
102
RTVSPropertyOp36
 70
     1
102
RTVSPropertyOp37
 70
     1
102
RTVSPropertyOp38
 70
     1
102
RTVSPropertyOp39
 70
     1
102
RTVSPropertyOp40
 70
     1
102
RTVSPropertyOp41
 70
     1
102
RTVSPropertyOp42
 70
     1
102
RTVSPropertyOp43
 70
     1
102
RTVSPropertyOp44
 70
     1
102
RTVSPropertyOp45
 70
     1
102
RTVSPropertyOp46
 70
     1
102
RTVSPropertyOp47
 70
     1
102
RTVSPropertyOp48
 70
     1
102
RTVSPropertyOp49
 70
     1
102
RTVSPropertyOp50
 70
     1
102
RTVSPropertyOp51
 70
     0
102
RTVSPropertyOp52
 70
     0
102
RTVSPropertyOp53
 70
     1
102
RTVSPropertyOp54
 70
     1
102
RTVSPropertyOp55
 70
     1
102
RTVSPropertyOp56
 70
     1
102
RTVSPropertyOp57
 70
     1
102
RTVSPost2010Prop28
280
     0
102
RTVSPost2010PropOp28
 70
     1
102
RTVSPost2010Prop29
280
     1
102
RTVSPost2010PropOp29
 70
     1
102
RTVSPost2010Prop30
280
     1
102
RTVSPost2010PropOp30
 70
     1
102
RTVSPost2010Prop31
280
     0
102
RTVSPost2010PropOp31
 70
     1
102
RTVSPost2010Prop32
280
     0
102
RTVSPost2010PropOp32
 70
     1
102
RTVSPost2010Prop33
280
     0
102
RTVSPost2010PropOp33
 70
     1
102
RTVSPost2010Prop34
280
     0
102
RTVSPost2010PropOp34
 70
     1
102
RTVSPost2010Prop35
280
     0
102
RTVSPost2010PropOp35
 70
     1
102
RTVSPost2010Prop36
280
     0
102
RTVSPost2010PropOp36
 70
     1
102
RTVSPost2010Prop37
 90
       50
102
RTVSPost2010PropOp37
 70
     1
102
RTVSPost2010Prop38
140
0.0
102
RTVSPost2010PropOp38
 70
     1
102
RTVSPost2010Prop39
140
1.0
102
RTVSPost2010PropOp39
 70
     1
102
RTVSPost2010Prop40
 90
        0
102
RTVSPost2010PropOp40
 70
     1
102
RTVSPost2010Prop41ColorIndex
 90
       18
102
RTVSPost2010Prop41ColorRGB
 90
        0
102
RTVSPost2010PropOp41
 70
     1
102
RTVSPost2010Prop42
 90
       50
102
RTVSPost2010PropOp42
 70
     1
102
RTVSPost2010Prop43
 90
        3
102
RTVSPost2010PropOp43
 70
     1
102
RTVSPost2010Prop44ColorIndex
 90
        5
102
RTVSPost2010Prop44ColorRGB
 90
      255
102
RTVSPost2010PropOp44
 70
     1
102
RTVSPost2010Prop45
280
     0
102
RTVSPost2010PropOp45
 70
     1
102
RTVSPost2010Prop46
 90
       50
102
RTVSPost2010PropOp46
 70
     1
102
RTVSPost2010Prop47
 90
       50
102
RTVSPost2010PropOp47
 70
     1
102
RTVSPost2010Prop48
 90
       50
102
RTVSPost2010PropOp48
 70
     1
102
RTVSPost2010Prop49
280
     0
102
RTVSPost2010PropOp49
 70
     1
102
RTVSPost2010Prop50
 90
       50
102
RTVSPost2010PropOp50
 70
     1
102
RTVSPost2010Prop51ColorIndex
 90
      256
102
RTVSPost2010Prop51ColorRGB
 90
-16777216
102
RTVSPost2010PropOp51
 70
     0
102
RTVSPost2010Prop52
140
1.0
102
RTVSPost2010PropOp52
 70
     0
102
RTVSPost2010Prop53
 90
        2
102
RTVSPost2010PropOp53
 70
     1
102
RTVSPost2010Prop54
  1
strokes_ogs.tif
102
RTVSPost2010PropOp54
 70
     1
102
RTVSPost2010Prop55
280
     0
102
RTVSPost2010PropOp55
 70
     1
102
RTVSPost2010Prop56
140
1.0
102
RTVSPost2010PropOp56
 70
     1
102
RTVSPost2010Prop57
140
1.0
102
RTVSPost2010PropOp57
 70
     1
  0
XRECORD
  5
7AF
102
{ACAD_REACTORS
330
7AE
102
}
330
7AE
100
AcDbXrecord
280
     1
102
RTVSPropertyOp0
 70
     1
102
RTVSPropertyOp1
 70
     1
102
RTVSPropertyOp2
 70
     1
102
RTVSPropertyOp3
 70
     1
102
RTVSPropertyOp4
 70
     1
102
RTVSPropertyOp5
 70
     1
102
RTVSPropertyOp6
 70
     1
102
RTVSPropertyOp7
 70
     1
102
RTVSPropertyOp8
 70
     1
102
RTVSPropertyOp9
 70
     1
102
RTVSPropertyOp10
 70
     1
102
RTVSPropertyOp11
 70
     1
102
RTVSPropertyOp12
 70
     1
102
RTVSPropertyOp13
 70
     1
102
RTVSPropertyOp14
 70
     1
102
RTVSPropertyOp15
 70
     1
102
RTVSPropertyOp16
 70
     1
102
RTVSPropertyOp17
 70
     1
102
RTVSPropertyOp18
 70
     1
102
RTVSPropertyOp19
 70
     1
102
RTVSPropertyOp20
 70
     1
102
RTVSPropertyOp21
 70
     1
102
RTVSPropertyOp22
 70
     1
102
RTVSPropertyOp23
 70
     1
102
RTVSPropertyOp24
 70
     1
102
RTVSPropertyOp25
 70
     1
102
RTVSPropertyOp26
 70
     1
102
RTVSPropertyOp27
 70
     1
102
RTVSPropertyOp28
 70
     1
102
RTVSPropertyOp29
 70
     1
102
RTVSPropertyOp30
 70
     1
102
RTVSPropertyOp31
 70
     1
102
RTVSPropertyOp32
 70
     1
102
RTVSPropertyOp33
 70
     1
102
RTVSPropertyOp34
 70
     1
102
RTVSPropertyOp35
 70
     1
102
RTVSPropertyOp36
 70
     1
102
RTVSPropertyOp37
 70
     1
102
RTVSPropertyOp38
 70
     1
102
RTVSPropertyOp39
 70
     1
102
RTVSPropertyOp40
 70
     1
102
RTVSPropertyOp41
 70
     1
102
RTVSPropertyOp42
 70
     1
102
RTVSPropertyOp43
 70
     1
102
RTVSPropertyOp44
 70
     1
102
RTVSPropertyOp45
 70
     1
102
RTVSPropertyOp46
 70
     1
102
RTVSPropertyOp47
 70
     1
102
RTVSPropertyOp48
 70
     1
102
RTVSPropertyOp49
 70
     1
102
RTVSPropertyOp50
 70
     1
102
RTVSPropertyOp51
 70
     0
102
RTVSPropertyOp52
 70
     0
102
RTVSPropertyOp53
 70
     1
102
RTVSPropertyOp54
 70
     1
102
RTVSPropertyOp55
 70
     1
102
RTVSPropertyOp56
 70
     1
102
RTVSPropertyOp57
 70
     1
102
RTVSPost2010Prop28
280
     0
102
RTVSPost2010PropOp28
 70
     1
102
RTVSPost2010Prop29
280
     1
102
RTVSPost2010PropOp29
 70
     1
102
RTVSPost2010Prop30
280
     1
102
RTVSPost2010PropOp30
 70
     1
102
RTVSPost2010Prop31
280
     0
102
RTVSPost2010PropOp31
 70
     1
102
RTVSPost2010Prop32
280
     0
102
RTVSPost2010PropOp32
 70
     1
102
RTVSPost2010Prop33
280
     0
102
RTVSPost2010PropOp33
 70
     1
102
RTVSPost2010Prop34
280
     0
102
RTVSPost2010PropOp34
 70
     1
102
RTVSPost2010Prop35
280
     0
102
RTVSPost2010PropOp35
 70
     1
102
RTVSPost2010Prop36
280
     0
102
RTVSPost2010PropOp36
 70
     1
102
RTVSPost2010Prop37
 90
       50
102
RTVSPost2010PropOp37
 70
     1
102
RTVSPost2010Prop38
140
0.0
102
RTVSPost2010PropOp38
 70
     1
102
RTVSPost2010Prop39
140
1.0
102
RTVSPost2010PropOp39
 70
     1
102
RTVSPost2010Prop40
 90
        0
102
RTVSPost2010PropOp40
 70
     1
102
RTVSPost2010Prop41ColorIndex
 90
       18
102
RTVSPost2010Prop41ColorRGB
 90
        0
102
RTVSPost2010PropOp41
 70
     1
102
RTVSPost2010Prop42
 90
       50
102
RTVSPost2010PropOp42
 70
     1
102
RTVSPost2010Prop43
 90
        3
102
RTVSPost2010PropOp43
 70
     1
102
RTVSPost2010Prop44ColorIndex
 90
        5
102
RTVSPost2010Prop44ColorRGB
 90
      255
102
RTVSPost2010PropOp44
 70
     1
102
RTVSPost2010Prop45
280
     0
102
RTVSPost2010PropOp45
 70
     1
102
RTVSPost2010Prop46
 90
       50
102
RTVSPost2010PropOp46
 70
     1
102
RTVSPost2010Prop47
 90
       50
102
RTVSPost2010PropOp47
 70
     1
102
RTVSPost2010Prop48
 90
       50
102
RTVSPost2010PropOp48
 70
     1
102
RTVSPost2010Prop49
280
     0
102
RTVSPost2010PropOp49
 70
     1
102
RTVSPost2010Prop50
 90
       50
102
RTVSPost2010PropOp50
 70
     1
102
RTVSPost2010Prop51ColorIndex
 90
      256
102
RTVSPost2010Prop51ColorRGB
 90
-16777216
102
RTVSPost2010PropOp51
 70
     0
102
RTVSPost2010Prop52
140
1.0
102
RTVSPost2010PropOp52
 70
     0
102
RTVSPost2010Prop53
 90
        2
102
RTVSPost2010PropOp53
 70
     1
102
RTVSPost2010Prop54
  1
strokes_ogs.tif
102
RTVSPost2010PropOp54
 70
     1
102
RTVSPost2010Prop55
280
     0
102
RTVSPost2010PropOp55
 70
     1
102
RTVSPost2010Prop56
140
1.0
102
RTVSPost2010PropOp56
 70
     1
102
RTVSPost2010Prop57
140
1.0
102
RTVSPost2010PropOp57
 70
     1
  0
XRECORD
  5
7CF
102
{ACAD_REACTORS
330
7CE
102
}
330
7CE
100
AcDbXrecord
280
     1
102
RTVSPropertyOp0
 70
     1
102
RTVSPropertyOp1
 70
     1
102
RTVSPropertyOp2
 70
     1
102
RTVSPropertyOp3
 70
     1
102
RTVSPropertyOp4
 70
     1
102
RTVSPropertyOp5
 70
     1
102
RTVSPropertyOp6
 70
     1
102
RTVSPropertyOp7
 70
     1
102
RTVSPropertyOp8
 70
     1
102
RTVSPropertyOp9
 70
     1
102
RTVSPropertyOp10
 70
     1
102
RTVSPropertyOp11
 70
     1
102
RTVSPropertyOp12
 70
     1
102
RTVSPropertyOp13
 70
     1
102
RTVSPropertyOp14
 70
     1
102
RTVSPropertyOp15
 70
     1
102
RTVSPropertyOp16
 70
     1
102
RTVSPropertyOp17
 70
     1
102
RTVSPropertyOp18
 70
     1
102
RTVSPropertyOp19
 70
     1
102
RTVSPropertyOp20
 70
     1
102
RTVSPropertyOp21
 70
     1
102
RTVSPropertyOp22
 70
     1
102
RTVSPropertyOp23
 70
     1
102
RTVSPropertyOp24
 70
     1
102
RTVSPropertyOp25
 70
     1
102
RTVSPropertyOp26
 70
     1
102
RTVSPropertyOp27
 70
     1
102
RTVSPropertyOp28
 70
     1
102
RTVSPropertyOp29
 70
     1
102
RTVSPropertyOp30
 70
     1
102
RTVSPropertyOp31
 70
     1
102
RTVSPropertyOp32
 70
     1
102
RTVSPropertyOp33
 70
     1
102
RTVSPropertyOp34
 70
     1
102
RTVSPropertyOp35
 70
     1
102
RTVSPropertyOp36
 70
     1
102
RTVSPropertyOp37
 70
     1
102
RTVSPropertyOp38
 70
     1
102
RTVSPropertyOp39
 70
     1
102
RTVSPropertyOp40
 70
     1
102
RTVSPropertyOp41
 70
     1
102
RTVSPropertyOp42
 70
     1
102
RTVSPropertyOp43
 70
     1
102
RTVSPropertyOp44
 70
     1
102
RTVSPropertyOp45
 70
     1
102
RTVSPropertyOp46
 70
     1
102
RTVSPropertyOp47
 70
     1
102
RTVSPropertyOp48
 70
     1
102
RTVSPropertyOp49
 70
     1
102
RTVSPropertyOp50
 70
     1
102
RTVSPropertyOp51
 70
     0
102
RTVSPropertyOp52
 70
     0
102
RTVSPropertyOp53
 70
     1
102
RTVSPropertyOp54
 70
     1
102
RTVSPropertyOp55
 70
     1
102
RTVSPropertyOp56
 70
     1
102
RTVSPropertyOp57
 70
     1
102
RTVSPost2010Prop28
280
     0
102
RTVSPost2010PropOp28
 70
     1
102
RTVSPost2010Prop29
280
     1
102
RTVSPost2010PropOp29
 70
     1
102
RTVSPost2010Prop30
280
     1
102
RTVSPost2010PropOp30
 70
     1
102
RTVSPost2010Prop31
280
     0
102
RTVSPost2010PropOp31
 70
     1
102
RTVSPost2010Prop32
280
     0
102
RTVSPost2010PropOp32
 70
     1
102
RTVSPost2010Prop33
280
     0
102
RTVSPost2010PropOp33
 70
     1
102
RTVSPost2010Prop34
280
     0
102
RTVSPost2010PropOp34
 70
     1
102
RTVSPost2010Prop35
280
     0
102
RTVSPost2010PropOp35
 70
     1
102
RTVSPost2010Prop36
280
     0
102
RTVSPost2010PropOp36
 70
     1
102
RTVSPost2010Prop37
 90
       50
102
RTVSPost2010PropOp37
 70
     1
102
RTVSPost2010Prop38
140
0.0
102
RTVSPost2010PropOp38
 70
     1
102
RTVSPost2010Prop39
140
1.0
102
RTVSPost2010PropOp39
 70
     1
102
RTVSPost2010Prop40
 90
        0
102
RTVSPost2010PropOp40
 70
     1
102
RTVSPost2010Prop41ColorIndex
 90
       18
102
RTVSPost2010Prop41ColorRGB
 90
        0
102
RTVSPost2010PropOp41
 70
     1
102
RTVSPost2010Prop42
 90
       50
102
RTVSPost2010PropOp42
 70
     1
102
RTVSPost2010Prop43
 90
        3
102
RTVSPost2010PropOp43
 70
     1
102
RTVSPost2010Prop44ColorIndex
 90
        5
102
RTVSPost2010Prop44ColorRGB
 90
      255
102
RTVSPost2010PropOp44
 70
     1
102
RTVSPost2010Prop45
280
     0
102
RTVSPost2010PropOp45
 70
     1
102
RTVSPost2010Prop46
 90
       50
102
RTVSPost2010PropOp46
 70
     1
102
RTVSPost2010Prop47
 90
       50
102
RTVSPost2010PropOp47
 70
     1
102
RTVSPost2010Prop48
 90
       50
102
RTVSPost2010PropOp48
 70
     1
102
RTVSPost2010Prop49
280
     0
102
RTVSPost2010PropOp49
 70
     1
102
RTVSPost2010Prop50
 90
       50
102
RTVSPost2010PropOp50
 70
     1
102
RTVSPost2010Prop51ColorIndex
 90
      256
102
RTVSPost2010Prop51ColorRGB
 90
-16777216
102
RTVSPost2010PropOp51
 70
     0
102
RTVSPost2010Prop52
140
1.0
102
RTVSPost2010PropOp52
 70
     0
102
RTVSPost2010Prop53
 90
        2
102
RTVSPost2010PropOp53
 70
     1
102
RTVSPost2010Prop54
  1
strokes_ogs.tif
102
RTVSPost2010PropOp54
 70
     1
102
RTVSPost2010Prop55
280
     0
102
RTVSPost2010PropOp55
 70
     1
102
RTVSPost2010Prop56
140
1.0
102
RTVSPost2010PropOp56
 70
     1
102
RTVSPost2010Prop57
140
1.0
102
RTVSPost2010PropOp57
 70
     1
  0
ENDSEC
  0
SECTION
  2
THUMBNAILIMAGE
 90
    16364
310
28000000B4000000550000000100080000000000C43B000000000000000000000001000000010000FFFFFF000000FF0000FFFF0000FF0000FFFF0000FF000000FF00FF000000000080808000C0C0C0000000FF007F7FFF000000A5005252A50000007F003F3F7F0000004C0026264C000000260013132600003FFF007F9FFF
310
000029A5005267A500001F7F003F4F7F0000134C00262F4C000009260013172600007FFF007FBFFF000052A500527CA500003F7F003F5F7F0000264C0026394C0000132600131C260000BFFF007FDFFF00007CA5005291A500005F7F003F6F7F0000394C0026424C00001C26001321260000FFFF007FFFFF0000A5A50052A5
310
A500007F7F003F7F7F00004C4C00264C4C00002626001326260000FFBF007FFFDF0000A57C0052A59100007F5F003F7F6F00004C3900264C420000261C001326210000FF7F007FFFBF0000A5520052A57C00007F3F003F7F5F00004C2600264C39000026130013261C0000FF3F007FFF9F0000A5290052A56700007F1F003F
310
7F4F00004C1300264C2F00002609001326170000FF00007FFF7F0000A5000052A55200007F00003F7F3F00004C0000264C260000260000132613003FFF00009FFF7F0029A5000067A552001F7F00004F7F3F00134C00002F4C260009260000172613007FFF0000BFFF7F0052A500007CA552003F7F00005F7F3F00264C0000
310
394C2600132600001C261300BFFF0000DFFF7F007CA5000091A552005F7F00006F7F3F00394C0000424C26001C26000021261300FFFF0000FFFF7F00A5A50000A5A552007F7F00007F7F3F004C4C00004C4C26002626000026261300FFBF0000FFDF7F00A57C0000A59152007F5F00007F6F3F004C3900004C422600261C00
310
0026211300FF7F0000FFBF7F00A5520000A57C52007F3F00007F5F3F004C2600004C39260026130000261C1300FF3F0000FF9F7F00A5290000A56752007F1F00007F4F3F004C1300004C2F26002609000026171300FF000000FF7F7F00A5000000A55252007F0000007F3F3F004C0000004C2626002600000026131300FF00
310
3F00FF7F9F00A5002900A55267007F001F007F3F4F004C0013004C262F002600090026131700FF007F00FF7FBF00A5005200A5527C007F003F007F3F5F004C0026004C2639002600130026131C00FF00BF00FF7FDF00A5007C00A55291007F005F007F3F6F004C0039004C26420026001C0026132100FF00FF00FF7FFF00A5
310
00A500A552A5007F007F007F3F7F004C004C004C264C002600260026132600BF00FF00DF7FFF007C00A5009152A5005F007F006F3F7F0039004C0042264C001C002600211326007F00FF00BF7FFF005200A5007C52A5003F007F005F3F7F0026004C0039264C00130026001C1326003F00FF009F7FFF002900A5006752A500
310
1F007F004F3F7F0013004C002F264C000900260017132600000000002D2D2D005B5B5B0089898900B7B7B700B3B3B30000000000000000000000000000000000000000000000000000000000000000000000000000000000000000000000000000000000000000000000000000000000000000000000000000000000000000
310
00000000000000000000000000000000000000000000000000000000000000000000000000000000000000000000000000000000000000000000000000000000000000000000000000000000000000000000000000000000000000000000000000000000000000000000000000000000000000000000000000000000000000
310
00000000000000000000000000000000000000000000000000000000000000000000000000000000000000000000000000000000000000000000000000000000000000000000000000000000000000000000000000000000000000000000000000000000000000000000000000000000000000000000000000000000000000
310
00000000000000000000000000000000000000000000000000000000000000000000000000000000000000000000000000000000000000000000000000000000000000000000000000000000000000000000000000000000000000000000000000000000000000000000000000000000000000000000000000000000000000
310
00000000000000000000000000000000000000000000000000000000000000000000000000000000000000000000000000000000000000000000000000000000000000000000000000000000000000000000000000000000000000000000000000000000000000000000000100000000000000000000000000000000000000
310
00000000000001000000000000000000000002020200020200000000000000000000000000000000010000000000000100000000000000010000000000000000000000000000000000000000000000000000000000000000000000000000000000000000000000000000000000000000000000000000000000000000000000
310
00000000000000000000000000000000000000000000000000000000000003030301030303030303000000000000010000000000000303030303030103030300000000000000000202020202020000000000000000000000000000030301030303030303030303030303030303030300000000000000000000000000000000
310
00000000000000000000000000000000000000000000000000000000000000000000000000000000000000000000000000000000000000000000000000000000000000000000000000000000000000000000000300000100000000030303030303030303030303030303030300000000010000030000000000000000000000
310
00000000000000000000000000000000000300010000000000000100000000000303030003000000000000000000000000000000000000000000000000000000000000000000000000000000000000000000000000000000000000000000000000000000000000000000000000000000000000000000000000000000000000
310
00000000000000000003030301030303030303030303000001040100000303030303030303030103030300000000000000000000000000000000000000000000000000000000030301030303030303030303030303030303030300000000000000000000000000000000000000000000000000000000000000000000000000
310
00000000000000000000000000000000000000000000000000000000000000000000000000000000000000000000000000000000000000000000000000000303030103030303030300000303030303030303030300030303030303010303030000000000000000000000000000000000000000000000000000000000000103
310
03030303030300000000030300010000000000000000000000000000000000000000000000000000000000000000000000000000000000000000000000000000000000000000000000000000000000000000000000000000000000000000000000000000000000000000000000000000000003030303030303030303000303
310
00000000010000000000030003030303030303030303000000000000000000000000000000000000000000000000000000000000030303010101030300000003030000000000000000000000000000000000000000000000000000000000000000000000000000000000000000000000000000000000000000000000000000
310
00000000000000000000000000000000000000000000000000000000000000000000000000000001010101000000000300000300000000000001000000000000030300030000000001010101000000000000000000000000000000000000000000000000000000000003030303030003030300000303000000000000000000
310
00000000000000000000000000000000000000000000000000000000000000000000000000000000000000000000000000000000000000000000000000000000000000000000000000000000000000000000000000000000000000000003040300000003000303000000000000000100000000000000000300030000000304
310
03030303030300000000000000000000000000000000000000000000000000030103030303010303000003030000000000000000000000000000000000000000000000000000000000000000000000000000000000000000000000000000000000000000000000000000000000000000000000000000000000000000000000
310
00000000000000000000000000000000000000030403010101010101010101010101010101010101010101010101010101010103040301010101030100000000000000000000000000000000000000000000000003010303010303030300000303000000000000000000000000000000000000000000000000000000000000
310
00000000000000000000000000000000000000000000000000000000000000000000000000000000000000000000000000000000000000000000000000000000000000000000000003040000000000030000000000000000030303000000000000000000030000000004030303030303000000000000000000000000000000
310
00000000000000000000030103030303030303000003030000000000000000000000000000000000000000000000000000000000000000000000000000000000000000000000000000000000000000000000000000000000000000000000000000000000000000000000000000000000000000000000000000000000000304
310
00000300030000000303030303030303030303030303030000000300030300040300000000000000000000000000000000000000000000000000000000000103030303030303030300000303000000000000000000000000000000000000000000000000000000000000000000000000000000000000000000000000000000
310
00000000000000000000000000000000000000000000000000000000000000000000000000000000000000000000000000000101010103000303030303000001000000000300000000000000030303030300030101030100000000000000000000000000000000000000000000000000000000000303030101010303000000
310
03030300000000000000000000000000000000000000000000000000000000000000000000000000000000000000000000000000000000000000000000000000000000000000000000000000000000000000000000000000000000000000000000000000000000000303030303030000000003030303030300010000000000
310
00000000000003030303030300000000000000000000000000000000000000000000000000000000010301030303030303000000000301010300000000000000000000000000000000000000000000000000000000000000000000000000000000000000000000000000000000000000000000000000000000000000000000
310
00000000000000000000000000000000000000000000000000000000000000030300030000000303010103010103030100000000000100000000000003000303000000000000000000000000000000000000000000000000000000000003030303000000000100000000030303030000000000000000000000000000000000
310
00000000000000000000000000000000000000000000000000000000000000000000000000000000000000000000000000000000000000000000000000000000000000000000000000000000000000000000000003030003000001030100000303000103030000000303030103000000000300030300000000000000000000
310
00000000000000000000000000000000000000010301030000000001000000000301010300000000000000000000000000000000000000000000000000000000000000000000000000000000000000000000000000000000000000000000000000000000000000000000000000000000000000000000000000000000000000
310
00000000000000000000030300030000030303030303030300030300000101010301010300000003000303000000000000000000000000000000000000000000000303030303030303030103000000000100000000030101030000000000000000000000000000000000000000000000000000000000000000000000000000
310
00000000000000000000000000000000000000000000000000000000000000000000000000000000000000000000000000000000000000000000000000000003030300000003010003030100030300010303030303030303030100000003030300000000000000000000000000000000000000000000030000000000000303
310
01030000000001000000000301010300000000000000000000000000000000000000000000000000000000000000000000000000000000000000000000000000000000000000000000000000000000000000000000000000000000000000000000000000000000000000000000000000000000010301010101010101030301
310
01010303010101010301010101010303010101010103010000000000000000000000000000000000000000000301010101010103030303010101010101010101010103030000000000000000000000000000000000000000000000000000000000000000000000000000000000000000000000000000000000000000000000
310
00000000000000000000000000000000000000000000000000000000000000000000000000000000000003030300000003010003030100030300010101030301010103010301000003030300000000000000000000000000000000000000000000030000000000000303030300000000010000000003030303000000000000
310
00000000000000000000000000000000000000000000000000000000000000000000000000000000000000000000000000000000000000000000000000000000000000000000000000000000000000000000000000000000000000000000000303030000000303010303030303000303000103010001000103030000000303
310
03000000000000000000000000000000000000000000000303030303030303030303000000000100000000030303030000000000000000000000000000000000000000000000000000000000000000000000000000000000000000000000000000000000000000000000000000000000000000000000000000000000000000
310
00000000000000000000000000000000000000000003030003000003030300030303000003030003030303030303030100000300030300000000000000000000000000000000000000000000030303030303030301010300000000010000000003010103000000000000000000000000000000000000000000000000000000
310
00000000000000000000000000000000000000000000000000000000000000000000000000000000000000000000000000000000000000000000000000000000000000000000000000000303000300000003010100030001010301000001010303010103000000030003030000000000000000000000000000000000000000
310
00000000000000000001010103000000000100000000030101030000000000000000000000000000000000000000000000000000000000000000000000000000000000000000000000000000000000000000000000000000000000000000000000000000000000000000000000000000000000000000000000000000000000
310
03030003000000000303030303030300010000000303030303000000000300030300000000000000000000000000000000000000000000000000000000000303010300000000010000000003010103000000000000000000000000000000000000000000000000000000000000000000000000000000000000000000000000
310
00000000000000000000000000000000000000000000000000000000000000000000000000000000000000000000000000000000000303000303030300000003010300000001000000000001000000030303030003030000000000000000000000000000000000000000000000000000000000000303030000000001000000
310
00030303030000000000000000000000000000000000000000000000000000000000000000000000000000000000000000000000000000000000000000000000000000000000000000000000000000000000000000000000000000000000000000000000000000000000030003000300000303030301030303030303030303
310
03030303030000030003000300000000000000000000000000000000000000000000000000000000000000030300000000010000000003030300000000000000000000000000000000000000000000000000000000000000000000000000000000000000000000000000000000000000000000000000000000000000000000
310
00000000000000000000000000000000000000000000000000000000000000000003000303000000000000000000000001000000000000000000000003030003000000000000000000000000000000000000000000000000000000000000000003030000000001000000000303000000000000000000000000000000000000
310
00000000000000000000000000000000000000000000000000000000000000000000000000000000000000000000000000000000000000000000000000000000000000000000000000000000000000000000000000000300030003000000000000000000000100000000000000000000030003000300000000000000000000
310
00000000000000000000000000000000000000000000030300000000010000000003030000000000000000000000000000000000000000000000000000000000000000000000000000000000000000000000000000000000000000000000000000000000000000000000000000000000000000000000000000000000000000
310
00000000000000000000000003000003000300000000000000030303030300000000000000030003000003000000000000000000000000000000000000000000000000000000000000000003030000000001000000000303000000000000000000000000000000000000000000000000000000000000000000000000000000
310
00000000000000000000000000000000000000000000000000000000000000000000000000000000000000000000000000000000000000000000000000000000000300000300000300000000000003030303030000000000000300000300000300000000000000000000000000000000000000000000000000000000000000
310
00030300000000010000000003030000000000000000000000000000000000000000000000000000000000000000000000000000000000000000000000000000000000000000000000000000000000000000000000000000000000000000000000000000000000000000000000000000000000000000030000000303030303
310
00000000030303030300000000030303030300000003000000000000000000000000000000000000000000000000000000000000000003030000000001000000000303000000000000000000000000000000000000000000000000000000000000000000000000000000000000000000000000000000000000000000000000
310
00000000000000000000000000000000000000000000000000000000000000000000000000000000000000000003000000000003000303030000000100000003030300030000000000030000000000000000000000000000000000000000000000000000000000000000000303000000000100000000030300000000000000
310
00000000000000000000000000000000000000000000000000000000000000000000000000000000000000000000000000000000000000000000000000000000000000000000000000000000000000000000000000000000000000000000000000000300000000000003000000030303010303030000000300000000000003
310
00000000000000000000000000000000000000000000000000000000000000000003030000000001000000000303000000000000000000000000000000000000000000000000000000000000000000000000000000000000000000000000000000000000000000000000000000000000000000000000000000000000000000
310
00000000000000000000000000000000000000000000000003030303010303000303030303000100030303030300030303030303030000000000000000000000000000000000000000000000000000000000000000000303000000000100000000030300000000000000000000000000000000000000000000000000000000
310
00000000000000000000000000000000000000000000000000000000000000000000000000000000000000000000000000000000000000000000000000000000000000000000000000000000000000000303030003030303030303030303030303030300000000000000000000000000000000000000000000000000000000
310
00000000000000000000000003030303030303030303030303000000000000000000000000000000000000000000000000000000000000000000000000000000000000000000000000000000000000000000000000000000000000000000000000000000000000000000000000000000000000000000000000000000000000
310
00000000000000000000000000000000030303000000000000000000000000000000000000000000000000000000000000000000000000000000000000000000000000000000030303030000000000000000000000000000000000000000000000000000000000000000000000000000000000000000000000000000000000
310
00000000000000000000000000000000000000000000000000000000000000000000000000000000000000000000000000000000000000000000000000000000000000000001010100000000000000000000000000000000000000000000000000000000000000000000000000000000000000000000000000000103010301
310
00000000000000000000000000000000000000000000000000000000000000000000000000000000000000000000000000000000000000000000000000000000000000000000000000000000000000000000000000000000000000000000000000000000000000000000000000000000000000000000000000000003000000
310
00000000000000000000000000000000000000000000000000000000000000000000000000000000000000000000000000030303030000000000000000000000000000000000000000000000000000000000000000000000000000000000000000000000000000000000000000000000000000000000000000000000000000
310
00000000000000000000000000000000000000000000000000000000000000000000000000000000000000000000000000030000000000000000000000000000000000000000000000000000000000000000000000000000000000000000000000000000000000030300000000000000000000000000000000000000000000
310
00000000000000000000000000000000000000000000000000000000000000000000000000000000000000000000000000000000000000000000000000000000000000000000000000000000000000000000000000000000000000000000000000000000000000000000000000000000000000000000000000000000000000
310
00000000000000000000000000000000000000000000000000000000000000000000000000000000000000000000000000000000000000000000000000000000000000000000000000000000000000000000000000000000000000000000000000000000000000000000000000000000000000000000000000000000000000
310
00000000000000000000000000000000000000000000000000000000000000000000000000000000000000000000000000000000000000000000000000000000000000000000000000000000000000000000000000000000000000000000000000000000000000000000000000000000000000000000000000000000000000
310
00000000000000000000000000000000000000000000000000000000000000000000000000000000000000000000000000000000000000000000000000000000000000000000000000000000000000000000000000000000000000000000000000000000000000000000000000000000000000000000000000000000000000
310
00000000000000000000000000000000000000000000000000000000000000000000000000000000000000000000000000000000000000000000000000000000000000000000000000000000000000000000000000000000000000000000000000000000000000000000000000000000000000000000000000000000000000
310
00000000000000000000000000000000000000000000000000000000000000000000000000000000000000000000000000000000000000000000000000000000000000000000000000000000000000000000000000000000000000000000000000000000000000000000000000000000000000000000000000000000000000
310
00000000000000000000000000000000000000000000000000000000000000000000000000000000000000000000000000000000000000000000000000000000000000000000000000000000000000000000000000000000000000000000000000000000000000000000000000000000000000000000000000000000000000
310
00000000000000000000000000000000000000000000000000000000000000000000000000000000000000000000000000000000000000000000000000000000000000000000000000000000000000000000000000000000000000000000000000000000000000000000000000000000000000000000000000000000000000
310
00000000000000000000000000000000000000000000000000000000000000000000000000000000000000000000000000000000000000000000000000000000000000000000000000000000000000000000000000000000000000000000000000000000000000000000000000000000000000000000000000000000000000
310
00000000000000000000000000000000000000000000000000000000000000000000000000000000000000000000000000000000000000000000000000000000000000000000000000000000000000000000000000000000000000000000000000000000000000000000000000000000000000000000000000000000000000
310
00000000000000000000000000000000000000000000000000000000000000000000000000000000000000000000000000000000000000000000000000000000000000000000000000000000000000000000000000000000000000000000000000000000000000000000000000000000000000000000000000000000000000
310
00000000000000000000000000000000000000000000000000000000000000000000000000000000000000000000000000000000000000000000000000000000000000000000000000000000000000000000000000000000000000000000000000000000000000000000000000000000000000000000000000000000000000
310
00000000000000000000000000000000000000000000000000000000000000000000000000000000000000000000000000000000000000000000000000000000000000000000000000000000000000000000000000000000000000000000000000000000000000000000000000000000000000000000000000000000000000
310
00000000000000000000000000000000000000000000000000000000000000000000000000000000000000000000000000000000000000000000000000000000000000000000000000000000000000000000000000000000000000000000000000000000000000000000000000000000000000000000000000000000000000
310
00000000000000000000000000000000000000000000000000000000000000000000000000000000000000000000000000000000000000000000000000000000000000000000000000000000000000000000000000000000000000000000000000000000000000000000000000000000000000000000000000000000000000
310
00000000000000000000000000000000000000000000000000000000000000000000000000000000000000000000000000000000000000000000000000000000000000000000000000000000000000000000000000000000000000000000000000000000000000000000000000000000000000000000000000000000000000
310
00000000000000000000000000000000000000000000000000000000000000000000000000000000000000000000000000000000000000000000000000000000000000000000000000000000000000000000000000000000000000000000000000000000000000000000000000000000000000000000000000000000000000
310
00000000000000000000000000000000000000000000000000000000000000000000000000000000000000000000000000000000000000000000000000000000000000000000000000000000000000000000000000000000000000000000000000000000000000000000000000000000000000000000000000000000000000
310
00000000000000000000000000000000000000000000000000000000000000000000000000000000000000000000000000000000000000000000000000000000000000000000000000000000000000000000000000000000000000000000000000000000000000000000000000000000000000000000000000000000000000
310
00000000000000000000000000000000000000000000000000000000000000000000000000000000000000000000000000000000000000000000000000000000000000000000000000000000000000000000000000000000000000000000000000000000000000000000000000000000000000000000000000000000000000
310
00000000000000000000000000000000000000000000000000000000000000000000000000000000000000000000000000000000000000000000000000000000000000000000000000000000000000000000000000000000000000000000000000000000000000000000000000000000000000000000000000000000000000
310
00000000000000000000000000000000000000000000000000000000000000000000000000000000000000000000000000000000000000000000000000000000000000000000000000000000000000000000000000000000000000000000000000000000000000000000000000000000000000000000000000000000000000
310
00000001000000000000000000000000000000000000000000000000000000000000000000000000000000000000000000000000000000000000000000000000000000000000000000000000000000000000000000000000000000000000000000000000000000000000000000000000000000000000000000000000000000
310
00000000000000000000000000000000000000000000000000000000000000000000000000000000000000000000000000000000000003030303030000000000000000000000000000000000000000000000000000000000000000000000000000000000000000000000000000000000000000000000000000000000000000
310
00000000000000000000000000000000000000000000000000000000000000000000000000000000000000000000000000000000000000000000000000000000000000000000000000000000000000000000000000000000000000000000000000000000000000000000000300030303000000000000000000000000000000
310
00000000000000000000000000000000000000000000000000000000000000000000000000000000000000000000000000000000000000000000000000000000000000000000000000000000000000000000000000000000000000000000000000000000000000000000000000000000000000000000000000000000000000
310
00000000000000000000000000000000000000000000000000000000000000000003000303030000000000000000000000000000000000000000000000000000000000000000000000000000000000000000000000000000000000000000000000000000000000000000000000000000000000000000000000000000000000
310
00000000000000000000000000000000000000000000000000000000000000000000000000000000000000000000000000000000000000000000000000000000000000000000000000000000000000000000000000000300030303000000000000000000000000000000000000000000000000000000000000000000000000
310
00000000000000000000000000000000000000000000000000000000000000000000000000000000000000000000000000000000000000000000000000000000000000000000000000000000000000000000000000000000000000000000000000000000000000000000000000000000000000000000000000000000000000
310
00000000000000000000000003000303030000000000000000000000000000000000000000000000000000000000000000000000000000000000000000000000000000000000000000000000000000000000000000000000000000000000000000000000000000000000000000000000000000000000000000000000000000
310
00000000000000000000000000000000000000000000000000000000000000000000000000000000000000000000000000000000000000000303030303030303030300030303000000000000000000000303030303030303030000000000000000000000000000000000000000000000000000000000000000000000000000
310
00000000000000000000000000000000000000000000000000000000000000000000000000000000000000000000000000000000000000000000000000000000000000000000000000000000000000000000000000000000000000000000000000000000000000000000000000030000010000000003030003030300000000
310
00000000000003000000000100000300000000000000000000000000000000000000000000000000000000000000000000000000000000000000000000000000000000000000000000000000000000000000000000000000000000000000000000000000000000000000000000000000000000000000000000000000000000
310
00000000000000000000000000000000000000000000000000000000000000000000000303010303010301030303030303030103030301030303030301030101010103030000000000000000000000000000000000000000000000000000000000000000000000000000000000000000000000000000000000000000000000
310
00000000000000000000000000000000000000000000000000000000000000000000000000000000000000000000000000000000000000000000000000000000000000000000000000000000000000000000000000000000030300030300040104040404040404010404040104040404040104000301000303000000000000
310
00000000000000000000000000000000000000000000000000000000000000000000000000000000000000000000000000000000000000000000000000000000000000000000000000000000000000000000000000000000000000000000000000000000000000000000000000000000000000000000000000000000000000
310
00000000000000000000000000030303030103030301030303010303030101030301030301030301030303010303030300000000000000000000000000000000000000000000000000000000000000000000000000000000000000000000000000000000000000000000000000000000000000000000000000000000000000
310
00000000000000000000000000000000000000000000000000000000000000000000000000000000000000000000000000000000000000000000000000000000000101010103030303030303030301030303030103030303030103030303030303030101010100000000000000000000000000000000000000000000000000
310
00000000000000000000000000000000000000000000000000000000000000000000000000000000000000000000000000000000000000000000000000000000000000000000000000000000000000000000000000000000000000000000000000000000000000000000000000000000000000000000000304000000000000
310
00000000010000000001000000000001000000000000000000040303030303030000000000000000000000000000000000000000000000000000000000000000000000000000000000000000000000000000000000000000000000000000000000000000000000000000000000000000000000000000000000000000000000
310
00000000000000000000000000000000000000000000000000000000000000000000000000000000000000000003040000000000000000000001000000000100000000000100000000000000000004030303030303000000000000000000000000000000000000000000000000000000000000000000000000000000000000
310
00000000000000000000000000000000000000000000000000000000000000000000000000000000000000000000000000000000000000000000000000000000000000000000000000000000000000000000000000000000000000000000000000000301010101010101010101010101010101030101010101010101010101
310
01010101010303030303030100000000000000000000000000000000000000000000000000000000000000000000000000000000000000000000000000000000000000000000000000000000000000000000000000000000000000000000000000000000000000000000000000000000000000000000000000000000000000
310
00000000000000000000000000000000000000000000000003040000000003030300000001000000030303000000000100000000000000000004030303030303000000000000000000000000000000000000000000000000000000000000000000000000000000000000000000000000000000000000000000000000000000
310
00000000000000000000000000000000000000000000000000000000000000000000000000000000000000000000000000000000000000000000000000000000000000000000000000000000010101010101010301030101010101010103030301010101010101010101010101010101010000000000000000000000000000
310
00000000000000000000000000000000000000000000000000000000000000000000000000000000000000000000000000000000000000000000000000000000000000000000000000000000000000000000000000000000000000000000000000000000000000000000000000000000000000000000000000000000000000
310
00000003030000000003030300000001000000030303000000000100000000000000000003030000000000000000000000000000000000000000000000000000000000000000000000000000000000000000000000000000000000000000000000000000000000000000000000000000000000000000000000000000000000
310
00000000000000000000000000000000000000000000000000000000000000000000000000000000000000000000000000000000000000000003000000000000000000000100000003030300000000010000000000000000000300000000000000000000000000000000000000000000000000000000000000000000000000
310
00000000000000000000000000000000000000000000000000000000000000000000000000000000000000000000000000000000000000000000000000000000000000000000000000000000000000000000000000000000000000000000000000000000000000000000000000000300000000000000000000010000000001
310
00000000000100000000000000000003000000000000000000000000000000000000000000000000000000000000000000000000000000000000000000000000000000000000000000000000000000000000000000000000000000000000000000000000000000000000000000000000000000000000000000000000000000
310
00000000000000000000000000000000000000000000000000000000000000000000000003000000000000000000000100000000010000000000010000000000000000000300000000000000000000000000000000000000000000000000000000000000000000000000000000000000000000000000000000000000000000
310
00000000000000000000000000000000000000000000000000000000000000000000000000000000000000000000000000000000000000000000000000000000000000000000000000000000000000000000000000000000000304040404040404040404010404040404040404040401040404040404040404030000000000
310
00000000000000000000000000000000000000000000000000000000000000000000000000000000000000000000000000000000000000000000000000000000000000000000000000000000000000000000000000000000000000000000000000000000000000000000000000000000000000000000000000000000000000
310
00000000000000000000000000000003030303030303010303030103030301030303010303010303010303030303030300000000000000000000000000000000000000000000000000000000000000000000000000000000000000000000000000000000000000000000000000000000000000000000000000000000000000
310
00000000000000000000000000000000000000000000000000000000000000000000000000000000000000000000000000000000000000000000000000000000000000000303010101010303030404030304040103030303040303040401030103010103030000000000000000000000000000000000000000000000000000
310
00000000000000000000000000000000000000000000000000000000000000000000000000000000000000000000000000000000000000000000000000000000000000000000000000000000000000000000000000000000000000000000000000000000000000000000000000000000000000000000000000030000010300
310
00030300000303000001030003030003030003010000030100000300000000000000000000000000000000000000000000000000000000000000000000000000000000000000000000000000000000000000000000000000000000000000000000000000000000000000000000000000000000000000000000000000000000
310
00000000000000000000000000000000000000000000000000000000000000000000000000000000000000000000000303030303030303030000000000000000000000000000000303030303010303030000000000000000000000000000000000000000000000000000000000000000000000000000000000000000000000
310
00000000000000000000000000000000000000000000000000000000000000000000000000000000000000000000000000000000000000000000000000000000000000000000000000000000000000000000000000000000000000000000000000000000000000000000000000000000000000000000000000000000000000
310
00000000000000000000000000000000000000000000000000000000000000000000000000000000000000000000000000000000000000000000000000000000000000000000000000000000000000000000000000000000000000000000000000000000000000000000000000000000000000000000000000000000000000
310
00000000000000000000000000000000000000000000000000000000000000000000000000000000000000000000000000000000000000000000000000000000000000000000000000000000000000000000000000000000000000000000000000000000000000000000000000000000000000000000000000000000000000
310
00000000000000000000000000000000000000000000000000000000000000000000000000000000000000000000000000000000000000000000000000000000000000000000000000000000000000000000000000000000000000000000000000000000000000000000000000000000000000000000000000000000000000
310
000000000000000000000000000000000000000000000000000000000000000000000000000000000000000000000000000000000000000000000000000000000000000000000000000000000000000000000000000000000000000000000000000000000000000000000000
  0
ENDSEC
  0
EOF
