  0
SECTION
  2
HEADER
  9
$ACADVER
  1
AC1015
  9
$ACADMAINTVER
 70
     6
  9
$DWGCODEPAGE
  3
ANSI_932
  9
$INSBASE
 10
3317.288936485714
 20
2479.48433400707
 30
0.0
  9
$EXTMIN
 10
529.4815596442688
 20
42.37419538937957
 30
0.0
  9
$EXTMAX
 10
2894.862087784649
 20
2069.001987628434
 30
0.0
  9
$LIMMIN
 10
0.0
 20
0.0
  9
$LIMMAX
 10
816.5000000000001
 20
565.0
  9
$ORTHOMODE
 70
     1
  9
$REGENMODE
 70
     1
  9
$FILLMODE
 70
     1
  9
$QTEXTMODE
 70
     0
  9
$MIRRTEXT
 70
     1
  9
$LTSCALE
 40
20.0
  9
$ATTMODE
 70
     1
  9
$TEXTSIZE
 40
21.0
  9
$TRACEWID
 40
0.05
  9
$TEXTSTYLE
  7
KANJI
  9
$CLAYER
  8
2
  9
$CELTYPE
  6
BYLAYER
  9
$CECOLOR
 62
   256
  9
$CELTSCALE
 40
1.0
  9
$DISPSILH
 70
     0
  9
$DIMSCALE
 40
8.0
  9
$DIMASZ
 40
2.0
  9
$DIMEXO
 40
0.5
  9
$DIMDLI
 40
0.0
  9
$DIMRND
 40
0.0
  9
$DIMDLE
 40
0.0
  9
$DIMEXE
 40
1.0
  9
$DIMTP
 40
0.0
  9
$DIMTM
 40
0.0
  9
$DIMTXT
 40
3.0
  9
$DIMCEN
 40
0.09
  9
$DIMTSZ
 40
0.0
  9
$DIMTOL
 70
     0
  9
$DIMLIM
 70
     0
  9
$DIMTIH
 70
     0
  9
$DIMTOH
 70
     0
  9
$DIMSE1
 70
     0
  9
$DIMSE2
 70
     0
  9
$DIMTAD
 70
     0
  9
$DIMZIN
 70
     8
  9
$DIMBLK
  1

  9
$DIMASO
 70
     0
  9
$DIMSHO
 70
     0
  9
$DIMPOST
  1

  9
$DIMAPOST
  1

  9
$DIMALT
 70
     0
  9
$DIMALTD
 70
     2
  9
$DIMALTF
 40
25.4
  9
$DIMLFAC
 40
1.0
  9
$DIMTOFL
 70
     1
  9
$DIMTVP
 40
1.0
  9
$DIMTIX
 70
     1
  9
$DIMSOXD
 70
     1
  9
$DIMSAH
 70
     0
  9
$DIMBLK1
  1

  9
$DIMBLK2
  1

  9
$DIMSTYLE
  2
STANDARD
  9
$DIMCLRD
 70
   256
  9
$DIMCLRE
 70
   256
  9
$DIMCLRT
 70
   256
  9
$DIMTFAC
 40
1.0
  9
$DIMGAP
 40
0.09
  9
$DIMJUST
 70
     0
  9
$DIMSD1
 70
     0
  9
$DIMSD2
 70
     0
  9
$DIMTOLJ
 70
     1
  9
$DIMTZIN
 70
     0
  9
$DIMALTZ
 70
     0
  9
$DIMALTTZ
 70
     0
  9
$DIMUPT
 70
     0
  9
$DIMDEC
 70
     1
  9
$DIMTDEC
 70
     4
  9
$DIMALTU
 70
     2
  9
$DIMALTTD
 70
     2
  9
$DIMTXSTY
  7
STANDARD
  9
$DIMAUNIT
 70
     0
  9
$DIMADEC
 70
     0
  9
$DIMALTRND
 40
0.0
  9
$DIMAZIN
 70
     0
  9
$DIMDSEP
 70
    46
  9
$DIMATFIT
 70
     3
  9
$DIMFRAC
 70
     0
  9
$DIMLDRBLK
  1

  9
$DIMLUNIT
 70
     2
  9
$DIMLWD
 70
    -2
  9
$DIMLWE
 70
    -2
  9
$DIMTMOVE
 70
     0
  9
$LUNITS
 70
     2
  9
$LUPREC
 70
     3
  9
$SKETCHINC
 40
0.1
  9
$FILLETRAD
 40
1.0
  9
$AUNITS
 70
     0
  9
$AUPREC
 70
     3
  9
$MENU
  1
C:\R13\WIN\SUPPORT\ACADFULL
  9
$ELEVATION
 40
0.0
  9
$PELEVATION
 40
0.0
  9
$THICKNESS
 40
0.0
  9
$LIMCHECK
 70
     0
  9
$CHAMFERA
 40
0.0
  9
$CHAMFERB
 40
0.0
  9
$CHAMFERC
 40
0.0
  9
$CHAMFERD
 40
0.0
  9
$SKPOLY
 70
     0
  9
$TDCREATE
 40
2449813.131805555
  9
$TDUCREATE
 40
2449812.756805555
  9
$TDUPDATE
 40
2458114.731347257
  9
$TDUUPDATE
 40
2458114.356347257
  9
$TDINDWG
 40
1.3121372454
  9
$TDUSRTIMER
 40
1.3121370486
  9
$USRTIMER
 70
     1
  9
$ANGBASE
 50
0.0
  9
$ANGDIR
 70
     0
  9
$PDMODE
 70
     0
  9
$PDSIZE
 40
0.0
  9
$PLINEWID
 40
0.0
  9
$SPLFRAME
 70
     0
  9
$SPLINETYPE
 70
     6
  9
$SPLINESEGS
 70
     8
  9
$HANDSEED
  5
765
  9
$SURFTAB1
 70
     6
  9
$SURFTAB2
 70
     6
  9
$SURFTYPE
 70
     6
  9
$SURFU
 70
     6
  9
$SURFV
 70
     6
  9
$UCSBASE
  2

  9
$UCSNAME
  2

  9
$UCSORG
 10
0.0
 20
0.0
 30
0.0
  9
$UCSXDIR
 10
1.0
 20
0.0
 30
0.0
  9
$UCSYDIR
 10
0.0
 20
1.0
 30
0.0
  9
$UCSORTHOREF
  2

  9
$UCSORTHOVIEW
 70
     0
  9
$UCSORGTOP
 10
0.0
 20
0.0
 30
0.0
  9
$UCSORGBOTTOM
 10
0.0
 20
0.0
 30
0.0
  9
$UCSORGLEFT
 10
0.0
 20
0.0
 30
0.0
  9
$UCSORGRIGHT
 10
0.0
 20
0.0
 30
0.0
  9
$UCSORGFRONT
 10
0.0
 20
0.0
 30
0.0
  9
$UCSORGBACK
 10
0.0
 20
0.0
 30
0.0
  9
$PUCSBASE
  2

  9
$PUCSNAME
  2

  9
$PUCSORG
 10
0.0
 20
0.0
 30
0.0
  9
$PUCSXDIR
 10
1.0
 20
0.0
 30
0.0
  9
$PUCSYDIR
 10
0.0
 20
1.0
 30
0.0
  9
$PUCSORTHOREF
  2

  9
$PUCSORTHOVIEW
 70
     0
  9
$PUCSORGTOP
 10
0.0
 20
0.0
 30
0.0
  9
$PUCSORGBOTTOM
 10
0.0
 20
0.0
 30
0.0
  9
$PUCSORGLEFT
 10
0.0
 20
0.0
 30
0.0
  9
$PUCSORGRIGHT
 10
0.0
 20
0.0
 30
0.0
  9
$PUCSORGFRONT
 10
0.0
 20
0.0
 30
0.0
  9
$PUCSORGBACK
 10
0.0
 20
0.0
 30
0.0
  9
$USERI1
 70
     0
  9
$USERI2
 70
     0
  9
$USERI3
 70
     0
  9
$USERI4
 70
     0
  9
$USERI5
 70
     0
  9
$USERR1
 40
0.0
  9
$USERR2
 40
0.0
  9
$USERR3
 40
0.0
  9
$USERR4
 40
2448925.372986111
  9
$USERR5
 40
0.04166667
  9
$WORLDVIEW
 70
     1
  9
$SHADEDGE
 70
     3
  9
$SHADEDIF
 70
    70
  9
$TILEMODE
 70
     1
  9
$MAXACTVP
 70
    16
  9
$PINSBASE
 10
0.0
 20
0.0
 30
0.0
  9
$PLIMCHECK
 70
     0
  9
$PEXTMIN
 10
1000000000000000E+20
 20
1000000000000000E+20
 30
1000000000000000E+20
  9
$PEXTMAX
 10
-1000000000000000E+20
 20
-1000000000000000E+20
 30
-1000000000000000E+20
  9
$PLIMMIN
 10
0.0
 20
0.0
  9
$PLIMMAX
 10
12.0
 20
9.0
  9
$UNITMODE
 70
     0
  9
$VISRETAIN
 70
     0
  9
$PLINEGEN
 70
     0
  9
$PSLTSCALE
 70
     0
  9
$TREEDEPTH
 70
  3020
  9
$CMLSTYLE
  2
STANDARD
  9
$CMLJUST
 70
     0
  9
$CMLSCALE
 40
1.0
  9
$PROXYGRAPHICS
 70
     1
  9
$MEASUREMENT
 70
     0
  9
$CELWEIGHT
370
    -1
  9
$ENDCAPS
280
     0
  9
$JOINSTYLE
280
     0
  9
$LWDISPLAY
290
     0
  9
$INSUNITS
 70
     0
  9
$HYPERLINKBASE
  1

  9
$STYLESHEET
  1
monochrome.ctb
  9
$XEDIT
290
     1
  9
$CEPSNTYPE
380
     0
  9
$PSTYLEMODE
290
     1
  9
$FINGERPRINTGUID
  2
{07528633-0641-4FB2-9331-EE77C6B48313}
  9
$VERSIONGUID
  2
{24E79080-B05A-4593-A4A5-E7A641596B18}
  9
$EXTNAMES
290
     1
  9
$PSVPSCALE
 40
0.0
  9
$OLESTARTUP
290
     0
  0
ENDSEC
  0
SECTION
  2
CLASSES
  0
CLASS
  1
ACDBDICTIONARYWDFLT
  2
AcDbDictionaryWithDefault
  3
ObjectDBX Classes
 90
        0
280
     0
281
     0
  0
CLASS
  1
MATERIAL
  2
AcDbMaterial
  3
ObjectDBX Classes
 90
     1153
280
     0
281
     0
  0
CLASS
  1
SORTENTSTABLE
  2
AcDbSortentsTable
  3
ObjectDBX Classes
 90
        0
280
     0
281
     0
  0
CLASS
  1
SCALE
  2
AcDbScale
  3
ObjectDBX Classes
 90
     1153
280
     0
281
     0
  0
CLASS
  1
DICTIONARYVAR
  2
AcDbDictionaryVar
  3
ObjectDBX Classes
 90
        0
280
     0
281
     0
  0
CLASS
  1
VISUALSTYLE
  2
AcDbVisualStyle
  3
ObjectDBX Classes
 90
     4095
280
     0
281
     0
  0
CLASS
  1
MLEADERSTYLE
  2
AcDbMLeaderStyle
  3
ACDB_MLEADERSTYLE_CLASS
 90
     4095
280
     0
281
     0
  0
CLASS
  1
ACDBPLACEHOLDER
  2
AcDbPlaceHolder
  3
ObjectDBX Classes
 90
        0
280
     0
281
     0
  0
CLASS
  1
LAYOUT
  2
AcDbLayout
  3
ObjectDBX Classes
 90
        0
280
     0
281
     0
  0
ENDSEC
  0
SECTION
  2
TABLES
  0
TABLE
  2
VPORT
  5
25
102
{ACAD_XDICTIONARY
360
72B
102
}
330
0
100
AcDbSymbolTable
 70
     2
  0
VPORT
  5
2B
330
25
100
AcDbSymbolTableRecord
100
AcDbViewportTableRecord
  2
*Active
 70
     0
 10
0.0
 20
0.0
 11
1.0
 21
1.0
 12
1932.961597587875
 22
1022.721946067854
 13
0.0
 23
0.0
 14
1.0
 24
1.0
 15
50.0
 25
50.0
 16
0.0
 26
0.0
 36
1.0
 17
0.0
 27
0.0
 37
0.0
 40
2158.599149938
 41
1.827160493827161
 42
50.0
 43
0.0
 44
0.0
 50
0.0
 51
0.0
 71
     0
 72
  5000
 73
     1
 74
     0
 75
     0
 76
     0
 77
     0
 78
     0
281
     0
 65
     1
110
0.0
120
0.0
130
0.0
111
1.0
121
0.0
131
0.0
112
0.0
122
1.0
132
0.0
 79
     0
146
0.0
  0
ENDTAB
  0
TABLE
  2
LTYPE
  5
9
330
0
100
AcDbSymbolTable
 70
     2
  0
LTYPE
  5
A
330
9
100
AcDbSymbolTableRecord
100
AcDbLinetypeTableRecord
  2
BYBLOCK
 70
     0
  3

 72
    65
 73
     0
 40
0.0
  0
LTYPE
  5
B
330
9
100
AcDbSymbolTableRecord
100
AcDbLinetypeTableRecord
  2
BYLAYER
 70
     0
  3

 72
    65
 73
     0
 40
0.0
  0
LTYPE
  5
8
330
9
100
AcDbSymbolTableRecord
100
AcDbLinetypeTableRecord
  2
CONTINUOUS
 70
     0
  3
Solid line
 72
    65
 73
     0
 40
0.0
  0
LTYPE
  5
7B
330
9
100
AcDbSymbolTableRecord
100
AcDbLinetypeTableRecord
  2
CENTER
 70
     0
  3
____ _ ____ _ ____ _ ____ _ ____ _ ____ _ ____
 72
    65
 73
     4
 40
2.0
 49
1.25
 74
     0
 49
-0.25
 74
     0
 49
0.25
 74
     0
 49
-0.25
 74
     0
  0
ENDTAB
  0
TABLE
  2
LAYER
  5
2
330
0
100
AcDbSymbolTable
 70
     9
  0
LAYER
  5
19
330
2
100
AcDbSymbolTableRecord
100
AcDbLayerTableRecord
  2
0
 70
     0
 62
     7
  6
CONTINUOUS
370
    -3
390
3
  0
LAYER
  5
507
330
2
100
AcDbSymbolTableRecord
100
AcDbLayerTableRecord
  2
1
 70
     0
 62
     9
  6
CONTINUOUS
370
    -3
390
3
  0
LAYER
  5
1
330
2
100
AcDbSymbolTableRecord
100
AcDbLayerTableRecord
  2
2
 70
     0
 62
     4
  6
CONTINUOUS
370
    -3
390
3
  0
LAYER
  5
72
330
2
100
AcDbSymbolTableRecord
100
AcDbLayerTableRecord
  2
4
 70
     0
 62
     3
  6
CONTINUOUS
370
    -3
390
3
  0
LAYER
  5
7A
330
2
100
AcDbSymbolTableRecord
100
AcDbLayerTableRecord
  2
L-CENTER
 70
     0
 62
     1
  6
CENTER
370
    -3
390
3
  0
LAYER
  5
81
330
2
100
AcDbSymbolTableRecord
100
AcDbLayerTableRecord
  2
3
 70
     0
 62
     2
  6
CONTINUOUS
370
    -3
390
3
  0
LAYER
  5
501
330
2
100
AcDbSymbolTableRecord
100
AcDbLayerTableRecord
  2
5
 70
     0
 62
     6
  6
CONTINUOUS
370
    -3
390
3
  0
LAYER
  5
6DD
330
2
100
AcDbSymbolTableRecord
100
AcDbLayerTableRecord
  2
Defpoints
 70
     0
 62
     7
  6
CONTINUOUS
290
     0
370
    -3
390
3
  0
ENDTAB
  0
TABLE
  2
STYLE
  5
D
330
0
100
AcDbSymbolTable
 70
     2
  0
STYLE
  5
11
330
D
100
AcDbSymbolTableRecord
100
AcDbTextStyleTableRecord
  2
STANDARD
 70
     0
 40
0.0
 41
1.0
 50
0.0
 71
     0
 42
12.6
  3
TXT
  4

  0
STYLE
  5
C
330
D
100
AcDbSymbolTableRecord
100
AcDbTextStyleTableRecord
  2
KANJI
 70
     0
 40
0.0
 41
1.0
 50
0.0
 71
     0
 42
21.0
  3
TXT
  4
BIGFONT
  0
ENDTAB
  0
TABLE
  2
VIEW
  5
23
330
0
100
AcDbSymbolTable
 70
     0
  0
ENDTAB
  0
TABLE
  2
UCS
  5
24
330
0
100
AcDbSymbolTable
 70
     0
  0
ENDTAB
  0
TABLE
  2
APPID
  5
1E
330
0
100
AcDbSymbolTable
 70
     4
  0
APPID
  5
2A
330
1E
100
AcDbSymbolTableRecord
100
AcDbRegAppTableRecord
  2
ACAD
 70
     0
  0
APPID
  5
1D
330
1E
100
AcDbSymbolTableRecord
100
AcDbRegAppTableRecord
  2
ACAD_PSEXT
 70
     0
  0
APPID
  5
6DC
330
1E
100
AcDbSymbolTableRecord
100
AcDbRegAppTableRecord
  2
ACAD_MLEADERVER
 70
     0
  0
ENDTAB
  0
TABLE
  2
DIMSTYLE
  5
10
330
0
100
AcDbSymbolTable
 70
     1
100
AcDbDimStyleTable
  0
DIMSTYLE
105
F
330
10
100
AcDbSymbolTableRecord
100
AcDbDimStyleTableRecord
  2
STANDARD
 70
     0
178
     0
340
11
  0
ENDTAB
  0
TABLE
  2
BLOCK_RECORD
  5
14
330
0
100
AcDbSymbolTable
 70
     0
  0
BLOCK_RECORD
  5
15
102
{ACAD_XDICTIONARY
360
16
102
}
330
14
100
AcDbSymbolTableRecord
100
AcDbBlockTableRecord
  2
*MODEL_SPACE
340
1B
  0
BLOCK_RECORD
  5
1F
330
14
100
AcDbSymbolTableRecord
100
AcDbBlockTableRecord
  2
*PAPER_SPACE
340
22
  0
ENDTAB
  0
ENDSEC
  0
SECTION
  2
BLOCKS
  0
BLOCK
  5
18
330
15
100
AcDbEntity
  8
0
100
AcDbBlockBegin
  2
*MODEL_SPACE
 70
     0
 10
0.0
 20
0.0
 30
0.0
  3
*MODEL_SPACE
  1

  0
ENDBLK
  5
1A
330
15
100
AcDbEntity
  8
0
100
AcDbBlockEnd
  0
BLOCK
  5
20
330
1F
100
AcDbEntity
 67
     1
  8
0
100
AcDbBlockBegin
  2
*PAPER_SPACE
 70
     0
 10
0.0
 20
0.0
 30
0.0
  3
*PAPER_SPACE
  1

  0
ENDBLK
  5
21
330
1F
100
AcDbEntity
 67
     1
  8
0
100
AcDbBlockEnd
  0
ENDSEC
  0
SECTION
  2
ENTITIES
  0
LINE
  5
71
330
15
100
AcDbEntity
  8
4
100
AcDbLine
 10
1365.12803908009
 20
242.3741953893796
 30
0.0
 11
1365.12803908009
 21
132.3742003893794
 31
0.0
  0
ARC
  5
73
330
15
100
AcDbEntity
  8
4
100
AcDbCircle
 10
977.128042080089
 20
479.3741963893794
 30
0.0
 40
389.999974
100
AcDbArc
 50
225.245606
 51
314.755231
  0
LINE
  5
74
330
15
100
AcDbEntity
  8
4
100
AcDbLine
 10
589.1280450800891
 20
242.3741953893796
 30
0.0
 11
589.1280450800891
 21
132.3742003893794
 31
0.0
  0
ARC
  5
75
330
15
100
AcDbEntity
  8
4
100
AcDbCircle
 10
977.128042080089
 20
479.3741963893794
 30
0.0
 40
347.999953
100
AcDbArc
 50
271.6942290000001
 51
268.306615
  0
ARC
  5
76
330
15
100
AcDbEntity
  8
4
100
AcDbCircle
 10
977.128042080089
 20
479.3741963893794
 30
0.0
 40
390.000002
100
AcDbArc
 50
329.6524129999999
 51
210.348473
  0
LINE
  5
77
330
15
100
AcDbEntity
  8
4
100
AcDbLine
 10
571.1280420800895
 20
479.3741963893794
 30
0.0
 11
571.1280420800895
 21
67.37419538937957
 31
0.0
  0
LINE
  5
78
330
15
100
AcDbEntity
  8
4
100
AcDbLine
 10
1383.128035080089
 20
479.3741963893794
 30
0.0
 11
1383.128035080089
 21
67.37419538937957
 31
0.0
  0
LINE
  5
79
330
15
100
AcDbEntity
  8
L-CENTER
 48
2.0
100
AcDbLine
 10
977.128042080089
 20
68.37419438937923
 30
0.0
 11
977.128042080089
 21
981.34806738938
 31
0.0
  0
LINE
  5
7C
330
15
100
AcDbEntity
  8
4
100
AcDbLine
 10
796.1280410800896
 20
117.3742013893793
 30
0.0
 11
574.1280460800895
 21
117.3742013893793
 31
0.0
  0
LINE
  5
7D
330
15
100
AcDbEntity
  8
4
100
AcDbLine
 10
571.1280420800895
 20
67.37419538937957
 30
0.0
 11
799.1280450800891
 21
67.37419538937957
 31
0.0
  0
LINE
  5
7E
330
15
100
AcDbEntity
  8
4
100
AcDbLine
 10
772.4918130800893
 20
147.3741993893796
 30
0.0
 11
589.1280450800891
 21
147.3741993893796
 31
0.0
  0
ARC
  5
89
330
15
100
AcDbEntity
  8
4
100
AcDbCircle
 10
574.1280460800895
 20
114.3741973893793
 30
0.0
 40
2.999997
100
AcDbArc
 50
90.0
 51
180.0
  0
ARC
  5
8A
330
15
100
AcDbEntity
  8
4
100
AcDbCircle
 10
604.1280440800892
 20
132.3742003893794
 30
0.0
 40
14.999999
100
AcDbArc
 50
180.0
 51
270.0009319999996
  0
LINE
  5
8B
330
15
100
AcDbEntity
  8
L-CENTER
 48
2.0
100
AcDbLine
 10
657.1280400800892
 20
42.37419538937957
 30
0.0
 11
657.1280400800892
 21
142.3742013893793
 31
0.0
  0
LINE
  5
8E
330
15
100
AcDbEntity
  8
4
100
AcDbLine
 10
1181.764271080089
 20
147.3741993893796
 30
0.0
 11
1365.12803908009
 21
147.3741993893796
 31
0.0
  0
LINE
  5
8F
330
15
100
AcDbEntity
  8
4
100
AcDbLine
 10
1383.128035080089
 20
67.37419538937957
 30
0.0
 11
1155.12803908009
 21
67.37419538937957
 31
0.0
  0
LINE
  5
90
330
15
100
AcDbEntity
  8
4
100
AcDbLine
 10
1158.128043080089
 20
117.3742013893793
 30
0.0
 11
1380.128038080089
 21
117.3742013893793
 31
0.0
  0
LINE
  5
91
330
15
100
AcDbEntity
  8
L-CENTER
 48
2.0
100
AcDbLine
 10
2815.463404784649
 20
392.9755133893796
 30
0.0
 11
2815.463404784649
 21
551.7728793893793
 31
0.0
  0
LINE
  5
92
330
15
100
AcDbEntity
  8
4
100
AcDbLine
 10
2801.463404784649
 20
533.8741943893792
 30
0.0
 11
2801.463404784649
 21
515.8741983893797
 31
0.0
  0
LINE
  5
93
330
15
100
AcDbEntity
  8
4
100
AcDbLine
 10
2829.463404784649
 20
533.8741943893792
 30
0.0
 11
2829.463404784649
 21
515.8741983893797
 31
0.0
  0
LINE
  5
94
330
15
100
AcDbEntity
  8
L-CENTER
 48
2.0
100
AcDbLine
 10
2894.862087784649
 20
472.3741963893794
 30
0.0
 11
2736.064721784649
 21
472.3741963893794
 31
0.0
  0
ARC
  5
95
330
15
100
AcDbEntity
  8
4
100
AcDbCircle
 10
2815.463404784649
 20
472.3741963893794
 30
0.0
 40
52.500014
100
AcDbArc
 50
105.4660057259743
 51
74.53399500000012
  0
LINE
  5
96
330
15
100
AcDbEntity
  8
4
100
AcDbLine
 10
2829.463404784649
 20
515.8741983893797
 30
0.0
 11
2801.463404784649
 21
515.8741983893797
 31
0.0
  0
LINE
  5
97
330
15
100
AcDbEntity
  8
4
100
AcDbLine
 10
2801.463404784649
 20
533.8741943893792
 30
0.0
 11
2829.463404784649
 21
533.8741943893792
 31
0.0
  0
LINE
  5
98
330
15
100
AcDbEntity
  8
4
100
AcDbLine
 10
805.1280390800898
 20
82.37420138937932
 30
0.0
 11
1149.128038080089
 21
82.37420138937932
 31
0.0
  0
LINE
  5
99
330
15
100
AcDbEntity
  8
4
100
AcDbLine
 10
769.1280400800892
 20
67.37419538937957
 30
0.0
 11
769.1280400800892
 21
114.3741973893793
 31
0.0
  0
LINE
  5
9A
330
15
100
AcDbEntity
  8
4
100
AcDbLine
 10
799.1280450800891
 20
67.37419538937957
 30
0.0
 11
799.1280450800891
 21
114.3741973893793
 31
0.0
  0
ARC
  5
9B
330
15
100
AcDbEntity
  8
4
100
AcDbCircle
 10
805.1280390800898
 20
76.37420038937944
 30
0.0
 40
6.000001
100
AcDbArc
 50
90.0
 51
180.0
  0
ARC
  5
9C
330
15
100
AcDbEntity
  8
4
100
AcDbCircle
 10
766.1280430800894
 20
114.3741973893793
 30
0.0
 40
2.999997
100
AcDbArc
 50
0.0
 51
90.0
  0
ARC
  5
9D
330
15
100
AcDbEntity
  8
4
100
AcDbCircle
 10
796.1280410800896
 20
114.3741973893793
 30
0.0
 40
2.999997
100
AcDbArc
 50
0.0
 51
90.0
  0
CIRCLE
  5
9E
330
15
100
AcDbEntity
  8
2
100
AcDbCircle
 10
977.128042080089
 20
114.3741973893793
 30
0.0
 40
8.331057
  0
CIRCLE
  5
9F
330
15
100
AcDbEntity
  8
4
100
AcDbCircle
 10
977.128042080089
 20
114.3741973893793
 30
0.0
 40
9.331057
  0
LINE
  5
A0
330
15
100
AcDbEntity
  8
2
100
AcDbLine
 10
970.9131690800891
 20
110.7859693893797
 30
0.0
 11
977.128042080089
 21
107.1978393893796
 31
0.0
  0
LINE
  5
A1
330
15
100
AcDbEntity
  8
2
100
AcDbLine
 10
983.3429150800898
 20
110.7859693893797
 30
0.0
 11
977.128042080089
 21
107.1978393893796
 31
0.0
  0
LINE
  5
A2
330
15
100
AcDbEntity
  8
2
100
AcDbLine
 10
977.128042080089
 20
121.5505553893795
 30
0.0
 11
970.9131690800891
 21
117.9624253893794
 31
0.0
  0
ARC
  5
A3
330
15
100
AcDbEntity
  8
4
100
AcDbCircle
 10
977.128042080089
 20
114.3741973893793
 30
0.0
 40
20.000099
100
AcDbArc
 50
59.04823900000044
 51
120.9517609999987
  0
LINE
  5
A4
330
15
100
AcDbEntity
  8
L-CENTER
 48
2.0
100
AcDbLine
 10
1002.55030816497
 20
114.3741973893793
 30
0.0
 11
951.7057759952081
 21
114.3741973893793
 31
0.0
  0
LINE
  5
A5
330
15
100
AcDbEntity
  8
2
100
AcDbLine
 10
970.9131690800891
 20
117.9624253893794
 30
0.0
 11
970.9131690800891
 21
110.7859693893797
 31
0.0
  0
LINE
  5
A6
330
15
100
AcDbEntity
  8
2
100
AcDbLine
 10
977.128042080089
 20
121.5505553893795
 30
0.0
 11
983.3429150800898
 21
117.9624253893794
 31
0.0
  0
LINE
  5
A7
330
15
100
AcDbEntity
  8
2
100
AcDbLine
 10
983.3429150800898
 20
117.9624253893794
 30
0.0
 11
983.3429150800898
 21
110.7859693893797
 31
0.0
  0
LINE
  5
A8
330
15
100
AcDbEntity
  8
4
100
AcDbLine
 10
1155.12803908009
 20
67.37419538937957
 30
0.0
 11
1155.12803908009
 21
114.3741973893793
 31
0.0
  0
LINE
  5
A9
330
15
100
AcDbEntity
  8
4
100
AcDbLine
 10
1185.128037080089
 20
67.37419538937957
 30
0.0
 11
1185.128037080089
 21
114.3741973893793
 31
0.0
  0
ARC
  5
AA
330
15
100
AcDbEntity
  8
4
100
AcDbCircle
 10
1149.128038080089
 20
76.37420038937944
 30
0.0
 40
6.000001
100
AcDbArc
 50
0.0
 51
90.0
  0
ARC
  5
AB
330
15
100
AcDbEntity
  8
4
100
AcDbCircle
 10
1158.128043080089
 20
114.3741973893793
 30
0.0
 40
2.999997
100
AcDbArc
 50
90.0
 51
180.0
  0
ARC
  5
AC
330
15
100
AcDbEntity
  8
4
100
AcDbCircle
 10
1188.12804108009
 20
114.3741973893793
 30
0.0
 40
2.999997
100
AcDbArc
 50
90.0
 51
180.0
  0
LINE
  5
AD
330
15
100
AcDbEntity
  8
L-CENTER
 48
2.0
100
AcDbLine
 10
1297.128037080089
 20
42.37419538937957
 30
0.0
 11
1297.128037080089
 21
142.3742013893793
 31
0.0
  0
ARC
  5
AE
330
15
100
AcDbEntity
  8
4
100
AcDbCircle
 10
1350.128040080089
 20
132.3742003893794
 30
0.0
 40
14.999999
100
AcDbArc
 50
270.0009319999996
 51
0.0
  0
ARC
  5
AF
330
15
100
AcDbEntity
  8
4
100
AcDbCircle
 10
1380.128038080089
 20
114.3741973893793
 30
0.0
 40
2.999997
100
AcDbArc
 50
0.0
 51
90.0
  0
LINE
  5
B0
330
15
100
AcDbEntity
  8
L-CENTER
 48
2.0
100
AcDbLine
 10
773.3966611173477
 20
520.5671412361489
 30
0.0
 11
732.4968738528137
 21
544.1806512271264
 31
0.0
  0
LINE
  5
B1
330
15
100
AcDbEntity
  8
L-CENTER
 48
2.0
100
AcDbLine
 10
773.397006202268
 20
424.1806538379788
 30
0.0
 11
732.4972180582918
 21
400.5671453702398
 31
0.0
  0
CIRCLE
  5
B2
330
15
100
AcDbEntity
  8
L-CENTER
 48
2.0
100
AcDbCircle
 10
856.8699880800891
 20
472.3741963893794
 30
0.0
 40
119.999999
  0
CIRCLE
  5
B3
330
15
100
AcDbEntity
  8
4
100
AcDbCircle
 10
856.8699880800891
 20
472.3741963893794
 30
0.0
 40
140.0
  0
LINE
  5
B4
330
15
100
AcDbEntity
  8
L-CENTER
 48
2.0
100
AcDbLine
 10
1020.857559485828
 20
472.3741963893794
 30
0.0
 11
692.8164153837452
 21
472.3741963893794
 31
0.0
  0
ARC
  5
B5
330
15
100
AcDbEntity
  8
4
100
AcDbCircle
 10
977.128042080089
 20
-545.6258006106204
 30
0.0
 40
1200.000025
100
AcDbArc
 50
74.41223299999999
 51
105.588059
  0
ARC
  5
B6
330
15
100
AcDbEntity
  8
4
100
AcDbCircle
 10
977.128042080089
 20
-920.6258036106206
 30
0.0
 40
1797.000002
100
AcDbArc
 50
78.96179199999999
 51
101.038208
  0
LINE
  5
B7
330
15
100
AcDbEntity
  8
L-CENTER
 48
2.0
100
AcDbLine
 10
1397.396072662212
 20
479.3741963893794
 30
0.0
 11
556.8600114979663
 21
479.3741963893794
 31
0.0
  0
LINE
  5
B8
330
15
100
AcDbEntity
  8
4
100
AcDbLine
 10
764.5933770800898
 20
152.3742013893793
 30
0.0
 11
589.1280450800891
 21
152.3742013893793
 31
0.0
  0
ARC
  5
B9
330
15
100
AcDbEntity
  8
4
100
AcDbCircle
 10
977.128042080089
 20
1490.374193389379
 30
0.0
 40
1200.000095
100
AcDbArc
 50
254.755403
 51
269.091313
  0
LINE
  5
BA
330
15
100
AcDbEntity
  8
L-CENTER
 48
2.0
100
AcDbLine
 10
1550.959580080089
 20
242.3741953893796
 30
0.0
 11
539.0880048594317
 21
242.3741953893796
 31
0.0
  0
ARC
  5
BB
330
15
100
AcDbEntity
  8
4
100
AcDbCircle
 10
1771.12803908009
 20
479.3741963893794
 30
0.0
 40
1199.999934
100
AcDbArc
 50
162.696777
 51
180.0003499992971
  0
LINE
  5
BC
330
15
100
AcDbEntity
  8
4
100
AcDbLine
 10
566.1280400800892
 20
152.3742013893793
 30
0.0
 11
566.1280400800892
 21
332.3741963893794
 31
0.0
  0
LINE
  5
BD
330
15
100
AcDbEntity
  8
2
100
AcDbLine
 10
565.8280400800893
 20
152.3742013893793
 30
0.0
 11
565.8280400800893
 21
332.3741963893794
 31
0.0
  0
LINE
  5
BE
330
15
100
AcDbEntity
  8
4
100
AcDbLine
 10
547.8280430800893
 20
152.3742013893793
 30
0.0
 11
547.8280430800893
 21
332.3741963893794
 31
0.0
  0
LINE
  5
BF
330
15
100
AcDbEntity
  8
4
100
AcDbLine
 10
547.8280430800893
 20
152.3742013893793
 30
0.0
 11
566.1280400800892
 21
152.3742013893793
 31
0.0
  0
ARC
  5
C0
330
15
100
AcDbEntity
  8
4
100
AcDbCircle
 10
596.1280450800891
 20
242.3741953893796
 30
0.0
 40
7.0
100
AcDbArc
 50
90.0
 51
180.0
  0
LINE
  5
C1
330
15
100
AcDbEntity
  8
4
100
AcDbLine
 10
547.8280430800893
 20
332.3741963893794
 30
0.0
 11
566.1280400800892
 21
332.3741963893794
 31
0.0
  0
LINE
  5
C2
330
15
100
AcDbEntity
  8
4
100
AcDbLine
 10
602.3641280800894
 20
337.3741983893797
 30
0.0
 11
571.1280420800895
 21
337.3741983893797
 31
0.0
  0
LINE
  5
C3
330
15
100
AcDbEntity
  8
4
100
AcDbLine
 10
604.1898120800893
 20
332.3741963893794
 30
0.0
 11
566.1280400800892
 21
332.3741963893794
 31
0.0
  0
ARC
  5
C4
330
15
100
AcDbEntity
  8
4
100
AcDbCircle
 10
602.3641280800894
 20
345.3741973893793
 30
0.0
 40
7.999991999999999
100
AcDbArc
 50
270.0
 51
19.67417600000242
  0
ARC
  5
C5
330
15
100
AcDbEntity
  8
4
100
AcDbCircle
 10
604.1898120800893
 20
340.3741953893796
 30
0.0
 40
8.000041
100
AcDbArc
 50
270.0
 51
20.44083299999911
  0
ARC
  5
C6
330
15
100
AcDbEntity
  8
4
100
AcDbCircle
 10
634.9826580800895
 20
833.3141953893792
 30
0.0
 40
9.999996999999999
100
AcDbArc
 50
101.0382080000015
 51
162.6967769999991
  0
LINE
  5
C7
330
15
100
AcDbEntity
  8
L-CENTER
 48
2.0
100
AcDbLine
 10
727.1280400800892
 20
844.4590213893794
 30
0.0
 11
727.1280400800892
 21
882.8818883893796
 31
0.0
  0
LINE
  5
C8
330
15
100
AcDbEntity
  8
4
100
AcDbLine
 10
704.1280420800895
 20
875.7324733893793
 30
0.0
 11
750.1280450800891
 21
875.7324733893793
 31
0.0
  0
LINE
  5
C9
330
15
100
AcDbEntity
  8
4
100
AcDbLine
 10
704.1280420800895
 20
870.7324713893795
 30
0.0
 11
750.1280450800891
 21
870.7324713893795
 31
0.0
  0
LINE
  5
CA
330
15
100
AcDbEntity
  8
4
100
AcDbLine
 10
704.1280420800895
 20
866.7324683893794
 30
0.0
 11
750.1280450800891
 21
866.7324683893794
 31
0.0
  0
LINE
  5
CB
330
15
100
AcDbEntity
  8
4
100
AcDbLine
 10
705.1280410800896
 20
865.2324733893793
 30
0.0
 11
749.1280390800898
 21
865.2324733893793
 31
0.0
  0
LINE
  5
CC
330
15
100
AcDbEntity
  8
4
100
AcDbLine
 10
752.1280430800894
 20
865.2327113893793
 30
0.0
 11
702.1280440800892
 21
865.2327113893793
 31
0.0
  0
LINE
  5
CD
330
15
100
AcDbEntity
  8
4
100
AcDbLine
 10
715.6280410800896
 20
870.7324713893795
 30
0.0
 11
715.6280410800896
 21
875.7324733893793
 31
0.0
  0
LINE
  5
CE
330
15
100
AcDbEntity
  8
4
100
AcDbLine
 10
704.1280420800895
 20
866.7324683893794
 30
0.0
 11
704.1280420800895
 21
875.7324733893793
 31
0.0
  0
LINE
  5
CF
330
15
100
AcDbEntity
  8
4
100
AcDbLine
 10
705.1280410800896
 20
866.7324683893794
 30
0.0
 11
705.1280410800896
 21
865.2324733893793
 31
0.0
  0
LINE
  5
D0
330
15
100
AcDbEntity
  8
4
100
AcDbLine
 10
702.1280440800892
 20
855.2075213893795
 30
0.0
 11
702.1280440800892
 21
865.2327113893793
 31
0.0
  0
LINE
  5
D1
330
15
100
AcDbEntity
  8
4
100
AcDbLine
 10
738.6280390800898
 20
870.7324713893795
 30
0.0
 11
738.6280390800898
 21
875.7324733893793
 31
0.0
  0
LINE
  5
D2
330
15
100
AcDbEntity
  8
4
100
AcDbLine
 10
750.1280450800891
 20
866.7324683893794
 30
0.0
 11
750.1280450800891
 21
875.7324733893793
 31
0.0
  0
LINE
  5
D3
330
15
100
AcDbEntity
  8
4
100
AcDbLine
 10
749.1280390800898
 20
866.7324683893794
 30
0.0
 11
749.1280390800898
 21
865.2324733893793
 31
0.0
  0
LINE
  5
D4
330
15
100
AcDbEntity
  8
4
100
AcDbLine
 10
752.1280430800894
 20
862.2327143893795
 30
0.0
 11
752.1280430800894
 21
865.2327113893793
 31
0.0
  0
ARC
  5
D5
330
15
100
AcDbEntity
  8
4
100
AcDbCircle
 10
183.1280450800891
 20
479.3741963893794
 30
0.0
 40
1199.999927
100
AcDbArc
 50
0.0
 51
17.30322399999999
  0
LINE
  5
D6
330
15
100
AcDbEntity
  8
L-CENTER
 48
2.0
100
AcDbLine
 10
995.433952080089
 20
492.3741973893793
 30
0.0
 11
1256.822128080089
 21
492.3741973893793
 31
0.0
  0
LINE
  5
D7
330
15
100
AcDbEntity
  8
4
100
AcDbLine
 10
1189.662707080089
 20
152.3742013893793
 30
0.0
 11
1365.12803908009
 21
152.3742013893793
 31
0.0
  0
ARC
  5
D8
330
15
100
AcDbEntity
  8
4
100
AcDbCircle
 10
977.128042080089
 20
1490.374193389379
 30
0.0
 40
1200.000095
100
AcDbArc
 50
270.908687
 51
285.2448720000001
  0
LINE
  5
D9
330
15
100
AcDbEntity
  8
L-CENTER
 48
2.0
100
AcDbLine
 10
1126.128040080089
 20
361.6801093893791
 30
0.0
 11
1126.128040080089
 21
623.0682853893795
 31
0.0
  0
CIRCLE
  5
DA
330
15
100
AcDbEntity
  8
4
100
AcDbCircle
 10
856.8699880800891
 20
472.3741963893794
 30
0.0
 40
84.999999
  0
CIRCLE
  5
DB
330
15
100
AcDbEntity
  8
4
100
AcDbCircle
 10
1126.128040080089
 20
492.3741973893793
 30
0.0
 40
60.000003
  0
LINE
  5
DC
330
15
100
AcDbEntity
  8
L-CENTER
 48
2.0
100
AcDbLine
 10
856.8699880800891
 20
308.3866249836406
 30
0.0
 11
856.8699880800891
 21
636.3617677951183
 31
0.0
  0
CIRCLE
  5
DD
330
15
100
AcDbEntity
  8
4
100
AcDbCircle
 10
1126.128040080089
 20
492.3741973893793
 30
0.0
 40
110.000002
  0
CIRCLE
  5
DE
330
15
100
AcDbEntity
  8
L-CENTER
 48
2.0
100
AcDbCircle
 10
1126.128040080089
 20
492.3741973893793
 30
0.0
 40
90.000001
  0
LINE
  5
DF
330
15
100
AcDbEntity
  8
L-CENTER
 48
2.0
100
AcDbLine
 10
1013.441032080088
 20
284.3741953893796
 30
0.0
 11
940.8150520800896
 21
284.3741953893796
 31
0.0
  0
LINE
  5
E0
330
15
100
AcDbEntity
  8
4
100
AcDbLine
 10
961.5394200800897
 20
275.3741973893793
 30
0.0
 11
977.128042080089
 21
266.3741993893796
 31
0.0
  0
LINE
  5
E1
330
15
100
AcDbEntity
  8
4
100
AcDbLine
 10
977.128042080089
 20
266.3741993893796
 30
0.0
 11
992.716419080089
 21
275.3741973893793
 31
0.0
  0
CIRCLE
  5
E2
330
15
100
AcDbEntity
  8
4
100
AcDbCircle
 10
977.128042080089
 20
284.3741953893796
 30
0.0
 40
20.000001
  0
LINE
  5
E3
330
15
100
AcDbEntity
  8
4
100
AcDbLine
 10
977.128042080089
 20
302.3741983893797
 30
0.0
 11
961.5394200800897
 21
293.3742003893794
 31
0.0
  0
LINE
  5
E4
330
15
100
AcDbEntity
  8
4
100
AcDbLine
 10
961.5394200800897
 20
275.3741973893793
 30
0.0
 11
961.5394200800897
 21
293.3742003893794
 31
0.0
  0
LINE
  5
E5
330
15
100
AcDbEntity
  8
4
100
AcDbLine
 10
992.716419080089
 20
275.3741973893793
 30
0.0
 11
992.716419080089
 21
293.3742003893794
 31
0.0
  0
LINE
  5
E6
330
15
100
AcDbEntity
  8
4
100
AcDbLine
 10
992.716419080089
 20
293.3742003893794
 30
0.0
 11
977.128042080089
 21
302.3741983893797
 31
0.0
  0
LINE
  5
E7
330
15
100
AcDbEntity
  8
L-CENTER
 48
2.0
100
AcDbLine
 10
940.3433138194655
 20
424.181249423671
 30
0.0
 11
981.2431024496927
 21
400.5677417981437
 31
0.0
  0
LINE
  5
E8
330
15
100
AcDbEntity
  8
L-CENTER
 48
2.0
100
AcDbLine
 10
1027.73594551212
 20
435.5672924686037
 30
0.0
 11
1068.635733358896
 21
459.180801451108
 31
0.0
  0
LINE
  5
E9
330
15
100
AcDbEntity
  8
L-CENTER
 48
2.0
100
AcDbLine
 10
1224.520308881259
 20
435.567594249359
 30
0.0
 11
1183.620519121311
 21
459.181099918153
 31
0.0
  0
LINE
  5
EA
330
15
100
AcDbEntity
  8
L-CENTER
 48
2.0
100
AcDbLine
 10
940.3429650800895
 20
520.5677473893793
 30
0.0
 11
981.2427567726638
 21
544.1812497107662
 31
0.0
  0
LINE
  5
EB
330
15
100
AcDbEntity
  8
L-CENTER
 48
2.0
100
AcDbLine
 10
1027.735771141503
 20
549.1808002913926
 30
0.0
 11
1068.635562697479
 21
525.5672977334107
 31
0.0
  0
LINE
  5
EC
330
15
100
AcDbEntity
  8
L-CENTER
 48
2.0
100
AcDbLine
 10
1224.520134702388
 20
549.1811022160523
 30
0.0
 11
1183.620346145511
 21
525.5675944634795
 31
0.0
  0
LINE
  5
ED
330
15
100
AcDbEntity
  8
4
100
AcDbLine
 10
1431.128036080089
 20
276.3741963893794
 30
0.0
 11
1541.128038080089
 21
276.3741963893794
 31
0.0
  0
LINE
  5
EE
330
15
100
AcDbEntity
  8
4
100
AcDbLine
 10
1421.12803908009
 20
271.3741943893792
 30
0.0
 11
1539.128040080089
 21
271.3741943893792
 31
0.0
  0
LINE
  5
EF
330
15
100
AcDbEntity
  8
4
100
AcDbLine
 10
1421.12803908009
 20
213.3741963893794
 30
0.0
 11
1539.128040080089
 21
213.3741963893794
 31
0.0
  0
LINE
  5
F0
330
15
100
AcDbEntity
  8
4
100
AcDbLine
 10
1406.428041080089
 20
152.3742013893793
 30
0.0
 11
1406.428041080089
 21
332.3741963893794
 31
0.0
  0
LINE
  5
F1
330
15
100
AcDbEntity
  8
4
100
AcDbLine
 10
1388.128037080089
 20
152.3742013893793
 30
0.0
 11
1388.128037080089
 21
332.3741963893794
 31
0.0
  0
LINE
  5
F2
330
15
100
AcDbEntity
  8
2
100
AcDbLine
 10
1388.428037080089
 20
152.3742013893793
 30
0.0
 11
1388.428037080089
 21
332.3741963893794
 31
0.0
  0
ARC
  5
F3
330
15
100
AcDbEntity
  8
4
100
AcDbCircle
 10
1358.12803908009
 20
242.3741953893796
 30
0.0
 40
7.0
100
AcDbArc
 50
0.0
 51
90.0
  0
LINE
  5
F4
330
15
100
AcDbEntity
  8
4
100
AcDbLine
 10
1421.12803908009
 20
209.8741963893794
 30
0.0
 11
1421.12803908009
 21
274.8741943893792
 31
0.0
  0
LINE
  5
F5
330
15
100
AcDbEntity
  8
4
100
AcDbLine
 10
1407.42804008009
 20
287.3741993893796
 30
0.0
 11
1407.42804008009
 21
197.3741983893797
 31
0.0
  0
LINE
  5
F6
330
15
100
AcDbEntity
  8
4
100
AcDbLine
 10
1406.428041080089
 20
152.3742013893793
 30
0.0
 11
1388.128037080089
 21
152.3742013893793
 31
0.0
  0
LINE
  5
F7
330
15
100
AcDbEntity
  8
4
100
AcDbLine
 10
1407.42804008009
 20
209.8741963893794
 30
0.0
 11
1421.12803908009
 21
209.8741963893794
 31
0.0
  0
LINE
  5
F8
330
15
100
AcDbEntity
  8
4
100
AcDbLine
 10
1431.128036080089
 20
276.3741963893794
 30
0.0
 11
1431.128036080089
 21
271.3741943893792
 31
0.0
  0
LINE
  5
F9
330
15
100
AcDbEntity
  8
4
100
AcDbLine
 10
1407.42804008009
 20
287.3741993893796
 30
0.0
 11
1406.428041080089
 21
287.3741993893796
 31
0.0
  0
LINE
  5
FA
330
15
100
AcDbEntity
  8
4
100
AcDbLine
 10
1407.42804008009
 20
274.8741943893792
 30
0.0
 11
1421.12803908009
 21
274.8741943893792
 31
0.0
  0
LINE
  5
FB
330
15
100
AcDbEntity
  8
4
100
AcDbLine
 10
1351.891956080089
 20
337.3741983893797
 30
0.0
 11
1383.128035080089
 21
337.3741983893797
 31
0.0
  0
LINE
  5
FC
330
15
100
AcDbEntity
  8
4
100
AcDbLine
 10
1350.066272080089
 20
332.3741963893794
 30
0.0
 11
1388.128037080089
 21
332.3741963893794
 31
0.0
  0
ARC
  5
FD
330
15
100
AcDbEntity
  8
4
100
AcDbCircle
 10
1351.891956080089
 20
345.3741973893793
 30
0.0
 40
7.999991999999999
100
AcDbArc
 50
160.3258239999976
 51
270.0
  0
ARC
  5
FE
330
15
100
AcDbEntity
  8
4
100
AcDbCircle
 10
1350.066272080089
 20
340.3741953893796
 30
0.0
 40
8.000041
100
AcDbArc
 50
159.5591670000012
 51
270.0
  0
LINE
  5
FF
330
15
100
AcDbEntity
  8
4
100
AcDbLine
 10
1406.428041080089
 20
332.3741963893794
 30
0.0
 11
1388.128034080089
 21
332.3741963893794
 31
0.0
  0
LINE
  5
100
330
15
100
AcDbEntity
  8
4
100
AcDbLine
 10
1541.128038080089
 20
215.3742013893793
 30
0.0
 11
1541.128038080089
 21
276.3741963893794
 31
0.0
  0
LINE
  5
101
330
15
100
AcDbEntity
  8
4
100
AcDbLine
 10
1539.128040080089
 20
271.3741943893792
 30
0.0
 11
1539.128040080089
 21
213.3741963893794
 31
0.0
  0
LINE
  5
102
330
15
100
AcDbEntity
  8
4
100
AcDbLine
 10
1541.128038080089
 20
215.3742013893793
 30
0.0
 11
1539.128040080089
 21
213.3741963893794
 31
0.0
  0
LINE
  5
103
330
15
100
AcDbEntity
  8
4
100
AcDbLine
 10
1539.128040080089
 20
271.3741943893792
 30
0.0
 11
1541.128038080089
 21
269.3741963893794
 31
0.0
  0
LINE
  5
106
330
15
100
AcDbEntity
  8
4
100
AcDbLine
 10
977.128042080089
 20
879.3741953893796
 30
0.0
 11
1007.128040080089
 21
879.3741953893796
 31
0.0
  0
ARC
  5
107
330
15
100
AcDbEntity
  8
4
100
AcDbCircle
 10
977.128042080089
 20
959.3741923893795
 30
0.0
 40
9.999996999999999
100
AcDbArc
 50
0.0
 51
180.0
  0
LINE
  5
108
330
15
100
AcDbEntity
  8
4
100
AcDbLine
 10
998.0533310800897
 20
897.3741913893796
 30
0.0
 11
999.6280440800897
 21
879.3741953893796
 31
0.0
  0
ARC
  5
109
330
15
100
AcDbEntity
  8
4
100
AcDbCircle
 10
963.128042080089
 20
887.3741943893792
 30
0.0
 40
4.000003
100
AcDbArc
 50
270.0
 51
0.0
  0
ARC
  5
10A
330
15
100
AcDbEntity
  8
4
100
AcDbCircle
 10
991.128042080089
 20
887.3741943893792
 30
0.0
 40
4.000003
100
AcDbArc
 50
180.0
 51
270.0
  0
LINE
  5
10B
330
15
100
AcDbEntity
  8
4
100
AcDbLine
 10
956.2027460800896
 20
897.3741913893796
 30
0.0
 11
954.6280400800892
 21
879.3741953893796
 31
0.0
  0
LINE
  5
10C
330
15
100
AcDbEntity
  8
4
100
AcDbLine
 10
977.128042080089
 20
879.3741953893796
 30
0.0
 11
947.1280440800897
 21
879.3741953893796
 31
0.0
  0
LINE
  5
10D
330
15
100
AcDbEntity
  8
4
100
AcDbLine
 10
947.1280440800897
 20
876.1237593893793
 30
0.0
 11
947.1280440800897
 21
879.3741953893796
 31
0.0
  0
LINE
  5
10E
330
15
100
AcDbEntity
  8
4
100
AcDbLine
 10
967.1280380800895
 20
887.3741943893792
 30
0.0
 11
967.1280380800895
 21
959.3741923893795
 31
0.0
  0
LINE
  5
10F
330
15
100
AcDbEntity
  8
4
100
AcDbLine
 10
987.1280390800898
 20
887.3741943893792
 30
0.0
 11
987.1280390800898
 21
959.3741923893795
 31
0.0
  0
LINE
  5
110
330
15
100
AcDbEntity
  8
L-CENTER
 48
2.0
100
AcDbLine
 10
950.3093271763823
 20
924.3741923893795
 30
0.0
 11
1003.946756983796
 21
924.3741923893795
 31
0.0
  0
LINE
  5
111
330
15
100
AcDbEntity
  8
4
100
AcDbLine
 10
956.2027460800896
 20
897.3741913893796
 30
0.0
 11
967.1280380800895
 21
897.3741913893796
 31
0.0
  0
LINE
  5
112
330
15
100
AcDbEntity
  8
4
100
AcDbLine
 10
967.1280380800895
 20
898.4183813893796
 30
0.0
 11
956.2027460800896
 21
897.3741913893796
 31
0.0
  0
LINE
  5
113
330
15
100
AcDbEntity
  8
4
100
AcDbLine
 10
987.1280390800898
 20
897.3741913893796
 30
0.0
 11
998.0533310800897
 21
897.3741913893796
 31
0.0
  0
LINE
  5
114
330
15
100
AcDbEntity
  8
4
100
AcDbLine
 10
987.1280390800898
 20
898.4183813893796
 30
0.0
 11
998.0533310800897
 21
897.3741913893796
 31
0.0
  0
LINE
  5
115
330
15
100
AcDbEntity
  8
4
100
AcDbLine
 10
1007.128040080089
 20
876.1237593893793
 30
0.0
 11
1007.128040080089
 21
879.3741953893796
 31
0.0
  0
ARC
  5
116
330
15
100
AcDbEntity
  8
4
100
AcDbCircle
 10
1319.27341908009
 20
833.3142023893793
 30
0.0
 40
9.999996999999999
100
AcDbArc
 50
17.30322399999971
 51
78.96179200000134
  0
LINE
  5
117
330
15
100
AcDbEntity
  8
4
100
AcDbLine
 10
2347.190976692561
 20
125.3742003893794
 30
0.0
 11
2347.190976692561
 21
869.3741913893796
 31
0.0
  0
ARC
  5
118
330
15
100
AcDbEntity
  8
4
100
AcDbCircle
 10
9653.187387692562
 20
479.3741963893794
 30
0.0
 40
7599.999952999999
100
AcDbArc
 50
177.3761340000001
 51
182.624778
  0
LINE
  5
119
330
15
100
AcDbEntity
  8
4
100
AcDbLine
 10
2343.190973692561
 20
874.3741933893793
 30
0.0
 11
2343.190973692561
 21
137.3741953893796
 31
0.0
  0
LINE
  5
11A
330
15
100
AcDbEntity
  8
4
100
AcDbLine
 10
2375.190976692561
 20
867.3741933893793
 30
0.0
 11
2375.190976692561
 21
117.3742013893793
 31
0.0
  0
LINE
  5
11B
330
15
100
AcDbEntity
  8
L-CENTER
 48
2.0
100
AcDbLine
 10
2158.190976692561
 20
349.6439663893798
 30
0.0
 11
2158.190976692561
 21
135.1044243893793
 31
0.0
  0
LINE
  5
11C
330
15
100
AcDbEntity
  8
4
100
AcDbLine
 10
2061.160819692561
 20
131.3340423893796
 30
0.0
 11
2061.160819692561
 21
827.3741913893796
 31
0.0
  0
LINE
  5
11D
330
15
100
AcDbEntity
  8
L-CENTER
 48
2.0
100
AcDbLine
 10
2216.190974692562
 20
981.34806738938
 30
0.0
 11
2216.190974692562
 21
46.80043020731637
 31
0.0
  0
LINE
  5
11E
330
15
100
AcDbEntity
  8
4
100
AcDbLine
 10
2065.190978692561
 20
117.3742013893793
 30
0.0
 11
2065.190978692561
 21
202.4242503893793
 31
0.0
  0
LINE
  5
11F
330
15
100
AcDbEntity
  8
4
100
AcDbLine
 10
2064.155818692562
 20
131.3742013893793
 30
0.0
 11
2064.155818692562
 21
214.6083313893796
 31
0.0
  0
ARC
  5
120
330
15
100
AcDbEntity
  8
4
100
AcDbCircle
 10
2084.190973692561
 20
149.1918263893795
 30
0.0
 40
4.999974
100
AcDbArc
 50
0.0
 51
79.47195000000592
  0
TEXT
  5
122
330
15
100
AcDbEntity
  8
3
100
AcDbText
 10
1601.947037656098
 20
42.62409322743872
 30
0.0
 40
24.0
  1
LD9-00
  7
KANJI
100
AcDbText
  0
LINE
  5
123
330
15
100
AcDbEntity
  8
4
100
AcDbLine
 10
2453.190975692561
 20
117.3742013893793
 30
0.0
 11
1979.190973692561
 21
117.3742013893793
 31
0.0
  0
LINE
  5
124
330
15
100
AcDbEntity
  8
4
100
AcDbLine
 10
2456.190972692561
 20
67.37419538937957
 30
0.0
 11
1976.190976692561
 21
67.37419538937957
 31
0.0
  0
LINE
  5
125
330
15
100
AcDbEntity
  8
4
100
AcDbLine
 10
1976.190976692561
 20
67.37419538937957
 30
0.0
 11
1976.190976692561
 21
114.3741973893793
 31
0.0
  0
ARC
  5
126
330
15
100
AcDbEntity
  8
4
100
AcDbCircle
 10
1979.190973692561
 20
114.3741973893793
 30
0.0
 40
2.999997
100
AcDbArc
 50
90.0
 51
180.0
  0
LINE
  5
127
330
15
100
AcDbEntity
  8
L-CENTER
 48
2.0
100
AcDbLine
 10
2026.190975692561
 20
42.37419538937957
 30
0.0
 11
2026.190975692561
 21
142.3742013893793
 31
0.0
  0
ARC
  5
128
330
15
100
AcDbEntity
  8
4
100
AcDbCircle
 10
2069.190974692562
 20
137.3741953893796
 30
0.0
 40
20.000001
100
AcDbArc
 50
270.0006989999989
 51
0.0
  0
LINE
  5
129
330
15
100
AcDbEntity
  8
4
100
AcDbLine
 10
2065.190978692561
 20
131.3742013893793
 30
0.0
 11
2061.158978692561
 21
131.3742013893793
 31
0.0
  0
LINE
  5
12A
330
15
100
AcDbEntity
  8
4
100
AcDbLine
 10
2089.190975692562
 20
149.1918263893795
 30
0.0
 11
2089.190975692562
 21
137.3741953893796
 31
0.0
  0
ARC
  5
12B
330
15
100
AcDbEntity
  8
4
100
AcDbCircle
 10
2363.190974692562
 20
137.3741953893796
 30
0.0
 40
20.000001
100
AcDbArc
 50
180.0
 51
270.0006989999989
  0
LINE
  5
12C
330
15
100
AcDbEntity
  8
4
100
AcDbLine
 10
2456.190972692561
 20
67.37419538937957
 30
0.0
 11
2456.190972692561
 21
114.3741973893793
 31
0.0
  0
LINE
  5
12D
330
15
100
AcDbEntity
  8
L-CENTER
 48
2.0
100
AcDbLine
 10
2406.190973692561
 20
42.37419538937957
 30
0.0
 11
2406.190973692561
 21
142.3742013893793
 31
0.0
  0
LINE
  5
12E
330
15
100
AcDbEntity
  8
4
100
AcDbLine
 10
2393.190972692561
 20
117.3742013893793
 30
0.0
 11
2393.190972692561
 21
67.37419538937957
 31
0.0
  0
LINE
  5
12F
330
15
100
AcDbEntity
  8
4
100
AcDbLine
 10
2419.190974692562
 20
117.3742013893793
 30
0.0
 11
2419.190974692562
 21
67.37419538937957
 31
0.0
  0
ARC
  5
130
330
15
100
AcDbEntity
  8
4
100
AcDbCircle
 10
2364.461726692562
 20
73.53679938937967
 30
0.0
 40
7.616209999999999
100
AcDbArc
 50
305.987537999995
 51
30.25471399999766
  0
ARC
  5
131
330
15
100
AcDbEntity
  8
4
100
AcDbCircle
 10
2364.461726692562
 20
73.53679938937967
 30
0.0
 40
7.616209999999999
100
AcDbArc
 50
305.987537999995
 51
30.25471399999766
  0
ARC
  5
132
330
15
100
AcDbEntity
  8
4
100
AcDbCircle
 10
2372.875789692561
 20
113.5367943893793
 30
0.0
 40
7.616209999999999
100
AcDbArc
 50
305.9875319999977
 51
30.25471799999914
  0
ARC
  5
133
330
15
100
AcDbEntity
  8
4
100
AcDbCircle
 10
2372.875789692561
 20
113.5367943893793
 30
0.0
 40
7.616209999999999
100
AcDbArc
 50
305.9875319999977
 51
30.25471799999914
  0
ARC
  5
134
330
15
100
AcDbEntity
  8
4
100
AcDbCircle
 10
2368.668754692561
 20
93.53679338937945
 30
0.0
 40
7.616209999999999
100
AcDbArc
 50
305.987538000003
 51
30.25471399999988
  0
ARC
  5
135
330
15
100
AcDbEntity
  8
4
100
AcDbCircle
 10
2368.668754692561
 20
93.53679338937945
 30
0.0
 40
7.616209999999999
100
AcDbArc
 50
305.987538000003
 51
30.25471399999988
  0
ARC
  5
136
330
15
100
AcDbEntity
  8
4
100
AcDbCircle
 10
2377.619437692562
 20
81.21159938937944
 30
0.0
 40
7.616209999999999
100
AcDbArc
 50
125.9875430000022
 51
210.2547239999982
  0
ARC
  5
137
330
15
100
AcDbEntity
  8
4
100
AcDbCircle
 10
2377.619437692562
 20
81.21159938937944
 30
0.0
 40
7.616209999999999
100
AcDbArc
 50
125.9875430000022
 51
210.2547239999982
  0
ARC
  5
138
330
15
100
AcDbEntity
  8
4
100
AcDbCircle
 10
2381.826472692561
 20
101.2116003893793
 30
0.0
 40
7.616209999999999
100
AcDbArc
 50
125.9875430000022
 51
210.2547239999974
  0
ARC
  5
139
330
15
100
AcDbEntity
  8
4
100
AcDbCircle
 10
2381.826472692561
 20
101.2116003893793
 30
0.0
 40
7.616209999999999
100
AcDbArc
 50
125.9875430000022
 51
210.2547239999974
  0
ARC
  5
13A
330
15
100
AcDbEntity
  8
4
100
AcDbCircle
 10
2453.190975692561
 20
114.3741973893793
 30
0.0
 40
2.999997
100
AcDbArc
 50
0.0
 51
90.0
  0
LINE
  5
13B
330
15
100
AcDbEntity
  8
L-CENTER
 48
2.0
100
AcDbLine
 10
2608.369929692561
 20
472.3741963893794
 30
0.0
 11
2020.035704259254
 21
472.3741963893794
 31
0.0
  0
LINE
  5
13C
330
15
100
AcDbEntity
  8
4
100
AcDbLine
 10
2065.190978692561
 20
282.3241473893795
 30
0.0
 11
2065.190978692561
 21
867.3741933893793
 31
0.0
  0
LINE
  5
13D
330
15
100
AcDbEntity
  8
4
100
AcDbLine
 10
2089.190975692562
 20
335.5565713893793
 30
0.0
 11
2089.190975692562
 21
874.3741933893793
 31
0.0
  0
ARC
  5
13E
330
15
100
AcDbEntity
  8
4
100
AcDbCircle
 10
2158.190976692561
 20
-67.62555761062049
 30
0.0
 40
400.000013
100
AcDbArc
 50
78.70689099999996
 51
101.2931849999999
  0
ARC
  5
13F
330
15
100
AcDbEntity
  8
4
100
AcDbCircle
 10
2158.190976692561
 20
552.3739553893793
 30
0.0
 40
399.999943
100
AcDbArc
 50
258.7073500000001
 51
281.2935410000001
  0
LINE
  5
140
330
15
100
AcDbEntity
  8
L-CENTER
 48
2.0
100
AcDbLine
 10
2050.92120569256
 20
242.3741953893796
 30
0.0
 11
2265.460747692561
 21
242.3741953893796
 31
0.0
  0
CIRCLE
  5
141
330
15
100
AcDbEntity
  8
L-CENTER
 48
2.0
100
AcDbCircle
 10
2158.190976692561
 20
242.3741953893796
 30
0.0
 40
87.5
  0
LINE
  5
142
330
15
100
AcDbEntity
  8
L-CENTER
 48
2.0
100
AcDbLine
 10
2080.447492793525
 20
164.6307184903435
 30
0.0
 11
2112.19076688395
 21
196.373992580769
 31
0.0
  0
LINE
  5
143
330
15
100
AcDbEntity
  8
L-CENTER
 48
2.0
100
AcDbLine
 10
2080.447496293525
 20
320.1176757884155
 30
0.0
 11
2112.19077038395
 21
288.3744016979899
 31
0.0
  0
LINE
  5
144
330
15
100
AcDbEntity
  8
4
100
AcDbLine
 10
2044.190978692561
 20
332.3741963893794
 30
0.0
 11
2044.190978692561
 21
612.3741963893794
 31
0.0
  0
LINE
  5
145
330
15
100
AcDbEntity
  8
2
100
AcDbLine
 10
2043.890978692561
 20
332.3741963893794
 30
0.0
 11
2043.890978692561
 21
612.3741963893794
 31
0.0
  0
LINE
  5
146
330
15
100
AcDbEntity
  8
4
100
AcDbLine
 10
2029.290972692561
 20
611.3741963893794
 30
0.0
 11
2029.290972692561
 21
333.3741963893794
 31
0.0
  0
ARC
  5
147
330
15
100
AcDbEntity
  8
4
100
AcDbCircle
 10
2468.190974692562
 20
242.3741953893796
 30
0.0
 40
399.999985
100
AcDbArc
 50
168.707247
 51
191.2931499999999
  0
ARC
  5
148
330
15
100
AcDbEntity
  8
4
100
AcDbCircle
 10
2463.190972692561
 20
242.3741953893796
 30
0.0
 40
400.000069
100
AcDbArc
 50
168.092994
 51
191.9075409999999
  0
ARC
  5
149
330
15
100
AcDbEntity
  8
4
100
AcDbCircle
 10
2076.690487692561
 20
160.8734683893795
 30
0.0
 40
4.999939
100
AcDbArc
 50
191.9085390000007
 51
258.091461000005
  0
ARC
  5
14A
330
15
100
AcDbEntity
  8
4
100
AcDbCircle
 10
2080.838925692561
 20
165.0219063893792
 30
0.0
 40
4.999910999999999
100
AcDbArc
 50
191.2945689999995
 51
258.7054310000055
  0
ARC
  5
14B
330
15
100
AcDbEntity
  8
4
100
AcDbCircle
 10
2158.190810809798
 20
547.3731425524952
 30
0.0
 40
399.9991223837034
100
AcDbArc
 50
258.0930282865401
 51
281.9074510154804
  0
LINE
  5
14C
330
15
100
AcDbEntity
  8
L-CENTER
 48
2.0
100
AcDbLine
 10
2071.546369692561
 20
279.3742003893794
 30
0.0
 11
2040.168470692561
 21
279.3742003893794
 31
0.0
  0
LINE
  5
14D
330
15
100
AcDbEntity
  8
4
100
AcDbLine
 10
2053.816461692561
 20
299.3741943893792
 30
0.0
 11
2053.816461692561
 21
259.3741993893796
 31
0.0
  0
LINE
  5
14E
330
15
100
AcDbEntity
  8
4
100
AcDbLine
 10
2045.316466692561
 20
261.3741973893793
 30
0.0
 11
2045.316466692561
 21
297.3741963893794
 31
0.0
  0
LINE
  5
14F
330
15
100
AcDbEntity
  8
4
100
AcDbLine
 10
2053.816461692561
 20
262.3741963893794
 30
0.0
 11
2053.816461692561
 21
296.3741973893793
 31
0.0
  0
LINE
  5
150
330
15
100
AcDbEntity
  8
4
100
AcDbLine
 10
2052.316466692561
 20
261.3741973893793
 30
0.0
 11
2052.316466692561
 21
297.3741963893794
 31
0.0
  0
LINE
  5
151
330
15
100
AcDbEntity
  8
4
100
AcDbLine
 10
2050.316461692561
 20
261.3741973893793
 30
0.0
 11
2050.316461692561
 21
297.3741963893794
 31
0.0
  0
LINE
  5
152
330
15
100
AcDbEntity
  8
4
100
AcDbLine
 10
2050.316461692561
 20
270.3741953893796
 30
0.0
 11
2045.316466692561
 21
270.3741953893796
 31
0.0
  0
LINE
  5
153
330
15
100
AcDbEntity
  8
4
100
AcDbLine
 10
2052.316466692561
 20
261.3741973893793
 30
0.0
 11
2045.316466692561
 21
261.3741973893793
 31
0.0
  0
LINE
  5
154
330
15
100
AcDbEntity
  8
4
100
AcDbLine
 10
2056.372308692561
 20
259.3741993893796
 30
0.0
 11
2053.816461692561
 21
259.3741993893796
 31
0.0
  0
LINE
  5
155
330
15
100
AcDbEntity
  8
4
100
AcDbLine
 10
2052.316466692561
 20
262.3741963893794
 30
0.0
 11
2053.816461692561
 21
262.3741963893794
 31
0.0
  0
LINE
  5
156
330
15
100
AcDbEntity
  8
4
100
AcDbLine
 10
2050.316461692561
 20
288.3741983893797
 30
0.0
 11
2045.316466692561
 21
288.3741983893797
 31
0.0
  0
LINE
  5
157
330
15
100
AcDbEntity
  8
4
100
AcDbLine
 10
2052.316466692561
 20
297.3741963893794
 30
0.0
 11
2045.316466692561
 21
297.3741963893794
 31
0.0
  0
LINE
  5
158
330
15
100
AcDbEntity
  8
4
100
AcDbLine
 10
2053.816461692561
 20
299.3741943893792
 30
0.0
 11
2055.319305692562
 21
299.3741943893792
 31
0.0
  0
LINE
  5
159
330
15
100
AcDbEntity
  8
4
100
AcDbLine
 10
2053.816461692561
 20
296.3741973893793
 30
0.0
 11
2052.316466692561
 21
296.3741973893793
 31
0.0
  0
LINE
  5
15A
330
15
100
AcDbEntity
  8
4
100
AcDbLine
 10
2030.290972692561
 20
332.3741963893794
 30
0.0
 11
2044.190978692561
 21
332.3741963893794
 31
0.0
  0
LINE
  5
15B
330
15
100
AcDbEntity
  8
4
100
AcDbLine
 10
2030.290972692561
 20
382.3741953893796
 30
0.0
 11
2044.190978692561
 21
382.3741953893796
 31
0.0
  0
ARC
  5
15C
330
15
100
AcDbEntity
  8
4
100
AcDbCircle
 10
2076.690487692561
 20
323.8749293893798
 30
0.0
 40
4.999939
100
AcDbArc
 50
101.908538999995
 51
168.0914610000055
  0
LINE
  5
15D
330
15
100
AcDbEntity
  8
4
100
AcDbLine
 10
2054.609204692561
 20
332.3741963893794
 30
0.0
 11
2044.190978692561
 21
332.3741963893794
 31
0.0
  0
ARC
  5
15E
330
15
100
AcDbEntity
  8
4
100
AcDbCircle
 10
2084.190973692561
 20
335.5565713893793
 30
0.0
 40
4.999974
100
AcDbArc
 50
280.5280519999891
 51
0.0
  0
ARC
  5
15F
330
15
100
AcDbEntity
  8
4
100
AcDbCircle
 10
2080.838925692561
 20
319.7264913893796
 30
0.0
 40
4.999910999999999
100
AcDbArc
 50
101.2945689999944
 51
168.7054310000005
  0
ARC
  5
160
330
15
100
AcDbEntity
  8
4
100
AcDbCircle
 10
2158.190709031649
 20
-62.62424733878561
 30
0.0
 40
399.9986566525608
100
AcDbArc
 50
78.09252001788643
 51
101.9074731511712
  0
LINE
  5
161
330
15
100
AcDbEntity
  8
4
100
AcDbLine
 10
2044.190978692561
 20
382.3741953893796
 30
0.0
 11
2053.806465692561
 21
382.3741953893796
 31
0.0
  0
LINE
  5
162
330
15
100
AcDbEntity
  8
4
100
AcDbLine
 10
2030.290972692561
 20
602.3741923893795
 30
0.0
 11
2044.190978692561
 21
602.3741923893795
 31
0.0
  0
LINE
  5
163
330
15
100
AcDbEntity
  8
4
100
AcDbLine
 10
2030.290972692561
 20
612.3741963893794
 30
0.0
 11
2044.190978692561
 21
612.3741963893794
 31
0.0
  0
LINE
  5
164
330
15
100
AcDbEntity
  8
4
100
AcDbLine
 10
2054.351268692561
 20
612.3741963893794
 30
0.0
 11
2044.190978692561
 21
612.3741963893794
 31
0.0
  0
LINE
  5
165
330
15
100
AcDbEntity
  8
4
100
AcDbLine
 10
2054.182820692561
 20
602.3741923893795
 30
0.0
 11
2044.190978692561
 21
602.3741923893795
 31
0.0
  0
LINE
  5
166
330
15
100
AcDbEntity
  8
4
100
AcDbLine
 10
2388.190970692561
 20
332.3741963893794
 30
0.0
 11
2388.190970692561
 21
612.3741963893794
 31
0.0
  0
LINE
  5
167
330
15
100
AcDbEntity
  8
2
100
AcDbLine
 10
2388.490970692561
 20
332.3741963893794
 30
0.0
 11
2388.490970692561
 21
612.3741963893794
 31
0.0
  0
ARC
  5
168
330
15
100
AcDbEntity
  8
4
100
AcDbCircle
 10
-5220.805809307439
 20
479.3741963893794
 30
0.0
 40
7599.999925
100
AcDbArc
 50
358.1402670000001
 51
1.859732999999974
  0
LINE
  5
169
330
15
100
AcDbEntity
  8
4
100
AcDbLine
 10
2403.090976692562
 20
333.3741963893794
 30
0.0
 11
2403.090976692562
 21
611.3741963893794
 31
0.0
  0
LINE
  5
16A
330
15
100
AcDbEntity
  8
4
100
AcDbLine
 10
2404.090976692562
 20
423.3441507255102
 30
0.0
 11
2404.090976692562
 21
436.4043918452521
 31
0.0
  0
LINE
  5
16B
330
15
100
AcDbEntity
  8
4
100
AcDbLine
 10
2404.090975692561
 20
458.3437020744582
 30
0.0
 11
2404.090975692561
 21
521.404843435469
 31
0.0
  0
LINE
  5
16C
330
15
100
AcDbEntity
  8
4
100
AcDbLine
 10
2418.190975692561
 20
417.3741953893796
 30
0.0
 11
2418.190975692561
 21
527.3741973893793
 31
0.0
  0
LINE
  5
16D
330
15
100
AcDbEntity
  8
4
100
AcDbLine
 10
2596.190972692561
 20
524.8741963893794
 30
0.0
 11
2596.190972692561
 21
419.8741963893794
 31
0.0
  0
LINE
  5
16E
330
15
100
AcDbEntity
  8
4
100
AcDbLine
 10
2598.190970692561
 20
421.8741943893792
 30
0.0
 11
2598.190970692561
 21
533.8741943893792
 31
0.0
  0
ARC
  5
16F
330
15
100
AcDbEntity
  8
4
100
AcDbCircle
 10
1848.190978692561
 20
242.3741953893796
 30
0.0
 40
399.999894
100
AcDbArc
 50
348.7075629999999
 51
11.29315000000009
  0
LINE
  5
170
330
15
100
AcDbEntity
  8
L-CENTER
 48
2.0
100
AcDbLine
 10
2204.191179923913
 20
288.374404775248
 30
0.0
 11
2235.934457769332
 21
320.1176751106782
 31
0.0
  0
LINE
  5
171
330
15
100
AcDbEntity
  8
L-CENTER
 48
2.0
100
AcDbLine
 10
2204.191183001171
 20
196.3739890807697
 30
0.0
 11
2235.934457091596
 21
164.6307149903441
 31
0.0
  0
CIRCLE
  5
172
330
15
100
AcDbEntity
  8
4
100
AcDbCircle
 10
2158.190976692561
 20
242.3741953893796
 30
0.0
 40
44.999997
  0
ARC
  5
173
330
15
100
AcDbEntity
  8
4
100
AcDbCircle
 10
2158.190976692561
 20
242.3741953893796
 30
0.0
 40
29.000034
100
AcDbArc
 50
104.988214999998
 51
75.01178499999833
  0
LINE
  5
174
330
15
100
AcDbEntity
  8
4
100
AcDbLine
 10
2150.690973692561
 20
276.3741963893794
 30
0.0
 11
2150.690973692561
 21
266.3741993893796
 31
0.0
  0
LINE
  5
175
330
15
100
AcDbEntity
  8
4
100
AcDbLine
 10
2165.690972692561
 20
266.3741993893796
 30
0.0
 11
2165.690972692561
 21
276.3741963893794
 31
0.0
  0
LINE
  5
176
330
15
100
AcDbEntity
  8
4
100
AcDbLine
 10
2165.690972692561
 20
266.3741993893796
 30
0.0
 11
2150.690973692561
 21
266.3741993893796
 31
0.0
  0
LINE
  5
177
330
15
100
AcDbEntity
  8
4
100
AcDbLine
 10
2165.690972692561
 20
276.3741963893794
 30
0.0
 11
2150.690973692561
 21
276.3741963893794
 31
0.0
  0
ARC
  5
178
330
15
100
AcDbEntity
  8
4
100
AcDbCircle
 10
2235.543027692561
 20
165.0219063893792
 30
0.0
 40
4.999910999999999
100
AcDbArc
 50
281.2945689999945
 51
348.7054310000055
  0
ARC
  5
179
330
15
100
AcDbEntity
  8
4
100
AcDbCircle
 10
2235.543027692561
 20
319.7264913893796
 30
0.0
 40
4.999910999999999
100
AcDbArc
 50
11.29456899999443
 51
78.70543100000558
  0
LINE
  5
17A
330
15
100
AcDbEntity
  8
4
100
AcDbLine
 10
2418.190975692561
 20
419.8741963893794
 30
0.0
 11
2596.190972692561
 21
419.8741963893794
 31
0.0
  0
LINE
  5
17B
330
15
100
AcDbEntity
  8
4
100
AcDbLine
 10
2377.772345692562
 20
332.3741963893794
 30
0.0
 11
2388.190970692561
 21
332.3741963893794
 31
0.0
  0
LINE
  5
17C
330
15
100
AcDbEntity
  8
4
100
AcDbLine
 10
2402.090976692562
 20
332.3741963893794
 30
0.0
 11
2388.190970692561
 21
332.3741963893794
 31
0.0
  0
LINE
  5
17D
330
15
100
AcDbEntity
  8
4
100
AcDbLine
 10
2388.190970692561
 20
382.3741953893796
 30
0.0
 11
2378.575084692561
 21
382.3741953893796
 31
0.0
  0
LINE
  5
17E
330
15
100
AcDbEntity
  8
4
100
AcDbLine
 10
2402.090976692562
 20
382.3741953893796
 30
0.0
 11
2388.190970692561
 21
382.3741953893796
 31
0.0
  0
LINE
  5
17F
330
15
100
AcDbEntity
  8
4
100
AcDbLine
 10
2414.090976692561
 20
417.3741953893796
 30
0.0
 11
2418.190975692561
 21
417.3741953893796
 31
0.0
  0
LINE
  5
180
330
15
100
AcDbEntity
  8
4
100
AcDbLine
 10
2404.090975692561
 20
402.3741963893794
 30
0.0
 11
2403.090976692562
 21
402.3741963893794
 31
0.0
  0
LINE
  5
181
330
15
100
AcDbEntity
  8
4
100
AcDbLine
 10
2598.190970692561
 20
421.8741943893792
 30
0.0
 11
2596.190972692561
 21
419.8741963893794
 31
0.0
  0
LINE
  5
182
330
15
100
AcDbEntity
  8
4
100
AcDbLine
 10
2418.190975692561
 20
524.8741963893794
 30
0.0
 11
2596.190972692561
 21
524.8741963893794
 31
0.0
  0
LINE
  5
183
330
15
100
AcDbEntity
  8
4
100
AcDbLine
 10
2598.190970692561
 20
533.8741943893792
 30
0.0
 11
2428.190972692561
 21
533.8741943893792
 31
0.0
  0
LINE
  5
184
330
15
100
AcDbEntity
  8
4
100
AcDbLine
 10
2414.090976692561
 20
527.3741973893793
 30
0.0
 11
2418.190975692561
 21
527.3741973893793
 31
0.0
  0
LINE
  5
185
330
15
100
AcDbEntity
  8
4
100
AcDbLine
 10
2428.190972692561
 20
524.8741963893794
 30
0.0
 11
2428.190972692561
 21
533.8741943893792
 31
0.0
  0
LINE
  5
186
330
15
100
AcDbEntity
  8
4
100
AcDbLine
 10
2378.19872969256
 20
602.3741923893795
 30
0.0
 11
2388.190970692561
 21
602.3741923893795
 31
0.0
  0
LINE
  5
187
330
15
100
AcDbEntity
  8
4
100
AcDbLine
 10
2378.030281692562
 20
612.3741963893794
 30
0.0
 11
2388.190970692561
 21
612.3741963893794
 31
0.0
  0
LINE
  5
188
330
15
100
AcDbEntity
  8
4
100
AcDbLine
 10
2402.090976692562
 20
602.3741923893795
 30
0.0
 11
2388.190970692561
 21
602.3741923893795
 31
0.0
  0
LINE
  5
189
330
15
100
AcDbEntity
  8
4
100
AcDbLine
 10
2402.090976692562
 20
612.3741963893794
 30
0.0
 11
2388.190970692561
 21
612.3741963893794
 31
0.0
  0
LINE
  5
18A
330
15
100
AcDbEntity
  8
4
100
AcDbLine
 10
2596.190972692561
 20
524.8741963893794
 30
0.0
 11
2598.190970692561
 21
522.8741983893797
 31
0.0
  0
LINE
  5
18B
330
15
100
AcDbEntity
  8
4
100
AcDbLine
 10
2341.190975692561
 20
876.3741913893796
 30
0.0
 11
2091.190973692561
 21
876.3741913893796
 31
0.0
  0
LINE
  5
18C
330
15
100
AcDbEntity
  8
4
100
AcDbLine
 10
2061.158978692561
 20
827.3741913893796
 30
0.0
 11
2065.190978692561
 21
827.3741913893796
 31
0.0
  0
LINE
  5
18D
330
15
100
AcDbEntity
  8
4
100
AcDbLine
 10
2067.190976692561
 20
869.3741913893796
 30
0.0
 11
2089.190975692562
 21
869.3741913893796
 31
0.0
  0
ARC
  5
18E
330
15
100
AcDbEntity
  8
4
100
AcDbCircle
 10
2067.190976692561
 20
867.3741933893793
 30
0.0
 40
1.999998
100
AcDbArc
 50
90.0
 51
180.0
  0
ARC
  5
18F
330
15
100
AcDbEntity
  8
4
100
AcDbCircle
 10
2091.190973692561
 20
874.3741933893793
 30
0.0
 40
1.999998
100
AcDbArc
 50
90.0
 51
180.0
  0
LINE
  5
190
330
15
100
AcDbEntity
  8
4
100
AcDbLine
 10
2373.190971692561
 20
869.3741913893796
 30
0.0
 11
2347.190976692561
 21
869.3741913893796
 31
0.0
  0
ARC
  5
191
330
15
100
AcDbEntity
  8
4
100
AcDbCircle
 10
2216.190974692562
 20
924.3741923893795
 30
0.0
 40
45.000025
100
AcDbArc
 50
299.2650449999991
 51
240.7363439999996
  0
LINE
  5
192
330
15
100
AcDbEntity
  8
4
100
AcDbLine
 10
2274.190972692561
 20
879.3741953893796
 30
0.0
 11
2158.190976692561
 21
879.3741953893796
 31
0.0
  0
LINE
  5
193
330
15
100
AcDbEntity
  8
L-CENTER
 48
2.0
100
AcDbLine
 10
2159.217099692561
 20
924.3741923893795
 30
0.0
 11
2273.164849692562
 21
924.3741923893795
 31
0.0
  0
CIRCLE
  5
194
330
15
100
AcDbEntity
  8
4
100
AcDbCircle
 10
2216.190974692562
 20
924.3741923893795
 30
0.0
 40
25.000003
  0
LINE
  5
195
330
15
100
AcDbEntity
  8
4
100
AcDbLine
 10
2237.116508692562
 20
897.3741913893796
 30
0.0
 11
2195.265923692562
 21
897.3741913893796
 31
0.0
  0
LINE
  5
196
330
15
100
AcDbEntity
  8
4
100
AcDbLine
 10
2216.190974692562
 20
899.3741963893794
 30
0.0
 11
2237.116508692562
 21
897.3741913893796
 31
0.0
  0
LINE
  5
197
330
15
100
AcDbEntity
  8
4
100
AcDbLine
 10
2194.190975692561
 20
879.3741953893796
 30
0.0
 11
2238.190973692561
 21
879.3741953893796
 31
0.0
  0
LINE
  5
198
330
15
100
AcDbEntity
  8
4
100
AcDbLine
 10
2238.190973692561
 20
879.3741953893796
 30
0.0
 11
2194.190975692561
 21
879.3741953893796
 31
0.0
  0
LINE
  5
199
330
15
100
AcDbEntity
  8
4
100
AcDbLine
 10
2195.265923692562
 20
897.3741913893796
 30
0.0
 11
2193.690972692561
 21
879.3741953893796
 31
0.0
  0
LINE
  5
19A
330
15
100
AcDbEntity
  8
4
100
AcDbLine
 10
2158.190976692561
 20
876.3741913893796
 30
0.0
 11
2158.190976692561
 21
879.3741953893796
 31
0.0
  0
LINE
  5
19B
330
15
100
AcDbEntity
  8
4
100
AcDbLine
 10
2193.190976692561
 20
881.3741933893793
 30
0.0
 11
2193.190976692561
 21
885.3741963893794
 31
0.0
  0
LINE
  5
19C
330
15
100
AcDbEntity
  8
4
100
AcDbLine
 10
2193.190976692561
 20
881.3741933893793
 30
0.0
 11
2193.86602169256
 21
881.3741933893793
 31
0.0
  0
LINE
  5
19D
330
15
100
AcDbEntity
  8
4
100
AcDbLine
 10
2193.190976692561
 20
885.3741963893794
 30
0.0
 11
2193.741022692561
 21
885.3741963893794
 31
0.0
  0
LINE
  5
19E
330
15
100
AcDbEntity
  8
4
100
AcDbLine
 10
2195.265923692562
 20
897.3741913893796
 30
0.0
 11
2216.190974692562
 21
899.3741963893794
 31
0.0
  0
LINE
  5
19F
330
15
100
AcDbEntity
  8
4
100
AcDbLine
 10
2237.116508692562
 20
897.3741913893796
 30
0.0
 11
2238.691221692562
 21
879.3741953893796
 31
0.0
  0
LINE
  5
1A0
330
15
100
AcDbEntity
  8
4
100
AcDbLine
 10
2239.190972692561
 20
881.3741933893793
 30
0.0
 11
2239.190972692561
 21
885.3741963893794
 31
0.0
  0
LINE
  5
1A1
330
15
100
AcDbEntity
  8
4
100
AcDbLine
 10
2238.516172692561
 20
881.3741933893793
 30
0.0
 11
2239.190972692561
 21
881.3741933893793
 31
0.0
  0
LINE
  5
1A2
330
15
100
AcDbEntity
  8
4
100
AcDbLine
 10
2238.640926692561
 20
885.3741963893794
 30
0.0
 11
2239.190972692561
 21
885.3741963893794
 31
0.0
  0
LINE
  5
1A3
330
15
100
AcDbEntity
  8
4
100
AcDbLine
 10
2274.190972692561
 20
876.3741913893796
 30
0.0
 11
2274.190972692561
 21
879.3741953893796
 31
0.0
  0
LINE
  5
1A4
330
15
100
AcDbEntity
  8
4
100
AcDbLine
 10
2343.190973692561
 20
869.3741913893796
 30
0.0
 11
2347.190976692561
 21
869.3741913893796
 31
0.0
  0
ARC
  5
1A5
330
15
100
AcDbEntity
  8
4
100
AcDbCircle
 10
2341.190975692561
 20
874.3741933893793
 30
0.0
 40
1.999998
100
AcDbArc
 50
0.0
 51
90.0
  0
ARC
  5
1A6
330
15
100
AcDbEntity
  8
4
100
AcDbCircle
 10
2373.190971692561
 20
867.3741933893793
 30
0.0
 40
1.999998
100
AcDbArc
 50
0.0
 51
90.0
  0
LINE
  5
1A9
330
15
100
AcDbEntity
  8
L-CENTER
 48
2.0
100
AcDbLine
 10
556.8600114979663
 20
1676.823032628435
 30
0.0
 11
1397.396072662212
 21
1676.823032628435
 31
0.0
  0
LINE
  5
1AA
330
15
100
AcDbEntity
  8
4
100
AcDbLine
 10
587.128042080089
 20
1807.823032628435
 30
0.0
 11
1367.128042080089
 21
1807.823032628435
 31
0.0
  0
LINE
  5
1AB
330
15
100
AcDbEntity
  8
4
100
AcDbLine
 10
716.5380420800893
 20
1504.823032628435
 30
0.0
 11
996.5380420800889
 21
1504.823032628435
 31
0.0
  0
ARC
  5
1AC
330
15
100
AcDbEntity
  8
4
100
AcDbCircle
 10
977.128042080089
 20
9113.851483576178
 30
0.0
 40
7600.0
100
AcDbArc
 50
267.375538758927
 51
272.624461241073
  0
LINE
  5
1AD
330
15
100
AcDbEntity
  8
4
100
AcDbLine
 10
571.1280420800895
 20
1451.823032628435
 30
0.0
 11
571.1280420800886
 21
1901.823032628435
 31
0.0
  0
LINE
  5
1AE
330
15
100
AcDbEntity
  8
4
100
AcDbLine
 10
566.1280420800895
 20
1528.823032628435
 30
0.0
 11
566.1280420800895
 21
1708.823032628435
 31
0.0
  0
LINE
  5
1AF
330
15
100
AcDbEntity
  8
2
100
AcDbLine
 10
565.8280420800895
 20
1528.823032628435
 30
0.0
 11
565.8280420800895
 21
1708.823032628435
 31
0.0
  0
LINE
  5
1B0
330
15
100
AcDbEntity
  8
4
100
AcDbLine
 10
587.1280420800895
 20
1547.823032628435
 30
0.0
 11
587.1280420800895
 21
1527.823032628434
 31
0.0
  0
ARC
  5
1B1
330
15
100
AcDbEntity
  8
4
100
AcDbCircle
 10
977.128042080089
 20
9113.851483576178
 30
0.0
 40
7604.0
100
AcDbArc
 50
267.3769202932932
 51
272.6230797067068
  0
LINE
  5
1B2
330
15
100
AcDbEntity
  8
4
100
AcDbLine
 10
763.4364935249419
 20
1436.823032628435
 30
0.0
 11
586.1280420800895
 21
1436.823032628435
 31
0.0
  0
LINE
  5
1B3
330
15
100
AcDbEntity
  8
L-CENTER
 48
2.0
100
AcDbLine
 10
692.1280420800886
 20
1486.823032628435
 30
0.0
 11
622.1280420800886
 21
1486.823032628435
 31
0.0
  0
ARC
  5
1B4
330
15
100
AcDbEntity
  8
4
100
AcDbCircle
 10
586.1280420800895
 20
1451.823032628435
 30
0.0
 40
15.0
100
AcDbArc
 50
180.0
 51
270.0
  0
LINE
  5
1B5
330
15
100
AcDbEntity
  8
4
100
AcDbLine
 10
589.1280420800895
 20
1525.823032628434
 30
0.0
 11
1365.128042080089
 21
1525.823032628434
 31
0.0
  0
LINE
  5
1B6
330
15
100
AcDbEntity
  8
4
100
AcDbLine
 10
571.1280420800895
 20
1523.823032628433
 30
0.0
 11
628.9564692048198
 21
1523.823032628434
 31
0.0
  0
LINE
  5
1B7
330
15
100
AcDbEntity
  8
4
100
AcDbLine
 10
591.1280420800895
 20
1486.823032628435
 30
0.0
 11
591.1280420800895
 21
1520.823032628433
 31
0.0
  0
LINE
  5
1B8
330
15
100
AcDbEntity
  8
4
100
AcDbLine
 10
594.1280420800895
 20
1486.823032628435
 30
0.0
 11
594.1280420800895
 21
1520.823032628434
 31
0.0
  0
LINE
  5
1B9
330
15
100
AcDbEntity
  8
4
100
AcDbLine
 10
594.1280420800895
 20
1486.823032628435
 30
0.0
 11
571.1280420800895
 21
1486.823032628435
 31
0.0
  0
ARC
  5
1BA
330
15
100
AcDbEntity
  8
4
100
AcDbCircle
 10
594.1280420800895
 20
1520.823032628433
 30
0.0
 40
3.0
100
AcDbArc
 50
90.0
 51
180.0
  0
ARC
  5
1BB
330
15
100
AcDbEntity
  8
4
100
AcDbCircle
 10
589.1280420800895
 20
1527.823032628434
 30
0.0
 40
2.0
100
AcDbArc
 50
180.0
 51
270.0
  0
LINE
  5
1BC
330
15
100
AcDbEntity
  8
4
100
AcDbLine
 10
566.1280420800895
 20
1528.823032628435
 30
0.0
 11
571.1280420800886
 21
1523.823032628435
 31
0.0
  0
ARC
  5
1BD
330
15
100
AcDbEntity
  8
4
100
AcDbCircle
 10
597.1280420800895
 20
1520.823032628434
 30
0.0
 40
3.0
100
AcDbArc
 50
90.0
 51
180.0
  0
LINE
  5
1BE
330
15
100
AcDbEntity
  8
L-CENTER
 48
2.0
100
AcDbLine
 10
657.1280420800886
 20
1451.823032628435
 30
0.0
 11
657.1280420800877
 21
1521.823032628435
 31
0.0
  0
CIRCLE
  5
1BF
330
15
100
AcDbEntity
  8
4
100
AcDbCircle
 10
657.1280420800886
 20
1486.823032628435
 30
0.0
 40
13.0
  0
LINE
  5
1C0
330
15
100
AcDbEntity
  8
4
100
AcDbLine
 10
629.1280420800895
 20
1522.823032628434
 30
0.0
 11
629.1280420800895
 21
1517.818834883836
 31
0.0
  0
ARC
  5
1C1
330
15
100
AcDbEntity
  8
4
100
AcDbCircle
 10
626.1280420800895
 20
1522.823032628434
 30
0.0
 40
3.0
100
AcDbArc
 50
0.0
 51
90.0
  0
LINE
  5
1C2
330
15
100
AcDbEntity
  8
4
100
AcDbLine
 10
785.2253872128324
 20
1489.923032628435
 30
0.0
 11
773.1016763108569
 21
1444.257054897661
 31
0.0
  0
ARC
  5
1C3
330
15
100
AcDbEntity
  8
4
100
AcDbCircle
 10
763.4364935249419
 20
1446.823032628435
 30
0.0
 40
10.0
100
AcDbArc
 50
270.0
 51
345.1317186415046
  0
ARC
  5
1C4
330
15
100
AcDbEntity
  8
4
100
AcDbCircle
 10
711.5380420800893
 20
1509.488068279668
 30
0.0
 40
5.0
100
AcDbArc
 50
0.0
 51
87.99970065370903
  0
LINE
  5
1C5
330
15
100
AcDbEntity
  8
4
100
AcDbLine
 10
716.5380420800893
 20
1504.823032628435
 30
0.0
 11
716.5380420800893
 21
1509.488068279668
 31
0.0
  0
ARC
  5
1C6
330
15
100
AcDbEntity
  8
4
100
AcDbCircle
 10
585.1280420800895
 20
1547.823032628435
 30
0.0
 40
2.0
100
AcDbArc
 50
0.0
 51
90.0
  0
LINE
  5
1C7
330
15
100
AcDbEntity
  8
4
100
AcDbLine
 10
573.1280420800895
 20
1549.823032628434
 30
0.0
 11
1381.128042080089
 21
1549.823032628464
 31
0.0
  0
ARC
  5
1C8
330
15
100
AcDbEntity
  8
4
100
AcDbCircle
 10
573.1280420800895
 20
1551.823032628434
 30
0.0
 40
2.0
100
AcDbArc
 50
180.0
 51
270.0
  0
LINE
  5
1C9
330
15
100
AcDbEntity
  8
4
100
AcDbLine
 10
594.1280420800886
 20
1836.123032628435
 30
0.0
 11
594.1280420800886
 21
1866.823032628435
 31
0.0
  0
LINE
  5
1CA
330
15
100
AcDbEntity
  8
4
100
AcDbLine
 10
591.1280420800886
 20
1836.123032628435
 30
0.0
 11
591.1280420800886
 21
1866.823032628435
 31
0.0
  0
CIRCLE
  5
1CB
330
15
100
AcDbEntity
  8
4
100
AcDbCircle
 10
657.1280420800886
 20
1866.823032628435
 30
0.0
 40
13.0
  0
LINE
  5
1CC
330
15
100
AcDbEntity
  8
L-CENTER
 48
2.0
100
AcDbLine
 10
657.1280420800886
 20
1901.823032628435
 30
0.0
 11
657.1280420800877
 21
1831.823032628435
 31
0.0
  0
LINE
  5
1CD
330
15
100
AcDbEntity
  8
4
100
AcDbLine
 10
774.0884934262399
 20
1905.671999224597
 30
0.0
 11
785.1457411951324
 21
1864.023032628435
 31
0.0
  0
LINE
  5
1CE
330
15
100
AcDbEntity
  8
4
100
AcDbLine
 10
566.1280420800895
 20
1708.823032628435
 30
0.0
 11
571.1280420800886
 21
1713.823032628435
 31
0.0
  0
ARC
  5
1CF
330
15
100
AcDbEntity
  8
4
100
AcDbCircle
 10
573.1280420800895
 20
1801.823032628435
 30
0.0
 40
2.0
100
AcDbArc
 50
90.0
 51
180.0
  0
LINE
  5
1D0
330
15
100
AcDbEntity
  8
4
100
AcDbLine
 10
573.1280420800895
 20
1803.823032628435
 30
0.0
 11
1381.128042080089
 21
1803.823032628435
 31
0.0
  0
LINE
  5
1D1
330
15
100
AcDbEntity
  8
4
100
AcDbLine
 10
586.1280420800886
 20
1916.823032628435
 30
0.0
 11
759.5907192473665
 21
1916.823032628435
 31
0.0
  0
LINE
  5
1D2
330
15
100
AcDbEntity
  8
L-CENTER
 48
2.0
100
AcDbLine
 10
692.1280420800886
 20
1866.823032628435
 30
0.0
 11
622.1280420800886
 21
1866.823032628435
 31
0.0
  0
LINE
  5
1D3
330
15
100
AcDbEntity
  8
4
100
AcDbLine
 10
594.1280420800886
 20
1866.823032628435
 30
0.0
 11
571.1280420800886
 21
1866.823032628434
 31
0.0
  0
ARC
  5
1D4
330
15
100
AcDbEntity
  8
4
100
AcDbCircle
 10
586.1280420800886
 20
1901.823032628435
 30
0.0
 40
15.0
100
AcDbArc
 50
90.0
 51
180.0
  0
ARC
  5
1D5
330
15
100
AcDbEntity
  8
4
100
AcDbCircle
 10
759.5907192473665
 20
1901.823032628435
 30
0.0
 40
15.0
100
AcDbArc
 50
14.86828135850259
 51
90.0
  0
LINE
  5
1D6
330
15
100
AcDbEntity
  8
L-CENTER
 48
2.0
100
AcDbLine
 10
1262.128042080091
 20
1866.823032628435
 30
0.0
 11
1332.128042080091
 21
1866.823032628435
 31
0.0
  0
CIRCLE
  5
1D7
330
15
100
AcDbEntity
  8
4
100
AcDbCircle
 10
1297.128042080091
 20
1866.823032628435
 30
0.0
 40
13.0
  0
LINE
  5
1D8
330
15
100
AcDbEntity
  8
4
100
AcDbLine
 10
1368.128042080089
 20
1916.823032628435
 30
0.0
 11
1194.665364912812
 21
1916.823032628435
 31
0.0
  0
CIRCLE
  5
1D9
330
15
100
AcDbEntity
  8
4
100
AcDbCircle
 10
1297.128042080091
 20
1486.823032628435
 30
0.0
 40
13.0
  0
LINE
  5
1DA
330
15
100
AcDbEntity
  8
L-CENTER
 48
2.0
100
AcDbLine
 10
1262.128042080091
 20
1486.823032628435
 30
0.0
 11
1332.128042080091
 21
1486.823032628435
 31
0.0
  0
LINE
  5
1DB
330
15
100
AcDbEntity
  8
4
100
AcDbLine
 10
1190.819590635238
 20
1436.823032628435
 30
0.0
 11
1368.128042080089
 21
1436.823032628435
 31
0.0
  0
LINE
  5
1DC
330
15
100
AcDbEntity
  8
L-CENTER
 48
2.0
100
AcDbLine
 10
977.128042080089
 20
1855.391763257089
 30
0.0
 11
977.128042080089
 21
1498.25430199978
 31
0.0
  0
LINE
  5
1DD
330
15
100
AcDbEntity
  8
4
100
AcDbLine
 10
587.128042080089
 20
1834.123032628435
 30
0.0
 11
587.128042080089
 21
1803.823032628435
 31
0.0
  0
LINE
  5
1DE
330
15
100
AcDbEntity
  8
4
100
AcDbLine
 10
1367.128042080089
 20
1834.123032628435
 30
0.0
 11
1367.128042080089
 21
1803.823032628435
 31
0.0
  0
LINE
  5
1DF
330
15
100
AcDbEntity
  8
4
100
AcDbLine
 10
1016.538042080089
 20
1504.823032628435
 30
0.0
 11
1236.538042080089
 21
1504.823032628435
 31
0.0
  0
LINE
  5
1E0
330
15
100
AcDbEntity
  8
4
100
AcDbLine
 10
996.5380420800889
 20
1504.823032628435
 30
0.0
 11
996.5380420800889
 21
1504.890637843037
 31
0.0
  0
LINE
  5
1E1
330
15
100
AcDbEntity
  8
4
100
AcDbLine
 10
1016.538042080089
 20
1504.823032628435
 30
0.0
 11
1016.538042080089
 21
1504.929289736896
 31
0.0
  0
ARC
  5
1E2
330
15
100
AcDbEntity
  8
4
100
AcDbCircle
 10
1001.538042080089
 20
1504.890637843037
 30
0.0
 40
5.0
100
AcDbArc
 50
90.18380764576611
 51
180.0
  0
ARC
  5
1E3
330
15
100
AcDbEntity
  8
4
100
AcDbCircle
 10
1011.538042080089
 20
1504.929289736896
 30
0.0
 40
5.0
100
AcDbArc
 50
0.0
 51
90.25910822621238
  0
LINE
  5
1E4
330
15
100
AcDbEntity
  8
4
100
AcDbLine
 10
1169.030696947347
 20
1489.923032628434
 30
0.0
 11
1181.154407849321
 21
1444.25705489766
 31
0.0
  0
ARC
  5
1E5
330
15
100
AcDbEntity
  8
4
100
AcDbCircle
 10
1190.819590635238
 20
1446.823032628435
 30
0.0
 40
10.0
100
AcDbArc
 50
194.8682813585007
 51
270.0
  0
LINE
  5
1E6
330
15
100
AcDbEntity
  8
4
100
AcDbLine
 10
1236.538042080089
 20
1504.823032628435
 30
0.0
 11
1236.538042080089
 21
1509.446947263029
 31
0.0
  0
ARC
  5
1E7
330
15
100
AcDbEntity
  8
4
100
AcDbCircle
 10
1241.538042080089
 20
1509.446947263029
 30
0.0
 40
5.0
100
AcDbArc
 50
91.9914085511411
 51
180.0
  0
LINE
  5
1E8
330
15
100
AcDbEntity
  8
L-CENTER
 48
2.0
100
AcDbLine
 10
1297.128042080089
 20
1451.823032628435
 30
0.0
 11
1297.128042080091
 21
1521.823032628435
 31
0.0
  0
LINE
  5
1E9
330
15
100
AcDbEntity
  8
L-CENTER
 48
2.0
100
AcDbLine
 10
1297.128042080089
 20
1901.823032628435
 30
0.0
 11
1297.128042080091
 21
1831.823032628435
 31
0.0
  0
LINE
  5
1EA
330
15
100
AcDbEntity
  8
4
100
AcDbLine
 10
1180.167590733936
 20
1905.671999224595
 30
0.0
 11
1169.110342965045
 21
1864.023032628435
 31
0.0
  0
ARC
  5
1EB
330
15
100
AcDbEntity
  8
4
100
AcDbCircle
 10
1194.665364912812
 20
1901.823032628435
 30
0.0
 40
15.0
100
AcDbArc
 50
90.0
 51
165.1317186415047
  0
LINE
  5
1EC
330
15
100
AcDbEntity
  8
4
100
AcDbLine
 10
1383.128042080089
 20
1451.823032628435
 30
0.0
 11
1383.128042080089
 21
1901.823032628435
 31
0.0
  0
LINE
  5
1ED
330
15
100
AcDbEntity
  8
4
100
AcDbLine
 10
1388.128042080089
 20
1528.823032628435
 30
0.0
 11
1388.128042080089
 21
1708.823032628435
 31
0.0
  0
LINE
  5
1EE
330
15
100
AcDbEntity
  8
2
100
AcDbLine
 10
1388.428042080089
 20
1528.823032628435
 30
0.0
 11
1388.428042080089
 21
1708.823032628435
 31
0.0
  0
LINE
  5
1EF
330
15
100
AcDbEntity
  8
4
100
AcDbLine
 10
1367.128042080089
 20
1547.823032628435
 30
0.0
 11
1367.128042080089
 21
1527.823032628434
 31
0.0
  0
ARC
  5
1F0
330
15
100
AcDbEntity
  8
4
100
AcDbCircle
 10
1368.128042080089
 20
1451.823032628435
 30
0.0
 40
15.0
100
AcDbArc
 50
270.0
 51
0.0
  0
ARC
  5
1F1
330
15
100
AcDbEntity
  8
4
100
AcDbCircle
 10
1365.128042080089
 20
1527.823032628434
 30
0.0
 40
2.0
100
AcDbArc
 50
270.0
 51
0.0
  0
LINE
  5
1F2
330
15
100
AcDbEntity
  8
4
100
AcDbLine
 10
1360.128042080089
 20
1486.823032628435
 30
0.0
 11
1383.128042080089
 21
1486.823032628435
 31
0.0
  0
LINE
  5
1F3
330
15
100
AcDbEntity
  8
4
100
AcDbLine
 10
1383.128042080089
 20
1523.823032628433
 30
0.0
 11
1325.299614955359
 21
1523.823032628434
 31
0.0
  0
LINE
  5
1F4
330
15
100
AcDbEntity
  8
4
100
AcDbLine
 10
1363.128042080089
 20
1486.823032628435
 30
0.0
 11
1363.128042080089
 21
1520.823032628433
 31
0.0
  0
LINE
  5
1F5
330
15
100
AcDbEntity
  8
4
100
AcDbLine
 10
1360.128042080089
 20
1486.823032628435
 30
0.0
 11
1360.128042080089
 21
1520.823032628434
 31
0.0
  0
LINE
  5
1F6
330
15
100
AcDbEntity
  8
4
100
AcDbLine
 10
1325.128042080089
 20
1522.823032628434
 30
0.0
 11
1325.128042080089
 21
1517.818834883836
 31
0.0
  0
ARC
  5
1F7
330
15
100
AcDbEntity
  8
4
100
AcDbCircle
 10
1328.128042080089
 20
1522.823032628434
 30
0.0
 40
3.0
100
AcDbArc
 50
90.0
 51
180.0
  0
ARC
  5
1F8
330
15
100
AcDbEntity
  8
4
100
AcDbCircle
 10
1360.128042080089
 20
1520.823032628433
 30
0.0
 40
3.0
100
AcDbArc
 50
0.0
 51
90.0
  0
ARC
  5
1F9
330
15
100
AcDbEntity
  8
4
100
AcDbCircle
 10
1357.128042080089
 20
1520.823032628434
 30
0.0
 40
3.0
100
AcDbArc
 50
0.0
 51
90.0
  0
LINE
  5
1FA
330
15
100
AcDbEntity
  8
4
100
AcDbLine
 10
1388.128042080089
 20
1528.823032628435
 30
0.0
 11
1383.128042080089
 21
1523.823032628435
 31
0.0
  0
ARC
  5
1FB
330
15
100
AcDbEntity
  8
4
100
AcDbCircle
 10
1369.128042080089
 20
1547.823032628435
 30
0.0
 40
2.0
100
AcDbArc
 50
90.0
 51
180.0
  0
ARC
  5
1FC
330
15
100
AcDbEntity
  8
4
100
AcDbCircle
 10
1381.128042080089
 20
1551.823032628434
 30
0.0
 40
2.0
100
AcDbArc
 50
270.0
 51
0.0
  0
LINE
  5
1FD
330
15
100
AcDbEntity
  8
4
100
AcDbLine
 10
1363.128042080091
 20
1836.123032628435
 30
0.0
 11
1363.128042080091
 21
1866.823032628435
 31
0.0
  0
LINE
  5
1FE
330
15
100
AcDbEntity
  8
4
100
AcDbLine
 10
1360.128042080091
 20
1836.123032628435
 30
0.0
 11
1360.128042080091
 21
1866.823032628435
 31
0.0
  0
LINE
  5
1FF
330
15
100
AcDbEntity
  8
4
100
AcDbLine
 10
1388.128042080089
 20
1708.823032628435
 30
0.0
 11
1383.128042080089
 21
1713.823032628435
 31
0.0
  0
ARC
  5
200
330
15
100
AcDbEntity
  8
4
100
AcDbCircle
 10
1381.128042080089
 20
1801.823032628435
 30
0.0
 40
2.0
100
AcDbArc
 50
0.0
 51
90.0
  0
LINE
  5
201
330
15
100
AcDbEntity
  8
4
100
AcDbLine
 10
1360.128042080091
 20
1866.823032628435
 30
0.0
 11
1383.128042080091
 21
1866.823032628434
 31
0.0
  0
ARC
  5
202
330
15
100
AcDbEntity
  8
4
100
AcDbCircle
 10
1368.128042080089
 20
1901.823032628435
 30
0.0
 40
15.0
100
AcDbArc
 50
0.0
 51
90.0
  0
LINE
  5
203
330
15
100
AcDbEntity
  8
4
100
AcDbLine
 10
1007.128042080089
 20
1621.823032628435
 30
0.0
 11
1007.128042080089
 21
1731.823032628435
 31
0.0
  0
LINE
  5
204
330
15
100
AcDbEntity
  8
4
100
AcDbLine
 10
950.128042080089
 20
1618.823032628435
 30
0.0
 11
1004.128042080089
 21
1618.823032628435
 31
0.0
  0
ARC
  5
205
330
15
100
AcDbEntity
  8
4
100
AcDbCircle
 10
1004.128042080089
 20
1621.823032628435
 30
0.0
 40
3.0
100
AcDbArc
 50
270.0
 51
0.0
  0
LINE
  5
206
330
15
100
AcDbEntity
  8
4
100
AcDbLine
 10
947.128042080089
 20
1621.823032628435
 30
0.0
 11
947.128042080089
 21
1731.823032628435
 31
0.0
  0
ARC
  5
207
330
15
100
AcDbEntity
  8
4
100
AcDbCircle
 10
950.128042080089
 20
1621.823032628435
 30
0.0
 40
3.0
100
AcDbArc
 50
180.0
 51
270.0
  0
LINE
  5
208
330
15
100
AcDbEntity
  8
4
100
AcDbLine
 10
950.128042080089
 20
1734.823032628435
 30
0.0
 11
1004.128042080089
 21
1734.823032628435
 31
0.0
  0
ARC
  5
209
330
15
100
AcDbEntity
  8
4
100
AcDbCircle
 10
950.128042080089
 20
1731.823032628435
 30
0.0
 40
3.0
100
AcDbArc
 50
90.0
 51
180.0
  0
ARC
  5
20A
330
15
100
AcDbEntity
  8
4
100
AcDbCircle
 10
1004.128042080089
 20
1731.823032628435
 30
0.0
 40
3.0
100
AcDbArc
 50
0.0
 51
90.0
  0
CIRCLE
  5
20B
330
15
100
AcDbEntity
  8
4
100
AcDbCircle
 10
727.1280420800895
 20
1676.823032628435
 30
0.0
 40
25.0
  0
LINE
  5
20C
330
15
100
AcDbEntity
  8
L-CENTER
 48
2.0
100
AcDbLine
 10
727.1280420800895
 20
1641.823032628436
 30
0.0
 11
727.1280420800895
 21
1711.823032628433
 31
0.0
  0
LINE
  5
20D
330
15
100
AcDbEntity
  8
L-CENTER
 48
2.0
100
AcDbLine
 10
539.0880048594317
 20
1618.823032628435
 30
0.0
 11
1550.959580080089
 21
1618.823032628435
 31
0.0
  0
ARC
  5
20E
330
15
100
AcDbEntity
  8
4
100
AcDbCircle
 10
977.1280420800908
 20
-5759.90541831931
 30
0.0
 40
7600.0
100
AcDbArc
 50
88.14762157577965
 51
91.85237842422035
  0
ARC
  5
20F
330
15
100
AcDbEntity
  8
4
100
AcDbCircle
 10
977.1280420800908
 20
-5759.90541831931
 30
0.0
 40
7604.0
100
AcDbArc
 50
87.37622925480406
 51
92.6237707451959
  0
LINE
  5
210
330
15
100
AcDbEntity
  8
2
100
AcDbLine
 10
587.128042080089
 20
1808.123032628435
 30
0.0
 11
1367.128042080089
 21
1808.123032628435
 31
0.0
  0
LINE
  5
211
330
15
100
AcDbEntity
  8
4
100
AcDbLine
 10
589.128042080089
 20
1836.123032628435
 30
0.0
 11
1365.128042080089
 21
1836.123032628435
 31
0.0
  0
LINE
  5
212
330
15
100
AcDbEntity
  8
4
100
AcDbLine
 10
716.5380420800893
 20
1849.123032628435
 30
0.0
 11
996.5380420800889
 21
1849.123032628436
 31
0.0
  0
ARC
  5
213
330
15
100
AcDbEntity
  8
4
100
AcDbCircle
 10
711.5380420800889
 20
1844.457996977201
 30
0.0
 40
5.0
100
AcDbArc
 50
272.0002993462543
 51
0.0
  0
LINE
  5
214
330
15
100
AcDbEntity
  8
4
100
AcDbLine
 10
716.5380420800893
 20
1844.4579969772
 30
0.0
 11
716.5380420800893
 21
1849.123032628435
 31
0.0
  0
LINE
  5
215
330
15
100
AcDbEntity
  8
L-CENTER
 48
2.0
100
AcDbLine
 10
856.5380420800889
 20
1469.730273748388
 30
0.0
 11
856.5380420800889
 21
2069.001987628434
 31
0.0
  0
LINE
  5
216
330
15
100
AcDbEntity
  8
L-CENTER
 48
2.0
100
AcDbLine
 10
1126.538042080089
 20
1469.730273748388
 30
0.0
 11
1126.538042080089
 21
1880.936661281176
 31
0.0
  0
LINE
  5
217
330
15
100
AcDbEntity
  8
4
100
AcDbLine
 10
1016.538042080089
 20
1849.123032628436
 30
0.0
 11
1236.538042080089
 21
1849.123032628436
 31
0.0
  0
ARC
  5
218
330
15
100
AcDbEntity
  8
4
100
AcDbCircle
 10
1001.538042080089
 20
1849.055427413833
 30
0.0
 40
5.0
100
AcDbArc
 50
180.0
 51
269.8161923541921
  0
LINE
  5
219
330
15
100
AcDbEntity
  8
4
100
AcDbLine
 10
996.5380420800889
 20
1849.055427413833
 30
0.0
 11
996.5380420800889
 21
1849.123032628436
 31
0.0
  0
LINE
  5
21A
330
15
100
AcDbEntity
  8
4
100
AcDbLine
 10
1016.538042080089
 20
1849.016775519974
 30
0.0
 11
1016.538042080089
 21
1849.123032628436
 31
0.0
  0
ARC
  5
21B
330
15
100
AcDbEntity
  8
4
100
AcDbCircle
 10
1011.538042080089
 20
1849.016775519974
 30
0.0
 40
5.0
100
AcDbArc
 50
269.7408917738189
 51
0.0
  0
LINE
  5
21C
330
15
100
AcDbEntity
  8
4
100
AcDbLine
 10
1236.538042080089
 20
1844.49911799384
 30
0.0
 11
1236.538042080089
 21
1849.123032628436
 31
0.0
  0
ARC
  5
21D
330
15
100
AcDbEntity
  8
4
100
AcDbCircle
 10
1241.538042080089
 20
1844.49911799384
 30
0.0
 40
5.0
100
AcDbArc
 50
180.0
 51
268.0085914488276
  0
LINE
  5
21E
330
15
100
AcDbEntity
  8
4
100
AcDbLine
 10
717.5380420800893
 20
1864.023032628435
 30
0.0
 11
995.5380420800889
 21
1864.023032628435
 31
0.0
  0
LINE
  5
21F
330
15
100
AcDbEntity
  8
4
100
AcDbLine
 10
717.5380420800893
 20
1489.923032628435
 30
0.0
 11
995.5380420800889
 21
1489.923032628435
 31
0.0
  0
LINE
  5
220
330
15
100
AcDbEntity
  8
4
100
AcDbLine
 10
716.5380420800893
 20
1849.123032628435
 30
0.0
 11
716.5380420800893
 21
1863.023032628435
 31
0.0
  0
LINE
  5
221
330
15
100
AcDbEntity
  8
4
100
AcDbLine
 10
996.5380420800889
 20
1849.123032628436
 30
0.0
 11
996.5380420800889
 21
1863.023032628435
 31
0.0
  0
LINE
  5
222
330
15
100
AcDbEntity
  8
4
100
AcDbLine
 10
996.5380420800889
 20
1504.890637843037
 30
0.0
 11
996.5380420800889
 21
1490.923032628435
 31
0.0
  0
LINE
  5
223
330
15
100
AcDbEntity
  8
4
100
AcDbLine
 10
716.5380420800893
 20
1504.823032628435
 30
0.0
 11
716.5380420800893
 21
1490.923032628435
 31
0.0
  0
LINE
  5
224
330
15
100
AcDbEntity
  8
2
100
AcDbLine
 10
716.5380420800893
 20
1504.523032628435
 30
0.0
 11
996.5380420800889
 21
1504.523032628435
 31
0.0
  0
LINE
  5
225
330
15
100
AcDbEntity
  8
2
100
AcDbLine
 10
716.5380420800893
 20
1849.423032628435
 30
0.0
 11
996.5380420800889
 21
1849.423032628435
 31
0.0
  0
LINE
  5
226
330
15
100
AcDbEntity
  8
4
100
AcDbLine
 10
1017.538042080089
 20
1864.023032628435
 30
0.0
 11
1235.538042080089
 21
1864.023032628435
 31
0.0
  0
LINE
  5
227
330
15
100
AcDbEntity
  8
4
100
AcDbLine
 10
1017.538042080089
 20
1489.923032628434
 30
0.0
 11
1235.538042080089
 21
1489.923032628434
 31
0.0
  0
LINE
  5
228
330
15
100
AcDbEntity
  8
4
100
AcDbLine
 10
1016.538042080089
 20
1849.123032628436
 30
0.0
 11
1016.538042080089
 21
1863.023032628435
 31
0.0
  0
LINE
  5
229
330
15
100
AcDbEntity
  8
4
100
AcDbLine
 10
1236.538042080089
 20
1863.023032628435
 30
0.0
 11
1236.538042080089
 21
1849.123032628436
 31
0.0
  0
LINE
  5
22A
330
15
100
AcDbEntity
  8
4
100
AcDbLine
 10
1236.538042080089
 20
1504.823032628435
 30
0.0
 11
1236.538042080089
 21
1490.923032628434
 31
0.0
  0
LINE
  5
22B
330
15
100
AcDbEntity
  8
4
100
AcDbLine
 10
1016.538042080089
 20
1504.823032628435
 30
0.0
 11
1016.538042080089
 21
1490.923032628434
 31
0.0
  0
LINE
  5
22C
330
15
100
AcDbEntity
  8
2
100
AcDbLine
 10
1016.538042080089
 20
1504.523032628434
 30
0.0
 11
1236.538042080089
 21
1504.523032628434
 31
0.0
  0
LINE
  5
22D
330
15
100
AcDbEntity
  8
2
100
AcDbLine
 10
1016.538042080089
 20
1849.423032628435
 30
0.0
 11
1236.538042080089
 21
1849.423032628435
 31
0.0
  0
LINE
  5
22E
330
15
100
AcDbEntity
  8
4
100
AcDbLine
 10
1406.428046080088
 20
1528.823038938781
 30
0.0
 11
1406.428046080088
 21
1708.823033680158
 31
0.0
  0
LINE
  5
22F
330
15
100
AcDbEntity
  8
4
100
AcDbLine
 10
1388.128042080089
 20
1528.823032628435
 30
0.0
 11
1406.428046080088
 21
1528.823038938781
 31
0.0
  0
LINE
  5
230
330
15
100
AcDbEntity
  8
4
100
AcDbLine
 10
1388.128042080089
 20
1708.823032628435
 30
0.0
 11
1406.428046080088
 21
1708.823033680158
 31
0.0
  0
LINE
  5
231
330
15
100
AcDbEntity
  8
4
100
AcDbLine
 10
547.8280380800862
 20
1528.823038938791
 30
0.0
 11
547.8280380800908
 21
1708.823033680169
 31
0.0
  0
LINE
  5
232
330
15
100
AcDbEntity
  8
4
100
AcDbLine
 10
566.1280420800863
 20
1528.823032628444
 30
0.0
 11
547.8280380800862
 21
1528.823038938791
 31
0.0
  0
LINE
  5
233
330
15
100
AcDbEntity
  8
4
100
AcDbLine
 10
566.1280420800908
 20
1708.823032628444
 30
0.0
 11
547.8280380800908
 21
1708.823033680169
 31
0.0
  0
LINE
  5
234
330
15
100
AcDbEntity
  8
4
100
AcDbLine
 10
1406.428046080088
 20
1663.823032628435
 30
0.0
 11
1407.428046080088
 21
1663.823032628435
 31
0.0
  0
LINE
  5
235
330
15
100
AcDbEntity
  8
4
100
AcDbLine
 10
1406.428046080088
 20
1573.823032628435
 30
0.0
 11
1407.428046080088
 21
1573.823032628435
 31
0.0
  0
LINE
  5
236
330
15
100
AcDbEntity
  8
4
100
AcDbLine
 10
1407.428046080088
 20
1573.823032628435
 30
0.0
 11
1407.428046080088
 21
1663.823032628435
 31
0.0
  0
LINE
  5
237
330
15
100
AcDbEntity
  8
4
100
AcDbLine
 10
851.3851605227878
 20
601.8741953893796
 30
0.0
 11
845.9003329654865
 21
592.3741953893796
 31
0.0
  0
LINE
  5
238
330
15
100
AcDbEntity
  8
4
100
AcDbLine
 10
867.8396431946926
 20
592.3741953893796
 30
0.0
 11
862.3548156373904
 21
601.8741953893796
 31
0.0
  0
CIRCLE
  5
239
330
15
100
AcDbEntity
  8
4
100
AcDbCircle
 10
856.8699880800891
 20
592.3741953893796
 30
0.0
 40
9.5
  0
LINE
  5
23A
330
15
100
AcDbEntity
  8
4
100
AcDbLine
 10
845.9003329654865
 20
592.3741953893796
 30
0.0
 11
851.3851605227878
 21
582.8741953893796
 31
0.0
  0
LINE
  5
23B
330
15
100
AcDbEntity
  8
4
100
AcDbLine
 10
851.3851605227878
 20
582.8741953893796
 30
0.0
 11
862.3548156373904
 21
582.8741953893796
 31
0.0
  0
LINE
  5
23C
330
15
100
AcDbEntity
  8
4
100
AcDbLine
 10
862.3548156373904
 20
582.8741953893796
 30
0.0
 11
867.8396431946926
 21
592.3741953893796
 31
0.0
  0
LINE
  5
23D
330
15
100
AcDbEntity
  8
4
100
AcDbLine
 10
862.3548156373904
 20
601.8741953893796
 30
0.0
 11
851.3851605227878
 21
601.8741953893796
 31
0.0
  0
LINE
  5
23E
330
15
100
AcDbEntity
  8
4
100
AcDbLine
 10
747.4619399277794
 20
541.8738962316379
 30
0.0
 11
741.9771123704782
 21
532.3738962316379
 31
0.0
  0
LINE
  5
23F
330
15
100
AcDbEntity
  8
4
100
AcDbLine
 10
763.9164225996842
 20
532.3738962316379
 30
0.0
 11
758.431595042382
 21
541.8738962316379
 31
0.0
  0
CIRCLE
  5
240
330
15
100
AcDbEntity
  8
4
100
AcDbCircle
 10
752.9467674850807
 20
532.3738962316379
 30
0.0
 40
9.5
  0
LINE
  5
241
330
15
100
AcDbEntity
  8
4
100
AcDbLine
 10
741.9771123704782
 20
532.3738962316379
 30
0.0
 11
747.4619399277794
 21
522.8738962316379
 31
0.0
  0
LINE
  5
242
330
15
100
AcDbEntity
  8
4
100
AcDbLine
 10
747.4619399277794
 20
522.8738962316379
 30
0.0
 11
758.431595042382
 21
522.8738962316379
 31
0.0
  0
LINE
  5
243
330
15
100
AcDbEntity
  8
4
100
AcDbLine
 10
758.431595042382
 20
522.8738962316379
 30
0.0
 11
763.9164225996842
 21
532.3738962316379
 31
0.0
  0
LINE
  5
244
330
15
100
AcDbEntity
  8
4
100
AcDbLine
 10
758.431595042382
 20
541.8738962316379
 30
0.0
 11
747.4619399277794
 21
541.8738962316379
 31
0.0
  0
LINE
  5
245
330
15
100
AcDbEntity
  8
4
100
AcDbLine
 10
747.4622845729787
 20
421.8738996041093
 30
0.0
 11
741.9774570156774
 21
412.3738996041093
 31
0.0
  0
LINE
  5
246
330
15
100
AcDbEntity
  8
4
100
AcDbLine
 10
763.9167672448834
 20
412.3738996041093
 30
0.0
 11
758.4319396875812
 21
421.8738996041093
 31
0.0
  0
CIRCLE
  5
247
330
15
100
AcDbEntity
  8
4
100
AcDbCircle
 10
752.94711213028
 20
412.3738996041093
 30
0.0
 40
9.5
  0
LINE
  5
248
330
15
100
AcDbEntity
  8
4
100
AcDbLine
 10
741.9774570156774
 20
412.3738996041093
 30
0.0
 11
747.4622845729787
 21
402.8738996041093
 31
0.0
  0
LINE
  5
249
330
15
100
AcDbEntity
  8
4
100
AcDbLine
 10
747.4622845729787
 20
402.8738996041093
 30
0.0
 11
758.4319396875812
 21
402.8738996041093
 31
0.0
  0
LINE
  5
24A
330
15
100
AcDbEntity
  8
4
100
AcDbLine
 10
758.4319396875812
 20
402.8738996041093
 30
0.0
 11
763.9167672448834
 21
412.3738996041093
 31
0.0
  0
LINE
  5
24B
330
15
100
AcDbEntity
  8
4
100
AcDbLine
 10
758.4319396875812
 20
421.8738996041093
 30
0.0
 11
747.4622845729787
 21
421.8738996041093
 31
0.0
  0
LINE
  5
24C
330
15
100
AcDbEntity
  8
4
100
AcDbLine
 10
955.3080333690746
 20
541.8744985500725
 30
0.0
 11
949.8232058117733
 21
532.3744985500725
 31
0.0
  0
LINE
  5
24D
330
15
100
AcDbEntity
  8
4
100
AcDbLine
 10
971.7625160409793
 20
532.3744985500725
 30
0.0
 11
966.2776884836771
 21
541.8744985500725
 31
0.0
  0
CIRCLE
  5
24E
330
15
100
AcDbEntity
  8
4
100
AcDbCircle
 10
960.7928609263768
 20
532.3744985500725
 30
0.0
 40
9.5
  0
LINE
  5
24F
330
15
100
AcDbEntity
  8
4
100
AcDbLine
 10
949.8232058117733
 20
532.3744985500725
 30
0.0
 11
955.3080333690746
 21
522.8744985500725
 31
0.0
  0
LINE
  5
250
330
15
100
AcDbEntity
  8
4
100
AcDbLine
 10
955.3080333690746
 20
522.8744985500725
 30
0.0
 11
966.2776884836771
 21
522.8744985500725
 31
0.0
  0
LINE
  5
251
330
15
100
AcDbEntity
  8
4
100
AcDbLine
 10
966.2776884836771
 20
522.8744985500725
 30
0.0
 11
971.7625160409793
 21
532.3744985500725
 31
0.0
  0
LINE
  5
252
330
15
100
AcDbEntity
  8
4
100
AcDbLine
 10
966.2776884836771
 20
541.8744985500725
 30
0.0
 11
955.3080333690746
 21
541.8744985500725
 31
0.0
  0
LINE
  5
253
330
15
100
AcDbEntity
  8
4
100
AcDbLine
 10
851.3851605227878
 20
361.8741973893793
 30
0.0
 11
845.9003329654865
 21
352.3741973893793
 31
0.0
  0
LINE
  5
254
330
15
100
AcDbEntity
  8
4
100
AcDbLine
 10
867.8396431946926
 20
352.3741973893793
 30
0.0
 11
862.3548156373904
 21
361.8741973893793
 31
0.0
  0
CIRCLE
  5
255
330
15
100
AcDbEntity
  8
4
100
AcDbCircle
 10
856.8699880800891
 20
352.3741973893793
 30
0.0
 40
9.5
  0
LINE
  5
256
330
15
100
AcDbEntity
  8
4
100
AcDbLine
 10
845.9003329654865
 20
352.3741973893793
 30
0.0
 11
851.3851605227878
 21
342.8741973893793
 31
0.0
  0
LINE
  5
257
330
15
100
AcDbEntity
  8
4
100
AcDbLine
 10
851.3851605227878
 20
342.8741973893793
 30
0.0
 11
862.3548156373904
 21
342.8741973893793
 31
0.0
  0
LINE
  5
258
330
15
100
AcDbEntity
  8
4
100
AcDbLine
 10
862.3548156373904
 20
342.8741973893793
 30
0.0
 11
867.8396431946926
 21
352.3741973893793
 31
0.0
  0
LINE
  5
259
330
15
100
AcDbEntity
  8
4
100
AcDbLine
 10
862.3548156373904
 20
361.8741973893793
 30
0.0
 11
851.3851605227878
 21
361.8741973893793
 31
0.0
  0
LINE
  5
25A
330
15
100
AcDbEntity
  8
4
100
AcDbLine
 10
955.3083805772771
 20
421.8744956109076
 30
0.0
 11
949.8235530199759
 21
412.3744956109076
 31
0.0
  0
LINE
  5
25B
330
15
100
AcDbEntity
  8
4
100
AcDbLine
 10
971.7628632491819
 20
412.3744956109076
 30
0.0
 11
966.2780356918797
 21
421.8744956109076
 31
0.0
  0
CIRCLE
  5
25C
330
15
100
AcDbEntity
  8
4
100
AcDbCircle
 10
960.7932081345793
 20
412.3744956109076
 30
0.0
 40
9.5
  0
LINE
  5
25D
330
15
100
AcDbEntity
  8
4
100
AcDbLine
 10
949.8235530199759
 20
412.3744956109076
 30
0.0
 11
955.3083805772771
 21
402.8744956109076
 31
0.0
  0
LINE
  5
25E
330
15
100
AcDbEntity
  8
4
100
AcDbLine
 10
955.3083805772771
 20
402.8744956109076
 30
0.0
 11
966.2780356918797
 21
402.8744956109076
 31
0.0
  0
LINE
  5
25F
330
15
100
AcDbEntity
  8
4
100
AcDbLine
 10
966.2780356918797
 20
402.8744956109076
 30
0.0
 11
971.7628632491819
 21
412.3744956109076
 31
0.0
  0
LINE
  5
260
330
15
100
AcDbEntity
  8
4
100
AcDbLine
 10
966.2780356918797
 20
421.8744956109076
 30
0.0
 11
955.3083805772771
 21
421.8744956109076
 31
0.0
  0
LINE
  5
261
330
15
100
AcDbEntity
  8
4
100
AcDbLine
 10
1120.643212522788
 20
591.8741983893792
 30
0.0
 11
1115.158384965487
 21
582.3741983893792
 31
0.0
  0
LINE
  5
262
330
15
100
AcDbEntity
  8
4
100
AcDbLine
 10
1137.097695194693
 20
582.3741983893792
 30
0.0
 11
1131.612867637391
 21
591.8741983893792
 31
0.0
  0
CIRCLE
  5
263
330
15
100
AcDbEntity
  8
4
100
AcDbCircle
 10
1126.128040080089
 20
582.3741983893792
 30
0.0
 40
9.5
  0
LINE
  5
264
330
15
100
AcDbEntity
  8
4
100
AcDbLine
 10
1115.158384965487
 20
582.3741983893792
 30
0.0
 11
1120.643212522788
 21
572.8741983893792
 31
0.0
  0
LINE
  5
265
330
15
100
AcDbEntity
  8
4
100
AcDbLine
 10
1120.643212522788
 20
572.8741983893792
 30
0.0
 11
1131.612867637391
 21
572.8741983893792
 31
0.0
  0
LINE
  5
266
330
15
100
AcDbEntity
  8
4
100
AcDbLine
 10
1131.612867637391
 20
572.8741983893792
 30
0.0
 11
1137.097695194693
 21
582.3741983893792
 31
0.0
  0
LINE
  5
267
330
15
100
AcDbEntity
  8
4
100
AcDbLine
 10
1131.612867637391
 20
591.8741983893792
 30
0.0
 11
1120.643212522788
 21
591.8741983893792
 31
0.0
  0
LINE
  5
268
330
15
100
AcDbEntity
  8
4
100
AcDbLine
 10
1042.70083936219
 20
546.8740490124019
 30
0.0
 11
1037.216011804888
 21
537.3740490124019
 31
0.0
  0
LINE
  5
269
330
15
100
AcDbEntity
  8
4
100
AcDbLine
 10
1059.155322034094
 20
537.3740490124019
 30
0.0
 11
1053.670494476792
 21
546.8740490124019
 31
0.0
  0
CIRCLE
  5
26A
330
15
100
AcDbEntity
  8
4
100
AcDbCircle
 10
1048.185666919491
 20
537.3740490124019
 30
0.0
 40
9.5
  0
LINE
  5
26B
330
15
100
AcDbEntity
  8
4
100
AcDbLine
 10
1037.216011804888
 20
537.3740490124019
 30
0.0
 11
1042.70083936219
 21
527.8740490124019
 31
0.0
  0
LINE
  5
26C
330
15
100
AcDbEntity
  8
4
100
AcDbLine
 10
1042.70083936219
 20
527.8740490124019
 30
0.0
 11
1053.670494476792
 21
527.8740490124019
 31
0.0
  0
LINE
  5
26D
330
15
100
AcDbEntity
  8
4
100
AcDbLine
 10
1053.670494476792
 20
527.8740490124019
 30
0.0
 11
1059.155322034094
 21
537.3740490124019
 31
0.0
  0
LINE
  5
26E
330
15
100
AcDbEntity
  8
4
100
AcDbLine
 10
1053.670494476792
 20
546.8740490124019
 30
0.0
 11
1042.70083936219
 21
546.8740490124019
 31
0.0
  0
LINE
  5
26F
330
15
100
AcDbEntity
  8
4
100
AcDbLine
 10
1042.701011878206
 20
456.8740469598556
 30
0.0
 11
1037.216184320905
 21
447.3740469598556
 31
0.0
  0
LINE
  5
270
330
15
100
AcDbEntity
  8
4
100
AcDbLine
 10
1059.155494550111
 20
447.3740469598556
 30
0.0
 11
1053.670666992808
 21
456.8740469598556
 31
0.0
  0
CIRCLE
  5
271
330
15
100
AcDbEntity
  8
4
100
AcDbCircle
 10
1048.185839435508
 20
447.3740469598556
 30
0.0
 40
9.5
  0
LINE
  5
272
330
15
100
AcDbEntity
  8
4
100
AcDbLine
 10
1037.216184320905
 20
447.3740469598556
 30
0.0
 11
1042.701011878206
 21
437.8740469598556
 31
0.0
  0
LINE
  5
273
330
15
100
AcDbEntity
  8
4
100
AcDbLine
 10
1042.701011878206
 20
437.8740469598556
 30
0.0
 11
1053.670666992808
 21
437.8740469598556
 31
0.0
  0
LINE
  5
274
330
15
100
AcDbEntity
  8
4
100
AcDbLine
 10
1053.670666992808
 20
437.8740469598556
 30
0.0
 11
1059.155494550111
 21
447.3740469598556
 31
0.0
  0
LINE
  5
275
330
15
100
AcDbEntity
  8
4
100
AcDbLine
 10
1053.670666992808
 20
456.8740469598556
 30
0.0
 11
1042.701011878206
 21
456.8740469598556
 31
0.0
  0
LINE
  5
276
330
15
100
AcDbEntity
  8
4
100
AcDbLine
 10
1120.643212522788
 20
411.8741963893794
 30
0.0
 11
1115.158384965487
 21
402.3741963893794
 31
0.0
  0
LINE
  5
277
330
15
100
AcDbEntity
  8
4
100
AcDbLine
 10
1137.097695194693
 20
402.3741963893794
 30
0.0
 11
1131.612867637391
 21
411.8741963893794
 31
0.0
  0
CIRCLE
  5
278
330
15
100
AcDbEntity
  8
4
100
AcDbCircle
 10
1126.128040080089
 20
402.3741963893794
 30
0.0
 40
9.5
  0
LINE
  5
279
330
15
100
AcDbEntity
  8
4
100
AcDbLine
 10
1115.158384965487
 20
402.3741963893794
 30
0.0
 11
1120.643212522788
 21
392.8741963893794
 31
0.0
  0
LINE
  5
27A
330
15
100
AcDbEntity
  8
4
100
AcDbLine
 10
1120.643212522788
 20
392.8741963893794
 30
0.0
 11
1131.612867637391
 21
392.8741963893794
 31
0.0
  0
LINE
  5
27B
330
15
100
AcDbEntity
  8
4
100
AcDbLine
 10
1131.612867637391
 20
392.8741963893794
 30
0.0
 11
1137.097695194693
 21
402.3741963893794
 31
0.0
  0
LINE
  5
27C
330
15
100
AcDbEntity
  8
4
100
AcDbLine
 10
1131.612867637391
 20
411.8741963893794
 30
0.0
 11
1120.643212522788
 21
411.8741963893794
 31
0.0
  0
LINE
  5
27D
330
15
100
AcDbEntity
  8
4
100
AcDbLine
 10
1198.585412866648
 20
546.8743483397657
 30
0.0
 11
1193.100585309347
 21
537.3743483397657
 31
0.0
  0
LINE
  5
27E
330
15
100
AcDbEntity
  8
4
100
AcDbLine
 10
1215.039895538553
 20
537.3743483397657
 30
0.0
 11
1209.555067981251
 21
546.8743483397657
 31
0.0
  0
CIRCLE
  5
27F
330
15
100
AcDbEntity
  8
4
100
AcDbCircle
 10
1204.07024042395
 20
537.3743483397657
 30
0.0
 40
9.5
  0
LINE
  5
280
330
15
100
AcDbEntity
  8
4
100
AcDbLine
 10
1193.100585309347
 20
537.3743483397657
 30
0.0
 11
1198.585412866648
 21
527.8743483397657
 31
0.0
  0
LINE
  5
281
330
15
100
AcDbEntity
  8
4
100
AcDbLine
 10
1198.585412866648
 20
527.8743483397657
 30
0.0
 11
1209.555067981251
 21
527.8743483397657
 31
0.0
  0
LINE
  5
282
330
15
100
AcDbEntity
  8
4
100
AcDbLine
 10
1209.555067981251
 20
527.8743483397657
 30
0.0
 11
1215.039895538553
 21
537.3743483397657
 31
0.0
  0
LINE
  5
283
330
15
100
AcDbEntity
  8
4
100
AcDbLine
 10
1209.555067981251
 20
546.8743483397657
 30
0.0
 11
1198.585412866648
 21
546.8743483397657
 31
0.0
  0
LINE
  5
284
330
15
100
AcDbEntity
  8
4
100
AcDbLine
 10
1198.585586443984
 20
456.8743470837562
 30
0.0
 11
1193.100758886683
 21
447.3743470837562
 31
0.0
  0
LINE
  5
285
330
15
100
AcDbEntity
  8
4
100
AcDbLine
 10
1215.040069115889
 20
447.3743470837562
 30
0.0
 11
1209.555241558587
 21
456.8743470837562
 31
0.0
  0
CIRCLE
  5
286
330
15
100
AcDbEntity
  8
4
100
AcDbCircle
 10
1204.070414001285
 20
447.3743470837562
 30
0.0
 40
9.5
  0
LINE
  5
287
330
15
100
AcDbEntity
  8
4
100
AcDbLine
 10
1193.100758886683
 20
447.3743470837562
 30
0.0
 11
1198.585586443984
 21
437.8743470837562
 31
0.0
  0
LINE
  5
288
330
15
100
AcDbEntity
  8
4
100
AcDbLine
 10
1198.585586443984
 20
437.8743470837562
 30
0.0
 11
1209.555241558587
 21
437.8743470837562
 31
0.0
  0
LINE
  5
289
330
15
100
AcDbEntity
  8
4
100
AcDbLine
 10
1209.555241558587
 20
437.8743470837562
 30
0.0
 11
1215.040069115889
 21
447.3743470837562
 31
0.0
  0
LINE
  5
28A
330
15
100
AcDbEntity
  8
4
100
AcDbLine
 10
1209.555241558587
 20
456.8743470837562
 30
0.0
 11
1198.585586443984
 21
456.8743470837562
 31
0.0
  0
LINE
  5
28B
330
15
100
AcDbEntity
  8
L-CENTER
 48
2.0
100
AcDbLine
 10
752.9467674850807
 20
1878.62387250854
 30
0.0
 11
752.9467674850807
 21
1825.540338301399
 31
0.0
  0
LINE
  5
28C
330
15
100
AcDbEntity
  8
4
100
AcDbLine
 10
763.9164225996833
 20
1864.023032628435
 30
0.0
 11
763.9164225996833
 21
1873.885851717808
 31
0.0
  0
LINE
  5
28D
330
15
100
AcDbEntity
  8
4
100
AcDbLine
 10
758.4315950423811
 20
1873.885851717808
 30
0.0
 11
758.4315950423811
 21
1867.023032628435
 31
0.0
  0
LINE
  5
28E
330
15
100
AcDbEntity
  8
4
100
AcDbLine
 10
741.9771123704763
 20
1873.885851717808
 30
0.0
 11
741.9771123704763
 21
1864.023032628435
 31
0.0
  0
LINE
  5
28F
330
15
100
AcDbEntity
  8
4
100
AcDbLine
 10
747.4619399277785
 20
1873.885851717808
 30
0.0
 11
747.4619399277785
 21
1867.023032628435
 31
0.0
  0
ARC
  5
290
330
15
100
AcDbEntity
  8
4
100
AcDbCircle
 10
761.1740088210322
 20
1871.147653753155
 30
0.0
 40
3.875378875279264
100
AcDbArc
 50
44.95592676274281
 51
135.0440732372382
  0
ARC
  5
291
330
15
100
AcDbEntity
  8
4
100
AcDbCircle
 10
744.7195261491274
 20
1871.147653753155
 30
0.0
 40
3.875378875279244
100
AcDbArc
 50
44.95592676274281
 51
135.0440732372382
  0
LINE
  5
292
330
15
100
AcDbEntity
  8
4
100
AcDbLine
 10
761.1740088210322
 20
1875.023032628435
 30
0.0
 11
744.7195261491274
 21
1875.023032628435
 31
0.0
  0
ARC
  5
293
330
15
100
AcDbEntity
  8
4
100
AcDbCircle
 10
752.9467674850807
 20
1861.227288493258
 30
0.0
 40
13.7957441351769
100
AcDbArc
 50
66.57340249137208
 51
113.4265975086321
  0
LINE
  5
294
330
15
100
AcDbEntity
  8
4
100
AcDbLine
 10
741.9771123704763
 20
1867.023032628435
 30
0.0
 11
763.9164225996833
 21
1867.023032628435
 31
0.0
  0
LINE
  5
295
330
15
100
AcDbEntity
  8
4
100
AcDbLine
 10
741.9771123704763
 20
1864.023032628435
 30
0.0
 11
763.9164225996833
 21
1864.023032628435
 31
0.0
  0
LINE
  5
296
330
15
100
AcDbEntity
  8
L-CENTER
 48
2.0
100
AcDbLine
 10
1048.185666919491
 20
1878.62387250854
 30
0.0
 11
1048.185666919491
 21
1825.540338301399
 31
0.0
  0
LINE
  5
297
330
15
100
AcDbEntity
  8
4
100
AcDbLine
 10
1059.155322034093
 20
1864.023032628435
 30
0.0
 11
1059.155322034093
 21
1873.885851717809
 31
0.0
  0
LINE
  5
298
330
15
100
AcDbEntity
  8
4
100
AcDbLine
 10
1053.670494476792
 20
1873.885851717809
 30
0.0
 11
1053.670494476792
 21
1867.023032628435
 31
0.0
  0
LINE
  5
299
330
15
100
AcDbEntity
  8
4
100
AcDbLine
 10
1037.216011804887
 20
1873.885851717809
 30
0.0
 11
1037.216011804887
 21
1864.023032628435
 31
0.0
  0
LINE
  5
29A
330
15
100
AcDbEntity
  8
4
100
AcDbLine
 10
1042.70083936219
 20
1873.885851717809
 30
0.0
 11
1042.70083936219
 21
1867.023032628435
 31
0.0
  0
ARC
  5
29B
330
15
100
AcDbEntity
  8
4
100
AcDbCircle
 10
1056.412908255443
 20
1871.147653753156
 30
0.0
 40
3.875378875279264
100
AcDbArc
 50
44.95592676274281
 51
135.0440732372572
  0
ARC
  5
29C
330
15
100
AcDbEntity
  8
4
100
AcDbCircle
 10
1039.958425583538
 20
1871.147653753156
 30
0.0
 40
3.875378875279244
100
AcDbArc
 50
44.95592676274281
 51
135.0440732372572
  0
LINE
  5
29D
330
15
100
AcDbEntity
  8
4
100
AcDbLine
 10
1056.412908255443
 20
1875.023032628435
 30
0.0
 11
1039.958425583538
 21
1875.023032628435
 31
0.0
  0
ARC
  5
29E
330
15
100
AcDbEntity
  8
4
100
AcDbCircle
 10
1048.185666919491
 20
1861.227288493258
 30
0.0
 40
13.7957441351769
100
AcDbArc
 50
66.5734024913725
 51
113.4265975086275
  0
LINE
  5
29F
330
15
100
AcDbEntity
  8
4
100
AcDbLine
 10
1037.216011804887
 20
1867.023032628435
 30
0.0
 11
1059.155322034093
 21
1867.023032628435
 31
0.0
  0
LINE
  5
2A0
330
15
100
AcDbEntity
  8
4
100
AcDbLine
 10
1037.216011804887
 20
1864.023032628435
 30
0.0
 11
1059.155322034093
 21
1864.023032628435
 31
0.0
  0
LINE
  5
2A1
330
15
100
AcDbEntity
  8
4
100
AcDbLine
 10
971.0989717897014
 20
1864.023032628435
 30
0.0
 11
949.1596615604963
 21
1864.023032628435
 31
0.0
  0
LINE
  5
2A2
330
15
100
AcDbEntity
  8
4
100
AcDbLine
 10
971.0989717897014
 20
1867.023032628435
 30
0.0
 11
949.1596615604963
 21
1867.023032628435
 31
0.0
  0
ARC
  5
2A3
330
15
100
AcDbEntity
  8
4
100
AcDbCircle
 10
960.1293166750988
 20
1861.227288493258
 30
0.0
 40
13.7957441351769
100
AcDbArc
 50
66.57340249137208
 51
113.4265975086321
  0
LINE
  5
2A4
330
15
100
AcDbEntity
  8
4
100
AcDbLine
 10
951.9020753391455
 20
1875.023032628435
 30
0.0
 11
968.3565580110503
 21
1875.023032628435
 31
0.0
  0
LINE
  5
2A5
330
15
100
AcDbEntity
  8
4
100
AcDbLine
 10
971.0989717897014
 20
1873.885851717808
 30
0.0
 11
971.0989717897014
 21
1864.023032628435
 31
0.0
  0
ARC
  5
2A6
330
15
100
AcDbEntity
  8
4
100
AcDbCircle
 10
968.3565580110503
 20
1871.147653753155
 30
0.0
 40
3.875378875279244
100
AcDbArc
 50
44.95592676274281
 51
135.0440732372382
  0
LINE
  5
2A7
330
15
100
AcDbEntity
  8
4
100
AcDbLine
 10
965.6141442323992
 20
1873.885851717808
 30
0.0
 11
965.6141442323992
 21
1867.023032628435
 31
0.0
  0
LINE
  5
2A8
330
15
100
AcDbEntity
  8
4
100
AcDbLine
 10
949.1596615604963
 20
1864.023032628435
 30
0.0
 11
949.1596615604963
 21
1873.885851717808
 31
0.0
  0
ARC
  5
2A9
330
15
100
AcDbEntity
  8
4
100
AcDbCircle
 10
951.9020753391455
 20
1871.147653753155
 30
0.0
 40
3.875378875279264
100
AcDbArc
 50
44.95592676274281
 51
135.0440732372382
  0
LINE
  5
2AA
330
15
100
AcDbEntity
  8
4
100
AcDbLine
 10
954.6444891177966
 20
1873.885851717808
 30
0.0
 11
954.6444891177966
 21
1867.023032628435
 31
0.0
  0
LINE
  5
2AB
330
15
100
AcDbEntity
  8
L-CENTER
 48
2.0
100
AcDbLine
 10
960.1293166750988
 20
1878.62387250854
 30
0.0
 11
960.1293166750988
 21
1825.540338301399
 31
0.0
  0
LINE
  5
2AC
330
15
100
AcDbEntity
  8
4
100
AcDbLine
 10
1215.860072355289
 20
1873.885851717811
 30
0.0
 11
1215.860072355289
 21
1864.023032628438
 31
0.0
  0
LINE
  5
2AD
330
15
100
AcDbEntity
  8
4
100
AcDbLine
 10
1193.920762126083
 20
1864.023032628437
 30
0.0
 11
1193.920762126083
 21
1873.885851717811
 31
0.0
  0
LINE
  5
2AE
330
15
100
AcDbEntity
  8
4
100
AcDbLine
 10
1215.860072355289
 20
1864.023032628438
 30
0.0
 11
1193.920762126083
 21
1864.023032628437
 31
0.0
  0
LINE
  5
2AF
330
15
100
AcDbEntity
  8
4
100
AcDbLine
 10
1215.860072355289
 20
1867.023032628438
 30
0.0
 11
1193.920762126083
 21
1867.023032628437
 31
0.0
  0
ARC
  5
2B0
330
15
100
AcDbEntity
  8
4
100
AcDbCircle
 10
1204.890417240686
 20
1861.22728849326
 30
0.0
 40
13.7957441351769
100
AcDbArc
 50
66.57340249137758
 51
113.4265975086301
  0
LINE
  5
2B1
330
15
100
AcDbEntity
  8
4
100
AcDbLine
 10
1196.663175904733
 20
1875.023032628437
 30
0.0
 11
1213.117658576637
 21
1875.023032628438
 31
0.0
  0
ARC
  5
2B2
330
15
100
AcDbEntity
  8
4
100
AcDbCircle
 10
1213.117658576637
 20
1871.147653753159
 30
0.0
 40
3.875378875279244
100
AcDbArc
 50
44.95592676274281
 51
135.0440732372572
  0
ARC
  5
2B3
330
15
100
AcDbEntity
  8
4
100
AcDbCircle
 10
1196.663175904733
 20
1871.147653753159
 30
0.0
 40
3.875378875279264
100
AcDbArc
 50
44.95592676274281
 51
135.0440732372572
  0
LINE
  5
2B4
330
15
100
AcDbEntity
  8
4
100
AcDbLine
 10
1210.375244797986
 20
1873.885851717811
 30
0.0
 11
1210.375244797986
 21
1867.023032628438
 31
0.0
  0
LINE
  5
2B5
330
15
100
AcDbEntity
  8
4
100
AcDbLine
 10
1199.405589683384
 20
1873.885851717811
 30
0.0
 11
1199.405589683384
 21
1867.023032628437
 31
0.0
  0
LINE
  5
2B6
330
15
100
AcDbEntity
  8
L-CENTER
 48
2.0
100
AcDbLine
 10
1204.890417240685
 20
1878.623872508541
 30
0.0
 11
1204.890417240686
 21
1825.540338301401
 31
0.0
  0
LINE
  5
2B7
330
15
100
AcDbEntity
  8
4
100
AcDbLine
 10
741.9771123704763
 20
1489.923032628433
 30
0.0
 11
763.9164225996833
 21
1489.923032628433
 31
0.0
  0
LINE
  5
2B8
330
15
100
AcDbEntity
  8
4
100
AcDbLine
 10
741.9771123704763
 20
1486.923032628433
 30
0.0
 11
763.9164225996833
 21
1486.923032628433
 31
0.0
  0
ARC
  5
2B9
330
15
100
AcDbEntity
  8
4
100
AcDbCircle
 10
752.9467674850807
 20
1492.718776763611
 30
0.0
 40
13.7957441351769
100
AcDbArc
 50
246.5734024913679
 51
293.4265975086279
  0
LINE
  5
2BA
330
15
100
AcDbEntity
  8
4
100
AcDbLine
 10
761.1740088210322
 20
1478.923032628433
 30
0.0
 11
744.7195261491274
 21
1478.923032628433
 31
0.0
  0
LINE
  5
2BB
330
15
100
AcDbEntity
  8
4
100
AcDbLine
 10
741.9771123704763
 20
1480.060213539061
 30
0.0
 11
741.9771123704763
 21
1489.923032628433
 31
0.0
  0
ARC
  5
2BC
330
15
100
AcDbEntity
  8
4
100
AcDbCircle
 10
744.7195261491274
 20
1482.798411503713
 30
0.0
 40
3.875378875279244
100
AcDbArc
 50
224.9559267627618
 51
315.0440732372572
  0
LINE
  5
2BD
330
15
100
AcDbEntity
  8
4
100
AcDbLine
 10
747.4619399277785
 20
1480.060213539061
 30
0.0
 11
747.4619399277785
 21
1486.923032628433
 31
0.0
  0
LINE
  5
2BE
330
15
100
AcDbEntity
  8
4
100
AcDbLine
 10
763.9164225996833
 20
1489.923032628433
 30
0.0
 11
763.9164225996833
 21
1480.060213539061
 31
0.0
  0
ARC
  5
2BF
330
15
100
AcDbEntity
  8
4
100
AcDbCircle
 10
761.1740088210322
 20
1482.798411503713
 30
0.0
 40
3.875378875279264
100
AcDbArc
 50
224.9559267627618
 51
315.0440732372572
  0
LINE
  5
2C0
330
15
100
AcDbEntity
  8
4
100
AcDbLine
 10
758.4315950423811
 20
1480.060213539061
 30
0.0
 11
758.4315950423811
 21
1486.923032628433
 31
0.0
  0
LINE
  5
2C1
330
15
100
AcDbEntity
  8
4
100
AcDbLine
 10
949.1596615604963
 20
1489.923032628433
 30
0.0
 11
949.1596615604963
 21
1480.060213539061
 31
0.0
  0
LINE
  5
2C2
330
15
100
AcDbEntity
  8
4
100
AcDbLine
 10
971.0989717897014
 20
1480.060213539061
 30
0.0
 11
971.0989717897014
 21
1489.923032628433
 31
0.0
  0
LINE
  5
2C3
330
15
100
AcDbEntity
  8
4
100
AcDbLine
 10
971.0989717897014
 20
1489.923032628433
 30
0.0
 11
949.1596615604963
 21
1489.923032628433
 31
0.0
  0
LINE
  5
2C4
330
15
100
AcDbEntity
  8
4
100
AcDbLine
 10
954.6444891177966
 20
1480.060213539061
 30
0.0
 11
954.6444891177966
 21
1486.923032628433
 31
0.0
  0
ARC
  5
2C5
330
15
100
AcDbEntity
  8
4
100
AcDbCircle
 10
951.9020753391455
 20
1482.798411503713
 30
0.0
 40
3.875378875279264
100
AcDbArc
 50
224.9559267627618
 51
315.0440732372572
  0
LINE
  5
2C6
330
15
100
AcDbEntity
  8
4
100
AcDbLine
 10
965.6141442323992
 20
1480.060213539061
 30
0.0
 11
965.6141442323992
 21
1486.923032628433
 31
0.0
  0
ARC
  5
2C7
330
15
100
AcDbEntity
  8
4
100
AcDbCircle
 10
968.3565580110503
 20
1482.798411503713
 30
0.0
 40
3.875378875279244
100
AcDbArc
 50
224.9559267627618
 51
315.0440732372572
  0
LINE
  5
2C8
330
15
100
AcDbEntity
  8
4
100
AcDbLine
 10
951.9020753391455
 20
1478.923032628433
 30
0.0
 11
968.3565580110503
 21
1478.923032628433
 31
0.0
  0
ARC
  5
2C9
330
15
100
AcDbEntity
  8
4
100
AcDbCircle
 10
960.1293166750988
 20
1492.718776763611
 30
0.0
 40
13.7957441351769
100
AcDbArc
 50
246.5734024913679
 51
293.4265975086279
  0
LINE
  5
2CA
330
15
100
AcDbEntity
  8
4
100
AcDbLine
 10
971.0989717897014
 20
1486.923032628433
 30
0.0
 11
949.1596615604963
 21
1486.923032628433
 31
0.0
  0
LINE
  5
2CB
330
15
100
AcDbEntity
  8
L-CENTER
 48
2.0
100
AcDbLine
 10
960.1293166750988
 20
1475.322192748329
 30
0.0
 11
960.1293166750988
 21
1528.40572695547
 31
0.0
  0
LINE
  5
2CC
330
15
100
AcDbEntity
  8
L-CENTER
 48
2.0
100
AcDbLine
 10
752.9467674850807
 20
1475.322192748329
 30
0.0
 11
752.9467674850807
 21
1528.40572695547
 31
0.0
  0
LINE
  5
2CD
330
15
100
AcDbEntity
  8
4
100
AcDbLine
 10
1037.216011804887
 20
1480.06021353906
 30
0.0
 11
1037.216011804887
 21
1489.923032628433
 31
0.0
  0
LINE
  5
2CE
330
15
100
AcDbEntity
  8
4
100
AcDbLine
 10
1059.155322034093
 20
1489.923032628433
 30
0.0
 11
1059.155322034093
 21
1480.06021353906
 31
0.0
  0
LINE
  5
2CF
330
15
100
AcDbEntity
  8
4
100
AcDbLine
 10
1037.216011804887
 20
1489.923032628433
 30
0.0
 11
1059.155322034093
 21
1489.923032628433
 31
0.0
  0
LINE
  5
2D0
330
15
100
AcDbEntity
  8
4
100
AcDbLine
 10
1037.216011804887
 20
1486.923032628433
 30
0.0
 11
1059.155322034093
 21
1486.923032628433
 31
0.0
  0
ARC
  5
2D1
330
15
100
AcDbEntity
  8
4
100
AcDbCircle
 10
1048.185666919491
 20
1492.718776763611
 30
0.0
 40
13.7957441351769
100
AcDbArc
 50
246.5734024913725
 51
293.4265975086275
  0
LINE
  5
2D2
330
15
100
AcDbEntity
  8
4
100
AcDbLine
 10
1056.412908255443
 20
1478.923032628433
 30
0.0
 11
1039.958425583538
 21
1478.923032628433
 31
0.0
  0
ARC
  5
2D3
330
15
100
AcDbEntity
  8
4
100
AcDbCircle
 10
1039.958425583538
 20
1482.798411503712
 30
0.0
 40
3.875378875279244
100
AcDbArc
 50
224.9559267627428
 51
315.0440732372572
  0
ARC
  5
2D4
330
15
100
AcDbEntity
  8
4
100
AcDbCircle
 10
1056.412908255443
 20
1482.798411503712
 30
0.0
 40
3.875378875279264
100
AcDbArc
 50
224.9559267627428
 51
315.0440732372572
  0
LINE
  5
2D5
330
15
100
AcDbEntity
  8
4
100
AcDbLine
 10
1042.70083936219
 20
1480.06021353906
 30
0.0
 11
1042.70083936219
 21
1486.923032628433
 31
0.0
  0
LINE
  5
2D6
330
15
100
AcDbEntity
  8
4
100
AcDbLine
 10
1053.670494476792
 20
1480.06021353906
 30
0.0
 11
1053.670494476792
 21
1486.923032628433
 31
0.0
  0
LINE
  5
2D7
330
15
100
AcDbEntity
  8
L-CENTER
 48
2.0
100
AcDbLine
 10
1048.185666919491
 20
1475.222192748329
 30
0.0
 11
1048.185666919491
 21
1528.305726955469
 31
0.0
  0
LINE
  5
2D8
330
15
100
AcDbEntity
  8
4
100
AcDbLine
 10
1193.920762126083
 20
1489.923032628431
 30
0.0
 11
1193.920762126083
 21
1480.060213539058
 31
0.0
  0
LINE
  5
2D9
330
15
100
AcDbEntity
  8
4
100
AcDbLine
 10
1215.860072355289
 20
1480.060213539057
 30
0.0
 11
1215.860072355289
 21
1489.923032628431
 31
0.0
  0
LINE
  5
2DA
330
15
100
AcDbEntity
  8
4
100
AcDbLine
 10
1215.860072355289
 20
1489.923032628431
 30
0.0
 11
1193.920762126083
 21
1489.923032628431
 31
0.0
  0
LINE
  5
2DB
330
15
100
AcDbEntity
  8
4
100
AcDbLine
 10
1199.405589683384
 20
1480.060213539057
 30
0.0
 11
1199.405589683384
 21
1486.923032628431
 31
0.0
  0
LINE
  5
2DC
330
15
100
AcDbEntity
  8
4
100
AcDbLine
 10
1210.375244797986
 20
1480.060213539057
 30
0.0
 11
1210.375244797986
 21
1486.923032628431
 31
0.0
  0
ARC
  5
2DD
330
15
100
AcDbEntity
  8
4
100
AcDbCircle
 10
1196.663175904733
 20
1482.79841150371
 30
0.0
 40
3.875378875279264
100
AcDbArc
 50
224.9559267627428
 51
315.0440732372572
  0
ARC
  5
2DE
330
15
100
AcDbEntity
  8
4
100
AcDbCircle
 10
1213.117658576637
 20
1482.79841150371
 30
0.0
 40
3.875378875279244
100
AcDbArc
 50
224.9559267627428
 51
315.0440732372572
  0
LINE
  5
2DF
330
15
100
AcDbEntity
  8
4
100
AcDbLine
 10
1196.663175904733
 20
1478.923032628431
 30
0.0
 11
1213.117658576637
 21
1478.923032628431
 31
0.0
  0
ARC
  5
2E0
330
15
100
AcDbEntity
  8
4
100
AcDbCircle
 10
1204.890417240686
 20
1492.718776763609
 30
0.0
 40
13.7957441351769
100
AcDbArc
 50
246.5734024913699
 51
293.4265975086224
  0
LINE
  5
2E1
330
15
100
AcDbEntity
  8
4
100
AcDbLine
 10
1215.860072355289
 20
1486.923032628431
 30
0.0
 11
1193.920762126083
 21
1486.923032628431
 31
0.0
  0
LINE
  5
2E2
330
15
100
AcDbEntity
  8
L-CENTER
 48
2.0
100
AcDbLine
 10
1204.890417240685
 20
1475.322192748327
 30
0.0
 11
1204.890417240686
 21
1528.405726955468
 31
0.0
  0
CIRCLE
  5
2E3
330
15
100
AcDbEntity
  8
4
100
AcDbCircle
 10
2096.319133338737
 20
304.2460387432025
 30
0.0
 40
12.0
  0
LINE
  5
2E4
330
15
100
AcDbEntity
  8
4
100
AcDbLine
 10
2082.934872478933
 20
307.8323406318746
 30
0.0
 11
2086.521174367605
 21
294.4480797720698
 31
0.0
  0
LINE
  5
2E5
330
15
100
AcDbEntity
  8
4
100
AcDbLine
 10
2109.703394198543
 20
300.6597368545304
 30
0.0
 11
2106.117092309871
 21
314.0439977143351
 31
0.0
  0
LINE
  5
2E6
330
15
100
AcDbEntity
  8
4
100
AcDbLine
 10
2099.905435227411
 20
290.8617778833968
 30
0.0
 11
2109.703394198543
 21
300.6597368545304
 31
0.0
  0
LINE
  5
2E7
330
15
100
AcDbEntity
  8
4
100
AcDbLine
 10
2086.521174367605
 20
294.4480797720698
 30
0.0
 11
2099.905435227411
 21
290.8617778833968
 31
0.0
  0
LINE
  5
2E8
330
15
100
AcDbEntity
  8
4
100
AcDbLine
 10
2106.117092309871
 20
314.0439977143351
 30
0.0
 11
2092.732831450066
 21
317.6302996030072
 31
0.0
  0
LINE
  5
2E9
330
15
100
AcDbEntity
  8
4
100
AcDbLine
 10
2092.732831450066
 20
317.6302996030072
 30
0.0
 11
2082.934872478933
 21
307.8323406318746
 31
0.0
  0
CIRCLE
  5
2EA
330
15
100
AcDbEntity
  8
4
100
AcDbCircle
 10
2220.062820046384
 20
180.5023520355571
 30
0.0
 40
12.0
  0
LINE
  5
2EB
330
15
100
AcDbEntity
  8
4
100
AcDbLine
 10
2206.67855918658
 20
184.0886539242292
 30
0.0
 11
2210.264861075252
 21
170.7043930644245
 31
0.0
  0
LINE
  5
2EC
330
15
100
AcDbEntity
  8
4
100
AcDbLine
 10
2233.447080906189
 20
176.916050146885
 30
0.0
 11
2229.860779017517
 21
190.3003110066893
 31
0.0
  0
LINE
  5
2ED
330
15
100
AcDbEntity
  8
4
100
AcDbLine
 10
2223.649121935056
 20
167.1180911757515
 30
0.0
 11
2233.447080906189
 21
176.916050146885
 31
0.0
  0
LINE
  5
2EE
330
15
100
AcDbEntity
  8
4
100
AcDbLine
 10
2210.264861075252
 20
170.7043930644245
 30
0.0
 11
2223.649121935056
 21
167.1180911757515
 31
0.0
  0
LINE
  5
2EF
330
15
100
AcDbEntity
  8
4
100
AcDbLine
 10
2229.860779017517
 20
190.3003110066893
 30
0.0
 11
2216.476518157712
 21
193.8866128953614
 31
0.0
  0
LINE
  5
2F0
330
15
100
AcDbEntity
  8
4
100
AcDbLine
 10
2216.476518157712
 20
193.8866128953614
 30
0.0
 11
2206.67855918658
 21
184.0886539242292
 31
0.0
  0
LINE
  5
2F1
330
15
100
AcDbEntity
  8
4
100
AcDbLine
 10
2109.703390698544
 20
184.088657424229
 30
0.0
 11
2099.90543172741
 21
193.8866163953612
 31
0.0
  0
LINE
  5
2F2
330
15
100
AcDbEntity
  8
4
100
AcDbLine
 10
2099.90543172741
 20
193.8866163953612
 30
0.0
 11
2086.521170867606
 21
190.3003145066891
 31
0.0
  0
LINE
  5
2F3
330
15
100
AcDbEntity
  8
4
100
AcDbLine
 10
2082.934868978934
 20
176.9160536468844
 30
0.0
 11
2092.732827950066
 21
167.1180946757518
 31
0.0
  0
CIRCLE
  5
2F4
330
15
100
AcDbEntity
  8
4
100
AcDbCircle
 10
2096.319129838738
 20
180.5023555355565
 30
0.0
 40
12.0
  0
LINE
  5
2F5
330
15
100
AcDbEntity
  8
4
100
AcDbLine
 10
2086.521170867606
 20
190.3003145066891
 30
0.0
 11
2082.934868978934
 21
176.9160536468844
 31
0.0
  0
LINE
  5
2F6
330
15
100
AcDbEntity
  8
4
100
AcDbLine
 10
2106.117088809871
 20
170.7043965644239
 30
0.0
 11
2109.703390698544
 21
184.088657424229
 31
0.0
  0
LINE
  5
2F7
330
15
100
AcDbEntity
  8
4
100
AcDbLine
 10
2092.732827950066
 20
167.1180946757518
 30
0.0
 11
2106.117088809871
 21
170.7043965644239
 31
0.0
  0
LINE
  5
2F8
330
15
100
AcDbEntity
  8
4
100
AcDbLine
 10
2233.447079706428
 20
307.8323418316359
 30
0.0
 11
2223.649120735295
 21
317.630300802768
 31
0.0
  0
LINE
  5
2F9
330
15
100
AcDbEntity
  8
4
100
AcDbLine
 10
2223.649120735295
 20
317.630300802768
 30
0.0
 11
2210.26485987549
 21
314.0439989140959
 31
0.0
  0
LINE
  5
2FA
330
15
100
AcDbEntity
  8
4
100
AcDbLine
 10
2206.678557986818
 20
300.6597380542912
 30
0.0
 11
2216.476516957951
 21
290.8617790831586
 31
0.0
  0
CIRCLE
  5
2FB
330
15
100
AcDbEntity
  8
4
100
AcDbCircle
 10
2220.062818846623
 20
304.2460399429633
 30
0.0
 40
12.0
  0
LINE
  5
2FC
330
15
100
AcDbEntity
  8
4
100
AcDbLine
 10
2210.26485987549
 20
314.0439989140959
 30
0.0
 11
2206.678557986818
 21
300.6597380542912
 31
0.0
  0
LINE
  5
2FD
330
15
100
AcDbEntity
  8
4
100
AcDbLine
 10
2229.860777817756
 20
294.4480809718307
 30
0.0
 11
2233.447079706428
 21
307.8323418316359
 31
0.0
  0
LINE
  5
2FE
330
15
100
AcDbEntity
  8
4
100
AcDbLine
 10
2216.476516957951
 20
290.8617790831586
 30
0.0
 11
2229.860777817756
 21
294.4480809718307
 31
0.0
  0
LINE
  5
2FF
330
15
100
AcDbEntity
  8
L-CENTER
 48
2.0
100
AcDbLine
 10
1424.774524515909
 20
304.2460387432025
 30
0.0
 11
1365.486372367599
 21
304.2460387432025
 31
0.0
  0
LINE
  5
300
330
15
100
AcDbEntity
  8
4
100
AcDbLine
 10
1419.06756917577
 20
297.3178355129271
 30
0.0
 11
1410.428041080089
 21
297.3178355129271
 31
0.0
  0
LINE
  5
301
330
15
100
AcDbEntity
  8
4
100
AcDbLine
 10
1406.428041080089
 20
290.3896322826517
 30
0.0
 11
1419.06756917577
 21
290.3896322826517
 31
0.0
  0
LINE
  5
302
330
15
100
AcDbEntity
  8
4
100
AcDbLine
 10
1419.06756917577
 20
311.1742419734778
 30
0.0
 11
1410.428041080089
 21
311.1742419734778
 31
0.0
  0
LINE
  5
303
330
15
100
AcDbEntity
  8
4
100
AcDbLine
 10
1419.06756917577
 20
318.1024452037541
 30
0.0
 11
1406.428041080089
 21
318.1024452037541
 31
0.0
  0
LINE
  5
304
330
15
100
AcDbEntity
  8
4
100
AcDbLine
 10
1410.428041080089
 20
318.1024452037541
 30
0.0
 11
1410.428041080089
 21
290.3896322826517
 31
0.0
  0
LINE
  5
305
330
15
100
AcDbEntity
  8
4
100
AcDbLine
 10
1406.428041080089
 20
318.1024452037541
 30
0.0
 11
1406.428041080089
 21
290.3896322826517
 31
0.0
  0
ARC
  5
306
330
15
100
AcDbEntity
  8
4
100
AcDbCircle
 10
1415.337570722536
 20
293.853733897789
 30
0.0
 40
5.090470357553002
100
AcDbArc
 50
317.1167115949141
 51
42.88328840508593
  0
ARC
  5
307
330
15
100
AcDbEntity
  8
4
100
AcDbCircle
 10
1415.337570722536
 20
314.638343588616
 30
0.0
 40
5.090470357553012
100
AcDbArc
 50
317.1167115949141
 51
42.88328840508593
  0
ARC
  5
308
330
15
100
AcDbEntity
  8
4
100
AcDbCircle
 10
1402.106867506356
 20
304.2460387432025
 30
0.0
 40
18.32117357373317
100
AcDbArc
 50
337.7806898294696
 51
22.21931017052721
  0
LINE
  5
309
330
15
100
AcDbEntity
  8
4
100
AcDbLine
 10
1420.428041080089
 20
293.853733897789
 30
0.0
 11
1420.428041080089
 21
314.638343588616
 31
0.0
  0
ARC
  5
30A
330
15
100
AcDbEntity
  8
4
100
AcDbCircle
 10
1402.106867506357
 20
180.5023520355562
 30
0.0
 40
18.32117357373317
100
AcDbArc
 50
337.7806898294712
 51
22.21931017052882
  0
ARC
  5
30B
330
15
100
AcDbEntity
  8
4
100
AcDbCircle
 10
1415.337570722538
 20
170.1100471901427
 30
0.0
 40
5.090470357553012
100
AcDbArc
 50
317.1167115949141
 51
42.88328840509315
  0
LINE
  5
30C
330
15
100
AcDbEntity
  8
4
100
AcDbLine
 10
1419.067569175771
 20
166.6459455750046
 30
0.0
 11
1406.428041080091
 21
166.6459455750046
 31
0.0
  0
LINE
  5
30D
330
15
100
AcDbEntity
  8
4
100
AcDbLine
 10
1419.067569175771
 20
173.5741488052809
 30
0.0
 11
1410.428041080091
 21
173.5741488052809
 31
0.0
  0
LINE
  5
30E
330
15
100
AcDbEntity
  8
4
100
AcDbLine
 10
1419.067569175771
 20
187.4305552658316
 30
0.0
 11
1410.42804108009
 21
187.4305552658316
 31
0.0
  0
LINE
  5
30F
330
15
100
AcDbEntity
  8
4
100
AcDbLine
 10
1420.42804108009
 20
190.8946568809697
 30
0.0
 11
1420.428041080091
 21
170.1100471901427
 31
0.0
  0
ARC
  5
310
330
15
100
AcDbEntity
  8
4
100
AcDbCircle
 10
1415.337570722537
 20
190.8946568809697
 30
0.0
 40
5.090470357553002
100
AcDbArc
 50
317.1167115949141
 51
42.88328840509141
  0
LINE
  5
311
330
15
100
AcDbEntity
  8
4
100
AcDbLine
 10
1406.428041080091
 20
166.6459455750046
 30
0.0
 11
1406.42804108009
 21
194.3587584961069
 31
0.0
  0
LINE
  5
312
330
15
100
AcDbEntity
  8
4
100
AcDbLine
 10
1410.428041080091
 20
166.6459455750046
 30
0.0
 11
1410.42804108009
 21
194.3587584961069
 31
0.0
  0
LINE
  5
313
330
15
100
AcDbEntity
  8
4
100
AcDbLine
 10
1406.42804108009
 20
194.3587584961069
 30
0.0
 11
1419.067569175771
 21
194.3587584961069
 31
0.0
  0
LINE
  5
314
330
15
100
AcDbEntity
  8
4
100
AcDbLine
 10
1407.42804008009
 20
197.3741913893796
 30
0.0
 11
1406.428041080089
 21
197.3741913893796
 31
0.0
  0
LINE
  5
315
330
15
100
AcDbEntity
  8
4
100
AcDbLine
 10
547.8280430800884
 20
194.3587584961069
 30
0.0
 11
535.188514984408
 21
194.3587584961069
 31
0.0
  0
LINE
  5
316
330
15
100
AcDbEntity
  8
4
100
AcDbLine
 10
543.8280430800879
 20
166.6459455750046
 30
0.0
 11
543.8280430800884
 21
194.3587584961069
 31
0.0
  0
LINE
  5
317
330
15
100
AcDbEntity
  8
4
100
AcDbLine
 10
547.8280430800879
 20
166.6459455750046
 30
0.0
 11
547.8280430800884
 21
194.3587584961069
 31
0.0
  0
ARC
  5
318
330
15
100
AcDbEntity
  8
4
100
AcDbCircle
 10
538.9185134376418
 20
190.8946568809697
 30
0.0
 40
5.090470357553002
100
AcDbArc
 50
137.1167115949077
 51
222.8832884050859
  0
LINE
  5
319
330
15
100
AcDbEntity
  8
4
100
AcDbLine
 10
533.8280430800884
 20
190.8946568809697
 30
0.0
 11
533.8280430800879
 21
170.1100471901427
 31
0.0
  0
LINE
  5
31A
330
15
100
AcDbEntity
  8
4
100
AcDbLine
 10
535.188514984408
 20
187.4305552658316
 30
0.0
 11
543.8280430800884
 21
187.4305552658316
 31
0.0
  0
LINE
  5
31B
330
15
100
AcDbEntity
  8
4
100
AcDbLine
 10
535.1885149844076
 20
173.5741488052809
 30
0.0
 11
543.8280430800879
 21
173.5741488052809
 31
0.0
  0
LINE
  5
31C
330
15
100
AcDbEntity
  8
4
100
AcDbLine
 10
535.1885149844076
 20
166.6459455750046
 30
0.0
 11
547.8280430800879
 21
166.6459455750046
 31
0.0
  0
ARC
  5
31D
330
15
100
AcDbEntity
  8
4
100
AcDbCircle
 10
538.9185134376413
 20
170.1100471901427
 30
0.0
 40
5.090470357553012
100
AcDbArc
 50
137.1167115949141
 51
222.8832884050859
  0
ARC
  5
31E
330
15
100
AcDbEntity
  8
4
100
AcDbCircle
 10
552.1492166538211
 20
180.5023520355562
 30
0.0
 40
18.32117357373317
100
AcDbArc
 50
157.7806898294696
 51
202.2193101705288
  0
LINE
  5
31F
330
15
100
AcDbEntity
  8
4
100
AcDbLine
 10
533.8280430800897
 20
293.853733897789
 30
0.0
 11
533.8280430800897
 21
314.638343588616
 31
0.0
  0
ARC
  5
320
330
15
100
AcDbEntity
  8
4
100
AcDbCircle
 10
552.1492166538229
 20
304.2460387432025
 30
0.0
 40
18.32117357373317
100
AcDbArc
 50
157.7806898294712
 51
202.2193101705304
  0
ARC
  5
321
330
15
100
AcDbEntity
  8
4
100
AcDbCircle
 10
538.9185134376431
 20
314.638343588616
 30
0.0
 40
5.090470357553012
100
AcDbArc
 50
137.1167115949141
 51
222.8832884050859
  0
ARC
  5
322
330
15
100
AcDbEntity
  8
4
100
AcDbCircle
 10
538.9185134376431
 20
293.853733897789
 30
0.0
 40
5.090470357553002
100
AcDbArc
 50
137.1167115949141
 51
222.8832884050859
  0
LINE
  5
323
330
15
100
AcDbEntity
  8
4
100
AcDbLine
 10
547.8280430800897
 20
318.1024452037541
 30
0.0
 11
547.8280430800897
 21
290.3896322826517
 31
0.0
  0
LINE
  5
324
330
15
100
AcDbEntity
  8
4
100
AcDbLine
 10
543.8280430800897
 20
318.1024452037541
 30
0.0
 11
543.8280430800897
 21
290.3896322826517
 31
0.0
  0
LINE
  5
325
330
15
100
AcDbEntity
  8
4
100
AcDbLine
 10
535.1885149844094
 20
318.1024452037541
 30
0.0
 11
547.8280430800897
 21
318.1024452037541
 31
0.0
  0
LINE
  5
326
330
15
100
AcDbEntity
  8
4
100
AcDbLine
 10
535.1885149844094
 20
311.1742419734778
 30
0.0
 11
543.8280430800897
 21
311.1742419734778
 31
0.0
  0
LINE
  5
327
330
15
100
AcDbEntity
  8
4
100
AcDbLine
 10
547.8280430800897
 20
290.3896322826517
 30
0.0
 11
535.1885149844094
 21
290.3896322826517
 31
0.0
  0
LINE
  5
328
330
15
100
AcDbEntity
  8
4
100
AcDbLine
 10
535.1885149844094
 20
297.3178355129271
 30
0.0
 11
543.8280430800897
 21
297.3178355129271
 31
0.0
  0
LINE
  5
329
330
15
100
AcDbEntity
  8
4
100
AcDbLine
 10
1406.42804108009
 20
1570.807595735162
 30
0.0
 11
1419.067569175771
 21
1570.807595735162
 31
0.0
  0
LINE
  5
32A
330
15
100
AcDbEntity
  8
4
100
AcDbLine
 10
1410.428041080091
 20
1543.094782814059
 30
0.0
 11
1410.42804108009
 21
1570.807595735162
 31
0.0
  0
LINE
  5
32B
330
15
100
AcDbEntity
  8
4
100
AcDbLine
 10
1406.428041080091
 20
1543.094782814059
 30
0.0
 11
1406.42804108009
 21
1570.807595735162
 31
0.0
  0
ARC
  5
32C
330
15
100
AcDbEntity
  8
4
100
AcDbCircle
 10
1415.337570722538
 20
1567.343494120024
 30
0.0
 40
5.090470357553002
100
AcDbArc
 50
317.1167115949086
 51
42.88328840509141
  0
LINE
  5
32D
330
15
100
AcDbEntity
  8
4
100
AcDbLine
 10
1420.42804108009
 20
1567.343494120024
 30
0.0
 11
1420.428041080091
 21
1546.558884429197
 31
0.0
  0
LINE
  5
32E
330
15
100
AcDbEntity
  8
4
100
AcDbLine
 10
1419.067569175771
 20
1563.879392504886
 30
0.0
 11
1410.42804108009
 21
1563.879392504886
 31
0.0
  0
LINE
  5
32F
330
15
100
AcDbEntity
  8
4
100
AcDbLine
 10
1419.067569175771
 20
1550.022986044335
 30
0.0
 11
1410.428041080091
 21
1550.022986044335
 31
0.0
  0
LINE
  5
330
330
15
100
AcDbEntity
  8
4
100
AcDbLine
 10
1419.067569175771
 20
1543.094782814059
 30
0.0
 11
1406.428041080091
 21
1543.094782814059
 31
0.0
  0
ARC
  5
331
330
15
100
AcDbEntity
  8
4
100
AcDbCircle
 10
1415.337570722538
 20
1546.558884429197
 30
0.0
 40
5.090470357553012
100
AcDbArc
 50
317.1167115949213
 51
42.88328840509141
  0
ARC
  5
332
330
15
100
AcDbEntity
  8
4
100
AcDbCircle
 10
1402.106867506357
 20
1556.951189274611
 30
0.0
 40
18.32117357373317
100
AcDbArc
 50
337.7806898294712
 51
22.2193101705259
  0
LINE
  5
333
330
15
100
AcDbEntity
  8
4
100
AcDbLine
 10
1420.428041080089
 20
1670.302571136844
 30
0.0
 11
1420.428041080089
 21
1691.087180827671
 31
0.0
  0
ARC
  5
334
330
15
100
AcDbEntity
  8
4
100
AcDbCircle
 10
1402.106867506356
 20
1680.694875982257
 30
0.0
 40
18.32117357373317
100
AcDbArc
 50
337.7806898294712
 51
22.21931017052882
  0
ARC
  5
335
330
15
100
AcDbEntity
  8
4
100
AcDbCircle
 10
1415.337570722536
 20
1691.087180827671
 30
0.0
 40
5.090470357553012
100
AcDbArc
 50
317.1167115949086
 51
42.88328840509141
  0
ARC
  5
336
330
15
100
AcDbEntity
  8
4
100
AcDbCircle
 10
1415.337570722536
 20
1670.302571136844
 30
0.0
 40
5.090470357553002
100
AcDbArc
 50
317.1167115949086
 51
42.88328840509141
  0
LINE
  5
337
330
15
100
AcDbEntity
  8
4
100
AcDbLine
 10
1406.428041080089
 20
1694.551282442809
 30
0.0
 11
1406.428041080089
 21
1666.838469521706
 31
0.0
  0
LINE
  5
338
330
15
100
AcDbEntity
  8
4
100
AcDbLine
 10
1410.428041080089
 20
1694.551282442809
 30
0.0
 11
1410.428041080089
 21
1666.838469521706
 31
0.0
  0
LINE
  5
339
330
15
100
AcDbEntity
  8
4
100
AcDbLine
 10
1419.06756917577
 20
1694.551282442809
 30
0.0
 11
1406.428041080089
 21
1694.551282442809
 31
0.0
  0
LINE
  5
33A
330
15
100
AcDbEntity
  8
4
100
AcDbLine
 10
1419.06756917577
 20
1687.623079212533
 30
0.0
 11
1410.428041080089
 21
1687.623079212533
 31
0.0
  0
LINE
  5
33B
330
15
100
AcDbEntity
  8
4
100
AcDbLine
 10
1406.428041080089
 20
1666.838469521706
 30
0.0
 11
1419.06756917577
 21
1666.838469521706
 31
0.0
  0
LINE
  5
33C
330
15
100
AcDbEntity
  8
4
100
AcDbLine
 10
1419.06756917577
 20
1673.766672751982
 30
0.0
 11
1410.428041080089
 21
1673.766672751982
 31
0.0
  0
ARC
  5
33D
330
15
100
AcDbEntity
  8
4
100
AcDbCircle
 10
552.1492166538216
 20
1556.951189274611
 30
0.0
 40
18.32117357373317
100
AcDbArc
 50
157.7806898294711
 51
202.2193101705288
  0
ARC
  5
33E
330
15
100
AcDbEntity
  8
4
100
AcDbCircle
 10
538.9185134376413
 20
1546.558884429197
 30
0.0
 40
5.090470357553012
100
AcDbArc
 50
137.1167115949077
 51
222.8832884050787
  0
LINE
  5
33F
330
15
100
AcDbEntity
  8
4
100
AcDbLine
 10
535.1885149844076
 20
1543.094782814059
 30
0.0
 11
547.8280430800879
 21
1543.094782814059
 31
0.0
  0
LINE
  5
340
330
15
100
AcDbEntity
  8
4
100
AcDbLine
 10
535.1885149844076
 20
1550.022986044335
 30
0.0
 11
543.8280430800879
 21
1550.022986044335
 31
0.0
  0
LINE
  5
341
330
15
100
AcDbEntity
  8
4
100
AcDbLine
 10
535.188514984408
 20
1563.879392504886
 30
0.0
 11
543.8280430800884
 21
1563.879392504886
 31
0.0
  0
LINE
  5
342
330
15
100
AcDbEntity
  8
4
100
AcDbLine
 10
533.8280430800884
 20
1567.343494120024
 30
0.0
 11
533.8280430800879
 21
1546.558884429197
 31
0.0
  0
ARC
  5
343
330
15
100
AcDbEntity
  8
4
100
AcDbCircle
 10
538.9185134376418
 20
1567.343494120024
 30
0.0
 40
5.090470357553002
100
AcDbArc
 50
137.1167115949077
 51
222.8832884050795
  0
LINE
  5
344
330
15
100
AcDbEntity
  8
4
100
AcDbLine
 10
547.8280430800879
 20
1543.094782814059
 30
0.0
 11
547.8280430800884
 21
1570.807595735162
 31
0.0
  0
LINE
  5
345
330
15
100
AcDbEntity
  8
4
100
AcDbLine
 10
543.8280430800879
 20
1543.094782814059
 30
0.0
 11
543.8280430800884
 21
1570.807595735162
 31
0.0
  0
LINE
  5
346
330
15
100
AcDbEntity
  8
4
100
AcDbLine
 10
547.8280430800884
 20
1570.807595735162
 30
0.0
 11
535.188514984408
 21
1570.807595735162
 31
0.0
  0
LINE
  5
347
330
15
100
AcDbEntity
  8
4
100
AcDbLine
 10
535.1885149844094
 20
1673.766672751982
 30
0.0
 11
543.8280430800897
 21
1673.766672751982
 31
0.0
  0
LINE
  5
348
330
15
100
AcDbEntity
  8
4
100
AcDbLine
 10
547.8280430800897
 20
1666.838469521706
 30
0.0
 11
535.1885149844094
 21
1666.838469521706
 31
0.0
  0
LINE
  5
349
330
15
100
AcDbEntity
  8
4
100
AcDbLine
 10
535.1885149844094
 20
1687.623079212533
 30
0.0
 11
543.8280430800897
 21
1687.623079212533
 31
0.0
  0
LINE
  5
34A
330
15
100
AcDbEntity
  8
4
100
AcDbLine
 10
535.1885149844094
 20
1694.551282442809
 30
0.0
 11
547.8280430800897
 21
1694.551282442809
 31
0.0
  0
LINE
  5
34B
330
15
100
AcDbEntity
  8
4
100
AcDbLine
 10
543.8280430800897
 20
1694.551282442809
 30
0.0
 11
543.8280430800897
 21
1666.838469521706
 31
0.0
  0
LINE
  5
34C
330
15
100
AcDbEntity
  8
4
100
AcDbLine
 10
547.8280430800897
 20
1694.551282442809
 30
0.0
 11
547.8280430800897
 21
1666.838469521706
 31
0.0
  0
ARC
  5
34D
330
15
100
AcDbEntity
  8
4
100
AcDbCircle
 10
538.9185134376431
 20
1670.302571136844
 30
0.0
 40
5.090470357553002
100
AcDbArc
 50
137.1167115949077
 51
222.8832884050923
  0
ARC
  5
34E
330
15
100
AcDbEntity
  8
4
100
AcDbCircle
 10
538.9185134376431
 20
1691.087180827671
 30
0.0
 40
5.090470357553012
100
AcDbArc
 50
137.1167115949077
 51
222.8832884050923
  0
ARC
  5
34F
330
15
100
AcDbEntity
  8
4
100
AcDbCircle
 10
552.1492166538229
 20
1680.694875982257
 30
0.0
 40
18.32117357373317
100
AcDbArc
 50
157.7806898294712
 51
202.2193101705288
  0
LINE
  5
350
330
15
100
AcDbEntity
  8
4
100
AcDbLine
 10
533.8280430800897
 20
1670.302571136844
 30
0.0
 11
533.8280430800897
 21
1691.087180827671
 31
0.0
  0
LINE
  5
351
330
15
100
AcDbEntity
  8
4
100
AcDbLine
 10
2026.290972692561
 20
581.4045402747761
 30
0.0
 11
2026.290972692561
 21
603.3438505039821
 31
0.0
  0
ARC
  5
352
330
15
100
AcDbEntity
  8
4
100
AcDbCircle
 10
2032.086716827738
 20
592.3741953893796
 30
0.0
 40
13.7957441351769
100
AcDbArc
 50
156.5734024913687
 51
184.8215478413528
  0
LINE
  5
353
330
15
100
AcDbEntity
  8
4
100
AcDbLine
 10
2018.290972692561
 20
600.601436725332
 30
0.0
 11
2018.290972692561
 21
584.1469540534272
 31
0.0
  0
LINE
  5
354
330
15
100
AcDbEntity
  8
4
100
AcDbLine
 10
2029.290972692561
 20
581.4045402747761
 30
0.0
 11
2029.290972692561
 21
603.3438505039821
 31
0.0
  0
LINE
  5
355
330
15
100
AcDbEntity
  8
4
100
AcDbLine
 10
2019.428153603188
 20
597.8590229466809
 30
0.0
 11
2026.290972692561
 21
597.8590229466809
 31
0.0
  0
LINE
  5
356
330
15
100
AcDbEntity
  8
4
100
AcDbLine
 10
2029.290972692561
 20
603.3438505039821
 30
0.0
 11
2019.428153603188
 21
603.3438505039821
 31
0.0
  0
LINE
  5
357
330
15
100
AcDbEntity
  8
L-CENTER
 48
2.0
100
AcDbLine
 10
2014.690132812457
 20
592.3741953893796
 30
0.0
 11
2067.773667019597
 21
592.3741953893796
 31
0.0
  0
ARC
  5
358
330
15
100
AcDbEntity
  8
4
100
AcDbCircle
 10
2022.16635156784
 20
600.601436725332
 30
0.0
 40
3.875378875279264
100
AcDbArc
 50
134.9559267627452
 51
225.0440732372548
  0
LINE
  5
359
330
15
100
AcDbEntity
  8
4
100
AcDbLine
 10
2026.290972692561
 20
571.4045432747757
 30
0.0
 11
2026.290972692561
 21
593.3438535039818
 31
0.0
  0
ARC
  5
35A
330
15
100
AcDbEntity
  8
4
100
AcDbCircle
 10
2032.086716827738
 20
582.3741983893792
 30
0.0
 40
13.7957441351769
100
AcDbArc
 50
156.5734024913708
 51
203.4265975086292
  0
LINE
  5
35B
330
15
100
AcDbEntity
  8
4
100
AcDbLine
 10
2018.290972692561
 20
590.6014397253316
 30
0.0
 11
2018.290972692561
 21
574.1469570534268
 31
0.0
  0
LINE
  5
35C
330
15
100
AcDbEntity
  8
4
100
AcDbLine
 10
2029.290972692561
 20
571.4045432747757
 30
0.0
 11
2029.290972692561
 21
593.3438535039818
 31
0.0
  0
LINE
  5
35D
330
15
100
AcDbEntity
  8
4
100
AcDbLine
 10
2019.428153603188
 20
576.8893708320779
 30
0.0
 11
2026.290972692561
 21
576.8893708320779
 31
0.0
  0
LINE
  5
35E
330
15
100
AcDbEntity
  8
4
100
AcDbLine
 10
2019.428153603188
 20
571.4045432747757
 30
0.0
 11
2029.290972692561
 21
571.4045432747757
 31
0.0
  0
ARC
  5
35F
330
15
100
AcDbEntity
  8
4
100
AcDbCircle
 10
2022.16635156784
 20
574.1469570534268
 30
0.0
 40
3.875378875279244
100
AcDbArc
 50
134.9559267627452
 51
225.0440732372548
  0
LINE
  5
360
330
15
100
AcDbEntity
  8
4
100
AcDbLine
 10
2019.428153603188
 20
587.8590259466805
 30
0.0
 11
2026.290972692561
 21
587.8590259466805
 31
0.0
  0
LINE
  5
361
330
15
100
AcDbEntity
  8
4
100
AcDbLine
 10
2029.290972692561
 20
593.3438535039818
 30
0.0
 11
2019.428153603188
 21
593.3438535039818
 31
0.0
  0
LINE
  5
362
330
15
100
AcDbEntity
  8
L-CENTER
 48
2.0
100
AcDbLine
 10
2014.690132812457
 20
582.3741983893792
 30
0.0
 11
2067.773667019597
 21
582.3741983893792
 31
0.0
  0
ARC
  5
363
330
15
100
AcDbEntity
  8
4
100
AcDbCircle
 10
2022.16635156784
 20
590.6014397253316
 30
0.0
 40
3.875378875279264
100
AcDbArc
 50
134.9559267627452
 51
225.0440732372548
  0
LINE
  5
364
330
15
100
AcDbEntity
  8
4
100
AcDbLine
 10
2026.290972692561
 20
521.404843435469
 30
0.0
 11
2026.290972692561
 21
543.3441536646751
 31
0.0
  0
LINE
  5
365
330
15
100
AcDbEntity
  8
4
100
AcDbLine
 10
2018.290972692561
 20
529.1471070038133
 30
0.0
 11
2018.290972692562
 21
524.1472572141201
 31
0.0
  0
LINE
  5
366
330
15
100
AcDbEntity
  8
4
100
AcDbLine
 10
2029.290972692561
 20
521.404843435469
 30
0.0
 11
2029.290972692561
 21
543.3441536646751
 31
0.0
  0
LINE
  5
367
330
15
100
AcDbEntity
  8
4
100
AcDbLine
 10
2019.428153603189
 20
521.404843435469
 30
0.0
 11
2029.290972692561
 21
521.404843435469
 31
0.0
  0
ARC
  5
368
330
15
100
AcDbEntity
  8
4
100
AcDbCircle
 10
2022.16635156784
 20
524.1472572141201
 30
0.0
 40
3.875378875279244
100
AcDbArc
 50
139.8284134034343
 51
225.0440732372477
  0
LINE
  5
369
330
15
100
AcDbEntity
  8
L-CENTER
 48
2.0
100
AcDbLine
 10
2014.690132812457
 20
532.3744985500725
 30
0.0
 11
2067.773667019597
 21
532.3744985500725
 31
0.0
  0
LINE
  5
36A
330
15
100
AcDbEntity
  8
4
100
AcDbLine
 10
2026.290972692561
 20
526.4046932251622
 30
0.0
 11
2026.290972692561
 21
548.3440034543682
 31
0.0
  0
ARC
  5
36B
330
15
100
AcDbEntity
  8
4
100
AcDbCircle
 10
2032.086716827738
 20
537.3743483397657
 30
0.0
 40
13.7957441351769
100
AcDbArc
 50
156.5734024913687
 51
203.4265975086314
  0
LINE
  5
36C
330
15
100
AcDbEntity
  8
4
100
AcDbLine
 10
2018.290972692561
 20
545.6015896757181
 30
0.0
 11
2018.290972692561
 21
529.1471070038133
 31
0.0
  0
LINE
  5
36D
330
15
100
AcDbEntity
  8
4
100
AcDbLine
 10
2029.290972692561
 20
526.4046932251622
 30
0.0
 11
2029.290972692561
 21
548.3440034543682
 31
0.0
  0
LINE
  5
36E
330
15
100
AcDbEntity
  8
4
100
AcDbLine
 10
2019.428153603189
 20
531.8895207824644
 30
0.0
 11
2026.290972692561
 21
531.8895207824644
 31
0.0
  0
LINE
  5
36F
330
15
100
AcDbEntity
  8
4
100
AcDbLine
 10
2019.428153603189
 20
526.4046932251622
 30
0.0
 11
2029.290972692561
 21
526.4046932251622
 31
0.0
  0
ARC
  5
370
330
15
100
AcDbEntity
  8
4
100
AcDbCircle
 10
2022.16635156784
 20
529.1471070038133
 30
0.0
 40
3.875378875279244
100
AcDbArc
 50
134.9559267627452
 51
225.0440732372548
  0
LINE
  5
371
330
15
100
AcDbEntity
  8
4
100
AcDbLine
 10
2019.428153603189
 20
542.859175897067
 30
0.0
 11
2026.290972692561
 21
542.859175897067
 31
0.0
  0
LINE
  5
372
330
15
100
AcDbEntity
  8
4
100
AcDbLine
 10
2029.290972692561
 20
548.3440034543682
 30
0.0
 11
2019.428153603189
 21
548.3440034543682
 31
0.0
  0
LINE
  5
373
330
15
100
AcDbEntity
  8
L-CENTER
 48
2.0
100
AcDbLine
 10
2014.690132812457
 20
537.3743483397657
 30
0.0
 11
2067.773667019597
 21
537.3743483397657
 31
0.0
  0
ARC
  5
374
330
15
100
AcDbEntity
  8
4
100
AcDbCircle
 10
2022.16635156784
 20
545.6015896757181
 30
0.0
 40
3.875378875279264
100
AcDbArc
 50
134.9559267627452
 51
225.0440732372548
  0
LINE
  5
375
330
15
100
AcDbEntity
  8
4
100
AcDbLine
 10
2026.290972692561
 20
436.4043918452521
 30
0.0
 11
2026.290972692561
 21
458.3437020744582
 31
0.0
  0
ARC
  5
376
330
15
100
AcDbEntity
  8
4
100
AcDbCircle
 10
2032.086716827738
 20
447.3740469598556
 30
0.0
 40
13.7957441351769
100
AcDbArc
 50
156.5734024913708
 51
203.4265975086292
  0
LINE
  5
377
330
15
100
AcDbEntity
  8
4
100
AcDbLine
 10
2018.290972692561
 20
455.601288295808
 30
0.0
 11
2018.290972692561
 21
439.1468056239032
 31
0.0
  0
LINE
  5
378
330
15
100
AcDbEntity
  8
4
100
AcDbLine
 10
2029.290972692561
 20
436.4043918452521
 30
0.0
 11
2029.290972692561
 21
458.3437020744582
 31
0.0
  0
LINE
  5
379
330
15
100
AcDbEntity
  8
4
100
AcDbLine
 10
2019.428153603189
 20
441.8892194025543
 30
0.0
 11
2026.290972692561
 21
441.8892194025543
 31
0.0
  0
LINE
  5
37A
330
15
100
AcDbEntity
  8
4
100
AcDbLine
 10
2019.428153603189
 20
436.4043918452521
 30
0.0
 11
2029.290972692561
 21
436.4043918452521
 31
0.0
  0
ARC
  5
37B
330
15
100
AcDbEntity
  8
4
100
AcDbCircle
 10
2022.16635156784
 20
439.1468056239032
 30
0.0
 40
3.875378875279244
100
AcDbArc
 50
134.9559267627452
 51
225.0440732372548
  0
LINE
  5
37C
330
15
100
AcDbEntity
  8
4
100
AcDbLine
 10
2019.428153603189
 20
452.8588745171569
 30
0.0
 11
2026.290972692561
 21
452.8588745171569
 31
0.0
  0
LINE
  5
37D
330
15
100
AcDbEntity
  8
4
100
AcDbLine
 10
2029.290972692561
 20
458.3437020744582
 30
0.0
 11
2019.428153603189
 21
458.3437020744582
 31
0.0
  0
LINE
  5
37E
330
15
100
AcDbEntity
  8
L-CENTER
 48
2.0
100
AcDbLine
 10
2014.690132812457
 20
447.3740469598556
 30
0.0
 11
2067.773667019597
 21
447.3740469598556
 31
0.0
  0
ARC
  5
37F
330
15
100
AcDbEntity
  8
4
100
AcDbCircle
 10
2022.16635156784
 20
455.601288295808
 30
0.0
 40
3.875378875279264
100
AcDbArc
 50
134.9559267627452
 51
225.0440732372548
  0
LINE
  5
380
330
15
100
AcDbEntity
  8
4
100
AcDbLine
 10
2026.290972692561
 20
401.4048404963041
 30
0.0
 11
2026.290972692561
 21
423.3441507255102
 31
0.0
  0
ARC
  5
381
330
15
100
AcDbEntity
  8
4
100
AcDbCircle
 10
2032.086716827738
 20
412.3744956109076
 30
0.0
 40
13.7957441351769
100
AcDbArc
 50
156.5734024913687
 51
184.8223730769658
  0
LINE
  5
382
330
15
100
AcDbEntity
  8
4
100
AcDbLine
 10
2018.290972692561
 20
420.60173694686
 30
0.0
 11
2018.290972692561
 21
404.1472542749552
 31
0.0
  0
LINE
  5
383
330
15
100
AcDbEntity
  8
4
100
AcDbLine
 10
2029.290972692561
 20
401.4048404963041
 30
0.0
 11
2029.290972692561
 21
423.3441507255102
 31
0.0
  0
LINE
  5
384
330
15
100
AcDbEntity
  8
4
100
AcDbLine
 10
2019.428153603189
 20
417.8593231682089
 30
0.0
 11
2026.290972692561
 21
417.8593231682089
 31
0.0
  0
LINE
  5
385
330
15
100
AcDbEntity
  8
4
100
AcDbLine
 10
2029.290972692561
 20
423.3441507255102
 30
0.0
 11
2019.428153603189
 21
423.3441507255102
 31
0.0
  0
LINE
  5
386
330
15
100
AcDbEntity
  8
L-CENTER
 48
2.0
100
AcDbLine
 10
2014.690132812457
 20
412.3744956109076
 30
0.0
 11
2067.773667019597
 21
412.3744956109076
 31
0.0
  0
ARC
  5
387
330
15
100
AcDbEntity
  8
4
100
AcDbCircle
 10
2022.16635156784
 20
420.60173694686
 30
0.0
 40
3.875378875279264
100
AcDbArc
 50
134.9559267627452
 51
225.0440732372548
  0
LINE
  5
388
330
15
100
AcDbEntity
  8
4
100
AcDbLine
 10
2026.290972692561
 20
391.404541274776
 30
0.0
 11
2026.290972692561
 21
413.343851503982
 31
0.0
  0
ARC
  5
389
330
15
100
AcDbEntity
  8
4
100
AcDbCircle
 10
2032.086716827738
 20
402.3741963893794
 30
0.0
 40
13.7957441351769
100
AcDbArc
 50
156.5734024913708
 51
203.4265975086292
  0
LINE
  5
38A
330
15
100
AcDbEntity
  8
4
100
AcDbLine
 10
2018.290972692561
 20
410.6014377253318
 30
0.0
 11
2018.290972692561
 21
394.1469550534271
 31
0.0
  0
LINE
  5
38B
330
15
100
AcDbEntity
  8
4
100
AcDbLine
 10
2029.290972692561
 20
391.404541274776
 30
0.0
 11
2029.290972692561
 21
413.343851503982
 31
0.0
  0
LINE
  5
38C
330
15
100
AcDbEntity
  8
4
100
AcDbLine
 10
2019.428153603188
 20
396.8893688320782
 30
0.0
 11
2026.290972692561
 21
396.8893688320782
 31
0.0
  0
LINE
  5
38D
330
15
100
AcDbEntity
  8
4
100
AcDbLine
 10
2019.428153603188
 20
391.404541274776
 30
0.0
 11
2029.290972692561
 21
391.404541274776
 31
0.0
  0
ARC
  5
38E
330
15
100
AcDbEntity
  8
4
100
AcDbCircle
 10
2022.16635156784
 20
394.1469550534271
 30
0.0
 40
3.875378875279244
100
AcDbArc
 50
134.9559267627452
 51
225.0440732372548
  0
LINE
  5
38F
330
15
100
AcDbEntity
  8
4
100
AcDbLine
 10
2019.428153603188
 20
407.8590239466807
 30
0.0
 11
2026.290972692561
 21
407.8590239466807
 31
0.0
  0
LINE
  5
390
330
15
100
AcDbEntity
  8
4
100
AcDbLine
 10
2029.290972692561
 20
413.343851503982
 30
0.0
 11
2019.428153603188
 21
413.343851503982
 31
0.0
  0
LINE
  5
391
330
15
100
AcDbEntity
  8
L-CENTER
 48
2.0
100
AcDbLine
 10
2014.690132812457
 20
402.3741963893794
 30
0.0
 11
2067.773667019597
 21
402.3741963893794
 31
0.0
  0
ARC
  5
392
330
15
100
AcDbEntity
  8
4
100
AcDbCircle
 10
2022.16635156784
 20
410.6014377253318
 30
0.0
 40
3.875378875279264
100
AcDbArc
 50
134.9559267627452
 51
225.0440732372548
  0
LINE
  5
393
330
15
100
AcDbEntity
  8
4
100
AcDbLine
 10
2026.290972692561
 20
341.4045422747758
 30
0.0
 11
2026.290972692561
 21
363.3438525039819
 31
0.0
  0
ARC
  5
394
330
15
100
AcDbEntity
  8
4
100
AcDbCircle
 10
2032.086716827738
 20
352.3741973893793
 30
0.0
 40
13.7957441351769
100
AcDbArc
 50
156.5734024913729
 51
203.4265975086271
  0
LINE
  5
395
330
15
100
AcDbEntity
  8
4
100
AcDbLine
 10
2018.290972692561
 20
360.6014387253317
 30
0.0
 11
2018.290972692561
 21
344.1469560534269
 31
0.0
  0
LINE
  5
396
330
15
100
AcDbEntity
  8
4
100
AcDbLine
 10
2029.290972692561
 20
341.4045422747758
 30
0.0
 11
2029.290972692561
 21
363.3438525039819
 31
0.0
  0
LINE
  5
397
330
15
100
AcDbEntity
  8
4
100
AcDbLine
 10
2019.428153603188
 20
346.889369832078
 30
0.0
 11
2026.290972692561
 21
346.889369832078
 31
0.0
  0
LINE
  5
398
330
15
100
AcDbEntity
  8
4
100
AcDbLine
 10
2019.428153603188
 20
341.4045422747758
 30
0.0
 11
2029.290972692561
 21
341.4045422747758
 31
0.0
  0
ARC
  5
399
330
15
100
AcDbEntity
  8
4
100
AcDbCircle
 10
2022.16635156784
 20
344.1469560534269
 30
0.0
 40
3.875378875279244
100
AcDbArc
 50
134.9559267627452
 51
225.0440732372548
  0
LINE
  5
39A
330
15
100
AcDbEntity
  8
4
100
AcDbLine
 10
2019.428153603188
 20
357.8590249466806
 30
0.0
 11
2026.290972692561
 21
357.8590249466806
 31
0.0
  0
LINE
  5
39B
330
15
100
AcDbEntity
  8
4
100
AcDbLine
 10
2029.290972692561
 20
363.3438525039819
 30
0.0
 11
2019.428153603188
 21
363.3438525039819
 31
0.0
  0
LINE
  5
39C
330
15
100
AcDbEntity
  8
L-CENTER
 48
2.0
100
AcDbLine
 10
2014.690132812457
 20
352.3741973893793
 30
0.0
 11
2067.773667019597
 21
352.3741973893793
 31
0.0
  0
ARC
  5
39D
330
15
100
AcDbEntity
  8
4
100
AcDbCircle
 10
2022.16635156784
 20
360.6014387253317
 30
0.0
 40
3.875378875279264
100
AcDbArc
 50
134.9559267627452
 51
225.0440732372548
  0
LINE
  5
39E
330
15
100
AcDbEntity
  8
L-CENTER
 48
2.0
100
AcDbLine
 10
2417.691816572666
 20
352.3741973893793
 30
0.0
 11
2364.608282365525
 21
352.3741973893793
 31
0.0
  0
ARC
  5
39F
330
15
100
AcDbEntity
  8
4
100
AcDbCircle
 10
2410.215597817282
 20
360.6014387253317
 30
0.0
 40
3.875378875279264
100
AcDbArc
 50
314.9559267627452
 51
45.04407323725481
  0
LINE
  5
3A0
330
15
100
AcDbEntity
  8
4
100
AcDbLine
 10
2403.090976692562
 20
363.3438525039819
 30
0.0
 11
2412.953795781935
 21
363.3438525039819
 31
0.0
  0
LINE
  5
3A1
330
15
100
AcDbEntity
  8
4
100
AcDbLine
 10
2412.953795781935
 20
357.8590249466806
 30
0.0
 11
2406.090976692562
 21
357.8590249466806
 31
0.0
  0
ARC
  5
3A2
330
15
100
AcDbEntity
  8
4
100
AcDbCircle
 10
2410.215597817282
 20
344.1469560534269
 30
0.0
 40
3.875378875279244
100
AcDbArc
 50
314.9559267627452
 51
45.04407323725481
  0
LINE
  5
3A3
330
15
100
AcDbEntity
  8
4
100
AcDbLine
 10
2412.953795781935
 20
341.4045422747758
 30
0.0
 11
2403.090976692562
 21
341.4045422747758
 31
0.0
  0
LINE
  5
3A4
330
15
100
AcDbEntity
  8
4
100
AcDbLine
 10
2412.953795781935
 20
346.889369832078
 30
0.0
 11
2406.090976692562
 21
346.889369832078
 31
0.0
  0
LINE
  5
3A5
330
15
100
AcDbEntity
  8
4
100
AcDbLine
 10
2403.090976692562
 20
341.4045422747758
 30
0.0
 11
2403.090976692562
 21
363.3438525039819
 31
0.0
  0
LINE
  5
3A6
330
15
100
AcDbEntity
  8
4
100
AcDbLine
 10
2414.090976692562
 20
360.6014387253317
 30
0.0
 11
2414.090976692562
 21
344.1469560534269
 31
0.0
  0
ARC
  5
3A7
330
15
100
AcDbEntity
  8
4
100
AcDbCircle
 10
2400.295232557385
 20
352.3741973893793
 30
0.0
 40
13.7957441351769
100
AcDbArc
 50
336.5734024913691
 51
23.42659750863096
  0
LINE
  5
3A8
330
15
100
AcDbEntity
  8
4
100
AcDbLine
 10
2406.090976692562
 20
341.4045422747758
 30
0.0
 11
2406.090976692562
 21
363.3438525039819
 31
0.0
  0
LINE
  5
3A9
330
15
100
AcDbEntity
  8
L-CENTER
 48
2.0
100
AcDbLine
 10
2417.691816572665
 20
402.3741963893794
 30
0.0
 11
2364.608282365524
 21
402.3741963893794
 31
0.0
  0
LINE
  5
3AA
330
15
100
AcDbEntity
  8
L-CENTER
 48
2.0
100
AcDbLine
 10
2417.691816572665
 20
412.3744956109076
 30
0.0
 11
2364.608282365524
 21
412.3744956109076
 31
0.0
  0
LINE
  5
3AB
330
15
100
AcDbEntity
  8
L-CENTER
 48
2.0
100
AcDbLine
 10
2417.691816572665
 20
447.3740469598556
 30
0.0
 11
2364.608282365524
 21
447.3740469598556
 31
0.0
  0
ARC
  5
3AC
330
15
100
AcDbEntity
  8
4
100
AcDbCircle
 10
2400.295232557383
 20
412.3744956109076
 30
0.0
 40
13.7957441351769
100
AcDbArc
 50
355.1776269230342
 51
23.42659750862749
  0
ARC
  5
3AD
330
15
100
AcDbEntity
  8
4
100
AcDbCircle
 10
2410.215597817282
 20
410.6014377253318
 30
0.0
 40
3.875378875279264
100
AcDbArc
 50
314.9559267627452
 51
45.04407323725481
  0
LINE
  5
3AE
330
15
100
AcDbEntity
  8
4
100
AcDbLine
 10
2403.090976692561
 20
413.343851503982
 30
0.0
 11
2412.953795781935
 21
413.343851503982
 31
0.0
  0
LINE
  5
3AF
330
15
100
AcDbEntity
  8
4
100
AcDbLine
 10
2412.953795781935
 20
407.8590239466807
 30
0.0
 11
2406.090976692561
 21
407.8590239466807
 31
0.0
  0
ARC
  5
3B0
330
15
100
AcDbEntity
  8
4
100
AcDbCircle
 10
2410.215597817282
 20
394.1469550534271
 30
0.0
 40
3.875378875279244
100
AcDbArc
 50
314.9559267627452
 51
45.04407323725481
  0
LINE
  5
3B1
330
15
100
AcDbEntity
  8
4
100
AcDbLine
 10
2412.953795781935
 20
391.404541274776
 30
0.0
 11
2403.090976692561
 21
391.404541274776
 31
0.0
  0
LINE
  5
3B2
330
15
100
AcDbEntity
  8
4
100
AcDbLine
 10
2412.953795781935
 20
396.8893688320782
 30
0.0
 11
2406.090976692561
 21
396.8893688320782
 31
0.0
  0
LINE
  5
3B3
330
15
100
AcDbEntity
  8
4
100
AcDbLine
 10
2403.090976692561
 20
391.404541274776
 30
0.0
 11
2403.090976692561
 21
413.343851503982
 31
0.0
  0
LINE
  5
3B4
330
15
100
AcDbEntity
  8
4
100
AcDbLine
 10
2414.090976692561
 20
410.6014377253318
 30
0.0
 11
2414.090976692561
 21
394.1469550534271
 31
0.0
  0
ARC
  5
3B5
330
15
100
AcDbEntity
  8
4
100
AcDbCircle
 10
2400.295232557384
 20
402.3741963893794
 30
0.0
 40
13.7957441351769
100
AcDbArc
 50
336.5734024913725
 51
23.42659750862749
  0
LINE
  5
3B6
330
15
100
AcDbEntity
  8
4
100
AcDbLine
 10
2406.090976692561
 20
391.404541274776
 30
0.0
 11
2406.090976692561
 21
413.343851503982
 31
0.0
  0
ARC
  5
3B7
330
15
100
AcDbEntity
  8
4
100
AcDbCircle
 10
2410.215597817282
 20
420.60173694686
 30
0.0
 40
3.875378875279264
100
AcDbArc
 50
314.9559267627452
 51
45.04407323725481
  0
LINE
  5
3B8
330
15
100
AcDbEntity
  8
4
100
AcDbLine
 10
2403.090976692561
 20
423.3441507255102
 30
0.0
 11
2412.953795781935
 21
423.3441507255102
 31
0.0
  0
LINE
  5
3B9
330
15
100
AcDbEntity
  8
4
100
AcDbLine
 10
2412.953795781935
 20
417.8593231682089
 30
0.0
 11
2406.090976692561
 21
417.8593231682089
 31
0.0
  0
LINE
  5
3BA
330
15
100
AcDbEntity
  8
4
100
AcDbLine
 10
2403.090976692561
 20
401.4048404963041
 30
0.0
 11
2403.090976692561
 21
423.3441507255102
 31
0.0
  0
LINE
  5
3BB
330
15
100
AcDbEntity
  8
4
100
AcDbLine
 10
2414.090976692561
 20
420.60173694686
 30
0.0
 11
2414.090976692561
 21
404.1472542749552
 31
0.0
  0
LINE
  5
3BC
330
15
100
AcDbEntity
  8
4
100
AcDbLine
 10
2406.090976692561
 20
401.4048404963041
 30
0.0
 11
2406.090976692561
 21
423.3441507255102
 31
0.0
  0
LINE
  5
3BD
330
15
100
AcDbEntity
  8
4
100
AcDbLine
 10
2412.953795781935
 20
452.8588745171569
 30
0.0
 11
2406.090976692561
 21
452.8588745171569
 31
0.0
  0
ARC
  5
3BE
330
15
100
AcDbEntity
  8
4
100
AcDbCircle
 10
2410.215597817282
 20
439.1468056239032
 30
0.0
 40
3.875378875279244
100
AcDbArc
 50
314.9559267627452
 51
45.04407323725481
  0
LINE
  5
3BF
330
15
100
AcDbEntity
  8
4
100
AcDbLine
 10
2412.953795781935
 20
436.4043918452521
 30
0.0
 11
2403.090976692561
 21
436.4043918452521
 31
0.0
  0
LINE
  5
3C0
330
15
100
AcDbEntity
  8
4
100
AcDbLine
 10
2412.953795781935
 20
441.8892194025543
 30
0.0
 11
2406.090976692561
 21
441.8892194025543
 31
0.0
  0
LINE
  5
3C1
330
15
100
AcDbEntity
  8
4
100
AcDbLine
 10
2414.090976692561
 20
455.601288295808
 30
0.0
 11
2414.090976692561
 21
439.1468056239032
 31
0.0
  0
ARC
  5
3C2
330
15
100
AcDbEntity
  8
4
100
AcDbCircle
 10
2400.295232557383
 20
447.3740469598556
 30
0.0
 40
13.7957441351769
100
AcDbArc
 50
336.5734024913725
 51
23.42659750862749
  0
ARC
  5
3C3
330
15
100
AcDbEntity
  8
4
100
AcDbCircle
 10
2410.215597817282
 20
590.6014397253316
 30
0.0
 40
3.875378875279264
100
AcDbArc
 50
314.9559267627452
 51
45.04407323725481
  0
LINE
  5
3C4
330
15
100
AcDbEntity
  8
4
100
AcDbLine
 10
2403.090976692561
 20
571.4045432747757
 30
0.0
 11
2403.090976692561
 21
593.3438535039818
 31
0.0
  0
LINE
  5
3C5
330
15
100
AcDbEntity
  8
4
100
AcDbLine
 10
2406.090976692561
 20
571.4045432747757
 30
0.0
 11
2406.090976692561
 21
593.3438535039818
 31
0.0
  0
LINE
  5
3C6
330
15
100
AcDbEntity
  8
L-CENTER
 48
2.0
100
AcDbLine
 10
2417.691816572665
 20
537.3743483397657
 30
0.0
 11
2364.608282365524
 21
537.3743483397657
 31
0.0
  0
LINE
  5
3C7
330
15
100
AcDbEntity
  8
L-CENTER
 48
2.0
100
AcDbLine
 10
2417.691816572665
 20
532.3744985500725
 30
0.0
 11
2364.608282365524
 21
532.3744985500725
 31
0.0
  0
LINE
  5
3C8
330
15
100
AcDbEntity
  8
L-CENTER
 48
2.0
100
AcDbLine
 10
2417.691816572665
 20
582.3741983893792
 30
0.0
 11
2364.608282365524
 21
582.3741983893792
 31
0.0
  0
LINE
  5
3C9
330
15
100
AcDbEntity
  8
4
100
AcDbLine
 10
2403.090976692561
 20
521.404843435469
 30
0.0
 11
2403.090976692561
 21
543.3441536646751
 31
0.0
  0
LINE
  5
3CA
330
15
100
AcDbEntity
  8
4
100
AcDbLine
 10
2406.090976692561
 20
521.404843435469
 30
0.0
 11
2406.090976692561
 21
543.3441536646751
 31
0.0
  0
ARC
  5
3CB
330
15
100
AcDbEntity
  8
4
100
AcDbCircle
 10
2410.215597817282
 20
524.1472572141201
 30
0.0
 40
3.875378875279244
100
AcDbArc
 50
314.9559267627523
 51
40.17158659654934
  0
LINE
  5
3CC
330
15
100
AcDbEntity
  8
4
100
AcDbLine
 10
2412.953795781935
 20
521.404843435469
 30
0.0
 11
2403.090976692561
 21
521.404843435469
 31
0.0
  0
LINE
  5
3CD
330
15
100
AcDbEntity
  8
4
100
AcDbLine
 10
2414.090976692561
 20
529.1471070038133
 30
0.0
 11
2414.090976692561
 21
524.1472572141201
 31
0.0
  0
ARC
  5
3CE
330
15
100
AcDbEntity
  8
4
100
AcDbCircle
 10
2410.215597817282
 20
545.6015896757181
 30
0.0
 40
3.875378875279264
100
AcDbArc
 50
314.9559267627452
 51
45.04407323725481
  0
LINE
  5
3CF
330
15
100
AcDbEntity
  8
4
100
AcDbLine
 10
2403.090976692561
 20
548.3440034543682
 30
0.0
 11
2412.953795781935
 21
548.3440034543682
 31
0.0
  0
LINE
  5
3D0
330
15
100
AcDbEntity
  8
4
100
AcDbLine
 10
2412.953795781935
 20
542.859175897067
 30
0.0
 11
2406.090976692561
 21
542.859175897067
 31
0.0
  0
ARC
  5
3D1
330
15
100
AcDbEntity
  8
4
100
AcDbCircle
 10
2410.215597817282
 20
529.1471070038133
 30
0.0
 40
3.875378875279244
100
AcDbArc
 50
314.9559267627452
 51
45.04407323725481
  0
LINE
  5
3D2
330
15
100
AcDbEntity
  8
4
100
AcDbLine
 10
2412.953795781935
 20
526.4046932251622
 30
0.0
 11
2403.090976692561
 21
526.4046932251622
 31
0.0
  0
LINE
  5
3D3
330
15
100
AcDbEntity
  8
4
100
AcDbLine
 10
2412.953795781935
 20
531.8895207824644
 30
0.0
 11
2406.090976692561
 21
531.8895207824644
 31
0.0
  0
LINE
  5
3D4
330
15
100
AcDbEntity
  8
4
100
AcDbLine
 10
2403.090976692561
 20
526.4046932251622
 30
0.0
 11
2403.090976692561
 21
548.3440034543682
 31
0.0
  0
LINE
  5
3D5
330
15
100
AcDbEntity
  8
4
100
AcDbLine
 10
2414.090976692561
 20
545.6015896757181
 30
0.0
 11
2414.090976692561
 21
529.1471070038133
 31
0.0
  0
ARC
  5
3D6
330
15
100
AcDbEntity
  8
4
100
AcDbCircle
 10
2400.295232557383
 20
537.3743483397657
 30
0.0
 40
13.7957441351769
100
AcDbArc
 50
336.5734024913725
 51
23.42659750862749
  0
LINE
  5
3D7
330
15
100
AcDbEntity
  8
4
100
AcDbLine
 10
2406.090976692561
 20
526.4046932251622
 30
0.0
 11
2406.090976692561
 21
548.3440034543682
 31
0.0
  0
LINE
  5
3D8
330
15
100
AcDbEntity
  8
4
100
AcDbLine
 10
2412.953795781935
 20
587.8590259466805
 30
0.0
 11
2406.090976692561
 21
587.8590259466805
 31
0.0
  0
ARC
  5
3D9
330
15
100
AcDbEntity
  8
4
100
AcDbCircle
 10
2410.215597817282
 20
574.1469570534268
 30
0.0
 40
3.875378875279244
100
AcDbArc
 50
314.9559267627452
 51
45.04407323725481
  0
LINE
  5
3DA
330
15
100
AcDbEntity
  8
4
100
AcDbLine
 10
2412.953795781935
 20
571.4045432747757
 30
0.0
 11
2403.090976692561
 21
571.4045432747757
 31
0.0
  0
LINE
  5
3DB
330
15
100
AcDbEntity
  8
4
100
AcDbLine
 10
2412.953795781935
 20
576.8893708320779
 30
0.0
 11
2406.090976692561
 21
576.8893708320779
 31
0.0
  0
LINE
  5
3DC
330
15
100
AcDbEntity
  8
4
100
AcDbLine
 10
2414.090976692561
 20
590.6014397253316
 30
0.0
 11
2414.090976692561
 21
574.1469570534268
 31
0.0
  0
ARC
  5
3DD
330
15
100
AcDbEntity
  8
4
100
AcDbCircle
 10
2400.295232557384
 20
582.3741983893792
 30
0.0
 40
13.7957441351769
100
AcDbArc
 50
336.5734024913725
 51
23.42659750862749
  0
LINE
  5
3DE
330
15
100
AcDbEntity
  8
L-CENTER
 48
2.0
100
AcDbLine
 10
2417.691816572665
 20
592.3741953893796
 30
0.0
 11
2364.608282365524
 21
592.3741953893796
 31
0.0
  0
LINE
  5
3DF
330
15
100
AcDbEntity
  8
4
100
AcDbLine
 10
2403.090976692561
 20
593.3438535039818
 30
0.0
 11
2412.953795781935
 21
593.3438535039818
 31
0.0
  0
ARC
  5
3E0
330
15
100
AcDbEntity
  8
4
100
AcDbCircle
 10
2400.295232557384
 20
592.3741953893796
 30
0.0
 40
13.7957441351769
100
AcDbArc
 50
355.1784521586471
 51
23.42659750862749
  0
LINE
  5
3E1
330
15
100
AcDbEntity
  8
4
100
AcDbLine
 10
2403.090976692561
 20
581.4045402747761
 30
0.0
 11
2403.090976692561
 21
603.3438505039821
 31
0.0
  0
LINE
  5
3E2
330
15
100
AcDbEntity
  8
4
100
AcDbLine
 10
2414.090976692561
 20
600.601436725332
 30
0.0
 11
2414.090976692561
 21
584.1469540534272
 31
0.0
  0
LINE
  5
3E3
330
15
100
AcDbEntity
  8
4
100
AcDbLine
 10
2406.090976692561
 20
581.4045402747761
 30
0.0
 11
2406.090976692561
 21
603.3438505039821
 31
0.0
  0
ARC
  5
3E4
330
15
100
AcDbEntity
  8
4
100
AcDbCircle
 10
2410.215597817282
 20
600.601436725332
 30
0.0
 40
3.875378875279264
100
AcDbArc
 50
314.9559267627452
 51
45.04407323725481
  0
LINE
  5
3E5
330
15
100
AcDbEntity
  8
4
100
AcDbLine
 10
2403.090976692561
 20
603.3438505039821
 30
0.0
 11
2412.953795781935
 21
603.3438505039821
 31
0.0
  0
LINE
  5
3E6
330
15
100
AcDbEntity
  8
4
100
AcDbLine
 10
2412.953795781935
 20
597.8590229466809
 30
0.0
 11
2406.090976692561
 21
597.8590229466809
 31
0.0
  0
ARC
  5
3E7
330
15
100
AcDbEntity
  8
4
100
AcDbCircle
 10
2410.215597817282
 20
455.601288295808
 30
0.0
 40
3.875378875279264
100
AcDbArc
 50
314.9559267627452
 51
45.04407323725481
  0
LINE
  5
3E8
330
15
100
AcDbEntity
  8
4
100
AcDbLine
 10
2403.090976692561
 20
458.3437020744582
 30
0.0
 11
2412.953795781935
 21
458.3437020744582
 31
0.0
  0
LINE
  5
3E9
330
15
100
AcDbEntity
  8
4
100
AcDbLine
 10
2403.090976692561
 20
436.4043918452521
 30
0.0
 11
2403.090976692561
 21
458.3437020744582
 31
0.0
  0
LINE
  5
3EA
330
15
100
AcDbEntity
  8
4
100
AcDbLine
 10
2406.090976692561
 20
436.4043918452521
 30
0.0
 11
2406.090976692561
 21
458.3437020744582
 31
0.0
  0
LINE
  5
3EB
330
15
100
AcDbEntity
  8
4
100
AcDbLine
 10
862.0228696373911
 20
1873.885851717808
 30
0.0
 11
862.0228696373911
 21
1867.023032628435
 31
0.0
  0
LINE
  5
3EC
330
15
100
AcDbEntity
  8
4
100
AcDbLine
 10
867.5076971946914
 20
1864.023032628435
 30
0.0
 11
867.5076971946914
 21
1873.885851717808
 31
0.0
  0
LINE
  5
3ED
330
15
100
AcDbEntity
  8
4
100
AcDbLine
 10
851.0532145227885
 20
1873.885851717808
 30
0.0
 11
851.0532145227885
 21
1867.023032628435
 31
0.0
  0
LINE
  5
3EE
330
15
100
AcDbEntity
  8
4
100
AcDbLine
 10
845.5683869654863
 20
1873.885851717808
 30
0.0
 11
845.5683869654863
 21
1864.023032628435
 31
0.0
  0
LINE
  5
3EF
330
15
100
AcDbEntity
  8
4
100
AcDbLine
 10
845.5683869654863
 20
1864.023032628435
 30
0.0
 11
867.5076971946914
 21
1864.023032628435
 31
0.0
  0
LINE
  5
3F0
330
15
100
AcDbEntity
  8
4
100
AcDbLine
 10
845.5683869654863
 20
1867.023032628435
 30
0.0
 11
867.5076971946914
 21
1867.023032628435
 31
0.0
  0
ARC
  5
3F1
330
15
100
AcDbEntity
  8
4
100
AcDbCircle
 10
856.5380420800889
 20
1861.227288493258
 30
0.0
 40
13.7957441351769
100
AcDbArc
 50
66.57340249136786
 51
113.4265975086279
  0
LINE
  5
3F2
330
15
100
AcDbEntity
  8
4
100
AcDbLine
 10
864.7652834160422
 20
1875.023032628435
 30
0.0
 11
848.3108007441374
 21
1875.023032628435
 31
0.0
  0
ARC
  5
3F3
330
15
100
AcDbEntity
  8
4
100
AcDbCircle
 10
848.3108007441374
 20
1871.147653753155
 30
0.0
 40
3.875378875279244
100
AcDbArc
 50
44.95592676276183
 51
135.044073237256
  0
ARC
  5
3F4
330
15
100
AcDbEntity
  8
4
100
AcDbCircle
 10
864.7652834160422
 20
1871.147653753155
 30
0.0
 40
3.875378875279264
100
AcDbArc
 50
44.95592676276183
 51
135.0440732372572
  0
LINE
  5
3F5
330
15
100
AcDbEntity
  8
4
100
AcDbLine
 10
1115.568386965486
 20
1867.023032628435
 30
0.0
 11
1137.507697194691
 21
1867.023032628435
 31
0.0
  0
ARC
  5
3F6
330
15
100
AcDbEntity
  8
4
100
AcDbCircle
 10
1126.538042080089
 20
1861.227288493258
 30
0.0
 40
13.7957441351769
100
AcDbArc
 50
66.5734024913683
 51
113.4265975086275
  0
LINE
  5
3F7
330
15
100
AcDbEntity
  8
4
100
AcDbLine
 10
1134.765283416042
 20
1875.023032628435
 30
0.0
 11
1118.310800744137
 21
1875.023032628435
 31
0.0
  0
LINE
  5
3F8
330
15
100
AcDbEntity
  8
4
100
AcDbLine
 10
1115.568386965486
 20
1864.023032628435
 30
0.0
 11
1137.507697194691
 21
1864.023032628435
 31
0.0
  0
LINE
  5
3F9
330
15
100
AcDbEntity
  8
4
100
AcDbLine
 10
1121.053214522788
 20
1873.885851717809
 30
0.0
 11
1121.053214522788
 21
1867.023032628435
 31
0.0
  0
LINE
  5
3FA
330
15
100
AcDbEntity
  8
4
100
AcDbLine
 10
1115.568386965486
 20
1873.885851717809
 30
0.0
 11
1115.568386965486
 21
1864.023032628435
 31
0.0
  0
ARC
  5
3FB
330
15
100
AcDbEntity
  8
4
100
AcDbCircle
 10
1118.310800744137
 20
1871.147653753156
 30
0.0
 40
3.875378875279244
100
AcDbArc
 50
44.95592676276183
 51
135.0440732372572
  0
LINE
  5
3FC
330
15
100
AcDbEntity
  8
4
100
AcDbLine
 10
1132.022869637391
 20
1873.885851717809
 30
0.0
 11
1132.022869637391
 21
1867.023032628435
 31
0.0
  0
LINE
  5
3FD
330
15
100
AcDbEntity
  8
4
100
AcDbLine
 10
1137.507697194691
 20
1864.023032628435
 30
0.0
 11
1137.507697194691
 21
1873.885851717809
 31
0.0
  0
ARC
  5
3FE
330
15
100
AcDbEntity
  8
4
100
AcDbCircle
 10
1134.765283416042
 20
1871.147653753156
 30
0.0
 40
3.875378875279264
100
AcDbArc
 50
44.95592676276183
 51
135.0440732372572
  0
LINE
  5
3FF
330
15
100
AcDbEntity
  8
4
100
AcDbLine
 10
867.5076971946914
 20
1489.923032628433
 30
0.0
 11
867.5076971946914
 21
1480.060213539061
 31
0.0
  0
LINE
  5
400
330
15
100
AcDbEntity
  8
4
100
AcDbLine
 10
862.0228696373911
 20
1480.060213539061
 30
0.0
 11
862.0228696373911
 21
1486.923032628433
 31
0.0
  0
LINE
  5
401
330
15
100
AcDbEntity
  8
4
100
AcDbLine
 10
845.5683869654863
 20
1480.060213539061
 30
0.0
 11
845.5683869654863
 21
1489.923032628433
 31
0.0
  0
LINE
  5
402
330
15
100
AcDbEntity
  8
4
100
AcDbLine
 10
851.0532145227885
 20
1480.060213539061
 30
0.0
 11
851.0532145227885
 21
1486.923032628433
 31
0.0
  0
ARC
  5
403
330
15
100
AcDbEntity
  8
4
100
AcDbCircle
 10
856.5380420800889
 20
1492.718776763611
 30
0.0
 40
13.7957441351769
100
AcDbArc
 50
246.5734024913716
 51
293.4265975086321
  0
LINE
  5
404
330
15
100
AcDbEntity
  8
4
100
AcDbLine
 10
864.7652834160422
 20
1478.923032628433
 30
0.0
 11
848.3108007441374
 21
1478.923032628433
 31
0.0
  0
ARC
  5
405
330
15
100
AcDbEntity
  8
4
100
AcDbCircle
 10
848.3108007441374
 20
1482.798411503713
 30
0.0
 40
3.875378875279244
100
AcDbArc
 50
224.9559267627428
 51
315.0440732372381
  0
ARC
  5
406
330
15
100
AcDbEntity
  8
4
100
AcDbCircle
 10
864.7652834160422
 20
1482.798411503713
 30
0.0
 40
3.875378875279264
100
AcDbArc
 50
224.9559267627428
 51
315.0440732372381
  0
LINE
  5
407
330
15
100
AcDbEntity
  8
4
100
AcDbLine
 10
845.5683869654863
 20
1489.923032628433
 30
0.0
 11
867.5076971946914
 21
1489.923032628433
 31
0.0
  0
LINE
  5
408
330
15
100
AcDbEntity
  8
4
100
AcDbLine
 10
845.5683869654863
 20
1486.923032628433
 30
0.0
 11
867.5076971946914
 21
1486.923032628433
 31
0.0
  0
LINE
  5
409
330
15
100
AcDbEntity
  8
4
100
AcDbLine
 10
1115.568386965486
 20
1480.06021353906
 30
0.0
 11
1115.568386965486
 21
1489.923032628433
 31
0.0
  0
LINE
  5
40A
330
15
100
AcDbEntity
  8
4
100
AcDbLine
 10
1137.507697194691
 20
1489.923032628433
 30
0.0
 11
1137.507697194691
 21
1480.06021353906
 31
0.0
  0
LINE
  5
40B
330
15
100
AcDbEntity
  8
4
100
AcDbLine
 10
1121.053214522788
 20
1480.06021353906
 30
0.0
 11
1121.053214522788
 21
1486.923032628433
 31
0.0
  0
LINE
  5
40C
330
15
100
AcDbEntity
  8
4
100
AcDbLine
 10
1132.022869637391
 20
1480.06021353906
 30
0.0
 11
1132.022869637391
 21
1486.923032628433
 31
0.0
  0
ARC
  5
40D
330
15
100
AcDbEntity
  8
4
100
AcDbCircle
 10
1126.538042080089
 20
1492.718776763611
 30
0.0
 40
13.7957441351769
100
AcDbArc
 50
246.5734024913725
 51
293.4265975086317
  0
LINE
  5
40E
330
15
100
AcDbEntity
  8
4
100
AcDbLine
 10
1134.765283416042
 20
1478.923032628433
 30
0.0
 11
1118.310800744137
 21
1478.923032628433
 31
0.0
  0
ARC
  5
40F
330
15
100
AcDbEntity
  8
4
100
AcDbCircle
 10
1118.310800744137
 20
1482.798411503712
 30
0.0
 40
3.875378875279244
100
AcDbArc
 50
224.9559267627428
 51
315.0440732372381
  0
ARC
  5
410
330
15
100
AcDbEntity
  8
4
100
AcDbCircle
 10
1134.765283416042
 20
1482.798411503712
 30
0.0
 40
3.875378875279264
100
AcDbArc
 50
224.9559267627428
 51
315.0440732372381
  0
LINE
  5
411
330
15
100
AcDbEntity
  8
4
100
AcDbLine
 10
1115.568386965486
 20
1489.923032628433
 30
0.0
 11
1137.507697194691
 21
1489.923032628433
 31
0.0
  0
LINE
  5
412
330
15
100
AcDbEntity
  8
4
100
AcDbLine
 10
1115.568386965486
 20
1486.923032628433
 30
0.0
 11
1137.507697194691
 21
1486.923032628433
 31
0.0
  0
LINE
  5
413
330
15
100
AcDbEntity
  8
4
100
AcDbLine
 10
1423.538042080089
 20
1589.823032628437
 30
0.0
 11
1539.538042080089
 21
1589.823032628437
 31
0.0
  0
LINE
  5
414
330
15
100
AcDbEntity
  8
4
100
AcDbLine
 10
1439.038042080089
 20
1611.323032628437
 30
0.0
 11
1541.538042080089
 21
1611.323032628437
 31
0.0
  0
LINE
  5
415
330
15
100
AcDbEntity
  8
4
100
AcDbLine
 10
1439.038042080089
 20
1626.323032628437
 30
0.0
 11
1541.538042080089
 21
1626.323032628437
 31
0.0
  0
LINE
  5
416
330
15
100
AcDbEntity
  8
4
100
AcDbLine
 10
1423.538042080089
 20
1647.823032628437
 30
0.0
 11
1539.538042080089
 21
1647.823032628437
 31
0.0
  0
ARC
  5
417
330
15
100
AcDbEntity
  8
4
100
AcDbCircle
 10
1423.538042080089
 20
1649.823032628437
 30
0.0
 40
2.0
100
AcDbArc
 50
180.0
 51
270.0
  0
ARC
  5
418
330
15
100
AcDbEntity
  8
4
100
AcDbCircle
 10
1423.538042080089
 20
1587.823032628437
 30
0.0
 40
2.0
100
AcDbArc
 50
90.0
 51
180.0
  0
ARC
  5
419
330
15
100
AcDbEntity
  8
4
100
AcDbCircle
 10
1439.038042080089
 20
1618.823032628437
 30
0.0
 40
7.5
100
AcDbArc
 50
90.0
 51
270.0
  0
LINE
  5
41A
330
15
100
AcDbEntity
  8
4
100
AcDbLine
 10
1421.538042080089
 20
1651.323032628437
 30
0.0
 11
1421.538042080089
 21
1586.323032628437
 31
0.0
  0
LINE
  5
41B
330
15
100
AcDbEntity
  8
4
100
AcDbLine
 10
1539.538042080089
 20
1647.823032628437
 30
0.0
 11
1541.538042080089
 21
1645.823032628437
 31
0.0
  0
LINE
  5
41C
330
15
100
AcDbEntity
  8
4
100
AcDbLine
 10
1539.538042080089
 20
1647.823032628437
 30
0.0
 11
1539.538042080089
 21
1626.323032628437
 31
0.0
  0
LINE
  5
41D
330
15
100
AcDbEntity
  8
4
100
AcDbLine
 10
1539.538042080089
 20
1589.823032628437
 30
0.0
 11
1541.538042080089
 21
1591.823032628437
 31
0.0
  0
LINE
  5
41E
330
15
100
AcDbEntity
  8
4
100
AcDbLine
 10
1539.538042080089
 20
1611.323032628437
 30
0.0
 11
1539.538042080089
 21
1589.823032628437
 31
0.0
  0
LINE
  5
41F
330
15
100
AcDbEntity
  8
4
100
AcDbLine
 10
1541.538042080089
 20
1645.823032628437
 30
0.0
 11
1541.538042080089
 21
1591.823032628437
 31
0.0
  0
LINE
  5
420
330
15
100
AcDbEntity
  8
4
100
AcDbLine
 10
1407.428046080088
 20
1651.323032628437
 30
0.0
 11
1421.538042080089
 21
1651.323032628437
 31
0.0
  0
LINE
  5
421
330
15
100
AcDbEntity
  8
4
100
AcDbLine
 10
1407.428046080088
 20
1586.323032628437
 30
0.0
 11
1421.538042080089
 21
1586.323032628437
 31
0.0
  0
LINE
  5
422
330
15
100
AcDbEntity
  8
4
100
AcDbLine
 10
804.0380420800889
 20
2056.823032628435
 30
0.0
 11
842.5380420800889
 21
2056.823032628435
 31
0.0
  0
LINE
  5
423
330
15
100
AcDbEntity
  8
4
100
AcDbLine
 10
806.0380420800889
 20
2058.823032628435
 30
0.0
 11
907.0380420800889
 21
2058.823032628435
 31
0.0
  0
LINE
  5
424
330
15
100
AcDbEntity
  8
4
100
AcDbLine
 10
801.5380420800889
 20
1878.823032628435
 30
0.0
 11
911.5380420800889
 21
1878.823032628435
 31
0.0
  0
ARC
  5
425
330
15
100
AcDbEntity
  8
4
100
AcDbCircle
 10
911.5380420800898
 20
1881.323032628435
 30
0.0
 40
2.5
100
AcDbArc
 50
180.0
 51
270.0
  0
LINE
  5
426
330
15
100
AcDbEntity
  8
4
100
AcDbLine
 10
842.5380420800889
 20
2058.823032628435
 30
0.0
 11
842.5380420800889
 21
1902.823032628435
 31
0.0
  0
LINE
  5
427
330
15
100
AcDbEntity
  8
4
100
AcDbLine
 10
909.0380420800889
 20
2056.823032628435
 30
0.0
 11
909.0380420800889
 21
1881.323032628435
 31
0.0
  0
LINE
  5
428
330
15
100
AcDbEntity
  8
4
100
AcDbLine
 10
870.5380420800889
 20
2058.823032628435
 30
0.0
 11
870.5380420800889
 21
1902.823032628435
 31
0.0
  0
LINE
  5
429
330
15
100
AcDbEntity
  8
4
100
AcDbLine
 10
856.5380420800889
 20
1888.823032628435
 30
0.0
 11
856.5380420800889
 21
1888.823032628435
 31
0.0
  0
ARC
  5
42A
330
15
100
AcDbEntity
  8
4
100
AcDbCircle
 10
856.5380420800898
 20
1902.823032628435
 30
0.0
 40
14.0
100
AcDbArc
 50
180.0
 51
270.0
  0
ARC
  5
42B
330
15
100
AcDbEntity
  8
4
100
AcDbCircle
 10
856.5380420800898
 20
1902.823032628435
 30
0.0
 40
14.0
100
AcDbArc
 50
270.0
 51
0.0
  0
LINE
  5
42C
330
15
100
AcDbEntity
  8
4
100
AcDbLine
 10
907.0380420800889
 20
2058.823032628435
 30
0.0
 11
909.0380420800889
 21
2056.823032628435
 31
0.0
  0
LINE
  5
42D
330
15
100
AcDbEntity
  8
4
100
AcDbLine
 10
870.5380420800889
 20
2056.823032628435
 30
0.0
 11
909.0380420800889
 21
2056.823032628435
 31
0.0
  0
ARC
  5
42E
330
15
100
AcDbEntity
  8
4
100
AcDbCircle
 10
801.5380420800898
 20
1881.323032628435
 30
0.0
 40
2.5
100
AcDbArc
 50
270.0
 51
0.0
  0
LINE
  5
42F
330
15
100
AcDbEntity
  8
4
100
AcDbLine
 10
804.0380420800889
 20
2056.823032628435
 30
0.0
 11
804.0380420800889
 21
1881.323032628435
 31
0.0
  0
LINE
  5
430
330
15
100
AcDbEntity
  8
4
100
AcDbLine
 10
804.0380420800889
 20
2056.823032628435
 30
0.0
 11
806.0380420800889
 21
2058.823032628435
 31
0.0
  0
LINE
  5
431
330
15
100
AcDbEntity
  8
4
100
AcDbLine
 10
801.5380420800889
 20
1878.823032628435
 30
0.0
 11
801.5380420800889
 21
1865.023032628435
 31
0.0
  0
LINE
  5
432
330
15
100
AcDbEntity
  8
4
100
AcDbLine
 10
911.5380420800889
 20
1878.823032628435
 30
0.0
 11
911.5380420800898
 21
1865.023032628435
 31
0.0
  0
LINE
  5
433
330
15
100
AcDbEntity
  8
4
100
AcDbLine
 10
786.5380420800898
 20
1864.023032628435
 30
0.0
 11
786.5380420800898
 21
1865.023032628435
 31
0.0
  0
LINE
  5
434
330
15
100
AcDbEntity
  8
4
100
AcDbLine
 10
926.5380420800898
 20
1864.023032628435
 30
0.0
 11
926.5380420800898
 21
1865.023032628435
 31
0.0
  0
LINE
  5
435
330
15
100
AcDbEntity
  8
4
100
AcDbLine
 10
786.5380420800898
 20
1865.023032628435
 30
0.0
 11
845.5683869654863
 21
1865.023032628435
 31
0.0
  0
LINE
  5
436
330
15
100
AcDbEntity
  8
4
100
AcDbLine
 10
867.5076971946914
 20
1865.023032628435
 30
0.0
 11
926.5380420800889
 21
1865.023032628435
 31
0.0
  0
CIRCLE
  5
437
330
15
100
AcDbEntity
  8
4
100
AcDbCircle
 10
727.1280420800895
 20
1676.823032628435
 30
0.0
 40
23.0
  0
LWPOLYLINE
  5
438
330
15
100
AcDbEntity
  8
4
100
AcDbPolyline
 90
        6
 70
     1
 43
0.0
 10
750.128042080089
 20
1676.823032628435
 10
738.628042080089
 20
1696.741616915476
 10
715.6280420800895
 20
1696.741616915476
 10
704.1280420800895
 20
1676.823032628435
 10
715.6280420800895
 20
1656.904448341392
 10
738.628042080089
 20
1656.904448341392
  0
LINE
  5
439
330
15
100
AcDbEntity
  8
4
100
AcDbLine
 10
967.128042080089
 20
1641.823032628435
 30
0.0
 11
967.128042080089
 21
1711.823032628435
 31
0.0
  0
LINE
  5
43A
330
15
100
AcDbEntity
  8
4
100
AcDbLine
 10
987.128042080089
 20
1641.823032628435
 30
0.0
 11
987.128042080089
 21
1711.823032628435
 31
0.0
  0
ARC
  5
43B
330
15
100
AcDbEntity
  8
4
100
AcDbCircle
 10
977.1280420800899
 20
1676.823032628435
 30
0.0
 40
20.0
100
AcDbArc
 50
119.9999999999999
 51
240.0000000000001
  0
ARC
  5
43C
330
15
100
AcDbEntity
  8
4
100
AcDbCircle
 10
977.1280420800899
 20
1676.823032628435
 30
0.0
 40
22.5
100
AcDbArc
 50
116.3877999612435
 51
243.6122000387572
  0
ARC
  5
43D
330
15
100
AcDbEntity
  8
4
100
AcDbCircle
 10
977.1280420800899
 20
1676.823032628435
 30
0.0
 40
22.5
100
AcDbArc
 50
296.3877999612422
 51
63.61220003875622
  0
ARC
  5
43E
330
15
100
AcDbEntity
  8
4
100
AcDbCircle
 10
977.1280420800899
 20
1676.823032628435
 30
0.0
 40
20.0
100
AcDbArc
 50
299.9999999999998
 51
60.00000000000011
  0
ARC
  5
43F
330
15
100
AcDbEntity
  8
4
100
AcDbCircle
 10
977.1280420800899
 20
1641.823032628435
 30
0.0
 40
10.0
100
AcDbArc
 50
180.0
 51
0.0
  0
ARC
  5
440
330
15
100
AcDbEntity
  8
4
100
AcDbCircle
 10
977.1280420800899
 20
1711.823032628435
 30
0.0
 40
10.0
100
AcDbArc
 50
0.0
 51
180.0
  0
LINE
  5
441
330
15
100
AcDbEntity
  8
4
100
AcDbLine
 10
954.6280400800883
 20
764.8741953893787
 30
0.0
 11
967.6280400800883
 21
764.8741953893787
 31
0.0
  0
LINE
  5
442
330
15
100
AcDbEntity
  8
4
100
AcDbLine
 10
962.6280400800883
 20
756.8741953893787
 30
0.0
 11
967.6280400800883
 21
756.8741953893787
 31
0.0
  0
LINE
  5
443
330
15
100
AcDbEntity
  8
4
100
AcDbLine
 10
962.6280400800883
 20
724.8741953893791
 30
0.0
 11
967.6280400800883
 21
724.8741953893791
 31
0.0
  0
LINE
  5
444
330
15
100
AcDbEntity
  8
4
100
AcDbLine
 10
954.6280400800883
 20
716.8741953893791
 30
0.0
 11
967.6280400800883
 21
716.8741953893791
 31
0.0
  0
LINE
  5
445
330
15
100
AcDbEntity
  8
4
100
AcDbLine
 10
924.6280400800883
 20
710.8741953893791
 30
0.0
 11
1029.628040080088
 21
710.8741953893791
 31
0.0
  0
LINE
  5
446
330
15
100
AcDbEntity
  8
4
100
AcDbLine
 10
924.6280400800883
 20
770.8741953893791
 30
0.0
 11
1029.628040080088
 21
770.8741953893791
 31
0.0
  0
ARC
  5
447
330
15
100
AcDbEntity
  8
4
100
AcDbCircle
 10
924.6280400800883
 20
765.8741953893791
 30
0.0
 40
5.0
100
AcDbArc
 50
90.0
 51
180.0
  0
LINE
  5
448
330
15
100
AcDbEntity
  8
4
100
AcDbLine
 10
924.6280400800883
 20
764.8741953893787
 30
0.0
 11
932.6280400800883
 21
764.8741953893787
 31
0.0
  0
LINE
  5
449
330
15
100
AcDbEntity
  8
4
100
AcDbLine
 10
949.6280400800883
 20
716.8741953893791
 30
0.0
 11
949.6280400800883
 21
724.8741953893791
 31
0.0
  0
LINE
  5
44A
330
15
100
AcDbEntity
  8
4
100
AcDbLine
 10
932.6280400800883
 20
724.8741953893791
 30
0.0
 11
949.6280400800883
 21
724.8741953893791
 31
0.0
  0
LINE
  5
44B
330
15
100
AcDbEntity
  8
4
100
AcDbLine
 10
924.6280400800883
 20
716.8741953893791
 30
0.0
 11
949.6280400800883
 21
716.8741953893791
 31
0.0
  0
ARC
  5
44C
330
15
100
AcDbEntity
  8
4
100
AcDbCircle
 10
924.6280400800883
 20
715.8741953893791
 30
0.0
 40
5.0
100
AcDbArc
 50
180.0
 51
270.0
  0
LINE
  5
44D
330
15
100
AcDbEntity
  8
4
100
AcDbLine
 10
962.6280400800883
 20
724.8741953893791
 30
0.0
 11
962.6280400800883
 21
756.8741953893787
 31
0.0
  0
LINE
  5
44E
330
15
100
AcDbEntity
  8
4
100
AcDbLine
 10
919.6280400800883
 20
715.8741953893791
 30
0.0
 11
919.6280400800883
 21
765.8741953893791
 31
0.0
  0
LINE
  5
44F
330
15
100
AcDbEntity
  8
4
100
AcDbLine
 10
924.6280400800883
 20
716.8741953893791
 30
0.0
 11
924.6280400800883
 21
764.8741953893787
 31
0.0
  0
LINE
  5
450
330
15
100
AcDbEntity
  8
4
100
AcDbLine
 10
932.6280400800883
 20
724.8741953893791
 30
0.0
 11
932.6280400800883
 21
764.8741953893787
 31
0.0
  0
LINE
  5
451
330
15
100
AcDbEntity
  8
4
100
AcDbLine
 10
954.6280400800883
 20
716.8741953893791
 30
0.0
 11
954.6280400800883
 21
764.8741953893787
 31
0.0
  0
ARC
  5
452
330
15
100
AcDbEntity
  8
4
100
AcDbCircle
 10
1029.628040080088
 20
765.8741953893791
 30
0.0
 40
5.0
100
AcDbArc
 50
0.0
 51
90.0
  0
LINE
  5
453
330
15
100
AcDbEntity
  8
4
100
AcDbLine
 10
1014.628040080088
 20
764.8741953893791
 30
0.0
 11
1019.628040080088
 21
764.8741953893791
 31
0.0
  0
LINE
  5
454
330
15
100
AcDbEntity
  8
4
100
AcDbLine
 10
1029.628040080088
 20
726.8741953893791
 30
0.0
 11
1029.628040080088
 21
754.8741953893791
 31
0.0
  0
LINE
  5
455
330
15
100
AcDbEntity
  8
4
100
AcDbLine
 10
1014.628040080088
 20
736.8741953893791
 30
0.0
 11
1017.128040080088
 21
736.8741953893791
 31
0.0
  0
LINE
  5
456
330
15
100
AcDbEntity
  8
4
100
AcDbLine
 10
1014.628040080088
 20
716.8741953893791
 30
0.0
 11
1019.628040080088
 21
716.8741953893791
 31
0.0
  0
LINE
  5
457
330
15
100
AcDbEntity
  8
4
100
AcDbLine
 10
1012.628040080088
 20
726.8741953893791
 30
0.0
 11
1012.628040080088
 21
728.8741953893791
 31
0.0
  0
LINE
  5
458
330
15
100
AcDbEntity
  8
4
100
AcDbLine
 10
1021.628040080088
 20
726.8741953893791
 30
0.0
 11
1021.628040080088
 21
737.7122915996888
 31
0.0
  0
ARC
  5
459
330
15
100
AcDbEntity
  8
4
100
AcDbCircle
 10
1014.628040080088
 20
726.8741953893791
 30
0.0
 40
2.0
100
AcDbArc
 50
180.0
 51
270.0
  0
ARC
  5
45A
330
15
100
AcDbEntity
  8
4
100
AcDbCircle
 10
1019.628040080088
 20
726.8741953893791
 30
0.0
 40
2.0
100
AcDbArc
 50
270.0
 51
0.0
  0
LINE
  5
45B
330
15
100
AcDbEntity
  8
4
100
AcDbLine
 10
1014.628040080088
 20
724.8741953893791
 30
0.0
 11
1019.628040080088
 21
724.8741953893791
 31
0.0
  0
LINE
  5
45C
330
15
100
AcDbEntity
  8
4
100
AcDbLine
 10
1012.628040080088
 20
749.3741953893791
 30
0.0
 11
1012.628040080088
 21
752.3741953893791
 31
0.0
  0
LINE
  5
45D
330
15
100
AcDbEntity
  8
4
100
AcDbLine
 10
1021.628040080088
 20
749.3741953893791
 30
0.0
 11
1021.628040080088
 21
752.3741953893791
 31
0.0
  0
ARC
  5
45E
330
15
100
AcDbEntity
  8
4
100
AcDbCircle
 10
1017.128040080088
 20
749.3741953893791
 30
0.0
 40
4.5
100
AcDbArc
 50
180.0
 51
0.0
  0
ARC
  5
45F
330
15
100
AcDbEntity
  8
4
100
AcDbCircle
 10
1017.128040080088
 20
749.3741953893791
 30
0.0
 40
12.5
100
AcDbArc
 50
270.0
 51
291.1001960240931
  0
LINE
  5
460
330
15
100
AcDbEntity
  8
4
100
AcDbLine
 10
999.6280400800883
 20
738.3741953893787
 30
0.0
 11
999.6280400800883
 21
743.3741953893787
 31
0.0
  0
LINE
  5
461
330
15
100
AcDbEntity
  8
4
100
AcDbLine
 10
984.6280400800883
 20
738.3741953893787
 30
0.0
 11
984.6280400800883
 21
743.3741953893787
 31
0.0
  0
LINE
  5
462
330
15
100
AcDbEntity
  8
4
100
AcDbLine
 10
984.6280400800883
 20
743.3741953893787
 30
0.0
 11
999.6280400800883
 21
743.3741953893787
 31
0.0
  0
LINE
  5
463
330
15
100
AcDbEntity
  8
4
100
AcDbLine
 10
984.6280400800883
 20
738.3741953893787
 30
0.0
 11
999.6280400800883
 21
738.3741953893787
 31
0.0
  0
LINE
  5
464
330
15
100
AcDbEntity
  8
4
100
AcDbLine
 10
1004.628040080088
 20
726.8741953893791
 30
0.0
 11
1004.628040080088
 21
728.8741953893791
 31
0.0
  0
LINE
  5
465
330
15
100
AcDbEntity
  8
4
100
AcDbLine
 10
1004.628040080088
 20
746.8741953893791
 30
0.0
 11
1004.628040080088
 21
754.8741953893791
 31
0.0
  0
LINE
  5
466
330
15
100
AcDbEntity
  8
4
100
AcDbLine
 10
1004.628040080088
 20
728.8741953893791
 30
0.0
 11
1012.628040080088
 21
728.8741953893791
 31
0.0
  0
ARC
  5
467
330
15
100
AcDbEntity
  8
4
100
AcDbCircle
 10
1014.628040080088
 20
746.8741953893791
 30
0.0
 40
10.0
100
AcDbArc
 50
180.0
 51
270.0
  0
ARC
  5
468
330
15
100
AcDbEntity
  8
4
100
AcDbCircle
 10
1029.628040080088
 20
715.8741953893791
 30
0.0
 40
5.0
100
AcDbArc
 50
270.0
 51
0.0
  0
ARC
  5
469
330
15
100
AcDbEntity
  8
4
100
AcDbCircle
 10
1014.628040080088
 20
726.8741953893791
 30
0.0
 40
10.0
100
AcDbArc
 50
180.0
 51
270.0
  0
ARC
  5
46A
330
15
100
AcDbEntity
  8
4
100
AcDbCircle
 10
1019.628040080088
 20
726.8741953893791
 30
0.0
 40
10.0
100
AcDbArc
 50
270.0
 51
0.0
  0
LINE
  5
46B
330
15
100
AcDbEntity
  8
4
100
AcDbLine
 10
1034.628040080088
 20
715.8741953893791
 30
0.0
 11
1034.628040080088
 21
765.8741953893791
 31
0.0
  0
ARC
  5
46C
330
15
100
AcDbEntity
  8
4
100
AcDbCircle
 10
1017.128040080088
 20
752.3741953893791
 30
0.0
 40
4.5
100
AcDbArc
 50
0.0
 51
180.0
  0
ARC
  5
46D
330
15
100
AcDbEntity
  8
4
100
AcDbCircle
 10
1014.628040080088
 20
754.8741953893791
 30
0.0
 40
10.0
100
AcDbArc
 50
90.0
 51
180.0
  0
ARC
  5
46E
330
15
100
AcDbEntity
  8
4
100
AcDbCircle
 10
1019.628040080088
 20
754.8741953893791
 30
0.0
 40
10.0
100
AcDbArc
 50
0.0
 51
90.0
  0
LINE
  5
46F
330
15
100
AcDbEntity
  8
4
100
AcDbLine
 10
979.6280400800883
 20
728.8741953893791
 30
0.0
 11
979.6280400800883
 21
752.8741953893787
 31
0.0
  0
LINE
  5
470
330
15
100
AcDbEntity
  8
4
100
AcDbLine
 10
971.6280400800883
 20
728.8741953893791
 30
0.0
 11
971.6280400800883
 21
752.8741953893787
 31
0.0
  0
ARC
  5
471
330
15
100
AcDbEntity
  8
4
100
AcDbCircle
 10
967.6280400800883
 20
728.8741953893791
 30
0.0
 40
4.0
100
AcDbArc
 50
270.0
 51
0.0
  0
ARC
  5
472
330
15
100
AcDbEntity
  8
4
100
AcDbCircle
 10
967.6280400800883
 20
752.8741953893787
 30
0.0
 40
4.0
100
AcDbArc
 50
0.0
 51
90.0
  0
ARC
  5
473
330
15
100
AcDbEntity
  8
4
100
AcDbCircle
 10
967.6280400800883
 20
728.8741953893791
 30
0.0
 40
12.0
100
AcDbArc
 50
270.0
 51
0.0
  0
ARC
  5
474
330
15
100
AcDbEntity
  8
4
100
AcDbCircle
 10
967.6280400800883
 20
752.8741953893787
 30
0.0
 40
12.0
100
AcDbArc
 50
0.0
 51
90.0
  0
ARC
  5
5D3
330
15
100
AcDbEntity
  8
4
100
AcDbCircle
 10
717.5380420800893
 20
1490.923032628435
 30
0.0
 40
1.0
100
AcDbArc
 50
180.0
 51
270.0
  0
ARC
  5
5D4
330
15
100
AcDbEntity
  8
4
100
AcDbCircle
 10
995.5380420800889
 20
1490.923032628435
 30
0.0
 40
1.0
100
AcDbArc
 50
270.0
 51
0.0
  0
ARC
  5
5D5
330
15
100
AcDbEntity
  8
4
100
AcDbCircle
 10
1017.538042080089
 20
1490.923032628434
 30
0.0
 40
1.0
100
AcDbArc
 50
180.0
 51
270.0
  0
ARC
  5
5D6
330
15
100
AcDbEntity
  8
4
100
AcDbCircle
 10
1235.538042080089
 20
1490.923032628434
 30
0.0
 40
1.0
100
AcDbArc
 50
270.0
 51
0.0
  0
ARC
  5
5D7
330
15
100
AcDbEntity
  8
4
100
AcDbCircle
 10
2030.290972692561
 20
601.3741923893795
 30
0.0
 40
1.0
100
AcDbArc
 50
90.0
 51
180.0
  0
ARC
  5
5D8
330
15
100
AcDbEntity
  8
4
100
AcDbCircle
 10
2030.290972692561
 20
611.3741963893794
 30
0.0
 40
1.0
100
AcDbArc
 50
90.0
 51
180.0
  0
ARC
  5
5D9
330
15
100
AcDbEntity
  8
4
100
AcDbCircle
 10
2030.290972692561
 20
383.3741953893796
 30
0.0
 40
1.0
100
AcDbArc
 50
180.0
 51
270.0
  0
ARC
  5
5DA
330
15
100
AcDbEntity
  8
4
100
AcDbCircle
 10
2030.290972692561
 20
333.3741963893794
 30
0.0
 40
1.0
100
AcDbArc
 50
180.0
 51
270.0
  0
ARC
  5
5DB
330
15
100
AcDbEntity
  8
4
100
AcDbCircle
 10
2402.090976692562
 20
601.3741923893795
 30
0.0
 40
1.0
100
AcDbArc
 50
0.0
 51
90.0
  0
ARC
  5
5DC
330
15
100
AcDbEntity
  8
4
100
AcDbCircle
 10
2402.090976692562
 20
611.3741963893794
 30
0.0
 40
1.0
100
AcDbArc
 50
0.0
 51
90.0
  0
ARC
  5
5DD
330
15
100
AcDbEntity
  8
4
100
AcDbCircle
 10
2402.090976692562
 20
383.3741953893796
 30
0.0
 40
1.0
100
AcDbArc
 50
270.0
 51
0.0
  0
ARC
  5
5DE
330
15
100
AcDbEntity
  8
4
100
AcDbCircle
 10
2402.090976692562
 20
333.3741963893794
 30
0.0
 40
1.0
100
AcDbArc
 50
270.0
 51
0.0
  0
ARC
  5
5DF
330
15
100
AcDbEntity
  8
4
100
AcDbCircle
 10
1365.128042080089
 20
1834.123032628435
 30
0.0
 40
2.0
100
AcDbArc
 50
0.0
 51
90.0
  0
ARC
  5
5E0
330
15
100
AcDbEntity
  8
4
100
AcDbCircle
 10
589.128042080089
 20
1834.123032628435
 30
0.0
 40
2.0
100
AcDbArc
 50
90.0
 51
180.0
  0
ARC
  5
5E1
330
15
100
AcDbEntity
  8
4
100
AcDbCircle
 10
1235.538042080089
 20
1863.023032628435
 30
0.0
 40
1.0
100
AcDbArc
 50
0.0
 51
90.0
  0
ARC
  5
5E2
330
15
100
AcDbEntity
  8
4
100
AcDbCircle
 10
1017.538042080089
 20
1863.023032628435
 30
0.0
 40
1.0
100
AcDbArc
 50
90.0
 51
180.0
  0
ARC
  5
5E3
330
15
100
AcDbEntity
  8
4
100
AcDbCircle
 10
995.5380420800889
 20
1863.023032628435
 30
0.0
 40
1.0
100
AcDbArc
 50
0.0
 51
90.0
  0
ARC
  5
5E4
330
15
100
AcDbEntity
  8
4
100
AcDbCircle
 10
717.5380420800893
 20
1863.023032628435
 30
0.0
 40
1.0
100
AcDbArc
 50
90.0
 51
180.0
  0
ARC
  5
5E5
330
15
100
AcDbEntity
  8
4
100
AcDbCircle
 10
1853.19098069256
 20
242.3741953893796
 30
0.0
 40
400.000069
100
AcDbArc
 50
348.0924590000001
 51
11.90700599999996
  0
ARC
  5
5E6
330
15
100
AcDbEntity
  8
4
100
AcDbCircle
 10
2239.691465692561
 20
160.8734683893795
 30
0.0
 40
4.999939
100
AcDbArc
 50
281.908538999995
 51
348.0914609999994
  0
ARC
  5
5E7
330
15
100
AcDbEntity
  8
4
100
AcDbCircle
 10
2239.691465692561
 20
323.8749293893798
 30
0.0
 40
4.999939
100
AcDbArc
 50
11.9085389999945
 51
78.09146100000497
  0
LINE
  5
5E8
330
15
100
AcDbEntity
  8
4
100
AcDbLine
 10
1388.128035080089
 20
152.3741953893796
 30
0.0
 11
1383.128035080089
 21
147.3741953893796
 31
0.0
  0
LINE
  5
5E9
330
15
100
AcDbEntity
  8
4
100
AcDbLine
 10
1388.128035080089
 20
332.3741953893796
 30
0.0
 11
1383.128035080089
 21
337.3741953893796
 31
0.0
  0
LINE
  5
5EA
330
15
100
AcDbEntity
  8
4
100
AcDbLine
 10
566.1280490800887
 20
152.3741953893796
 30
0.0
 11
571.1280490800887
 21
147.3741953893796
 31
0.0
  0
LINE
  5
5EB
330
15
100
AcDbEntity
  8
4
100
AcDbLine
 10
566.1280490800887
 20
332.3741953893796
 30
0.0
 11
571.1280490800887
 21
337.3741953893796
 31
0.0
  0
LINE
  5
610
330
15
100
AcDbEntity
  8
L-CENTER
 48
2.0
100
AcDbLine
 10
1424.774524515909
 20
180.5023520355567
 30
0.0
 11
1365.486372367599
 21
180.5023520355567
 31
0.0
  0
LINE
  5
611
330
15
100
AcDbEntity
  8
L-CENTER
 48
2.0
100
AcDbLine
 10
529.4815596442688
 20
304.2460387432025
 30
0.0
 11
588.7697117925791
 21
304.2460387432025
 31
0.0
  0
LINE
  5
612
330
15
100
AcDbEntity
  8
L-CENTER
 48
2.0
100
AcDbLine
 10
529.4815596442688
 20
180.5023520355567
 30
0.0
 11
588.7697117925791
 21
180.5023520355567
 31
0.0
  0
LINE
  5
613
330
15
100
AcDbEntity
  8
L-CENTER
 48
2.0
100
AcDbLine
 10
1424.774524515909
 20
1680.694875982257
 30
0.0
 11
1365.486372367599
 21
1680.694875982257
 31
0.0
  0
LINE
  5
614
330
15
100
AcDbEntity
  8
L-CENTER
 48
2.0
100
AcDbLine
 10
1424.774524515909
 20
1556.951189274611
 30
0.0
 11
1365.486372367599
 21
1556.951189274611
 31
0.0
  0
LINE
  5
615
330
15
100
AcDbEntity
  8
L-CENTER
 48
2.0
100
AcDbLine
 10
529.4815596442688
 20
1680.694875982257
 30
0.0
 11
588.7697117925791
 21
1680.694875982257
 31
0.0
  0
LINE
  5
616
330
15
100
AcDbEntity
  8
L-CENTER
 48
2.0
100
AcDbLine
 10
529.4815596442688
 20
1556.951189274611
 30
0.0
 11
588.7697117925791
 21
1556.951189274611
 31
0.0
  0
ENDSEC
  0
SECTION
  2
OBJECTS
  0
DICTIONARY
  5
5
330
0
100
AcDbDictionary
281
     1
  3
ACAD_COLOR
350
28
  3
ACAD_GROUP
350
26
  3
ACAD_LAYOUT
350
1C
  3
ACAD_MATERIAL
350
7
  3
ACAD_MLEADERSTYLE
350
6C0
  3
ACAD_MLINESTYLE
350
13
  3
ACAD_PLOTSETTINGS
350
27
  3
ACAD_PLOTSTYLENAME
350
4
  3
ACAD_SCALELIST
350
2D
  3
ACAD_VISUALSTYLE
350
29
  3
ACDBHEADERROUNDTRIPXREC
350
727
  3
AcDbVariableDictionary
350
6BD
  3
DWGPROPS
350
72A
  0
DICTIONARY
  5
72B
330
25
100
AcDbDictionary
280
     1
281
     1
  3
ACAD_XREC_ROUNDTRIP
360
72C
  0
DICTIONARY
  5
16
330
15
100
AcDbDictionary
280
     1
281
     1
  3
ACAD_SORTENTS
360
17
  0
DICTIONARY
  5
28
102
{ACAD_REACTORS
330
5
102
}
330
5
100
AcDbDictionary
281
     1
  0
DICTIONARY
  5
26
102
{ACAD_REACTORS
330
5
102
}
330
5
100
AcDbDictionary
281
     1
  0
DICTIONARY
  5
1C
102
{ACAD_REACTORS
330
5
102
}
330
5
100
AcDbDictionary
281
     1
  3
Model
350
1B
  3
ﾚｲｱｳﾄ1
350
22
  0
DICTIONARY
  5
7
102
{ACAD_REACTORS
330
5
102
}
330
5
100
AcDbDictionary
281
     1
  3
ByBlock
350
70
  3
ByLayer
350
E
  3
Global
350
6
  0
DICTIONARY
  5
6C0
102
{ACAD_REACTORS
330
5
102
}
330
5
100
AcDbDictionary
281
     1
  3
Standard
350
6DB
  0
DICTIONARY
  5
13
102
{ACAD_REACTORS
330
5
102
}
330
5
100
AcDbDictionary
281
     1
  3
STANDARD
350
12
  0
DICTIONARY
  5
27
102
{ACAD_REACTORS
330
5
102
}
330
5
100
AcDbDictionary
281
     1
  0
ACDBDICTIONARYWDFLT
  5
4
102
{ACAD_REACTORS
330
5
102
}
330
5
100
AcDbDictionary
281
     1
  3
Normal
350
3
100
AcDbDictionaryWithDefault
340
3
  0
DICTIONARY
  5
2D
102
{ACAD_REACTORS
330
5
102
}
330
5
100
AcDbDictionary
281
     1
  3
*A1
350
4F
  3
*A10
350
58
  3
*A11
350
59
  3
*A12
350
5A
  3
*A13
350
5B
  3
*A14
350
5C
  3
*A15
350
5D
  3
*A16
350
5E
  3
*A17
350
5F
  3
*A18
350
60
  3
*A19
350
61
  3
*A2
350
50
  3
*A20
350
62
  3
*A21
350
63
  3
*A22
350
64
  3
*A23
350
65
  3
*A24
350
66
  3
*A25
350
67
  3
*A26
350
68
  3
*A27
350
69
  3
*A28
350
6A
  3
*A29
350
6B
  3
*A3
350
51
  3
*A30
350
6C
  3
*A31
350
6D
  3
*A32
350
6E
  3
*A33
350
6F
  3
*A4
350
52
  3
*A5
350
53
  3
*A6
350
54
  3
*A7
350
55
  3
*A8
350
56
  3
*A9
350
57
  0
DICTIONARY
  5
29
102
{ACAD_REACTORS
330
5
102
}
330
5
100
AcDbDictionary
281
     1
  3
2dWireframe
350
6C7
  3
Basic
350
6CA
  3
Brighten
350
6CE
  3
ColorChange
350
6D2
  3
Conceptual
350
6CC
  3
Dim
350
6CD
  3
EdgeColorOff
350
6D5
  3
Facepattern
350
6D1
  3
Flat
350
6C3
  3
FlatWithEdges
350
6C4
  3
Gouraud
350
6C5
  3
GouraudWithEdges
350
6C6
  3
Hidden
350
6C9
  3
JitterOff
350
6D3
  3
Linepattern
350
6D0
  3
OverhangOff
350
6D4
  3
Realistic
350
6CB
  3
Shaded
350
6DA
  3
Shaded with edges
350
6D9
  3
Shades of Gray
350
6D6
  3
Sketchy
350
6D7
  3
Thicken
350
6CF
  3
Wireframe
350
6C8
  3
X-Ray
350
6D8
  0
DICTIONARY
  5
727
102
{ACAD_REACTORS
330
5
102
}
330
5
100
AcDbDictionary
281
     1
  3
COLORDICT
350
728
  3
MATERIALDICT
350
729
  0
DICTIONARY
  5
6BD
102
{ACAD_REACTORS
330
5
102
}
330
5
100
AcDbDictionary
281
     1
  3
CANNOSCALE
350
6BE
  3
CMLEADERSTYLE
350
6E4
  3
DIMASSOC
350
6E6
  3
HIDETEXT
350
6E7
  3
MSLTSCALE
350
6EE
  0
XRECORD
  5
72A
102
{ACAD_REACTORS
330
5
102
}
330
5
100
AcDbXrecord
280
     1
  1
DWGPROPS COOKIE
  2

  3

  4

  6

  7

  8
sg-d03
  9

300
=
301
=
302
=
303
=
304
=
305
=
306
=
307
=
308
=
309
=
 40
0.0
 41
2449812.756805555
 42
2458114.356347257
  1

 90
        0
  0
XRECORD
  5
72C
102
{ACAD_REACTORS
330
72B
102
}
330
72B
100
AcDbXrecord
280
     1
102
VTR_0.000_0.000_1.000_1.000_GRIDDISPLAY
 70
     3
102
VTR_0.000_0.000_1.000_1.000_GRIDMAJOR
 70
     5
102
VTR_0.000_0.000_1.000_1.000_DEFAULTLIGHTING
280
     1
102
VTR_0.000_0.000_1.000_1.000_DEFAULTLIGHTINGTYPE
 70
     1
102
VTR_0.000_0.000_1.000_1.000_BRIGHTNESS
141
0.0
102
VTR_0.000_0.000_1.000_1.000_CONTRAST
142
0.0
  0
SORTENTSTABLE
  5
17
102
{ACAD_REACTORS
330
16
102
}
330
16
100
AcDbSortentsTable
330
15
  0
LAYOUT
  5
1B
102
{ACAD_REACTORS
330
1C
102
}
330
1C
100
AcDbPlotSettings
  1

  2
Bullzip PDF Printer.pc3
  4
A3
  6

 40
0.2
 41
0.0
 42
0.0
 43
0.0
 44
420.2
 45
297.1
 46
25.0
 47
12.0
 48
139.9999997783334
 49
0.0
140
3195.999993887111
141
2179.999995704281
142
1.0
143
8.0
 70
 11936
 72
     1
 73
     0
 74
     4
  7
monochrome.ctb
 75
     0
147
1.0
148
-139.9999997783334
149
0.0
100
AcDbLayout
  1
Model
 70
     0
 71
     0
 10
0.0
 20
0.0
 11
12.0
 21
9.0
 12
0.0
 22
0.0
 32
0.0
 14
529.4815596442688
 24
42.37419538937957
 34
0.0
 15
2894.862087784649
 25
2069.001987628434
 35
0.0
146
0.0
 13
0.0
 23
0.0
 33
0.0
 16
1.0
 26
0.0
 36
0.0
 17
0.0
 27
1.0
 37
0.0
 76
     0
330
15
331
2B
1001
ACAD_PSEXT
1000
Bullzip PDF Printer.pc3
1000
Bullzip PDF Printer
1000
BULLZIP
1000
Bullzip PDF Printer 10.1.0.1871
1070
     0
  0
LAYOUT
  5
22
102
{ACAD_REACTORS
330
1C
102
}
330
1C
100
AcDbPlotSettings
  1

  2
SR-LP8300F
  4

  6

 40
0.0
 41
0.0
 42
0.0
 43
0.0
 44
0.0
 45
0.0
 46
0.0
 47
0.0
 48
0.0
 49
0.0
140
0.0
141
0.0
142
1.0
143
1.0
 70
   688
 72
     0
 73
     0
 74
     5
  7
monochrome.ctb
 75
    16
147
1.0
148
0.0
149
0.0
100
AcDbLayout
  1
ﾚｲｱｳﾄ1
 70
     0
 71
     1
 10
0.0
 20
0.0
 11
12.0
 21
9.0
 12
0.0
 22
0.0
 32
0.0
 14
1000000000000000E+20
 24
1000000000000000E+20
 34
1000000000000000E+20
 15
-1000000000000000E+20
 25
-1000000000000000E+20
 35
-1000000000000000E+20
146
0.0
 13
0.0
 23
0.0
 33
0.0
 16
1.0
 26
0.0
 36
0.0
 17
0.0
 27
1.0
 37
0.0
 76
     0
330
1F
  0
MATERIAL
  5
70
102
{ACAD_REACTORS
330
7
102
}
102
{ACAD_XDICTIONARY
360
731
102
}
330
7
100
AcDbMaterial
  1
ByBlock
  0
MATERIAL
  5
E
102
{ACAD_REACTORS
330
7
102
}
102
{ACAD_XDICTIONARY
360
72D
102
}
330
7
100
AcDbMaterial
  1
ByLayer
  0
MATERIAL
  5
6
102
{ACAD_REACTORS
330
7
102
}
102
{ACAD_XDICTIONARY
360
72F
102
}
330
7
100
AcDbMaterial
  1
Global
  0
MLEADERSTYLE
  5
6DB
102
{ACAD_REACTORS
330
6C0
102
}
102
{ACAD_XDICTIONARY
360
763
102
}
330
6C0
100
AcDbMLeaderStyle
170
     2
171
     1
172
     0
 90
        2
 40
0.0
 41
0.0
173
     1
 91
-1056964608
340
B
 92
       -2
290
     1
 42
0.09
291
     1
 43
0.36
  3
Standard
341
0
 44
0.18
300

342
C
174
     1
178
     6
175
     1
176
     0
 93
-1056964608
 45
0.18
292
     0
297
     0
 46
0.18
343
0
 94
-1056964608
 47
1.0
 49
1.0
140
1.0
293
     1
141
0.0
294
     1
177
     0
142
1.0
295
     0
296
     0
143
0.125
1001
ACAD_MLEADERVER
1070
     2
  0
MLINESTYLE
  5
12
102
{ACAD_REACTORS
330
13
102
}
330
13
100
AcDbMlineStyle
  2
STANDARD
 70
     0
  3

 62
     0
 51
90.0
 52
90.0
 71
     2
 49
0.5
 62
   256
  6
BYLAYER
 49
-0.5
 62
   256
  6
BYLAYER
  0
ACDBPLACEHOLDER
  5
3
102
{ACAD_REACTORS
330
4
102
}
330
4
  0
SCALE
  5
4F
102
{ACAD_REACTORS
330
2D
102
}
330
2D
100
AcDbScale
 70
     0
300
1:1
140
1.0
141
1.0
290
     1
  0
SCALE
  5
58
102
{ACAD_REACTORS
330
2D
102
}
330
2D
100
AcDbScale
 70
     0
300
1:40
140
1.0
141
40.0
290
     0
  0
SCALE
  5
59
102
{ACAD_REACTORS
330
2D
102
}
330
2D
100
AcDbScale
 70
     0
300
1:50
140
1.0
141
50.0
290
     0
  0
SCALE
  5
5A
102
{ACAD_REACTORS
330
2D
102
}
330
2D
100
AcDbScale
 70
     0
300
1:100
140
1.0
141
100.0
290
     0
  0
SCALE
  5
5B
102
{ACAD_REACTORS
330
2D
102
}
330
2D
100
AcDbScale
 70
     0
300
2:1
140
2.0
141
1.0
290
     0
  0
SCALE
  5
5C
102
{ACAD_REACTORS
330
2D
102
}
330
2D
100
AcDbScale
 70
     0
300
4:1
140
4.0
141
1.0
290
     0
  0
SCALE
  5
5D
102
{ACAD_REACTORS
330
2D
102
}
330
2D
100
AcDbScale
 70
     0
300
8:1
140
8.0
141
1.0
290
     0
  0
SCALE
  5
5E
102
{ACAD_REACTORS
330
2D
102
}
330
2D
100
AcDbScale
 70
     0
300
10:1
140
10.0
141
1.0
290
     0
  0
SCALE
  5
5F
102
{ACAD_REACTORS
330
2D
102
}
330
2D
100
AcDbScale
 70
     0
300
100:1
140
100.0
141
1.0
290
     0
  0
SCALE
  5
60
102
{ACAD_REACTORS
330
2D
102
}
330
2D
100
AcDbScale
 70
     0
300
1/128" = 1'-0"
140
0.0078125
141
12.0
290
     0
  0
SCALE
  5
61
102
{ACAD_REACTORS
330
2D
102
}
330
2D
100
AcDbScale
 70
     0
300
1/64" = 1'-0"
140
0.015625
141
12.0
290
     0
  0
SCALE
  5
50
102
{ACAD_REACTORS
330
2D
102
}
330
2D
100
AcDbScale
 70
     0
300
1:2
140
1.0
141
2.0
290
     0
  0
SCALE
  5
62
102
{ACAD_REACTORS
330
2D
102
}
330
2D
100
AcDbScale
 70
     0
300
1/32" = 1'-0"
140
0.03125
141
12.0
290
     0
  0
SCALE
  5
63
102
{ACAD_REACTORS
330
2D
102
}
330
2D
100
AcDbScale
 70
     0
300
1/16" = 1'-0"
140
0.0625
141
12.0
290
     0
  0
SCALE
  5
64
102
{ACAD_REACTORS
330
2D
102
}
330
2D
100
AcDbScale
 70
     0
300
3/32" = 1'-0"
140
0.09375
141
12.0
290
     0
  0
SCALE
  5
65
102
{ACAD_REACTORS
330
2D
102
}
330
2D
100
AcDbScale
 70
     0
300
1/8" = 1'-0"
140
0.125
141
12.0
290
     0
  0
SCALE
  5
66
102
{ACAD_REACTORS
330
2D
102
}
330
2D
100
AcDbScale
 70
     0
300
3/16" = 1'-0"
140
0.1875
141
12.0
290
     0
  0
SCALE
  5
67
102
{ACAD_REACTORS
330
2D
102
}
330
2D
100
AcDbScale
 70
     0
300
1/4" = 1'-0"
140
0.25
141
12.0
290
     0
  0
SCALE
  5
68
102
{ACAD_REACTORS
330
2D
102
}
330
2D
100
AcDbScale
 70
     0
300
3/8" = 1'-0"
140
0.375
141
12.0
290
     0
  0
SCALE
  5
69
102
{ACAD_REACTORS
330
2D
102
}
330
2D
100
AcDbScale
 70
     0
300
1/2" = 1'-0"
140
0.5
141
12.0
290
     0
  0
SCALE
  5
6A
102
{ACAD_REACTORS
330
2D
102
}
330
2D
100
AcDbScale
 70
     0
300
3/4" = 1'-0"
140
0.75
141
12.0
290
     0
  0
SCALE
  5
6B
102
{ACAD_REACTORS
330
2D
102
}
330
2D
100
AcDbScale
 70
     0
300
1" = 1'-0"
140
1.0
141
12.0
290
     0
  0
SCALE
  5
51
102
{ACAD_REACTORS
330
2D
102
}
330
2D
100
AcDbScale
 70
     0
300
1:4
140
1.0
141
4.0
290
     0
  0
SCALE
  5
6C
102
{ACAD_REACTORS
330
2D
102
}
330
2D
100
AcDbScale
 70
     0
300
1-1/2" = 1'-0"
140
1.5
141
12.0
290
     0
  0
SCALE
  5
6D
102
{ACAD_REACTORS
330
2D
102
}
330
2D
100
AcDbScale
 70
     0
300
3" = 1'-0"
140
3.0
141
12.0
290
     0
  0
SCALE
  5
6E
102
{ACAD_REACTORS
330
2D
102
}
330
2D
100
AcDbScale
 70
     0
300
6" = 1'-0"
140
6.0
141
12.0
290
     0
  0
SCALE
  5
6F
102
{ACAD_REACTORS
330
2D
102
}
330
2D
100
AcDbScale
 70
     0
300
1'-0" = 1'-0"
140
12.0
141
12.0
290
     0
  0
SCALE
  5
52
102
{ACAD_REACTORS
330
2D
102
}
330
2D
100
AcDbScale
 70
     0
300
1:5
140
1.0
141
5.0
290
     0
  0
SCALE
  5
53
102
{ACAD_REACTORS
330
2D
102
}
330
2D
100
AcDbScale
 70
     0
300
1:8
140
1.0
141
8.0
290
     0
  0
SCALE
  5
54
102
{ACAD_REACTORS
330
2D
102
}
330
2D
100
AcDbScale
 70
     0
300
1:10
140
1.0
141
10.0
290
     0
  0
SCALE
  5
55
102
{ACAD_REACTORS
330
2D
102
}
330
2D
100
AcDbScale
 70
     0
300
1:16
140
1.0
141
16.0
290
     0
  0
SCALE
  5
56
102
{ACAD_REACTORS
330
2D
102
}
330
2D
100
AcDbScale
 70
     0
300
1:20
140
1.0
141
20.0
290
     0
  0
SCALE
  5
57
102
{ACAD_REACTORS
330
2D
102
}
330
2D
100
AcDbScale
 70
     0
300
1:30
140
1.0
141
30.0
290
     0
  0
VISUALSTYLE
  5
6C7
102
{ACAD_REACTORS
330
29
102
}
102
{ACAD_XDICTIONARY
360
73B
102
}
330
29
100
AcDbVisualStyle
  2
2dWireframe
 70
     4
 71
     0
 72
     2
 73
     0
 90
        0
 40
0.6
 41
30.0
 62
     5
 63
     7
 74
     1
 91
        4
 64
     7
 65
   257
 75
     1
175
     1
 42
1.0
 92
        0
 66
   257
 43
1.0
 76
     1
 77
     6
 78
     2
 67
     7
 79
     5
170
     0
171
     0
290
     0
174
     0
 93
        1
 44
0.0
173
     0
291
     0
 45
0.0
1001
ACAD
1000
AcDbSavedByObjectVersion
1070
     0
  0
VISUALSTYLE
  5
6CA
102
{ACAD_REACTORS
330
29
102
}
102
{ACAD_XDICTIONARY
360
741
102
}
330
29
100
AcDbVisualStyle
  2
Basic
 70
     7
 71
     1
 72
     0
 73
     1
 90
        0
 40
0.6
 41
30.0
 62
     5
 63
     7
 74
     0
 91
        4
 64
     7
 65
   257
 75
     1
175
     1
 42
1.0
 92
        8
 66
     7
 43
1.0
 76
     1
 77
     6
 78
     2
 67
     7
 79
     5
170
     0
171
     0
290
     0
174
     0
 93
        1
 44
0.0
173
     0
291
     1
 45
0.0
1001
ACAD
1000
AcDbSavedByObjectVersion
1070
     0
  0
VISUALSTYLE
  5
6CE
102
{ACAD_REACTORS
330
29
102
}
102
{ACAD_XDICTIONARY
360
749
102
}
330
29
100
AcDbVisualStyle
  2
Brighten
 70
    12
 71
     2
 72
     2
 73
     0
 90
        0
 40
0.6
 41
30.0
 62
     5
 63
     7
 74
     1
 91
        4
 64
     7
 65
   257
 75
     1
175
     1
 42
1.0
 92
        8
 66
     7
 43
1.0
 76
     1
 77
     6
 78
     2
 67
     7
 79
     5
170
     0
171
     0
290
     0
174
     0
 93
        1
 44
50.0
173
     0
291
     1
 45
0.0
1001
ACAD
1000
AcDbSavedByObjectVersion
1070
     0
  0
VISUALSTYLE
  5
6D2
102
{ACAD_REACTORS
330
29
102
}
102
{ACAD_XDICTIONARY
360
751
102
}
330
29
100
AcDbVisualStyle
  2
ColorChange
 70
    16
 71
     2
 72
     2
 73
     3
 90
        0
 40
0.6
 41
30.0
 62
     5
 63
     8
 74
     1
 91
        4
 64
     7
 65
   257
 75
     1
175
     1
 42
1.0
 92
        8
 66
     8
 43
1.0
 76
     1
 77
     6
 78
     2
 67
     7
 79
     5
170
     0
171
     0
290
     0
174
     0
 93
        1
 44
0.0
173
     0
291
     1
 45
0.0
1001
ACAD
1000
AcDbSavedByObjectVersion
1070
     0
  0
VISUALSTYLE
  5
6CC
102
{ACAD_REACTORS
330
29
102
}
102
{ACAD_XDICTIONARY
360
745
102
}
330
29
100
AcDbVisualStyle
  2
Conceptual
 70
     9
 71
     3
 72
     2
 73
     0
 90
        0
 40
0.6
 41
30.0
 62
     5
 63
     7
 74
     2
 91
        2
 64
     7
 65
   257
 75
     1
175
     1
 42
40.0
 92
        8
 66
     7
 43
1.0
 76
     1
 77
     6
 78
     2
 67
     7
 79
     3
170
     0
171
     0
290
     0
174
     0
 93
        1
 44
0.0
173
     0
291
     0
 45
0.0
1001
ACAD
1000
AcDbSavedByObjectVersion
1070
     0
  0
VISUALSTYLE
  5
6CD
102
{ACAD_REACTORS
330
29
102
}
102
{ACAD_XDICTIONARY
360
747
102
}
330
29
100
AcDbVisualStyle
  2
Dim
 70
    11
 71
     2
 72
     2
 73
     0
 90
        0
 40
0.6
 41
30.0
 62
     5
 63
     7
 74
     1
 91
        4
 64
     7
 65
   257
 75
     1
175
     1
 42
1.0
 92
        8
 66
     7
 43
1.0
 76
     1
 77
     6
 78
     2
 67
     7
 79
     5
170
     0
171
     0
290
     0
174
     0
 93
        1
 44
-50.0
173
     0
291
     1
 45
0.0
1001
ACAD
1000
AcDbSavedByObjectVersion
1070
     0
  0
VISUALSTYLE
  5
6D5
102
{ACAD_REACTORS
330
29
102
}
102
{ACAD_XDICTIONARY
360
757
102
}
330
29
100
AcDbVisualStyle
  2
EdgeColorOff
 70
    22
 71
     2
 72
     2
 73
     0
 90
        0
 40
0.6
 41
30.0
 62
     5
 63
     7
 74
     1
 91
        4
 64
     7
 65
   257
 75
     1
175
     1
 42
1.0
 92
        8
 66
     7
 43
1.0
 76
     1
 77
     6
 78
     2
 67
     7
 79
     5
170
     0
171
     0
290
     0
174
     0
 93
        1
 44
0.0
173
     0
291
     1
 45
0.0
1001
ACAD
1000
AcDbSavedByObjectVersion
1070
     0
  0
VISUALSTYLE
  5
6D1
102
{ACAD_REACTORS
330
29
102
}
102
{ACAD_XDICTIONARY
360
74F
102
}
330
29
100
AcDbVisualStyle
  2
Facepattern
 70
    15
 71
     2
 72
     2
 73
     0
 90
        0
 40
0.6
 41
30.0
 62
     5
 63
     7
 74
     1
 91
        4
 64
     7
 65
   257
 75
     1
175
     1
 42
1.0
 92
        8
 66
     7
 43
1.0
 76
     1
 77
     6
 78
     2
 67
     7
 79
     5
170
     0
171
     0
290
     0
174
     0
 93
        1
 44
0.0
173
     0
291
     1
 45
0.0
1001
ACAD
1000
AcDbSavedByObjectVersion
1070
     0
  0
VISUALSTYLE
  5
6C3
102
{ACAD_REACTORS
330
29
102
}
102
{ACAD_XDICTIONARY
360
733
102
}
330
29
100
AcDbVisualStyle
  2
Flat
 70
     0
 71
     2
 72
     1
 73
     1
 90
        2
 40
0.6
 41
30.0
 62
     5
 63
     7
 74
     0
 91
        4
 64
     7
 65
   257
 75
     1
175
     1
 42
1.0
 92
        8
 66
     7
 43
1.0
 76
     1
 77
     6
 78
     2
 67
     7
 79
     5
170
     0
171
     0
290
     0
174
     0
 93
       13
 44
0.0
173
     0
291
     1
 45
0.0
1001
ACAD
1000
AcDbSavedByObjectVersion
1070
     0
  0
VISUALSTYLE
  5
6C4
102
{ACAD_REACTORS
330
29
102
}
102
{ACAD_XDICTIONARY
360
735
102
}
330
29
100
AcDbVisualStyle
  2
FlatWithEdges
 70
     1
 71
     2
 72
     1
 73
     1
 90
        2
 40
0.6
 41
30.0
 62
     5
 63
     7
 74
     1
 91
        4
 64
     7
 65
   257
 75
     1
175
     1
 42
1.0
 92
        0
 66
   257
 43
1.0
 76
     1
 77
     6
 78
     2
 67
     7
 79
     5
170
     0
171
     0
290
     0
174
     0
 93
       13
 44
0.0
173
     0
291
     1
 45
0.0
1001
ACAD
1000
AcDbSavedByObjectVersion
1070
     0
  0
VISUALSTYLE
  5
6C5
102
{ACAD_REACTORS
330
29
102
}
102
{ACAD_XDICTIONARY
360
737
102
}
330
29
100
AcDbVisualStyle
  2
Gouraud
 70
     2
 71
     2
 72
     2
 73
     1
 90
        2
 40
0.6
 41
30.0
 62
     5
 63
     7
 74
     0
 91
        4
 64
     7
 65
   257
 75
     1
175
     1
 42
1.0
 92
        0
 66
     7
 43
1.0
 76
     1
 77
     6
 78
     2
 67
     7
 79
     5
170
     0
171
     0
290
     0
174
     0
 93
       13
 44
0.0
173
     0
291
     1
 45
0.0
1001
ACAD
1000
AcDbSavedByObjectVersion
1070
     0
  0
VISUALSTYLE
  5
6C6
102
{ACAD_REACTORS
330
29
102
}
102
{ACAD_XDICTIONARY
360
739
102
}
330
29
100
AcDbVisualStyle
  2
GouraudWithEdges
 70
     3
 71
     2
 72
     2
 73
     1
 90
        2
 40
0.6
 41
30.0
 62
     5
 63
     7
 74
     1
 91
        4
 64
     7
 65
   257
 75
     1
175
     1
 42
1.0
 92
        0
 66
   257
 43
1.0
 76
     1
 77
     6
 78
     2
 67
     7
 79
     5
170
     0
171
     0
290
     0
174
     0
 93
       13
 44
0.0
173
     0
291
     1
 45
0.0
1001
ACAD
1000
AcDbSavedByObjectVersion
1070
     0
  0
VISUALSTYLE
  5
6C9
102
{ACAD_REACTORS
330
29
102
}
102
{ACAD_XDICTIONARY
360
73F
102
}
330
29
100
AcDbVisualStyle
  2
Hidden
 70
     6
 71
     1
 72
     2
 73
     2
 90
        0
 40
0.6
 41
30.0
 62
     5
 63
     7
 74
     2
 91
        2
 64
     7
 65
   257
 75
     2
175
     1
 42
40.0
 92
        0
 66
   257
 43
1.0
 76
     1
 77
     6
 78
     2
 67
     7
 79
     3
170
     0
171
     0
290
     0
174
     0
 93
        1
 44
0.0
173
     0
291
     0
 45
0.0
1001
ACAD
1000
AcDbSavedByObjectVersion
1070
     0
  0
VISUALSTYLE
  5
6D3
102
{ACAD_REACTORS
330
29
102
}
102
{ACAD_XDICTIONARY
360
753
102
}
330
29
100
AcDbVisualStyle
  2
JitterOff
 70
    20
 71
     2
 72
     2
 73
     0
 90
        0
 40
0.6
 41
30.0
 62
     5
 63
     7
 74
     1
 91
        4
 64
     7
 65
   257
 75
     1
175
     1
 42
1.0
 92
       10
 66
     7
 43
1.0
 76
     1
 77
     6
 78
     2
 67
     7
 79
     5
170
     0
171
     0
290
     0
174
     0
 93
        1
 44
0.0
173
     0
291
     1
 45
0.0
1001
ACAD
1000
AcDbSavedByObjectVersion
1070
     0
  0
VISUALSTYLE
  5
6D0
102
{ACAD_REACTORS
330
29
102
}
102
{ACAD_XDICTIONARY
360
74D
102
}
330
29
100
AcDbVisualStyle
  2
Linepattern
 70
    14
 71
     2
 72
     2
 73
     0
 90
        0
 40
0.6
 41
30.0
 62
     5
 63
     7
 74
     1
 91
        4
 64
     7
 65
   257
 75
     7
175
     7
 42
1.0
 92
        8
 66
     7
 43
1.0
 76
     1
 77
     6
 78
     2
 67
     7
 79
     5
170
     0
171
     0
290
     0
174
     0
 93
        1
 44
0.0
173
     0
291
     1
 45
0.0
1001
ACAD
1000
AcDbSavedByObjectVersion
1070
     0
  0
VISUALSTYLE
  5
6D4
102
{ACAD_REACTORS
330
29
102
}
102
{ACAD_XDICTIONARY
360
755
102
}
330
29
100
AcDbVisualStyle
  2
OverhangOff
 70
    21
 71
     2
 72
     2
 73
     0
 90
        0
 40
0.6
 41
30.0
 62
     5
 63
     7
 74
     1
 91
        4
 64
     7
 65
   257
 75
     1
175
     1
 42
1.0
 92
        9
 66
     7
 43
1.0
 76
     1
 77
     6
 78
     2
 67
     7
 79
     5
170
     0
171
     0
290
     0
174
     0
 93
        1
 44
0.0
173
     0
291
     1
 45
0.0
1001
ACAD
1000
AcDbSavedByObjectVersion
1070
     0
  0
VISUALSTYLE
  5
6CB
102
{ACAD_REACTORS
330
29
102
}
102
{ACAD_XDICTIONARY
360
743
102
}
330
29
100
AcDbVisualStyle
  2
Realistic
 70
     8
 71
     2
 72
     3
 73
     0
 90
        2
 40
0.6
 41
30.0
 62
     5
 63
     7
 74
     0
 91
        0
 64
     7
 65
   257
 75
     1
175
     1
 42
1.0
 92
        8
 66
   257
 43
1.0
 76
     1
 77
     6
 78
     2
 67
     7
 79
     3
170
     0
171
     0
290
     0
174
     0
 93
       13
 44
0.0
173
     0
291
     0
 45
0.0
1001
ACAD
1000
AcDbSavedByObjectVersion
1070
     0
  0
VISUALSTYLE
  5
6DA
102
{ACAD_REACTORS
330
29
102
}
102
{ACAD_XDICTIONARY
360
761
102
}
330
29
100
AcDbVisualStyle
  2
Shaded
 70
    27
 71
     2
 72
     2
 73
     1
 90
        2
 40
0.6
 41
30.0
 62
     5
 63
     7
 74
     0
 91
        4
 64
     7
 65
   257
 75
     1
175
     1
 42
1.0
 92
        8
 66
   257
 43
1.0
 76
     1
 77
     6
 78
     2
 67
   251
 79
     3
170
     0
171
     0
290
     0
174
     0
 93
        5
 44
0.0
173
     0
291
     0
 45
0.0
1001
ACAD
1000
AcDbSavedByObjectVersion
1070
     0
  0
VISUALSTYLE
  5
6D9
102
{ACAD_REACTORS
330
29
102
}
102
{ACAD_XDICTIONARY
360
75F
102
}
330
29
100
AcDbVisualStyle
  2
Shaded with edges
 70
    26
 71
     2
 72
     2
 73
     1
 90
        2
 40
0.6
 41
30.0
 62
     5
 63
     7
 74
     1
 91
       10
 64
     7
 65
   257
 75
     2
175
     1
 42
1.0
 92
        8
 66
   257
 43
1.0
 76
     1
 77
     6
 78
     2
 67
     7
 79
     3
170
     0
171
     0
290
     0
174
     0
 93
        5
 44
0.0
173
     0
291
     0
 45
0.0
1001
ACAD
1000
AcDbSavedByObjectVersion
1070
     0
  0
VISUALSTYLE
  5
6D6
102
{ACAD_REACTORS
330
29
102
}
102
{ACAD_XDICTIONARY
360
759
102
}
330
29
100
AcDbVisualStyle
  2
Shades of Gray
 70
    23
 71
     2
 72
     2
 73
     3
 90
        0
 40
0.6
 41
30.0
 62
     5
 63
     7
 74
     2
 91
        2
 64
     7
 65
     7
 75
     1
175
     1
 42
40.0
 92
        8
 66
     7
 43
1.0
 76
     1
 77
     6
 78
     2
 67
     7
 79
     3
170
     0
171
     0
290
     0
174
     0
 93
        1
 44
0.0
173
     0
291
     0
 45
0.0
1001
ACAD
1000
AcDbSavedByObjectVersion
1070
     0
  0
VISUALSTYLE
  5
6D7
102
{ACAD_REACTORS
330
29
102
}
102
{ACAD_XDICTIONARY
360
75B
102
}
330
29
100
AcDbVisualStyle
  2
Sketchy
 70
    24
 71
     1
 72
     2
 73
     2
 90
        0
 40
0.6
 41
30.0
 62
     5
 63
     7
 74
     2
 91
        2
 64
     7
 65
     7
 75
     1
175
     1
 42
40.0
 92
       11
 66
     7
 43
1.0
 76
     1
 77
     6
 78
     2
 67
     7
 79
     6
170
     0
171
     0
290
     0
174
     0
 93
        1
 44
0.0
173
     0
291
     0
 45
0.0
1001
ACAD
1000
AcDbSavedByObjectVersion
1070
     0
  0
VISUALSTYLE
  5
6CF
102
{ACAD_REACTORS
330
29
102
}
102
{ACAD_XDICTIONARY
360
74B
102
}
330
29
100
AcDbVisualStyle
  2
Thicken
 70
    13
 71
     2
 72
     2
 73
     0
 90
        0
 40
0.6
 41
30.0
 62
     5
 63
     7
 74
     1
 91
        4
 64
     7
 65
   257
 75
     1
175
     1
 42
1.0
 92
       12
 66
     7
 43
1.0
 76
     1
 77
     6
 78
     2
 67
     7
 79
     5
170
     0
171
     0
290
     0
174
     0
 93
        1
 44
0.0
173
     0
291
     1
 45
0.0
1001
ACAD
1000
AcDbSavedByObjectVersion
1070
     0
  0
VISUALSTYLE
  5
6C8
102
{ACAD_REACTORS
330
29
102
}
102
{ACAD_XDICTIONARY
360
73D
102
}
330
29
100
AcDbVisualStyle
  2
Wireframe
 70
     5
 71
     0
 72
     2
 73
     0
 90
        0
 40
0.6
 41
30.0
 62
     5
 63
     7
 74
     1
 91
        4
 64
     7
 65
   257
 75
     1
175
     1
 42
1.0
 92
        0
 66
   257
 43
1.0
 76
     1
 77
     6
 78
     2
 67
     7
 79
     5
170
     0
171
     0
290
     0
174
     0
 93
        1
 44
0.0
173
     0
291
     0
 45
0.0
1001
ACAD
1000
AcDbSavedByObjectVersion
1070
     0
  0
VISUALSTYLE
  5
6D8
102
{ACAD_REACTORS
330
29
102
}
102
{ACAD_XDICTIONARY
360
75D
102
}
330
29
100
AcDbVisualStyle
  2
X-Ray
 70
    25
 71
     2
 72
     2
 73
     1
 90
        1
 40
0.5
 41
30.0
 62
     5
 63
     7
 74
     1
 91
        0
 64
     7
 65
   257
 75
     1
175
     1
 42
1.0
 92
        8
 66
     7
 43
1.0
 76
     1
 77
     6
 78
     2
 67
     7
 79
     3
170
     0
171
     0
290
     0
174
     0
 93
       13
 44
0.0
173
     0
291
     0
 45
0.0
1001
ACAD
1000
AcDbSavedByObjectVersion
1070
     0
  0
XRECORD
  5
728
102
{ACAD_REACTORS
330
727
102
}
330
727
100
AcDbXrecord
280
     1
340
28
  0
XRECORD
  5
729
102
{ACAD_REACTORS
330
727
102
}
330
727
100
AcDbXrecord
280
     1
340
7
  0
DICTIONARYVAR
  5
6BE
102
{ACAD_REACTORS
330
6BD
102
}
330
6BD
100
DictionaryVariables
280
     0
  1
1:1
  0
DICTIONARYVAR
  5
6E4
102
{ACAD_REACTORS
330
6BD
102
}
330
6BD
100
DictionaryVariables
280
     0
  1
Standard
  0
DICTIONARYVAR
  5
6E6
102
{ACAD_REACTORS
330
6BD
102
}
330
6BD
100
DictionaryVariables
280
     0
  1
0
  0
DICTIONARYVAR
  5
6E7
102
{ACAD_REACTORS
330
6BD
102
}
330
6BD
100
DictionaryVariables
280
     0
  1
1
  0
DICTIONARYVAR
  5
6EE
102
{ACAD_REACTORS
330
6BD
102
}
330
6BD
100
DictionaryVariables
280
     0
  1
1
  0
DICTIONARY
  5
731
330
70
100
AcDbDictionary
280
     1
281
     1
  3
ACAD_XREC_ROUNDTRIP
360
732
  0
DICTIONARY
  5
72D
330
E
100
AcDbDictionary
280
     1
281
     1
  3
ACAD_XREC_ROUNDTRIP
360
72E
  0
DICTIONARY
  5
72F
330
6
100
AcDbDictionary
280
     1
281
     1
  3
ACAD_XREC_ROUNDTRIP
360
730
  0
DICTIONARY
  5
763
330
6DB
100
AcDbDictionary
280
     1
281
     1
  3
ACAD_XREC_ROUNDTRIP
360
764
  0
DICTIONARY
  5
73B
330
6C7
100
AcDbDictionary
280
     1
281
     1
  3
ACAD_XREC_ROUNDTRIP
360
73C
  0
DICTIONARY
  5
741
330
6CA
100
AcDbDictionary
280
     1
281
     1
  3
ACAD_XREC_ROUNDTRIP
360
742
  0
DICTIONARY
  5
749
330
6CE
100
AcDbDictionary
280
     1
281
     1
  3
ACAD_XREC_ROUNDTRIP
360
74A
  0
DICTIONARY
  5
751
330
6D2
100
AcDbDictionary
280
     1
281
     1
  3
ACAD_XREC_ROUNDTRIP
360
752
  0
DICTIONARY
  5
745
330
6CC
100
AcDbDictionary
280
     1
281
     1
  3
ACAD_XREC_ROUNDTRIP
360
746
  0
DICTIONARY
  5
747
330
6CD
100
AcDbDictionary
280
     1
281
     1
  3
ACAD_XREC_ROUNDTRIP
360
748
  0
DICTIONARY
  5
757
330
6D5
100
AcDbDictionary
280
     1
281
     1
  3
ACAD_XREC_ROUNDTRIP
360
758
  0
DICTIONARY
  5
74F
330
6D1
100
AcDbDictionary
280
     1
281
     1
  3
ACAD_XREC_ROUNDTRIP
360
750
  0
DICTIONARY
  5
733
330
6C3
100
AcDbDictionary
280
     1
281
     1
  3
ACAD_XREC_ROUNDTRIP
360
734
  0
DICTIONARY
  5
735
330
6C4
100
AcDbDictionary
280
     1
281
     1
  3
ACAD_XREC_ROUNDTRIP
360
736
  0
DICTIONARY
  5
737
330
6C5
100
AcDbDictionary
280
     1
281
     1
  3
ACAD_XREC_ROUNDTRIP
360
738
  0
DICTIONARY
  5
739
330
6C6
100
AcDbDictionary
280
     1
281
     1
  3
ACAD_XREC_ROUNDTRIP
360
73A
  0
DICTIONARY
  5
73F
330
6C9
100
AcDbDictionary
280
     1
281
     1
  3
ACAD_XREC_ROUNDTRIP
360
740
  0
DICTIONARY
  5
753
330
6D3
100
AcDbDictionary
280
     1
281
     1
  3
ACAD_XREC_ROUNDTRIP
360
754
  0
DICTIONARY
  5
74D
330
6D0
100
AcDbDictionary
280
     1
281
     1
  3
ACAD_XREC_ROUNDTRIP
360
74E
  0
DICTIONARY
  5
755
330
6D4
100
AcDbDictionary
280
     1
281
     1
  3
ACAD_XREC_ROUNDTRIP
360
756
  0
DICTIONARY
  5
743
330
6CB
100
AcDbDictionary
280
     1
281
     1
  3
ACAD_XREC_ROUNDTRIP
360
744
  0
DICTIONARY
  5
761
330
6DA
100
AcDbDictionary
280
     1
281
     1
  3
ACAD_XREC_ROUNDTRIP
360
762
  0
DICTIONARY
  5
75F
330
6D9
100
AcDbDictionary
280
     1
281
     1
  3
ACAD_XREC_ROUNDTRIP
360
760
  0
DICTIONARY
  5
759
330
6D6
100
AcDbDictionary
280
     1
281
     1
  3
ACAD_XREC_ROUNDTRIP
360
75A
  0
DICTIONARY
  5
75B
330
6D7
100
AcDbDictionary
280
     1
281
     1
  3
ACAD_XREC_ROUNDTRIP
360
75C
  0
DICTIONARY
  5
74B
330
6CF
100
AcDbDictionary
280
     1
281
     1
  3
ACAD_XREC_ROUNDTRIP
360
74C
  0
DICTIONARY
  5
73D
330
6C8
100
AcDbDictionary
280
     1
281
     1
  3
ACAD_XREC_ROUNDTRIP
360
73E
  0
DICTIONARY
  5
75D
330
6D8
100
AcDbDictionary
280
     1
281
     1
  3
ACAD_XREC_ROUNDTRIP
360
75E
  0
XRECORD
  5
732
102
{ACAD_REACTORS
330
731
102
}
330
731
100
AcDbXrecord
280
     1
102
MATERIAL
148
0.0
149
0.0
149
0.0
 93
        0
 94
      127
282
     0
 72
     1
 77
     1
171
     1
175
     1
179
     1
273
     0
  0
XRECORD
  5
72E
102
{ACAD_REACTORS
330
72D
102
}
330
72D
100
AcDbXrecord
280
     1
102
MATERIAL
148
0.0
149
0.0
149
0.0
 93
        0
 94
      127
282
     0
 72
     1
 77
     1
171
     1
175
     1
179
     1
273
     0
  0
XRECORD
  5
730
102
{ACAD_REACTORS
330
72F
102
}
330
72F
100
AcDbXrecord
280
     1
102
MATERIAL
148
0.0
149
0.0
149
0.0
 93
        0
 94
      127
282
     0
 72
     1
 77
     1
171
     1
175
     1
179
     1
273
     0
  0
XRECORD
  5
764
102
{ACAD_REACTORS
330
763
102
}
330
763
100
AcDbXrecord
280
     1
102
ACAD_ROUNDTRIP_2010_MLEADER_STYLE
  0
XRECORD
  5
73C
102
{ACAD_REACTORS
330
73B
102
}
330
73B
100
AcDbXrecord
280
     1
102
RTVSPropertyOp0
 70
     1
102
RTVSPropertyOp1
 70
     1
102
RTVSPropertyOp2
 70
     1
102
RTVSPropertyOp3
 70
     1
102
RTVSPropertyOp4
 70
     1
102
RTVSPropertyOp5
 70
     1
102
RTVSPropertyOp6
 70
     1
102
RTVSPropertyOp7
 70
     1
102
RTVSPropertyOp8
 70
     1
102
RTVSPropertyOp9
 70
     1
102
RTVSPropertyOp10
 70
     1
102
RTVSPropertyOp11
 70
     1
102
RTVSPropertyOp12
 70
     1
102
RTVSPropertyOp13
 70
     1
102
RTVSPropertyOp14
 70
     1
102
RTVSPropertyOp15
 70
     1
102
RTVSPropertyOp16
 70
     1
102
RTVSPropertyOp17
 70
     1
102
RTVSPropertyOp18
 70
     1
102
RTVSPropertyOp19
 70
     1
102
RTVSPropertyOp20
 70
     1
102
RTVSPropertyOp21
 70
     1
102
RTVSPropertyOp22
 70
     1
102
RTVSPropertyOp23
 70
     1
102
RTVSPropertyOp24
 70
     1
102
RTVSPropertyOp25
 70
     1
102
RTVSPropertyOp26
 70
     1
102
RTVSPropertyOp27
 70
     1
102
RTVSPropertyOp28
 70
     1
102
RTVSPropertyOp29
 70
     1
102
RTVSPropertyOp30
 70
     1
102
RTVSPropertyOp31
 70
     1
102
RTVSPropertyOp32
 70
     1
102
RTVSPropertyOp33
 70
     1
102
RTVSPropertyOp34
 70
     1
102
RTVSPropertyOp35
 70
     1
102
RTVSPropertyOp36
 70
     1
102
RTVSPropertyOp37
 70
     1
102
RTVSPropertyOp38
 70
     1
102
RTVSPropertyOp39
 70
     1
102
RTVSPropertyOp40
 70
     1
102
RTVSPropertyOp41
 70
     1
102
RTVSPropertyOp42
 70
     1
102
RTVSPropertyOp43
 70
     1
102
RTVSPropertyOp44
 70
     1
102
RTVSPropertyOp45
 70
     1
102
RTVSPropertyOp46
 70
     1
102
RTVSPropertyOp47
 70
     1
102
RTVSPropertyOp48
 70
     1
102
RTVSPropertyOp49
 70
     1
102
RTVSPropertyOp50
 70
     1
102
RTVSPropertyOp51
 70
     0
102
RTVSPropertyOp52
 70
     0
102
RTVSPropertyOp53
 70
     1
102
RTVSPropertyOp54
 70
     1
102
RTVSPropertyOp55
 70
     1
102
RTVSPropertyOp56
 70
     1
102
RTVSPropertyOp57
 70
     1
102
RTVSPost2010Prop28
280
     1
102
RTVSPost2010PropOp28
 70
     1
102
RTVSPost2010Prop29
280
     1
102
RTVSPost2010PropOp29
 70
     1
102
RTVSPost2010Prop30
280
     0
102
RTVSPost2010PropOp30
 70
     1
102
RTVSPost2010Prop31
280
     0
102
RTVSPost2010PropOp31
 70
     1
102
RTVSPost2010Prop32
280
     0
102
RTVSPost2010PropOp32
 70
     1
102
RTVSPost2010Prop33
280
     0
102
RTVSPost2010PropOp33
 70
     1
102
RTVSPost2010Prop34
280
     0
102
RTVSPost2010PropOp34
 70
     1
102
RTVSPost2010Prop35
280
     0
102
RTVSPost2010PropOp35
 70
     1
102
RTVSPost2010Prop36
280
     0
102
RTVSPost2010PropOp36
 70
     1
102
RTVSPost2010Prop37
 90
       50
102
RTVSPost2010PropOp37
 70
     1
102
RTVSPost2010Prop38
140
0.0
102
RTVSPost2010PropOp38
 70
     1
102
RTVSPost2010Prop39
140
1.0
102
RTVSPost2010PropOp39
 70
     1
102
RTVSPost2010Prop40
 90
        0
102
RTVSPost2010PropOp40
 70
     1
102
RTVSPost2010Prop41ColorIndex
 90
       18
102
RTVSPost2010Prop41ColorRGB
 90
        0
102
RTVSPost2010PropOp41
 70
     1
102
RTVSPost2010Prop42
 90
       50
102
RTVSPost2010PropOp42
 70
     1
102
RTVSPost2010Prop43
 90
        3
102
RTVSPost2010PropOp43
 70
     1
102
RTVSPost2010Prop44ColorIndex
 90
        5
102
RTVSPost2010Prop44ColorRGB
 90
      255
102
RTVSPost2010PropOp44
 70
     1
102
RTVSPost2010Prop45
280
     0
102
RTVSPost2010PropOp45
 70
     1
102
RTVSPost2010Prop46
 90
       50
102
RTVSPost2010PropOp46
 70
     1
102
RTVSPost2010Prop47
 90
       50
102
RTVSPost2010PropOp47
 70
     1
102
RTVSPost2010Prop48
 90
       50
102
RTVSPost2010PropOp48
 70
     1
102
RTVSPost2010Prop49
280
     0
102
RTVSPost2010PropOp49
 70
     1
102
RTVSPost2010Prop50
 90
       50
102
RTVSPost2010PropOp50
 70
     1
102
RTVSPost2010Prop51ColorIndex
 90
      256
102
RTVSPost2010Prop51ColorRGB
 90
-16777216
102
RTVSPost2010PropOp51
 70
     0
102
RTVSPost2010Prop52
140
1.0
102
RTVSPost2010PropOp52
 70
     0
102
RTVSPost2010Prop53
 90
        2
102
RTVSPost2010PropOp53
 70
     1
102
RTVSPost2010Prop54
  1
strokes_ogs.tif
102
RTVSPost2010PropOp54
 70
     1
102
RTVSPost2010Prop55
280
     0
102
RTVSPost2010PropOp55
 70
     1
102
RTVSPost2010Prop56
140
1.0
102
RTVSPost2010PropOp56
 70
     1
102
RTVSPost2010Prop57
140
1.0
102
RTVSPost2010PropOp57
 70
     1
  0
XRECORD
  5
742
102
{ACAD_REACTORS
330
741
102
}
330
741
100
AcDbXrecord
280
     1
102
RTVSPropertyOp0
 70
     1
102
RTVSPropertyOp1
 70
     1
102
RTVSPropertyOp2
 70
     1
102
RTVSPropertyOp3
 70
     1
102
RTVSPropertyOp4
 70
     1
102
RTVSPropertyOp5
 70
     1
102
RTVSPropertyOp6
 70
     1
102
RTVSPropertyOp7
 70
     1
102
RTVSPropertyOp8
 70
     1
102
RTVSPropertyOp9
 70
     1
102
RTVSPropertyOp10
 70
     1
102
RTVSPropertyOp11
 70
     1
102
RTVSPropertyOp12
 70
     1
102
RTVSPropertyOp13
 70
     1
102
RTVSPropertyOp14
 70
     1
102
RTVSPropertyOp15
 70
     1
102
RTVSPropertyOp16
 70
     1
102
RTVSPropertyOp17
 70
     1
102
RTVSPropertyOp18
 70
     1
102
RTVSPropertyOp19
 70
     1
102
RTVSPropertyOp20
 70
     1
102
RTVSPropertyOp21
 70
     1
102
RTVSPropertyOp22
 70
     1
102
RTVSPropertyOp23
 70
     1
102
RTVSPropertyOp24
 70
     1
102
RTVSPropertyOp25
 70
     1
102
RTVSPropertyOp26
 70
     1
102
RTVSPropertyOp27
 70
     1
102
RTVSPropertyOp28
 70
     1
102
RTVSPropertyOp29
 70
     1
102
RTVSPropertyOp30
 70
     1
102
RTVSPropertyOp31
 70
     1
102
RTVSPropertyOp32
 70
     1
102
RTVSPropertyOp33
 70
     1
102
RTVSPropertyOp34
 70
     1
102
RTVSPropertyOp35
 70
     1
102
RTVSPropertyOp36
 70
     1
102
RTVSPropertyOp37
 70
     1
102
RTVSPropertyOp38
 70
     1
102
RTVSPropertyOp39
 70
     1
102
RTVSPropertyOp40
 70
     1
102
RTVSPropertyOp41
 70
     1
102
RTVSPropertyOp42
 70
     1
102
RTVSPropertyOp43
 70
     1
102
RTVSPropertyOp44
 70
     1
102
RTVSPropertyOp45
 70
     1
102
RTVSPropertyOp46
 70
     1
102
RTVSPropertyOp47
 70
     1
102
RTVSPropertyOp48
 70
     1
102
RTVSPropertyOp49
 70
     1
102
RTVSPropertyOp50
 70
     1
102
RTVSPropertyOp51
 70
     0
102
RTVSPropertyOp52
 70
     0
102
RTVSPropertyOp53
 70
     1
102
RTVSPropertyOp54
 70
     1
102
RTVSPropertyOp55
 70
     1
102
RTVSPropertyOp56
 70
     1
102
RTVSPropertyOp57
 70
     1
102
RTVSPost2010Prop28
280
     0
102
RTVSPost2010PropOp28
 70
     1
102
RTVSPost2010Prop29
280
     1
102
RTVSPost2010PropOp29
 70
     1
102
RTVSPost2010Prop30
280
     1
102
RTVSPost2010PropOp30
 70
     1
102
RTVSPost2010Prop31
280
     0
102
RTVSPost2010PropOp31
 70
     1
102
RTVSPost2010Prop32
280
     0
102
RTVSPost2010PropOp32
 70
     1
102
RTVSPost2010Prop33
280
     0
102
RTVSPost2010PropOp33
 70
     1
102
RTVSPost2010Prop34
280
     0
102
RTVSPost2010PropOp34
 70
     1
102
RTVSPost2010Prop35
280
     0
102
RTVSPost2010PropOp35
 70
     1
102
RTVSPost2010Prop36
280
     0
102
RTVSPost2010PropOp36
 70
     1
102
RTVSPost2010Prop37
 90
       50
102
RTVSPost2010PropOp37
 70
     1
102
RTVSPost2010Prop38
140
0.0
102
RTVSPost2010PropOp38
 70
     1
102
RTVSPost2010Prop39
140
1.0
102
RTVSPost2010PropOp39
 70
     1
102
RTVSPost2010Prop40
 90
        0
102
RTVSPost2010PropOp40
 70
     1
102
RTVSPost2010Prop41ColorIndex
 90
       18
102
RTVSPost2010Prop41ColorRGB
 90
        0
102
RTVSPost2010PropOp41
 70
     1
102
RTVSPost2010Prop42
 90
       50
102
RTVSPost2010PropOp42
 70
     1
102
RTVSPost2010Prop43
 90
        3
102
RTVSPost2010PropOp43
 70
     1
102
RTVSPost2010Prop44ColorIndex
 90
        5
102
RTVSPost2010Prop44ColorRGB
 90
      255
102
RTVSPost2010PropOp44
 70
     1
102
RTVSPost2010Prop45
280
     0
102
RTVSPost2010PropOp45
 70
     1
102
RTVSPost2010Prop46
 90
       50
102
RTVSPost2010PropOp46
 70
     1
102
RTVSPost2010Prop47
 90
       50
102
RTVSPost2010PropOp47
 70
     1
102
RTVSPost2010Prop48
 90
       50
102
RTVSPost2010PropOp48
 70
     1
102
RTVSPost2010Prop49
280
     0
102
RTVSPost2010PropOp49
 70
     1
102
RTVSPost2010Prop50
 90
       50
102
RTVSPost2010PropOp50
 70
     1
102
RTVSPost2010Prop51ColorIndex
 90
      256
102
RTVSPost2010Prop51ColorRGB
 90
-16777216
102
RTVSPost2010PropOp51
 70
     0
102
RTVSPost2010Prop52
140
1.0
102
RTVSPost2010PropOp52
 70
     0
102
RTVSPost2010Prop53
 90
        2
102
RTVSPost2010PropOp53
 70
     1
102
RTVSPost2010Prop54
  1
strokes_ogs.tif
102
RTVSPost2010PropOp54
 70
     1
102
RTVSPost2010Prop55
280
     0
102
RTVSPost2010PropOp55
 70
     1
102
RTVSPost2010Prop56
140
1.0
102
RTVSPost2010PropOp56
 70
     1
102
RTVSPost2010Prop57
140
1.0
102
RTVSPost2010PropOp57
 70
     1
  0
XRECORD
  5
74A
102
{ACAD_REACTORS
330
749
102
}
330
749
100
AcDbXrecord
280
     1
102
RTVSPropertyOp0
 70
     1
102
RTVSPropertyOp1
 70
     1
102
RTVSPropertyOp2
 70
     1
102
RTVSPropertyOp3
 70
     1
102
RTVSPropertyOp4
 70
     1
102
RTVSPropertyOp5
 70
     1
102
RTVSPropertyOp6
 70
     1
102
RTVSPropertyOp7
 70
     1
102
RTVSPropertyOp8
 70
     1
102
RTVSPropertyOp9
 70
     1
102
RTVSPropertyOp10
 70
     1
102
RTVSPropertyOp11
 70
     1
102
RTVSPropertyOp12
 70
     1
102
RTVSPropertyOp13
 70
     1
102
RTVSPropertyOp14
 70
     1
102
RTVSPropertyOp15
 70
     1
102
RTVSPropertyOp16
 70
     1
102
RTVSPropertyOp17
 70
     1
102
RTVSPropertyOp18
 70
     1
102
RTVSPropertyOp19
 70
     1
102
RTVSPropertyOp20
 70
     1
102
RTVSPropertyOp21
 70
     1
102
RTVSPropertyOp22
 70
     1
102
RTVSPropertyOp23
 70
     1
102
RTVSPropertyOp24
 70
     1
102
RTVSPropertyOp25
 70
     1
102
RTVSPropertyOp26
 70
     1
102
RTVSPropertyOp27
 70
     1
102
RTVSPropertyOp28
 70
     1
102
RTVSPropertyOp29
 70
     1
102
RTVSPropertyOp30
 70
     1
102
RTVSPropertyOp31
 70
     1
102
RTVSPropertyOp32
 70
     1
102
RTVSPropertyOp33
 70
     1
102
RTVSPropertyOp34
 70
     1
102
RTVSPropertyOp35
 70
     1
102
RTVSPropertyOp36
 70
     1
102
RTVSPropertyOp37
 70
     1
102
RTVSPropertyOp38
 70
     1
102
RTVSPropertyOp39
 70
     1
102
RTVSPropertyOp40
 70
     1
102
RTVSPropertyOp41
 70
     1
102
RTVSPropertyOp42
 70
     1
102
RTVSPropertyOp43
 70
     1
102
RTVSPropertyOp44
 70
     1
102
RTVSPropertyOp45
 70
     1
102
RTVSPropertyOp46
 70
     1
102
RTVSPropertyOp47
 70
     1
102
RTVSPropertyOp48
 70
     1
102
RTVSPropertyOp49
 70
     1
102
RTVSPropertyOp50
 70
     1
102
RTVSPropertyOp51
 70
     0
102
RTVSPropertyOp52
 70
     0
102
RTVSPropertyOp53
 70
     1
102
RTVSPropertyOp54
 70
     1
102
RTVSPropertyOp55
 70
     1
102
RTVSPropertyOp56
 70
     1
102
RTVSPropertyOp57
 70
     1
102
RTVSPost2010Prop28
280
     0
102
RTVSPost2010PropOp28
 70
     1
102
RTVSPost2010Prop29
280
     1
102
RTVSPost2010PropOp29
 70
     1
102
RTVSPost2010Prop30
280
     1
102
RTVSPost2010PropOp30
 70
     1
102
RTVSPost2010Prop31
280
     0
102
RTVSPost2010PropOp31
 70
     1
102
RTVSPost2010Prop32
280
     0
102
RTVSPost2010PropOp32
 70
     1
102
RTVSPost2010Prop33
280
     0
102
RTVSPost2010PropOp33
 70
     1
102
RTVSPost2010Prop34
280
     0
102
RTVSPost2010PropOp34
 70
     1
102
RTVSPost2010Prop35
280
     0
102
RTVSPost2010PropOp35
 70
     1
102
RTVSPost2010Prop36
280
     0
102
RTVSPost2010PropOp36
 70
     1
102
RTVSPost2010Prop37
 90
       50
102
RTVSPost2010PropOp37
 70
     1
102
RTVSPost2010Prop38
140
0.0
102
RTVSPost2010PropOp38
 70
     1
102
RTVSPost2010Prop39
140
1.0
102
RTVSPost2010PropOp39
 70
     1
102
RTVSPost2010Prop40
 90
        0
102
RTVSPost2010PropOp40
 70
     1
102
RTVSPost2010Prop41ColorIndex
 90
       18
102
RTVSPost2010Prop41ColorRGB
 90
        0
102
RTVSPost2010PropOp41
 70
     1
102
RTVSPost2010Prop42
 90
       50
102
RTVSPost2010PropOp42
 70
     1
102
RTVSPost2010Prop43
 90
        3
102
RTVSPost2010PropOp43
 70
     1
102
RTVSPost2010Prop44ColorIndex
 90
        5
102
RTVSPost2010Prop44ColorRGB
 90
      255
102
RTVSPost2010PropOp44
 70
     1
102
RTVSPost2010Prop45
280
     0
102
RTVSPost2010PropOp45
 70
     1
102
RTVSPost2010Prop46
 90
       50
102
RTVSPost2010PropOp46
 70
     1
102
RTVSPost2010Prop47
 90
       50
102
RTVSPost2010PropOp47
 70
     1
102
RTVSPost2010Prop48
 90
       50
102
RTVSPost2010PropOp48
 70
     1
102
RTVSPost2010Prop49
280
     0
102
RTVSPost2010PropOp49
 70
     1
102
RTVSPost2010Prop50
 90
       50
102
RTVSPost2010PropOp50
 70
     1
102
RTVSPost2010Prop51ColorIndex
 90
      256
102
RTVSPost2010Prop51ColorRGB
 90
-16777216
102
RTVSPost2010PropOp51
 70
     0
102
RTVSPost2010Prop52
140
1.0
102
RTVSPost2010PropOp52
 70
     0
102
RTVSPost2010Prop53
 90
        2
102
RTVSPost2010PropOp53
 70
     1
102
RTVSPost2010Prop54
  1
strokes_ogs.tif
102
RTVSPost2010PropOp54
 70
     1
102
RTVSPost2010Prop55
280
     0
102
RTVSPost2010PropOp55
 70
     1
102
RTVSPost2010Prop56
140
1.0
102
RTVSPost2010PropOp56
 70
     1
102
RTVSPost2010Prop57
140
1.0
102
RTVSPost2010PropOp57
 70
     1
  0
XRECORD
  5
752
102
{ACAD_REACTORS
330
751
102
}
330
751
100
AcDbXrecord
280
     1
102
RTVSPropertyOp0
 70
     1
102
RTVSPropertyOp1
 70
     1
102
RTVSPropertyOp2
 70
     1
102
RTVSPropertyOp3
 70
     1
102
RTVSPropertyOp4
 70
     1
102
RTVSPropertyOp5
 70
     1
102
RTVSPropertyOp6
 70
     1
102
RTVSPropertyOp7
 70
     1
102
RTVSPropertyOp8
 70
     1
102
RTVSPropertyOp9
 70
     1
102
RTVSPropertyOp10
 70
     1
102
RTVSPropertyOp11
 70
     1
102
RTVSPropertyOp12
 70
     1
102
RTVSPropertyOp13
 70
     1
102
RTVSPropertyOp14
 70
     1
102
RTVSPropertyOp15
 70
     1
102
RTVSPropertyOp16
 70
     1
102
RTVSPropertyOp17
 70
     1
102
RTVSPropertyOp18
 70
     1
102
RTVSPropertyOp19
 70
     1
102
RTVSPropertyOp20
 70
     1
102
RTVSPropertyOp21
 70
     1
102
RTVSPropertyOp22
 70
     1
102
RTVSPropertyOp23
 70
     1
102
RTVSPropertyOp24
 70
     1
102
RTVSPropertyOp25
 70
     1
102
RTVSPropertyOp26
 70
     1
102
RTVSPropertyOp27
 70
     1
102
RTVSPropertyOp28
 70
     1
102
RTVSPropertyOp29
 70
     1
102
RTVSPropertyOp30
 70
     1
102
RTVSPropertyOp31
 70
     1
102
RTVSPropertyOp32
 70
     1
102
RTVSPropertyOp33
 70
     1
102
RTVSPropertyOp34
 70
     1
102
RTVSPropertyOp35
 70
     1
102
RTVSPropertyOp36
 70
     1
102
RTVSPropertyOp37
 70
     1
102
RTVSPropertyOp38
 70
     1
102
RTVSPropertyOp39
 70
     1
102
RTVSPropertyOp40
 70
     1
102
RTVSPropertyOp41
 70
     1
102
RTVSPropertyOp42
 70
     1
102
RTVSPropertyOp43
 70
     1
102
RTVSPropertyOp44
 70
     1
102
RTVSPropertyOp45
 70
     1
102
RTVSPropertyOp46
 70
     1
102
RTVSPropertyOp47
 70
     1
102
RTVSPropertyOp48
 70
     1
102
RTVSPropertyOp49
 70
     1
102
RTVSPropertyOp50
 70
     1
102
RTVSPropertyOp51
 70
     0
102
RTVSPropertyOp52
 70
     0
102
RTVSPropertyOp53
 70
     1
102
RTVSPropertyOp54
 70
     1
102
RTVSPropertyOp55
 70
     1
102
RTVSPropertyOp56
 70
     1
102
RTVSPropertyOp57
 70
     1
102
RTVSPost2010Prop28
280
     0
102
RTVSPost2010PropOp28
 70
     1
102
RTVSPost2010Prop29
280
     1
102
RTVSPost2010PropOp29
 70
     1
102
RTVSPost2010Prop30
280
     1
102
RTVSPost2010PropOp30
 70
     1
102
RTVSPost2010Prop31
280
     0
102
RTVSPost2010PropOp31
 70
     1
102
RTVSPost2010Prop32
280
     0
102
RTVSPost2010PropOp32
 70
     1
102
RTVSPost2010Prop33
280
     0
102
RTVSPost2010PropOp33
 70
     1
102
RTVSPost2010Prop34
280
     0
102
RTVSPost2010PropOp34
 70
     1
102
RTVSPost2010Prop35
280
     0
102
RTVSPost2010PropOp35
 70
     1
102
RTVSPost2010Prop36
280
     0
102
RTVSPost2010PropOp36
 70
     1
102
RTVSPost2010Prop37
 90
       50
102
RTVSPost2010PropOp37
 70
     1
102
RTVSPost2010Prop38
140
0.0
102
RTVSPost2010PropOp38
 70
     1
102
RTVSPost2010Prop39
140
1.0
102
RTVSPost2010PropOp39
 70
     1
102
RTVSPost2010Prop40
 90
        0
102
RTVSPost2010PropOp40
 70
     1
102
RTVSPost2010Prop41ColorIndex
 90
       18
102
RTVSPost2010Prop41ColorRGB
 90
        0
102
RTVSPost2010PropOp41
 70
     1
102
RTVSPost2010Prop42
 90
       50
102
RTVSPost2010PropOp42
 70
     1
102
RTVSPost2010Prop43
 90
        3
102
RTVSPost2010PropOp43
 70
     1
102
RTVSPost2010Prop44ColorIndex
 90
        5
102
RTVSPost2010Prop44ColorRGB
 90
      255
102
RTVSPost2010PropOp44
 70
     1
102
RTVSPost2010Prop45
280
     0
102
RTVSPost2010PropOp45
 70
     1
102
RTVSPost2010Prop46
 90
       50
102
RTVSPost2010PropOp46
 70
     1
102
RTVSPost2010Prop47
 90
       50
102
RTVSPost2010PropOp47
 70
     1
102
RTVSPost2010Prop48
 90
       50
102
RTVSPost2010PropOp48
 70
     1
102
RTVSPost2010Prop49
280
     0
102
RTVSPost2010PropOp49
 70
     1
102
RTVSPost2010Prop50
 90
       50
102
RTVSPost2010PropOp50
 70
     1
102
RTVSPost2010Prop51ColorIndex
 90
      256
102
RTVSPost2010Prop51ColorRGB
 90
-16777216
102
RTVSPost2010PropOp51
 70
     0
102
RTVSPost2010Prop52
140
1.0
102
RTVSPost2010PropOp52
 70
     0
102
RTVSPost2010Prop53
 90
        2
102
RTVSPost2010PropOp53
 70
     1
102
RTVSPost2010Prop54
  1
strokes_ogs.tif
102
RTVSPost2010PropOp54
 70
     1
102
RTVSPost2010Prop55
280
     0
102
RTVSPost2010PropOp55
 70
     1
102
RTVSPost2010Prop56
140
1.0
102
RTVSPost2010PropOp56
 70
     1
102
RTVSPost2010Prop57
140
1.0
102
RTVSPost2010PropOp57
 70
     1
  0
XRECORD
  5
746
102
{ACAD_REACTORS
330
745
102
}
330
745
100
AcDbXrecord
280
     1
102
RTVSPropertyOp0
 70
     1
102
RTVSPropertyOp1
 70
     1
102
RTVSPropertyOp2
 70
     1
102
RTVSPropertyOp3
 70
     1
102
RTVSPropertyOp4
 70
     1
102
RTVSPropertyOp5
 70
     1
102
RTVSPropertyOp6
 70
     1
102
RTVSPropertyOp7
 70
     1
102
RTVSPropertyOp8
 70
     1
102
RTVSPropertyOp9
 70
     1
102
RTVSPropertyOp10
 70
     1
102
RTVSPropertyOp11
 70
     1
102
RTVSPropertyOp12
 70
     1
102
RTVSPropertyOp13
 70
     1
102
RTVSPropertyOp14
 70
     1
102
RTVSPropertyOp15
 70
     1
102
RTVSPropertyOp16
 70
     1
102
RTVSPropertyOp17
 70
     1
102
RTVSPropertyOp18
 70
     1
102
RTVSPropertyOp19
 70
     1
102
RTVSPropertyOp20
 70
     1
102
RTVSPropertyOp21
 70
     1
102
RTVSPropertyOp22
 70
     1
102
RTVSPropertyOp23
 70
     1
102
RTVSPropertyOp24
 70
     1
102
RTVSPropertyOp25
 70
     1
102
RTVSPropertyOp26
 70
     1
102
RTVSPropertyOp27
 70
     1
102
RTVSPropertyOp28
 70
     1
102
RTVSPropertyOp29
 70
     1
102
RTVSPropertyOp30
 70
     1
102
RTVSPropertyOp31
 70
     1
102
RTVSPropertyOp32
 70
     1
102
RTVSPropertyOp33
 70
     1
102
RTVSPropertyOp34
 70
     1
102
RTVSPropertyOp35
 70
     1
102
RTVSPropertyOp36
 70
     1
102
RTVSPropertyOp37
 70
     1
102
RTVSPropertyOp38
 70
     1
102
RTVSPropertyOp39
 70
     1
102
RTVSPropertyOp40
 70
     1
102
RTVSPropertyOp41
 70
     1
102
RTVSPropertyOp42
 70
     1
102
RTVSPropertyOp43
 70
     1
102
RTVSPropertyOp44
 70
     1
102
RTVSPropertyOp45
 70
     1
102
RTVSPropertyOp46
 70
     1
102
RTVSPropertyOp47
 70
     1
102
RTVSPropertyOp48
 70
     1
102
RTVSPropertyOp49
 70
     1
102
RTVSPropertyOp50
 70
     1
102
RTVSPropertyOp51
 70
     0
102
RTVSPropertyOp52
 70
     0
102
RTVSPropertyOp53
 70
     1
102
RTVSPropertyOp54
 70
     1
102
RTVSPropertyOp55
 70
     1
102
RTVSPropertyOp56
 70
     1
102
RTVSPropertyOp57
 70
     1
102
RTVSPost2010Prop28
280
     0
102
RTVSPost2010PropOp28
 70
     1
102
RTVSPost2010Prop29
280
     1
102
RTVSPost2010PropOp29
 70
     1
102
RTVSPost2010Prop30
280
     1
102
RTVSPost2010PropOp30
 70
     1
102
RTVSPost2010Prop31
280
     0
102
RTVSPost2010PropOp31
 70
     1
102
RTVSPost2010Prop32
280
     0
102
RTVSPost2010PropOp32
 70
     1
102
RTVSPost2010Prop33
280
     0
102
RTVSPost2010PropOp33
 70
     1
102
RTVSPost2010Prop34
280
     0
102
RTVSPost2010PropOp34
 70
     1
102
RTVSPost2010Prop35
280
     0
102
RTVSPost2010PropOp35
 70
     1
102
RTVSPost2010Prop36
280
     0
102
RTVSPost2010PropOp36
 70
     1
102
RTVSPost2010Prop37
 90
       50
102
RTVSPost2010PropOp37
 70
     1
102
RTVSPost2010Prop38
140
0.0
102
RTVSPost2010PropOp38
 70
     1
102
RTVSPost2010Prop39
140
1.0
102
RTVSPost2010PropOp39
 70
     1
102
RTVSPost2010Prop40
 90
        0
102
RTVSPost2010PropOp40
 70
     1
102
RTVSPost2010Prop41ColorIndex
 90
       18
102
RTVSPost2010Prop41ColorRGB
 90
        0
102
RTVSPost2010PropOp41
 70
     1
102
RTVSPost2010Prop42
 90
       50
102
RTVSPost2010PropOp42
 70
     1
102
RTVSPost2010Prop43
 90
        3
102
RTVSPost2010PropOp43
 70
     1
102
RTVSPost2010Prop44ColorIndex
 90
        5
102
RTVSPost2010Prop44ColorRGB
 90
      255
102
RTVSPost2010PropOp44
 70
     1
102
RTVSPost2010Prop45
280
     0
102
RTVSPost2010PropOp45
 70
     1
102
RTVSPost2010Prop46
 90
       50
102
RTVSPost2010PropOp46
 70
     1
102
RTVSPost2010Prop47
 90
       50
102
RTVSPost2010PropOp47
 70
     1
102
RTVSPost2010Prop48
 90
       50
102
RTVSPost2010PropOp48
 70
     1
102
RTVSPost2010Prop49
280
     0
102
RTVSPost2010PropOp49
 70
     1
102
RTVSPost2010Prop50
 90
       50
102
RTVSPost2010PropOp50
 70
     1
102
RTVSPost2010Prop51ColorIndex
 90
      256
102
RTVSPost2010Prop51ColorRGB
 90
-16777216
102
RTVSPost2010PropOp51
 70
     0
102
RTVSPost2010Prop52
140
1.0
102
RTVSPost2010PropOp52
 70
     0
102
RTVSPost2010Prop53
 90
        2
102
RTVSPost2010PropOp53
 70
     1
102
RTVSPost2010Prop54
  1
strokes_ogs.tif
102
RTVSPost2010PropOp54
 70
     1
102
RTVSPost2010Prop55
280
     0
102
RTVSPost2010PropOp55
 70
     1
102
RTVSPost2010Prop56
140
1.0
102
RTVSPost2010PropOp56
 70
     1
102
RTVSPost2010Prop57
140
1.0
102
RTVSPost2010PropOp57
 70
     1
  0
XRECORD
  5
748
102
{ACAD_REACTORS
330
747
102
}
330
747
100
AcDbXrecord
280
     1
102
RTVSPropertyOp0
 70
     1
102
RTVSPropertyOp1
 70
     1
102
RTVSPropertyOp2
 70
     1
102
RTVSPropertyOp3
 70
     1
102
RTVSPropertyOp4
 70
     1
102
RTVSPropertyOp5
 70
     1
102
RTVSPropertyOp6
 70
     1
102
RTVSPropertyOp7
 70
     1
102
RTVSPropertyOp8
 70
     1
102
RTVSPropertyOp9
 70
     1
102
RTVSPropertyOp10
 70
     1
102
RTVSPropertyOp11
 70
     1
102
RTVSPropertyOp12
 70
     1
102
RTVSPropertyOp13
 70
     1
102
RTVSPropertyOp14
 70
     1
102
RTVSPropertyOp15
 70
     1
102
RTVSPropertyOp16
 70
     1
102
RTVSPropertyOp17
 70
     1
102
RTVSPropertyOp18
 70
     1
102
RTVSPropertyOp19
 70
     1
102
RTVSPropertyOp20
 70
     1
102
RTVSPropertyOp21
 70
     1
102
RTVSPropertyOp22
 70
     1
102
RTVSPropertyOp23
 70
     1
102
RTVSPropertyOp24
 70
     1
102
RTVSPropertyOp25
 70
     1
102
RTVSPropertyOp26
 70
     1
102
RTVSPropertyOp27
 70
     1
102
RTVSPropertyOp28
 70
     1
102
RTVSPropertyOp29
 70
     1
102
RTVSPropertyOp30
 70
     1
102
RTVSPropertyOp31
 70
     1
102
RTVSPropertyOp32
 70
     1
102
RTVSPropertyOp33
 70
     1
102
RTVSPropertyOp34
 70
     1
102
RTVSPropertyOp35
 70
     1
102
RTVSPropertyOp36
 70
     1
102
RTVSPropertyOp37
 70
     1
102
RTVSPropertyOp38
 70
     1
102
RTVSPropertyOp39
 70
     1
102
RTVSPropertyOp40
 70
     1
102
RTVSPropertyOp41
 70
     1
102
RTVSPropertyOp42
 70
     1
102
RTVSPropertyOp43
 70
     1
102
RTVSPropertyOp44
 70
     1
102
RTVSPropertyOp45
 70
     1
102
RTVSPropertyOp46
 70
     1
102
RTVSPropertyOp47
 70
     1
102
RTVSPropertyOp48
 70
     1
102
RTVSPropertyOp49
 70
     1
102
RTVSPropertyOp50
 70
     1
102
RTVSPropertyOp51
 70
     0
102
RTVSPropertyOp52
 70
     0
102
RTVSPropertyOp53
 70
     1
102
RTVSPropertyOp54
 70
     1
102
RTVSPropertyOp55
 70
     1
102
RTVSPropertyOp56
 70
     1
102
RTVSPropertyOp57
 70
     1
102
RTVSPost2010Prop28
280
     0
102
RTVSPost2010PropOp28
 70
     1
102
RTVSPost2010Prop29
280
     1
102
RTVSPost2010PropOp29
 70
     1
102
RTVSPost2010Prop30
280
     1
102
RTVSPost2010PropOp30
 70
     1
102
RTVSPost2010Prop31
280
     0
102
RTVSPost2010PropOp31
 70
     1
102
RTVSPost2010Prop32
280
     0
102
RTVSPost2010PropOp32
 70
     1
102
RTVSPost2010Prop33
280
     0
102
RTVSPost2010PropOp33
 70
     1
102
RTVSPost2010Prop34
280
     0
102
RTVSPost2010PropOp34
 70
     1
102
RTVSPost2010Prop35
280
     0
102
RTVSPost2010PropOp35
 70
     1
102
RTVSPost2010Prop36
280
     0
102
RTVSPost2010PropOp36
 70
     1
102
RTVSPost2010Prop37
 90
       50
102
RTVSPost2010PropOp37
 70
     1
102
RTVSPost2010Prop38
140
0.0
102
RTVSPost2010PropOp38
 70
     1
102
RTVSPost2010Prop39
140
1.0
102
RTVSPost2010PropOp39
 70
     1
102
RTVSPost2010Prop40
 90
        0
102
RTVSPost2010PropOp40
 70
     1
102
RTVSPost2010Prop41ColorIndex
 90
       18
102
RTVSPost2010Prop41ColorRGB
 90
        0
102
RTVSPost2010PropOp41
 70
     1
102
RTVSPost2010Prop42
 90
       50
102
RTVSPost2010PropOp42
 70
     1
102
RTVSPost2010Prop43
 90
        3
102
RTVSPost2010PropOp43
 70
     1
102
RTVSPost2010Prop44ColorIndex
 90
        5
102
RTVSPost2010Prop44ColorRGB
 90
      255
102
RTVSPost2010PropOp44
 70
     1
102
RTVSPost2010Prop45
280
     0
102
RTVSPost2010PropOp45
 70
     1
102
RTVSPost2010Prop46
 90
       50
102
RTVSPost2010PropOp46
 70
     1
102
RTVSPost2010Prop47
 90
       50
102
RTVSPost2010PropOp47
 70
     1
102
RTVSPost2010Prop48
 90
       50
102
RTVSPost2010PropOp48
 70
     1
102
RTVSPost2010Prop49
280
     0
102
RTVSPost2010PropOp49
 70
     1
102
RTVSPost2010Prop50
 90
       50
102
RTVSPost2010PropOp50
 70
     1
102
RTVSPost2010Prop51ColorIndex
 90
      256
102
RTVSPost2010Prop51ColorRGB
 90
-16777216
102
RTVSPost2010PropOp51
 70
     0
102
RTVSPost2010Prop52
140
1.0
102
RTVSPost2010PropOp52
 70
     0
102
RTVSPost2010Prop53
 90
        2
102
RTVSPost2010PropOp53
 70
     1
102
RTVSPost2010Prop54
  1
strokes_ogs.tif
102
RTVSPost2010PropOp54
 70
     1
102
RTVSPost2010Prop55
280
     0
102
RTVSPost2010PropOp55
 70
     1
102
RTVSPost2010Prop56
140
1.0
102
RTVSPost2010PropOp56
 70
     1
102
RTVSPost2010Prop57
140
1.0
102
RTVSPost2010PropOp57
 70
     1
  0
XRECORD
  5
758
102
{ACAD_REACTORS
330
757
102
}
330
757
100
AcDbXrecord
280
     1
102
RTVSPropertyOp0
 70
     0
102
RTVSPropertyOp1
 70
     0
102
RTVSPropertyOp2
 70
     0
102
RTVSPropertyOp3
 70
     0
102
RTVSPropertyOp4
 70
     0
102
RTVSPropertyOp5
 70
     0
102
RTVSPropertyOp6
 70
     0
102
RTVSPropertyOp7
 70
     0
102
RTVSPropertyOp8
 70
     0
102
RTVSPropertyOp9
 70
     0
102
RTVSPropertyOp10
 70
     0
102
RTVSPropertyOp11
 70
     0
102
RTVSPropertyOp12
 70
     0
102
RTVSPropertyOp13
 70
     0
102
RTVSPropertyOp14
 70
     0
102
RTVSPropertyOp15
 70
     0
102
RTVSPropertyOp16
 70
     0
102
RTVSPropertyOp17
 70
     0
102
RTVSPropertyOp18
 70
     0
102
RTVSPropertyOp19
 70
     0
102
RTVSPropertyOp20
 70
     0
102
RTVSPropertyOp21
 70
     0
102
RTVSPropertyOp22
 70
     0
102
RTVSPropertyOp23
 70
     0
102
RTVSPropertyOp24
 70
     0
102
RTVSPropertyOp25
 70
     0
102
RTVSPropertyOp26
 70
     0
102
RTVSPropertyOp27
 70
     0
102
RTVSPropertyOp28
 70
     1
102
RTVSPropertyOp29
 70
     1
102
RTVSPropertyOp30
 70
     1
102
RTVSPropertyOp31
 70
     1
102
RTVSPropertyOp32
 70
     1
102
RTVSPropertyOp33
 70
     1
102
RTVSPropertyOp34
 70
     1
102
RTVSPropertyOp35
 70
     1
102
RTVSPropertyOp36
 70
     1
102
RTVSPropertyOp37
 70
     1
102
RTVSPropertyOp38
 70
     1
102
RTVSPropertyOp39
 70
     1
102
RTVSPropertyOp40
 70
     1
102
RTVSPropertyOp41
 70
     1
102
RTVSPropertyOp42
 70
     1
102
RTVSPropertyOp43
 70
     1
102
RTVSPropertyOp44
 70
     1
102
RTVSPropertyOp45
 70
     1
102
RTVSPropertyOp46
 70
     1
102
RTVSPropertyOp47
 70
     1
102
RTVSPropertyOp48
 70
     1
102
RTVSPropertyOp49
 70
     1
102
RTVSPropertyOp50
 70
     1
102
RTVSPropertyOp51
 70
     0
102
RTVSPropertyOp52
 70
     0
102
RTVSPropertyOp53
 70
     1
102
RTVSPropertyOp54
 70
     1
102
RTVSPropertyOp55
 70
     1
102
RTVSPropertyOp56
 70
     1
102
RTVSPropertyOp57
 70
     1
102
RTVSPost2010Prop28
280
     0
102
RTVSPost2010PropOp28
 70
     1
102
RTVSPost2010Prop29
280
     1
102
RTVSPost2010PropOp29
 70
     1
102
RTVSPost2010Prop30
280
     1
102
RTVSPost2010PropOp30
 70
     1
102
RTVSPost2010Prop31
280
     0
102
RTVSPost2010PropOp31
 70
     1
102
RTVSPost2010Prop32
280
     0
102
RTVSPost2010PropOp32
 70
     1
102
RTVSPost2010Prop33
280
     0
102
RTVSPost2010PropOp33
 70
     1
102
RTVSPost2010Prop34
280
     0
102
RTVSPost2010PropOp34
 70
     1
102
RTVSPost2010Prop35
280
     0
102
RTVSPost2010PropOp35
 70
     1
102
RTVSPost2010Prop36
280
     0
102
RTVSPost2010PropOp36
 70
     1
102
RTVSPost2010Prop37
 90
       50
102
RTVSPost2010PropOp37
 70
     1
102
RTVSPost2010Prop38
140
0.0
102
RTVSPost2010PropOp38
 70
     1
102
RTVSPost2010Prop39
140
1.0
102
RTVSPost2010PropOp39
 70
     1
102
RTVSPost2010Prop40
 90
        0
102
RTVSPost2010PropOp40
 70
     1
102
RTVSPost2010Prop41ColorIndex
 90
       18
102
RTVSPost2010Prop41ColorRGB
 90
        0
102
RTVSPost2010PropOp41
 70
     1
102
RTVSPost2010Prop42
 90
       50
102
RTVSPost2010PropOp42
 70
     1
102
RTVSPost2010Prop43
 90
        3
102
RTVSPost2010PropOp43
 70
     1
102
RTVSPost2010Prop44ColorIndex
 90
        5
102
RTVSPost2010Prop44ColorRGB
 90
      255
102
RTVSPost2010PropOp44
 70
     1
102
RTVSPost2010Prop45
280
     0
102
RTVSPost2010PropOp45
 70
     1
102
RTVSPost2010Prop46
 90
       50
102
RTVSPost2010PropOp46
 70
     1
102
RTVSPost2010Prop47
 90
       50
102
RTVSPost2010PropOp47
 70
     1
102
RTVSPost2010Prop48
 90
       50
102
RTVSPost2010PropOp48
 70
     1
102
RTVSPost2010Prop49
280
     0
102
RTVSPost2010PropOp49
 70
     1
102
RTVSPost2010Prop50
 90
       50
102
RTVSPost2010PropOp50
 70
     1
102
RTVSPost2010Prop51ColorIndex
 90
      256
102
RTVSPost2010Prop51ColorRGB
 90
-16777216
102
RTVSPost2010PropOp51
 70
     0
102
RTVSPost2010Prop52
140
1.0
102
RTVSPost2010PropOp52
 70
     0
102
RTVSPost2010Prop53
 90
        2
102
RTVSPost2010PropOp53
 70
     1
102
RTVSPost2010Prop54
  1
strokes_ogs.tif
102
RTVSPost2010PropOp54
 70
     1
102
RTVSPost2010Prop55
280
     0
102
RTVSPost2010PropOp55
 70
     1
102
RTVSPost2010Prop56
140
1.0
102
RTVSPost2010PropOp56
 70
     1
102
RTVSPost2010Prop57
140
1.0
102
RTVSPost2010PropOp57
 70
     1
  0
XRECORD
  5
750
102
{ACAD_REACTORS
330
74F
102
}
330
74F
100
AcDbXrecord
280
     1
102
RTVSPropertyOp0
 70
     1
102
RTVSPropertyOp1
 70
     1
102
RTVSPropertyOp2
 70
     1
102
RTVSPropertyOp3
 70
     1
102
RTVSPropertyOp4
 70
     1
102
RTVSPropertyOp5
 70
     1
102
RTVSPropertyOp6
 70
     1
102
RTVSPropertyOp7
 70
     1
102
RTVSPropertyOp8
 70
     1
102
RTVSPropertyOp9
 70
     1
102
RTVSPropertyOp10
 70
     1
102
RTVSPropertyOp11
 70
     1
102
RTVSPropertyOp12
 70
     1
102
RTVSPropertyOp13
 70
     1
102
RTVSPropertyOp14
 70
     1
102
RTVSPropertyOp15
 70
     1
102
RTVSPropertyOp16
 70
     1
102
RTVSPropertyOp17
 70
     1
102
RTVSPropertyOp18
 70
     1
102
RTVSPropertyOp19
 70
     1
102
RTVSPropertyOp20
 70
     1
102
RTVSPropertyOp21
 70
     1
102
RTVSPropertyOp22
 70
     1
102
RTVSPropertyOp23
 70
     1
102
RTVSPropertyOp24
 70
     1
102
RTVSPropertyOp25
 70
     1
102
RTVSPropertyOp26
 70
     1
102
RTVSPropertyOp27
 70
     1
102
RTVSPropertyOp28
 70
     1
102
RTVSPropertyOp29
 70
     1
102
RTVSPropertyOp30
 70
     1
102
RTVSPropertyOp31
 70
     1
102
RTVSPropertyOp32
 70
     1
102
RTVSPropertyOp33
 70
     1
102
RTVSPropertyOp34
 70
     1
102
RTVSPropertyOp35
 70
     1
102
RTVSPropertyOp36
 70
     1
102
RTVSPropertyOp37
 70
     1
102
RTVSPropertyOp38
 70
     1
102
RTVSPropertyOp39
 70
     1
102
RTVSPropertyOp40
 70
     1
102
RTVSPropertyOp41
 70
     1
102
RTVSPropertyOp42
 70
     1
102
RTVSPropertyOp43
 70
     1
102
RTVSPropertyOp44
 70
     1
102
RTVSPropertyOp45
 70
     1
102
RTVSPropertyOp46
 70
     1
102
RTVSPropertyOp47
 70
     1
102
RTVSPropertyOp48
 70
     1
102
RTVSPropertyOp49
 70
     1
102
RTVSPropertyOp50
 70
     1
102
RTVSPropertyOp51
 70
     0
102
RTVSPropertyOp52
 70
     0
102
RTVSPropertyOp53
 70
     1
102
RTVSPropertyOp54
 70
     1
102
RTVSPropertyOp55
 70
     1
102
RTVSPropertyOp56
 70
     1
102
RTVSPropertyOp57
 70
     1
102
RTVSPost2010Prop28
280
     0
102
RTVSPost2010PropOp28
 70
     1
102
RTVSPost2010Prop29
280
     1
102
RTVSPost2010PropOp29
 70
     1
102
RTVSPost2010Prop30
280
     1
102
RTVSPost2010PropOp30
 70
     1
102
RTVSPost2010Prop31
280
     0
102
RTVSPost2010PropOp31
 70
     1
102
RTVSPost2010Prop32
280
     0
102
RTVSPost2010PropOp32
 70
     1
102
RTVSPost2010Prop33
280
     0
102
RTVSPost2010PropOp33
 70
     1
102
RTVSPost2010Prop34
280
     0
102
RTVSPost2010PropOp34
 70
     1
102
RTVSPost2010Prop35
280
     0
102
RTVSPost2010PropOp35
 70
     1
102
RTVSPost2010Prop36
280
     0
102
RTVSPost2010PropOp36
 70
     1
102
RTVSPost2010Prop37
 90
       50
102
RTVSPost2010PropOp37
 70
     1
102
RTVSPost2010Prop38
140
0.0
102
RTVSPost2010PropOp38
 70
     1
102
RTVSPost2010Prop39
140
1.0
102
RTVSPost2010PropOp39
 70
     1
102
RTVSPost2010Prop40
 90
        0
102
RTVSPost2010PropOp40
 70
     1
102
RTVSPost2010Prop41ColorIndex
 90
       18
102
RTVSPost2010Prop41ColorRGB
 90
        0
102
RTVSPost2010PropOp41
 70
     1
102
RTVSPost2010Prop42
 90
       50
102
RTVSPost2010PropOp42
 70
     1
102
RTVSPost2010Prop43
 90
        3
102
RTVSPost2010PropOp43
 70
     1
102
RTVSPost2010Prop44ColorIndex
 90
        5
102
RTVSPost2010Prop44ColorRGB
 90
      255
102
RTVSPost2010PropOp44
 70
     1
102
RTVSPost2010Prop45
280
     0
102
RTVSPost2010PropOp45
 70
     1
102
RTVSPost2010Prop46
 90
       50
102
RTVSPost2010PropOp46
 70
     1
102
RTVSPost2010Prop47
 90
       50
102
RTVSPost2010PropOp47
 70
     1
102
RTVSPost2010Prop48
 90
       50
102
RTVSPost2010PropOp48
 70
     1
102
RTVSPost2010Prop49
280
     0
102
RTVSPost2010PropOp49
 70
     1
102
RTVSPost2010Prop50
 90
       50
102
RTVSPost2010PropOp50
 70
     1
102
RTVSPost2010Prop51ColorIndex
 90
      256
102
RTVSPost2010Prop51ColorRGB
 90
-16777216
102
RTVSPost2010PropOp51
 70
     0
102
RTVSPost2010Prop52
140
1.0
102
RTVSPost2010PropOp52
 70
     0
102
RTVSPost2010Prop53
 90
        2
102
RTVSPost2010PropOp53
 70
     1
102
RTVSPost2010Prop54
  1
strokes_ogs.tif
102
RTVSPost2010PropOp54
 70
     1
102
RTVSPost2010Prop55
280
     0
102
RTVSPost2010PropOp55
 70
     1
102
RTVSPost2010Prop56
140
1.0
102
RTVSPost2010PropOp56
 70
     1
102
RTVSPost2010Prop57
140
1.0
102
RTVSPost2010PropOp57
 70
     1
  0
XRECORD
  5
734
102
{ACAD_REACTORS
330
733
102
}
330
733
100
AcDbXrecord
280
     1
102
RTVSPropertyOp0
 70
     1
102
RTVSPropertyOp1
 70
     1
102
RTVSPropertyOp2
 70
     1
102
RTVSPropertyOp3
 70
     1
102
RTVSPropertyOp4
 70
     1
102
RTVSPropertyOp5
 70
     1
102
RTVSPropertyOp6
 70
     1
102
RTVSPropertyOp7
 70
     1
102
RTVSPropertyOp8
 70
     1
102
RTVSPropertyOp9
 70
     1
102
RTVSPropertyOp10
 70
     1
102
RTVSPropertyOp11
 70
     1
102
RTVSPropertyOp12
 70
     1
102
RTVSPropertyOp13
 70
     1
102
RTVSPropertyOp14
 70
     1
102
RTVSPropertyOp15
 70
     1
102
RTVSPropertyOp16
 70
     1
102
RTVSPropertyOp17
 70
     1
102
RTVSPropertyOp18
 70
     1
102
RTVSPropertyOp19
 70
     1
102
RTVSPropertyOp20
 70
     1
102
RTVSPropertyOp21
 70
     1
102
RTVSPropertyOp22
 70
     1
102
RTVSPropertyOp23
 70
     1
102
RTVSPropertyOp24
 70
     1
102
RTVSPropertyOp25
 70
     1
102
RTVSPropertyOp26
 70
     1
102
RTVSPropertyOp27
 70
     1
102
RTVSPropertyOp28
 70
     1
102
RTVSPropertyOp29
 70
     1
102
RTVSPropertyOp30
 70
     1
102
RTVSPropertyOp31
 70
     1
102
RTVSPropertyOp32
 70
     1
102
RTVSPropertyOp33
 70
     1
102
RTVSPropertyOp34
 70
     1
102
RTVSPropertyOp35
 70
     1
102
RTVSPropertyOp36
 70
     1
102
RTVSPropertyOp37
 70
     1
102
RTVSPropertyOp38
 70
     1
102
RTVSPropertyOp39
 70
     1
102
RTVSPropertyOp40
 70
     1
102
RTVSPropertyOp41
 70
     1
102
RTVSPropertyOp42
 70
     1
102
RTVSPropertyOp43
 70
     1
102
RTVSPropertyOp44
 70
     1
102
RTVSPropertyOp45
 70
     1
102
RTVSPropertyOp46
 70
     1
102
RTVSPropertyOp47
 70
     1
102
RTVSPropertyOp48
 70
     1
102
RTVSPropertyOp49
 70
     1
102
RTVSPropertyOp50
 70
     1
102
RTVSPropertyOp51
 70
     0
102
RTVSPropertyOp52
 70
     0
102
RTVSPropertyOp53
 70
     1
102
RTVSPropertyOp54
 70
     1
102
RTVSPropertyOp55
 70
     1
102
RTVSPropertyOp56
 70
     1
102
RTVSPropertyOp57
 70
     1
102
RTVSPost2010Prop28
280
     0
102
RTVSPost2010PropOp28
 70
     1
102
RTVSPost2010Prop29
280
     1
102
RTVSPost2010PropOp29
 70
     1
102
RTVSPost2010Prop30
280
     1
102
RTVSPost2010PropOp30
 70
     1
102
RTVSPost2010Prop31
280
     0
102
RTVSPost2010PropOp31
 70
     1
102
RTVSPost2010Prop32
280
     0
102
RTVSPost2010PropOp32
 70
     1
102
RTVSPost2010Prop33
280
     0
102
RTVSPost2010PropOp33
 70
     1
102
RTVSPost2010Prop34
280
     0
102
RTVSPost2010PropOp34
 70
     1
102
RTVSPost2010Prop35
280
     0
102
RTVSPost2010PropOp35
 70
     1
102
RTVSPost2010Prop36
280
     0
102
RTVSPost2010PropOp36
 70
     1
102
RTVSPost2010Prop37
 90
       50
102
RTVSPost2010PropOp37
 70
     1
102
RTVSPost2010Prop38
140
0.0
102
RTVSPost2010PropOp38
 70
     1
102
RTVSPost2010Prop39
140
1.0
102
RTVSPost2010PropOp39
 70
     1
102
RTVSPost2010Prop40
 90
        0
102
RTVSPost2010PropOp40
 70
     1
102
RTVSPost2010Prop41ColorIndex
 90
       18
102
RTVSPost2010Prop41ColorRGB
 90
        0
102
RTVSPost2010PropOp41
 70
     1
102
RTVSPost2010Prop42
 90
       50
102
RTVSPost2010PropOp42
 70
     1
102
RTVSPost2010Prop43
 90
        3
102
RTVSPost2010PropOp43
 70
     1
102
RTVSPost2010Prop44ColorIndex
 90
        5
102
RTVSPost2010Prop44ColorRGB
 90
      255
102
RTVSPost2010PropOp44
 70
     1
102
RTVSPost2010Prop45
280
     0
102
RTVSPost2010PropOp45
 70
     1
102
RTVSPost2010Prop46
 90
       50
102
RTVSPost2010PropOp46
 70
     1
102
RTVSPost2010Prop47
 90
       50
102
RTVSPost2010PropOp47
 70
     1
102
RTVSPost2010Prop48
 90
       50
102
RTVSPost2010PropOp48
 70
     1
102
RTVSPost2010Prop49
280
     0
102
RTVSPost2010PropOp49
 70
     1
102
RTVSPost2010Prop50
 90
       50
102
RTVSPost2010PropOp50
 70
     1
102
RTVSPost2010Prop51ColorIndex
 90
      256
102
RTVSPost2010Prop51ColorRGB
 90
-16777216
102
RTVSPost2010PropOp51
 70
     0
102
RTVSPost2010Prop52
140
1.0
102
RTVSPost2010PropOp52
 70
     0
102
RTVSPost2010Prop53
 90
        2
102
RTVSPost2010PropOp53
 70
     1
102
RTVSPost2010Prop54
  1
strokes_ogs.tif
102
RTVSPost2010PropOp54
 70
     1
102
RTVSPost2010Prop55
280
     0
102
RTVSPost2010PropOp55
 70
     1
102
RTVSPost2010Prop56
140
1.0
102
RTVSPost2010PropOp56
 70
     1
102
RTVSPost2010Prop57
140
1.0
102
RTVSPost2010PropOp57
 70
     1
  0
XRECORD
  5
736
102
{ACAD_REACTORS
330
735
102
}
330
735
100
AcDbXrecord
280
     1
102
RTVSPropertyOp0
 70
     1
102
RTVSPropertyOp1
 70
     1
102
RTVSPropertyOp2
 70
     1
102
RTVSPropertyOp3
 70
     1
102
RTVSPropertyOp4
 70
     1
102
RTVSPropertyOp5
 70
     1
102
RTVSPropertyOp6
 70
     1
102
RTVSPropertyOp7
 70
     1
102
RTVSPropertyOp8
 70
     1
102
RTVSPropertyOp9
 70
     1
102
RTVSPropertyOp10
 70
     1
102
RTVSPropertyOp11
 70
     1
102
RTVSPropertyOp12
 70
     1
102
RTVSPropertyOp13
 70
     1
102
RTVSPropertyOp14
 70
     1
102
RTVSPropertyOp15
 70
     1
102
RTVSPropertyOp16
 70
     1
102
RTVSPropertyOp17
 70
     1
102
RTVSPropertyOp18
 70
     1
102
RTVSPropertyOp19
 70
     1
102
RTVSPropertyOp20
 70
     1
102
RTVSPropertyOp21
 70
     1
102
RTVSPropertyOp22
 70
     1
102
RTVSPropertyOp23
 70
     1
102
RTVSPropertyOp24
 70
     1
102
RTVSPropertyOp25
 70
     1
102
RTVSPropertyOp26
 70
     1
102
RTVSPropertyOp27
 70
     1
102
RTVSPropertyOp28
 70
     1
102
RTVSPropertyOp29
 70
     1
102
RTVSPropertyOp30
 70
     1
102
RTVSPropertyOp31
 70
     1
102
RTVSPropertyOp32
 70
     1
102
RTVSPropertyOp33
 70
     1
102
RTVSPropertyOp34
 70
     1
102
RTVSPropertyOp35
 70
     1
102
RTVSPropertyOp36
 70
     1
102
RTVSPropertyOp37
 70
     1
102
RTVSPropertyOp38
 70
     1
102
RTVSPropertyOp39
 70
     1
102
RTVSPropertyOp40
 70
     1
102
RTVSPropertyOp41
 70
     1
102
RTVSPropertyOp42
 70
     1
102
RTVSPropertyOp43
 70
     1
102
RTVSPropertyOp44
 70
     1
102
RTVSPropertyOp45
 70
     1
102
RTVSPropertyOp46
 70
     1
102
RTVSPropertyOp47
 70
     1
102
RTVSPropertyOp48
 70
     1
102
RTVSPropertyOp49
 70
     1
102
RTVSPropertyOp50
 70
     1
102
RTVSPropertyOp51
 70
     0
102
RTVSPropertyOp52
 70
     0
102
RTVSPropertyOp53
 70
     1
102
RTVSPropertyOp54
 70
     1
102
RTVSPropertyOp55
 70
     1
102
RTVSPropertyOp56
 70
     1
102
RTVSPropertyOp57
 70
     1
102
RTVSPost2010Prop28
280
     0
102
RTVSPost2010PropOp28
 70
     1
102
RTVSPost2010Prop29
280
     1
102
RTVSPost2010PropOp29
 70
     1
102
RTVSPost2010Prop30
280
     1
102
RTVSPost2010PropOp30
 70
     1
102
RTVSPost2010Prop31
280
     0
102
RTVSPost2010PropOp31
 70
     1
102
RTVSPost2010Prop32
280
     0
102
RTVSPost2010PropOp32
 70
     1
102
RTVSPost2010Prop33
280
     0
102
RTVSPost2010PropOp33
 70
     1
102
RTVSPost2010Prop34
280
     0
102
RTVSPost2010PropOp34
 70
     1
102
RTVSPost2010Prop35
280
     0
102
RTVSPost2010PropOp35
 70
     1
102
RTVSPost2010Prop36
280
     0
102
RTVSPost2010PropOp36
 70
     1
102
RTVSPost2010Prop37
 90
       50
102
RTVSPost2010PropOp37
 70
     1
102
RTVSPost2010Prop38
140
0.0
102
RTVSPost2010PropOp38
 70
     1
102
RTVSPost2010Prop39
140
1.0
102
RTVSPost2010PropOp39
 70
     1
102
RTVSPost2010Prop40
 90
        0
102
RTVSPost2010PropOp40
 70
     1
102
RTVSPost2010Prop41ColorIndex
 90
       18
102
RTVSPost2010Prop41ColorRGB
 90
        0
102
RTVSPost2010PropOp41
 70
     1
102
RTVSPost2010Prop42
 90
       50
102
RTVSPost2010PropOp42
 70
     1
102
RTVSPost2010Prop43
 90
        3
102
RTVSPost2010PropOp43
 70
     1
102
RTVSPost2010Prop44ColorIndex
 90
        5
102
RTVSPost2010Prop44ColorRGB
 90
      255
102
RTVSPost2010PropOp44
 70
     1
102
RTVSPost2010Prop45
280
     0
102
RTVSPost2010PropOp45
 70
     1
102
RTVSPost2010Prop46
 90
       50
102
RTVSPost2010PropOp46
 70
     1
102
RTVSPost2010Prop47
 90
       50
102
RTVSPost2010PropOp47
 70
     1
102
RTVSPost2010Prop48
 90
       50
102
RTVSPost2010PropOp48
 70
     1
102
RTVSPost2010Prop49
280
     0
102
RTVSPost2010PropOp49
 70
     1
102
RTVSPost2010Prop50
 90
       50
102
RTVSPost2010PropOp50
 70
     1
102
RTVSPost2010Prop51ColorIndex
 90
      256
102
RTVSPost2010Prop51ColorRGB
 90
-16777216
102
RTVSPost2010PropOp51
 70
     0
102
RTVSPost2010Prop52
140
1.0
102
RTVSPost2010PropOp52
 70
     0
102
RTVSPost2010Prop53
 90
        2
102
RTVSPost2010PropOp53
 70
     1
102
RTVSPost2010Prop54
  1
strokes_ogs.tif
102
RTVSPost2010PropOp54
 70
     1
102
RTVSPost2010Prop55
280
     0
102
RTVSPost2010PropOp55
 70
     1
102
RTVSPost2010Prop56
140
1.0
102
RTVSPost2010PropOp56
 70
     1
102
RTVSPost2010Prop57
140
1.0
102
RTVSPost2010PropOp57
 70
     1
  0
XRECORD
  5
738
102
{ACAD_REACTORS
330
737
102
}
330
737
100
AcDbXrecord
280
     1
102
RTVSPropertyOp0
 70
     1
102
RTVSPropertyOp1
 70
     1
102
RTVSPropertyOp2
 70
     1
102
RTVSPropertyOp3
 70
     1
102
RTVSPropertyOp4
 70
     1
102
RTVSPropertyOp5
 70
     1
102
RTVSPropertyOp6
 70
     1
102
RTVSPropertyOp7
 70
     1
102
RTVSPropertyOp8
 70
     1
102
RTVSPropertyOp9
 70
     1
102
RTVSPropertyOp10
 70
     1
102
RTVSPropertyOp11
 70
     1
102
RTVSPropertyOp12
 70
     1
102
RTVSPropertyOp13
 70
     1
102
RTVSPropertyOp14
 70
     1
102
RTVSPropertyOp15
 70
     1
102
RTVSPropertyOp16
 70
     1
102
RTVSPropertyOp17
 70
     1
102
RTVSPropertyOp18
 70
     1
102
RTVSPropertyOp19
 70
     1
102
RTVSPropertyOp20
 70
     1
102
RTVSPropertyOp21
 70
     1
102
RTVSPropertyOp22
 70
     1
102
RTVSPropertyOp23
 70
     1
102
RTVSPropertyOp24
 70
     1
102
RTVSPropertyOp25
 70
     1
102
RTVSPropertyOp26
 70
     1
102
RTVSPropertyOp27
 70
     1
102
RTVSPropertyOp28
 70
     1
102
RTVSPropertyOp29
 70
     1
102
RTVSPropertyOp30
 70
     1
102
RTVSPropertyOp31
 70
     1
102
RTVSPropertyOp32
 70
     1
102
RTVSPropertyOp33
 70
     1
102
RTVSPropertyOp34
 70
     1
102
RTVSPropertyOp35
 70
     1
102
RTVSPropertyOp36
 70
     1
102
RTVSPropertyOp37
 70
     1
102
RTVSPropertyOp38
 70
     1
102
RTVSPropertyOp39
 70
     1
102
RTVSPropertyOp40
 70
     1
102
RTVSPropertyOp41
 70
     1
102
RTVSPropertyOp42
 70
     1
102
RTVSPropertyOp43
 70
     1
102
RTVSPropertyOp44
 70
     1
102
RTVSPropertyOp45
 70
     1
102
RTVSPropertyOp46
 70
     1
102
RTVSPropertyOp47
 70
     1
102
RTVSPropertyOp48
 70
     1
102
RTVSPropertyOp49
 70
     1
102
RTVSPropertyOp50
 70
     1
102
RTVSPropertyOp51
 70
     0
102
RTVSPropertyOp52
 70
     0
102
RTVSPropertyOp53
 70
     1
102
RTVSPropertyOp54
 70
     1
102
RTVSPropertyOp55
 70
     1
102
RTVSPropertyOp56
 70
     1
102
RTVSPropertyOp57
 70
     1
102
RTVSPost2010Prop28
280
     0
102
RTVSPost2010PropOp28
 70
     1
102
RTVSPost2010Prop29
280
     1
102
RTVSPost2010PropOp29
 70
     1
102
RTVSPost2010Prop30
280
     1
102
RTVSPost2010PropOp30
 70
     1
102
RTVSPost2010Prop31
280
     0
102
RTVSPost2010PropOp31
 70
     1
102
RTVSPost2010Prop32
280
     0
102
RTVSPost2010PropOp32
 70
     1
102
RTVSPost2010Prop33
280
     0
102
RTVSPost2010PropOp33
 70
     1
102
RTVSPost2010Prop34
280
     0
102
RTVSPost2010PropOp34
 70
     1
102
RTVSPost2010Prop35
280
     0
102
RTVSPost2010PropOp35
 70
     1
102
RTVSPost2010Prop36
280
     0
102
RTVSPost2010PropOp36
 70
     1
102
RTVSPost2010Prop37
 90
       50
102
RTVSPost2010PropOp37
 70
     1
102
RTVSPost2010Prop38
140
0.0
102
RTVSPost2010PropOp38
 70
     1
102
RTVSPost2010Prop39
140
1.0
102
RTVSPost2010PropOp39
 70
     1
102
RTVSPost2010Prop40
 90
        0
102
RTVSPost2010PropOp40
 70
     1
102
RTVSPost2010Prop41ColorIndex
 90
       18
102
RTVSPost2010Prop41ColorRGB
 90
        0
102
RTVSPost2010PropOp41
 70
     1
102
RTVSPost2010Prop42
 90
       50
102
RTVSPost2010PropOp42
 70
     1
102
RTVSPost2010Prop43
 90
        3
102
RTVSPost2010PropOp43
 70
     1
102
RTVSPost2010Prop44ColorIndex
 90
        5
102
RTVSPost2010Prop44ColorRGB
 90
      255
102
RTVSPost2010PropOp44
 70
     1
102
RTVSPost2010Prop45
280
     0
102
RTVSPost2010PropOp45
 70
     1
102
RTVSPost2010Prop46
 90
       50
102
RTVSPost2010PropOp46
 70
     1
102
RTVSPost2010Prop47
 90
       50
102
RTVSPost2010PropOp47
 70
     1
102
RTVSPost2010Prop48
 90
       50
102
RTVSPost2010PropOp48
 70
     1
102
RTVSPost2010Prop49
280
     0
102
RTVSPost2010PropOp49
 70
     1
102
RTVSPost2010Prop50
 90
       50
102
RTVSPost2010PropOp50
 70
     1
102
RTVSPost2010Prop51ColorIndex
 90
      256
102
RTVSPost2010Prop51ColorRGB
 90
-16777216
102
RTVSPost2010PropOp51
 70
     0
102
RTVSPost2010Prop52
140
1.0
102
RTVSPost2010PropOp52
 70
     0
102
RTVSPost2010Prop53
 90
        2
102
RTVSPost2010PropOp53
 70
     1
102
RTVSPost2010Prop54
  1
strokes_ogs.tif
102
RTVSPost2010PropOp54
 70
     1
102
RTVSPost2010Prop55
280
     0
102
RTVSPost2010PropOp55
 70
     1
102
RTVSPost2010Prop56
140
1.0
102
RTVSPost2010PropOp56
 70
     1
102
RTVSPost2010Prop57
140
1.0
102
RTVSPost2010PropOp57
 70
     1
  0
XRECORD
  5
73A
102
{ACAD_REACTORS
330
739
102
}
330
739
100
AcDbXrecord
280
     1
102
RTVSPropertyOp0
 70
     1
102
RTVSPropertyOp1
 70
     1
102
RTVSPropertyOp2
 70
     1
102
RTVSPropertyOp3
 70
     1
102
RTVSPropertyOp4
 70
     1
102
RTVSPropertyOp5
 70
     1
102
RTVSPropertyOp6
 70
     1
102
RTVSPropertyOp7
 70
     1
102
RTVSPropertyOp8
 70
     1
102
RTVSPropertyOp9
 70
     1
102
RTVSPropertyOp10
 70
     1
102
RTVSPropertyOp11
 70
     1
102
RTVSPropertyOp12
 70
     1
102
RTVSPropertyOp13
 70
     1
102
RTVSPropertyOp14
 70
     1
102
RTVSPropertyOp15
 70
     1
102
RTVSPropertyOp16
 70
     1
102
RTVSPropertyOp17
 70
     1
102
RTVSPropertyOp18
 70
     1
102
RTVSPropertyOp19
 70
     1
102
RTVSPropertyOp20
 70
     1
102
RTVSPropertyOp21
 70
     1
102
RTVSPropertyOp22
 70
     1
102
RTVSPropertyOp23
 70
     1
102
RTVSPropertyOp24
 70
     1
102
RTVSPropertyOp25
 70
     1
102
RTVSPropertyOp26
 70
     1
102
RTVSPropertyOp27
 70
     1
102
RTVSPropertyOp28
 70
     1
102
RTVSPropertyOp29
 70
     1
102
RTVSPropertyOp30
 70
     1
102
RTVSPropertyOp31
 70
     1
102
RTVSPropertyOp32
 70
     1
102
RTVSPropertyOp33
 70
     1
102
RTVSPropertyOp34
 70
     1
102
RTVSPropertyOp35
 70
     1
102
RTVSPropertyOp36
 70
     1
102
RTVSPropertyOp37
 70
     1
102
RTVSPropertyOp38
 70
     1
102
RTVSPropertyOp39
 70
     1
102
RTVSPropertyOp40
 70
     1
102
RTVSPropertyOp41
 70
     1
102
RTVSPropertyOp42
 70
     1
102
RTVSPropertyOp43
 70
     1
102
RTVSPropertyOp44
 70
     1
102
RTVSPropertyOp45
 70
     1
102
RTVSPropertyOp46
 70
     1
102
RTVSPropertyOp47
 70
     1
102
RTVSPropertyOp48
 70
     1
102
RTVSPropertyOp49
 70
     1
102
RTVSPropertyOp50
 70
     1
102
RTVSPropertyOp51
 70
     0
102
RTVSPropertyOp52
 70
     0
102
RTVSPropertyOp53
 70
     1
102
RTVSPropertyOp54
 70
     1
102
RTVSPropertyOp55
 70
     1
102
RTVSPropertyOp56
 70
     1
102
RTVSPropertyOp57
 70
     1
102
RTVSPost2010Prop28
280
     0
102
RTVSPost2010PropOp28
 70
     1
102
RTVSPost2010Prop29
280
     1
102
RTVSPost2010PropOp29
 70
     1
102
RTVSPost2010Prop30
280
     1
102
RTVSPost2010PropOp30
 70
     1
102
RTVSPost2010Prop31
280
     0
102
RTVSPost2010PropOp31
 70
     1
102
RTVSPost2010Prop32
280
     0
102
RTVSPost2010PropOp32
 70
     1
102
RTVSPost2010Prop33
280
     0
102
RTVSPost2010PropOp33
 70
     1
102
RTVSPost2010Prop34
280
     0
102
RTVSPost2010PropOp34
 70
     1
102
RTVSPost2010Prop35
280
     0
102
RTVSPost2010PropOp35
 70
     1
102
RTVSPost2010Prop36
280
     0
102
RTVSPost2010PropOp36
 70
     1
102
RTVSPost2010Prop37
 90
       50
102
RTVSPost2010PropOp37
 70
     1
102
RTVSPost2010Prop38
140
0.0
102
RTVSPost2010PropOp38
 70
     1
102
RTVSPost2010Prop39
140
1.0
102
RTVSPost2010PropOp39
 70
     1
102
RTVSPost2010Prop40
 90
        0
102
RTVSPost2010PropOp40
 70
     1
102
RTVSPost2010Prop41ColorIndex
 90
       18
102
RTVSPost2010Prop41ColorRGB
 90
        0
102
RTVSPost2010PropOp41
 70
     1
102
RTVSPost2010Prop42
 90
       50
102
RTVSPost2010PropOp42
 70
     1
102
RTVSPost2010Prop43
 90
        3
102
RTVSPost2010PropOp43
 70
     1
102
RTVSPost2010Prop44ColorIndex
 90
        5
102
RTVSPost2010Prop44ColorRGB
 90
      255
102
RTVSPost2010PropOp44
 70
     1
102
RTVSPost2010Prop45
280
     0
102
RTVSPost2010PropOp45
 70
     1
102
RTVSPost2010Prop46
 90
       50
102
RTVSPost2010PropOp46
 70
     1
102
RTVSPost2010Prop47
 90
       50
102
RTVSPost2010PropOp47
 70
     1
102
RTVSPost2010Prop48
 90
       50
102
RTVSPost2010PropOp48
 70
     1
102
RTVSPost2010Prop49
280
     0
102
RTVSPost2010PropOp49
 70
     1
102
RTVSPost2010Prop50
 90
       50
102
RTVSPost2010PropOp50
 70
     1
102
RTVSPost2010Prop51ColorIndex
 90
      256
102
RTVSPost2010Prop51ColorRGB
 90
-16777216
102
RTVSPost2010PropOp51
 70
     0
102
RTVSPost2010Prop52
140
1.0
102
RTVSPost2010PropOp52
 70
     0
102
RTVSPost2010Prop53
 90
        2
102
RTVSPost2010PropOp53
 70
     1
102
RTVSPost2010Prop54
  1
strokes_ogs.tif
102
RTVSPost2010PropOp54
 70
     1
102
RTVSPost2010Prop55
280
     0
102
RTVSPost2010PropOp55
 70
     1
102
RTVSPost2010Prop56
140
1.0
102
RTVSPost2010PropOp56
 70
     1
102
RTVSPost2010Prop57
140
1.0
102
RTVSPost2010PropOp57
 70
     1
  0
XRECORD
  5
740
102
{ACAD_REACTORS
330
73F
102
}
330
73F
100
AcDbXrecord
280
     1
102
RTVSPropertyOp0
 70
     1
102
RTVSPropertyOp1
 70
     1
102
RTVSPropertyOp2
 70
     1
102
RTVSPropertyOp3
 70
     1
102
RTVSPropertyOp4
 70
     1
102
RTVSPropertyOp5
 70
     1
102
RTVSPropertyOp6
 70
     1
102
RTVSPropertyOp7
 70
     1
102
RTVSPropertyOp8
 70
     1
102
RTVSPropertyOp9
 70
     1
102
RTVSPropertyOp10
 70
     1
102
RTVSPropertyOp11
 70
     1
102
RTVSPropertyOp12
 70
     1
102
RTVSPropertyOp13
 70
     1
102
RTVSPropertyOp14
 70
     1
102
RTVSPropertyOp15
 70
     1
102
RTVSPropertyOp16
 70
     1
102
RTVSPropertyOp17
 70
     1
102
RTVSPropertyOp18
 70
     1
102
RTVSPropertyOp19
 70
     1
102
RTVSPropertyOp20
 70
     1
102
RTVSPropertyOp21
 70
     1
102
RTVSPropertyOp22
 70
     1
102
RTVSPropertyOp23
 70
     1
102
RTVSPropertyOp24
 70
     1
102
RTVSPropertyOp25
 70
     1
102
RTVSPropertyOp26
 70
     1
102
RTVSPropertyOp27
 70
     1
102
RTVSPropertyOp28
 70
     1
102
RTVSPropertyOp29
 70
     1
102
RTVSPropertyOp30
 70
     1
102
RTVSPropertyOp31
 70
     1
102
RTVSPropertyOp32
 70
     1
102
RTVSPropertyOp33
 70
     1
102
RTVSPropertyOp34
 70
     1
102
RTVSPropertyOp35
 70
     1
102
RTVSPropertyOp36
 70
     1
102
RTVSPropertyOp37
 70
     1
102
RTVSPropertyOp38
 70
     1
102
RTVSPropertyOp39
 70
     1
102
RTVSPropertyOp40
 70
     1
102
RTVSPropertyOp41
 70
     1
102
RTVSPropertyOp42
 70
     1
102
RTVSPropertyOp43
 70
     1
102
RTVSPropertyOp44
 70
     1
102
RTVSPropertyOp45
 70
     1
102
RTVSPropertyOp46
 70
     1
102
RTVSPropertyOp47
 70
     1
102
RTVSPropertyOp48
 70
     1
102
RTVSPropertyOp49
 70
     1
102
RTVSPropertyOp50
 70
     1
102
RTVSPropertyOp51
 70
     0
102
RTVSPropertyOp52
 70
     0
102
RTVSPropertyOp53
 70
     1
102
RTVSPropertyOp54
 70
     1
102
RTVSPropertyOp55
 70
     1
102
RTVSPropertyOp56
 70
     1
102
RTVSPropertyOp57
 70
     1
102
RTVSPost2010Prop28
280
     0
102
RTVSPost2010PropOp28
 70
     1
102
RTVSPost2010Prop29
280
     1
102
RTVSPost2010PropOp29
 70
     1
102
RTVSPost2010Prop30
280
     1
102
RTVSPost2010PropOp30
 70
     1
102
RTVSPost2010Prop31
280
     0
102
RTVSPost2010PropOp31
 70
     1
102
RTVSPost2010Prop32
280
     0
102
RTVSPost2010PropOp32
 70
     1
102
RTVSPost2010Prop33
280
     0
102
RTVSPost2010PropOp33
 70
     1
102
RTVSPost2010Prop34
280
     0
102
RTVSPost2010PropOp34
 70
     1
102
RTVSPost2010Prop35
280
     0
102
RTVSPost2010PropOp35
 70
     1
102
RTVSPost2010Prop36
280
     0
102
RTVSPost2010PropOp36
 70
     1
102
RTVSPost2010Prop37
 90
       50
102
RTVSPost2010PropOp37
 70
     1
102
RTVSPost2010Prop38
140
0.0
102
RTVSPost2010PropOp38
 70
     1
102
RTVSPost2010Prop39
140
1.0
102
RTVSPost2010PropOp39
 70
     1
102
RTVSPost2010Prop40
 90
        0
102
RTVSPost2010PropOp40
 70
     1
102
RTVSPost2010Prop41ColorIndex
 90
       18
102
RTVSPost2010Prop41ColorRGB
 90
        0
102
RTVSPost2010PropOp41
 70
     1
102
RTVSPost2010Prop42
 90
       50
102
RTVSPost2010PropOp42
 70
     1
102
RTVSPost2010Prop43
 90
        3
102
RTVSPost2010PropOp43
 70
     1
102
RTVSPost2010Prop44ColorIndex
 90
        5
102
RTVSPost2010Prop44ColorRGB
 90
      255
102
RTVSPost2010PropOp44
 70
     1
102
RTVSPost2010Prop45
280
     0
102
RTVSPost2010PropOp45
 70
     1
102
RTVSPost2010Prop46
 90
       50
102
RTVSPost2010PropOp46
 70
     1
102
RTVSPost2010Prop47
 90
       50
102
RTVSPost2010PropOp47
 70
     1
102
RTVSPost2010Prop48
 90
       50
102
RTVSPost2010PropOp48
 70
     1
102
RTVSPost2010Prop49
280
     0
102
RTVSPost2010PropOp49
 70
     1
102
RTVSPost2010Prop50
 90
       50
102
RTVSPost2010PropOp50
 70
     1
102
RTVSPost2010Prop51ColorIndex
 90
      256
102
RTVSPost2010Prop51ColorRGB
 90
-16777216
102
RTVSPost2010PropOp51
 70
     0
102
RTVSPost2010Prop52
140
1.0
102
RTVSPost2010PropOp52
 70
     0
102
RTVSPost2010Prop53
 90
        2
102
RTVSPost2010PropOp53
 70
     1
102
RTVSPost2010Prop54
  1
strokes_ogs.tif
102
RTVSPost2010PropOp54
 70
     1
102
RTVSPost2010Prop55
280
     0
102
RTVSPost2010PropOp55
 70
     1
102
RTVSPost2010Prop56
140
1.0
102
RTVSPost2010PropOp56
 70
     1
102
RTVSPost2010Prop57
140
1.0
102
RTVSPost2010PropOp57
 70
     1
  0
XRECORD
  5
754
102
{ACAD_REACTORS
330
753
102
}
330
753
100
AcDbXrecord
280
     1
102
RTVSPropertyOp0
 70
     0
102
RTVSPropertyOp1
 70
     0
102
RTVSPropertyOp2
 70
     0
102
RTVSPropertyOp3
 70
     0
102
RTVSPropertyOp4
 70
     0
102
RTVSPropertyOp5
 70
     0
102
RTVSPropertyOp6
 70
     0
102
RTVSPropertyOp7
 70
     0
102
RTVSPropertyOp8
 70
     0
102
RTVSPropertyOp9
 70
     0
102
RTVSPropertyOp10
 70
     0
102
RTVSPropertyOp11
 70
     0
102
RTVSPropertyOp12
 70
     0
102
RTVSPropertyOp13
 70
     0
102
RTVSPropertyOp14
 70
     0
102
RTVSPropertyOp15
 70
     0
102
RTVSPropertyOp16
 70
     0
102
RTVSPropertyOp17
 70
     0
102
RTVSPropertyOp18
 70
     0
102
RTVSPropertyOp19
 70
     0
102
RTVSPropertyOp20
 70
     0
102
RTVSPropertyOp21
 70
     0
102
RTVSPropertyOp22
 70
     0
102
RTVSPropertyOp23
 70
     0
102
RTVSPropertyOp24
 70
     0
102
RTVSPropertyOp25
 70
     0
102
RTVSPropertyOp26
 70
     0
102
RTVSPropertyOp27
 70
     0
102
RTVSPropertyOp28
 70
     1
102
RTVSPropertyOp29
 70
     1
102
RTVSPropertyOp30
 70
     1
102
RTVSPropertyOp31
 70
     1
102
RTVSPropertyOp32
 70
     1
102
RTVSPropertyOp33
 70
     1
102
RTVSPropertyOp34
 70
     1
102
RTVSPropertyOp35
 70
     1
102
RTVSPropertyOp36
 70
     1
102
RTVSPropertyOp37
 70
     1
102
RTVSPropertyOp38
 70
     1
102
RTVSPropertyOp39
 70
     1
102
RTVSPropertyOp40
 70
     1
102
RTVSPropertyOp41
 70
     1
102
RTVSPropertyOp42
 70
     1
102
RTVSPropertyOp43
 70
     1
102
RTVSPropertyOp44
 70
     1
102
RTVSPropertyOp45
 70
     1
102
RTVSPropertyOp46
 70
     1
102
RTVSPropertyOp47
 70
     1
102
RTVSPropertyOp48
 70
     1
102
RTVSPropertyOp49
 70
     1
102
RTVSPropertyOp50
 70
     1
102
RTVSPropertyOp51
 70
     0
102
RTVSPropertyOp52
 70
     0
102
RTVSPropertyOp53
 70
     1
102
RTVSPropertyOp54
 70
     1
102
RTVSPropertyOp55
 70
     1
102
RTVSPropertyOp56
 70
     1
102
RTVSPropertyOp57
 70
     1
102
RTVSPost2010Prop28
280
     0
102
RTVSPost2010PropOp28
 70
     1
102
RTVSPost2010Prop29
280
     1
102
RTVSPost2010PropOp29
 70
     1
102
RTVSPost2010Prop30
280
     1
102
RTVSPost2010PropOp30
 70
     1
102
RTVSPost2010Prop31
280
     0
102
RTVSPost2010PropOp31
 70
     1
102
RTVSPost2010Prop32
280
     0
102
RTVSPost2010PropOp32
 70
     1
102
RTVSPost2010Prop33
280
     0
102
RTVSPost2010PropOp33
 70
     1
102
RTVSPost2010Prop34
280
     0
102
RTVSPost2010PropOp34
 70
     1
102
RTVSPost2010Prop35
280
     0
102
RTVSPost2010PropOp35
 70
     1
102
RTVSPost2010Prop36
280
     0
102
RTVSPost2010PropOp36
 70
     1
102
RTVSPost2010Prop37
 90
       50
102
RTVSPost2010PropOp37
 70
     1
102
RTVSPost2010Prop38
140
0.0
102
RTVSPost2010PropOp38
 70
     1
102
RTVSPost2010Prop39
140
1.0
102
RTVSPost2010PropOp39
 70
     1
102
RTVSPost2010Prop40
 90
        0
102
RTVSPost2010PropOp40
 70
     1
102
RTVSPost2010Prop41ColorIndex
 90
       18
102
RTVSPost2010Prop41ColorRGB
 90
        0
102
RTVSPost2010PropOp41
 70
     1
102
RTVSPost2010Prop42
 90
       50
102
RTVSPost2010PropOp42
 70
     1
102
RTVSPost2010Prop43
 90
        3
102
RTVSPost2010PropOp43
 70
     1
102
RTVSPost2010Prop44ColorIndex
 90
        5
102
RTVSPost2010Prop44ColorRGB
 90
      255
102
RTVSPost2010PropOp44
 70
     1
102
RTVSPost2010Prop45
280
     0
102
RTVSPost2010PropOp45
 70
     1
102
RTVSPost2010Prop46
 90
       50
102
RTVSPost2010PropOp46
 70
     1
102
RTVSPost2010Prop47
 90
       50
102
RTVSPost2010PropOp47
 70
     1
102
RTVSPost2010Prop48
 90
       50
102
RTVSPost2010PropOp48
 70
     1
102
RTVSPost2010Prop49
280
     0
102
RTVSPost2010PropOp49
 70
     1
102
RTVSPost2010Prop50
 90
       50
102
RTVSPost2010PropOp50
 70
     1
102
RTVSPost2010Prop51ColorIndex
 90
      256
102
RTVSPost2010Prop51ColorRGB
 90
-16777216
102
RTVSPost2010PropOp51
 70
     0
102
RTVSPost2010Prop52
140
1.0
102
RTVSPost2010PropOp52
 70
     0
102
RTVSPost2010Prop53
 90
        2
102
RTVSPost2010PropOp53
 70
     1
102
RTVSPost2010Prop54
  1
strokes_ogs.tif
102
RTVSPost2010PropOp54
 70
     1
102
RTVSPost2010Prop55
280
     0
102
RTVSPost2010PropOp55
 70
     1
102
RTVSPost2010Prop56
140
1.0
102
RTVSPost2010PropOp56
 70
     1
102
RTVSPost2010Prop57
140
1.0
102
RTVSPost2010PropOp57
 70
     1
  0
XRECORD
  5
74E
102
{ACAD_REACTORS
330
74D
102
}
330
74D
100
AcDbXrecord
280
     1
102
RTVSPropertyOp0
 70
     1
102
RTVSPropertyOp1
 70
     1
102
RTVSPropertyOp2
 70
     1
102
RTVSPropertyOp3
 70
     1
102
RTVSPropertyOp4
 70
     1
102
RTVSPropertyOp5
 70
     1
102
RTVSPropertyOp6
 70
     1
102
RTVSPropertyOp7
 70
     1
102
RTVSPropertyOp8
 70
     1
102
RTVSPropertyOp9
 70
     1
102
RTVSPropertyOp10
 70
     1
102
RTVSPropertyOp11
 70
     1
102
RTVSPropertyOp12
 70
     1
102
RTVSPropertyOp13
 70
     1
102
RTVSPropertyOp14
 70
     1
102
RTVSPropertyOp15
 70
     1
102
RTVSPropertyOp16
 70
     1
102
RTVSPropertyOp17
 70
     1
102
RTVSPropertyOp18
 70
     1
102
RTVSPropertyOp19
 70
     1
102
RTVSPropertyOp20
 70
     1
102
RTVSPropertyOp21
 70
     1
102
RTVSPropertyOp22
 70
     1
102
RTVSPropertyOp23
 70
     1
102
RTVSPropertyOp24
 70
     1
102
RTVSPropertyOp25
 70
     1
102
RTVSPropertyOp26
 70
     1
102
RTVSPropertyOp27
 70
     1
102
RTVSPropertyOp28
 70
     1
102
RTVSPropertyOp29
 70
     1
102
RTVSPropertyOp30
 70
     1
102
RTVSPropertyOp31
 70
     1
102
RTVSPropertyOp32
 70
     1
102
RTVSPropertyOp33
 70
     1
102
RTVSPropertyOp34
 70
     1
102
RTVSPropertyOp35
 70
     1
102
RTVSPropertyOp36
 70
     1
102
RTVSPropertyOp37
 70
     1
102
RTVSPropertyOp38
 70
     1
102
RTVSPropertyOp39
 70
     1
102
RTVSPropertyOp40
 70
     1
102
RTVSPropertyOp41
 70
     1
102
RTVSPropertyOp42
 70
     1
102
RTVSPropertyOp43
 70
     1
102
RTVSPropertyOp44
 70
     1
102
RTVSPropertyOp45
 70
     1
102
RTVSPropertyOp46
 70
     1
102
RTVSPropertyOp47
 70
     1
102
RTVSPropertyOp48
 70
     1
102
RTVSPropertyOp49
 70
     1
102
RTVSPropertyOp50
 70
     1
102
RTVSPropertyOp51
 70
     0
102
RTVSPropertyOp52
 70
     0
102
RTVSPropertyOp53
 70
     1
102
RTVSPropertyOp54
 70
     1
102
RTVSPropertyOp55
 70
     1
102
RTVSPropertyOp56
 70
     1
102
RTVSPropertyOp57
 70
     1
102
RTVSPost2010Prop28
280
     0
102
RTVSPost2010PropOp28
 70
     1
102
RTVSPost2010Prop29
280
     1
102
RTVSPost2010PropOp29
 70
     1
102
RTVSPost2010Prop30
280
     1
102
RTVSPost2010PropOp30
 70
     1
102
RTVSPost2010Prop31
280
     0
102
RTVSPost2010PropOp31
 70
     1
102
RTVSPost2010Prop32
280
     0
102
RTVSPost2010PropOp32
 70
     1
102
RTVSPost2010Prop33
280
     0
102
RTVSPost2010PropOp33
 70
     1
102
RTVSPost2010Prop34
280
     0
102
RTVSPost2010PropOp34
 70
     1
102
RTVSPost2010Prop35
280
     0
102
RTVSPost2010PropOp35
 70
     1
102
RTVSPost2010Prop36
280
     0
102
RTVSPost2010PropOp36
 70
     1
102
RTVSPost2010Prop37
 90
       50
102
RTVSPost2010PropOp37
 70
     1
102
RTVSPost2010Prop38
140
0.0
102
RTVSPost2010PropOp38
 70
     1
102
RTVSPost2010Prop39
140
1.0
102
RTVSPost2010PropOp39
 70
     1
102
RTVSPost2010Prop40
 90
        0
102
RTVSPost2010PropOp40
 70
     1
102
RTVSPost2010Prop41ColorIndex
 90
       18
102
RTVSPost2010Prop41ColorRGB
 90
        0
102
RTVSPost2010PropOp41
 70
     1
102
RTVSPost2010Prop42
 90
       50
102
RTVSPost2010PropOp42
 70
     1
102
RTVSPost2010Prop43
 90
        3
102
RTVSPost2010PropOp43
 70
     1
102
RTVSPost2010Prop44ColorIndex
 90
        5
102
RTVSPost2010Prop44ColorRGB
 90
      255
102
RTVSPost2010PropOp44
 70
     1
102
RTVSPost2010Prop45
280
     0
102
RTVSPost2010PropOp45
 70
     1
102
RTVSPost2010Prop46
 90
       50
102
RTVSPost2010PropOp46
 70
     1
102
RTVSPost2010Prop47
 90
       50
102
RTVSPost2010PropOp47
 70
     1
102
RTVSPost2010Prop48
 90
       50
102
RTVSPost2010PropOp48
 70
     1
102
RTVSPost2010Prop49
280
     0
102
RTVSPost2010PropOp49
 70
     1
102
RTVSPost2010Prop50
 90
       50
102
RTVSPost2010PropOp50
 70
     1
102
RTVSPost2010Prop51ColorIndex
 90
      256
102
RTVSPost2010Prop51ColorRGB
 90
-16777216
102
RTVSPost2010PropOp51
 70
     0
102
RTVSPost2010Prop52
140
1.0
102
RTVSPost2010PropOp52
 70
     0
102
RTVSPost2010Prop53
 90
        2
102
RTVSPost2010PropOp53
 70
     1
102
RTVSPost2010Prop54
  1
strokes_ogs.tif
102
RTVSPost2010PropOp54
 70
     1
102
RTVSPost2010Prop55
280
     0
102
RTVSPost2010PropOp55
 70
     1
102
RTVSPost2010Prop56
140
1.0
102
RTVSPost2010PropOp56
 70
     1
102
RTVSPost2010Prop57
140
1.0
102
RTVSPost2010PropOp57
 70
     1
  0
XRECORD
  5
756
102
{ACAD_REACTORS
330
755
102
}
330
755
100
AcDbXrecord
280
     1
102
RTVSPropertyOp0
 70
     0
102
RTVSPropertyOp1
 70
     0
102
RTVSPropertyOp2
 70
     0
102
RTVSPropertyOp3
 70
     0
102
RTVSPropertyOp4
 70
     0
102
RTVSPropertyOp5
 70
     0
102
RTVSPropertyOp6
 70
     0
102
RTVSPropertyOp7
 70
     0
102
RTVSPropertyOp8
 70
     0
102
RTVSPropertyOp9
 70
     0
102
RTVSPropertyOp10
 70
     0
102
RTVSPropertyOp11
 70
     0
102
RTVSPropertyOp12
 70
     0
102
RTVSPropertyOp13
 70
     0
102
RTVSPropertyOp14
 70
     0
102
RTVSPropertyOp15
 70
     0
102
RTVSPropertyOp16
 70
     0
102
RTVSPropertyOp17
 70
     0
102
RTVSPropertyOp18
 70
     0
102
RTVSPropertyOp19
 70
     0
102
RTVSPropertyOp20
 70
     0
102
RTVSPropertyOp21
 70
     0
102
RTVSPropertyOp22
 70
     0
102
RTVSPropertyOp23
 70
     0
102
RTVSPropertyOp24
 70
     0
102
RTVSPropertyOp25
 70
     0
102
RTVSPropertyOp26
 70
     0
102
RTVSPropertyOp27
 70
     0
102
RTVSPropertyOp28
 70
     1
102
RTVSPropertyOp29
 70
     1
102
RTVSPropertyOp30
 70
     1
102
RTVSPropertyOp31
 70
     1
102
RTVSPropertyOp32
 70
     1
102
RTVSPropertyOp33
 70
     1
102
RTVSPropertyOp34
 70
     1
102
RTVSPropertyOp35
 70
     1
102
RTVSPropertyOp36
 70
     1
102
RTVSPropertyOp37
 70
     1
102
RTVSPropertyOp38
 70
     1
102
RTVSPropertyOp39
 70
     1
102
RTVSPropertyOp40
 70
     1
102
RTVSPropertyOp41
 70
     1
102
RTVSPropertyOp42
 70
     1
102
RTVSPropertyOp43
 70
     1
102
RTVSPropertyOp44
 70
     1
102
RTVSPropertyOp45
 70
     1
102
RTVSPropertyOp46
 70
     1
102
RTVSPropertyOp47
 70
     1
102
RTVSPropertyOp48
 70
     1
102
RTVSPropertyOp49
 70
     1
102
RTVSPropertyOp50
 70
     1
102
RTVSPropertyOp51
 70
     0
102
RTVSPropertyOp52
 70
     0
102
RTVSPropertyOp53
 70
     1
102
RTVSPropertyOp54
 70
     1
102
RTVSPropertyOp55
 70
     1
102
RTVSPropertyOp56
 70
     1
102
RTVSPropertyOp57
 70
     1
102
RTVSPost2010Prop28
280
     0
102
RTVSPost2010PropOp28
 70
     1
102
RTVSPost2010Prop29
280
     1
102
RTVSPost2010PropOp29
 70
     1
102
RTVSPost2010Prop30
280
     1
102
RTVSPost2010PropOp30
 70
     1
102
RTVSPost2010Prop31
280
     0
102
RTVSPost2010PropOp31
 70
     1
102
RTVSPost2010Prop32
280
     0
102
RTVSPost2010PropOp32
 70
     1
102
RTVSPost2010Prop33
280
     0
102
RTVSPost2010PropOp33
 70
     1
102
RTVSPost2010Prop34
280
     0
102
RTVSPost2010PropOp34
 70
     1
102
RTVSPost2010Prop35
280
     0
102
RTVSPost2010PropOp35
 70
     1
102
RTVSPost2010Prop36
280
     0
102
RTVSPost2010PropOp36
 70
     1
102
RTVSPost2010Prop37
 90
       50
102
RTVSPost2010PropOp37
 70
     1
102
RTVSPost2010Prop38
140
0.0
102
RTVSPost2010PropOp38
 70
     1
102
RTVSPost2010Prop39
140
1.0
102
RTVSPost2010PropOp39
 70
     1
102
RTVSPost2010Prop40
 90
        0
102
RTVSPost2010PropOp40
 70
     1
102
RTVSPost2010Prop41ColorIndex
 90
       18
102
RTVSPost2010Prop41ColorRGB
 90
        0
102
RTVSPost2010PropOp41
 70
     1
102
RTVSPost2010Prop42
 90
       50
102
RTVSPost2010PropOp42
 70
     1
102
RTVSPost2010Prop43
 90
        3
102
RTVSPost2010PropOp43
 70
     1
102
RTVSPost2010Prop44ColorIndex
 90
        5
102
RTVSPost2010Prop44ColorRGB
 90
      255
102
RTVSPost2010PropOp44
 70
     1
102
RTVSPost2010Prop45
280
     0
102
RTVSPost2010PropOp45
 70
     1
102
RTVSPost2010Prop46
 90
       50
102
RTVSPost2010PropOp46
 70
     1
102
RTVSPost2010Prop47
 90
       50
102
RTVSPost2010PropOp47
 70
     1
102
RTVSPost2010Prop48
 90
       50
102
RTVSPost2010PropOp48
 70
     1
102
RTVSPost2010Prop49
280
     0
102
RTVSPost2010PropOp49
 70
     1
102
RTVSPost2010Prop50
 90
       50
102
RTVSPost2010PropOp50
 70
     1
102
RTVSPost2010Prop51ColorIndex
 90
      256
102
RTVSPost2010Prop51ColorRGB
 90
-16777216
102
RTVSPost2010PropOp51
 70
     0
102
RTVSPost2010Prop52
140
1.0
102
RTVSPost2010PropOp52
 70
     0
102
RTVSPost2010Prop53
 90
        2
102
RTVSPost2010PropOp53
 70
     1
102
RTVSPost2010Prop54
  1
strokes_ogs.tif
102
RTVSPost2010PropOp54
 70
     1
102
RTVSPost2010Prop55
280
     0
102
RTVSPost2010PropOp55
 70
     1
102
RTVSPost2010Prop56
140
1.0
102
RTVSPost2010PropOp56
 70
     1
102
RTVSPost2010Prop57
140
1.0
102
RTVSPost2010PropOp57
 70
     1
  0
XRECORD
  5
744
102
{ACAD_REACTORS
330
743
102
}
330
743
100
AcDbXrecord
280
     1
102
RTVSPropertyOp0
 70
     1
102
RTVSPropertyOp1
 70
     1
102
RTVSPropertyOp2
 70
     1
102
RTVSPropertyOp3
 70
     1
102
RTVSPropertyOp4
 70
     1
102
RTVSPropertyOp5
 70
     1
102
RTVSPropertyOp6
 70
     1
102
RTVSPropertyOp7
 70
     1
102
RTVSPropertyOp8
 70
     1
102
RTVSPropertyOp9
 70
     1
102
RTVSPropertyOp10
 70
     1
102
RTVSPropertyOp11
 70
     1
102
RTVSPropertyOp12
 70
     1
102
RTVSPropertyOp13
 70
     1
102
RTVSPropertyOp14
 70
     1
102
RTVSPropertyOp15
 70
     1
102
RTVSPropertyOp16
 70
     1
102
RTVSPropertyOp17
 70
     1
102
RTVSPropertyOp18
 70
     1
102
RTVSPropertyOp19
 70
     1
102
RTVSPropertyOp20
 70
     1
102
RTVSPropertyOp21
 70
     1
102
RTVSPropertyOp22
 70
     1
102
RTVSPropertyOp23
 70
     1
102
RTVSPropertyOp24
 70
     1
102
RTVSPropertyOp25
 70
     1
102
RTVSPropertyOp26
 70
     1
102
RTVSPropertyOp27
 70
     1
102
RTVSPropertyOp28
 70
     1
102
RTVSPropertyOp29
 70
     1
102
RTVSPropertyOp30
 70
     1
102
RTVSPropertyOp31
 70
     1
102
RTVSPropertyOp32
 70
     1
102
RTVSPropertyOp33
 70
     1
102
RTVSPropertyOp34
 70
     1
102
RTVSPropertyOp35
 70
     1
102
RTVSPropertyOp36
 70
     1
102
RTVSPropertyOp37
 70
     1
102
RTVSPropertyOp38
 70
     1
102
RTVSPropertyOp39
 70
     1
102
RTVSPropertyOp40
 70
     1
102
RTVSPropertyOp41
 70
     1
102
RTVSPropertyOp42
 70
     1
102
RTVSPropertyOp43
 70
     1
102
RTVSPropertyOp44
 70
     1
102
RTVSPropertyOp45
 70
     1
102
RTVSPropertyOp46
 70
     1
102
RTVSPropertyOp47
 70
     1
102
RTVSPropertyOp48
 70
     1
102
RTVSPropertyOp49
 70
     1
102
RTVSPropertyOp50
 70
     1
102
RTVSPropertyOp51
 70
     0
102
RTVSPropertyOp52
 70
     0
102
RTVSPropertyOp53
 70
     1
102
RTVSPropertyOp54
 70
     1
102
RTVSPropertyOp55
 70
     1
102
RTVSPropertyOp56
 70
     1
102
RTVSPropertyOp57
 70
     1
102
RTVSPost2010Prop28
280
     0
102
RTVSPost2010PropOp28
 70
     1
102
RTVSPost2010Prop29
280
     1
102
RTVSPost2010PropOp29
 70
     1
102
RTVSPost2010Prop30
280
     1
102
RTVSPost2010PropOp30
 70
     1
102
RTVSPost2010Prop31
280
     0
102
RTVSPost2010PropOp31
 70
     1
102
RTVSPost2010Prop32
280
     0
102
RTVSPost2010PropOp32
 70
     1
102
RTVSPost2010Prop33
280
     0
102
RTVSPost2010PropOp33
 70
     1
102
RTVSPost2010Prop34
280
     0
102
RTVSPost2010PropOp34
 70
     1
102
RTVSPost2010Prop35
280
     0
102
RTVSPost2010PropOp35
 70
     1
102
RTVSPost2010Prop36
280
     0
102
RTVSPost2010PropOp36
 70
     1
102
RTVSPost2010Prop37
 90
       50
102
RTVSPost2010PropOp37
 70
     1
102
RTVSPost2010Prop38
140
0.0
102
RTVSPost2010PropOp38
 70
     1
102
RTVSPost2010Prop39
140
1.0
102
RTVSPost2010PropOp39
 70
     1
102
RTVSPost2010Prop40
 90
        0
102
RTVSPost2010PropOp40
 70
     1
102
RTVSPost2010Prop41ColorIndex
 90
       18
102
RTVSPost2010Prop41ColorRGB
 90
        0
102
RTVSPost2010PropOp41
 70
     1
102
RTVSPost2010Prop42
 90
       50
102
RTVSPost2010PropOp42
 70
     1
102
RTVSPost2010Prop43
 90
        3
102
RTVSPost2010PropOp43
 70
     1
102
RTVSPost2010Prop44ColorIndex
 90
        5
102
RTVSPost2010Prop44ColorRGB
 90
      255
102
RTVSPost2010PropOp44
 70
     1
102
RTVSPost2010Prop45
280
     0
102
RTVSPost2010PropOp45
 70
     1
102
RTVSPost2010Prop46
 90
       50
102
RTVSPost2010PropOp46
 70
     1
102
RTVSPost2010Prop47
 90
       50
102
RTVSPost2010PropOp47
 70
     1
102
RTVSPost2010Prop48
 90
       50
102
RTVSPost2010PropOp48
 70
     1
102
RTVSPost2010Prop49
280
     0
102
RTVSPost2010PropOp49
 70
     1
102
RTVSPost2010Prop50
 90
       50
102
RTVSPost2010PropOp50
 70
     1
102
RTVSPost2010Prop51ColorIndex
 90
      256
102
RTVSPost2010Prop51ColorRGB
 90
-16777216
102
RTVSPost2010PropOp51
 70
     0
102
RTVSPost2010Prop52
140
1.0
102
RTVSPost2010PropOp52
 70
     0
102
RTVSPost2010Prop53
 90
        2
102
RTVSPost2010PropOp53
 70
     1
102
RTVSPost2010Prop54
  1
strokes_ogs.tif
102
RTVSPost2010PropOp54
 70
     1
102
RTVSPost2010Prop55
280
     0
102
RTVSPost2010PropOp55
 70
     1
102
RTVSPost2010Prop56
140
1.0
102
RTVSPost2010PropOp56
 70
     1
102
RTVSPost2010Prop57
140
1.0
102
RTVSPost2010PropOp57
 70
     1
  0
XRECORD
  5
762
102
{ACAD_REACTORS
330
761
102
}
330
761
100
AcDbXrecord
280
     1
102
RTVSPropertyOp0
 70
     1
102
RTVSPropertyOp1
 70
     1
102
RTVSPropertyOp2
 70
     1
102
RTVSPropertyOp3
 70
     1
102
RTVSPropertyOp4
 70
     1
102
RTVSPropertyOp5
 70
     1
102
RTVSPropertyOp6
 70
     1
102
RTVSPropertyOp7
 70
     1
102
RTVSPropertyOp8
 70
     1
102
RTVSPropertyOp9
 70
     1
102
RTVSPropertyOp10
 70
     1
102
RTVSPropertyOp11
 70
     1
102
RTVSPropertyOp12
 70
     1
102
RTVSPropertyOp13
 70
     1
102
RTVSPropertyOp14
 70
     1
102
RTVSPropertyOp15
 70
     1
102
RTVSPropertyOp16
 70
     1
102
RTVSPropertyOp17
 70
     1
102
RTVSPropertyOp18
 70
     1
102
RTVSPropertyOp19
 70
     1
102
RTVSPropertyOp20
 70
     1
102
RTVSPropertyOp21
 70
     1
102
RTVSPropertyOp22
 70
     1
102
RTVSPropertyOp23
 70
     1
102
RTVSPropertyOp24
 70
     1
102
RTVSPropertyOp25
 70
     1
102
RTVSPropertyOp26
 70
     1
102
RTVSPropertyOp27
 70
     1
102
RTVSPropertyOp28
 70
     1
102
RTVSPropertyOp29
 70
     1
102
RTVSPropertyOp30
 70
     1
102
RTVSPropertyOp31
 70
     1
102
RTVSPropertyOp32
 70
     1
102
RTVSPropertyOp33
 70
     1
102
RTVSPropertyOp34
 70
     1
102
RTVSPropertyOp35
 70
     1
102
RTVSPropertyOp36
 70
     1
102
RTVSPropertyOp37
 70
     1
102
RTVSPropertyOp38
 70
     1
102
RTVSPropertyOp39
 70
     1
102
RTVSPropertyOp40
 70
     1
102
RTVSPropertyOp41
 70
     1
102
RTVSPropertyOp42
 70
     1
102
RTVSPropertyOp43
 70
     1
102
RTVSPropertyOp44
 70
     1
102
RTVSPropertyOp45
 70
     1
102
RTVSPropertyOp46
 70
     1
102
RTVSPropertyOp47
 70
     1
102
RTVSPropertyOp48
 70
     1
102
RTVSPropertyOp49
 70
     1
102
RTVSPropertyOp50
 70
     1
102
RTVSPropertyOp51
 70
     0
102
RTVSPropertyOp52
 70
     0
102
RTVSPropertyOp53
 70
     1
102
RTVSPropertyOp54
 70
     1
102
RTVSPropertyOp55
 70
     1
102
RTVSPropertyOp56
 70
     1
102
RTVSPropertyOp57
 70
     1
102
RTVSPost2010Prop28
280
     0
102
RTVSPost2010PropOp28
 70
     1
102
RTVSPost2010Prop29
280
     1
102
RTVSPost2010PropOp29
 70
     1
102
RTVSPost2010Prop30
280
     1
102
RTVSPost2010PropOp30
 70
     1
102
RTVSPost2010Prop31
280
     0
102
RTVSPost2010PropOp31
 70
     1
102
RTVSPost2010Prop32
280
     0
102
RTVSPost2010PropOp32
 70
     1
102
RTVSPost2010Prop33
280
     0
102
RTVSPost2010PropOp33
 70
     1
102
RTVSPost2010Prop34
280
     0
102
RTVSPost2010PropOp34
 70
     1
102
RTVSPost2010Prop35
280
     0
102
RTVSPost2010PropOp35
 70
     1
102
RTVSPost2010Prop36
280
     0
102
RTVSPost2010PropOp36
 70
     1
102
RTVSPost2010Prop37
 90
       50
102
RTVSPost2010PropOp37
 70
     1
102
RTVSPost2010Prop38
140
0.0
102
RTVSPost2010PropOp38
 70
     1
102
RTVSPost2010Prop39
140
1.0
102
RTVSPost2010PropOp39
 70
     1
102
RTVSPost2010Prop40
 90
        0
102
RTVSPost2010PropOp40
 70
     1
102
RTVSPost2010Prop41ColorIndex
 90
       18
102
RTVSPost2010Prop41ColorRGB
 90
        0
102
RTVSPost2010PropOp41
 70
     1
102
RTVSPost2010Prop42
 90
       50
102
RTVSPost2010PropOp42
 70
     1
102
RTVSPost2010Prop43
 90
        3
102
RTVSPost2010PropOp43
 70
     1
102
RTVSPost2010Prop44ColorIndex
 90
        5
102
RTVSPost2010Prop44ColorRGB
 90
      255
102
RTVSPost2010PropOp44
 70
     1
102
RTVSPost2010Prop45
280
     0
102
RTVSPost2010PropOp45
 70
     1
102
RTVSPost2010Prop46
 90
       50
102
RTVSPost2010PropOp46
 70
     1
102
RTVSPost2010Prop47
 90
       50
102
RTVSPost2010PropOp47
 70
     1
102
RTVSPost2010Prop48
 90
       50
102
RTVSPost2010PropOp48
 70
     1
102
RTVSPost2010Prop49
280
     0
102
RTVSPost2010PropOp49
 70
     1
102
RTVSPost2010Prop50
 90
       50
102
RTVSPost2010PropOp50
 70
     1
102
RTVSPost2010Prop51ColorIndex
 90
      256
102
RTVSPost2010Prop51ColorRGB
 90
-16777216
102
RTVSPost2010PropOp51
 70
     0
102
RTVSPost2010Prop52
140
1.0
102
RTVSPost2010PropOp52
 70
     0
102
RTVSPost2010Prop53
 90
        2
102
RTVSPost2010PropOp53
 70
     1
102
RTVSPost2010Prop54
  1
strokes_ogs.tif
102
RTVSPost2010PropOp54
 70
     1
102
RTVSPost2010Prop55
280
     0
102
RTVSPost2010PropOp55
 70
     1
102
RTVSPost2010Prop56
140
1.0
102
RTVSPost2010PropOp56
 70
     1
102
RTVSPost2010Prop57
140
1.0
102
RTVSPost2010PropOp57
 70
     1
  0
XRECORD
  5
760
102
{ACAD_REACTORS
330
75F
102
}
330
75F
100
AcDbXrecord
280
     1
102
RTVSPropertyOp0
 70
     1
102
RTVSPropertyOp1
 70
     1
102
RTVSPropertyOp2
 70
     1
102
RTVSPropertyOp3
 70
     1
102
RTVSPropertyOp4
 70
     1
102
RTVSPropertyOp5
 70
     1
102
RTVSPropertyOp6
 70
     1
102
RTVSPropertyOp7
 70
     1
102
RTVSPropertyOp8
 70
     1
102
RTVSPropertyOp9
 70
     1
102
RTVSPropertyOp10
 70
     1
102
RTVSPropertyOp11
 70
     1
102
RTVSPropertyOp12
 70
     1
102
RTVSPropertyOp13
 70
     1
102
RTVSPropertyOp14
 70
     1
102
RTVSPropertyOp15
 70
     1
102
RTVSPropertyOp16
 70
     1
102
RTVSPropertyOp17
 70
     1
102
RTVSPropertyOp18
 70
     1
102
RTVSPropertyOp19
 70
     1
102
RTVSPropertyOp20
 70
     1
102
RTVSPropertyOp21
 70
     1
102
RTVSPropertyOp22
 70
     1
102
RTVSPropertyOp23
 70
     1
102
RTVSPropertyOp24
 70
     1
102
RTVSPropertyOp25
 70
     1
102
RTVSPropertyOp26
 70
     1
102
RTVSPropertyOp27
 70
     1
102
RTVSPropertyOp28
 70
     1
102
RTVSPropertyOp29
 70
     1
102
RTVSPropertyOp30
 70
     1
102
RTVSPropertyOp31
 70
     1
102
RTVSPropertyOp32
 70
     1
102
RTVSPropertyOp33
 70
     1
102
RTVSPropertyOp34
 70
     1
102
RTVSPropertyOp35
 70
     1
102
RTVSPropertyOp36
 70
     1
102
RTVSPropertyOp37
 70
     1
102
RTVSPropertyOp38
 70
     1
102
RTVSPropertyOp39
 70
     1
102
RTVSPropertyOp40
 70
     1
102
RTVSPropertyOp41
 70
     1
102
RTVSPropertyOp42
 70
     1
102
RTVSPropertyOp43
 70
     1
102
RTVSPropertyOp44
 70
     1
102
RTVSPropertyOp45
 70
     1
102
RTVSPropertyOp46
 70
     1
102
RTVSPropertyOp47
 70
     1
102
RTVSPropertyOp48
 70
     1
102
RTVSPropertyOp49
 70
     1
102
RTVSPropertyOp50
 70
     1
102
RTVSPropertyOp51
 70
     0
102
RTVSPropertyOp52
 70
     0
102
RTVSPropertyOp53
 70
     1
102
RTVSPropertyOp54
 70
     1
102
RTVSPropertyOp55
 70
     1
102
RTVSPropertyOp56
 70
     1
102
RTVSPropertyOp57
 70
     1
102
RTVSPost2010Prop28
280
     0
102
RTVSPost2010PropOp28
 70
     1
102
RTVSPost2010Prop29
280
     1
102
RTVSPost2010PropOp29
 70
     1
102
RTVSPost2010Prop30
280
     1
102
RTVSPost2010PropOp30
 70
     1
102
RTVSPost2010Prop31
280
     0
102
RTVSPost2010PropOp31
 70
     1
102
RTVSPost2010Prop32
280
     0
102
RTVSPost2010PropOp32
 70
     1
102
RTVSPost2010Prop33
280
     0
102
RTVSPost2010PropOp33
 70
     1
102
RTVSPost2010Prop34
280
     0
102
RTVSPost2010PropOp34
 70
     1
102
RTVSPost2010Prop35
280
     0
102
RTVSPost2010PropOp35
 70
     1
102
RTVSPost2010Prop36
280
     0
102
RTVSPost2010PropOp36
 70
     1
102
RTVSPost2010Prop37
 90
       50
102
RTVSPost2010PropOp37
 70
     1
102
RTVSPost2010Prop38
140
0.0
102
RTVSPost2010PropOp38
 70
     1
102
RTVSPost2010Prop39
140
1.0
102
RTVSPost2010PropOp39
 70
     1
102
RTVSPost2010Prop40
 90
        0
102
RTVSPost2010PropOp40
 70
     1
102
RTVSPost2010Prop41ColorIndex
 90
       18
102
RTVSPost2010Prop41ColorRGB
 90
        0
102
RTVSPost2010PropOp41
 70
     1
102
RTVSPost2010Prop42
 90
       50
102
RTVSPost2010PropOp42
 70
     1
102
RTVSPost2010Prop43
 90
        3
102
RTVSPost2010PropOp43
 70
     1
102
RTVSPost2010Prop44ColorIndex
 90
        5
102
RTVSPost2010Prop44ColorRGB
 90
      255
102
RTVSPost2010PropOp44
 70
     1
102
RTVSPost2010Prop45
280
     0
102
RTVSPost2010PropOp45
 70
     1
102
RTVSPost2010Prop46
 90
       50
102
RTVSPost2010PropOp46
 70
     1
102
RTVSPost2010Prop47
 90
       50
102
RTVSPost2010PropOp47
 70
     1
102
RTVSPost2010Prop48
 90
       50
102
RTVSPost2010PropOp48
 70
     1
102
RTVSPost2010Prop49
280
     0
102
RTVSPost2010PropOp49
 70
     1
102
RTVSPost2010Prop50
 90
       50
102
RTVSPost2010PropOp50
 70
     1
102
RTVSPost2010Prop51ColorIndex
 90
      256
102
RTVSPost2010Prop51ColorRGB
 90
-16777216
102
RTVSPost2010PropOp51
 70
     0
102
RTVSPost2010Prop52
140
1.0
102
RTVSPost2010PropOp52
 70
     0
102
RTVSPost2010Prop53
 90
        2
102
RTVSPost2010PropOp53
 70
     1
102
RTVSPost2010Prop54
  1
strokes_ogs.tif
102
RTVSPost2010PropOp54
 70
     1
102
RTVSPost2010Prop55
280
     0
102
RTVSPost2010PropOp55
 70
     1
102
RTVSPost2010Prop56
140
1.0
102
RTVSPost2010PropOp56
 70
     1
102
RTVSPost2010Prop57
140
1.0
102
RTVSPost2010PropOp57
 70
     1
  0
XRECORD
  5
75A
102
{ACAD_REACTORS
330
759
102
}
330
759
100
AcDbXrecord
280
     1
102
RTVSPropertyOp0
 70
     1
102
RTVSPropertyOp1
 70
     1
102
RTVSPropertyOp2
 70
     1
102
RTVSPropertyOp3
 70
     1
102
RTVSPropertyOp4
 70
     1
102
RTVSPropertyOp5
 70
     1
102
RTVSPropertyOp6
 70
     1
102
RTVSPropertyOp7
 70
     1
102
RTVSPropertyOp8
 70
     1
102
RTVSPropertyOp9
 70
     1
102
RTVSPropertyOp10
 70
     1
102
RTVSPropertyOp11
 70
     1
102
RTVSPropertyOp12
 70
     1
102
RTVSPropertyOp13
 70
     1
102
RTVSPropertyOp14
 70
     1
102
RTVSPropertyOp15
 70
     1
102
RTVSPropertyOp16
 70
     1
102
RTVSPropertyOp17
 70
     1
102
RTVSPropertyOp18
 70
     1
102
RTVSPropertyOp19
 70
     1
102
RTVSPropertyOp20
 70
     1
102
RTVSPropertyOp21
 70
     1
102
RTVSPropertyOp22
 70
     1
102
RTVSPropertyOp23
 70
     1
102
RTVSPropertyOp24
 70
     1
102
RTVSPropertyOp25
 70
     1
102
RTVSPropertyOp26
 70
     1
102
RTVSPropertyOp27
 70
     1
102
RTVSPropertyOp28
 70
     1
102
RTVSPropertyOp29
 70
     1
102
RTVSPropertyOp30
 70
     1
102
RTVSPropertyOp31
 70
     1
102
RTVSPropertyOp32
 70
     1
102
RTVSPropertyOp33
 70
     1
102
RTVSPropertyOp34
 70
     1
102
RTVSPropertyOp35
 70
     1
102
RTVSPropertyOp36
 70
     1
102
RTVSPropertyOp37
 70
     1
102
RTVSPropertyOp38
 70
     1
102
RTVSPropertyOp39
 70
     1
102
RTVSPropertyOp40
 70
     1
102
RTVSPropertyOp41
 70
     1
102
RTVSPropertyOp42
 70
     1
102
RTVSPropertyOp43
 70
     1
102
RTVSPropertyOp44
 70
     1
102
RTVSPropertyOp45
 70
     1
102
RTVSPropertyOp46
 70
     1
102
RTVSPropertyOp47
 70
     1
102
RTVSPropertyOp48
 70
     1
102
RTVSPropertyOp49
 70
     1
102
RTVSPropertyOp50
 70
     1
102
RTVSPropertyOp51
 70
     0
102
RTVSPropertyOp52
 70
     0
102
RTVSPropertyOp53
 70
     1
102
RTVSPropertyOp54
 70
     1
102
RTVSPropertyOp55
 70
     1
102
RTVSPropertyOp56
 70
     1
102
RTVSPropertyOp57
 70
     1
102
RTVSPost2010Prop28
280
     0
102
RTVSPost2010PropOp28
 70
     1
102
RTVSPost2010Prop29
280
     1
102
RTVSPost2010PropOp29
 70
     1
102
RTVSPost2010Prop30
280
     1
102
RTVSPost2010PropOp30
 70
     1
102
RTVSPost2010Prop31
280
     0
102
RTVSPost2010PropOp31
 70
     1
102
RTVSPost2010Prop32
280
     0
102
RTVSPost2010PropOp32
 70
     1
102
RTVSPost2010Prop33
280
     0
102
RTVSPost2010PropOp33
 70
     1
102
RTVSPost2010Prop34
280
     0
102
RTVSPost2010PropOp34
 70
     1
102
RTVSPost2010Prop35
280
     0
102
RTVSPost2010PropOp35
 70
     1
102
RTVSPost2010Prop36
280
     0
102
RTVSPost2010PropOp36
 70
     1
102
RTVSPost2010Prop37
 90
       50
102
RTVSPost2010PropOp37
 70
     1
102
RTVSPost2010Prop38
140
0.0
102
RTVSPost2010PropOp38
 70
     1
102
RTVSPost2010Prop39
140
1.0
102
RTVSPost2010PropOp39
 70
     1
102
RTVSPost2010Prop40
 90
        0
102
RTVSPost2010PropOp40
 70
     1
102
RTVSPost2010Prop41ColorIndex
 90
       18
102
RTVSPost2010Prop41ColorRGB
 90
        0
102
RTVSPost2010PropOp41
 70
     1
102
RTVSPost2010Prop42
 90
       50
102
RTVSPost2010PropOp42
 70
     1
102
RTVSPost2010Prop43
 90
        3
102
RTVSPost2010PropOp43
 70
     1
102
RTVSPost2010Prop44ColorIndex
 90
        5
102
RTVSPost2010Prop44ColorRGB
 90
      255
102
RTVSPost2010PropOp44
 70
     1
102
RTVSPost2010Prop45
280
     0
102
RTVSPost2010PropOp45
 70
     1
102
RTVSPost2010Prop46
 90
       50
102
RTVSPost2010PropOp46
 70
     1
102
RTVSPost2010Prop47
 90
       50
102
RTVSPost2010PropOp47
 70
     1
102
RTVSPost2010Prop48
 90
       50
102
RTVSPost2010PropOp48
 70
     1
102
RTVSPost2010Prop49
280
     0
102
RTVSPost2010PropOp49
 70
     1
102
RTVSPost2010Prop50
 90
       50
102
RTVSPost2010PropOp50
 70
     1
102
RTVSPost2010Prop51ColorIndex
 90
      256
102
RTVSPost2010Prop51ColorRGB
 90
-16777216
102
RTVSPost2010PropOp51
 70
     0
102
RTVSPost2010Prop52
140
1.0
102
RTVSPost2010PropOp52
 70
     0
102
RTVSPost2010Prop53
 90
        2
102
RTVSPost2010PropOp53
 70
     1
102
RTVSPost2010Prop54
  1
strokes_ogs.tif
102
RTVSPost2010PropOp54
 70
     1
102
RTVSPost2010Prop55
280
     0
102
RTVSPost2010PropOp55
 70
     1
102
RTVSPost2010Prop56
140
1.0
102
RTVSPost2010PropOp56
 70
     1
102
RTVSPost2010Prop57
140
1.0
102
RTVSPost2010PropOp57
 70
     1
  0
XRECORD
  5
75C
102
{ACAD_REACTORS
330
75B
102
}
330
75B
100
AcDbXrecord
280
     1
102
RTVSPropertyOp0
 70
     1
102
RTVSPropertyOp1
 70
     1
102
RTVSPropertyOp2
 70
     1
102
RTVSPropertyOp3
 70
     1
102
RTVSPropertyOp4
 70
     1
102
RTVSPropertyOp5
 70
     1
102
RTVSPropertyOp6
 70
     1
102
RTVSPropertyOp7
 70
     1
102
RTVSPropertyOp8
 70
     1
102
RTVSPropertyOp9
 70
     1
102
RTVSPropertyOp10
 70
     1
102
RTVSPropertyOp11
 70
     1
102
RTVSPropertyOp12
 70
     1
102
RTVSPropertyOp13
 70
     1
102
RTVSPropertyOp14
 70
     1
102
RTVSPropertyOp15
 70
     1
102
RTVSPropertyOp16
 70
     1
102
RTVSPropertyOp17
 70
     1
102
RTVSPropertyOp18
 70
     1
102
RTVSPropertyOp19
 70
     1
102
RTVSPropertyOp20
 70
     1
102
RTVSPropertyOp21
 70
     1
102
RTVSPropertyOp22
 70
     1
102
RTVSPropertyOp23
 70
     1
102
RTVSPropertyOp24
 70
     1
102
RTVSPropertyOp25
 70
     1
102
RTVSPropertyOp26
 70
     1
102
RTVSPropertyOp27
 70
     1
102
RTVSPropertyOp28
 70
     1
102
RTVSPropertyOp29
 70
     1
102
RTVSPropertyOp30
 70
     1
102
RTVSPropertyOp31
 70
     1
102
RTVSPropertyOp32
 70
     1
102
RTVSPropertyOp33
 70
     1
102
RTVSPropertyOp34
 70
     1
102
RTVSPropertyOp35
 70
     1
102
RTVSPropertyOp36
 70
     1
102
RTVSPropertyOp37
 70
     1
102
RTVSPropertyOp38
 70
     1
102
RTVSPropertyOp39
 70
     1
102
RTVSPropertyOp40
 70
     1
102
RTVSPropertyOp41
 70
     1
102
RTVSPropertyOp42
 70
     1
102
RTVSPropertyOp43
 70
     1
102
RTVSPropertyOp44
 70
     1
102
RTVSPropertyOp45
 70
     1
102
RTVSPropertyOp46
 70
     1
102
RTVSPropertyOp47
 70
     1
102
RTVSPropertyOp48
 70
     1
102
RTVSPropertyOp49
 70
     1
102
RTVSPropertyOp50
 70
     1
102
RTVSPropertyOp51
 70
     0
102
RTVSPropertyOp52
 70
     0
102
RTVSPropertyOp53
 70
     1
102
RTVSPropertyOp54
 70
     1
102
RTVSPropertyOp55
 70
     1
102
RTVSPropertyOp56
 70
     1
102
RTVSPropertyOp57
 70
     1
102
RTVSPost2010Prop28
280
     0
102
RTVSPost2010PropOp28
 70
     1
102
RTVSPost2010Prop29
280
     1
102
RTVSPost2010PropOp29
 70
     1
102
RTVSPost2010Prop30
280
     1
102
RTVSPost2010PropOp30
 70
     1
102
RTVSPost2010Prop31
280
     0
102
RTVSPost2010PropOp31
 70
     1
102
RTVSPost2010Prop32
280
     0
102
RTVSPost2010PropOp32
 70
     1
102
RTVSPost2010Prop33
280
     0
102
RTVSPost2010PropOp33
 70
     1
102
RTVSPost2010Prop34
280
     0
102
RTVSPost2010PropOp34
 70
     1
102
RTVSPost2010Prop35
280
     0
102
RTVSPost2010PropOp35
 70
     1
102
RTVSPost2010Prop36
280
     0
102
RTVSPost2010PropOp36
 70
     1
102
RTVSPost2010Prop37
 90
       50
102
RTVSPost2010PropOp37
 70
     1
102
RTVSPost2010Prop38
140
0.0
102
RTVSPost2010PropOp38
 70
     1
102
RTVSPost2010Prop39
140
1.0
102
RTVSPost2010PropOp39
 70
     1
102
RTVSPost2010Prop40
 90
        0
102
RTVSPost2010PropOp40
 70
     1
102
RTVSPost2010Prop41ColorIndex
 90
       18
102
RTVSPost2010Prop41ColorRGB
 90
        0
102
RTVSPost2010PropOp41
 70
     1
102
RTVSPost2010Prop42
 90
       50
102
RTVSPost2010PropOp42
 70
     1
102
RTVSPost2010Prop43
 90
        3
102
RTVSPost2010PropOp43
 70
     1
102
RTVSPost2010Prop44ColorIndex
 90
        5
102
RTVSPost2010Prop44ColorRGB
 90
      255
102
RTVSPost2010PropOp44
 70
     1
102
RTVSPost2010Prop45
280
     0
102
RTVSPost2010PropOp45
 70
     1
102
RTVSPost2010Prop46
 90
       50
102
RTVSPost2010PropOp46
 70
     1
102
RTVSPost2010Prop47
 90
       50
102
RTVSPost2010PropOp47
 70
     1
102
RTVSPost2010Prop48
 90
       50
102
RTVSPost2010PropOp48
 70
     1
102
RTVSPost2010Prop49
280
     0
102
RTVSPost2010PropOp49
 70
     1
102
RTVSPost2010Prop50
 90
       50
102
RTVSPost2010PropOp50
 70
     1
102
RTVSPost2010Prop51ColorIndex
 90
      256
102
RTVSPost2010Prop51ColorRGB
 90
-16777216
102
RTVSPost2010PropOp51
 70
     0
102
RTVSPost2010Prop52
140
1.0
102
RTVSPost2010PropOp52
 70
     0
102
RTVSPost2010Prop53
 90
        2
102
RTVSPost2010PropOp53
 70
     1
102
RTVSPost2010Prop54
  1
strokes_ogs.tif
102
RTVSPost2010PropOp54
 70
     1
102
RTVSPost2010Prop55
280
     0
102
RTVSPost2010PropOp55
 70
     1
102
RTVSPost2010Prop56
140
1.0
102
RTVSPost2010PropOp56
 70
     1
102
RTVSPost2010Prop57
140
1.0
102
RTVSPost2010PropOp57
 70
     1
  0
XRECORD
  5
74C
102
{ACAD_REACTORS
330
74B
102
}
330
74B
100
AcDbXrecord
280
     1
102
RTVSPropertyOp0
 70
     1
102
RTVSPropertyOp1
 70
     1
102
RTVSPropertyOp2
 70
     1
102
RTVSPropertyOp3
 70
     1
102
RTVSPropertyOp4
 70
     1
102
RTVSPropertyOp5
 70
     1
102
RTVSPropertyOp6
 70
     1
102
RTVSPropertyOp7
 70
     1
102
RTVSPropertyOp8
 70
     1
102
RTVSPropertyOp9
 70
     1
102
RTVSPropertyOp10
 70
     1
102
RTVSPropertyOp11
 70
     1
102
RTVSPropertyOp12
 70
     1
102
RTVSPropertyOp13
 70
     1
102
RTVSPropertyOp14
 70
     1
102
RTVSPropertyOp15
 70
     1
102
RTVSPropertyOp16
 70
     1
102
RTVSPropertyOp17
 70
     1
102
RTVSPropertyOp18
 70
     1
102
RTVSPropertyOp19
 70
     1
102
RTVSPropertyOp20
 70
     1
102
RTVSPropertyOp21
 70
     1
102
RTVSPropertyOp22
 70
     1
102
RTVSPropertyOp23
 70
     1
102
RTVSPropertyOp24
 70
     1
102
RTVSPropertyOp25
 70
     1
102
RTVSPropertyOp26
 70
     1
102
RTVSPropertyOp27
 70
     1
102
RTVSPropertyOp28
 70
     1
102
RTVSPropertyOp29
 70
     1
102
RTVSPropertyOp30
 70
     1
102
RTVSPropertyOp31
 70
     1
102
RTVSPropertyOp32
 70
     1
102
RTVSPropertyOp33
 70
     1
102
RTVSPropertyOp34
 70
     1
102
RTVSPropertyOp35
 70
     1
102
RTVSPropertyOp36
 70
     1
102
RTVSPropertyOp37
 70
     1
102
RTVSPropertyOp38
 70
     1
102
RTVSPropertyOp39
 70
     1
102
RTVSPropertyOp40
 70
     1
102
RTVSPropertyOp41
 70
     1
102
RTVSPropertyOp42
 70
     1
102
RTVSPropertyOp43
 70
     1
102
RTVSPropertyOp44
 70
     1
102
RTVSPropertyOp45
 70
     1
102
RTVSPropertyOp46
 70
     1
102
RTVSPropertyOp47
 70
     1
102
RTVSPropertyOp48
 70
     1
102
RTVSPropertyOp49
 70
     1
102
RTVSPropertyOp50
 70
     1
102
RTVSPropertyOp51
 70
     0
102
RTVSPropertyOp52
 70
     0
102
RTVSPropertyOp53
 70
     1
102
RTVSPropertyOp54
 70
     1
102
RTVSPropertyOp55
 70
     1
102
RTVSPropertyOp56
 70
     1
102
RTVSPropertyOp57
 70
     1
102
RTVSPost2010Prop28
280
     0
102
RTVSPost2010PropOp28
 70
     1
102
RTVSPost2010Prop29
280
     1
102
RTVSPost2010PropOp29
 70
     1
102
RTVSPost2010Prop30
280
     1
102
RTVSPost2010PropOp30
 70
     1
102
RTVSPost2010Prop31
280
     0
102
RTVSPost2010PropOp31
 70
     1
102
RTVSPost2010Prop32
280
     0
102
RTVSPost2010PropOp32
 70
     1
102
RTVSPost2010Prop33
280
     0
102
RTVSPost2010PropOp33
 70
     1
102
RTVSPost2010Prop34
280
     0
102
RTVSPost2010PropOp34
 70
     1
102
RTVSPost2010Prop35
280
     0
102
RTVSPost2010PropOp35
 70
     1
102
RTVSPost2010Prop36
280
     0
102
RTVSPost2010PropOp36
 70
     1
102
RTVSPost2010Prop37
 90
       50
102
RTVSPost2010PropOp37
 70
     1
102
RTVSPost2010Prop38
140
0.0
102
RTVSPost2010PropOp38
 70
     1
102
RTVSPost2010Prop39
140
1.0
102
RTVSPost2010PropOp39
 70
     1
102
RTVSPost2010Prop40
 90
        0
102
RTVSPost2010PropOp40
 70
     1
102
RTVSPost2010Prop41ColorIndex
 90
       18
102
RTVSPost2010Prop41ColorRGB
 90
        0
102
RTVSPost2010PropOp41
 70
     1
102
RTVSPost2010Prop42
 90
       50
102
RTVSPost2010PropOp42
 70
     1
102
RTVSPost2010Prop43
 90
        3
102
RTVSPost2010PropOp43
 70
     1
102
RTVSPost2010Prop44ColorIndex
 90
        5
102
RTVSPost2010Prop44ColorRGB
 90
      255
102
RTVSPost2010PropOp44
 70
     1
102
RTVSPost2010Prop45
280
     0
102
RTVSPost2010PropOp45
 70
     1
102
RTVSPost2010Prop46
 90
       50
102
RTVSPost2010PropOp46
 70
     1
102
RTVSPost2010Prop47
 90
       50
102
RTVSPost2010PropOp47
 70
     1
102
RTVSPost2010Prop48
 90
       50
102
RTVSPost2010PropOp48
 70
     1
102
RTVSPost2010Prop49
280
     0
102
RTVSPost2010PropOp49
 70
     1
102
RTVSPost2010Prop50
 90
       50
102
RTVSPost2010PropOp50
 70
     1
102
RTVSPost2010Prop51ColorIndex
 90
      256
102
RTVSPost2010Prop51ColorRGB
 90
-16777216
102
RTVSPost2010PropOp51
 70
     0
102
RTVSPost2010Prop52
140
1.0
102
RTVSPost2010PropOp52
 70
     0
102
RTVSPost2010Prop53
 90
        2
102
RTVSPost2010PropOp53
 70
     1
102
RTVSPost2010Prop54
  1
strokes_ogs.tif
102
RTVSPost2010PropOp54
 70
     1
102
RTVSPost2010Prop55
280
     0
102
RTVSPost2010PropOp55
 70
     1
102
RTVSPost2010Prop56
140
1.0
102
RTVSPost2010PropOp56
 70
     1
102
RTVSPost2010Prop57
140
1.0
102
RTVSPost2010PropOp57
 70
     1
  0
XRECORD
  5
73E
102
{ACAD_REACTORS
330
73D
102
}
330
73D
100
AcDbXrecord
280
     1
102
RTVSPropertyOp0
 70
     1
102
RTVSPropertyOp1
 70
     1
102
RTVSPropertyOp2
 70
     1
102
RTVSPropertyOp3
 70
     1
102
RTVSPropertyOp4
 70
     1
102
RTVSPropertyOp5
 70
     1
102
RTVSPropertyOp6
 70
     1
102
RTVSPropertyOp7
 70
     1
102
RTVSPropertyOp8
 70
     1
102
RTVSPropertyOp9
 70
     1
102
RTVSPropertyOp10
 70
     1
102
RTVSPropertyOp11
 70
     1
102
RTVSPropertyOp12
 70
     1
102
RTVSPropertyOp13
 70
     1
102
RTVSPropertyOp14
 70
     1
102
RTVSPropertyOp15
 70
     1
102
RTVSPropertyOp16
 70
     1
102
RTVSPropertyOp17
 70
     1
102
RTVSPropertyOp18
 70
     1
102
RTVSPropertyOp19
 70
     1
102
RTVSPropertyOp20
 70
     1
102
RTVSPropertyOp21
 70
     1
102
RTVSPropertyOp22
 70
     1
102
RTVSPropertyOp23
 70
     1
102
RTVSPropertyOp24
 70
     1
102
RTVSPropertyOp25
 70
     1
102
RTVSPropertyOp26
 70
     1
102
RTVSPropertyOp27
 70
     1
102
RTVSPropertyOp28
 70
     1
102
RTVSPropertyOp29
 70
     1
102
RTVSPropertyOp30
 70
     1
102
RTVSPropertyOp31
 70
     1
102
RTVSPropertyOp32
 70
     1
102
RTVSPropertyOp33
 70
     1
102
RTVSPropertyOp34
 70
     1
102
RTVSPropertyOp35
 70
     1
102
RTVSPropertyOp36
 70
     1
102
RTVSPropertyOp37
 70
     1
102
RTVSPropertyOp38
 70
     1
102
RTVSPropertyOp39
 70
     1
102
RTVSPropertyOp40
 70
     1
102
RTVSPropertyOp41
 70
     1
102
RTVSPropertyOp42
 70
     1
102
RTVSPropertyOp43
 70
     1
102
RTVSPropertyOp44
 70
     1
102
RTVSPropertyOp45
 70
     1
102
RTVSPropertyOp46
 70
     1
102
RTVSPropertyOp47
 70
     1
102
RTVSPropertyOp48
 70
     1
102
RTVSPropertyOp49
 70
     1
102
RTVSPropertyOp50
 70
     1
102
RTVSPropertyOp51
 70
     0
102
RTVSPropertyOp52
 70
     0
102
RTVSPropertyOp53
 70
     1
102
RTVSPropertyOp54
 70
     1
102
RTVSPropertyOp55
 70
     1
102
RTVSPropertyOp56
 70
     1
102
RTVSPropertyOp57
 70
     1
102
RTVSPost2010Prop28
280
     0
102
RTVSPost2010PropOp28
 70
     1
102
RTVSPost2010Prop29
280
     1
102
RTVSPost2010PropOp29
 70
     1
102
RTVSPost2010Prop30
280
     1
102
RTVSPost2010PropOp30
 70
     1
102
RTVSPost2010Prop31
280
     0
102
RTVSPost2010PropOp31
 70
     1
102
RTVSPost2010Prop32
280
     0
102
RTVSPost2010PropOp32
 70
     1
102
RTVSPost2010Prop33
280
     0
102
RTVSPost2010PropOp33
 70
     1
102
RTVSPost2010Prop34
280
     0
102
RTVSPost2010PropOp34
 70
     1
102
RTVSPost2010Prop35
280
     0
102
RTVSPost2010PropOp35
 70
     1
102
RTVSPost2010Prop36
280
     0
102
RTVSPost2010PropOp36
 70
     1
102
RTVSPost2010Prop37
 90
       50
102
RTVSPost2010PropOp37
 70
     1
102
RTVSPost2010Prop38
140
0.0
102
RTVSPost2010PropOp38
 70
     1
102
RTVSPost2010Prop39
140
1.0
102
RTVSPost2010PropOp39
 70
     1
102
RTVSPost2010Prop40
 90
        0
102
RTVSPost2010PropOp40
 70
     1
102
RTVSPost2010Prop41ColorIndex
 90
       18
102
RTVSPost2010Prop41ColorRGB
 90
        0
102
RTVSPost2010PropOp41
 70
     1
102
RTVSPost2010Prop42
 90
       50
102
RTVSPost2010PropOp42
 70
     1
102
RTVSPost2010Prop43
 90
        3
102
RTVSPost2010PropOp43
 70
     1
102
RTVSPost2010Prop44ColorIndex
 90
        5
102
RTVSPost2010Prop44ColorRGB
 90
      255
102
RTVSPost2010PropOp44
 70
     1
102
RTVSPost2010Prop45
280
     0
102
RTVSPost2010PropOp45
 70
     1
102
RTVSPost2010Prop46
 90
       50
102
RTVSPost2010PropOp46
 70
     1
102
RTVSPost2010Prop47
 90
       50
102
RTVSPost2010PropOp47
 70
     1
102
RTVSPost2010Prop48
 90
       50
102
RTVSPost2010PropOp48
 70
     1
102
RTVSPost2010Prop49
280
     0
102
RTVSPost2010PropOp49
 70
     1
102
RTVSPost2010Prop50
 90
       50
102
RTVSPost2010PropOp50
 70
     1
102
RTVSPost2010Prop51ColorIndex
 90
      256
102
RTVSPost2010Prop51ColorRGB
 90
-16777216
102
RTVSPost2010PropOp51
 70
     0
102
RTVSPost2010Prop52
140
1.0
102
RTVSPost2010PropOp52
 70
     0
102
RTVSPost2010Prop53
 90
        2
102
RTVSPost2010PropOp53
 70
     1
102
RTVSPost2010Prop54
  1
strokes_ogs.tif
102
RTVSPost2010PropOp54
 70
     1
102
RTVSPost2010Prop55
280
     0
102
RTVSPost2010PropOp55
 70
     1
102
RTVSPost2010Prop56
140
1.0
102
RTVSPost2010PropOp56
 70
     1
102
RTVSPost2010Prop57
140
1.0
102
RTVSPost2010PropOp57
 70
     1
  0
XRECORD
  5
75E
102
{ACAD_REACTORS
330
75D
102
}
330
75D
100
AcDbXrecord
280
     1
102
RTVSPropertyOp0
 70
     1
102
RTVSPropertyOp1
 70
     1
102
RTVSPropertyOp2
 70
     1
102
RTVSPropertyOp3
 70
     1
102
RTVSPropertyOp4
 70
     1
102
RTVSPropertyOp5
 70
     1
102
RTVSPropertyOp6
 70
     1
102
RTVSPropertyOp7
 70
     1
102
RTVSPropertyOp8
 70
     1
102
RTVSPropertyOp9
 70
     1
102
RTVSPropertyOp10
 70
     1
102
RTVSPropertyOp11
 70
     1
102
RTVSPropertyOp12
 70
     1
102
RTVSPropertyOp13
 70
     1
102
RTVSPropertyOp14
 70
     1
102
RTVSPropertyOp15
 70
     1
102
RTVSPropertyOp16
 70
     1
102
RTVSPropertyOp17
 70
     1
102
RTVSPropertyOp18
 70
     1
102
RTVSPropertyOp19
 70
     1
102
RTVSPropertyOp20
 70
     1
102
RTVSPropertyOp21
 70
     1
102
RTVSPropertyOp22
 70
     1
102
RTVSPropertyOp23
 70
     1
102
RTVSPropertyOp24
 70
     1
102
RTVSPropertyOp25
 70
     1
102
RTVSPropertyOp26
 70
     1
102
RTVSPropertyOp27
 70
     1
102
RTVSPropertyOp28
 70
     1
102
RTVSPropertyOp29
 70
     1
102
RTVSPropertyOp30
 70
     1
102
RTVSPropertyOp31
 70
     1
102
RTVSPropertyOp32
 70
     1
102
RTVSPropertyOp33
 70
     1
102
RTVSPropertyOp34
 70
     1
102
RTVSPropertyOp35
 70
     1
102
RTVSPropertyOp36
 70
     1
102
RTVSPropertyOp37
 70
     1
102
RTVSPropertyOp38
 70
     1
102
RTVSPropertyOp39
 70
     1
102
RTVSPropertyOp40
 70
     1
102
RTVSPropertyOp41
 70
     1
102
RTVSPropertyOp42
 70
     1
102
RTVSPropertyOp43
 70
     1
102
RTVSPropertyOp44
 70
     1
102
RTVSPropertyOp45
 70
     1
102
RTVSPropertyOp46
 70
     1
102
RTVSPropertyOp47
 70
     1
102
RTVSPropertyOp48
 70
     1
102
RTVSPropertyOp49
 70
     1
102
RTVSPropertyOp50
 70
     1
102
RTVSPropertyOp51
 70
     0
102
RTVSPropertyOp52
 70
     0
102
RTVSPropertyOp53
 70
     1
102
RTVSPropertyOp54
 70
     1
102
RTVSPropertyOp55
 70
     1
102
RTVSPropertyOp56
 70
     1
102
RTVSPropertyOp57
 70
     1
102
RTVSPost2010Prop28
280
     0
102
RTVSPost2010PropOp28
 70
     1
102
RTVSPost2010Prop29
280
     1
102
RTVSPost2010PropOp29
 70
     1
102
RTVSPost2010Prop30
280
     1
102
RTVSPost2010PropOp30
 70
     1
102
RTVSPost2010Prop31
280
     0
102
RTVSPost2010PropOp31
 70
     1
102
RTVSPost2010Prop32
280
     0
102
RTVSPost2010PropOp32
 70
     1
102
RTVSPost2010Prop33
280
     0
102
RTVSPost2010PropOp33
 70
     1
102
RTVSPost2010Prop34
280
     0
102
RTVSPost2010PropOp34
 70
     1
102
RTVSPost2010Prop35
280
     0
102
RTVSPost2010PropOp35
 70
     1
102
RTVSPost2010Prop36
280
     0
102
RTVSPost2010PropOp36
 70
     1
102
RTVSPost2010Prop37
 90
       50
102
RTVSPost2010PropOp37
 70
     1
102
RTVSPost2010Prop38
140
0.0
102
RTVSPost2010PropOp38
 70
     1
102
RTVSPost2010Prop39
140
1.0
102
RTVSPost2010PropOp39
 70
     1
102
RTVSPost2010Prop40
 90
        0
102
RTVSPost2010PropOp40
 70
     1
102
RTVSPost2010Prop41ColorIndex
 90
       18
102
RTVSPost2010Prop41ColorRGB
 90
        0
102
RTVSPost2010PropOp41
 70
     1
102
RTVSPost2010Prop42
 90
       50
102
RTVSPost2010PropOp42
 70
     1
102
RTVSPost2010Prop43
 90
        3
102
RTVSPost2010PropOp43
 70
     1
102
RTVSPost2010Prop44ColorIndex
 90
        5
102
RTVSPost2010Prop44ColorRGB
 90
      255
102
RTVSPost2010PropOp44
 70
     1
102
RTVSPost2010Prop45
280
     0
102
RTVSPost2010PropOp45
 70
     1
102
RTVSPost2010Prop46
 90
       50
102
RTVSPost2010PropOp46
 70
     1
102
RTVSPost2010Prop47
 90
       50
102
RTVSPost2010PropOp47
 70
     1
102
RTVSPost2010Prop48
 90
       50
102
RTVSPost2010PropOp48
 70
     1
102
RTVSPost2010Prop49
280
     0
102
RTVSPost2010PropOp49
 70
     1
102
RTVSPost2010Prop50
 90
       50
102
RTVSPost2010PropOp50
 70
     1
102
RTVSPost2010Prop51ColorIndex
 90
      256
102
RTVSPost2010Prop51ColorRGB
 90
-16777216
102
RTVSPost2010PropOp51
 70
     0
102
RTVSPost2010Prop52
140
1.0
102
RTVSPost2010PropOp52
 70
     0
102
RTVSPost2010Prop53
 90
        2
102
RTVSPost2010PropOp53
 70
     1
102
RTVSPost2010Prop54
  1
strokes_ogs.tif
102
RTVSPost2010PropOp54
 70
     1
102
RTVSPost2010Prop55
280
     0
102
RTVSPost2010PropOp55
 70
     1
102
RTVSPost2010Prop56
140
1.0
102
RTVSPost2010PropOp56
 70
     1
102
RTVSPost2010Prop57
140
1.0
102
RTVSPost2010PropOp57
 70
     1
  0
ENDSEC
  0
SECTION
  2
THUMBNAILIMAGE
 90
    16364
310
28000000B4000000550000000100080000000000C43B000000000000000000000001000000010000FFFFFF000000FF0000FFFF0000FF0000FFFF0000FF000000FF00FF000000000080808000C0C0C0000000FF007F7FFF000000A5005252A50000007F003F3F7F0000004C0026264C000000260013132600003FFF007F9FFF
310
000029A5005267A500001F7F003F4F7F0000134C00262F4C000009260013172600007FFF007FBFFF000052A500527CA500003F7F003F5F7F0000264C0026394C0000132600131C260000BFFF007FDFFF00007CA5005291A500005F7F003F6F7F0000394C0026424C00001C26001321260000FFFF007FFFFF0000A5A50052A5
310
A500007F7F003F7F7F00004C4C00264C4C00002626001326260000FFBF007FFFDF0000A57C0052A59100007F5F003F7F6F00004C3900264C420000261C001326210000FF7F007FFFBF0000A5520052A57C00007F3F003F7F5F00004C2600264C39000026130013261C0000FF3F007FFF9F0000A5290052A56700007F1F003F
310
7F4F00004C1300264C2F00002609001326170000FF00007FFF7F0000A5000052A55200007F00003F7F3F00004C0000264C260000260000132613003FFF00009FFF7F0029A5000067A552001F7F00004F7F3F00134C00002F4C260009260000172613007FFF0000BFFF7F0052A500007CA552003F7F00005F7F3F00264C0000
310
394C2600132600001C261300BFFF0000DFFF7F007CA5000091A552005F7F00006F7F3F00394C0000424C26001C26000021261300FFFF0000FFFF7F00A5A50000A5A552007F7F00007F7F3F004C4C00004C4C26002626000026261300FFBF0000FFDF7F00A57C0000A59152007F5F00007F6F3F004C3900004C422600261C00
310
0026211300FF7F0000FFBF7F00A5520000A57C52007F3F00007F5F3F004C2600004C39260026130000261C1300FF3F0000FF9F7F00A5290000A56752007F1F00007F4F3F004C1300004C2F26002609000026171300FF000000FF7F7F00A5000000A55252007F0000007F3F3F004C0000004C2626002600000026131300FF00
310
3F00FF7F9F00A5002900A55267007F001F007F3F4F004C0013004C262F002600090026131700FF007F00FF7FBF00A5005200A5527C007F003F007F3F5F004C0026004C2639002600130026131C00FF00BF00FF7FDF00A5007C00A55291007F005F007F3F6F004C0039004C26420026001C0026132100FF00FF00FF7FFF00A5
310
00A500A552A5007F007F007F3F7F004C004C004C264C002600260026132600BF00FF00DF7FFF007C00A5009152A5005F007F006F3F7F0039004C0042264C001C002600211326007F00FF00BF7FFF005200A5007C52A5003F007F005F3F7F0026004C0039264C00130026001C1326003F00FF009F7FFF002900A5006752A500
310
1F007F004F3F7F0013004C002F264C000900260017132600000000002D2D2D005B5B5B0089898900B7B7B700B3B3B30000000000000000000000000000000000000000000000000000000000000000000000000000000000000000000000000000000000000000000000000000000000000000000000000000000000000000
310
00000000000000000000000000000000000000000000000000000000000000000000000000000000000000000000000000000000000000000000000000000000000000000000000000000000000000000000000000000000000000000000000000000000000000000000000000000000000000000000000000000000000000
310
00000000000000000000000000000000000000000000000000000000000000000000000000000000000000000000000000000000000000000000000000000000000000000000000000000000000000000000000000000000000000000000000000000000000000000000000000000000000000000000000000000000000000
310
00000000000000000000000000000000000000000000000000000000000000000000000000000000000000000000000000000000000000000000000000000000000000000000000100000000000000000000000000000000000000000000000001000000000000000000000002020200020200000000000000000000000100
310
00000000000100000000000000010000000000000000000000000000000000000000000000000000000000000000000000000000000000000000000000000000000000000000000000000000000000000000000000000000000000000000000000000000000000000000000000000000000000000000000000030303010303
310
03030303000000000000010000000000000303030303010303030300000000000000020202020202000000000000000000030301030303030303030303030303030303030300000000000000000000000000000000000000000000000000000000000000000000000000000000000000000000000000000000000000000000
310
00000000000000000000000000000000000000000000000000000000000000000000000000000000000000000000000300000100000003000303030303030303030303030303030300000001000000030000000000000000000000000000000000000000000003000100000000000001000000000003030300030000000000
310
00000000000000000000000000000000000000000000000000000000000000000000000000000000000000000000000000000000000000000000000000000000000000000000000000000000000000000000000000000000000000000000000000000000030303010303030303030303000000040401000003030303030303
310
03010303030300000000000000000000000000000000000000000000030301030303030303030303030303030303030300000000000000000000000000000000000000000000000000000000000000000000000000000000000000000000000000000000000000000000000000000000000000000000000000000000000000
310
00000000000000000000000000000000000000000000000000000303030103030303030000000303030303030303030000030303030301030303030000000000000000000000000000000000000000000000000103030303030303000000000303030100000000000000000000000000000000000000000000000000000000
310
00000000000000000000000000000000000000000000000000000000000000000000000000000000000000000000000000000000000000000000000000000000000000000000000000000000000303030303030303030300030303000000000100000000030300030303030303030303030000000000000000000000000000
310
00000000000000000000030303010101030300000003030300000000000000000000000000000000000000000000000000000000000000000000000000000000000000000000000000000000000000000000000000000000000000000000000000000000000000000000000000000000000000000000000000000000000000
310
00000001010100000000000300030000000000000001000000000000030303000000000001010100000000000000000000000000000000000000000000000003030300030303030300000303030000000000000000000000000000000000000000000000000000000000000000000000000000000000000000000000000000
310
00000000000000000000000000000000000000000000000000000000000000000000000000000000000000000000000000000000000000000003030000000003030300000000000000000100000000000000000303000000000304030303030303000000000000000000000000000000000000000303000303030301030000
310
03030300000000000000000000000000000000000000000000000000000000000000000000000000000000000000000000000000000000000000000000000000000000000000000000000000000000000000000000000000000000000000000000000000000000000000000000010303030101010101010101010101010101
310
01010101010101010101010101010103040301010101030000000000000000000000000000000000000003030303010303010300000303030000000000000000000000000000000000000000000000000000000000000000000000000000000000000000000000000000000000000000000000000000000000000000000000
310
00000000000000000000000000000000000000000000000000000000000000000000000003030000000003000000000000000000030300000000000000000000030000000004030303030303000000000000000000000000000000000000000303030303030301030000030303000000000000000000000000000000000000
310
00000000000000000000000000000000000000000000000000000000000000000000000000000000000000000000000000000000000000000000000000000000000000000000000000000000000000000000000000000000030303000300030000000303030303030103030103030303030300000003000300000303000000
310
00000000000000000000000000000000000000000103030303030303030300000303030000000000000000000000000000000000000000000000000000000000000000000000000000000000000000000000000000000000000000000000000000000000000000000000000000000000000000000000000000000000000000
310
00000000000000000000000000000101010003000303030300000001000000030300000000000000030303030003000103030000000000000000000000000000000000000000000000000303030101010303030000030303000000000000000000000000000000000000000000000000000000000000000000000000000000
310
00000000000000000000000000000000000000000000000000000000000000000000000000000000000000000000000000000000000000000000000000000000000000000303030003000000000303030303030000010000000000000000000000030003030300000000000000000000000000000000000000000000000103
310
01010303030303030000000301010300000000000000000000000000000000000000000000000000000000000000000000000000000000000000000000000000000000000000000000000000000000000000000000000000000000000000000000000000000000000000000000000000000000000000000000000303030000
310
00000303010103010103030100000000010000000000000003030003000000000000000000000000000000000000000000000000030403000000000100000000030303030000000000000000000000000000000000000000000000000000000000000000000000000000000000000000000000000000000000000000000000
310
00000000000000000000000000000000000000000000000000000000000000000000000000000000000000000000000003030300000003030103030103030103010000030303030303000000000303000300000000000000000000000000000000000000000000000103010100000000010000000003010103000000000000
310
00000000000000000001000000000000000000000000000000000000000000000000000000000000000000000000000000000000000000000000000000000000000000000000000000000000000000000000000000000000000000000000000000000000000300030000000303030000010003010303000301010303010103
310
00000003000303000000000000000000000000000000000000000000000001030101000000000100000000030101030303030303030300000000000000030303000000000000000000000000000000000000000000000000000000000000000000000000000000000000000000000000000000000000000000000000000000
310
00000000000000000000000000000000000000000000000000000003000300000301000300000100000301030303030303030303030300000300030300000000000000000000000000000000000000000000000103010100000000010000000003010103000000000000030000000000000300010003000000000000000000
310
00000000000000000000000000000000000000000000000000000000000000000000000000000000000000000000000000000000000000000000000000000000000000000000000000000000000000010301010101010101030101010101030101030303030101030303030101010101030000000000000000000000000000
310
00000000000000000000030403010101010101010101010103030101010101010301000000000103010101030100000000000000000000000000000000000000000000000000000000000000000000000000000000000000000000000000000000000000000000000000000000000000000000000000000000000000000000
310
00000000000003000300000301000300000100000301010301030101010103010301000300030300000000000000000000000000000000000000000000000003040300000000010000000003030303000000000000030000000000000300010003000000000000000000000000000000000000000000000000000000000000
310
00000000000000000000000000000000000000000000000000000000000000000000000000000000000000000000000000000000000000000000000300030000000303030000010000010303030303030100030303030000030003030000000000000000000000000000000000000000000000000304030000000001000000
310
00030303030303030303030300000000000000030303000000000000000000000000000000000000000000000000000000000000000000000000000000000000000000000000000000000000000000000000000000000000000000000000000000000000000000000000000000000000030003000000030303030301030301
310
03010003030303030303030000000300030300000000000000000000000000000000000000000000000103010100000000010000000003010103030303030303030000000000000003030300000000000000000000000000000000000000000000000000000000000000000000000000000000000000000000000000000000
310
00000000000000000000000000000000000000000000000000000000000000000000000000000303030000000003010100010001010301000301010303010103000000030003000000000000000000000000000000000000000000000000000304030000000001000000000303030300000000000000000000000000000000
310
00000000000000000000000000000000000000000000000000000000000000000000000000000000000000000000000000000000000000000000000000000000000000000000000000000000000000000000000000000000000000030300030000000003030303010303000100000303030303030000000003030300000000
310
00000000000000000000000000000000000000000103010100000000010000000003010103000000000000000000000000000000000000000000000000000000000000000000000000000000000000000000000000000000000000000000000000000000000000000000000000000000000000000000000000000000000000
310
00000000000000000000000000000000000303000303030300000003010300000001000000000100000003030303000303000000000000000000000000000000000000000000000000000303030000000001000000000303030300000000000000000000000000000000000000000000000000000000000000000000000000
310
00000000000000000000000000000000000000000000000000000000000000000000000000000000000000000000000000000000000000000000000000000000000000000000030003000300000303030301030303030303030303030303030000030000030300000000000000000000000000000000000000000000000000
310
00030300000000010000000003030300000000000000000000000000000000000000000000000000000000000000000000000000000000000000000000000000000000000000000000000000000000000000000000000000000000000000000000000000000000000000000000000000000000000000000000000003000300
310
03000000000000000000000001000000000000000000000300030003000000000000000000000000000000000000000000000000000003030000000001000000000303030000000000000000000000000000000000000000000000000000000000000000000000000000000000000000000000000000000000000000000000
310
00000000000000000000000000000000000000000000000000000000000000000000000000000000000000000000000000030000030003000000000000000000000100000000000000000000030300000300000000000000000000000000000000000000000000000000000303000000000100000000030303000000000000
310
00000000000000000000000000000000000000000000000000000000000000000000000000000000000000000000000000000000000000000000000000000000000000000000000000000000000000000000000000000000000000000000000000000000000003000000030300000000000000030303030303000000000000
310
00030300000003000000000000000000000000000000000000000000000000000003030000000001000000000303030000000000000000000000000000000000000000000000000000000000000000000000000000000000000000000000000000000000000000000000000000000000000000000000000000000000000000
310
00000000000000000000000000000000000000000000000000000000000300000300030300000000000303030303030000000000000300030000030000000000000000000000000000000000000000000000000000000303000000000100000000030303000000000000000000000000000000000000000000000000000000
310
00000000000000000000000000000000000000000000000000000000000000000000000000000000000000000000000000000000000000000000000000000000000000000000000000000000000000000000030000000300000303000000030303030303000000030303000300000003000000000000000000000000000000
310
00000000000000000000000003030000000001000000000303030000000000000000000000000000000000000000000000000000000000000000000000000000000000000000000000000000000000000000000000000000000000000000000000000000000000000000000000000000000000000000000000000000000000
310
00000000000000000300000000030303000300000000000100000000030000030300000000030000000000000000000000000000000000000000000000000000000303000000000100000000030303000000000000000000000000000000000000000000000000000000000000000000000000000000000000000000000000
310
00000000000000000000000000000000000000000000000000000000000000000000000000000000000000000000000000000000000000000000000000030000000000000003000303030303010303030300030300000000000003000000000000000000000000000000000000000000000000000000030300000000010000
310
00000303030000000000000000000000000000000000000000000000000000000000000000000000000000000000000000000000000000000000000000000000000000000000000000000000000000000000000000000000000000000000000000000000000000000000000000000000000000030303030100000003030300
310
00000100000003030000000003030303000000000000000000000000000000000000000000000000000000000303000000000100000000030303000000000000000000000000000000000000000000000000000000000000000000000000000000000000000000000000000000000000000000000000000000000000000000
310
00000000000000000000000000000000000000000000000000000000000000000000000000000000000000000303030303030303030303030303030303030303030000000000000000000000000000000000000000000000000000000000000000030303030303030303030303030300000000000000000000000000000000
310
00000000000000000000000000000000000000000000000000000000000000000000000000000000000000000000000000000000000000000000000000000000000000000000000000000000000000000000000000000000000000000000000000000000000000000000000303000000000000000000000000000000000000
310
00000000000000000000000000000000000000000000000000000000030303030000000000000000000000000000000000000000000000000000000000000000000000000000000000000000000000000000000000000000000000000000000000000000000000000000000000000000000000000000000000000000000000
310
00000000000000000000000000000000000000000000000000000000000000000001010100000000000000000000000000000000000000000000000000000000000000000000000000000000000000000103010301010000000000000000000000000000000000000000000000000000000000000000000000000000000000
310
00000000000000000000000000000000000000000000000000000000000000000000000000000000000000000000000000000000000000000000000000000000000000000000000000000000000000000000000000000303000000000000000000000000000000000000000000000000000000000000000000000000000000
310
00000000000000030303030000000000000000000000000000000000000000000000000000000000000000000000000000000000000000000000000000000000000000000000000000000000000000000000000000000000000000000000000000000000000000000000000000000000000000000000000000000000000000
310
00000000000000000000000003030000000000000000000000000000000000000000000000000000000000000000000000000000000000000000000003030300000000000000000000000000000000000000000000000000000000000000000000000000000000000000000000000000000000000000000000000000000000
310
00000000000000000000000000000000000000000000000000000000000000000000000000000000000000000000000000000000000000000000000000000000000000000000000000000000000000000000000000000000000000000000000000000000000000000000000000000000000000000000000000000000000000
310
00000000000000000000000000000000000000000000000000000000000000000000000000000000000000000000000000000000000000000000000000000000000000000000000000000000000000000000000000000000000000000000000000000000000000000000000000000000000000000000000000000000000000
310
00000000000000000000000000000000000000000000000000000000000000000000000000000000000000000000000000000000000000000000000000000000000000000000000000000000000000000000000000000000000000000000000000000000000000000000000000000000000000000000000000000000000000
310
00000000000000000000000000000000000000000000000000000000000000000000000000000000000000000000000000000000000000000000000000000000000000000000000000000000000000000000000000000000000000000000000000000000000000000000000000000000000000000000000000000000000000
310
00000000000000000000000000000000000000000000000000000000000000000000000000000000000000000000000000000000000000000000000000000000000000000000000000000000000000000000000000000000000000000000000000000000000000000000000000000000000000000000000000000000000000
310
00000000000000000000000000000000000000000000000000000000000000000000000000000000000000000000000000000000000000000000000000000000000000000000000000000000000000000000000000000000000000000000000000000000000000000000000000000000000000000000000000000000000000
310
00000000000000000000000000000000000000000000000000000000000000000000000000000000000000000000000000000000000000000000000000000000000000000000000000000000000000000000000000000000000000000000000000000000000000000000000000000000000000000000000000000000000000
310
00000000000000000000000000000000000000000000000000000000000000000000000000000000000000000000000000000000000000000000000000000000000000000000000000000000000000000000000000000000000000000000000000000000000000000000000000000000000000000000000000000000000000
310
00000000000000000000000000000000000000000000000000000000000000000000000000000000000000000000000000000000000000000000000000000000000000000000000000000000000000000000000000000000000000000000000000000000000000000000000000000000000000000000000000000000000000
310
00000000000000000000000000000000000000000000000000000000000000000000000000000000000000000000000000000000000000000000000000000000000000000000000000000000000000000000000000000000000000000000000000000000000000000000000000000000000000000000000000000000000000
310
00000000000000000000000000000000000000000000000000000000000000000000000000000000000000000000000000000000000000000000000000000000000000000000000000000000000000000000000000000000000000000000000000000000000000000000000000000000000000000000000000000000000000
310
00000000000000000000000000000000000000000000000000000000000000000000000000000000000000000000000000000000000000000000000000000000000000000000000000000000000000000000000000000000000000000000000000000000000000000000000000000000000000000000000000000000000000
310
00000000000000000000000000000000000000000000000000000000000000000000000000000000000000000000000000000000000000000000000000000000000000000000000000000000000000000000000000000000000000000000000000000000000000000000000000000000000000000000000000000000000000
310
00000000000000000000000000000000000000000000000000000000000000000000000000000000000000000000000000000000000000000000000000000000000000000000000000000000000000000000000000000000000000000000000000000000000000000000000000000000000000000000000000000000000000
310
00000000000000000000000000000000000000000000000000000000000000000000000000000000000000000000000000000000000000000000000000000000000000000000000000000000000000000000000000000000000000000000000000000000000000000000000000000000000000000000000000000000000000
310
00000000000000000000000000000000000000000000000000000000000000000000000000000000000000000000000000000000000000000000000000000000000000000000000000000000000000000000000000000000000000000000000000000000000000000000000000000000000000000000000000000000000000
310
00000000000000000000000000000000000000000000000000000000000000000000000000000000000000000000000000000000000000000000000000000000000000000000000000000000000000000000000000000000000000000000000000000000000000000000000000000000000000000000000000000000000000
310
00000000000000000000000000000000000000000000000000000000000000000000000000000000000000000000000000000000000000000000000000000000000000000000000000000000000000000000000000000000000000000000000000000000000000000000000000000000000000000000000000000000000000
310
00000000000000000000000000000000000000000000000000000000000000000000000000000000000000000000000000000000000000000000000000000000000000000000000000000000000000000000000000000000000000000000000000000000000000000000000000000000000000000000000000000000000000
310
00000000000000000000000000000000000000000000000000000000000000000000000000000000000000000000000000000000000000000000000000000000000000000000000000000000000000000000000000000000000000000000000000000000000000000000000000000000000000000000000000000000000000
310
00000000000000000000000000000000000000000000000000000000000000000000000000000000000000000000000000000000000000000000000000000000000000000000000000000000000000000000000000000000000000000000000000000000000000000000000000000000000000000000000000000000000000
310
00000000000000000000000000000000000000000000000000000000000000000000000000000000000000000000000000000000000000000000000000000000000000000000000000000000000000000000000000000000000000000000000000000000000000000000000000000000000000000000000000000000000000
310
00000000000000000000000000000000000000000000000000000000000000000000000000000000000000000000000000000000000000000000000000000000000000000000000000000000000000000000000000000000000000000000000000000000000000000000000000000000000000000000000000000000000000
310
00000000000000000000000000000000000000000000000000000000000000000000000000000000000000000000000000000000000000000000000000000000000000000000000000000000000000000000000000000000000000000000000000000000000000000000000000000000000000000000000000000000000000
310
00000000000000000000000000000000000000000000000000000000000000000000000000000000000000000000000000000000000000000000000000000303030303030303030000000000000000000000000000000303030303030303000000000000000000000000000000000000000000000000000000000000000000
310
00000000000000000000000000000000000000000000000000000000000000000000000000000000000000000000000000000000000000000000000000000000000000000000000000000000000000000000000000000000000000000000000000000000000000000000000000000000000000030000010000000003000001
310
00000000000000000001000003000000010000000300000000000000000000000000000000000000000000000000000000000000000000000000000000000000000000000000000000000000000000000000000000000000000000000000000000000000000000000000000000000000000000000000000000000000000000
310
00000000000000000000000000000000000000000000000000000000000000000000000000000000000303030303030301030303030303030103030103030303030301030101010103030000000000000000000000000000000000000000000000000000000000000000000000000000000000000000000000000000000000
310
00000000000000000000000000000000000000000000000000000000000000000000000000000000000000000000000000000000000000000000000000000000000000000000000000000000000000000000000000000000000000000000030303030304040104040404040404010404010404040404040104030103000303
310
00000000000000000000000000000000000000000000000000000000000000000000000000000000000000000000000000000000000000000000000000000000000000000000000000000000000000000000000000000000000000000000000000000000000000000000000000000000000000000000000000000000000000
310
00000000000000000000000000000000000003030303030103030301030303010303030101030103030103030301030301030303030300000000000000000000000000000000000000000000000000000000000000000000000000000000000000000000000000000000000000000000000000000000000000000000000000
310
00000000000000000000000000000000000000000000000000000000000000000000000000000000000000000000000000000000000000000000000000000000000000000000000101010303030303030303030301030303030103030303010303030303030303030101010000000000000000000000000000000000000000
310
00000000000000000000000000000000000000000000000000000000000000000000000000000000000000000000000000000000000000000000000000000000000000000000000000000000000000000000000000000000000000000000000000000000000000000000000000000000000000000000000000000000000303
310
00000000000000000000010000000001000000000100000000000000000000030303030303030000000000000000000000000000000000000000000000000000000000000000000000000000000000000000000000000000000000000000000000000000000000000000000000000000000000000000000000000000000000
310
00000000000000000000000000000000000000000000000000000000000000000000000000000000000000000000000000000103010101010101010101010101010101010101010101010101010101010101010103030303030303000000000000000000000000000000000000000000000000000000000000000000000000
310
00000000000000000000000000000000000000000000000000000000000000000000000000000000000000000000000000000000000000000000000000000000000000000000000000000000000000000000000000000000000000000000000000000000000000000303000000000001000000000100000303030300000001
310
00000000000000000000030303030303030000000000000000000000000000000000000000000000000000000000000000000000000000000000000000000000000000000000000000000000000000000000000000000000000000000000000000000000000000000000000000000000000000000000000000000000000000
310
00000000000000000000000000000000000000000000000000000000000303030000000003030300000001000003030303000000010000000000000000000003030000000000000000000000000000000000000000000000000000000000000000000000000000000000000000000000000000000000000000000000000000
310
00000000000000000000000000000000000000000000000000000000000000000000000000000000000000000000000000000000000000000000000000000000000000000000000000000000000000000000010101010101010303030101010101010303030301010101010101010101010101010101000000000000000000
310
00000000000000000000000000000000000000000000000000000000000000000000000000000000000000000000000000000000000000000000000000000000000000000000000000000000000000000000000000000000000000000000000000000000000000000000000000000000000000000000000000000000000000
310
00000000000000000003030000000003030000000001000003030303000000010000000000000000000003000000000000000000000000000000000000000000000000000000000000000000000000000000000000000000000000000000000000000000000000000000000000000000000000000000000000000000000000
310
00000000000000000000000000000000000000000000000000000000000000000000000000000000000000000000000000000000000000000000000000000003000000000000000000000100000303030300000001000000000000000000000300000000000000000000000000000000000000000000000000000000000000
310
00000000000000000000000000000000000000000000000000000000000000000000000000000000000000000000000000000000000000000000000000000000000000000000000000000000000000000000000000000000000000000000000000000000000000000000000000000000000000000300000000000000000000
310
01000000000100000000010000000000000000000003000000000000000000000000000000000000000000000000000000000000000000000000000000000000000000000000000000000000000000000000000000000000000000000000000000000000000000000000000000000000000000000000000000000000000000
310
00000000000000000000000000000000000000000000000000000000000000000000000000000000000003000000000000000000000100000000010000000001000000000000000000000300000000000000000000000000000000000000000000000000000000000000000000000000000000000000000000000000000000
310
00000000000000000000000000000000000000000000000000000000000000000000000000000000000000000000000000000000000000000000000000000000000000000000000000000000000000000000000000000000000000000000000404040404040401040404010404040104040104040104040401040404040404
310
03000000000000000000000000000000000000000000000000000000000000000000000000000000000000000000000000000000000000000000000000000000000000000000000000000000000000000000000000000000000000000000000000000000000000000000000000000000000000000000000000000000000000
310
00000000000000000000000000000000000000000003030303030404010404040404040401040401040404040404010403030303030300000000000000000000000000000000000000000000000000000000000000000000000000000000000000000000000000000000000000000000000000000000000000000000000000
310
00000000000000000000000000000000000000000000000000000000000000000000000000000000000000000000000000000000000000000000000000000000000000000000000000000303010101030303030303030303030103030303030303030301030101030103030000000000000000000000000000000000000000
310
00000000000000000000000000000000000000000000000000000000000000000000000000000000000000000000000000000000000000000000000000000000000000000000000000000000000000000000000000000000000000000000000000000000000000000000000000000000000000000000000000000000000000
310
03000001000000010303030303030001000001000001000300010000010000000300000000000000000000000000000000000000000000000000000000000000000000000000000000000000000000000000000000000000000000000000000000000000000000000000000000000000000000000000000000000000000000
310
00000000000000000000000000000000000000000000000000000000000000000000000000000000000000000000000000000000000303030303030303030303030003000000000000000000000303030303030303030000000000000000000000000000000000000000000000000000000000000000000000000000000000
310
00000000000000000000000000000000000000000000000000000000000000000000000000000000000000000000000000000000000000000000000000000000000000000000000000000000000000000000000000000000000000000000000000000000000000000000000000000000000000030303000300000000000000
310
00000000000000000000000000000000000000000000000000000000000000000000000000000000000000000000000000000000000000000000000000000000000000000000000000000000000000000000000000000000000000000000000000000000000000000000000000000000000000000000000000000000000000
310
00000000000000000000000000000000000000000000000000000000000000000000000000000000000303030003000000000000000000000000000000000000000000000000000000000000000000000000000000000000000000000000000000000000000000000000000000000000000000000000000000000000000000
310
00000000000000000000000000000000000000000000000000000000000000000000000000000000000000000000000000000000000000000000000000000000000000000000000000000000000000000000000000000000000000000000030303000300000000000000000000000000000000000000000000000000000000
310
00000000000000000000000000000000000000000000000000000000000000000000000000000000000000000000000000000000000000000000000000000000000000000000000000000000000000000000000000000000000000000000000000000000000000000000000000000000000000000000000000000000000000
310
00000000000000000000000000000000000000000303030003000000000000000000000000000000000000000000000000000000000000000000000000000000000000000000000000000000000000000000000000000000000000000000000000000000000000000000000000000000000000000000000000000000000000
310
00000000000000000000000000000000000000000000000000000000000000000000000000000000000000000000000000000000000000000000000000000000000000000000000000030303000300000000000000000000000000000000000000000000000000000000000000000000000000000000000000000000000000
310
00000000000000000000000000000000000000000000000000000000000000000000000000000000000000000000000000000000000000000000000000000000000000000000000000000000000000000000000000000000000000000000000000000000000000000000000000000000000000000000000000000000000003
310
03030303000000000000000000000000000000000000000000000000000000000000000000000000000000000000000000000000000000000000000000000000000000000000000000000000000000000000000000000000000000000000000000000000000000000000000000000000000000000000000000000000000000
310
00000000000000000000000000000000000000000000000000000000000000000000000000000000000000000000000000000000000000000000000000000000000000000000000000000000000000000000000000000000000000000000000000000000000000000000000000000000000000000000000000000000000000
310
00000000000000000000000000000000000000000000000000000000000000000000000000000000000000000000000000000000000000000000000000000000000000000000000000000000000000000000000000000000000000000000000000000000000000000000000000000000000000000000000000000000000000
310
000000000000000000000000000000000000000000000000000000000000000000000000000000000000000000000000000000000000000000000000000000000000000000000000000000000000000000000000000000000000000000000000000000000000000000000000
  0
ENDSEC
  0
EOF
