  0
SECTION
  2
HEADER
  9
$ACADVER
  1
AC1015
  9
$ACADMAINTVER
 70
     6
  9
$DWGCODEPAGE
  3
ANSI_932
  9
$INSBASE
 10
3622.951418059088
 20
2364.273118638839
 30
0.0
  9
$EXTMIN
 10
163.4330557474494
 20
46.79361431732661
 30
0.0
  9
$EXTMAX
 10
1967.000396650355
 20
1568.725498502165
 30
0.0
  9
$LIMMIN
 10
0.0
 20
0.0
  9
$LIMMAX
 10
816.5000000000001
 20
565.0
  9
$ORTHOMODE
 70
     1
  9
$REGENMODE
 70
     1
  9
$FILLMODE
 70
     1
  9
$QTEXTMODE
 70
     0
  9
$MIRRTEXT
 70
     1
  9
$LTSCALE
 40
20.0
  9
$ATTMODE
 70
     1
  9
$TEXTSIZE
 40
18.0
  9
$TRACEWID
 40
0.05
  9
$TEXTSTYLE
  7
KANJI
  9
$CLAYER
  8
2
  9
$CELTYPE
  6
BYLAYER
  9
$CECOLOR
 62
   256
  9
$CELTSCALE
 40
1.0
  9
$DISPSILH
 70
     0
  9
$DIMSCALE
 40
6.0
  9
$DIMASZ
 40
2.0
  9
$DIMEXO
 40
0.5
  9
$DIMDLI
 40
0.0
  9
$DIMRND
 40
0.0
  9
$DIMDLE
 40
0.0
  9
$DIMEXE
 40
1.0
  9
$DIMTP
 40
0.0
  9
$DIMTM
 40
0.0
  9
$DIMTXT
 40
3.0
  9
$DIMCEN
 40
0.09
  9
$DIMTSZ
 40
0.0
  9
$DIMTOL
 70
     0
  9
$DIMLIM
 70
     0
  9
$DIMTIH
 70
     0
  9
$DIMTOH
 70
     0
  9
$DIMSE1
 70
     0
  9
$DIMSE2
 70
     0
  9
$DIMTAD
 70
     0
  9
$DIMZIN
 70
     8
  9
$DIMBLK
  1

  9
$DIMASO
 70
     0
  9
$DIMSHO
 70
     0
  9
$DIMPOST
  1

  9
$DIMAPOST
  1

  9
$DIMALT
 70
     0
  9
$DIMALTD
 70
     2
  9
$DIMALTF
 40
25.4
  9
$DIMLFAC
 40
1.0
  9
$DIMTOFL
 70
     1
  9
$DIMTVP
 40
1.0
  9
$DIMTIX
 70
     1
  9
$DIMSOXD
 70
     1
  9
$DIMSAH
 70
     0
  9
$DIMBLK1
  1

  9
$DIMBLK2
  1

  9
$DIMSTYLE
  2
STANDARD
  9
$DIMCLRD
 70
   256
  9
$DIMCLRE
 70
   256
  9
$DIMCLRT
 70
   256
  9
$DIMTFAC
 40
1.0
  9
$DIMGAP
 40
0.09
  9
$DIMJUST
 70
     0
  9
$DIMSD1
 70
     0
  9
$DIMSD2
 70
     0
  9
$DIMTOLJ
 70
     1
  9
$DIMTZIN
 70
     0
  9
$DIMALTZ
 70
     0
  9
$DIMALTTZ
 70
     0
  9
$DIMUPT
 70
     0
  9
$DIMDEC
 70
     1
  9
$DIMTDEC
 70
     4
  9
$DIMALTU
 70
     2
  9
$DIMALTTD
 70
     2
  9
$DIMTXSTY
  7
STANDARD
  9
$DIMAUNIT
 70
     0
  9
$DIMADEC
 70
     0
  9
$DIMALTRND
 40
0.0
  9
$DIMAZIN
 70
     0
  9
$DIMDSEP
 70
    46
  9
$DIMATFIT
 70
     3
  9
$DIMFRAC
 70
     0
  9
$DIMLDRBLK
  1

  9
$DIMLUNIT
 70
     2
  9
$DIMLWD
 70
    -2
  9
$DIMLWE
 70
    -2
  9
$DIMTMOVE
 70
     0
  9
$LUNITS
 70
     2
  9
$LUPREC
 70
     3
  9
$SKETCHINC
 40
0.1
  9
$FILLETRAD
 40
1.0
  9
$AUNITS
 70
     0
  9
$AUPREC
 70
     3
  9
$MENU
  1
C:\R13\WIN\SUPPORT\ACADFULL
  9
$ELEVATION
 40
0.0
  9
$PELEVATION
 40
0.0
  9
$THICKNESS
 40
0.0
  9
$LIMCHECK
 70
     0
  9
$CHAMFERA
 40
0.0
  9
$CHAMFERB
 40
0.0
  9
$CHAMFERC
 40
0.0
  9
$CHAMFERD
 40
0.0
  9
$SKPOLY
 70
     0
  9
$TDCREATE
 40
2457413.440462003
  9
$TDUCREATE
 40
2457413.065462003
  9
$TDUPDATE
 40
2458114.540826262
  9
$TDUUPDATE
 40
2458114.165826262
  9
$TDINDWG
 40
0.0269703704
  9
$TDUSRTIMER
 40
0.0269693866
  9
$USRTIMER
 70
     1
  9
$ANGBASE
 50
0.0
  9
$ANGDIR
 70
     0
  9
$PDMODE
 70
     0
  9
$PDSIZE
 40
0.0
  9
$PLINEWID
 40
0.0
  9
$SPLFRAME
 70
     0
  9
$SPLINETYPE
 70
     6
  9
$SPLINESEGS
 70
     8
  9
$HANDSEED
  5
AC0
  9
$SURFTAB1
 70
     6
  9
$SURFTAB2
 70
     6
  9
$SURFTYPE
 70
     6
  9
$SURFU
 70
     6
  9
$SURFV
 70
     6
  9
$UCSBASE
  2

  9
$UCSNAME
  2

  9
$UCSORG
 10
0.0
 20
0.0
 30
0.0
  9
$UCSXDIR
 10
1.0
 20
0.0
 30
0.0
  9
$UCSYDIR
 10
0.0
 20
1.0
 30
0.0
  9
$UCSORTHOREF
  2

  9
$UCSORTHOVIEW
 70
     0
  9
$UCSORGTOP
 10
0.0
 20
0.0
 30
0.0
  9
$UCSORGBOTTOM
 10
0.0
 20
0.0
 30
0.0
  9
$UCSORGLEFT
 10
0.0
 20
0.0
 30
0.0
  9
$UCSORGRIGHT
 10
0.0
 20
0.0
 30
0.0
  9
$UCSORGFRONT
 10
0.0
 20
0.0
 30
0.0
  9
$UCSORGBACK
 10
0.0
 20
0.0
 30
0.0
  9
$PUCSBASE
  2

  9
$PUCSNAME
  2

  9
$PUCSORG
 10
0.0
 20
0.0
 30
0.0
  9
$PUCSXDIR
 10
1.0
 20
0.0
 30
0.0
  9
$PUCSYDIR
 10
0.0
 20
1.0
 30
0.0
  9
$PUCSORTHOREF
  2

  9
$PUCSORTHOVIEW
 70
     0
  9
$PUCSORGTOP
 10
0.0
 20
0.0
 30
0.0
  9
$PUCSORGBOTTOM
 10
0.0
 20
0.0
 30
0.0
  9
$PUCSORGLEFT
 10
0.0
 20
0.0
 30
0.0
  9
$PUCSORGRIGHT
 10
0.0
 20
0.0
 30
0.0
  9
$PUCSORGFRONT
 10
0.0
 20
0.0
 30
0.0
  9
$PUCSORGBACK
 10
0.0
 20
0.0
 30
0.0
  9
$USERI1
 70
     0
  9
$USERI2
 70
     0
  9
$USERI3
 70
     0
  9
$USERI4
 70
     0
  9
$USERI5
 70
     0
  9
$USERR1
 40
0.0
  9
$USERR2
 40
0.0
  9
$USERR3
 40
0.0
  9
$USERR4
 40
2448925.372986111
  9
$USERR5
 40
0.04166667
  9
$WORLDVIEW
 70
     1
  9
$SHADEDGE
 70
     3
  9
$SHADEDIF
 70
    70
  9
$TILEMODE
 70
     1
  9
$MAXACTVP
 70
    16
  9
$PINSBASE
 10
0.0
 20
0.0
 30
0.0
  9
$PLIMCHECK
 70
     0
  9
$PEXTMIN
 10
1000000000000000E+20
 20
1000000000000000E+20
 30
1000000000000000E+20
  9
$PEXTMAX
 10
-1000000000000000E+20
 20
-1000000000000000E+20
 30
-1000000000000000E+20
  9
$PLIMMIN
 10
0.0
 20
0.0
  9
$PLIMMAX
 10
12.0
 20
9.0
  9
$UNITMODE
 70
     0
  9
$VISRETAIN
 70
     0
  9
$PLINEGEN
 70
     0
  9
$PSLTSCALE
 70
     0
  9
$TREEDEPTH
 70
  3020
  9
$CMLSTYLE
  2
STANDARD
  9
$CMLJUST
 70
     0
  9
$CMLSCALE
 40
1.0
  9
$PROXYGRAPHICS
 70
     1
  9
$MEASUREMENT
 70
     0
  9
$CELWEIGHT
370
    -1
  9
$ENDCAPS
280
     0
  9
$JOINSTYLE
280
     0
  9
$LWDISPLAY
290
     0
  9
$INSUNITS
 70
     0
  9
$HYPERLINKBASE
  1

  9
$STYLESHEET
  1

  9
$XEDIT
290
     1
  9
$CEPSNTYPE
380
     0
  9
$PSTYLEMODE
290
     1
  9
$FINGERPRINTGUID
  2
{D96F28DB-B2DB-4AD8-9AEF-0C04C20878B1}
  9
$VERSIONGUID
  2
{6E15CFCB-A786-48F2-8C2A-AE2ED21AEAE9}
  9
$EXTNAMES
290
     1
  9
$PSVPSCALE
 40
0.0
  9
$OLESTARTUP
290
     0
  0
ENDSEC
  0
SECTION
  2
CLASSES
  0
CLASS
  1
ACDBDICTIONARYWDFLT
  2
AcDbDictionaryWithDefault
  3
ObjectDBX Classes
 90
        0
280
     0
281
     0
  0
CLASS
  1
MATERIAL
  2
AcDbMaterial
  3
ObjectDBX Classes
 90
     1153
280
     0
281
     0
  0
CLASS
  1
SORTENTSTABLE
  2
AcDbSortentsTable
  3
ObjectDBX Classes
 90
        0
280
     0
281
     0
  0
CLASS
  1
SCALE
  2
AcDbScale
  3
ObjectDBX Classes
 90
     1153
280
     0
281
     0
  0
CLASS
  1
DICTIONARYVAR
  2
AcDbDictionaryVar
  3
ObjectDBX Classes
 90
        0
280
     0
281
     0
  0
CLASS
  1
VISUALSTYLE
  2
AcDbVisualStyle
  3
ObjectDBX Classes
 90
     4095
280
     0
281
     0
  0
CLASS
  1
MLEADERSTYLE
  2
AcDbMLeaderStyle
  3
ACDB_MLEADERSTYLE_CLASS
 90
     4095
280
     0
281
     0
  0
CLASS
  1
ACDBPLACEHOLDER
  2
AcDbPlaceHolder
  3
ObjectDBX Classes
 90
        0
280
     0
281
     0
  0
CLASS
  1
LAYOUT
  2
AcDbLayout
  3
ObjectDBX Classes
 90
        0
280
     0
281
     0
  0
ENDSEC
  0
SECTION
  2
TABLES
  0
TABLE
  2
VPORT
  5
26
102
{ACAD_XDICTIONARY
360
A85
102
}
330
0
100
AcDbSymbolTable
 70
     2
  0
VPORT
  5
2B
330
26
100
AcDbSymbolTableRecord
100
AcDbViewportTableRecord
  2
*ACTIVE
 70
     0
 10
0.0
 20
0.0
 11
1.0
 21
1.0
 12
1441.351055548042
 22
833.0053004964145
 13
0.0
 23
0.0
 14
1.0
 24
1.0
 15
50.0
 25
50.0
 16
0.0
 26
0.0
 36
1.0
 17
0.0
 27
0.0
 37
0.0
 40
1731.976630613358
 41
1.82716049382716
 42
50.0
 43
0.0
 44
0.0
 50
0.0
 51
0.0
 71
     0
 72
  5000
 73
     1
 74
     0
 75
     0
 76
     0
 77
     0
 78
     0
281
     0
 65
     1
110
0.0
120
0.0
130
0.0
111
1.0
121
0.0
131
0.0
112
0.0
122
1.0
132
0.0
 79
     0
146
0.0
  0
ENDTAB
  0
TABLE
  2
LTYPE
  5
B
330
0
100
AcDbSymbolTable
 70
     2
  0
LTYPE
  5
C
330
B
100
AcDbSymbolTableRecord
100
AcDbLinetypeTableRecord
  2
BYBLOCK
 70
     0
  3

 72
    65
 73
     0
 40
0.0
  0
LTYPE
  5
D
330
B
100
AcDbSymbolTableRecord
100
AcDbLinetypeTableRecord
  2
BYLAYER
 70
     0
  3

 72
    65
 73
     0
 40
0.0
  0
LTYPE
  5
A
330
B
100
AcDbSymbolTableRecord
100
AcDbLinetypeTableRecord
  2
CONTINUOUS
 70
     0
  3
Solid line
 72
    65
 73
     0
 40
0.0
  0
LTYPE
  5
5A
330
B
100
AcDbSymbolTableRecord
100
AcDbLinetypeTableRecord
  2
CENTER
 70
     0
  3
____ _ ____ _ ____ _ ____ _ ____ _ ____ _ ____
 72
    65
 73
     4
 40
2.0
 49
1.25
 74
     0
 49
-0.25
 74
     0
 49
0.25
 74
     0
 49
-0.25
 74
     0
  0
ENDTAB
  0
TABLE
  2
LAYER
  5
2
330
0
100
AcDbSymbolTable
 70
    10
  0
LAYER
  5
1B
330
2
100
AcDbSymbolTableRecord
100
AcDbLayerTableRecord
  2
0
 70
     0
 62
     7
  6
CONTINUOUS
370
    -3
390
3
  0
LAYER
  5
882
330
2
100
AcDbSymbolTableRecord
100
AcDbLayerTableRecord
  2
1
 70
     0
 62
     9
  6
CONTINUOUS
370
    -3
390
3
  0
LAYER
  5
1
330
2
100
AcDbSymbolTableRecord
100
AcDbLayerTableRecord
  2
2
 70
     0
 62
     4
  6
CONTINUOUS
370
    -3
390
3
  0
LAYER
  5
52
330
2
100
AcDbSymbolTableRecord
100
AcDbLayerTableRecord
  2
4
 70
     0
 62
     3
  6
CONTINUOUS
370
    -3
390
3
  0
LAYER
  5
59
330
2
100
AcDbSymbolTableRecord
100
AcDbLayerTableRecord
  2
L-CENTER
 70
     0
 62
     1
  6
CENTER
370
    -3
390
3
  0
LAYER
  5
288
330
2
100
AcDbSymbolTableRecord
100
AcDbLayerTableRecord
  2
3
 70
     0
 62
     2
  6
CONTINUOUS
370
    -3
390
3
  0
LAYER
  5
87C
330
2
100
AcDbSymbolTableRecord
100
AcDbLayerTableRecord
  2
5
 70
     0
 62
     6
  6
CONTINUOUS
370
    -3
390
3
  0
LAYER
  5
22B
102
{ACAD_XDICTIONARY
360
22C
102
}
330
2
100
AcDbSymbolTableRecord
100
AcDbLayerTableRecord
  2
CENTER
 70
     0
 62
     1
  6
CENTER
370
    -3
390
3
  0
LAYER
  5
988
330
2
100
AcDbSymbolTableRecord
100
AcDbLayerTableRecord
  2
Defpoints
 70
     0
 62
     7
  6
CONTINUOUS
290
     0
370
    -3
390
3
  0
ENDTAB
  0
TABLE
  2
STYLE
  5
F
330
0
100
AcDbSymbolTable
 70
     2
  0
STYLE
  5
13
330
F
100
AcDbSymbolTableRecord
100
AcDbTextStyleTableRecord
  2
STANDARD
 70
     0
 40
0.0
 41
1.0
 50
0.0
 71
     0
 42
10.79999999999999
  3
TXT
  4

  0
STYLE
  5
E
330
F
100
AcDbSymbolTableRecord
100
AcDbTextStyleTableRecord
  2
KANJI
 70
     0
 40
0.0
 41
1.0
 50
0.0
 71
     0
 42
18.0
  3
TXT
  4
BIGFONT
  0
ENDTAB
  0
TABLE
  2
VIEW
  5
24
330
0
100
AcDbSymbolTable
 70
     0
  0
ENDTAB
  0
TABLE
  2
UCS
  5
25
330
0
100
AcDbSymbolTable
 70
     0
  0
ENDTAB
  0
TABLE
  2
APPID
  5
9
330
0
100
AcDbSymbolTable
 70
     3
  0
APPID
  5
8
330
9
100
AcDbSymbolTableRecord
100
AcDbRegAppTableRecord
  2
ACAD
 70
     0
  0
APPID
  5
1F
330
9
100
AcDbSymbolTableRecord
100
AcDbRegAppTableRecord
  2
ACAD_PSEXT
 70
     0
  0
APPID
  5
A42
330
9
100
AcDbSymbolTableRecord
100
AcDbRegAppTableRecord
  2
ACAD_MLEADERVER
 70
     0
  0
ENDTAB
  0
TABLE
  2
DIMSTYLE
  5
12
330
0
100
AcDbSymbolTable
 70
     1
100
AcDbDimStyleTable
  0
DIMSTYLE
105
11
330
12
100
AcDbSymbolTableRecord
100
AcDbDimStyleTableRecord
  2
STANDARD
 70
     0
178
     0
340
13
  0
ENDTAB
  0
TABLE
  2
BLOCK_RECORD
  5
16
330
0
100
AcDbSymbolTable
 70
     0
  0
BLOCK_RECORD
  5
17
102
{ACAD_XDICTIONARY
360
18
102
}
330
16
100
AcDbSymbolTableRecord
100
AcDbBlockTableRecord
  2
*MODEL_SPACE
340
1D
  0
BLOCK_RECORD
  5
20
330
16
100
AcDbSymbolTableRecord
100
AcDbBlockTableRecord
  2
*PAPER_SPACE
340
23
  0
ENDTAB
  0
ENDSEC
  0
SECTION
  2
BLOCKS
  0
BLOCK
  5
1A
330
17
100
AcDbEntity
  8
0
100
AcDbBlockBegin
  2
*MODEL_SPACE
 70
     0
 10
0.0
 20
0.0
 30
0.0
  3
*MODEL_SPACE
  1

  0
ENDBLK
  5
1C
330
17
100
AcDbEntity
  8
0
100
AcDbBlockEnd
  0
BLOCK
  5
21
330
20
100
AcDbEntity
 67
     1
  8
0
100
AcDbBlockBegin
  2
*PAPER_SPACE
 70
     0
 10
0.0
 20
0.0
 30
0.0
  3
*PAPER_SPACE
  1

  0
ENDBLK
  5
22
330
20
100
AcDbEntity
 67
     1
  8
0
100
AcDbBlockEnd
  0
ENDSEC
  0
SECTION
  2
ENTITIES
  0
LINE
  5
58
330
17
100
AcDbEntity
  8
L-CENTER
100
AcDbLine
 10
475.9498663283289
 20
1475.15286105447
 30
0.0
 11
475.9498663283289
 21
1519.493476756747
 31
0.0
  0
LINE
  5
5B
330
17
100
AcDbEntity
  8
4
100
AcDbLine
 10
485.7648209045524
 20
1515.721971556313
 30
0.0
 11
485.7648209045524
 21
1507.125498502166
 31
0.0
  0
LINE
  5
5C
330
17
100
AcDbEntity
  8
4
100
AcDbLine
 10
466.1349117521054
 20
1507.125498502166
 30
0.0
 11
466.1349117521054
 21
1515.721971556313
 31
0.0
  0
LINE
  5
5D
330
17
100
AcDbEntity
  8
4
100
AcDbLine
 10
480.8573436164411
 20
1515.721971556313
 30
0.0
 11
480.8573436164411
 21
1509.625498502166
 31
0.0
  0
ARC
  5
5E
330
17
100
AcDbEntity
  8
4
100
AcDbCircle
 10
483.3110822604972
 20
1512.841884573107
 30
0.0
 40
3.783613929059507
100
AcDbArc
 50
49.57010315517826
 51
130.4298968448217
  0
LINE
  5
5F
330
17
100
AcDbEntity
  8
4
100
AcDbLine
 10
468.5886503961615
 20
1516.625498502166
 30
0.0
 11
483.3110822604972
 21
1516.625498502166
 31
0.0
  0
ARC
  5
60
330
17
100
AcDbEntity
  8
4
100
AcDbCircle
 10
475.9498663283289
 20
1502.846333204707
 30
0.0
 40
13.77916529745958
100
AcDbArc
 50
69.13593563608119
 51
110.8640643639188
  0
LINE
  5
61
330
17
100
AcDbEntity
  8
4
100
AcDbLine
 10
471.0423890402176
 20
1515.721971556313
 30
0.0
 11
471.0423890402176
 21
1509.625498502166
 31
0.0
  0
LINE
  5
62
330
17
100
AcDbEntity
  8
4
100
AcDbLine
 10
485.7648209045524
 20
1507.125498502166
 30
0.0
 11
466.1349117521054
 21
1507.125498502166
 31
0.0
  0
LINE
  5
63
330
17
100
AcDbEntity
  8
4
100
AcDbLine
 10
485.7648209045524
 20
1509.625498502166
 30
0.0
 11
466.1349117521054
 21
1509.625498502166
 31
0.0
  0
ARC
  5
64
330
17
100
AcDbEntity
  8
4
100
AcDbCircle
 10
468.5886503961615
 20
1512.841884573107
 30
0.0
 40
3.783613929059507
100
AcDbArc
 50
49.57010315517826
 51
130.4298968448217
  0
LINE
  5
65
330
17
100
AcDbEntity
  8
L-CENTER
100
AcDbLine
 10
533.2447680158439
 20
1475.15286105447
 30
0.0
 11
533.2447680158439
 21
1519.493476756747
 31
0.0
  0
LINE
  5
66
330
17
100
AcDbEntity
  8
4
100
AcDbLine
 10
543.0597225920674
 20
1515.721971556313
 30
0.0
 11
543.0597225920674
 21
1507.125498502166
 31
0.0
  0
LINE
  5
67
330
17
100
AcDbEntity
  8
4
100
AcDbLine
 10
523.4298134396204
 20
1507.125498502166
 30
0.0
 11
523.4298134396204
 21
1515.721971556313
 31
0.0
  0
LINE
  5
68
330
17
100
AcDbEntity
  8
4
100
AcDbLine
 10
538.1522453039561
 20
1515.721971556313
 30
0.0
 11
538.1522453039561
 21
1509.625498502166
 31
0.0
  0
ARC
  5
69
330
17
100
AcDbEntity
  8
4
100
AcDbCircle
 10
540.6059839480122
 20
1512.841884573107
 30
0.0
 40
3.783613929059507
100
AcDbArc
 50
49.57010315517826
 51
130.4298968448217
  0
LINE
  5
6A
330
17
100
AcDbEntity
  8
4
100
AcDbLine
 10
525.8835520836765
 20
1516.625498502166
 30
0.0
 11
540.6059839480122
 21
1516.625498502166
 31
0.0
  0
ARC
  5
6B
330
17
100
AcDbEntity
  8
4
100
AcDbCircle
 10
533.2447680158439
 20
1502.846333204707
 30
0.0
 40
13.77916529745958
100
AcDbArc
 50
69.13593563608075
 51
110.8640643639193
  0
LINE
  5
6C
330
17
100
AcDbEntity
  8
4
100
AcDbLine
 10
528.3372907277326
 20
1515.721971556313
 30
0.0
 11
528.3372907277326
 21
1509.625498502166
 31
0.0
  0
LINE
  5
6D
330
17
100
AcDbEntity
  8
4
100
AcDbLine
 10
543.0597225920674
 20
1507.125498502166
 30
0.0
 11
523.4298134396204
 21
1507.125498502166
 31
0.0
  0
LINE
  5
6E
330
17
100
AcDbEntity
  8
4
100
AcDbLine
 10
543.0597225920674
 20
1509.625498502166
 30
0.0
 11
523.4298134396204
 21
1509.625498502166
 31
0.0
  0
ARC
  5
6F
330
17
100
AcDbEntity
  8
4
100
AcDbCircle
 10
525.8835520836765
 20
1512.841884573107
 30
0.0
 40
3.783613929059507
100
AcDbArc
 50
49.57010315517826
 51
130.4298968448217
  0
LINE
  5
70
330
17
100
AcDbEntity
  8
L-CENTER
100
AcDbLine
 10
683.2447680158443
 20
1475.15286105447
 30
0.0
 11
683.2447680158443
 21
1519.493476756747
 31
0.0
  0
LINE
  5
71
330
17
100
AcDbEntity
  8
4
100
AcDbLine
 10
693.0597225920678
 20
1515.721971556313
 30
0.0
 11
693.0597225920678
 21
1507.125498502166
 31
0.0
  0
LINE
  5
72
330
17
100
AcDbEntity
  8
4
100
AcDbLine
 10
673.4298134396208
 20
1507.125498502166
 30
0.0
 11
673.4298134396208
 21
1515.721971556313
 31
0.0
  0
LINE
  5
73
330
17
100
AcDbEntity
  8
4
100
AcDbLine
 10
688.1522453039565
 20
1515.721971556313
 30
0.0
 11
688.1522453039565
 21
1509.625498502166
 31
0.0
  0
ARC
  5
74
330
17
100
AcDbEntity
  8
4
100
AcDbCircle
 10
690.6059839480126
 20
1512.841884573107
 30
0.0
 40
3.783613929059507
100
AcDbArc
 50
49.57010315517826
 51
130.4298968448217
  0
LINE
  5
75
330
17
100
AcDbEntity
  8
4
100
AcDbLine
 10
675.8835520836769
 20
1516.625498502166
 30
0.0
 11
690.6059839480126
 21
1516.625498502166
 31
0.0
  0
ARC
  5
76
330
17
100
AcDbEntity
  8
4
100
AcDbCircle
 10
683.2447680158443
 20
1502.846333204707
 30
0.0
 40
13.77916529745958
100
AcDbArc
 50
69.13593563608075
 51
110.8640643639193
  0
LINE
  5
77
330
17
100
AcDbEntity
  8
4
100
AcDbLine
 10
678.337290727733
 20
1515.721971556313
 30
0.0
 11
678.337290727733
 21
1509.625498502166
 31
0.0
  0
LINE
  5
78
330
17
100
AcDbEntity
  8
4
100
AcDbLine
 10
693.0597225920678
 20
1507.125498502166
 30
0.0
 11
673.4298134396208
 21
1507.125498502166
 31
0.0
  0
LINE
  5
79
330
17
100
AcDbEntity
  8
4
100
AcDbLine
 10
693.0597225920678
 20
1509.625498502166
 30
0.0
 11
673.4298134396208
 21
1509.625498502166
 31
0.0
  0
ARC
  5
7A
330
17
100
AcDbEntity
  8
4
100
AcDbCircle
 10
675.8835520836769
 20
1512.841884573107
 30
0.0
 40
3.783613929059507
100
AcDbArc
 50
49.57010315517826
 51
130.4298968448217
  0
LINE
  5
7B
330
17
100
AcDbEntity
  8
L-CENTER
100
AcDbLine
 10
868.6549646408134
 20
1475.15286105447
 30
0.0
 11
868.6549646408134
 21
1519.493476756747
 31
0.0
  0
LINE
  5
7C
330
17
100
AcDbEntity
  8
4
100
AcDbLine
 10
878.4699192170369
 20
1515.721971556313
 30
0.0
 11
878.4699192170369
 21
1507.125498502166
 31
0.0
  0
LINE
  5
7D
330
17
100
AcDbEntity
  8
4
100
AcDbLine
 10
858.8400100645899
 20
1507.125498502166
 30
0.0
 11
858.8400100645899
 21
1515.721971556313
 31
0.0
  0
LINE
  5
7E
330
17
100
AcDbEntity
  8
4
100
AcDbLine
 10
873.5624419289256
 20
1515.721971556313
 30
0.0
 11
873.5624419289256
 21
1509.625498502166
 31
0.0
  0
ARC
  5
7F
330
17
100
AcDbEntity
  8
4
100
AcDbCircle
 10
876.0161805729817
 20
1512.841884573107
 30
0.0
 40
3.783613929059507
100
AcDbArc
 50
49.57010315517826
 51
130.4298968448217
  0
LINE
  5
80
330
17
100
AcDbEntity
  8
4
100
AcDbLine
 10
861.293748708646
 20
1516.625498502166
 30
0.0
 11
876.0161805729817
 21
1516.625498502166
 31
0.0
  0
ARC
  5
81
330
17
100
AcDbEntity
  8
4
100
AcDbCircle
 10
868.6549646408134
 20
1502.846333204707
 30
0.0
 40
13.77916529745958
100
AcDbArc
 50
69.13593563608075
 51
110.8640643639193
  0
LINE
  5
82
330
17
100
AcDbEntity
  8
4
100
AcDbLine
 10
863.7474873527021
 20
1515.721971556313
 30
0.0
 11
863.7474873527021
 21
1509.625498502166
 31
0.0
  0
LINE
  5
83
330
17
100
AcDbEntity
  8
4
100
AcDbLine
 10
878.4699192170369
 20
1507.125498502166
 30
0.0
 11
858.8400100645899
 21
1507.125498502166
 31
0.0
  0
LINE
  5
84
330
17
100
AcDbEntity
  8
4
100
AcDbLine
 10
878.4699192170369
 20
1509.625498502166
 30
0.0
 11
858.8400100645899
 21
1509.625498502166
 31
0.0
  0
ARC
  5
85
330
17
100
AcDbEntity
  8
4
100
AcDbCircle
 10
861.293748708646
 20
1512.841884573107
 30
0.0
 40
3.783613929059507
100
AcDbArc
 50
49.57010315517826
 51
130.4298968448217
  0
LINE
  5
86
330
17
100
AcDbEntity
  8
L-CENTER
100
AcDbLine
 10
1018.654964640814
 20
1475.15286105447
 30
0.0
 11
1018.654964640814
 21
1519.493476756747
 31
0.0
  0
LINE
  5
87
330
17
100
AcDbEntity
  8
4
100
AcDbLine
 10
1028.469919217037
 20
1515.721971556313
 30
0.0
 11
1028.469919217037
 21
1507.125498502166
 31
0.0
  0
LINE
  5
88
330
17
100
AcDbEntity
  8
4
100
AcDbLine
 10
1008.84001006459
 20
1507.125498502166
 30
0.0
 11
1008.84001006459
 21
1515.721971556313
 31
0.0
  0
LINE
  5
89
330
17
100
AcDbEntity
  8
4
100
AcDbLine
 10
1023.562441928926
 20
1515.721971556313
 30
0.0
 11
1023.562441928926
 21
1509.625498502166
 31
0.0
  0
ARC
  5
8A
330
17
100
AcDbEntity
  8
4
100
AcDbCircle
 10
1026.016180572982
 20
1512.841884573107
 30
0.0
 40
3.783613929059507
100
AcDbArc
 50
49.57010315517826
 51
130.4298968448217
  0
LINE
  5
8B
330
17
100
AcDbEntity
  8
4
100
AcDbLine
 10
1011.293748708646
 20
1516.625498502166
 30
0.0
 11
1026.016180572982
 21
1516.625498502166
 31
0.0
  0
ARC
  5
8C
330
17
100
AcDbEntity
  8
4
100
AcDbCircle
 10
1018.654964640814
 20
1502.846333204707
 30
0.0
 40
13.77916529745958
100
AcDbArc
 50
69.13593563608075
 51
110.8640643639193
  0
LINE
  5
8D
330
17
100
AcDbEntity
  8
4
100
AcDbLine
 10
1013.747487352703
 20
1515.721971556313
 30
0.0
 11
1013.747487352703
 21
1509.625498502166
 31
0.0
  0
LINE
  5
8E
330
17
100
AcDbEntity
  8
4
100
AcDbLine
 10
1028.469919217037
 20
1507.125498502166
 30
0.0
 11
1008.84001006459
 21
1507.125498502166
 31
0.0
  0
LINE
  5
8F
330
17
100
AcDbEntity
  8
4
100
AcDbLine
 10
1028.469919217037
 20
1509.625498502166
 30
0.0
 11
1008.84001006459
 21
1509.625498502166
 31
0.0
  0
ARC
  5
90
330
17
100
AcDbEntity
  8
4
100
AcDbCircle
 10
1011.293748708646
 20
1512.841884573107
 30
0.0
 40
3.783613929059507
100
AcDbArc
 50
49.57010315517826
 51
130.4298968448217
  0
LINE
  5
91
330
17
100
AcDbEntity
  8
L-CENTER
100
AcDbLine
 10
1075.949866328329
 20
1475.15286105447
 30
0.0
 11
1075.949866328329
 21
1519.493476756747
 31
0.0
  0
LINE
  5
92
330
17
100
AcDbEntity
  8
4
100
AcDbLine
 10
1085.764820904552
 20
1515.721971556313
 30
0.0
 11
1085.764820904552
 21
1507.125498502166
 31
0.0
  0
LINE
  5
93
330
17
100
AcDbEntity
  8
4
100
AcDbLine
 10
1066.134911752105
 20
1507.125498502166
 30
0.0
 11
1066.134911752105
 21
1515.721971556313
 31
0.0
  0
LINE
  5
94
330
17
100
AcDbEntity
  8
4
100
AcDbLine
 10
1080.857343616441
 20
1515.721971556313
 30
0.0
 11
1080.857343616441
 21
1509.625498502166
 31
0.0
  0
ARC
  5
95
330
17
100
AcDbEntity
  8
4
100
AcDbCircle
 10
1083.311082260497
 20
1512.841884573107
 30
0.0
 40
3.783613929059507
100
AcDbArc
 50
49.57010315517826
 51
130.4298968448217
  0
LINE
  5
96
330
17
100
AcDbEntity
  8
4
100
AcDbLine
 10
1068.588650396161
 20
1516.625498502166
 30
0.0
 11
1083.311082260497
 21
1516.625498502166
 31
0.0
  0
ARC
  5
97
330
17
100
AcDbEntity
  8
4
100
AcDbCircle
 10
1075.949866328329
 20
1502.846333204707
 30
0.0
 40
13.77916529745958
100
AcDbArc
 50
69.13593563608075
 51
110.8640643639193
  0
LINE
  5
98
330
17
100
AcDbEntity
  8
4
100
AcDbLine
 10
1071.042389040218
 20
1515.721971556313
 30
0.0
 11
1071.042389040218
 21
1509.625498502166
 31
0.0
  0
LINE
  5
99
330
17
100
AcDbEntity
  8
4
100
AcDbLine
 10
1085.764820904552
 20
1507.125498502166
 30
0.0
 11
1066.134911752105
 21
1507.125498502166
 31
0.0
  0
LINE
  5
9A
330
17
100
AcDbEntity
  8
4
100
AcDbLine
 10
1085.764820904552
 20
1509.625498502166
 30
0.0
 11
1066.134911752105
 21
1509.625498502166
 31
0.0
  0
ARC
  5
9B
330
17
100
AcDbEntity
  8
4
100
AcDbCircle
 10
1068.588650396161
 20
1512.841884573107
 30
0.0
 40
3.783613929059507
100
AcDbArc
 50
49.57010315517826
 51
130.4298968448217
  0
LINE
  5
9C
330
17
100
AcDbEntity
  8
4
100
AcDbLine
 10
461.2339683283285
 20
1481.725498502165
 30
0.0
 11
1091.233968328329
 21
1481.725498502165
 31
0.0
  0
LINE
  5
9D
330
17
100
AcDbEntity
  8
L-CENTER
100
AcDbLine
 10
425.2339683283276
 20
1373.725498502165
 30
0.0
 11
1127.233968328329
 21
1373.725498502165
 31
0.0
  0
LINE
  5
9E
330
17
100
AcDbEntity
  8
4
100
AcDbLine
 10
564.601968328328
 20
1231.725498502165
 30
0.0
 11
794.6019683283284
 21
1231.725498502165
 31
0.0
  0
LINE
  5
9F
330
17
100
AcDbEntity
  8
4
100
AcDbLine
 10
445.2339683283294
 20
1188.725498502165
 30
0.0
 11
445.2339683283276
 21
1558.725498502165
 31
0.0
  0
LINE
  5
A0
330
17
100
AcDbEntity
  8
4
100
AcDbLine
 10
440.2339683283276
 20
1254.725498502165
 30
0.0
 11
440.2339683283285
 21
1398.725498502165
 31
0.0
  0
LINE
  5
A1
330
17
100
AcDbEntity
  8
4
100
AcDbLine
 10
587.21225226467
 20
1178.725498502165
 30
0.0
 11
455.2339683283294
 21
1178.725498502165
 31
0.0
  0
ARC
  5
A2
330
17
100
AcDbEntity
  8
4
100
AcDbCircle
 10
776.2339683283294
 20
8038.750446940317
 30
0.0
 40
6803.0
100
AcDbArc
 50
267.5989890658384
 51
272.4010109341617
  0
LINE
  5
A3
330
17
100
AcDbEntity
  8
L-CENTER
100
AcDbLine
 10
521.2339683283294
 20
1193.725498502163
 30
0.0
 11
521.2339683283285
 21
1243.725498502167
 31
0.0
  0
LINE
  5
A4
330
17
100
AcDbEntity
  8
4
100
AcDbLine
 10
467.2339683283276
 20
1218.725498502165
 30
0.0
 11
467.2339683283276
 21
1247.725498502165
 31
0.0
  0
CIRCLE
  5
A5
330
17
100
AcDbEntity
  8
4
100
AcDbCircle
 10
521.2339683283285
 20
1218.725498502165
 30
0.0
 40
11.0
  0
LINE
  5
A6
330
17
100
AcDbEntity
  8
4
100
AcDbLine
 10
467.2339683283276
 20
1218.725498502165
 30
0.0
 11
445.2339683283276
 21
1218.725498502165
 31
0.0
  0
ARC
  5
A7
330
17
100
AcDbEntity
  8
4
100
AcDbCircle
 10
455.2339683283294
 20
1188.725498502165
 30
0.0
 40
10.0
100
AcDbArc
 50
180.0
 51
270.0
  0
LINE
  5
A8
330
17
100
AcDbEntity
  8
L-CENTER
100
AcDbLine
 10
546.2339683283303
 20
1218.725498502165
 30
0.0
 11
496.2339683283276
 21
1218.725498502165
 31
0.0
  0
ARC
  5
A9
330
17
100
AcDbEntity
  8
4
100
AcDbCircle
 10
488.2339683283285
 20
1244.725498502165
 30
0.0
 40
3.0
100
AcDbArc
 50
0.0
 51
90.0
  0
ARC
  5
AA
330
17
100
AcDbEntity
  8
4
100
AcDbCircle
 10
447.2339683283294
 20
1270.725498502165
 30
0.0
 40
2.0
100
AcDbArc
 50
180.0
 51
270.0
  0
LINE
  5
AB
330
17
100
AcDbEntity
  8
4
100
AcDbLine
 10
447.2339683283294
 20
1268.725498502165
 30
0.0
 11
1105.233968328329
 21
1268.725498502165
 31
0.0
  0
ARC
  5
AC
330
17
100
AcDbEntity
  8
4
100
AcDbCircle
 10
459.2339683283285
 20
1266.725498502165
 30
0.0
 40
2.0
100
AcDbArc
 50
0.0
 51
90.0
  0
LINE
  5
AD
330
17
100
AcDbEntity
  8
4
100
AcDbLine
 10
440.2339683283276
 20
1254.725498502165
 30
0.0
 11
442.2339683283294
 21
1254.725498502165
 31
0.0
  0
ARC
  5
AE
330
17
100
AcDbEntity
  8
4
100
AcDbCircle
 10
442.2339683283294
 20
1251.725498502165
 30
0.0
 40
3.0
100
AcDbArc
 50
0.0
 51
90.0
  0
ARC
  5
AF
330
17
100
AcDbEntity
  8
4
100
AcDbCircle
 10
463.2339683283285
 20
1249.725498502165
 30
0.0
 40
2.0
100
AcDbArc
 50
180.0
 51
270.0
  0
LINE
  5
B0
330
17
100
AcDbEntity
  8
4
100
AcDbLine
 10
463.2339683283285
 20
1247.725498502165
 30
0.0
 11
1089.233968328329
 21
1247.725498502165
 31
0.0
  0
LINE
  5
B1
330
17
100
AcDbEntity
  8
4
100
AcDbLine
 10
461.2339683283285
 20
1266.725498502165
 30
0.0
 11
461.2339683283285
 21
1249.725498502165
 31
0.0
  0
LINE
  5
B2
330
17
100
AcDbEntity
  8
4
100
AcDbLine
 10
491.2339683283285
 20
1244.725498502165
 30
0.0
 11
491.2339683283285
 21
1241.72286129672
 31
0.0
  0
LINE
  5
B3
330
17
100
AcDbEntity
  8
4
100
AcDbLine
 10
603.6784127727738
 20
1216.725498502165
 30
0.0
 11
596.9741228665093
 21
1186.556193923978
 31
0.0
  0
ARC
  5
B4
330
17
100
AcDbEntity
  8
4
100
AcDbCircle
 10
587.21225226467
 20
1188.725498502165
 30
0.0
 40
10.0
100
AcDbArc
 50
270.0
 51
347.4711922908477
  0
ARC
  5
B5
330
17
100
AcDbEntity
  8
4
100
AcDbCircle
 10
561.601968328328
 20
1236.135574365506
 30
0.0
 40
3.0
100
AcDbArc
 50
0.0
 51
88.19283764707886
  0
LINE
  5
B6
330
17
100
AcDbEntity
  8
4
100
AcDbLine
 10
564.601968328328
 20
1236.135574365506
 30
0.0
 11
564.601968328328
 21
1231.725498502165
 31
0.0
  0
LINE
  5
B7
330
17
100
AcDbEntity
  8
4
100
AcDbLine
 10
440.2339683283276
 20
1398.725498502165
 30
0.0
 11
442.2339683283294
 21
1398.725498502165
 31
0.0
  0
ARC
  5
B8
330
17
100
AcDbEntity
  8
4
100
AcDbCircle
 10
442.2339683283294
 20
1401.725498502165
 30
0.0
 40
3.0
100
AcDbArc
 50
270.0
 51
0.0
  0
LINE
  5
B9
330
17
100
AcDbEntity
  8
4
100
AcDbLine
 10
455.2339683283276
 20
1568.725498502165
 30
0.0
 11
587.2122522646691
 21
1568.725498502165
 31
0.0
  0
LINE
  5
BA
330
17
100
AcDbEntity
  8
L-CENTER
100
AcDbLine
 10
521.2339683283294
 20
1553.725498502166
 30
0.0
 11
521.2339683283285
 21
1503.725498502163
 31
0.0
  0
LINE
  5
BB
330
17
100
AcDbEntity
  8
4
100
AcDbLine
 10
467.233968328329
 20
1507.125498502166
 30
0.0
 11
467.2339683283294
 21
1528.725498502165
 31
0.0
  0
ARC
  5
BC
330
17
100
AcDbEntity
  8
4
100
AcDbCircle
 10
447.2339683283294
 20
1476.725498502165
 30
0.0
 40
2.0
100
AcDbArc
 50
90.0
 51
180.0
  0
LINE
  5
BD
330
17
100
AcDbEntity
  8
4
100
AcDbLine
 10
461.2339683283285
 20
1481.725498502165
 30
0.0
 11
461.2339683283285
 21
1478.725498502165
 31
0.0
  0
LINE
  5
BE
330
17
100
AcDbEntity
  8
4
100
AcDbLine
 10
447.2339683283294
 20
1478.725498502165
 30
0.0
 11
1105.233968328329
 21
1478.725498502165
 31
0.0
  0
ARC
  5
BF
330
17
100
AcDbEntity
  8
4
100
AcDbCircle
 10
455.2339683283276
 20
1558.725498502165
 30
0.0
 40
10.0
100
AcDbArc
 50
90.0
 51
180.0
  0
LINE
  5
C0
330
17
100
AcDbEntity
  8
4
100
AcDbLine
 10
467.2339683283294
 20
1528.725498502165
 30
0.0
 11
445.2339683283294
 21
1528.725498502165
 31
0.0
  0
LINE
  5
C1
330
17
100
AcDbEntity
  8
L-CENTER
100
AcDbLine
 10
546.2339683283303
 20
1528.725498502165
 30
0.0
 11
496.2339683283276
 21
1528.725498502165
 31
0.0
  0
CIRCLE
  5
C2
330
17
100
AcDbEntity
  8
4
100
AcDbCircle
 10
521.2339683283285
 20
1528.725498502165
 30
0.0
 40
11.0
  0
LINE
  5
C3
330
17
100
AcDbEntity
  8
4
100
AcDbLine
 10
596.9741228665075
 20
1560.894803080351
 30
0.0
 11
601.4816705542967
 21
1540.610838485301
 31
0.0
  0
ARC
  5
C4
330
17
100
AcDbEntity
  8
4
100
AcDbCircle
 10
587.2122522646691
 20
1558.725498502165
 30
0.0
 40
10.0
100
AcDbArc
 50
12.52880770915234
 51
90.0
  0
LINE
  5
C5
330
17
100
AcDbEntity
  8
4
100
AcDbLine
 10
1107.233968328329
 20
1188.725498502165
 30
0.0
 11
1107.233968328329
 21
1558.725498502165
 31
0.0
  0
LINE
  5
C6
330
17
100
AcDbEntity
  8
L-CENTER
100
AcDbLine
 10
776.2339683283285
 20
1531.623578811032
 30
0.0
 11
776.2339683283285
 21
1211.725498502165
 31
0.0
  0
LINE
  5
C7
330
17
100
AcDbEntity
  8
4
100
AcDbLine
 10
811.6019683283284
 20
1231.725498502165
 30
0.0
 11
991.6019683283284
 21
1231.725498502165
 31
0.0
  0
ARC
  5
C8
330
17
100
AcDbEntity
  8
4
100
AcDbCircle
 10
797.6019683283284
 20
1232.783990324768
 30
0.0
 40
3.0
100
AcDbArc
 50
90.17988513487896
 51
180.0
  0
LINE
  5
C9
330
17
100
AcDbEntity
  8
4
100
AcDbLine
 10
794.6019683283284
 20
1232.783990324768
 30
0.0
 11
794.6019683283284
 21
1231.725498502165
 31
0.0
  0
ARC
  5
CA
330
17
100
AcDbEntity
  8
4
100
AcDbCircle
 10
808.6019683283284
 20
1232.827415302653
 30
0.0
 40
3.0
100
AcDbArc
 50
0.0
 51
90.27248850750303
  0
LINE
  5
CB
330
17
100
AcDbEntity
  8
4
100
AcDbLine
 10
811.6019683283284
 20
1232.827415302653
 30
0.0
 11
811.6019683283284
 21
1231.725498502165
 31
0.0
  0
LINE
  5
CC
330
17
100
AcDbEntity
  8
4
100
AcDbLine
 10
1112.233968328329
 20
1254.725498502165
 30
0.0
 11
1112.233968328329
 21
1398.725498502165
 31
0.0
  0
LINE
  5
CD
330
17
100
AcDbEntity
  8
4
100
AcDbLine
 10
1097.233968328329
 20
1178.725498502165
 30
0.0
 11
965.2556843919879
 21
1178.725498502165
 31
0.0
  0
CIRCLE
  5
CE
330
17
100
AcDbEntity
  8
4
100
AcDbCircle
 10
1031.233968328329
 20
1218.725498502165
 30
0.0
 40
11.0
  0
LINE
  5
CF
330
17
100
AcDbEntity
  8
L-CENTER
100
AcDbLine
 10
1031.233968328328
 20
1193.725498502163
 30
0.0
 11
1031.233968328329
 21
1243.725498502167
 31
0.0
  0
LINE
  5
D0
330
17
100
AcDbEntity
  8
4
100
AcDbLine
 10
950.9006349949964
 20
1207.225498502164
 30
0.0
 11
955.4938137901481
 21
1186.556193923978
 31
0.0
  0
ARC
  5
D1
330
17
100
AcDbEntity
  8
4
100
AcDbCircle
 10
965.2556843919879
 20
1188.725498502165
 30
0.0
 40
10.0
100
AcDbArc
 50
192.5288077091523
 51
270.0
  0
LINE
  5
D2
330
17
100
AcDbEntity
  8
L-CENTER
100
AcDbLine
 10
1006.233968328327
 20
1218.725498502165
 30
0.0
 11
1056.23396832833
 21
1218.725498502165
 31
0.0
  0
ARC
  5
D3
330
17
100
AcDbEntity
  8
4
100
AcDbCircle
 10
994.6019683283284
 20
1236.254477329161
 30
0.0
 40
3.0
100
AcDbArc
 50
91.8386295021807
 51
180.0
  0
LINE
  5
D4
330
17
100
AcDbEntity
  8
4
100
AcDbLine
 10
991.6019683283284
 20
1236.254477329161
 30
0.0
 11
991.6019683283284
 21
1231.725498502165
 31
0.0
  0
LINE
  5
D5
330
17
100
AcDbEntity
  8
4
100
AcDbLine
 10
1085.233968328329
 20
1218.725498502165
 30
0.0
 11
1085.233968328329
 21
1247.725498502165
 31
0.0
  0
LINE
  5
D6
330
17
100
AcDbEntity
  8
4
100
AcDbLine
 10
1085.233968328329
 20
1218.725498502165
 30
0.0
 11
1107.233968328329
 21
1218.725498502165
 31
0.0
  0
ARC
  5
D7
330
17
100
AcDbEntity
  8
4
100
AcDbCircle
 10
1097.233968328329
 20
1188.725498502165
 30
0.0
 40
10.0
100
AcDbArc
 50
270.0
 51
0.0
  0
ARC
  5
D8
330
17
100
AcDbEntity
  8
4
100
AcDbCircle
 10
1093.233968328329
 20
1266.725498502165
 30
0.0
 40
2.0
100
AcDbArc
 50
90.0
 51
180.0
  0
ARC
  5
D9
330
17
100
AcDbEntity
  8
4
100
AcDbCircle
 10
1110.233968328329
 20
1251.725498502165
 30
0.0
 40
3.0
100
AcDbArc
 50
90.0
 51
180.0
  0
LINE
  5
DA
330
17
100
AcDbEntity
  8
4
100
AcDbLine
 10
1112.233968328329
 20
1254.725498502165
 30
0.0
 11
1110.233968328329
 21
1254.725498502165
 31
0.0
  0
ARC
  5
DB
330
17
100
AcDbEntity
  8
4
100
AcDbCircle
 10
1105.233968328329
 20
1270.725498502165
 30
0.0
 40
2.0
100
AcDbArc
 50
270.0
 51
0.0
  0
ARC
  5
DC
330
17
100
AcDbEntity
  8
4
100
AcDbCircle
 10
1089.233968328329
 20
1249.725498502165
 30
0.0
 40
2.0
100
AcDbArc
 50
270.0
 51
0.0
  0
ARC
  5
DD
330
17
100
AcDbEntity
  8
4
100
AcDbCircle
 10
1064.233968328329
 20
1244.725498502165
 30
0.0
 40
3.0
100
AcDbArc
 50
90.0
 51
180.0
  0
LINE
  5
DE
330
17
100
AcDbEntity
  8
4
100
AcDbLine
 10
1061.233968328329
 20
1244.725498502165
 30
0.0
 11
1061.233968328329
 21
1241.72286129672
 31
0.0
  0
LINE
  5
DF
330
17
100
AcDbEntity
  8
4
100
AcDbLine
 10
1091.233968328329
 20
1266.725498502165
 30
0.0
 11
1091.233968328329
 21
1249.725498502165
 31
0.0
  0
ARC
  5
E0
330
17
100
AcDbEntity
  8
4
100
AcDbCircle
 10
1110.233968328329
 20
1401.725498502165
 30
0.0
 40
3.0
100
AcDbArc
 50
180.0
 51
270.0
  0
LINE
  5
E1
330
17
100
AcDbEntity
  8
4
100
AcDbLine
 10
1112.233968328329
 20
1398.725498502165
 30
0.0
 11
1110.233968328329
 21
1398.725498502165
 31
0.0
  0
LINE
  5
E2
330
17
100
AcDbEntity
  8
4
100
AcDbLine
 10
965.255684391987
 20
1568.725498502165
 30
0.0
 11
1097.233968328329
 21
1568.725498502165
 31
0.0
  0
LINE
  5
E3
330
17
100
AcDbEntity
  8
4
100
AcDbLine
 10
955.4938137901472
 20
1560.894803080351
 30
0.0
 11
950.989523883884
 21
1540.625498502166
 31
0.0
  0
LINE
  5
E4
330
17
100
AcDbEntity
  8
L-CENTER
100
AcDbLine
 10
1031.233968328328
 20
1553.725498502166
 30
0.0
 11
1031.233968328329
 21
1503.725498502163
 31
0.0
  0
ARC
  5
E5
330
17
100
AcDbEntity
  8
4
100
AcDbCircle
 10
965.255684391987
 20
1558.725498502165
 30
0.0
 40
10.0
100
AcDbArc
 50
90.0
 51
167.4711922908477
  0
CIRCLE
  5
E6
330
17
100
AcDbEntity
  8
4
100
AcDbCircle
 10
1031.233968328329
 20
1528.725498502165
 30
0.0
 40
11.0
  0
LINE
  5
E7
330
17
100
AcDbEntity
  8
L-CENTER
100
AcDbLine
 10
1006.233968328327
 20
1528.725498502165
 30
0.0
 11
1056.23396832833
 21
1528.725498502165
 31
0.0
  0
LINE
  5
E8
330
17
100
AcDbEntity
  8
4
100
AcDbLine
 10
1085.233968328329
 20
1516.100449216368
 30
0.0
 11
1085.233968328329
 21
1528.725498502165
 31
0.0
  0
LINE
  5
E9
330
17
100
AcDbEntity
  8
4
100
AcDbLine
 10
1091.233968328329
 20
1481.725498502165
 30
0.0
 11
1091.233968328329
 21
1478.725498502165
 31
0.0
  0
ARC
  5
EA
330
17
100
AcDbEntity
  8
4
100
AcDbCircle
 10
1105.233968328329
 20
1476.725498502165
 30
0.0
 40
2.0
100
AcDbArc
 50
0.0
 51
90.0
  0
ARC
  5
EB
330
17
100
AcDbEntity
  8
4
100
AcDbCircle
 10
1097.233968328329
 20
1558.725498502165
 30
0.0
 40
10.0
100
AcDbArc
 50
0.0
 51
90.0
  0
LINE
  5
EC
330
17
100
AcDbEntity
  8
4
100
AcDbLine
 10
1085.233968328329
 20
1528.725498502165
 30
0.0
 11
1107.233968328329
 21
1528.725498502165
 31
0.0
  0
LINE
  5
ED
330
17
100
AcDbEntity
  8
L-CENTER
100
AcDbLine
 10
304.7220083116185
 20
1326.725498502165
 30
0.0
 11
1131.750157459062
 21
1326.725498502165
 31
0.0
  0
ARC
  5
EE
330
17
100
AcDbEntity
  8
4
100
AcDbCircle
 10
793.2339683283285
 20
1329.725498502165
 30
0.0
 40
3.0
100
AcDbArc
 50
270.0
 51
0.0
  0
LINE
  5
EF
330
17
100
AcDbEntity
  8
4
100
AcDbLine
 10
796.2339683283285
 20
1329.725498502165
 30
0.0
 11
796.2339683283285
 21
1417.725498502165
 31
0.0
  0
LINE
  5
F0
330
17
100
AcDbEntity
  8
4
100
AcDbLine
 10
759.2339683283285
 20
1326.725498502165
 30
0.0
 11
793.2339683283285
 21
1326.725498502165
 31
0.0
  0
LINE
  5
F1
330
17
100
AcDbEntity
  8
4
100
AcDbLine
 10
756.2339683283285
 20
1329.725498502165
 30
0.0
 11
756.2339683283285
 21
1417.725498502165
 31
0.0
  0
ARC
  5
F2
330
17
100
AcDbEntity
  8
4
100
AcDbCircle
 10
759.2339683283285
 20
1329.725498502165
 30
0.0
 40
3.0
100
AcDbArc
 50
180.0
 51
270.0
  0
LINE
  5
F3
330
17
100
AcDbEntity
  8
4
100
AcDbLine
 10
759.2339683283285
 20
1420.725498502165
 30
0.0
 11
793.2339683283285
 21
1420.725498502165
 31
0.0
  0
ARC
  5
F4
330
17
100
AcDbEntity
  8
4
100
AcDbCircle
 10
759.2339683283285
 20
1417.725498502165
 30
0.0
 40
3.0
100
AcDbArc
 50
90.0
 51
180.0
  0
ARC
  5
F5
330
17
100
AcDbEntity
  8
4
100
AcDbCircle
 10
793.2339683283285
 20
1417.725498502165
 30
0.0
 40
3.0
100
AcDbArc
 50
0.0
 51
90.0
  0
CIRCLE
  5
F6
330
17
100
AcDbEntity
  8
4
100
AcDbCircle
 10
581.2339683283285
 20
1373.725498502165
 30
0.0
 40
25.0
  0
LINE
  5
F7
330
17
100
AcDbEntity
  8
L-CENTER
100
AcDbLine
 10
581.2339683283285
 20
1338.725498502166
 30
0.0
 11
581.2339683283285
 21
1408.725498502164
 31
0.0
  0
ARC
  5
F8
330
17
100
AcDbEntity
  8
4
100
AcDbCircle
 10
776.233968328329
 20
-5290.899449935985
 30
0.0
 40
6803.0
100
AcDbArc
 50
92.12964087392041
 51
92.19135459156894
  0
ARC
  5
F9
330
17
100
AcDbEntity
  8
4
100
AcDbCircle
 10
776.233968328329
 20
-5290.899449935985
 30
0.0
 40
6803.0
100
AcDbArc
 50
90.86586335402778
 51
91.96420952546504
  0
ARC
  5
FA
330
17
100
AcDbEntity
  8
4
100
AcDbCircle
 10
776.233968328329
 20
-5290.899449935985
 30
0.0
 40
6803.0
100
AcDbArc
 50
89.3042637265186
 51
90.7005221191324
  0
ARC
  5
FB
330
17
100
AcDbEntity
  8
4
100
AcDbCircle
 10
776.233968328329
 20
-5290.899449935985
 30
0.0
 40
6803.0
100
AcDbArc
 50
88.04057877151865
 51
89.13892267984498
  0
ARC
  5
FC
330
17
100
AcDbEntity
  8
4
100
AcDbCircle
 10
776.233968328329
 20
-5290.899449935985
 30
0.0
 40
6803.0
100
AcDbArc
 50
87.80864540843123
 51
87.87514791664329
  0
LINE
  5
FD
330
17
100
AcDbEntity
  8
4
100
AcDbLine
 10
461.1088805745826
 20
1482.125498502165
 30
0.0
 11
1091.524180945981
 21
1482.125498502165
 31
0.0
  0
LINE
  5
FE
330
17
100
AcDbEntity
  8
4
100
AcDbLine
 10
463.1088805745835
 20
1507.125498502166
 30
0.0
 11
1089.524180945981
 21
1507.125498502166
 31
0.0
  0
LINE
  5
FF
330
17
100
AcDbEntity
  8
4
100
AcDbLine
 10
811.6019683283289
 20
1516.125498502166
 30
0.0
 11
991.6019683283289
 21
1516.125498502165
 31
0.0
  0
ARC
  5
100
330
17
100
AcDbEntity
  8
4
100
AcDbCircle
 10
776.233968328329
 20
-5290.899449935985
 30
0.0
 40
6800.0
100
AcDbArc
 50
90.86624538166811
 51
91.38096574237609
  0
ARC
  5
101
330
17
100
AcDbEntity
  8
4
100
AcDbCircle
 10
776.233968328329
 20
-5290.899449935985
 30
0.0
 40
6800.0
100
AcDbArc
 50
89.30395676894861
 51
90.70083118841946
  0
ARC
  5
102
330
17
100
AcDbEntity
  8
4
100
AcDbCircle
 10
776.233968328329
 20
-5290.899449935985
 30
0.0
 40
6800.0
100
AcDbArc
 50
88.61903425762404
 51
89.13854276416987
  0
LINE
  5
103
330
17
100
AcDbEntity
  8
4
100
AcDbLine
 10
692.4857748749682
 20
1516.125498502166
 30
0.0
 11
794.6019683283289
 21
1516.125498502166
 31
0.0
  0
LINE
  5
104
330
17
100
AcDbEntity
  8
4
100
AcDbLine
 10
564.6019683283289
 20
1516.125498502166
 30
0.0
 11
674.0037611567213
 21
1516.125498502166
 31
0.0
  0
ARC
  5
105
330
17
100
AcDbEntity
  8
4
100
AcDbCircle
 10
463.1088805745835
 20
1505.125498502166
 30
0.0
 40
2.0
100
AcDbArc
 50
90.0
 51
180.0
  0
LINE
  5
106
330
17
100
AcDbEntity
  8
4
100
AcDbLine
 10
461.1088805745835
 20
1482.125498502165
 30
0.0
 11
461.1088805745835
 21
1505.125498502166
 31
0.0
  0
LINE
  5
107
330
17
100
AcDbEntity
  8
4
100
AcDbLine
 10
564.6019683283289
 20
1511.715422638825
 30
0.0
 11
564.6019683283289
 21
1516.125498502165
 31
0.0
  0
ARC
  5
108
330
17
100
AcDbEntity
  8
4
100
AcDbCircle
 10
561.6019683283289
 20
1511.715422638825
 30
0.0
 40
3.0
100
AcDbArc
 50
271.8071623529213
 51
0.0
  0
LINE
  5
109
330
17
100
AcDbEntity
  8
L-CENTER
100
AcDbLine
 10
679.6019683283289
 20
1545.785932109965
 30
0.0
 11
679.6019683283289
 21
1029.446946811152
 31
0.0
  0
ARC
  5
10A
330
17
100
AcDbEntity
  8
4
100
AcDbCircle
 10
808.6019683283289
 20
1515.023581701678
 30
0.0
 40
3.0
100
AcDbArc
 50
269.7275114924969
 51
0.0
  0
LINE
  5
10B
330
17
100
AcDbEntity
  8
4
100
AcDbLine
 10
811.6019683283289
 20
1515.023581701678
 30
0.0
 11
811.6019683283289
 21
1516.125498502165
 31
0.0
  0
LINE
  5
10C
330
17
100
AcDbEntity
  8
4
100
AcDbLine
 10
794.6019683283289
 20
1515.067006679563
 30
0.0
 11
794.6019683283289
 21
1516.125498502165
 31
0.0
  0
ARC
  5
10D
330
17
100
AcDbEntity
  8
4
100
AcDbCircle
 10
797.6019683283289
 20
1515.067006679563
 30
0.0
 40
3.0
100
AcDbArc
 50
180.0
 51
269.8201148651211
  0
LINE
  5
10E
330
17
100
AcDbEntity
  8
L-CENTER
100
AcDbLine
 10
901.6019683283289
 20
1551.840649709196
 30
0.0
 11
901.6019683283289
 21
1200.50411795178
 31
0.0
  0
LINE
  5
10F
330
17
100
AcDbEntity
  8
4
100
AcDbLine
 10
991.6019683283289
 20
1511.596519675169
 30
0.0
 11
991.6019683283289
 21
1516.125498502165
 31
0.0
  0
ARC
  5
110
330
17
100
AcDbEntity
  8
4
100
AcDbCircle
 10
994.6019683283289
 20
1511.596519675169
 30
0.0
 40
3.0
100
AcDbArc
 50
180.0
 51
268.1613704978108
  0
ARC
  5
111
330
17
100
AcDbEntity
  8
4
100
AcDbCircle
 10
1089.524180945981
 20
1505.125498502166
 30
0.0
 40
2.0
100
AcDbArc
 50
0.0
 51
90.0
  0
LINE
  5
112
330
17
100
AcDbEntity
  8
4
100
AcDbLine
 10
1091.524180945981
 20
1482.125498502167
 30
0.0
 11
1091.524180945981
 21
1505.125498502166
 31
0.0
  0
LINE
  5
113
330
17
100
AcDbEntity
  8
4
100
AcDbLine
 10
564.601968328328
 20
1216.725498502165
 30
0.0
 11
794.6019683283284
 21
1216.725498502165
 31
0.0
  0
LINE
  5
114
330
17
100
AcDbEntity
  8
4
100
AcDbLine
 10
564.6019683283289
 20
1531.125498502166
 30
0.0
 11
794.6019683283289
 21
1531.125498502166
 31
0.0
  0
LINE
  5
115
330
17
100
AcDbEntity
  8
4
100
AcDbLine
 10
564.6019683283289
 20
1531.125498502166
 30
0.0
 11
564.6019683283289
 21
1516.125498502165
 31
0.0
  0
LINE
  5
116
330
17
100
AcDbEntity
  8
4
100
AcDbLine
 10
794.6019683283289
 20
1531.125498502166
 30
0.0
 11
794.6019683283289
 21
1516.125498502166
 31
0.0
  0
LINE
  5
117
330
17
100
AcDbEntity
  8
4
100
AcDbLine
 10
564.601968328328
 20
1216.725498502165
 30
0.0
 11
564.601968328328
 21
1231.725498502165
 31
0.0
  0
LINE
  5
118
330
17
100
AcDbEntity
  8
4
100
AcDbLine
 10
794.6019683283284
 20
1216.725498502165
 30
0.0
 11
794.6019683283284
 21
1231.725498502165
 31
0.0
  0
LINE
  5
119
330
17
100
AcDbEntity
  8
4
100
AcDbLine
 10
564.601968328328
 20
1231.325498502165
 30
0.0
 11
794.6019683283284
 21
1231.325498502165
 31
0.0
  0
LINE
  5
11A
330
17
100
AcDbEntity
  8
4
100
AcDbLine
 10
691.4701151798386
 20
1516.525498502166
 30
0.0
 11
794.6019683283289
 21
1516.525498502166
 31
0.0
  0
LINE
  5
11B
330
17
100
AcDbEntity
  8
4
100
AcDbLine
 10
564.6019683283289
 20
1516.525498502166
 30
0.0
 11
675.019420851851
 21
1516.525498502166
 31
0.0
  0
LINE
  5
11C
330
17
100
AcDbEntity
  8
4
100
AcDbLine
 10
811.6019683283284
 20
1216.725498502165
 30
0.0
 11
991.6019683283284
 21
1216.725498502165
 31
0.0
  0
LINE
  5
11D
330
17
100
AcDbEntity
  8
4
100
AcDbLine
 10
811.6019683283289
 20
1531.125498502166
 30
0.0
 11
991.6019683283289
 21
1531.125498502165
 31
0.0
  0
LINE
  5
11E
330
17
100
AcDbEntity
  8
4
100
AcDbLine
 10
811.6019683283289
 20
1531.125498502166
 30
0.0
 11
811.6019683283289
 21
1516.125498502166
 31
0.0
  0
LINE
  5
11F
330
17
100
AcDbEntity
  8
4
100
AcDbLine
 10
991.6019683283289
 20
1531.125498502165
 30
0.0
 11
991.6019683283289
 21
1516.125498502165
 31
0.0
  0
LINE
  5
120
330
17
100
AcDbEntity
  8
4
100
AcDbLine
 10
991.6019683283284
 20
1231.725498502165
 30
0.0
 11
991.6019683283284
 21
1216.725498502165
 31
0.0
  0
LINE
  5
121
330
17
100
AcDbEntity
  8
4
100
AcDbLine
 10
811.6019683283284
 20
1231.725498502165
 30
0.0
 11
811.6019683283284
 21
1216.725498502165
 31
0.0
  0
LINE
  5
122
330
17
100
AcDbEntity
  8
4
100
AcDbLine
 10
811.6019683283284
 20
1231.325498502165
 30
0.0
 11
991.6019683283284
 21
1231.325498502165
 31
0.0
  0
LINE
  5
123
330
17
100
AcDbEntity
  8
4
100
AcDbLine
 10
811.6019683283289
 20
1516.525498502166
 30
0.0
 11
991.6019683283289
 21
1516.525498502165
 31
0.0
  0
LINE
  5
124
330
17
100
AcDbEntity
  8
4
100
AcDbLine
 10
1124.233968328329
 20
1254.725498502165
 30
0.0
 11
1124.233968328329
 21
1398.725498502165
 31
0.0
  0
LINE
  5
125
330
17
100
AcDbEntity
  8
4
100
AcDbLine
 10
428.2339683283276
 20
1254.725498502165
 30
0.0
 11
428.2339683283285
 21
1398.725498502165
 31
0.0
  0
LINE
  5
126
330
17
100
AcDbEntity
  8
4
100
AcDbLine
 10
1112.233968328329
 20
1398.725498502165
 30
0.0
 11
1124.233968328329
 21
1398.725498502165
 31
0.0
  0
LINE
  5
127
330
17
100
AcDbEntity
  8
4
100
AcDbLine
 10
1124.233968328329
 20
1254.725498502165
 30
0.0
 11
1112.233968328329
 21
1254.725498502165
 31
0.0
  0
LINE
  5
128
330
17
100
AcDbEntity
  8
4
100
AcDbLine
 10
428.2339683283285
 20
1398.725498502165
 30
0.0
 11
440.2339683283276
 21
1398.725498502165
 31
0.0
  0
LINE
  5
129
330
17
100
AcDbEntity
  8
4
100
AcDbLine
 10
428.2339683283276
 20
1254.725498502165
 30
0.0
 11
440.2339683283276
 21
1254.725498502165
 31
0.0
  0
LINE
  5
12A
330
17
100
AcDbEntity
  8
4
100
AcDbLine
 10
1112.633968328329
 20
1254.725498502165
 30
0.0
 11
1112.633968328329
 21
1398.725498502165
 31
0.0
  0
LINE
  5
12B
330
17
100
AcDbEntity
  8
4
100
AcDbLine
 10
439.833968328328
 20
1254.725498502165
 30
0.0
 11
439.8339683283289
 21
1398.725498502165
 31
0.0
  0
ARC
  5
150
330
17
100
AcDbEntity
  8
4
100
AcDbCircle
 10
616.5368497280447
 20
1536.841884573107
 30
0.0
 40
3.783613929059507
100
AcDbArc
 50
49.57010315516725
 51
130.4298968448107
  0
LINE
  5
151
330
17
100
AcDbEntity
  8
4
100
AcDbLine
 10
599.3606792196547
 20
1533.625498502166
 30
0.0
 11
618.9905883721017
 21
1533.625498502166
 31
0.0
  0
LINE
  5
152
330
17
100
AcDbEntity
  8
4
100
AcDbLine
 10
599.3606792196547
 20
1531.125498502166
 30
0.0
 11
618.9905883721017
 21
1531.125498502166
 31
0.0
  0
LINE
  5
153
330
17
100
AcDbEntity
  8
L-CENTER
100
AcDbLine
 10
609.1756337958782
 20
1499.15286105447
 30
0.0
 11
609.1756337958782
 21
1543.493476756747
 31
0.0
  0
LINE
  5
154
330
17
100
AcDbEntity
  8
4
100
AcDbLine
 10
614.0831110839895
 20
1539.721971556313
 30
0.0
 11
614.0831110839895
 21
1533.625498502166
 31
0.0
  0
ARC
  5
155
330
17
100
AcDbEntity
  8
4
100
AcDbCircle
 10
609.1756337958773
 20
1526.846333204707
 30
0.0
 40
13.77916529745958
100
AcDbArc
 50
69.13593563607742
 51
110.8640643639175
  0
LINE
  5
156
330
17
100
AcDbEntity
  8
4
100
AcDbLine
 10
616.5368497280456
 20
1540.625498502166
 30
0.0
 11
601.8144178637099
 21
1540.625498502166
 31
0.0
  0
ARC
  5
157
330
17
100
AcDbEntity
  8
4
100
AcDbCircle
 10
601.8144178637099
 20
1536.841884573107
 30
0.0
 40
3.783613929059507
100
AcDbArc
 50
49.57010315518929
 51
130.4298968448327
  0
LINE
  5
158
330
17
100
AcDbEntity
  8
4
100
AcDbLine
 10
599.3606792196547
 20
1539.721971556313
 30
0.0
 11
599.3606792196547
 21
1531.125498502166
 31
0.0
  0
LINE
  5
159
330
17
100
AcDbEntity
  8
4
100
AcDbLine
 10
604.268156507766
 20
1539.721971556313
 30
0.0
 11
604.268156507766
 21
1533.625498502166
 31
0.0
  0
LINE
  5
15A
330
17
100
AcDbEntity
  8
4
100
AcDbLine
 10
618.9905883721017
 20
1531.125498502166
 30
0.0
 11
618.9905883721017
 21
1539.721971556313
 31
0.0
  0
LINE
  5
15B
330
17
100
AcDbEntity
  8
L-CENTER
100
AcDbLine
 10
750.0283028607801
 20
1499.15286105447
 30
0.0
 11
750.0283028607801
 21
1543.493476756747
 31
0.0
  0
LINE
  5
15C
330
17
100
AcDbEntity
  8
4
100
AcDbLine
 10
740.2133482845566
 20
1531.125498502166
 30
0.0
 11
740.2133482845566
 21
1539.721971556313
 31
0.0
  0
LINE
  5
15D
330
17
100
AcDbEntity
  8
4
100
AcDbLine
 10
754.9357801488923
 20
1539.721971556313
 30
0.0
 11
754.9357801488923
 21
1533.625498502166
 31
0.0
  0
LINE
  5
15E
330
17
100
AcDbEntity
  8
4
100
AcDbLine
 10
759.8432574370036
 20
1539.721971556313
 30
0.0
 11
759.8432574370036
 21
1531.125498502166
 31
0.0
  0
ARC
  5
15F
330
17
100
AcDbEntity
  8
4
100
AcDbCircle
 10
757.3895187929484
 20
1536.841884573107
 30
0.0
 40
3.783613929059507
100
AcDbArc
 50
49.57010315516725
 51
130.4298968448327
  0
LINE
  5
160
330
17
100
AcDbEntity
  8
4
100
AcDbLine
 10
742.6670869286127
 20
1540.625498502166
 30
0.0
 11
757.3895187929484
 21
1540.625498502166
 31
0.0
  0
ARC
  5
161
330
17
100
AcDbEntity
  8
4
100
AcDbCircle
 10
750.0283028607801
 20
1526.846333204707
 30
0.0
 40
13.77916529745958
100
AcDbArc
 50
69.13593563608075
 51
110.8640643639193
  0
LINE
  5
162
330
17
100
AcDbEntity
  8
4
100
AcDbLine
 10
745.1208255726688
 20
1539.721971556313
 30
0.0
 11
745.1208255726688
 21
1533.625498502166
 31
0.0
  0
LINE
  5
163
330
17
100
AcDbEntity
  8
4
100
AcDbLine
 10
759.8432574370036
 20
1531.125498502166
 30
0.0
 11
740.2133482845566
 21
1531.125498502166
 31
0.0
  0
LINE
  5
164
330
17
100
AcDbEntity
  8
4
100
AcDbLine
 10
759.8432574370036
 20
1533.625498502166
 30
0.0
 11
740.2133482845566
 21
1533.625498502166
 31
0.0
  0
ARC
  5
165
330
17
100
AcDbEntity
  8
4
100
AcDbCircle
 10
742.6670869286127
 20
1536.841884573107
 30
0.0
 40
3.783613929059507
100
AcDbArc
 50
49.57010315516725
 51
130.4298968448327
  0
LINE
  5
166
330
17
100
AcDbEntity
  8
4
100
AcDbLine
 10
618.9905883721017
 20
1216.725498502164
 30
0.0
 11
618.9905883721017
 21
1208.129025448017
 31
0.0
  0
LINE
  5
167
330
17
100
AcDbEntity
  8
4
100
AcDbLine
 10
604.268156507766
 20
1208.129025448017
 30
0.0
 11
604.268156507766
 21
1214.225498502164
 31
0.0
  0
LINE
  5
168
330
17
100
AcDbEntity
  8
4
100
AcDbLine
 10
599.3606792196547
 20
1208.129025448017
 30
0.0
 11
599.3606792196547
 21
1216.725498502164
 31
0.0
  0
ARC
  5
169
330
17
100
AcDbEntity
  8
4
100
AcDbCircle
 10
601.8144178637099
 20
1211.009112431223
 30
0.0
 40
3.783613929059507
100
AcDbArc
 50
229.5701031551686
 51
310.4298968448156
  0
LINE
  5
16A
330
17
100
AcDbEntity
  8
4
100
AcDbLine
 10
616.5368497280456
 20
1207.225498502164
 30
0.0
 11
601.8144178637099
 21
1207.225498502164
 31
0.0
  0
ARC
  5
16B
330
17
100
AcDbEntity
  8
4
100
AcDbCircle
 10
609.1756337958773
 20
1221.004663799623
 30
0.0
 40
13.77916529745958
100
AcDbArc
 50
249.1359356360825
 51
290.8640643639221
  0
LINE
  5
16C
330
17
100
AcDbEntity
  8
4
100
AcDbLine
 10
614.0831110839895
 20
1208.129025448017
 30
0.0
 11
614.0831110839895
 21
1214.225498502164
 31
0.0
  0
LINE
  5
16D
330
17
100
AcDbEntity
  8
4
100
AcDbLine
 10
599.3606792196547
 20
1216.725498502164
 30
0.0
 11
618.9905883721017
 21
1216.725498502164
 31
0.0
  0
LINE
  5
16E
330
17
100
AcDbEntity
  8
4
100
AcDbLine
 10
599.3606792196547
 20
1214.225498502164
 30
0.0
 11
618.9905883721017
 21
1214.225498502164
 31
0.0
  0
ARC
  5
16F
330
17
100
AcDbEntity
  8
4
100
AcDbCircle
 10
616.5368497280447
 20
1211.009112431223
 30
0.0
 40
3.783613929059507
100
AcDbArc
 50
229.5701031551844
 51
310.4298968448314
  0
LINE
  5
170
330
17
100
AcDbEntity
  8
L-CENTER
100
AcDbLine
 10
609.1756337958782
 20
1248.69813594986
 30
0.0
 11
609.1756337958782
 21
1204.357520247583
 31
0.0
  0
LINE
  5
171
330
17
100
AcDbEntity
  8
4
100
AcDbLine
 10
759.8432574370036
 20
1214.225498502164
 30
0.0
 11
740.2133482845566
 21
1214.225498502164
 31
0.0
  0
LINE
  5
172
330
17
100
AcDbEntity
  8
4
100
AcDbLine
 10
759.8432574370036
 20
1216.725498502164
 30
0.0
 11
740.2133482845566
 21
1216.725498502164
 31
0.0
  0
ARC
  5
173
330
17
100
AcDbEntity
  8
4
100
AcDbCircle
 10
750.0283028607801
 20
1221.004663799623
 30
0.0
 40
13.77916529745958
100
AcDbArc
 50
249.1359356360807
 51
290.8640643639193
  0
LINE
  5
174
330
17
100
AcDbEntity
  8
4
100
AcDbLine
 10
742.6670869286127
 20
1207.225498502164
 30
0.0
 11
757.3895187929484
 21
1207.225498502164
 31
0.0
  0
ARC
  5
175
330
17
100
AcDbEntity
  8
4
100
AcDbCircle
 10
742.6670869286127
 20
1211.009112431223
 30
0.0
 40
3.783613929059507
100
AcDbArc
 50
229.5701031551782
 51
310.4298968448218
  0
LINE
  5
176
330
17
100
AcDbEntity
  8
4
100
AcDbLine
 10
745.1208255726688
 20
1208.129025448017
 30
0.0
 11
745.1208255726688
 21
1214.225498502164
 31
0.0
  0
LINE
  5
177
330
17
100
AcDbEntity
  8
4
100
AcDbLine
 10
740.2133482845566
 20
1216.725498502164
 30
0.0
 11
740.2133482845566
 21
1208.129025448017
 31
0.0
  0
ARC
  5
178
330
17
100
AcDbEntity
  8
4
100
AcDbCircle
 10
757.3895187929484
 20
1211.009112431223
 30
0.0
 40
3.783613929059507
100
AcDbArc
 50
229.5701031551782
 51
310.4298968448218
  0
LINE
  5
179
330
17
100
AcDbEntity
  8
4
100
AcDbLine
 10
759.8432574370036
 20
1208.129025448017
 30
0.0
 11
759.8432574370036
 21
1216.725498502164
 31
0.0
  0
LINE
  5
17A
330
17
100
AcDbEntity
  8
4
100
AcDbLine
 10
754.9357801488923
 20
1208.129025448017
 30
0.0
 11
754.9357801488923
 21
1214.225498502164
 31
0.0
  0
LINE
  5
17B
330
17
100
AcDbEntity
  8
L-CENTER
100
AcDbLine
 10
750.0283028607801
 20
1248.69813594986
 30
0.0
 11
750.0283028607801
 21
1204.357520247583
 31
0.0
  0
ARC
  5
17C
330
17
100
AcDbEntity
  8
4
100
AcDbCircle
 10
855.5621748715048
 20
1536.841884573107
 30
0.0
 40
3.783613929059507
100
AcDbArc
 50
49.57010315516725
 51
130.4298968448327
  0
LINE
  5
17D
330
17
100
AcDbEntity
  8
4
100
AcDbLine
 10
838.3860043631139
 20
1533.625498502166
 30
0.0
 11
858.0159135155609
 21
1533.625498502166
 31
0.0
  0
LINE
  5
17E
330
17
100
AcDbEntity
  8
4
100
AcDbLine
 10
838.3860043631139
 20
1531.125498502166
 30
0.0
 11
858.0159135155609
 21
1531.125498502166
 31
0.0
  0
LINE
  5
17F
330
17
100
AcDbEntity
  8
L-CENTER
100
AcDbLine
 10
848.2009589393374
 20
1499.15286105447
 30
0.0
 11
848.2009589393374
 21
1543.493476756747
 31
0.0
  0
LINE
  5
180
330
17
100
AcDbEntity
  8
4
100
AcDbLine
 10
853.1084362274487
 20
1539.721971556313
 30
0.0
 11
853.1084362274487
 21
1533.625498502166
 31
0.0
  0
ARC
  5
181
330
17
100
AcDbEntity
  8
4
100
AcDbCircle
 10
848.2009589393374
 20
1526.846333204707
 30
0.0
 40
13.77916529745958
100
AcDbArc
 50
69.13593563608075
 51
110.8640643639193
  0
LINE
  5
182
330
17
100
AcDbEntity
  8
4
100
AcDbLine
 10
855.5621748715048
 20
1540.625498502166
 30
0.0
 11
840.8397430071691
 21
1540.625498502166
 31
0.0
  0
ARC
  5
183
330
17
100
AcDbEntity
  8
4
100
AcDbCircle
 10
840.8397430071691
 20
1536.841884573107
 30
0.0
 40
3.783613929059507
100
AcDbArc
 50
49.57010315516725
 51
130.4298968448327
  0
LINE
  5
184
330
17
100
AcDbEntity
  8
4
100
AcDbLine
 10
843.2934816512252
 20
1539.721971556313
 30
0.0
 11
843.2934816512252
 21
1533.625498502166
 31
0.0
  0
LINE
  5
185
330
17
100
AcDbEntity
  8
4
100
AcDbLine
 10
858.0159135155609
 20
1531.125498502166
 30
0.0
 11
858.0159135155609
 21
1539.721971556313
 31
0.0
  0
LINE
  5
186
330
17
100
AcDbEntity
  8
4
100
AcDbLine
 10
838.3860043631139
 20
1539.721971556313
 30
0.0
 11
838.3860043631139
 21
1531.125498502166
 31
0.0
  0
LINE
  5
187
330
17
100
AcDbEntity
  8
L-CENTER
100
AcDbLine
 10
955.0029777173204
 20
1499.15286105447
 30
0.0
 11
955.0029777173204
 21
1543.493476756747
 31
0.0
  0
LINE
  5
188
330
17
100
AcDbEntity
  8
4
100
AcDbLine
 10
964.8179322935439
 20
1539.721971556313
 30
0.0
 11
964.8179322935439
 21
1531.125498502166
 31
0.0
  0
LINE
  5
189
330
17
100
AcDbEntity
  8
4
100
AcDbLine
 10
945.1880231410969
 20
1531.125498502166
 30
0.0
 11
945.1880231410969
 21
1539.721971556313
 31
0.0
  0
LINE
  5
18A
330
17
100
AcDbEntity
  8
4
100
AcDbLine
 10
959.9104550054326
 20
1539.721971556313
 30
0.0
 11
959.9104550054326
 21
1533.625498502166
 31
0.0
  0
ARC
  5
18B
330
17
100
AcDbEntity
  8
4
100
AcDbCircle
 10
962.3641936494887
 20
1536.841884573107
 30
0.0
 40
3.783613929059507
100
AcDbArc
 50
49.57010315516725
 51
130.4298968448327
  0
LINE
  5
18C
330
17
100
AcDbEntity
  8
4
100
AcDbLine
 10
947.641761785153
 20
1540.625498502166
 30
0.0
 11
962.3641936494887
 21
1540.625498502166
 31
0.0
  0
ARC
  5
18D
330
17
100
AcDbEntity
  8
4
100
AcDbCircle
 10
955.0029777173204
 20
1526.846333204707
 30
0.0
 40
13.77916529745958
100
AcDbArc
 50
69.13593563608075
 51
110.8640643639193
  0
LINE
  5
18E
330
17
100
AcDbEntity
  8
4
100
AcDbLine
 10
950.0955004292091
 20
1539.721971556313
 30
0.0
 11
950.0955004292091
 21
1533.625498502166
 31
0.0
  0
LINE
  5
18F
330
17
100
AcDbEntity
  8
4
100
AcDbLine
 10
964.8179322935439
 20
1531.125498502166
 30
0.0
 11
945.1880231410969
 21
1531.125498502166
 31
0.0
  0
LINE
  5
190
330
17
100
AcDbEntity
  8
4
100
AcDbLine
 10
964.8179322935439
 20
1533.625498502166
 30
0.0
 11
945.1880231410969
 21
1533.625498502166
 31
0.0
  0
ARC
  5
191
330
17
100
AcDbEntity
  8
4
100
AcDbCircle
 10
947.641761785153
 20
1536.841884573107
 30
0.0
 40
3.783613929059507
100
AcDbArc
 50
49.57010315516725
 51
130.4298968448327
  0
LINE
  5
192
330
17
100
AcDbEntity
  8
4
100
AcDbLine
 10
838.3860043631139
 20
1208.129025448017
 30
0.0
 11
838.3860043631139
 21
1216.725498502164
 31
0.0
  0
LINE
  5
193
330
17
100
AcDbEntity
  8
4
100
AcDbLine
 10
858.0159135155609
 20
1216.725498502164
 30
0.0
 11
858.0159135155609
 21
1208.129025448017
 31
0.0
  0
LINE
  5
194
330
17
100
AcDbEntity
  8
4
100
AcDbLine
 10
843.2934816512252
 20
1208.129025448017
 30
0.0
 11
843.2934816512252
 21
1214.225498502164
 31
0.0
  0
ARC
  5
195
330
17
100
AcDbEntity
  8
4
100
AcDbCircle
 10
840.8397430071691
 20
1211.009112431223
 30
0.0
 40
3.783613929059507
100
AcDbArc
 50
229.5701031551782
 51
310.4298968448218
  0
LINE
  5
196
330
17
100
AcDbEntity
  8
4
100
AcDbLine
 10
855.5621748715048
 20
1207.225498502164
 30
0.0
 11
840.8397430071691
 21
1207.225498502164
 31
0.0
  0
ARC
  5
197
330
17
100
AcDbEntity
  8
4
100
AcDbCircle
 10
848.2009589393374
 20
1221.004663799623
 30
0.0
 40
13.77916529745958
100
AcDbArc
 50
249.1359356360807
 51
290.8640643639193
  0
LINE
  5
198
330
17
100
AcDbEntity
  8
4
100
AcDbLine
 10
853.1084362274487
 20
1208.129025448017
 30
0.0
 11
853.1084362274487
 21
1214.225498502164
 31
0.0
  0
LINE
  5
199
330
17
100
AcDbEntity
  8
4
100
AcDbLine
 10
838.3860043631139
 20
1216.725498502164
 30
0.0
 11
858.0159135155609
 21
1216.725498502164
 31
0.0
  0
LINE
  5
19A
330
17
100
AcDbEntity
  8
4
100
AcDbLine
 10
838.3860043631139
 20
1214.225498502164
 30
0.0
 11
858.0159135155609
 21
1214.225498502164
 31
0.0
  0
ARC
  5
19B
330
17
100
AcDbEntity
  8
4
100
AcDbCircle
 10
855.5621748715048
 20
1211.009112431223
 30
0.0
 40
3.783613929059507
100
AcDbArc
 50
229.5701031551782
 51
310.4298968448218
  0
LINE
  5
19C
330
17
100
AcDbEntity
  8
L-CENTER
100
AcDbLine
 10
848.2009589393374
 20
1248.69813594986
 30
0.0
 11
848.2009589393374
 21
1204.357520247583
 31
0.0
  0
LINE
  5
19D
330
17
100
AcDbEntity
  8
L-CENTER
100
AcDbLine
 10
955.0029777173204
 20
1248.69813594986
 30
0.0
 11
955.0029777173204
 21
1204.357520247583
 31
0.0
  0
ARC
  5
19E
330
17
100
AcDbEntity
  8
4
100
AcDbCircle
 10
947.641761785153
 20
1211.009112431223
 30
0.0
 40
3.783613929059507
100
AcDbArc
 50
229.5701031551782
 51
310.4298968448218
  0
LINE
  5
19F
330
17
100
AcDbEntity
  8
4
100
AcDbLine
 10
964.8179322935439
 20
1214.225498502164
 30
0.0
 11
945.1880231410969
 21
1214.225498502164
 31
0.0
  0
LINE
  5
1A0
330
17
100
AcDbEntity
  8
4
100
AcDbLine
 10
964.8179322935439
 20
1216.725498502164
 30
0.0
 11
945.1880231410969
 21
1216.725498502164
 31
0.0
  0
LINE
  5
1A1
330
17
100
AcDbEntity
  8
4
100
AcDbLine
 10
950.0955004292091
 20
1208.129025448017
 30
0.0
 11
950.0955004292091
 21
1214.225498502164
 31
0.0
  0
ARC
  5
1A2
330
17
100
AcDbEntity
  8
4
100
AcDbCircle
 10
955.0029777173204
 20
1221.004663799623
 30
0.0
 40
13.77916529745958
100
AcDbArc
 50
249.1359356360807
 51
290.8640643639193
  0
LINE
  5
1A3
330
17
100
AcDbEntity
  8
4
100
AcDbLine
 10
947.641761785153
 20
1207.225498502164
 30
0.0
 11
962.3641936494887
 21
1207.225498502164
 31
0.0
  0
ARC
  5
1A4
330
17
100
AcDbEntity
  8
4
100
AcDbCircle
 10
962.3641936494887
 20
1211.009112431223
 30
0.0
 40
3.783613929059507
100
AcDbArc
 50
229.5701031551782
 51
310.4298968448218
  0
LINE
  5
1A5
330
17
100
AcDbEntity
  8
4
100
AcDbLine
 10
959.9104550054326
 20
1208.129025448017
 30
0.0
 11
959.9104550054326
 21
1214.225498502164
 31
0.0
  0
LINE
  5
1A6
330
17
100
AcDbEntity
  8
4
100
AcDbLine
 10
945.1880231410969
 20
1216.725498502164
 30
0.0
 11
945.1880231410969
 21
1208.129025448017
 31
0.0
  0
LINE
  5
1A7
330
17
100
AcDbEntity
  8
4
100
AcDbLine
 10
964.8179322935439
 20
1208.129025448017
 30
0.0
 11
964.8179322935439
 21
1216.725498502164
 31
0.0
  0
CIRCLE
  5
1A8
330
17
100
AcDbEntity
  8
4
100
AcDbCircle
 10
581.2339683283285
 20
1373.725498502165
 30
0.0
 40
23.0
  0
LWPOLYLINE
  5
1A9
330
17
100
AcDbEntity
  8
4
100
AcDbPolyline
 90
        6
 70
     1
 43
0.0
 10
604.2339683283285
 20
1373.725498502165
 10
592.7339683283285
 20
1393.644082789207
 10
569.7339683283285
 20
1393.644082789207
 10
558.2339683283285
 20
1373.725498502165
 10
569.7339683283285
 20
1353.806914215123
 10
592.7339683283285
 20
1353.806914215123
  0
LINE
  5
1AA
330
17
100
AcDbEntity
  8
4
100
AcDbLine
 10
782.4839683283285
 20
1349.975498502165
 30
0.0
 11
782.4839683283285
 21
1397.475498502165
 31
0.0
  0
ARC
  5
1AB
330
17
100
AcDbEntity
  8
4
100
AcDbCircle
 10
776.2339683283285
 20
1373.725498502165
 30
0.0
 40
13.5
100
AcDbArc
 50
297.5784679781254
 51
62.42153202187714
  0
LINE
  5
1AC
330
17
100
AcDbEntity
  8
4
100
AcDbLine
 10
769.9839683283285
 20
1349.975498502165
 30
0.0
 11
769.9839683283285
 21
1397.475498502165
 31
0.0
  0
ARC
  5
1AD
330
17
100
AcDbEntity
  8
4
100
AcDbCircle
 10
776.2339683283285
 20
1349.975498502165
 30
0.0
 40
6.25
100
AcDbArc
 50
180.0
 51
0.0
  0
ARC
  5
1AE
330
17
100
AcDbEntity
  8
4
100
AcDbCircle
 10
776.2339683283285
 20
1397.475498502165
 30
0.0
 40
6.25
100
AcDbArc
 50
0.0
 51
180.0
  0
ARC
  5
1AF
330
17
100
AcDbEntity
  8
4
100
AcDbCircle
 10
776.2339683283285
 20
1373.725498502165
 30
0.0
 40
15.0
100
AcDbArc
 50
294.6243183521658
 51
65.37568164783578
  0
ARC
  5
1B0
330
17
100
AcDbEntity
  8
4
100
AcDbCircle
 10
776.2339683283285
 20
1373.725498502165
 30
0.0
 40
13.5
100
AcDbArc
 50
117.5784679781212
 51
242.4215320218788
  0
ARC
  5
1B1
330
17
100
AcDbEntity
  8
4
100
AcDbCircle
 10
776.2339683283285
 20
1373.725498502165
 30
0.0
 40
15.0
100
AcDbArc
 50
114.6243183521615
 51
245.3756816478377
  0
LINE
  5
1B2
330
17
100
AcDbEntity
  8
4
100
AcDbLine
 10
1132.830441382476
 20
1285.275212856577
 30
0.0
 11
1124.233968328329
 21
1285.275212856577
 31
0.0
  0
LINE
  5
1B3
330
17
100
AcDbEntity
  8
4
100
AcDbLine
 10
1132.830441382476
 20
1270.552780992243
 30
0.0
 11
1126.733968328329
 21
1270.552780992243
 31
0.0
  0
LINE
  5
1B4
330
17
100
AcDbEntity
  8
4
100
AcDbLine
 10
1132.830441382476
 20
1280.367735568466
 30
0.0
 11
1126.733968328329
 21
1280.367735568466
 31
0.0
  0
LINE
  5
1B5
330
17
100
AcDbEntity
  8
4
100
AcDbLine
 10
1124.233968328329
 20
1265.64530370413
 30
0.0
 11
1132.830441382476
 21
1265.64530370413
 31
0.0
  0
LINE
  5
1B6
330
17
100
AcDbEntity
  8
L-CENTER
100
AcDbLine
 10
1092.261330880633
 20
1275.460258280354
 30
0.0
 11
1136.601946582909
 21
1275.460258280354
 31
0.0
  0
LINE
  5
1B7
330
17
100
AcDbEntity
  8
4
100
AcDbLine
 10
1126.733968328329
 20
1285.275212856577
 30
0.0
 11
1126.733968328329
 21
1265.64530370413
 31
0.0
  0
ARC
  5
1B8
330
17
100
AcDbEntity
  8
4
100
AcDbCircle
 10
1129.950354399269
 20
1282.821474212522
 30
0.0
 40
3.783613929059507
100
AcDbArc
 50
319.5701031551782
 51
40.42989684482174
  0
ARC
  5
1B9
330
17
100
AcDbEntity
  8
4
100
AcDbCircle
 10
1129.950354399269
 20
1268.099042348186
 30
0.0
 40
3.783613929059507
100
AcDbArc
 50
319.5701031551782
 51
40.42989684482174
  0
ARC
  5
1BA
330
17
100
AcDbEntity
  8
4
100
AcDbCircle
 10
1119.954803030869
 20
1275.460258280354
 30
0.0
 40
13.77916529745958
100
AcDbArc
 50
339.1359356360808
 51
20.86406436391924
  0
LINE
  5
1BB
330
17
100
AcDbEntity
  8
4
100
AcDbLine
 10
1133.733968328329
 20
1268.099042348186
 30
0.0
 11
1133.733968328329
 21
1282.821474212522
 31
0.0
  0
LINE
  5
1BC
330
17
100
AcDbEntity
  8
L-CENTER
100
AcDbLine
 10
1092.261330880633
 20
1377.990738723976
 30
0.0
 11
1136.601946582909
 21
1377.990738723976
 31
0.0
  0
LINE
  5
1BD
330
17
100
AcDbEntity
  8
4
100
AcDbLine
 10
1124.233968328329
 20
1387.805693300199
 30
0.0
 11
1132.830441382476
 21
1387.805693300199
 31
0.0
  0
LINE
  5
1BE
330
17
100
AcDbEntity
  8
4
100
AcDbLine
 10
1132.830441382476
 20
1373.083261435864
 30
0.0
 11
1126.733968328329
 21
1373.083261435864
 31
0.0
  0
LINE
  5
1BF
330
17
100
AcDbEntity
  8
4
100
AcDbLine
 10
1132.830441382476
 20
1382.898216012087
 30
0.0
 11
1126.733968328329
 21
1382.898216012087
 31
0.0
  0
LINE
  5
1C0
330
17
100
AcDbEntity
  8
4
100
AcDbLine
 10
1133.733968328329
 20
1385.351954656143
 30
0.0
 11
1133.733968328329
 21
1370.629522791807
 31
0.0
  0
ARC
  5
1C1
330
17
100
AcDbEntity
  8
4
100
AcDbCircle
 10
1119.954803030869
 20
1377.990738723976
 30
0.0
 40
13.77916529745958
100
AcDbArc
 50
339.1359356360808
 51
20.86406436391924
  0
ARC
  5
1C2
330
17
100
AcDbEntity
  8
4
100
AcDbCircle
 10
1129.950354399269
 20
1385.351954656143
 30
0.0
 40
3.783613929059507
100
AcDbArc
 50
319.5701031551782
 51
40.42989684482174
  0
LINE
  5
1C3
330
17
100
AcDbEntity
  8
4
100
AcDbLine
 10
1132.830441382476
 20
1368.175784147752
 30
0.0
 11
1124.233968328329
 21
1368.175784147752
 31
0.0
  0
LINE
  5
1C4
330
17
100
AcDbEntity
  8
4
100
AcDbLine
 10
1126.733968328329
 20
1368.175784147752
 30
0.0
 11
1126.733968328329
 21
1387.805693300199
 31
0.0
  0
LINE
  5
1C5
330
17
100
AcDbEntity
  8
L-CENTER
100
AcDbLine
 10
460.2066057760244
 20
1275.460258280354
 30
0.0
 11
415.865990073748
 21
1275.460258280354
 31
0.0
  0
LINE
  5
1C6
330
17
100
AcDbEntity
  8
4
100
AcDbLine
 10
418.7339683283285
 20
1268.099042348186
 30
0.0
 11
418.7339683283285
 21
1282.821474212522
 31
0.0
  0
ARC
  5
1C7
330
17
100
AcDbEntity
  8
4
100
AcDbCircle
 10
432.5131336257878
 20
1275.460258280354
 30
0.0
 40
13.77916529745958
100
AcDbArc
 50
159.1359356360806
 51
200.8640643639194
  0
ARC
  5
1C8
330
17
100
AcDbEntity
  8
4
100
AcDbCircle
 10
422.5175822573879
 20
1268.099042348186
 30
0.0
 40
3.783613929059507
100
AcDbArc
 50
139.5701031551777
 51
220.4298968448223
  0
ARC
  5
1C9
330
17
100
AcDbEntity
  8
4
100
AcDbCircle
 10
422.5175822573879
 20
1282.821474212522
 30
0.0
 40
3.783613929059507
100
AcDbArc
 50
139.5701031551777
 51
220.4298968448223
  0
LINE
  5
1CA
330
17
100
AcDbEntity
  8
4
100
AcDbLine
 10
425.7339683283285
 20
1285.275212856577
 30
0.0
 11
425.7339683283285
 21
1265.64530370413
 31
0.0
  0
LINE
  5
1CB
330
17
100
AcDbEntity
  8
4
100
AcDbLine
 10
428.2339683283285
 20
1265.64530370413
 30
0.0
 11
419.6374952741812
 21
1265.64530370413
 31
0.0
  0
LINE
  5
1CC
330
17
100
AcDbEntity
  8
4
100
AcDbLine
 10
419.6374952741812
 20
1280.367735568466
 30
0.0
 11
425.7339683283285
 21
1280.367735568466
 31
0.0
  0
LINE
  5
1CD
330
17
100
AcDbEntity
  8
4
100
AcDbLine
 10
419.6374952741812
 20
1270.552780992243
 30
0.0
 11
425.7339683283285
 21
1270.552780992243
 31
0.0
  0
LINE
  5
1CE
330
17
100
AcDbEntity
  8
4
100
AcDbLine
 10
419.6374952741812
 20
1285.275212856577
 30
0.0
 11
428.2339683283285
 21
1285.275212856577
 31
0.0
  0
LINE
  5
1CF
330
17
100
AcDbEntity
  8
L-CENTER
100
AcDbLine
 10
460.2066057760244
 20
1377.990738723976
 30
0.0
 11
415.865990073748
 21
1377.990738723976
 31
0.0
  0
ARC
  5
1D0
330
17
100
AcDbEntity
  8
4
100
AcDbCircle
 10
422.5175822573879
 20
1385.351954656143
 30
0.0
 40
3.783613929059507
100
AcDbArc
 50
139.5701031551777
 51
220.4298968448223
  0
ARC
  5
1D1
330
17
100
AcDbEntity
  8
4
100
AcDbCircle
 10
432.5131336257878
 20
1377.990738723976
 30
0.0
 40
13.77916529745958
100
AcDbArc
 50
159.1359356360806
 51
200.8640643639194
  0
LINE
  5
1D2
330
17
100
AcDbEntity
  8
4
100
AcDbLine
 10
418.7339683283285
 20
1385.351954656143
 30
0.0
 11
418.7339683283285
 21
1370.629522791807
 31
0.0
  0
ARC
  5
1D3
330
17
100
AcDbEntity
  8
4
100
AcDbCircle
 10
422.5175822573879
 20
1370.629522791807
 30
0.0
 40
3.783613929059507
100
AcDbArc
 50
139.5701031551777
 51
220.4298968448223
  0
LINE
  5
1D4
330
17
100
AcDbEntity
  8
4
100
AcDbLine
 10
425.7339683283285
 20
1368.175784147752
 30
0.0
 11
425.7339683283285
 21
1387.805693300199
 31
0.0
  0
LINE
  5
1D5
330
17
100
AcDbEntity
  8
4
100
AcDbLine
 10
428.2339683283285
 20
1368.175784147752
 30
0.0
 11
428.2339683283285
 21
1387.805693300199
 31
0.0
  0
LINE
  5
1D6
330
17
100
AcDbEntity
  8
4
100
AcDbLine
 10
419.6374952741812
 20
1382.898216012087
 30
0.0
 11
425.7339683283285
 21
1382.898216012087
 31
0.0
  0
LINE
  5
1D7
330
17
100
AcDbEntity
  8
4
100
AcDbLine
 10
419.6374952741812
 20
1373.083261435864
 30
0.0
 11
425.7339683283285
 21
1373.083261435864
 31
0.0
  0
LINE
  5
1D8
330
17
100
AcDbEntity
  8
4
100
AcDbLine
 10
428.2339683283285
 20
1387.805693300199
 30
0.0
 11
419.6374952741812
 21
1387.805693300199
 31
0.0
  0
LINE
  5
1D9
330
17
100
AcDbEntity
  8
4
100
AcDbLine
 10
419.6374952741812
 20
1368.175784147752
 30
0.0
 11
428.2339683283285
 21
1368.175784147752
 31
0.0
  0
LINE
  5
4D8
330
17
100
AcDbEntity
  8
L-CENTER
100
AcDbLine
 10
775.9498663283289
 20
98.04055873312439
 30
0.0
 11
775.9498663283289
 21
829.6642800859174
 31
0.0
  0
LINE
  5
4D9
330
17
100
AcDbEntity
  8
4
100
AcDbLine
 10
444.9498703283289
 20
433.2289927331244
 30
0.0
 11
444.9498703283289
 21
100.2289927331244
 31
0.0
  0
LINE
  5
4DA
330
17
100
AcDbEntity
  8
4
100
AcDbLine
 10
1106.949862328329
 20
433.2289927331244
 30
0.0
 11
1106.949862328329
 21
100.2289927331244
 31
0.0
  0
CIRCLE
  5
4DB
330
17
100
AcDbEntity
  8
4
100
AcDbCircle
 10
775.9498663283289
 20
433.2289927331244
 30
0.0
 40
315.0
  0
LINE
  5
4DC
330
17
100
AcDbEntity
  8
L-CENTER
100
AcDbLine
 10
520.9498663283289
 20
80.22899273312441
 30
0.0
 11
520.9498663283289
 21
160.2289947331244
 31
0.0
  0
LINE
  5
4DD
330
17
100
AcDbEntity
  8
4
100
AcDbLine
 10
614.9498683283286
 20
137.2289947331244
 30
0.0
 11
614.9498683283286
 21
100.2289927331244
 31
0.0
  0
LINE
  5
4DE
330
17
100
AcDbEntity
  8
4
100
AcDbLine
 10
594.9498643283291
 20
137.2289947331244
 30
0.0
 11
594.9498643283291
 21
100.2289927331244
 31
0.0
  0
LINE
  5
4DF
330
17
100
AcDbEntity
  8
L-CENTER
100
AcDbLine
 10
1030.949866328329
 20
80.22899273312441
 30
0.0
 11
1030.949866328329
 21
160.2289947331244
 31
0.0
  0
LINE
  5
4E0
330
17
100
AcDbEntity
  8
4
100
AcDbLine
 10
956.9498683283289
 20
137.2289947331244
 30
0.0
 11
956.9498683283289
 21
100.2289927331244
 31
0.0
  0
LINE
  5
4E1
330
17
100
AcDbEntity
  8
4
100
AcDbLine
 10
936.9498643283289
 20
137.2289947331244
 30
0.0
 11
936.9498643283289
 21
100.2289927331244
 31
0.0
  0
LINE
  5
4E5
330
17
100
AcDbEntity
  8
4
100
AcDbLine
 10
614.9498683283286
 20
100.2289927331244
 30
0.0
 11
444.9498703283289
 21
100.2289927331244
 31
0.0
  0
LINE
  5
4F8
330
17
100
AcDbEntity
  8
L-CENTER
100
AcDbLine
 10
198.0800257474492
 20
205.5820207331245
 30
0.0
 11
198.0800257474492
 21
274.8759607331245
 31
0.0
  0
ARC
  5
4F9
330
17
100
AcDbEntity
  8
4
100
AcDbCircle
 10
198.0800257474492
 20
240.2289907331245
 30
0.0
 40
23.00001
100
AcDbArc
 50
105.1216579999996
 51
74.87834199999975
  0
LINE
  5
4FA
330
17
100
AcDbEntity
  8
L-CENTER
100
AcDbLine
 10
232.7269957474495
 20
240.2289907331245
 30
0.0
 11
163.4330557474494
 21
240.2289907331245
 31
0.0
  0
LINE
  5
4FB
330
17
100
AcDbEntity
  8
4
100
AcDbLine
 10
204.0800197474495
 20
258.7289887331245
 30
0.0
 11
192.0800257474492
 21
258.7289887331245
 31
0.0
  0
LINE
  5
4FC
330
17
100
AcDbEntity
  8
4
100
AcDbLine
 10
204.0800197474495
 20
266.7289927331245
 30
0.0
 11
192.0800257474492
 21
266.7289927331245
 31
0.0
  0
LINE
  5
500
330
17
100
AcDbEntity
  8
4
100
AcDbLine
 10
192.0800257474492
 20
266.7289927331245
 30
0.0
 11
192.0800257474492
 21
258.7289887331245
 31
0.0
  0
LINE
  5
502
330
17
100
AcDbEntity
  8
4
100
AcDbLine
 10
204.0800197474495
 20
258.7289887331245
 30
0.0
 11
204.0800197474495
 21
266.7289927331245
 31
0.0
  0
LINE
  5
511
330
17
100
AcDbEntity
  8
4
100
AcDbLine
 10
936.9498643283289
 20
100.2289927331244
 30
0.0
 11
1106.949862328329
 21
100.2289927331244
 31
0.0
  0
LINE
  5
533
330
17
100
AcDbEntity
  8
4
100
AcDbLine
 10
620.9498683283286
 20
112.2289927331244
 30
0.0
 11
930.9498643283289
 21
112.2289927331244
 31
0.0
  0
ARC
  5
537
330
17
100
AcDbEntity
  8
4
100
AcDbCircle
 10
620.9498683283286
 20
106.2289927331244
 30
0.0
 40
6.0
100
AcDbArc
 50
90.0
 51
180.0
  0
ARC
  5
539
330
17
100
AcDbEntity
  8
4
100
AcDbCircle
 10
930.9498643283289
 20
106.2289927331244
 30
0.0
 40
6.0
100
AcDbArc
 50
0.0
 51
90.0
  0
LINE
  5
541
330
17
100
AcDbEntity
  8
L-CENTER
100
AcDbLine
 10
1131.750157459062
 20
240.2289907331244
 30
0.0
 11
304.4379063116189
 21
240.2289907331245
 31
0.0
  0
ARC
  5
542
330
17
100
AcDbEntity
  8
4
100
AcDbCircle
 10
775.9498663283289
 20
433.2289927331244
 30
0.0
 40
285.000018
100
AcDbArc
 50
273.988196
 51
266.012937
  0
LINE
  5
543
330
17
100
AcDbEntity
  8
4
100
AcDbLine
 10
447.9498703283289
 20
140.2289947331244
 30
0.0
 11
611.9498683283286
 21
140.2289947331244
 31
0.0
  0
LINE
  5
544
330
17
100
AcDbEntity
  8
4
100
AcDbLine
 10
466.9498663283289
 20
165.2289907331244
 30
0.0
 11
610.4173963283288
 21
165.2289907331244
 31
0.0
  0
LINE
  5
545
330
17
100
AcDbEntity
  8
4
100
AcDbLine
 10
466.9498663283289
 20
168.2289907331244
 30
0.0
 11
605.6559223283289
 21
168.2289907331244
 31
0.0
  0
LINE
  5
546
330
17
100
AcDbEntity
  8
L-CENTER
100
AcDbLine
 10
432.052159365006
 20
433.2289927331244
 30
0.0
 11
1119.847573291652
 21
433.2289927331244
 31
0.0
  0
ARC
  5
547
330
17
100
AcDbEntity
  8
4
100
AcDbCircle
 10
775.9498663283289
 20
-414.7710052668756
 30
0.0
 40
1000.000008
100
AcDbArc
 50
74.95685300000001
 51
105.043554
  0
ARC
  5
548
330
17
100
AcDbEntity
  8
4
100
AcDbCircle
 10
775.9498663283289
 20
-745.7710072668756
 30
0.0
 40
1499.99997
100
AcDbArc
 50
78.53761300000001
 51
101.462408
  0
LINE
  5
549
330
17
100
AcDbEntity
  8
L-CENTER
100
AcDbLine
 10
815.523598328329
 20
423.2289907331244
 30
0.0
 11
543.6803383283288
 21
423.2289907331244
 31
0.0
  0
ARC
  5
54A
330
17
100
AcDbEntity
  8
4
100
AcDbCircle
 10
775.9498663283289
 20
1261.228986733124
 30
0.0
 40
999.9999360000002
100
AcDbArc
 50
255.654203
 51
268.888258
  0
LINE
  5
54B
330
17
100
AcDbEntity
  8
4
100
AcDbLine
 10
557.9498683283286
 20
748.0644367331245
 30
0.0
 11
603.9498643283291
 21
748.0644367331245
 31
0.0
  0
LINE
  5
54C
330
17
100
AcDbEntity
  8
4
100
AcDbLine
 10
557.9498683283286
 20
752.0644387331245
 30
0.0
 11
603.9498643283291
 21
752.0644387331245
 31
0.0
  0
LINE
  5
54D
330
17
100
AcDbEntity
  8
4
100
AcDbLine
 10
557.9498683283286
 20
757.0644367331245
 30
0.0
 11
603.9498643283291
 21
757.0644367331245
 31
0.0
  0
LINE
  5
54E
330
17
100
AcDbEntity
  8
4
100
AcDbLine
 10
605.9498683283286
 20
746.5644367331245
 30
0.0
 11
555.9498643283291
 21
746.5644367331245
 31
0.0
  0
ARC
  5
550
330
17
100
AcDbEntity
  8
4
100
AcDbCircle
 10
1944.949864328329
 20
433.2287467331244
 30
0.0
 40
1500.000018
100
AcDbArc
 50
169.026148
 51
180.0004010010402
  0
LINE
  5
551
330
17
100
AcDbEntity
  8
4
100
AcDbLine
 10
439.9498663283289
 20
168.2289907331244
 30
0.0
 11
439.9498663283289
 21
312.2289907331244
 31
0.0
  0
LINE
  5
552
330
17
100
AcDbEntity
  8
4
100
AcDbLine
 10
427.9498663283289
 20
311.2289887331244
 30
0.0
 11
427.9498663283289
 21
169.2289927331244
 31
0.0
  0
ARC
  5
553
330
17
100
AcDbEntity
  8
4
100
AcDbCircle
 10
447.9498703283289
 20
137.2289947331244
 30
0.0
 40
3.0
100
AcDbArc
 50
90.0
 51
180.0
  0
ARC
  5
554
330
17
100
AcDbEntity
  8
4
100
AcDbCircle
 10
441.9498703283289
 20
165.2289907331244
 30
0.0
 40
3.0
100
AcDbArc
 50
0.0
 51
90.0
  0
LINE
  5
555
330
17
100
AcDbEntity
  8
4
100
AcDbLine
 10
439.9498663283289
 20
168.2289907331244
 30
0.0
 11
441.9498703283289
 21
168.2289907331244
 31
0.0
  0
ARC
  5
556
330
17
100
AcDbEntity
  8
4
100
AcDbCircle
 10
428.9498683283286
 20
169.2289927331244
 30
0.0
 40
1.000002
100
AcDbArc
 50
180.0
 51
270.0
  0
LINE
  5
557
330
17
100
AcDbEntity
  8
4
100
AcDbLine
 10
428.9498683283286
 20
168.2289907331244
 30
0.0
 11
439.9498663283289
 21
168.2289907331244
 31
0.0
  0
LINE
  5
558
330
17
100
AcDbEntity
  8
4
100
AcDbLine
 10
466.9498663283289
 20
148.2289927331244
 30
0.0
 11
466.9498663283289
 21
240.2289907331244
 31
0.0
  0
ARC
  5
559
330
17
100
AcDbEntity
  8
4
100
AcDbCircle
 10
474.9498643283291
 20
148.2289927331244
 30
0.0
 40
7.999998000000001
100
AcDbArc
 50
180.0
 51
270.0
  0
ARC
  5
55A
330
17
100
AcDbEntity
  8
4
100
AcDbCircle
 10
470.9498683283286
 20
240.2289907331244
 30
0.0
 40
4.000002
100
AcDbArc
 50
90.0
 51
180.0
  0
LINE
  5
55B
330
17
100
AcDbEntity
  8
4
100
AcDbLine
 10
475.122718328329
 20
315.2289907331244
 30
0.0
 11
444.9498703283289
 21
315.2289907331244
 31
0.0
  0
LINE
  5
55C
330
17
100
AcDbEntity
  8
4
100
AcDbLine
 10
476.256754328329
 20
312.2289907331244
 30
0.0
 11
444.9498703283289
 21
312.2289907331244
 31
0.0
  0
ARC
  5
55D
330
17
100
AcDbEntity
  8
4
100
AcDbCircle
 10
441.9498703283289
 20
315.2289907331244
 30
0.0
 40
3.0
100
AcDbArc
 50
270.0
 51
0.0
  0
LINE
  5
55E
330
17
100
AcDbEntity
  8
4
100
AcDbLine
 10
439.9498663283289
 20
312.2289907331244
 30
0.0
 11
441.9498703283289
 21
312.2289907331244
 31
0.0
  0
ARC
  5
55F
330
17
100
AcDbEntity
  8
4
100
AcDbCircle
 10
428.9498683283286
 20
311.2289887331244
 30
0.0
 40
1.000002
100
AcDbArc
 50
90.0
 51
180.0
  0
LINE
  5
560
330
17
100
AcDbEntity
  8
4
100
AcDbLine
 10
428.9498683283286
 20
312.2289907331244
 30
0.0
 11
439.9498663283289
 21
312.2289907331244
 31
0.0
  0
ARC
  5
561
330
17
100
AcDbEntity
  8
4
100
AcDbCircle
 10
476.256754328329
 20
318.2289907331244
 30
0.0
 40
6.000005999999999
100
AcDbArc
 50
270.0
 51
20.99181699999964
  0
ARC
  5
562
330
17
100
AcDbEntity
  8
4
100
AcDbCircle
 10
475.122718328329
 20
321.2289907331244
 30
0.0
 40
5.999946
100
AcDbArc
 50
270.0
 51
20.4215229999994
  0
ARC
  5
563
330
17
100
AcDbEntity
  8
4
100
AcDbCircle
 10
479.2533343283289
 20
717.4513987331245
 30
0.0
 40
7.000044
100
AcDbArc
 50
101.46278
 51
169.0243550000008
  0
LINE
  5
564
330
17
100
AcDbEntity
  8
4
100
AcDbLine
 10
557.9498683283286
 20
748.0644367331245
 30
0.0
 11
557.9498683283286
 21
757.0644367331245
 31
0.0
  0
LINE
  5
565
330
17
100
AcDbEntity
  8
4
100
AcDbLine
 10
555.9498643283291
 20
738.0080407331245
 30
0.0
 11
555.9498643283291
 21
746.5644367331245
 31
0.0
  0
ARC
  5
569
330
17
100
AcDbEntity
  8
4
100
AcDbCircle
 10
-393.0501316716709
 20
433.2287467331244
 30
0.0
 40
1499.999976
100
AcDbArc
 50
0.0000089950635202
 51
10.97442300000002
  0
LINE
  5
56D
330
17
100
AcDbEntity
  8
4
100
AcDbLine
 10
1084.949866328329
 20
168.2289907331244
 30
0.0
 11
946.2438103283289
 21
168.2289907331244
 31
0.0
  0
LINE
  5
56E
330
17
100
AcDbEntity
  8
4
100
AcDbLine
 10
1084.949866328329
 20
165.2289907331244
 30
0.0
 11
941.482336328329
 21
165.2289907331244
 31
0.0
  0
LINE
  5
56F
330
17
100
AcDbEntity
  8
4
100
AcDbLine
 10
1103.949862328329
 20
140.2289947331244
 30
0.0
 11
939.9498643283289
 21
140.2289947331244
 31
0.0
  0
LINE
  5
570
330
17
100
AcDbEntity
  8
L-CENTER
100
AcDbLine
 10
1012.984534328329
 20
440.2289887331244
 30
0.0
 11
788.9151943283289
 21
440.2289887331244
 31
0.0
  0
ARC
  5
571
330
17
100
AcDbEntity
  8
4
100
AcDbCircle
 10
775.9498663283289
 20
1261.228986733124
 30
0.0
 40
1000.000038
100
AcDbArc
 50
271.112777
 51
284.346835
  0
CIRCLE
  5
572
330
17
100
AcDbEntity
  8
4
100
AcDbCircle
 10
900.9498643283289
 20
440.2289887331244
 30
0.0
 40
90.0
  0
CIRCLE
  5
573
330
17
100
AcDbEntity
  8
L-CENTER
100
AcDbCircle
 10
900.9498643283289
 20
440.2289887331244
 30
0.0
 40
75.0
  0
CIRCLE
  5
574
330
17
100
AcDbEntity
  8
4
100
AcDbCircle
 10
900.9498643283289
 20
440.2289887331244
 30
0.0
 40
52.5
  0
LINE
  5
575
330
17
100
AcDbEntity
  8
L-CENTER
100
AcDbLine
 10
679.6019683283289
 20
559.1506207331245
 30
0.0
 11
679.6019683283289
 21
287.3073607331244
 31
0.0
  0
CIRCLE
  5
576
330
17
100
AcDbEntity
  8
L-CENTER
100
AcDbCircle
 10
679.6019683283289
 20
423.2289907331244
 30
0.0
 40
100.000002
  0
CIRCLE
  5
577
330
17
100
AcDbEntity
  8
4
100
AcDbCircle
 10
679.6019683283289
 20
423.2289907331244
 30
0.0
 40
115.000002
  0
LINE
  5
579
330
17
100
AcDbEntity
  8
L-CENTER
100
AcDbLine
 10
900.9498643283289
 20
552.2636587331244
 30
0.0
 11
900.9498643283289
 21
328.1943187331244
 31
0.0
  0
LINE
  5
57A
330
17
100
AcDbEntity
  8
L-CENTER
100
AcDbLine
 10
752.321296328329
 20
146.2289947331244
 30
0.0
 11
799.5784363283287
 21
146.2289947331244
 31
0.0
  0
ARC
  5
57B
330
17
100
AcDbEntity
  8
4
100
AcDbCircle
 10
775.9498663283289
 20
146.2289947331244
 30
0.0
 40
20.000064
100
AcDbArc
 50
7.729509999999903
 51
172.2711849999999
  0
CIRCLE
  5
57C
330
17
100
AcDbEntity
  8
2
100
AcDbCircle
 10
775.9498663283289
 20
146.2289947331244
 30
0.0
 40
8.331054
  0
LINE
  5
57D
330
17
100
AcDbEntity
  8
2
100
AcDbLine
 10
769.7349943283289
 20
142.6407607331245
 30
0.0
 11
775.9498663283289
 21
139.0526347331244
 31
0.0
  0
LINE
  5
57E
330
17
100
AcDbEntity
  8
2
100
AcDbLine
 10
775.9498663283289
 20
153.4053487331244
 30
0.0
 11
769.7349943283289
 21
149.8172227331245
 31
0.0
  0
LINE
  5
57F
330
17
100
AcDbEntity
  8
L-CENTER
100
AcDbLine
 10
806.452593054959
 20
266.2289887331244
 30
0.0
 11
745.4471396016987
 21
266.2289887331244
 31
0.0
  0
CIRCLE
  5
580
330
17
100
AcDbEntity
  8
4
100
AcDbCircle
 10
775.9498663283289
 20
266.2289887331244
 30
0.0
 40
18.0
  0
LINE
  5
581
330
17
100
AcDbEntity
  8
4
100
AcDbLine
 10
775.9498663283289
 20
284.2289887331244
 30
0.0
 11
760.3612423283289
 21
275.2289887331244
 31
0.0
  0
LINE
  5
582
330
17
100
AcDbEntity
  8
4
100
AcDbLine
 10
760.3612423283289
 20
257.2289887331244
 30
0.0
 11
775.9498663283289
 21
248.2289887331244
 31
0.0
  0
CIRCLE
  5
583
330
17
100
AcDbEntity
  8
4
100
AcDbCircle
 10
775.9498663283289
 20
266.2289887331244
 30
0.0
 40
19.999998
  0
ARC
  5
584
330
17
100
AcDbEntity
  8
4
100
AcDbCircle
 10
591.9498643283291
 20
137.2289947331244
 30
0.0
 40
3.0
100
AcDbArc
 50
0.0
 51
90.0
  0
ARC
  5
585
330
17
100
AcDbEntity
  8
4
100
AcDbCircle
 10
611.9498683283286
 20
137.2289947331244
 30
0.0
 40
3.0
100
AcDbArc
 50
0.0
 51
90.0
  0
LINE
  5
586
330
17
100
AcDbEntity
  8
2
100
AcDbLine
 10
769.7349943283289
 20
149.8172227331245
 30
0.0
 11
769.7349943283289
 21
142.6407607331245
 31
0.0
  0
LINE
  5
587
330
17
100
AcDbEntity
  8
4
100
AcDbLine
 10
760.3612423283289
 20
257.2289887331244
 30
0.0
 11
760.3612423283289
 21
275.2289887331244
 31
0.0
  0
LINE
  5
588
330
17
100
AcDbEntity
  8
L-CENTER
100
AcDbLine
 10
594.3806328816362
 20
338.0079004582755
 30
0.0
 11
623.4019095249959
 21
367.0291832579984
 31
0.0
  0
CIRCLE
  5
589
330
17
100
AcDbEntity
  8
4
100
AcDbCircle
 10
608.8912723283288
 20
352.5185407331244
 30
0.0
 40
8.660154
  0
LINE
  5
58A
330
17
100
AcDbEntity
  8
4
100
AcDbLine
 10
618.5504503283287
 20
349.9306507331244
 30
0.0
 11
611.4796543283287
 21
342.8593627331244
 31
0.0
  0
LINE
  5
58B
330
17
100
AcDbEntity
  8
4
100
AcDbLine
 10
601.8204703283291
 20
345.4472527331244
 30
0.0
 11
599.2320943283289
 21
355.1064307331244
 31
0.0
  0
LINE
  5
58C
330
17
100
AcDbEntity
  8
4
100
AcDbLine
 10
611.4796543283287
 20
342.8593627331244
 30
0.0
 11
601.8204703283291
 21
345.4472527331244
 31
0.0
  0
LINE
  5
58D
330
17
100
AcDbEntity
  8
4
100
AcDbLine
 10
606.3028963283291
 20
362.1777247331245
 30
0.0
 11
615.962320328329
 21
359.5898287331245
 31
0.0
  0
LINE
  5
58E
330
17
100
AcDbEntity
  8
4
100
AcDbLine
 10
599.2320943283289
 20
355.1064307331244
 30
0.0
 11
606.3028963283291
 21
362.1777247331245
 31
0.0
  0
LINE
  5
58F
330
17
100
AcDbEntity
  8
4
100
AcDbLine
 10
615.962320328329
 20
359.5898287331245
 30
0.0
 11
618.5504503283287
 21
349.9306507331244
 31
0.0
  0
LINE
  5
590
330
17
100
AcDbEntity
  8
L-CENTER
100
AcDbLine
 10
764.8234107218609
 20
338.0077943395922
 30
0.0
 11
735.8021310003194
 21
367.029074061134
 31
0.0
  0
CIRCLE
  5
591
330
17
100
AcDbEntity
  8
4
100
AcDbCircle
 10
750.3126583283288
 20
352.5185407331244
 30
0.0
 40
8.660154
  0
LINE
  5
592
330
17
100
AcDbEntity
  8
4
100
AcDbLine
 10
759.9718363283289
 20
355.1064307331244
 30
0.0
 11
757.383460328329
 21
345.4472527331244
 31
0.0
  0
LINE
  5
593
330
17
100
AcDbEntity
  8
4
100
AcDbLine
 10
747.7242823283289
 20
342.8593627331244
 30
0.0
 11
740.6534803283289
 21
349.9306507331244
 31
0.0
  0
LINE
  5
594
330
17
100
AcDbEntity
  8
4
100
AcDbLine
 10
757.383460328329
 20
345.4472527331244
 30
0.0
 11
747.7242823283289
 21
342.8593627331244
 31
0.0
  0
LINE
  5
595
330
17
100
AcDbEntity
  8
4
100
AcDbLine
 10
743.2416163283287
 20
359.5898287331245
 30
0.0
 11
752.9010403283289
 21
362.1777247331245
 31
0.0
  0
LINE
  5
596
330
17
100
AcDbEntity
  8
4
100
AcDbLine
 10
740.6534803283289
 20
349.9306507331244
 30
0.0
 11
743.2416163283287
 21
359.5898287331245
 31
0.0
  0
LINE
  5
597
330
17
100
AcDbEntity
  8
4
100
AcDbLine
 10
752.9010403283289
 20
362.1777247331245
 30
0.0
 11
759.9718363283289
 21
355.1064307331244
 31
0.0
  0
LINE
  5
598
330
17
100
AcDbEntity
  8
4
100
AcDbLine
 10
791.5382443283288
 20
275.2289887331244
 30
0.0
 11
775.9498663283289
 21
284.2289887331244
 31
0.0
  0
LINE
  5
599
330
17
100
AcDbEntity
  8
2
100
AcDbLine
 10
782.1647383283289
 20
142.6407607331245
 30
0.0
 11
775.9498663283289
 21
139.0526347331244
 31
0.0
  0
LINE
  5
59A
330
17
100
AcDbEntity
  8
2
100
AcDbLine
 10
782.1647383283289
 20
149.8172227331245
 30
0.0
 11
782.1647383283289
 21
142.6407607331245
 31
0.0
  0
LINE
  5
59B
330
17
100
AcDbEntity
  8
2
100
AcDbLine
 10
775.9498663283289
 20
153.4053487331244
 30
0.0
 11
782.1647383283289
 21
149.8172227331245
 31
0.0
  0
LINE
  5
59C
330
17
100
AcDbEntity
  8
4
100
AcDbLine
 10
775.9498663283289
 20
248.2289887331244
 30
0.0
 11
791.5382443283288
 21
257.2289887331244
 31
0.0
  0
LINE
  5
59D
330
17
100
AcDbEntity
  8
4
100
AcDbLine
 10
791.5382443283288
 20
257.2289887331244
 30
0.0
 11
791.5382443283288
 21
275.2289887331244
 31
0.0
  0
ARC
  5
59E
330
17
100
AcDbEntity
  8
4
100
AcDbCircle
 10
959.9498683283289
 20
137.2289947331244
 30
0.0
 40
3.0
100
AcDbArc
 50
90.0
 51
180.0
  0
ARC
  5
59F
330
17
100
AcDbEntity
  8
4
100
AcDbCircle
 10
939.9498643283289
 20
137.2289947331244
 30
0.0
 40
3.0
100
AcDbArc
 50
90.0
 51
180.0
  0
LINE
  5
5A0
330
17
100
AcDbEntity
  8
L-CENTER
100
AcDbLine
 10
833.406268467558
 20
372.6853928723535
 30
0.0
 11
862.4275481890995
 21
401.7066725938953
 31
0.0
  0
CIRCLE
  5
5A1
330
17
100
AcDbEntity
  8
4
100
AcDbCircle
 10
847.9169083283289
 20
387.1960327331244
 30
0.0
 40
8.660154
  0
LINE
  5
5A2
330
17
100
AcDbEntity
  8
4
100
AcDbLine
 10
857.5760863283288
 20
384.6081427331244
 30
0.0
 11
850.5052843283288
 21
377.5368547331245
 31
0.0
  0
LINE
  5
5A3
330
17
100
AcDbEntity
  8
4
100
AcDbLine
 10
840.8461063283289
 20
380.1247447331243
 30
0.0
 11
838.257724328329
 21
389.7839227331244
 31
0.0
  0
LINE
  5
5A4
330
17
100
AcDbEntity
  8
4
100
AcDbLine
 10
850.5052843283288
 20
377.5368547331245
 30
0.0
 11
840.8461063283289
 21
380.1247447331243
 31
0.0
  0
LINE
  5
5A5
330
17
100
AcDbEntity
  8
4
100
AcDbLine
 10
845.3285263283287
 20
396.8552107331245
 30
0.0
 11
854.9879503283289
 21
394.2673207331243
 31
0.0
  0
LINE
  5
5A6
330
17
100
AcDbEntity
  8
4
100
AcDbLine
 10
838.257724328329
 20
389.7839227331244
 30
0.0
 11
845.3285263283287
 21
396.8552107331245
 31
0.0
  0
LINE
  5
5A7
330
17
100
AcDbEntity
  8
4
100
AcDbLine
 10
854.9879503283289
 20
394.2673207331243
 30
0.0
 11
857.5760863283288
 21
384.6081427331244
 31
0.0
  0
LINE
  5
5A8
330
17
100
AcDbEntity
  8
L-CENTER
100
AcDbLine
 10
968.4934627474192
 20
372.6853894306741
 30
0.0
 11
939.4721863092491
 21
401.7066724355861
 31
0.0
  0
CIRCLE
  5
5A9
330
17
100
AcDbEntity
  8
4
100
AcDbCircle
 10
953.9828263283289
 20
387.1960327331244
 30
0.0
 40
8.660154
  0
LINE
  5
5AA
330
17
100
AcDbEntity
  8
4
100
AcDbLine
 10
963.6420043283288
 20
389.7839227331244
 30
0.0
 11
961.0536283283288
 21
380.1247447331243
 31
0.0
  0
LINE
  5
5AB
330
17
100
AcDbEntity
  8
4
100
AcDbLine
 10
951.394444328329
 20
377.5368547331245
 30
0.0
 11
944.3236423283288
 21
384.6081427331244
 31
0.0
  0
LINE
  5
5AC
330
17
100
AcDbEntity
  8
4
100
AcDbLine
 10
961.0536283283288
 20
380.1247447331243
 30
0.0
 11
951.394444328329
 21
377.5368547331245
 31
0.0
  0
LINE
  5
5AD
330
17
100
AcDbEntity
  8
4
100
AcDbLine
 10
946.9117783283289
 20
394.2673207331243
 30
0.0
 11
956.5712023283288
 21
396.8552107331245
 31
0.0
  0
LINE
  5
5AE
330
17
100
AcDbEntity
  8
4
100
AcDbLine
 10
944.3236423283288
 20
384.6081427331244
 30
0.0
 11
946.9117783283289
 21
394.2673207331243
 31
0.0
  0
LINE
  5
5AF
330
17
100
AcDbEntity
  8
4
100
AcDbLine
 10
956.5712023283288
 20
396.8552107331245
 30
0.0
 11
963.6420043283288
 21
389.7839227331244
 31
0.0
  0
LINE
  5
5B2
330
17
100
AcDbEntity
  8
L-CENTER
100
AcDbLine
 10
594.3808919351073
 20
508.4505531263462
 30
0.0
 11
623.402171656649
 21
479.4292734048047
 31
0.0
  0
CIRCLE
  5
5B3
330
17
100
AcDbEntity
  8
4
100
AcDbCircle
 10
608.8915183283289
 20
493.9399267331244
 30
0.0
 40
8.660154
  0
LINE
  5
5B4
330
17
100
AcDbEntity
  8
4
100
AcDbLine
 10
615.962320328329
 20
486.8686387331245
 30
0.0
 11
606.303136328329
 21
484.2807487331245
 31
0.0
  0
LINE
  5
5B5
330
17
100
AcDbEntity
  8
4
100
AcDbLine
 10
606.303136328329
 20
484.2807487331245
 30
0.0
 11
599.232340328329
 21
491.3520367331244
 31
0.0
  0
LINE
  5
5B6
330
17
100
AcDbEntity
  8
4
100
AcDbLine
 10
601.8204703283291
 20
501.0112147331245
 30
0.0
 11
611.479894328329
 21
503.5991047331245
 31
0.0
  0
LINE
  5
5B7
330
17
100
AcDbEntity
  8
4
100
AcDbLine
 10
599.232340328329
 20
491.3520367331244
 30
0.0
 11
601.8204703283291
 21
501.0112147331245
 31
0.0
  0
LINE
  5
5B8
330
17
100
AcDbEntity
  8
4
100
AcDbLine
 10
611.479894328329
 20
503.5991047331245
 30
0.0
 11
618.5506963283292
 21
496.5278167331244
 31
0.0
  0
LINE
  5
5B9
330
17
100
AcDbEntity
  8
4
100
AcDbLine
 10
618.5506963283292
 20
496.5278167331244
 30
0.0
 11
615.962320328329
 21
486.8686387331245
 31
0.0
  0
LINE
  5
5BA
330
17
100
AcDbEntity
  8
L-CENTER
100
AcDbLine
 10
764.8230521890998
 20
508.450566593895
 30
0.0
 11
735.8017724675581
 21
479.4292868723537
 31
0.0
  0
CIRCLE
  5
5BB
330
17
100
AcDbEntity
  8
4
100
AcDbCircle
 10
750.312412328329
 20
493.9399267331244
 30
0.0
 40
8.660154
  0
LINE
  5
5BC
330
17
100
AcDbEntity
  8
4
100
AcDbLine
 10
759.9715963283288
 20
491.3520367331244
 30
0.0
 11
752.9007943283289
 21
484.2807487331245
 31
0.0
  0
LINE
  5
5BD
330
17
100
AcDbEntity
  8
4
100
AcDbLine
 10
752.9007943283289
 20
484.2807487331245
 30
0.0
 11
743.2416163283287
 21
486.8686387331245
 31
0.0
  0
LINE
  5
5BE
330
17
100
AcDbEntity
  8
4
100
AcDbLine
 10
740.6532343283288
 20
496.5278167331244
 30
0.0
 11
747.7240363283288
 21
503.5991047331245
 31
0.0
  0
LINE
  5
5BF
330
17
100
AcDbEntity
  8
4
100
AcDbLine
 10
743.2416163283287
 20
486.8686387331245
 30
0.0
 11
740.6532343283288
 21
496.5278167331244
 31
0.0
  0
LINE
  5
5C0
330
17
100
AcDbEntity
  8
4
100
AcDbLine
 10
757.383460328329
 20
501.0112147331245
 30
0.0
 11
759.9715963283288
 21
491.3520367331244
 31
0.0
  0
LINE
  5
5C1
330
17
100
AcDbEntity
  8
4
100
AcDbLine
 10
747.7240363283288
 20
503.5991047331245
 30
0.0
 11
757.383460328329
 21
501.0112147331245
 31
0.0
  0
LINE
  5
5C4
330
17
100
AcDbEntity
  8
L-CENTER
100
AcDbLine
 10
833.4062154368817
 20
507.7726367412006
 30
0.0
 11
862.427498441794
 21
478.75136030303
 31
0.0
  0
CIRCLE
  5
5C5
330
17
100
AcDbEntity
  8
4
100
AcDbCircle
 10
847.9169083283289
 20
493.2619507331244
 30
0.0
 40
8.660154
  0
LINE
  5
5C6
330
17
100
AcDbEntity
  8
4
100
AcDbLine
 10
845.3285263283287
 20
483.6027727331243
 30
0.0
 11
838.257724328329
 21
490.6740607331244
 31
0.0
  0
LINE
  5
5C7
330
17
100
AcDbEntity
  8
4
100
AcDbLine
 10
854.9877103283288
 20
486.1906627331243
 30
0.0
 11
845.3285263283287
 21
483.6027727331243
 31
0.0
  0
LINE
  5
5C8
330
17
100
AcDbEntity
  8
4
100
AcDbLine
 10
840.8458603283289
 20
500.3332387331245
 30
0.0
 11
850.5052843283288
 21
502.9211287331243
 31
0.0
  0
LINE
  5
5C9
330
17
100
AcDbEntity
  8
4
100
AcDbLine
 10
838.257724328329
 20
490.6740607331244
 30
0.0
 11
840.8458603283289
 21
500.3332387331245
 31
0.0
  0
LINE
  5
5CA
330
17
100
AcDbEntity
  8
4
100
AcDbLine
 10
857.5760863283288
 20
495.8498407331244
 30
0.0
 11
854.9877103283288
 21
486.1906627331243
 31
0.0
  0
LINE
  5
5CB
330
17
100
AcDbEntity
  8
4
100
AcDbLine
 10
850.5052843283288
 20
502.9211287331243
 30
0.0
 11
857.5760863283288
 21
495.8498407331244
 31
0.0
  0
LINE
  5
5CC
330
17
100
AcDbEntity
  8
L-CENTER
100
AcDbLine
 10
968.4934661890998
 20
507.7725905938951
 30
0.0
 11
939.4721864675581
 21
478.7513108723535
 31
0.0
  0
CIRCLE
  5
5CD
330
17
100
AcDbEntity
  8
4
100
AcDbCircle
 10
953.9828263283289
 20
493.2619507331244
 30
0.0
 40
8.660154
  0
LINE
  5
5CE
330
17
100
AcDbEntity
  8
4
100
AcDbLine
 10
963.6420043283288
 20
490.6740607331244
 30
0.0
 11
956.5712023283288
 21
483.6027727331243
 31
0.0
  0
LINE
  5
5CF
330
17
100
AcDbEntity
  8
4
100
AcDbLine
 10
956.5712023283288
 20
483.6027727331243
 30
0.0
 11
946.9120243283289
 21
486.1906627331243
 31
0.0
  0
LINE
  5
5D0
330
17
100
AcDbEntity
  8
4
100
AcDbLine
 10
951.394444328329
 20
502.9211287331243
 30
0.0
 11
961.0538683283289
 21
500.3332387331245
 31
0.0
  0
LINE
  5
5D1
330
17
100
AcDbEntity
  8
4
100
AcDbLine
 10
946.9120243283289
 20
486.1906627331243
 30
0.0
 11
944.3236423283288
 21
495.8498407331244
 31
0.0
  0
LINE
  5
5D2
330
17
100
AcDbEntity
  8
4
100
AcDbLine
 10
944.3236423283288
 20
495.8498407331244
 30
0.0
 11
951.394444328329
 21
502.9211287331243
 31
0.0
  0
LINE
  5
5D3
330
17
100
AcDbEntity
  8
4
100
AcDbLine
 10
961.0538683283289
 20
500.3332387331245
 30
0.0
 11
963.6420043283288
 21
490.6740607331244
 31
0.0
  0
LINE
  5
5DC
330
17
100
AcDbEntity
  8
4
100
AcDbLine
 10
1111.949866328329
 20
168.2289907331244
 30
0.0
 11
1111.949866328329
 21
312.2289907331244
 31
0.0
  0
LINE
  5
5DD
330
17
100
AcDbEntity
  8
4
100
AcDbLine
 10
1123.949866328329
 20
311.2289887331244
 30
0.0
 11
1123.949866328329
 21
169.2289927331244
 31
0.0
  0
LINE
  5
5E0
330
17
100
AcDbEntity
  8
4
100
AcDbLine
 10
1084.949866328329
 20
148.2289927331244
 30
0.0
 11
1084.949866328329
 21
240.2289907331244
 31
0.0
  0
ARC
  5
5E1
330
17
100
AcDbEntity
  8
4
100
AcDbCircle
 10
1076.949862328329
 20
148.2289927331244
 30
0.0
 40
7.999998000000001
100
AcDbArc
 50
270.0017479999999
 51
0.0
  0
ARC
  5
5E2
330
17
100
AcDbEntity
  8
4
100
AcDbCircle
 10
1080.949864328329
 20
240.2289907331244
 30
0.0
 40
4.000002
100
AcDbArc
 50
0.0
 51
90.0
  0
LINE
  5
5E3
330
17
100
AcDbEntity
  8
4
100
AcDbLine
 10
1122.949864328329
 20
168.2289907331244
 30
0.0
 11
1111.949866328329
 21
168.2289907331244
 31
0.0
  0
ARC
  5
5E4
330
17
100
AcDbEntity
  8
4
100
AcDbCircle
 10
1109.949862328329
 20
165.2289907331244
 30
0.0
 40
3.0
100
AcDbArc
 50
90.0
 51
180.0
  0
ARC
  5
5E5
330
17
100
AcDbEntity
  8
4
100
AcDbCircle
 10
1103.949862328329
 20
137.2289947331244
 30
0.0
 40
3.0
100
AcDbArc
 50
0.0
 51
90.0
  0
LINE
  5
5E6
330
17
100
AcDbEntity
  8
4
100
AcDbLine
 10
1111.949866328329
 20
168.2289907331244
 30
0.0
 11
1109.949862328329
 21
168.2289907331244
 31
0.0
  0
ARC
  5
5E7
330
17
100
AcDbEntity
  8
4
100
AcDbCircle
 10
1122.949864328329
 20
169.2289927331244
 30
0.0
 40
1.000002
100
AcDbArc
 50
270.0
 51
0.0
  0
LINE
  5
5ED
330
17
100
AcDbEntity
  8
4
100
AcDbLine
 10
1075.642978328329
 20
312.2289907331244
 30
0.0
 11
1106.949862328329
 21
312.2289907331244
 31
0.0
  0
LINE
  5
5EE
330
17
100
AcDbEntity
  8
4
100
AcDbLine
 10
1076.777014328329
 20
315.2289907331244
 30
0.0
 11
1106.949862328329
 21
315.2289907331244
 31
0.0
  0
ARC
  5
5EF
330
17
100
AcDbEntity
  8
4
100
AcDbCircle
 10
1075.642978328329
 20
318.2289907331244
 30
0.0
 40
6.000005999999999
100
AcDbArc
 50
159.0081830000002
 51
270.0
  0
ARC
  5
5F0
330
17
100
AcDbEntity
  8
4
100
AcDbCircle
 10
1076.777014328329
 20
321.2289907331244
 30
0.0
 40
6.00006
100
AcDbArc
 50
159.5792900000008
 51
270.0
  0
LINE
  5
5F3
330
17
100
AcDbEntity
  8
4
100
AcDbLine
 10
1122.949864328329
 20
312.2289907331244
 30
0.0
 11
1111.949866328329
 21
312.2289907331244
 31
0.0
  0
ARC
  5
5F4
330
17
100
AcDbEntity
  8
4
100
AcDbCircle
 10
1109.949862328329
 20
315.2289907331244
 30
0.0
 40
3.0
100
AcDbArc
 50
180.0
 51
270.0
  0
LINE
  5
5F5
330
17
100
AcDbEntity
  8
4
100
AcDbLine
 10
1111.949866328329
 20
312.2289907331244
 30
0.0
 11
1109.949862328329
 21
312.2289907331244
 31
0.0
  0
ARC
  5
5F6
330
17
100
AcDbEntity
  8
4
100
AcDbCircle
 10
1122.949864328329
 20
311.2289887331244
 30
0.0
 40
1.000002
100
AcDbArc
 50
0.0
 51
90.0
  0
LINE
  5
606
330
17
100
AcDbEntity
  8
4
100
AcDbLine
 10
755.9498683283289
 20
756.2289907331244
 30
0.0
 11
795.9498643283289
 21
756.2289907331244
 31
0.0
  0
LINE
  5
607
330
17
100
AcDbEntity
  8
4
100
AcDbLine
 10
770.9498683283289
 20
766.4084347331243
 30
0.0
 11
763.7640763283289
 21
765.2289907331244
 31
0.0
  0
LINE
  5
608
330
17
100
AcDbEntity
  8
4
100
AcDbLine
 10
763.7640763283289
 20
765.2289907331244
 30
0.0
 11
770.9498683283289
 21
765.2289907331244
 31
0.0
  0
ARC
  5
609
330
17
100
AcDbEntity
  8
4
100
AcDbCircle
 10
769.9498663283289
 20
759.2289907331244
 30
0.0
 40
1.000002
100
AcDbArc
 50
270.0
 51
0.0
  0
LINE
  5
60C
330
17
100
AcDbEntity
  8
L-CENTER
100
AcDbLine
 10
580.9498663283289
 20
763.0667047331244
 30
0.0
 11
580.9498663283289
 21
710.236321935538
 31
0.0
  0
LINE
  5
60D
330
17
100
AcDbEntity
  8
4
100
AcDbLine
 10
558.9498643283291
 20
748.0644367331245
 30
0.0
 11
558.9498643283291
 21
746.5644367331245
 31
0.0
  0
LINE
  5
60E
330
17
100
AcDbEntity
  8
4
100
AcDbLine
 10
569.4498643283291
 20
752.0644387331245
 30
0.0
 11
569.4498643283291
 21
757.0644367331245
 31
0.0
  0
LINE
  5
60F
330
17
100
AcDbEntity
  8
4
100
AcDbLine
 10
602.9498683283286
 20
748.0644367331245
 30
0.0
 11
602.9498683283286
 21
746.5644367331245
 31
0.0
  0
LINE
  5
610
330
17
100
AcDbEntity
  8
4
100
AcDbLine
 10
603.9498643283291
 20
748.0644367331245
 30
0.0
 11
603.9498643283291
 21
757.0644367331245
 31
0.0
  0
LINE
  5
611
330
17
100
AcDbEntity
  8
4
100
AcDbLine
 10
592.4498683283286
 20
752.0644387331245
 30
0.0
 11
592.4498683283286
 21
757.0644367331245
 31
0.0
  0
LINE
  5
612
330
17
100
AcDbEntity
  8
4
100
AcDbLine
 10
605.9498683283286
 20
746.5644367331245
 30
0.0
 11
605.9498683283286
 21
744.5644387331245
 31
0.0
  0
LINE
  5
613
330
17
100
AcDbEntity
  8
4
100
AcDbLine
 10
763.7640763283289
 20
765.2289907331244
 30
0.0
 11
763.4498683283289
 21
756.2289907331244
 31
0.0
  0
LINE
  5
614
330
17
100
AcDbEntity
  8
4
100
AcDbLine
 10
755.9498683283289
 20
754.0956907331245
 30
0.0
 11
755.9498683283289
 21
756.2289907331244
 31
0.0
  0
LINE
  5
619
330
17
100
AcDbEntity
  8
4
100
AcDbLine
 10
780.9498643283289
 20
759.2289907331244
 30
0.0
 11
780.9498643283289
 21
811.2289867331244
 31
0.0
  0
LINE
  5
61A
330
17
100
AcDbEntity
  8
4
100
AcDbLine
 10
770.9498683283289
 20
759.2289907331244
 30
0.0
 11
770.9498683283289
 21
811.2289867331244
 31
0.0
  0
LINE
  5
61B
330
17
100
AcDbEntity
  8
4
100
AcDbLine
 10
780.9498643283289
 20
766.4084347331243
 30
0.0
 11
788.1356563283289
 21
765.2289907331244
 31
0.0
  0
LINE
  5
61C
330
17
100
AcDbEntity
  8
4
100
AcDbLine
 10
788.1356563283289
 20
765.2289907331244
 30
0.0
 11
788.4498643283289
 21
756.2289907331244
 31
0.0
  0
LINE
  5
61D
330
17
100
AcDbEntity
  8
4
100
AcDbLine
 10
780.9498643283289
 20
765.2289907331244
 30
0.0
 11
788.1356563283289
 21
765.2289907331244
 31
0.0
  0
ARC
  5
61E
330
17
100
AcDbEntity
  8
4
100
AcDbCircle
 10
781.9498663283289
 20
759.2289907331244
 30
0.0
 40
1.000002
100
AcDbArc
 50
180.0
 51
270.0
  0
LINE
  5
61F
330
17
100
AcDbEntity
  8
4
100
AcDbLine
 10
795.9498643283289
 20
754.0956907331245
 30
0.0
 11
795.9498643283289
 21
756.2289907331244
 31
0.0
  0
ARC
  5
620
330
17
100
AcDbEntity
  8
4
100
AcDbCircle
 10
775.9498663283289
 20
811.2289867331244
 30
0.0
 40
4.999998
100
AcDbArc
 50
0.0
 51
180.0
  0
ARC
  5
625
330
17
100
AcDbEntity
  8
4
100
AcDbCircle
 10
1072.646398328329
 20
717.4513987331245
 30
0.0
 40
7.000044
100
AcDbArc
 50
10.97564600000024
 51
78.53722799999996
  0
LINE
  5
62A
330
17
100
AcDbEntity
  8
L-CENTER
100
AcDbLine
 10
1772.000396650355
 20
831.5536987331245
 30
0.0
 11
1772.000396650355
 21
89.21083273312445
 31
0.0
  0
LINE
  5
62B
330
17
100
AcDbEntity
  8
L-CENTER
100
AcDbLine
 10
1617.000398650355
 20
80.22899273312441
 30
0.0
 11
1617.000398650355
 21
160.2289947331244
 31
0.0
  0
LINE
  5
62C
330
17
100
AcDbEntity
  8
4
100
AcDbLine
 10
1577.000396650355
 20
137.2289947331244
 30
0.0
 11
1577.000396650355
 21
100.2289927331244
 31
0.0
  0
LWPOLYLINE
  5
62D
330
17
100
AcDbEntity
  8
4
100
AcDbPolyline
 90
       43
 70
     0
 43
0.0
 10
1900.487096650355
 20
140.1493027331244
 10
1900.981466650355
 20
139.5459787331245
 10
1901.462906650355
 20
138.9421147331244
 10
1901.918504650355
 20
138.3371707331244
 10
1903.000958650355
 20
136.5104767331244
 10
1903.223924650355
 20
135.8958307331244
 10
1903.356416650355
 20
135.2774047331244
 10
1903.385522650356
 20
134.6546647331245
 10
1903.316858650355
 20
134.0873287331244
 10
1903.172390650355
 20
133.5152287331244
 10
1902.971396650355
 20
132.9375427331245
 10
1902.222260650356
 20
131.1629947331244
 10
1901.988134650355
 20
130.5549607331244
 10
1901.793956650356
 20
129.9373267331245
 10
1901.659016650355
 20
129.3092887331244
 10
1901.593340650355
 20
128.3596267331244
 10
1901.667836650355
 20
127.3923967331244
 10
1901.850326650355
 20
126.4146247331244
 10
1902.723842650355
 20
123.4883227331244
 10
1903.410464650356
 20
120.7201327331244
 10
1903.447592650356
 20
119.8653367331244
 10
1903.335200650356
 20
119.0562187331244
 10
1903.041098650355
 20
118.2998047331245
 10
1902.558920650356
 20
117.6128047331244
 10
1901.921714650356
 20
116.9687227331244
 10
1901.179946650355
 20
116.3530867331244
 10
1898.832014650356
 20
114.5322187331244
 10
1898.176724650355
 20
113.8857067331244
 10
1897.669238650356
 20
113.1952987331244
 10
1897.360022650355
 20
112.4465347331244
 10
1897.283558650355
 20
111.6103447331244
 10
1897.413944650355
 20
110.7164707331244
 10
1897.697498650355
 20
109.7835127331244
 10
1898.930168650355
 20
106.9361227331244
 10
1899.289406650355
 20
106.0328227331245
 10
1899.533330650355
 20
105.1834447331244
 10
1899.608240650356
 20
104.4065887331244
 10
1899.270554650355
 20
103.3053607331244
 10
1898.411588650355
 20
102.4174087331244
 10
1897.125380650356
 20
101.7042727331244
 10
1895.505944650356
 20
101.1274627331244
 10
1893.647306650355
 20
100.6485307331244
 10
1891.643492650355
 20
100.2289927331244
  0
LINE
  5
62E
330
17
100
AcDbEntity
  8
4
100
AcDbLine
 10
1938.000398650355
 20
140.2289947331244
 30
0.0
 11
1938.000398650355
 21
100.2289927331244
 31
0.0
  0
LINE
  5
62F
330
17
100
AcDbEntity
  8
4
100
AcDbLine
 10
1916.000396650355
 20
140.2289947331244
 30
0.0
 11
1916.000396650355
 21
100.2289927331244
 31
0.0
  0
LINE
  5
630
330
17
100
AcDbEntity
  8
L-CENTER
100
AcDbLine
 10
1927.000394650356
 20
80.22899273312441
 30
0.0
 11
1927.000394650356
 21
160.2289947331244
 31
0.0
  0
LINE
  5
631
330
17
100
AcDbEntity
  8
4
100
AcDbLine
 10
1967.000396650355
 20
137.2289947331244
 30
0.0
 11
1967.000396650355
 21
100.2289927331244
 31
0.0
  0
TEXT
  5
636
330
17
100
AcDbEntity
  8
3
100
AcDbText
 10
1252.565040137539
 20
46.79361431732661
 30
0.0
 40
17.85075324173629
  1
LD8-03
  7
KANJI
100
AcDbText
  0
LINE
  5
638
330
17
100
AcDbEntity
  8
4
100
AcDbLine
 10
1967.000396650355
 20
100.2289927331244
 30
0.0
 11
1577.000396650355
 21
100.2289927331244
 31
0.0
  0
LINE
  5
64F
330
17
100
AcDbEntity
  8
L-CENTER
100
AcDbLine
 10
1937.94601003801
 20
423.2289907331244
 30
0.0
 11
1429.930084707812
 21
423.2289907331244
 31
0.0
  0
LINE
  5
655
330
17
100
AcDbEntity
  8
4
100
AcDbLine
 10
1905.000398650355
 20
746.2289887331244
 30
0.0
 11
1905.000398650355
 21
184.2289927331244
 31
0.0
  0
LINE
  5
656
330
17
100
AcDbEntity
  8
4
100
AcDbLine
 10
1877.000396650355
 20
752.2289887331244
 30
0.0
 11
1877.000396650355
 21
160.2289927331244
 31
0.0
  0
LINE
  5
657
330
17
100
AcDbEntity
  8
4
100
AcDbLine
 10
1646.000396650355
 20
746.2289887331244
 30
0.0
 11
1646.000396650355
 21
228.1078987331244
 31
0.0
  0
LINE
  5
658
330
17
100
AcDbEntity
  8
4
100
AcDbLine
 10
1642.968902650356
 20
218.9213767331244
 30
0.0
 11
1642.968902650356
 21
718.2289867331244
 31
0.0
  0
ARC
  5
659
330
17
100
AcDbEntity
  8
4
100
AcDbCircle
 10
8436.993776650354
 20
433.2289927331244
 30
0.0
 40
6799.999968
100
AcDbArc
 50
177.5984690000001
 51
181.866518
  0
LINE
  5
65A
330
17
100
AcDbEntity
  8
4
100
AcDbLine
 10
1880.000396650355
 20
149.6933467331244
 30
0.0
 11
1880.000396650355
 21
748.2289867331244
 31
0.0
  0
LINE
  5
65B
330
17
100
AcDbEntity
  8
4
100
AcDbLine
 10
1667.000396650355
 20
752.2289887331244
 30
0.0
 11
1667.000396650355
 21
315.2988127331245
 31
0.0
  0
CIRCLE
  5
65E
330
17
100
AcDbEntity
  8
L-CENTER
100
AcDbCircle
 10
1725.000398650355
 20
240.2289907331244
 30
0.0
 40
72.499998
  0
LINE
  5
65F
330
17
100
AcDbEntity
  8
4
100
AcDbLine
 10
1964.000396650355
 20
140.2289947331244
 30
0.0
 11
1580.000396650355
 21
140.2289947331244
 31
0.0
  0
LINE
  5
660
330
17
100
AcDbEntity
  8
L-CENTER
100
AcDbLine
 10
1809.009008650356
 20
240.2289907331244
 30
0.0
 11
1640.991788650355
 21
240.2289907331244
 31
0.0
  0
ARC
  5
661
330
17
100
AcDbEntity
  8
4
100
AcDbCircle
 10
1725.000152650356
 20
568.2292327331245
 30
0.0
 40
399.9999240000001
100
AcDbArc
 50
260.956666
 51
279.0444319999999
  0
LINE
  5
662
330
17
100
AcDbEntity
  8
L-CENTER
100
AcDbLine
 10
1659.224519024147
 20
174.4531101941693
 30
0.0
 11
1688.24579444971
 21
203.4743942116891
 31
0.0
  0
LINE
  5
663
330
17
100
AcDbEntity
  8
4
100
AcDbLine
 10
1664.076080650355
 20
191.5517467331244
 30
0.0
 11
1671.146882650356
 21
198.6230347331244
 31
0.0
  0
ARC
  5
664
330
17
100
AcDbEntity
  8
4
100
AcDbCircle
 10
1647.000398650355
 20
160.2289927331244
 30
0.0
 40
19.999998
100
AcDbArc
 50
270.0006990000008
 51
0.0
  0
CIRCLE
  5
665
330
17
100
AcDbEntity
  8
4
100
AcDbCircle
 10
1673.735258650355
 20
188.9638567331244
 30
0.0
 40
8.660154
  0
LINE
  5
666
330
17
100
AcDbEntity
  8
4
100
AcDbLine
 10
1676.323640650355
 20
179.3046727331244
 30
0.0
 11
1666.664456650356
 21
181.8925627331245
 31
0.0
  0
ARC
  5
667
330
17
100
AcDbEntity
  8
4
100
AcDbCircle
 10
1725.000152650356
 20
-87.77125126687554
 30
0.0
 40
399.99999
100
AcDbArc
 50
80.95620700000003
 51
99.04386300000006
  0
LINE
  5
668
330
17
100
AcDbEntity
  8
L-CENTER
100
AcDbLine
 10
1659.224618789584
 20
306.0047705938952
 30
0.0
 11
1688.245898511126
 21
276.9834908723535
 31
0.0
  0
LINE
  5
669
330
17
100
AcDbEntity
  8
4
100
AcDbLine
 10
1671.146882650356
 20
281.8349467331244
 30
0.0
 11
1664.076080650355
 21
288.9062347331244
 31
0.0
  0
CIRCLE
  5
66A
330
17
100
AcDbEntity
  8
4
100
AcDbCircle
 10
1673.735258650355
 20
291.4941307331244
 30
0.0
 40
8.660154
  0
LINE
  5
66B
330
17
100
AcDbEntity
  8
4
100
AcDbLine
 10
1666.664216650355
 20
298.5654187331244
 30
0.0
 11
1676.323640650355
 21
301.1533087331244
 31
0.0
  0
LINE
  5
66C
330
17
100
AcDbEntity
  8
4
100
AcDbLine
 10
1615.000394650355
 20
538.2289927331244
 30
0.0
 11
1615.000394650355
 21
308.2289887331244
 31
0.0
  0
LINE
  5
66D
330
17
100
AcDbEntity
  8
4
100
AcDbLine
 10
1630.000394650355
 20
308.2289887331244
 30
0.0
 11
1630.000394650355
 21
538.2289927331244
 31
0.0
  0
ARC
  5
673
330
17
100
AcDbEntity
  8
4
100
AcDbCircle
 10
2050.000394650356
 20
240.2289907331244
 30
0.0
 40
399.999906
100
AcDbArc
 50
170.5774619999999
 51
189.423211
  0
ARC
  5
674
330
17
100
AcDbEntity
  8
4
100
AcDbCircle
 10
2053.000394650356
 20
240.2289907331244
 30
0.0
 40
399.99996
100
AcDbArc
 50
170.956666
 51
189.043828
  0
LINE
  5
675
330
17
100
AcDbEntity
  8
4
100
AcDbLine
 10
1631.544830650355
 20
248.2289887331244
 30
0.0
 11
1631.544830650355
 21
284.2289887331244
 31
0.0
  0
LINE
  5
676
330
17
100
AcDbEntity
  8
4
100
AcDbLine
 10
1633.544828650355
 20
248.2289887331244
 30
0.0
 11
1633.544828650355
 21
284.2289887331244
 31
0.0
  0
LINE
  5
677
330
17
100
AcDbEntity
  8
4
100
AcDbLine
 10
1635.044828650355
 20
249.2289907331244
 30
0.0
 11
1635.044828650355
 21
283.2289927331244
 31
0.0
  0
LINE
  5
678
330
17
100
AcDbEntity
  8
4
100
AcDbLine
 10
1626.544832650356
 20
248.2289887331244
 30
0.0
 11
1626.544832650356
 21
284.2289887331244
 31
0.0
  0
LINE
  5
679
330
17
100
AcDbEntity
  8
4
100
AcDbLine
 10
1635.044828650355
 20
246.2289907331244
 30
0.0
 11
1635.044828650355
 21
286.2289927331244
 31
0.0
  0
LINE
  5
67A
330
17
100
AcDbEntity
  8
4
100
AcDbLine
 10
1617.000398650355
 20
140.2289947331244
 30
0.0
 11
1650.000398650355
 21
240.2289907331244
 31
0.0
  0
ARC
  5
67B
330
17
100
AcDbEntity
  8
4
100
AcDbCircle
 10
1580.000396650355
 20
137.2289947331244
 30
0.0
 40
3.0
100
AcDbArc
 50
90.0
 51
180.0
  0
ARC
  5
67C
330
17
100
AcDbEntity
  8
4
100
AcDbCircle
 10
1662.000398650355
 20
165.1591687331244
 30
0.0
 40
5.00004
100
AcDbArc
 50
0.0
 51
81.05049899999867
  0
ARC
  5
67D
330
17
100
AcDbEntity
  8
4
100
AcDbCircle
 10
1660.330232650355
 20
175.5590707331244
 30
0.0
 40
5.000082
100
AcDbArc
 50
189.4227630000002
 51
260.5772250000001
  0
ARC
  5
67E
330
17
100
AcDbEntity
  8
4
100
AcDbCircle
 10
1725.000152650356
 20
565.2292327331245
 30
0.0
 40
399.999954
100
AcDbArc
 50
260.5774619999999
 51
261.0514149999999
  0
LINE
  5
67F
330
17
100
AcDbEntity
  8
4
100
AcDbLine
 10
1667.000396650355
 20
165.1591687331244
 30
0.0
 11
1667.000396650355
 21
160.2289927331244
 31
0.0
  0
LINE
  5
680
330
17
100
AcDbEntity
  8
4
100
AcDbLine
 10
1666.664456650356
 20
181.8925627331245
 30
0.0
 11
1664.076080650355
 21
191.5517467331244
 31
0.0
  0
ARC
  5
681
330
17
100
AcDbEntity
  8
4
100
AcDbCircle
 10
1662.910796650355
 20
178.1396347331245
 30
0.0
 40
4.999896
100
AcDbArc
 50
189.0433169999993
 51
260.9566940000037
  0
LINE
  5
682
330
17
100
AcDbEntity
  8
L-CENTER
100
AcDbLine
 10
1622.431538650355
 20
266.2289887331244
 30
0.0
 11
1647.695072650356
 21
266.2289887331244
 31
0.0
  0
LINE
  5
683
330
17
100
AcDbEntity
  8
4
100
AcDbLine
 10
1633.544828650355
 20
248.2289887331244
 30
0.0
 11
1626.544832650356
 21
248.2289887331244
 31
0.0
  0
LINE
  5
684
330
17
100
AcDbEntity
  8
4
100
AcDbLine
 10
1633.544828650355
 20
249.2289907331244
 30
0.0
 11
1635.044828650355
 21
249.2289907331244
 31
0.0
  0
LINE
  5
685
330
17
100
AcDbEntity
  8
4
100
AcDbLine
 10
1631.544830650355
 20
275.2289887331244
 30
0.0
 11
1626.544832650356
 21
275.2289887331244
 31
0.0
  0
LINE
  5
686
330
17
100
AcDbEntity
  8
4
100
AcDbLine
 10
1631.544830650355
 20
257.2289887331244
 30
0.0
 11
1626.544832650356
 21
257.2289887331244
 31
0.0
  0
LINE
  5
687
330
17
100
AcDbEntity
  8
4
100
AcDbLine
 10
1635.044828650355
 20
246.2289907331244
 30
0.0
 11
1639.565582650355
 21
246.2289907331244
 31
0.0
  0
LINE
  5
688
330
17
100
AcDbEntity
  8
4
100
AcDbLine
 10
1605.000398650355
 20
345.0185407331244
 30
0.0
 11
1605.000398650355
 21
360.0185407331244
 31
0.0
  0
LINE
  5
689
330
17
100
AcDbEntity
  8
4
100
AcDbLine
 10
1612.500398650355
 20
342.5185447331244
 30
0.0
 11
1612.500398650355
 21
362.5185427331244
 31
0.0
  0
ARC
  5
68A
330
17
100
AcDbEntity
  8
4
100
AcDbCircle
 10
1608.820220650355
 20
345.0185407331244
 30
0.0
 40
3.819708
100
AcDbArc
 50
139.1182679999968
 51
220.8817320000032
  0
LINE
  5
68B
330
17
100
AcDbEntity
  8
4
100
AcDbLine
 10
1615.000394650355
 20
342.5185447331244
 30
0.0
 11
1615.000394650355
 21
362.5185427331244
 31
0.0
  0
LINE
  5
68C
330
17
100
AcDbEntity
  8
4
100
AcDbLine
 10
1615.000394650355
 20
308.2289887331244
 30
0.0
 11
1630.000394650355
 21
308.2289887331244
 31
0.0
  0
LINE
  5
68D
330
17
100
AcDbEntity
  8
4
100
AcDbLine
 10
1605.858308650355
 20
342.5185447331244
 30
0.0
 11
1615.000394650355
 21
342.5185447331244
 31
0.0
  0
ARC
  5
68E
330
17
100
AcDbEntity
  8
4
100
AcDbCircle
 10
1662.000398650355
 20
315.2988127331245
 30
0.0
 40
5.00004
100
AcDbArc
 50
278.9495010000014
 51
0.0
  0
LINE
  5
68F
330
17
100
AcDbEntity
  8
4
100
AcDbLine
 10
1635.044828650355
 20
283.2289927331244
 30
0.0
 11
1633.544828650355
 21
283.2289927331244
 31
0.0
  0
LINE
  5
690
330
17
100
AcDbEntity
  8
4
100
AcDbLine
 10
1633.544828650355
 20
284.2289887331244
 30
0.0
 11
1626.544832650356
 21
284.2289887331244
 31
0.0
  0
LINE
  5
691
330
17
100
AcDbEntity
  8
4
100
AcDbLine
 10
1635.044828650355
 20
286.2289927331244
 30
0.0
 11
1638.582914650356
 21
286.2289927331244
 31
0.0
  0
LINE
  5
692
330
17
100
AcDbEntity
  8
4
100
AcDbLine
 10
1638.142730650356
 20
308.2289887331244
 30
0.0
 11
1630.000394650355
 21
308.2289887331244
 31
0.0
  0
LINE
  5
693
330
17
100
AcDbEntity
  8
4
100
AcDbLine
 10
1664.076080650355
 20
288.9062347331244
 30
0.0
 11
1666.664216650355
 21
298.5654187331244
 31
0.0
  0
ARC
  5
694
330
17
100
AcDbEntity
  8
4
100
AcDbCircle
 10
1725.000152650356
 20
-84.77125126687554
 30
0.0
 40
400.0000319999999
100
AcDbArc
 50
98.94922300000002
 51
99.42313600000003
  0
ARC
  5
695
330
17
100
AcDbEntity
  8
4
100
AcDbCircle
 10
1660.330232650355
 20
304.8989107331245
 30
0.0
 40
5.000082
100
AcDbArc
 50
99.42277499999994
 51
170.5772250000002
  0
ARC
  5
696
330
17
100
AcDbEntity
  8
4
100
AcDbCircle
 10
1662.910796650355
 20
302.3183467331244
 30
0.0
 40
4.999896
100
AcDbArc
 50
99.04330599999625
 51
170.9566939999997
  0
LINE
  5
697
330
17
100
AcDbEntity
  8
4
100
AcDbLine
 10
1615.000394650355
 20
350.2289887331244
 30
0.0
 11
1630.000394650355
 21
350.2289887331244
 31
0.0
  0
LINE
  5
698
330
17
100
AcDbEntity
  8
4
100
AcDbLine
 10
1605.000398650355
 20
379.6960327331244
 30
0.0
 11
1605.000398650355
 21
394.6960327331244
 31
0.0
  0
LINE
  5
699
330
17
100
AcDbEntity
  8
4
100
AcDbLine
 10
1612.500398650355
 20
377.1960307331244
 30
0.0
 11
1612.500398650355
 21
397.1960347331244
 31
0.0
  0
LINE
  5
69A
330
17
100
AcDbEntity
  8
4
100
AcDbLine
 10
1615.000394650355
 20
377.1960307331244
 30
0.0
 11
1615.000394650355
 21
397.1960347331244
 31
0.0
  0
ARC
  5
69B
330
17
100
AcDbEntity
  8
4
100
AcDbCircle
 10
1608.820220650355
 20
379.6960327331244
 30
0.0
 40
3.819708
100
AcDbArc
 50
139.118267999998
 51
220.881732000002
  0
LINE
  5
69C
330
17
100
AcDbEntity
  8
4
100
AcDbLine
 10
1605.858308650355
 20
362.5185427331244
 30
0.0
 11
1615.000394650355
 21
362.5185427331244
 31
0.0
  0
LINE
  5
69D
330
17
100
AcDbEntity
  8
4
100
AcDbLine
 10
1615.000394650355
 20
350.0182987331244
 30
0.0
 11
1612.500398650355
 21
352.5183007331244
 31
0.0
  0
LINE
  5
69E
330
17
100
AcDbEntity
  8
4
100
AcDbLine
 10
1615.000394650355
 20
352.5185407331244
 30
0.0
 11
1612.500398650355
 21
355.0185427331244
 31
0.0
  0
LINE
  5
69F
330
17
100
AcDbEntity
  8
4
100
AcDbLine
 10
1605.858308650355
 20
377.1960307331244
 30
0.0
 11
1615.000394650355
 21
377.1960307331244
 31
0.0
  0
ARC
  5
6A0
330
17
100
AcDbEntity
  8
4
100
AcDbCircle
 10
1620.000398650355
 20
352.5185407331244
 30
0.0
 40
14.999958
100
AcDbArc
 50
160.5287209999997
 51
199.4712789999999
  0
LINE
  5
6A1
330
17
100
AcDbEntity
  8
4
100
AcDbLine
 10
1612.500398650355
 20
347.5185427331244
 30
0.0
 11
1605.858308650355
 21
347.5185427331244
 31
0.0
  0
ARC
  5
6A2
330
17
100
AcDbEntity
  8
4
100
AcDbCircle
 10
1608.820220650355
 20
360.0185407331244
 30
0.0
 40
3.819708
100
AcDbArc
 50
139.1182679999968
 51
220.8817320000032
  0
LINE
  5
6A3
330
17
100
AcDbEntity
  8
4
100
AcDbLine
 10
1612.500398650355
 20
357.5185447331244
 30
0.0
 11
1605.858308650355
 21
357.5185447331244
 31
0.0
  0
ARC
  5
6A4
330
17
100
AcDbEntity
  8
4
100
AcDbCircle
 10
1620.000398650355
 20
387.1960327331244
 30
0.0
 40
14.999958
100
AcDbArc
 50
160.5287209999997
 51
199.4712790000003
  0
LINE
  5
6A5
330
17
100
AcDbEntity
  8
4
100
AcDbLine
 10
1612.500398650355
 20
382.1960347331244
 30
0.0
 11
1605.858308650355
 21
382.1960347331244
 31
0.0
  0
LINE
  5
6A6
330
17
100
AcDbEntity
  8
4
100
AcDbLine
 10
1605.858308650355
 20
397.1960347331244
 30
0.0
 11
1615.000394650355
 21
397.1960347331244
 31
0.0
  0
LINE
  5
6A7
330
17
100
AcDbEntity
  8
4
100
AcDbLine
 10
1615.000394650355
 20
384.6957907331243
 30
0.0
 11
1612.500398650355
 21
387.1957867331244
 31
0.0
  0
LINE
  5
6A8
330
17
100
AcDbEntity
  8
4
100
AcDbLine
 10
1615.000394650355
 20
387.1960327331244
 30
0.0
 11
1612.500398650355
 21
389.6960347331244
 31
0.0
  0
ARC
  5
6A9
330
17
100
AcDbEntity
  8
4
100
AcDbCircle
 10
1608.820220650355
 20
394.6960327331244
 30
0.0
 40
3.819708
100
AcDbArc
 50
139.118267999998
 51
220.881732000002
  0
LINE
  5
6AA
330
17
100
AcDbEntity
  8
4
100
AcDbLine
 10
1612.500398650355
 20
392.1960307331244
 30
0.0
 11
1605.858308650355
 21
392.1960307331244
 31
0.0
  0
LINE
  5
6AB
330
17
100
AcDbEntity
  8
4
100
AcDbLine
 10
1637.500394650355
 20
350.2289887331244
 30
0.0
 11
1630.000394650355
 21
350.2289887331244
 31
0.0
  0
ARC
  5
6B1
330
17
100
AcDbEntity
  8
4
100
AcDbCircle
 10
1608.820220650355
 20
485.7619507331244
 30
0.0
 40
3.819708
100
AcDbArc
 50
139.118267999998
 51
220.881732000002
  0
LINE
  5
6B2
330
17
100
AcDbEntity
  8
4
100
AcDbLine
 10
1605.000398650355
 20
485.7619507331244
 30
0.0
 11
1605.000398650355
 21
500.7619507331244
 31
0.0
  0
LINE
  5
6B3
330
17
100
AcDbEntity
  8
4
100
AcDbLine
 10
1612.500398650355
 20
483.2619487331244
 30
0.0
 11
1612.500398650355
 21
503.2619467331244
 31
0.0
  0
LINE
  5
6B4
330
17
100
AcDbEntity
  8
4
100
AcDbLine
 10
1615.000394650355
 20
483.2619487331244
 30
0.0
 11
1615.000394650355
 21
503.2619467331244
 31
0.0
  0
LINE
  5
6B5
330
17
100
AcDbEntity
  8
4
100
AcDbLine
 10
1605.858308650355
 20
483.2619487331244
 30
0.0
 11
1615.000394650355
 21
483.2619487331244
 31
0.0
  0
LINE
  5
6B6
330
17
100
AcDbEntity
  8
4
100
AcDbLine
 10
1615.000394650355
 20
538.2289927331244
 30
0.0
 11
1630.000394650355
 21
538.2289927331244
 31
0.0
  0
LINE
  5
6B7
330
17
100
AcDbEntity
  8
4
100
AcDbLine
 10
1615.000394650355
 20
530.2289887331244
 30
0.0
 11
1630.000394650355
 21
530.2289887331244
 31
0.0
  0
LINE
  5
6B8
330
17
100
AcDbEntity
  8
4
100
AcDbLine
 10
1605.858308650355
 20
503.2619467331244
 30
0.0
 11
1615.000394650355
 21
503.2619467331244
 31
0.0
  0
LINE
  5
6B9
330
17
100
AcDbEntity
  8
4
100
AcDbLine
 10
1615.000394650355
 20
490.7617027331244
 30
0.0
 11
1612.500398650355
 21
493.2617047331244
 31
0.0
  0
LINE
  5
6BA
330
17
100
AcDbEntity
  8
4
100
AcDbLine
 10
1615.000394650355
 20
493.2619507331244
 30
0.0
 11
1612.500398650355
 21
495.7619467331244
 31
0.0
  0
ARC
  5
6BB
330
17
100
AcDbEntity
  8
4
100
AcDbCircle
 10
1620.000398650355
 20
493.2619507331244
 30
0.0
 40
14.999958
100
AcDbArc
 50
160.5287209999997
 51
199.4712790000003
  0
ARC
  5
6BC
330
17
100
AcDbEntity
  8
4
100
AcDbCircle
 10
1608.820220650355
 20
500.7619507331244
 30
0.0
 40
3.819708
100
AcDbArc
 50
139.118267999998
 51
220.881732000002
  0
LINE
  5
6BD
330
17
100
AcDbEntity
  8
4
100
AcDbLine
 10
1612.500398650355
 20
498.2619487331244
 30
0.0
 11
1605.858308650355
 21
498.2619487331244
 31
0.0
  0
LINE
  5
6BE
330
17
100
AcDbEntity
  8
4
100
AcDbLine
 10
1612.500398650355
 20
488.2619467331244
 30
0.0
 11
1605.858308650355
 21
488.2619467331244
 31
0.0
  0
LINE
  5
6BF
330
17
100
AcDbEntity
  8
4
100
AcDbLine
 10
1630.000394650355
 20
538.2289927331244
 30
0.0
 11
1637.804594650355
 21
538.2289927331244
 31
0.0
  0
LINE
  5
6C0
330
17
100
AcDbEntity
  8
4
100
AcDbLine
 10
1637.685698650355
 20
530.2289887331244
 30
0.0
 11
1630.000394650355
 21
530.2289887331244
 31
0.0
  0
ARC
  5
6C1
330
17
100
AcDbEntity
  8
4
100
AcDbCircle
 10
-4892.994447349645
 20
433.2289927331244
 30
0.0
 40
6800.000058
100
AcDbArc
 50
359.1338589999999
 51
0.8662479999998799
  0
LINE
  5
6C2
330
17
100
AcDbEntity
  8
4
100
AcDbLine
 10
1929.000398650355
 20
538.2289927331244
 30
0.0
 11
1929.000398650355
 21
308.2289887331244
 31
0.0
  0
LINE
  5
6C3
330
17
100
AcDbEntity
  8
4
100
AcDbLine
 10
1914.000398650355
 20
330.4231267331244
 30
0.0
 11
1914.000398650355
 21
536.0332327331246
 31
0.0
  0
LINE
  5
6C7
330
17
100
AcDbEntity
  8
4
100
AcDbLine
 10
1927.000394650356
 20
140.2289947331244
 30
0.0
 11
1877.000396650355
 21
240.2289907331244
 31
0.0
  0
ARC
  5
6C8
330
17
100
AcDbEntity
  8
4
100
AcDbCircle
 10
1897.000394650355
 20
160.2289927331244
 30
0.0
 40
19.999998
100
AcDbArc
 50
180.0006989997668
 51
270.0006990000008
  0
LINE
  5
6C9
330
17
100
AcDbEntity
  8
L-CENTER
100
AcDbLine
 10
1875.080749583286
 20
318.4257667331244
 30
0.0
 11
1921.080751583286
 21
318.4221067331245
 31
0.0
  0
LINE
  5
6CA
330
17
100
AcDbEntity
  8
L-CENTER
100
AcDbLine
 10
1725.000398650355
 20
324.2376007331244
 30
0.0
 11
1725.000398650355
 21
156.2203807331244
 31
0.0
  0
ARC
  5
6CC
330
17
100
AcDbEntity
  8
4
100
AcDbCircle
 10
1397.000396650355
 20
240.2289907331244
 30
0.0
 40
399.9999300000001
100
AcDbArc
 50
350.957092
 51
9.043759000000014
  0
LINE
  5
6CD
330
17
100
AcDbEntity
  8
L-CENTER
100
AcDbLine
 10
1761.754999851
 20
203.4743912116885
 30
0.0
 11
1790.776275276563
 21
174.453107194169
 31
0.0
  0
CIRCLE
  5
6CE
330
17
100
AcDbEntity
  8
4
100
AcDbCircle
 10
1776.265532650355
 20
188.9638567331244
 30
0.0
 40
8.660154
  0
LINE
  5
6CF
330
17
100
AcDbEntity
  8
4
100
AcDbLine
 10
1769.194490650355
 20
196.0351447331244
 30
0.0
 11
1778.853908650356
 21
198.6230347331244
 31
0.0
  0
LINE
  5
6D0
330
17
100
AcDbEntity
  8
4
100
AcDbLine
 10
1783.336334650356
 20
181.8925627331245
 30
0.0
 11
1773.677156650355
 21
179.3046727331244
 31
0.0
  0
LINE
  5
6D1
330
17
100
AcDbEntity
  8
4
100
AcDbLine
 10
1680.806306650356
 20
196.0351447331244
 30
0.0
 11
1683.394442650355
 21
186.3759667331244
 31
0.0
  0
LINE
  5
6D2
330
17
100
AcDbEntity
  8
4
100
AcDbLine
 10
1683.394442650355
 20
186.3759667331244
 30
0.0
 11
1676.323640650355
 21
179.3046727331244
 31
0.0
  0
LINE
  5
6D3
330
17
100
AcDbEntity
  8
4
100
AcDbLine
 10
1671.146882650356
 20
198.6230347331244
 30
0.0
 11
1680.806306650356
 21
196.0351447331244
 31
0.0
  0
LINE
  5
6D4
330
17
100
AcDbEntity
  8
4
100
AcDbLine
 10
1773.677156650355
 20
179.3046727331244
 30
0.0
 11
1766.606354650356
 21
186.3759667331244
 31
0.0
  0
LINE
  5
6D5
330
17
100
AcDbEntity
  8
4
100
AcDbLine
 10
1766.606354650356
 20
186.3759667331244
 30
0.0
 11
1769.194490650355
 21
196.0351447331244
 31
0.0
  0
ARC
  5
6DB
330
17
100
AcDbEntity
  8
4
100
AcDbCircle
 10
1787.089994650355
 20
178.1396347331245
 30
0.0
 40
4.999896
100
AcDbArc
 50
279.0433169999993
 51
350.956685
  0
LINE
  5
6DC
330
17
100
AcDbEntity
  8
4
100
AcDbLine
 10
1778.853908650356
 20
198.6230347331244
 30
0.0
 11
1785.924710650355
 21
191.5517467331244
 31
0.0
  0
LINE
  5
6DD
330
17
100
AcDbEntity
  8
4
100
AcDbLine
 10
1785.924710650355
 20
191.5517467331244
 30
0.0
 11
1783.336334650356
 21
181.8925627331245
 31
0.0
  0
LINE
  5
6DE
330
17
100
AcDbEntity
  8
L-CENTER
100
AcDbLine
 10
1761.754996011396
 20
276.9835940941646
 30
0.0
 11
1790.776275732937
 21
306.0048738157061
 31
0.0
  0
CIRCLE
  5
6DF
330
17
100
AcDbEntity
  8
4
100
AcDbCircle
 10
1776.265532650355
 20
291.4941307331244
 30
0.0
 40
8.660154
  0
LINE
  5
6E0
330
17
100
AcDbEntity
  8
4
100
AcDbLine
 10
1778.853908650356
 20
281.8349467331244
 30
0.0
 11
1769.194730650355
 21
284.4228367331244
 31
0.0
  0
LINE
  5
6E1
330
17
100
AcDbEntity
  8
4
100
AcDbLine
 10
1773.677156650355
 20
301.1533087331244
 30
0.0
 11
1783.336574650355
 21
298.5654187331244
 31
0.0
  0
LINE
  5
6E2
330
17
100
AcDbEntity
  8
4
100
AcDbLine
 10
1676.323640650355
 20
301.1533087331244
 30
0.0
 11
1683.394442650355
 21
294.0820207331244
 31
0.0
  0
LINE
  5
6E3
330
17
100
AcDbEntity
  8
4
100
AcDbLine
 10
1683.394442650355
 20
294.0820207331244
 30
0.0
 11
1680.806060650355
 21
284.4228367331244
 31
0.0
  0
LINE
  5
6E4
330
17
100
AcDbEntity
  8
4
100
AcDbLine
 10
1680.806060650355
 20
284.4228367331244
 30
0.0
 11
1671.146882650356
 21
281.8349467331244
 31
0.0
  0
LINE
  5
6E5
330
17
100
AcDbEntity
  8
4
100
AcDbLine
 10
1769.194730650355
 20
284.4228367331244
 30
0.0
 11
1766.606354650356
 21
294.0820207331244
 31
0.0
  0
LINE
  5
6E6
330
17
100
AcDbEntity
  8
4
100
AcDbLine
 10
1766.606354650356
 20
294.0820207331244
 30
0.0
 11
1773.677156650355
 21
301.1533087331244
 31
0.0
  0
LINE
  5
6E7
330
17
100
AcDbEntity
  8
4
100
AcDbLine
 10
1783.336574650355
 20
298.5654187331244
 30
0.0
 11
1785.924710650355
 21
288.9062347331244
 31
0.0
  0
LINE
  5
6E8
330
17
100
AcDbEntity
  8
4
100
AcDbLine
 10
1785.924710650355
 20
288.9062347331244
 30
0.0
 11
1778.853908650356
 21
281.8349467331244
 31
0.0
  0
ARC
  5
6E9
330
17
100
AcDbEntity
  8
4
100
AcDbCircle
 10
1787.089994650355
 20
302.3183467331244
 30
0.0
 40
4.999896
100
AcDbArc
 50
9.043304000000497
 51
80.95668300000064
  0
ARC
  5
6EA
330
17
100
AcDbEntity
  8
4
100
AcDbCircle
 10
-4892.994447349645
 20
433.2289927331244
 30
0.0
 40
6799.999986000001
100
AcDbArc
 50
358.608554
 51
358.9316859999999
  0
ARC
  5
6EC
330
17
100
AcDbEntity
  8
4
100
AcDbCircle
 10
1964.000396650355
 20
137.2289947331244
 30
0.0
 40
3.0
100
AcDbArc
 50
0.0
 51
90.0
  0
LINE
  5
6EF
330
17
100
AcDbEntity
  8
4
100
AcDbLine
 10
1939.001126650355
 20
360.0175627331245
 30
0.0
 11
1938.999908650355
 21
345.0175627331245
 31
0.0
  0
LINE
  5
6F0
330
17
100
AcDbEntity
  8
4
100
AcDbLine
 10
1931.501372650356
 20
362.5182967331244
 30
0.0
 11
1931.499662650355
 21
342.5182987331244
 31
0.0
  0
LINE
  5
6F1
330
17
100
AcDbEntity
  8
4
100
AcDbLine
 10
1929.001370650356
 20
362.5185427331244
 30
0.0
 11
1928.999660650356
 21
342.5185447331244
 31
0.0
  0
ARC
  5
6F2
330
17
100
AcDbEntity
  8
4
100
AcDbCircle
 10
1935.180080650355
 20
345.0180547331245
 30
0.0
 40
3.819713999999999
100
AcDbArc
 50
319.113114999999
 51
40.87656000000192
  0
LINE
  5
6F3
330
17
100
AcDbEntity
  8
4
100
AcDbLine
 10
1938.141752650356
 20
342.5178127331244
 30
0.0
 11
1928.999660650356
 21
342.5185447331244
 31
0.0
  0
LINE
  5
6F4
330
17
100
AcDbEntity
  8
4
100
AcDbLine
 10
1916.501372650356
 20
327.4230847331244
 30
0.0
 11
1916.499662650355
 21
309.4230847331244
 31
0.0
  0
LINE
  5
6F5
330
17
100
AcDbEntity
  8
4
100
AcDbLine
 10
1907.501618650355
 20
330.4238167331245
 30
0.0
 11
1907.499416650356
 21
306.4238167331245
 31
0.0
  0
LINE
  5
6F6
330
17
100
AcDbEntity
  8
4
100
AcDbLine
 10
1905.001616650355
 20
330.4240627331244
 30
0.0
 11
1904.999420650355
 21
306.4240627331244
 31
0.0
  0
ARC
  5
6F7
330
17
100
AcDbEntity
  8
4
100
AcDbCircle
 10
1911.915920650355
 20
309.4233247331244
 30
0.0
 40
4.583598
100
AcDbArc
 50
319.1123719999987
 51
40.87702700000163
  0
LINE
  5
6F8
330
17
100
AcDbEntity
  8
4
100
AcDbLine
 10
1915.469876650355
 20
306.4230847331244
 30
0.0
 11
1904.999420650355
 21
306.4240627331244
 31
0.0
  0
LINE
  5
6F9
330
17
100
AcDbEntity
  8
4
100
AcDbLine
 10
1929.000398650355
 20
308.2289887331244
 30
0.0
 11
1916.341184650355
 21
308.2289887331244
 31
0.0
  0
LINE
  5
6FA
330
17
100
AcDbEntity
  8
4
100
AcDbLine
 10
1915.472072650356
 20
330.4230847331244
 30
0.0
 11
1905.001616650355
 21
330.4240627331244
 31
0.0
  0
LINE
  5
6FB
330
17
100
AcDbEntity
  8
4
100
AcDbLine
 10
1907.500394650356
 20
318.4238167331245
 30
0.0
 11
1905.000638650356
 21
320.9240587331244
 31
0.0
  0
LINE
  5
6FC
330
17
100
AcDbEntity
  8
4
100
AcDbLine
 10
1907.500394650356
 20
315.9238147331245
 30
0.0
 11
1905.000398650355
 21
318.4240627331244
 31
0.0
  0
ARC
  5
6FD
330
17
100
AcDbEntity
  8
4
100
AcDbCircle
 10
1898.500394650355
 20
318.4245487331244
 30
0.0
 40
18.000018
100
AcDbArc
 50
340.5237549999999
 51
19.46615800000007
  0
LINE
  5
6FE
330
17
100
AcDbEntity
  8
4
100
AcDbLine
 10
1907.499908650355
 20
312.4238167331245
 30
0.0
 11
1907.501126650355
 21
324.4238167331245
 31
0.0
  0
LINE
  5
6FF
330
17
100
AcDbEntity
  8
4
100
AcDbLine
 10
1907.499908650355
 20
312.4238167331245
 30
0.0
 11
1915.470368650355
 21
312.4230847331244
 31
0.0
  0
LINE
  5
700
330
17
100
AcDbEntity
  8
4
100
AcDbLine
 10
1907.501126650355
 20
324.4238167331245
 30
0.0
 11
1915.471586650356
 21
324.4230847331244
 31
0.0
  0
ARC
  5
701
330
17
100
AcDbEntity
  8
4
100
AcDbCircle
 10
1911.917630650355
 20
327.4233247331244
 30
0.0
 40
4.583598
100
AcDbArc
 50
319.1123719999987
 51
40.87702700000163
  0
LINE
  5
702
330
17
100
AcDbEntity
  8
4
100
AcDbLine
 10
1931.500154650355
 20
347.5182967331244
 30
0.0
 11
1938.142244650356
 21
347.5178107331244
 31
0.0
  0
LINE
  5
703
330
17
100
AcDbEntity
  8
4
100
AcDbLine
 10
1931.500886650355
 20
357.5182987331244
 30
0.0
 11
1938.142976650356
 21
357.5178127331244
 31
0.0
  0
LINE
  5
704
330
17
100
AcDbEntity
  8
4
100
AcDbLine
 10
1938.143462650356
 20
362.5178107331244
 30
0.0
 11
1929.001370650356
 21
362.5185427331244
 31
0.0
  0
LINE
  5
705
330
17
100
AcDbEntity
  8
4
100
AcDbLine
 10
1931.500154650355
 20
382.1957887331243
 30
0.0
 11
1938.142244650356
 21
382.1953027331244
 31
0.0
  0
LINE
  5
706
330
17
100
AcDbEntity
  8
4
100
AcDbLine
 10
1938.141752650356
 20
377.1952987331244
 30
0.0
 11
1928.999660650356
 21
377.1960307331244
 31
0.0
  0
LINE
  5
708
330
17
100
AcDbEntity
  8
4
100
AcDbLine
 10
1931.500886650355
 20
392.1957907331243
 30
0.0
 11
1938.142976650356
 21
392.1952987331244
 31
0.0
  0
LINE
  5
709
330
17
100
AcDbEntity
  8
4
100
AcDbLine
 10
1938.143462650356
 20
397.1953027331244
 30
0.0
 11
1929.001370650356
 21
397.1960347331244
 31
0.0
  0
LINE
  5
70A
330
17
100
AcDbEntity
  8
4
100
AcDbLine
 10
1931.501372650356
 20
397.1957887331243
 30
0.0
 11
1931.499662650355
 21
377.1957907331243
 31
0.0
  0
LINE
  5
70B
330
17
100
AcDbEntity
  8
4
100
AcDbLine
 10
1929.001370650356
 20
397.1960347331244
 30
0.0
 11
1928.999660650356
 21
377.1960307331244
 31
0.0
  0
LINE
  5
70C
330
17
100
AcDbEntity
  8
4
100
AcDbLine
 10
1906.500398650355
 20
350.2289887331244
 30
0.0
 11
1914.000398650355
 21
350.2289887331244
 31
0.0
  0
LINE
  5
70E
330
17
100
AcDbEntity
  8
4
100
AcDbLine
 10
1929.000638650356
 20
355.0187887331244
 30
0.0
 11
1931.500394650356
 21
352.5185407331244
 31
0.0
  0
LINE
  5
70F
330
17
100
AcDbEntity
  8
4
100
AcDbLine
 10
1929.000398650355
 20
352.5185407331244
 30
0.0
 11
1931.500394650356
 21
350.0182987331244
 31
0.0
  0
LINE
  5
710
330
17
100
AcDbEntity
  8
4
100
AcDbLine
 10
1929.000398650355
 20
350.2289887331244
 30
0.0
 11
1914.000398650355
 21
350.2289887331244
 31
0.0
  0
LINE
  5
711
330
17
100
AcDbEntity
  8
4
100
AcDbLine
 10
1929.000638650356
 20
389.6962747331245
 30
0.0
 11
1931.500394650356
 21
387.1960327331244
 31
0.0
  0
LINE
  5
712
330
17
100
AcDbEntity
  8
4
100
AcDbLine
 10
1929.000398650355
 20
387.1960327331244
 30
0.0
 11
1931.500394650356
 21
384.6957907331243
 31
0.0
  0
LINE
  5
713
330
17
100
AcDbEntity
  8
4
100
AcDbLine
 10
1939.001126650355
 20
394.6950547331244
 30
0.0
 11
1938.999908650355
 21
379.6950547331244
 31
0.0
  0
ARC
  5
714
330
17
100
AcDbEntity
  8
4
100
AcDbCircle
 10
1935.180080650355
 20
379.6955467331245
 30
0.0
 40
3.819713999999999
100
AcDbArc
 50
319.1131149999977
 51
40.87656000000063
  0
ARC
  5
715
330
17
100
AcDbEntity
  8
4
100
AcDbCircle
 10
1924.000394650356
 20
352.5190327331244
 30
0.0
 40
14.999958
100
AcDbArc
 50
340.5237049999994
 51
19.4662640000002
  0
ARC
  5
716
330
17
100
AcDbEntity
  8
4
100
AcDbCircle
 10
1935.181304650355
 20
360.0180547331245
 30
0.0
 40
3.819713999999999
100
AcDbArc
 50
319.113104999997
 51
40.87656000000192
  0
ARC
  5
717
330
17
100
AcDbEntity
  8
4
100
AcDbCircle
 10
1924.000394650356
 20
387.1965187331245
 30
0.0
 40
14.999958
100
AcDbArc
 50
340.5237009999997
 51
19.4662599999999
  0
ARC
  5
718
330
17
100
AcDbEntity
  8
4
100
AcDbCircle
 10
1935.181304650355
 20
394.6955467331245
 30
0.0
 40
3.819713999999999
100
AcDbArc
 50
319.1131049999957
 51
40.87656000000063
  0
LINE
  5
719
330
17
100
AcDbEntity
  8
L-CENTER
100
AcDbLine
 10
1875.080749583286
 20
548.0358727331243
 30
0.0
 11
1921.080751583286
 21
548.0322127331244
 31
0.0
  0
LINE
  5
71E
330
17
100
AcDbEntity
  8
4
100
AcDbLine
 10
1907.501618650355
 20
560.0339227331244
 30
0.0
 11
1907.499416650356
 21
536.0339227331244
 31
0.0
  0
LINE
  5
71F
330
17
100
AcDbEntity
  8
4
100
AcDbLine
 10
1905.001616650355
 20
560.0341687331245
 30
0.0
 11
1904.999420650355
 21
536.0341687331245
 31
0.0
  0
ARC
  5
720
330
17
100
AcDbEntity
  8
4
100
AcDbCircle
 10
1911.917630650355
 20
557.0334367331245
 30
0.0
 40
4.583598
100
AcDbArc
 50
319.1123619999972
 51
40.87701799999994
  0
LINE
  5
721
330
17
100
AcDbEntity
  8
4
100
AcDbLine
 10
1916.501372650356
 20
557.0331907331245
 30
0.0
 11
1916.499662650355
 21
539.0329987331245
 31
0.0
  0
ARC
  5
723
330
17
100
AcDbEntity
  8
4
100
AcDbCircle
 10
1935.180080650355
 20
485.7614587331245
 30
0.0
 40
3.819713999999999
100
AcDbArc
 50
319.1131150000003
 51
40.87656000000063
  0
LINE
  5
724
330
17
100
AcDbEntity
  8
4
100
AcDbLine
 10
1939.001126650355
 20
500.7609727331244
 30
0.0
 11
1938.999908650355
 21
485.7609727331244
 31
0.0
  0
LINE
  5
725
330
17
100
AcDbEntity
  8
4
100
AcDbLine
 10
1931.501372650356
 20
503.2617067331244
 30
0.0
 11
1931.499662650355
 21
483.2617027331244
 31
0.0
  0
LINE
  5
726
330
17
100
AcDbEntity
  8
4
100
AcDbLine
 10
1929.001370650356
 20
503.2619467331244
 30
0.0
 11
1928.999660650356
 21
483.2619487331244
 31
0.0
  0
LINE
  5
727
330
17
100
AcDbEntity
  8
4
100
AcDbLine
 10
1938.141752650356
 20
483.2612167331245
 30
0.0
 11
1928.999660650356
 21
483.2619487331244
 31
0.0
  0
LINE
  5
72A
330
17
100
AcDbEntity
  8
4
100
AcDbLine
 10
1931.500154650355
 20
488.2617067331244
 30
0.0
 11
1938.142244650356
 21
488.2612147331245
 31
0.0
  0
LINE
  5
72B
330
17
100
AcDbEntity
  8
4
100
AcDbLine
 10
1931.500886650355
 20
498.2617027331244
 30
0.0
 11
1938.142976650356
 21
498.2612167331245
 31
0.0
  0
LINE
  5
72C
330
17
100
AcDbEntity
  8
4
100
AcDbLine
 10
1938.143462650356
 20
503.2612147331245
 30
0.0
 11
1929.001370650356
 21
503.2619467331244
 31
0.0
  0
LINE
  5
72D
330
17
100
AcDbEntity
  8
4
100
AcDbLine
 10
1929.000638650356
 20
495.7621927331245
 30
0.0
 11
1931.500394650356
 21
493.2619507331244
 31
0.0
  0
LINE
  5
72E
330
17
100
AcDbEntity
  8
4
100
AcDbLine
 10
1929.000398650355
 20
493.2619507331244
 30
0.0
 11
1931.500394650356
 21
490.7617027331244
 31
0.0
  0
LINE
  5
72F
330
17
100
AcDbEntity
  8
4
100
AcDbLine
 10
1915.381172650355
 20
536.0331967331244
 30
0.0
 11
1904.999420650355
 21
536.0341687331245
 31
0.0
  0
LINE
  5
730
330
17
100
AcDbEntity
  8
4
100
AcDbLine
 10
1906.315094650356
 20
530.2289887331244
 30
0.0
 11
1914.000398650355
 21
530.2289887331244
 31
0.0
  0
LINE
  5
731
330
17
100
AcDbEntity
  8
4
100
AcDbLine
 10
1907.500394650356
 20
548.0339227331244
 30
0.0
 11
1905.000638650356
 21
550.5341647331245
 31
0.0
  0
LINE
  5
732
330
17
100
AcDbEntity
  8
4
100
AcDbLine
 10
1907.500394650356
 20
545.5339207331244
 30
0.0
 11
1905.000398650355
 21
548.0341687331245
 31
0.0
  0
LINE
  5
733
330
17
100
AcDbEntity
  8
4
100
AcDbLine
 10
1907.499908650355
 20
542.0339227331244
 30
0.0
 11
1915.470368650355
 21
542.0331907331245
 31
0.0
  0
LINE
  5
734
330
17
100
AcDbEntity
  8
4
100
AcDbLine
 10
1907.501126650355
 20
554.0339227331244
 30
0.0
 11
1915.471586650356
 21
554.0331907331245
 31
0.0
  0
LINE
  5
735
330
17
100
AcDbEntity
  8
4
100
AcDbLine
 10
1907.499908650355
 20
542.0339227331244
 30
0.0
 11
1907.501126650355
 21
554.0339227331244
 31
0.0
  0
LINE
  5
736
330
17
100
AcDbEntity
  8
4
100
AcDbLine
 10
1915.428374650355
 20
538.2289927331244
 30
0.0
 11
1920.000398650355
 21
538.2289927331244
 31
0.0
  0
ARC
  5
737
330
17
100
AcDbEntity
  8
4
100
AcDbCircle
 10
1898.500394650355
 20
548.0346547331244
 30
0.0
 40
18.000018
100
AcDbArc
 50
340.5237549999997
 51
19.46615799999971
  0
ARC
  5
738
330
17
100
AcDbEntity
  8
4
100
AcDbCircle
 10
1911.915920650355
 20
539.0334367331245
 30
0.0
 40
4.583598
100
AcDbArc
 50
319.1137590000013
 51
40.87701799999994
  0
LINE
  5
739
330
17
100
AcDbEntity
  8
4
100
AcDbLine
 10
1929.000398650355
 20
538.2289927331244
 30
0.0
 11
1916.428376650355
 21
538.2289927331244
 31
0.0
  0
LINE
  5
73A
330
17
100
AcDbEntity
  8
4
100
AcDbLine
 10
1929.000398650355
 20
530.2289887331244
 30
0.0
 11
1914.000398650355
 21
530.2289887331244
 31
0.0
  0
ARC
  5
73B
330
17
100
AcDbEntity
  8
4
100
AcDbCircle
 10
1924.000394650356
 20
493.2624367331243
 30
0.0
 40
14.999958
100
AcDbArc
 50
340.5237050000003
 51
19.46626399999953
  0
ARC
  5
73C
330
17
100
AcDbEntity
  8
4
100
AcDbCircle
 10
1935.181304650355
 20
500.7614587331245
 30
0.0
 40
3.819713999999999
100
AcDbArc
 50
319.1131049999957
 51
40.87656000000063
  0
ARC
  5
73E
330
17
100
AcDbEntity
  8
4
100
AcDbCircle
 10
-4892.994447349645
 20
433.2289927331244
 30
0.0
 40
6800.000028
100
AcDbArc
 50
1.068497000000521
 51
1.391460000000105
  0
LINE
  5
73F
330
17
100
AcDbEntity
  8
4
100
AcDbLine
 10
1915.472072650356
 20
560.0331907331245
 30
0.0
 11
1905.001616650355
 21
560.0341687331245
 31
0.0
  0
ARC
  5
741
330
17
100
AcDbEntity
  8
4
100
AcDbCircle
 10
1669.000394650355
 20
752.2289887331244
 30
0.0
 40
1.999998
100
AcDbArc
 50
90.0
 51
180.0
  0
LINE
  5
746
330
17
100
AcDbEntity
  8
4
100
AcDbLine
 10
1646.000396650355
 20
718.2289867331244
 30
0.0
 11
1642.968902650356
 21
718.2289867331244
 31
0.0
  0
LINE
  5
747
330
17
100
AcDbEntity
  8
4
100
AcDbLine
 10
1648.000394650355
 20
748.2289867331244
 30
0.0
 11
1667.000396650355
 21
748.2289867331244
 31
0.0
  0
ARC
  5
748
330
17
100
AcDbEntity
  8
4
100
AcDbCircle
 10
1648.000394650355
 20
746.2289887331244
 30
0.0
 40
1.999998
100
AcDbArc
 50
90.0
 51
180.0
  0
LINE
  5
749
330
17
100
AcDbEntity
  8
L-CENTER
100
AcDbLine
 10
1875.080749583286
 20
710.3947627331245
 30
0.0
 11
1921.080751583286
 21
710.3910967331244
 31
0.0
  0
LINE
  5
74A
330
17
100
AcDbEntity
  8
4
100
AcDbLine
 10
1903.000394650355
 20
748.2289867331244
 30
0.0
 11
1880.000396650355
 21
748.2289867331244
 31
0.0
  0
ARC
  5
74B
330
17
100
AcDbEntity
  8
4
100
AcDbCircle
 10
1772.000396650355
 20
786.2289907331244
 30
0.0
 40
29.999904
100
AcDbArc
 50
294.4275929999999
 51
245.5724069999993
  0
CIRCLE
  5
74C
330
17
100
AcDbEntity
  8
4
100
AcDbCircle
 10
1772.000396650355
 20
786.2289907331244
 30
0.0
 40
17.500002
  0
LINE
  5
74D
330
17
100
AcDbEntity
  8
L-CENTER
100
AcDbLine
 10
1814.988674650355
 20
786.2289907331244
 30
0.0
 11
1730.200838650355
 21
786.2289907331244
 31
0.0
  0
LINE
  5
74E
330
17
100
AcDbEntity
  8
4
100
AcDbLine
 10
1875.000398650355
 20
754.2289867331244
 30
0.0
 11
1669.000394650355
 21
754.2289867331244
 31
0.0
  0
LINE
  5
74F
330
17
100
AcDbEntity
  8
4
100
AcDbLine
 10
1819.000394650355
 20
756.2289907331244
 30
0.0
 11
1725.000398650355
 21
756.2289907331244
 31
0.0
  0
LINE
  5
750
330
17
100
AcDbEntity
  8
4
100
AcDbLine
 10
1794.000398650355
 20
756.2289907331244
 30
0.0
 11
1750.000394650355
 21
756.2289907331244
 31
0.0
  0
LINE
  5
751
330
17
100
AcDbEntity
  8
4
100
AcDbLine
 10
1750.000394650355
 20
756.2289907331244
 30
0.0
 11
1794.000398650355
 21
756.2289907331244
 31
0.0
  0
LINE
  5
752
330
17
100
AcDbEntity
  8
4
100
AcDbLine
 10
1794.000398650355
 20
756.2289907331244
 30
0.0
 11
1750.000394650355
 21
756.2289907331244
 31
0.0
  0
LINE
  5
753
330
17
100
AcDbEntity
  8
4
100
AcDbLine
 10
1750.000394650355
 20
756.2289907331244
 30
0.0
 11
1794.000398650355
 21
756.2289907331244
 31
0.0
  0
LINE
  5
754
330
17
100
AcDbEntity
  8
4
100
AcDbLine
 10
1784.186186650355
 20
765.2289907331244
 30
0.0
 11
1759.814606650355
 21
765.2289907331244
 31
0.0
  0
LINE
  5
755
330
17
100
AcDbEntity
  8
4
100
AcDbLine
 10
1772.000396650355
 20
768.7289887331244
 30
0.0
 11
1784.186186650355
 21
765.2289907331244
 31
0.0
  0
LINE
  5
756
330
17
100
AcDbEntity
  8
4
100
AcDbLine
 10
1759.814606650355
 20
765.2289907331244
 30
0.0
 11
1772.000396650355
 21
768.7289887331244
 31
0.0
  0
LINE
  5
757
330
17
100
AcDbEntity
  8
4
100
AcDbLine
 10
1725.000398650355
 20
754.2289867331244
 30
0.0
 11
1725.000398650355
 21
756.2289907331244
 31
0.0
  0
LINE
  5
758
330
17
100
AcDbEntity
  8
4
100
AcDbLine
 10
1754.000396650355
 20
762.2289907331244
 30
0.0
 11
1749.000398650355
 21
762.2289907331244
 31
0.0
  0
LINE
  5
759
330
17
100
AcDbEntity
  8
4
100
AcDbLine
 10
1752.081698650356
 20
763.7958847331245
 30
0.0
 11
1752.081698650356
 21
762.2289907331244
 31
0.0
  0
LINE
  5
75A
330
17
100
AcDbEntity
  8
4
100
AcDbLine
 10
1749.000398650355
 20
758.2289887331244
 30
0.0
 11
1759.570220650355
 21
758.2289887331244
 31
0.0
  0
LINE
  5
75B
330
17
100
AcDbEntity
  8
4
100
AcDbLine
 10
1750.000394650355
 20
756.2289907331244
 30
0.0
 11
1750.000394650355
 21
758.2289887331244
 31
0.0
  0
LINE
  5
75C
330
17
100
AcDbEntity
  8
4
100
AcDbLine
 10
1749.000398650355
 20
758.2289887331244
 30
0.0
 11
1749.000398650355
 21
762.2289907331244
 31
0.0
  0
LINE
  5
75D
330
17
100
AcDbEntity
  8
4
100
AcDbLine
 10
1759.814606650355
 20
765.2289907331244
 30
0.0
 11
1759.500398650355
 21
756.2289907331244
 31
0.0
  0
LINE
  5
75E
330
17
100
AcDbEntity
  8
4
100
AcDbLine
 10
1784.430572650355
 20
758.2289887331244
 30
0.0
 11
1795.000394650355
 21
758.2289887331244
 31
0.0
  0
LINE
  5
75F
330
17
100
AcDbEntity
  8
4
100
AcDbLine
 10
1784.186186650355
 20
765.2289907331244
 30
0.0
 11
1784.500394650355
 21
756.2289907331244
 31
0.0
  0
LINE
  5
760
330
17
100
AcDbEntity
  8
4
100
AcDbLine
 10
1791.918854650356
 20
763.7956387331244
 30
0.0
 11
1791.918854650356
 21
762.2289907331244
 31
0.0
  0
LINE
  5
761
330
17
100
AcDbEntity
  8
4
100
AcDbLine
 10
1790.000396650355
 20
762.2289907331244
 30
0.0
 11
1795.000394650355
 21
762.2289907331244
 31
0.0
  0
LINE
  5
762
330
17
100
AcDbEntity
  8
4
100
AcDbLine
 10
1795.000394650355
 20
758.2289887331244
 30
0.0
 11
1795.000394650355
 21
762.2289907331244
 31
0.0
  0
LINE
  5
763
330
17
100
AcDbEntity
  8
4
100
AcDbLine
 10
1794.000398650355
 20
758.2289887331244
 30
0.0
 11
1794.000398650355
 21
756.2289907331244
 31
0.0
  0
LINE
  5
764
330
17
100
AcDbEntity
  8
4
100
AcDbLine
 10
1819.000394650355
 20
756.2289907331244
 30
0.0
 11
1819.000394650355
 21
754.2289867331244
 31
0.0
  0
ARC
  5
765
330
17
100
AcDbEntity
  8
4
100
AcDbCircle
 10
1875.000398650355
 20
752.2289887331244
 30
0.0
 40
1.999998
100
AcDbArc
 50
0.0
 51
90.0
  0
LINE
  5
766
330
17
100
AcDbEntity
  8
4
100
AcDbLine
 10
1877.000396650355
 20
748.2289867331244
 30
0.0
 11
1880.000396650355
 21
748.2289867331244
 31
0.0
  0
LINE
  5
769
330
17
100
AcDbEntity
  8
4
100
AcDbLine
 10
1915.469876650355
 20
698.3920747331244
 30
0.0
 11
1904.999420650355
 21
698.3930527331243
 31
0.0
  0
LINE
  5
76A
330
17
100
AcDbEntity
  8
4
100
AcDbLine
 10
1915.472072650356
 20
722.3920747331244
 30
0.0
 11
1905.001616650355
 21
722.3930527331243
 31
0.0
  0
LINE
  5
76B
330
17
100
AcDbEntity
  8
4
100
AcDbLine
 10
1907.500394650356
 20
710.3928067331244
 30
0.0
 11
1905.000638650356
 21
712.8930547331245
 31
0.0
  0
LINE
  5
76C
330
17
100
AcDbEntity
  8
4
100
AcDbLine
 10
1907.500394650356
 20
707.8928107331244
 30
0.0
 11
1905.000398650355
 21
710.3930527331243
 31
0.0
  0
LINE
  5
76D
330
17
100
AcDbEntity
  8
4
100
AcDbLine
 10
1905.001616650355
 20
722.3930527331243
 30
0.0
 11
1904.999420650355
 21
698.3930527331243
 31
0.0
  0
LINE
  5
76E
330
17
100
AcDbEntity
  8
4
100
AcDbLine
 10
1907.499908650355
 20
704.3928067331244
 30
0.0
 11
1915.470368650355
 21
704.3920747331244
 31
0.0
  0
LINE
  5
76F
330
17
100
AcDbEntity
  8
4
100
AcDbLine
 10
1907.501126650355
 20
716.3928067331244
 30
0.0
 11
1915.471586650356
 21
716.3920747331244
 31
0.0
  0
LINE
  5
770
330
17
100
AcDbEntity
  8
4
100
AcDbLine
 10
1907.501618650355
 20
722.3928067331244
 30
0.0
 11
1907.499416650356
 21
698.3928067331244
 31
0.0
  0
LINE
  5
771
330
17
100
AcDbEntity
  8
4
100
AcDbLine
 10
1907.499908650355
 20
704.3928067331244
 30
0.0
 11
1907.501126650355
 21
716.3928067331244
 31
0.0
  0
ARC
  5
772
330
17
100
AcDbEntity
  8
4
100
AcDbCircle
 10
1898.500394650355
 20
710.3935387331244
 30
0.0
 40
18.000018
100
AcDbArc
 50
340.5237549999997
 51
19.46615799999971
  0
ARC
  5
773
330
17
100
AcDbEntity
  8
4
100
AcDbCircle
 10
1911.915920650355
 20
701.3923207331245
 30
0.0
 40
4.583598
100
AcDbArc
 50
319.1123719999976
 51
40.87702700000163
  0
ARC
  5
774
330
17
100
AcDbEntity
  8
4
100
AcDbCircle
 10
1911.917630650355
 20
719.3923207331245
 30
0.0
 40
4.583598
100
AcDbArc
 50
319.1123719999976
 51
40.87702700000163
  0
LINE
  5
775
330
17
100
AcDbEntity
  8
4
100
AcDbLine
 10
1916.501372650356
 20
719.3920747331244
 30
0.0
 11
1916.499662650355
 21
701.3920747331244
 31
0.0
  0
ARC
  5
776
330
17
100
AcDbEntity
  8
4
100
AcDbCircle
 10
1903.000394650355
 20
746.2289887331244
 30
0.0
 40
1.999998
100
AcDbArc
 50
0.0
 51
90.0
  0
LINE
  5
78F
330
17
100
AcDbEntity
  8
4
100
AcDbLine
 10
825.9498663283293
 20
629.2289927331242
 30
0.0
 11
825.9498663283293
 21
673.2289927331242
 31
0.0
  0
CIRCLE
  5
790
330
17
100
AcDbEntity
  8
4
100
AcDbCircle
 10
810.9498663283293
 20
642.2289927331246
 30
0.0
 40
5.0
  0
LINE
  5
791
330
17
100
AcDbEntity
  8
4
100
AcDbLine
 10
775.9498663283289
 20
639.2289927331242
 30
0.0
 11
775.9498663283293
 21
663.2289927331242
 31
0.0
  0
LINE
  5
792
330
17
100
AcDbEntity
  8
4
100
AcDbLine
 10
760.9498663283289
 20
636.2289927331242
 30
0.0
 11
760.9498663283289
 21
666.2289927331242
 31
0.0
  0
LINE
  5
793
330
17
100
AcDbEntity
  8
4
100
AcDbLine
 10
770.9498663283289
 20
639.2289927331242
 30
0.0
 11
770.9498663283293
 21
663.2289927331242
 31
0.0
  0
LINE
  5
794
330
17
100
AcDbEntity
  8
4
100
AcDbLine
 10
755.9498663283289
 20
631.2289927331242
 30
0.0
 11
755.9498663283289
 21
671.2289927331242
 31
0.0
  0
ARC
  5
795
330
17
100
AcDbEntity
  8
4
100
AcDbCircle
 10
810.9498663283293
 20
642.2289927331246
 30
0.0
 40
11.0
100
AcDbArc
 50
113.9534516247513
 51
66.04654837524868
  0
LINE
  5
796
330
17
100
AcDbEntity
  8
4
100
AcDbLine
 10
725.9498663283293
 20
629.2289927331242
 30
0.0
 11
725.9498663283293
 21
673.2289927331242
 31
0.0
  0
LINE
  5
797
330
17
100
AcDbEntity
  8
4
100
AcDbLine
 10
730.9498663283289
 20
631.2289927331242
 30
0.0
 11
730.9498663283289
 21
671.2289927331242
 31
0.0
  0
LINE
  5
798
330
17
100
AcDbEntity
  8
4
100
AcDbLine
 10
735.9498663283293
 20
636.2289927331242
 30
0.0
 11
735.9498663283293
 21
671.2289927331242
 31
0.0
  0
LINE
  5
799
330
17
100
AcDbEntity
  8
4
100
AcDbLine
 10
728.9498663283293
 20
626.2289927331242
 30
0.0
 11
822.9498663283293
 21
626.2289927331242
 31
0.0
  0
ARC
  5
79A
330
17
100
AcDbEntity
  8
4
100
AcDbCircle
 10
767.9498663283289
 20
639.2289927331242
 30
0.0
 40
8.0
100
AcDbArc
 50
270.0
 51
0.0
  0
ARC
  5
79B
330
17
100
AcDbEntity
  8
4
100
AcDbCircle
 10
767.9498663283289
 20
639.2289927331242
 30
0.0
 40
3.0
100
AcDbArc
 50
270.0000000000021
 51
0.0
  0
LINE
  5
79C
330
17
100
AcDbEntity
  8
4
100
AcDbLine
 10
760.9498663283289
 20
636.2289927331242
 30
0.0
 11
767.9498663283289
 21
636.2289927331242
 31
0.0
  0
LINE
  5
79D
330
17
100
AcDbEntity
  8
4
100
AcDbLine
 10
755.9498663283289
 20
631.2289927331242
 30
0.0
 11
767.9498663283289
 21
631.2289927331242
 31
0.0
  0
LINE
  5
79E
330
17
100
AcDbEntity
  8
4
100
AcDbLine
 10
730.9498663283289
 20
631.2289927331242
 30
0.0
 11
750.9498663283289
 21
631.2289927331242
 31
0.0
  0
LINE
  5
79F
330
17
100
AcDbEntity
  8
4
100
AcDbLine
 10
735.9498663283293
 20
636.2289927331242
 30
0.0
 11
750.9498663283289
 21
636.2289927331242
 31
0.0
  0
ARC
  5
7A0
330
17
100
AcDbEntity
  8
4
100
AcDbCircle
 10
728.9498663283293
 20
629.2289927331242
 30
0.0
 40
3.0
100
AcDbArc
 50
180.0
 51
270.0
  0
LINE
  5
7A1
330
17
100
AcDbEntity
  8
4
100
AcDbLine
 10
750.9498663283289
 20
631.2289927331242
 30
0.0
 11
750.9498663283289
 21
636.2289927331242
 31
0.0
  0
ARC
  5
7A2
330
17
100
AcDbEntity
  8
4
100
AcDbCircle
 10
822.9498663283293
 20
629.2289927331242
 30
0.0
 40
3.0
100
AcDbArc
 50
270.0
 51
0.0
  0
ARC
  5
7A3
330
17
100
AcDbEntity
  8
4
100
AcDbCircle
 10
767.9498663283293
 20
663.2289927331242
 30
0.0
 40
8.0
100
AcDbArc
 50
0.0
 51
90.0
  0
LINE
  5
7A4
330
17
100
AcDbEntity
  8
4
100
AcDbLine
 10
728.9498663283293
 20
676.2289927331242
 30
0.0
 11
822.9498663283293
 21
676.2289927331242
 31
0.0
  0
ARC
  5
7A5
330
17
100
AcDbEntity
  8
4
100
AcDbCircle
 10
767.9498663283293
 20
663.2289927331242
 30
0.0
 40
3.0
100
AcDbArc
 50
0.0
 51
90.0
  0
LINE
  5
7A6
330
17
100
AcDbEntity
  8
4
100
AcDbLine
 10
760.9498663283289
 20
666.2289927331242
 30
0.0
 11
767.9498663283293
 21
666.2289927331242
 31
0.0
  0
LINE
  5
7A7
330
17
100
AcDbEntity
  8
4
100
AcDbLine
 10
755.9498663283289
 20
671.2289927331242
 30
0.0
 11
767.9498663283293
 21
671.2289927331242
 31
0.0
  0
LINE
  5
7A8
330
17
100
AcDbEntity
  8
4
100
AcDbLine
 10
730.9498663283289
 20
671.2289927331242
 30
0.0
 11
735.9498663283293
 21
671.2289927331242
 31
0.0
  0
ARC
  5
7A9
330
17
100
AcDbEntity
  8
4
100
AcDbCircle
 10
728.9498663283293
 20
673.2289927331242
 30
0.0
 40
3.0
100
AcDbArc
 50
90.0
 51
180.0
  0
ARC
  5
7AA
330
17
100
AcDbEntity
  8
4
100
AcDbCircle
 10
822.9498663283293
 20
673.2289927331242
 30
0.0
 40
3.0
100
AcDbArc
 50
0.0
 51
90.0
  0
LINE
  5
7AB
330
17
100
AcDbEntity
  8
4
100
AcDbLine
 10
795.9498663283293
 20
648.7289927331242
 30
0.0
 11
795.9498663283293
 21
653.7289927331242
 31
0.0
  0
LINE
  5
7AC
330
17
100
AcDbEntity
  8
4
100
AcDbLine
 10
780.9498663283293
 20
648.7289927331242
 30
0.0
 11
780.9498663283293
 21
653.7289927331242
 31
0.0
  0
LINE
  5
7AD
330
17
100
AcDbEntity
  8
4
100
AcDbLine
 10
780.9498663283293
 20
653.7289927331242
 30
0.0
 11
795.9498663283293
 21
653.7289927331242
 31
0.0
  0
LINE
  5
7AE
330
17
100
AcDbEntity
  8
4
100
AcDbLine
 10
780.9498663283293
 20
648.7289927331242
 30
0.0
 11
795.9498663283293
 21
648.7289927331242
 31
0.0
  0
CIRCLE
  5
7AF
330
17
100
AcDbEntity
  8
4
100
AcDbCircle
 10
810.9498663283293
 20
661.2289927331242
 30
0.0
 40
5.0
  0
ARC
  5
7B0
330
17
100
AcDbEntity
  8
4
100
AcDbCircle
 10
810.9498663283293
 20
661.2289927331242
 30
0.0
 40
10.0
100
AcDbArc
 50
296.5253520166134
 51
243.4746479833866
  0
ARC
  5
7B1
330
17
100
AcDbEntity
  8
4
100
AcDbCircle
 10
1129.66625239927
 20
298.8554468871027
 30
0.0
 40
3.783613929059507
100
AcDbArc
 50
319.5701031551734
 51
40.42989684482659
  0
LINE
  5
7B2
330
17
100
AcDbEntity
  8
4
100
AcDbLine
 10
1126.449866328329
 20
281.6792763787118
 30
0.0
 11
1126.449866328329
 21
301.3091855311588
 31
0.0
  0
LINE
  5
7B3
330
17
100
AcDbEntity
  8
4
100
AcDbLine
 10
1123.949866328329
 20
281.6792763787118
 30
0.0
 11
1123.949866328329
 21
301.3091855311588
 31
0.0
  0
LINE
  5
7B4
330
17
100
AcDbEntity
  8
4
100
AcDbLine
 10
1132.546339382476
 20
296.4017082430466
 30
0.0
 11
1126.449866328329
 21
296.4017082430466
 31
0.0
  0
ARC
  5
7B5
330
17
100
AcDbEntity
  8
4
100
AcDbCircle
 10
1119.67070103087
 20
291.4942309549353
 30
0.0
 40
13.77916529745958
100
AcDbArc
 50
339.1359356360799
 51
20.86406436392003
  0
LINE
  5
7B6
330
17
100
AcDbEntity
  8
4
100
AcDbLine
 10
1133.449866328329
 20
298.8554468871027
 30
0.0
 11
1133.449866328329
 21
284.133015022767
 31
0.0
  0
ARC
  5
7B7
330
17
100
AcDbEntity
  8
4
100
AcDbCircle
 10
1129.66625239927
 20
284.133015022767
 30
0.0
 40
3.783613929059507
100
AcDbArc
 50
319.5701031551734
 51
40.42989684482659
  0
LINE
  5
7B8
330
17
100
AcDbEntity
  8
4
100
AcDbLine
 10
1132.546339382476
 20
286.5867536668231
 30
0.0
 11
1126.449866328329
 21
286.5867536668231
 31
0.0
  0
LINE
  5
7B9
330
17
100
AcDbEntity
  8
4
100
AcDbLine
 10
1123.949866328329
 20
301.3091855311588
 30
0.0
 11
1132.546339382476
 21
301.3091855311588
 31
0.0
  0
LINE
  5
7BA
330
17
100
AcDbEntity
  8
4
100
AcDbLine
 10
1132.546339382476
 20
281.6792763787118
 30
0.0
 11
1123.949866328329
 21
281.6792763787118
 31
0.0
  0
LINE
  5
7BB
330
17
100
AcDbEntity
  8
L-CENTER
100
AcDbLine
 10
1091.977228880633
 20
291.4942309549353
 30
0.0
 11
1136.317844582909
 21
291.4942309549353
 31
0.0
  0
LINE
  5
7BC
330
17
100
AcDbEntity
  8
L-CENTER
100
AcDbLine
 10
1091.977228880633
 20
188.9637505113135
 30
0.0
 11
1136.317844582909
 21
188.9637505113135
 31
0.0
  0
LINE
  5
7BD
330
17
100
AcDbEntity
  8
4
100
AcDbLine
 10
1123.949866328329
 20
179.14879593509
 30
0.0
 11
1132.546339382476
 21
179.14879593509
 31
0.0
  0
LINE
  5
7BE
330
17
100
AcDbEntity
  8
4
100
AcDbLine
 10
1132.546339382476
 20
193.8712277994257
 30
0.0
 11
1126.449866328329
 21
193.8712277994257
 31
0.0
  0
LINE
  5
7BF
330
17
100
AcDbEntity
  8
4
100
AcDbLine
 10
1132.546339382476
 20
184.0562732232022
 30
0.0
 11
1126.449866328329
 21
184.0562732232022
 31
0.0
  0
LINE
  5
7C0
330
17
100
AcDbEntity
  8
4
100
AcDbLine
 10
1133.449866328329
 20
181.6025345791461
 30
0.0
 11
1133.449866328329
 21
196.3249664434818
 31
0.0
  0
ARC
  5
7C1
330
17
100
AcDbEntity
  8
4
100
AcDbCircle
 10
1119.67070103087
 20
188.9637505113135
 30
0.0
 40
13.77916529745958
100
AcDbArc
 50
339.1359356360799
 51
20.86406436392003
  0
ARC
  5
7C2
330
17
100
AcDbEntity
  8
4
100
AcDbCircle
 10
1129.66625239927
 20
181.6025345791461
 30
0.0
 40
3.783613929059507
100
AcDbArc
 50
319.5701031551734
 51
40.42989684482659
  0
LINE
  5
7C3
330
17
100
AcDbEntity
  8
4
100
AcDbLine
 10
1132.546339382476
 20
198.778705087537
 30
0.0
 11
1123.949866328329
 21
198.778705087537
 31
0.0
  0
LINE
  5
7C4
330
17
100
AcDbEntity
  8
4
100
AcDbLine
 10
1126.449866328329
 20
198.778705087537
 30
0.0
 11
1126.449866328329
 21
179.14879593509
 31
0.0
  0
ARC
  5
7C5
330
17
100
AcDbEntity
  8
4
100
AcDbCircle
 10
1129.66625239927
 20
196.3249664434818
 30
0.0
 40
3.783613929059507
100
AcDbArc
 50
319.5701031551734
 51
40.42989684482659
  0
LINE
  5
7C6
330
17
100
AcDbEntity
  8
L-CENTER
100
AcDbLine
 10
459.9225037760248
 20
291.4942309549353
 30
0.0
 11
415.5818880737484
 21
291.4942309549353
 31
0.0
  0
LINE
  5
7C7
330
17
100
AcDbEntity
  8
4
100
AcDbLine
 10
419.3533932741816
 20
281.6792763787118
 30
0.0
 11
427.9498663283289
 21
281.6792763787118
 31
0.0
  0
LINE
  5
7C8
330
17
100
AcDbEntity
  8
4
100
AcDbLine
 10
427.9498663283289
 20
301.3091855311588
 30
0.0
 11
419.3533932741816
 21
301.3091855311588
 31
0.0
  0
LINE
  5
7C9
330
17
100
AcDbEntity
  8
4
100
AcDbLine
 10
419.3533932741816
 20
286.5867536668231
 30
0.0
 11
425.4498663283289
 21
286.5867536668231
 31
0.0
  0
LINE
  5
7CA
330
17
100
AcDbEntity
  8
4
100
AcDbLine
 10
419.3533932741816
 20
296.4017082430466
 30
0.0
 11
425.4498663283289
 21
296.4017082430466
 31
0.0
  0
LINE
  5
7CB
330
17
100
AcDbEntity
  8
4
100
AcDbLine
 10
427.9498663283289
 20
281.6792763787118
 30
0.0
 11
427.9498663283289
 21
301.3091855311588
 31
0.0
  0
LINE
  5
7CC
330
17
100
AcDbEntity
  8
4
100
AcDbLine
 10
425.4498663283289
 20
281.6792763787118
 30
0.0
 11
425.4498663283289
 21
301.3091855311588
 31
0.0
  0
ARC
  5
7CD
330
17
100
AcDbEntity
  8
4
100
AcDbCircle
 10
422.2334802573882
 20
284.133015022767
 30
0.0
 40
3.783613929059507
100
AcDbArc
 50
139.5701031551729
 51
220.4298968448271
  0
LINE
  5
7CE
330
17
100
AcDbEntity
  8
4
100
AcDbLine
 10
418.4498663283289
 20
298.8554468871027
 30
0.0
 11
418.4498663283289
 21
284.133015022767
 31
0.0
  0
ARC
  5
7CF
330
17
100
AcDbEntity
  8
4
100
AcDbCircle
 10
432.2290316257881
 20
291.4942309549353
 30
0.0
 40
13.77916529745958
100
AcDbArc
 50
159.1359356360801
 51
200.8640643639199
  0
ARC
  5
7D0
330
17
100
AcDbEntity
  8
4
100
AcDbCircle
 10
422.2334802573882
 20
298.8554468871027
 30
0.0
 40
3.783613929059507
100
AcDbArc
 50
139.5701031551729
 51
220.4298968448271
  0
LINE
  5
7D1
330
17
100
AcDbEntity
  8
4
100
AcDbLine
 10
419.3533932741816
 20
198.778705087537
 30
0.0
 11
427.9498663283289
 21
198.778705087537
 31
0.0
  0
LINE
  5
7D2
330
17
100
AcDbEntity
  8
4
100
AcDbLine
 10
419.3533932741816
 20
184.0562732232022
 30
0.0
 11
425.4498663283289
 21
184.0562732232022
 31
0.0
  0
LINE
  5
7D3
330
17
100
AcDbEntity
  8
4
100
AcDbLine
 10
419.3533932741816
 20
193.8712277994257
 30
0.0
 11
425.4498663283289
 21
193.8712277994257
 31
0.0
  0
LINE
  5
7D4
330
17
100
AcDbEntity
  8
4
100
AcDbLine
 10
427.9498663283289
 20
179.14879593509
 30
0.0
 11
419.3533932741816
 21
179.14879593509
 31
0.0
  0
LINE
  5
7D5
330
17
100
AcDbEntity
  8
L-CENTER
100
AcDbLine
 10
459.9225037760248
 20
188.9637505113135
 30
0.0
 11
415.5818880737484
 21
188.9637505113135
 31
0.0
  0
LINE
  5
7D6
330
17
100
AcDbEntity
  8
4
100
AcDbLine
 10
425.4498663283289
 20
198.778705087537
 30
0.0
 11
425.4498663283289
 21
179.14879593509
 31
0.0
  0
ARC
  5
7D7
330
17
100
AcDbEntity
  8
4
100
AcDbCircle
 10
422.2334802573882
 20
196.3249664434818
 30
0.0
 40
3.783613929059507
100
AcDbArc
 50
139.5701031551729
 51
220.4298968448271
  0
ARC
  5
7D8
330
17
100
AcDbEntity
  8
4
100
AcDbCircle
 10
422.2334802573882
 20
181.6025345791461
 30
0.0
 40
3.783613929059507
100
AcDbArc
 50
139.5701031551729
 51
220.4298968448271
  0
ARC
  5
7D9
330
17
100
AcDbEntity
  8
4
100
AcDbCircle
 10
432.2290316257881
 20
188.9637505113135
 30
0.0
 40
13.77916529745958
100
AcDbArc
 50
159.1359356360801
 51
200.8640643639199
  0
LINE
  5
7DA
330
17
100
AcDbEntity
  8
4
100
AcDbLine
 10
418.4498663283289
 20
181.6025345791461
 30
0.0
 11
418.4498663283289
 21
196.3249664434818
 31
0.0
  0
LINE
  5
944
330
17
100
AcDbEntity
  8
L-CENTER
100
AcDbLine
 10
1897.580689631544
 20
352.5208623017692
 30
0.0
 11
1943.580691631544
 21
352.5172023017692
 31
0.0
  0
LINE
  5
945
330
17
100
AcDbEntity
  8
L-CENTER
100
AcDbLine
 10
1897.580854703148
 20
387.1983498856389
 30
0.0
 11
1943.580856703149
 21
387.1946898856388
 31
0.0
  0
LINE
  5
946
330
17
100
AcDbEntity
  8
L-CENTER
100
AcDbLine
 10
1897.580854703148
 20
493.2642678856387
 30
0.0
 11
1943.580856703149
 21
493.2606078856388
 31
0.0
  0
LINE
  5
947
330
17
100
AcDbEntity
  8
L-CENTER
100
AcDbLine
 10
1646.420061597529
 20
493.2586551687809
 30
0.0
 11
1600.420059597529
 21
493.2623151687808
 31
0.0
  0
LINE
  5
948
330
17
100
AcDbEntity
  8
L-CENTER
100
AcDbLine
 10
1646.420019597529
 20
387.1927371754643
 30
0.0
 11
1600.420017597529
 21
387.1963971754642
 31
0.0
  0
LINE
  5
949
330
17
100
AcDbEntity
  8
L-CENTER
100
AcDbLine
 10
1646.420061597529
 20
352.5152451687811
 30
0.0
 11
1600.420059597529
 21
352.518905168781
 31
0.0
  0
LINE
  5
96F
330
17
100
AcDbEntity
  8
4
100
AcDbLine
 10
691.6019683283289
 20
476.2289887331244
 30
0.0
 11
667.6019683283289
 21
476.2289887331244
 31
0.0
  0
LINE
  5
970
330
17
100
AcDbEntity
  8
4
100
AcDbLine
 10
691.6019683283289
 20
460.2289927331244
 30
0.0
 11
667.6019683283289
 21
460.2289927331244
 31
0.0
  0
ARC
  5
971
330
17
100
AcDbEntity
  8
4
100
AcDbCircle
 10
679.6019683283289
 20
423.2289907331242
 30
0.0
 40
45.000102
100
AcDbArc
 50
105.4659730000001
 51
74.53402699999987
  0
LINE
  5
972
330
17
100
AcDbEntity
  8
4
100
AcDbLine
 10
691.6019683283289
 20
476.2289887331244
 30
0.0
 11
691.6019683283289
 21
460.2289927331244
 31
0.0
  0
LINE
  5
973
330
17
100
AcDbEntity
  8
4
100
AcDbLine
 10
667.6019683283289
 20
460.2289927331244
 30
0.0
 11
667.6019683283289
 21
476.2289887331244
 31
0.0
  0
CIRCLE
  5
974
330
17
100
AcDbEntity
  8
4
100
AcDbCircle
 10
679.6019683283289
 20
423.2289907331244
 30
0.0
 40
65.0
  0
LINE
  5
975
330
17
100
AcDbEntity
  8
4
100
AcDbLine
 10
1439.000396650356
 20
476.2289887331231
 30
0.0
 11
1589.000396650356
 21
476.2289887331235
 31
0.0
  0
LINE
  5
976
330
17
100
AcDbEntity
  8
4
100
AcDbLine
 10
1440.000398650356
 20
378.2289907331231
 30
0.0
 11
1599.000398650356
 21
378.2289907331235
 31
0.0
  0
LINE
  5
977
330
17
100
AcDbEntity
  8
4
100
AcDbLine
 10
1440.000398650356
 20
468.2289907331231
 30
0.0
 11
1599.000398650356
 21
468.2289907331235
 31
0.0
  0
LINE
  5
978
330
17
100
AcDbEntity
  8
4
100
AcDbLine
 10
1599.000398650356
 20
375.7289887331235
 30
0.0
 11
1599.000398650356
 21
470.7289927331235
 31
0.0
  0
LINE
  5
979
330
17
100
AcDbEntity
  8
4
100
AcDbLine
 10
1613.500394650357
 20
397.1960347331237
 30
0.0
 11
1613.500394650356
 21
483.2619487331237
 31
0.0
  0
LINE
  5
97A
330
17
100
AcDbEntity
  8
4
100
AcDbLine
 10
1613.500394650357
 20
375.7289887331237
 30
0.0
 11
1599.000398650356
 21
375.7289887331235
 31
0.0
  0
LINE
  5
97B
330
17
100
AcDbEntity
  8
4
100
AcDbLine
 10
1613.500394650356
 20
470.7289927331237
 30
0.0
 11
1599.000398650356
 21
470.7289927331235
 31
0.0
  0
LINE
  5
97C
330
17
100
AcDbEntity
  8
4
100
AcDbLine
 10
1589.000396650356
 20
476.2289887331235
 30
0.0
 11
1589.000396650356
 21
468.2289907331235
 31
0.0
  0
LINE
  5
97D
330
17
100
AcDbEntity
  8
4
100
AcDbLine
 10
1439.000396650356
 20
379.2289927331231
 30
0.0
 11
1439.000396650356
 21
476.2289887331231
 31
0.0
  0
LINE
  5
97E
330
17
100
AcDbEntity
  8
4
100
AcDbLine
 10
1440.000398650356
 20
468.2289907331231
 30
0.0
 11
1440.000398650356
 21
378.2289907331231
 31
0.0
  0
LINE
  5
97F
330
17
100
AcDbEntity
  8
4
100
AcDbLine
 10
1439.000396650356
 20
379.2289927331231
 30
0.0
 11
1440.000398650356
 21
378.2289907331231
 31
0.0
  0
LINE
  5
980
330
17
100
AcDbEntity
  8
4
100
AcDbLine
 10
1439.000396650356
 20
467.2289887331231
 30
0.0
 11
1440.000398650356
 21
468.2289907331231
 31
0.0
  0
LINE
  5
99B
330
17
100
AcDbEntity
  8
4
100
AcDbLine
 10
1613.500394650356
 20
362.5185427331244
 30
0.0
 11
1613.500394650356
 21
377.1960307331244
 31
0.0
  0
LINE
  5
99C
330
17
100
AcDbEntity
  8
4
100
AcDbLine
 10
727.1019683283289
 20
1200.725498502165
 30
0.0
 11
727.1019683283289
 21
1215.325498502164
 31
0.0
  0
LINE
  5
99D
330
17
100
AcDbEntity
  8
4
100
AcDbLine
 10
632.1019683283289
 20
1200.725498502165
 30
0.0
 11
632.1019683283289
 21
1215.325498502164
 31
0.0
  0
LINE
  5
99E
330
17
100
AcDbEntity
  8
4
100
AcDbLine
 10
634.6019683283289
 20
1041.725498502165
 30
0.0
 11
635.6019683283289
 21
1040.725498502165
 31
0.0
  0
LINE
  5
99F
330
17
100
AcDbEntity
  8
4
100
AcDbLine
 10
691.6019683283289
 20
1041.725498502165
 30
0.0
 11
724.6019683283289
 21
1041.725498502165
 31
0.0
  0
LINE
  5
9A0
330
17
100
AcDbEntity
  8
4
100
AcDbLine
 10
723.6019683283289
 20
1040.725498502165
 30
0.0
 11
724.6019683283289
 21
1041.725498502165
 31
0.0
  0
LINE
  5
9A1
330
17
100
AcDbEntity
  8
4
100
AcDbLine
 10
635.6019683283289
 20
1040.725498502165
 30
0.0
 11
723.6019683283289
 21
1040.725498502165
 31
0.0
  0
LINE
  5
9A2
330
17
100
AcDbEntity
  8
4
100
AcDbLine
 10
634.6019683283289
 20
1041.725498502165
 30
0.0
 11
667.6019683283289
 21
1041.725498502165
 31
0.0
  0
ARC
  5
9A3
330
17
100
AcDbEntity
  8
4
100
AcDbCircle
 10
632.6019683283289
 20
1198.725498502165
 30
0.0
 40
2.0
100
AcDbArc
 50
0.0
 51
90.0
  0
ARC
  5
9A4
330
17
100
AcDbEntity
  8
4
100
AcDbCircle
 10
726.6019683283289
 20
1198.725498502165
 30
0.0
 40
2.0
100
AcDbArc
 50
90.0
 51
180.0
  0
ARC
  5
9A5
330
17
100
AcDbEntity
  8
4
100
AcDbCircle
 10
679.6019683283289
 20
1178.725498502165
 30
0.0
 40
12.0
100
AcDbArc
 50
90.0
 51
180.0
  0
ARC
  5
9A6
330
17
100
AcDbEntity
  8
4
100
AcDbCircle
 10
679.6019683283289
 20
1178.725498502165
 30
0.0
 40
12.0
100
AcDbArc
 50
0.0
 51
90.0
  0
LINE
  5
9A7
330
17
100
AcDbEntity
  8
4
100
AcDbLine
 10
679.6019683283289
 20
1190.725498502165
 30
0.0
 11
679.6019683283289
 21
1190.725498502165
 31
0.0
  0
LINE
  5
9A8
330
17
100
AcDbEntity
  8
4
100
AcDbLine
 10
632.1019683283289
 20
1200.725498502165
 30
0.0
 11
727.1019683283289
 21
1200.725498502165
 31
0.0
  0
LINE
  5
9A9
330
17
100
AcDbEntity
  8
4
100
AcDbLine
 10
634.6019683283289
 20
1198.725498502165
 30
0.0
 11
634.6019683283289
 21
1041.725498502165
 31
0.0
  0
LINE
  5
9AA
330
17
100
AcDbEntity
  8
4
100
AcDbLine
 10
724.6019683283289
 20
1198.725498502165
 30
0.0
 11
724.6019683283289
 21
1041.725498502165
 31
0.0
  0
LINE
  5
9AB
330
17
100
AcDbEntity
  8
4
100
AcDbLine
 10
667.6019683283289
 20
1178.725498502165
 30
0.0
 11
667.6019683283289
 21
1040.725498502165
 31
0.0
  0
LINE
  5
9AC
330
17
100
AcDbEntity
  8
4
100
AcDbLine
 10
691.6019683283289
 20
1178.725498502165
 30
0.0
 11
691.6019683283289
 21
1040.725498502165
 31
0.0
  0
LINE
  5
9AD
330
17
100
AcDbEntity
  8
4
100
AcDbLine
 10
618.9905883721017
 20
1215.325498502164
 30
0.0
 11
740.2133482845561
 21
1215.325498502164
 31
0.0
  0
LINE
  5
9D7
330
17
100
AcDbEntity
  8
4
100
AcDbLine
 10
414.4498643283289
 20
1301.725498502165
 30
0.0
 11
427.2339683283285
 21
1301.725498502164
 31
0.0
  0
LINE
  5
9D8
330
17
100
AcDbEntity
  8
4
100
AcDbLine
 10
414.4498643283289
 20
1351.725498502165
 30
0.0
 11
427.2339683283285
 21
1351.725498502164
 31
0.0
  0
LINE
  5
9D9
330
17
100
AcDbEntity
  8
4
100
AcDbLine
 10
314.4498643283289
 20
1348.725498502165
 30
0.0
 11
314.4498643283289
 21
1304.725498502165
 31
0.0
  0
LINE
  5
9DA
330
17
100
AcDbEntity
  8
4
100
AcDbLine
 10
315.4498643283289
 20
1320.725498502165
 30
0.0
 11
315.4498643283289
 21
1303.725498502165
 31
0.0
  0
LINE
  5
9DB
330
17
100
AcDbEntity
  8
4
100
AcDbLine
 10
314.4498643283289
 20
1304.725498502165
 30
0.0
 11
315.4498643283289
 21
1303.725498502165
 31
0.0
  0
LINE
  5
9DC
330
17
100
AcDbEntity
  8
4
100
AcDbLine
 10
315.4498643283289
 20
1349.725498502165
 30
0.0
 11
315.4498643283289
 21
1332.725498502165
 31
0.0
  0
LINE
  5
9DD
330
17
100
AcDbEntity
  8
4
100
AcDbLine
 10
315.4498643283289
 20
1349.725498502165
 30
0.0
 11
314.4498643283289
 21
1348.725498502165
 31
0.0
  0
ARC
  5
9DE
330
17
100
AcDbEntity
  8
4
100
AcDbCircle
 10
398.4498643283289
 20
1326.725498502165
 30
0.0
 40
6.0
100
AcDbArc
 50
270.0
 51
90.0
  0
ARC
  5
9DF
330
17
100
AcDbEntity
  8
4
100
AcDbCircle
 10
412.4498643283289
 20
1351.725498502165
 30
0.0
 40
2.0
100
AcDbArc
 50
270.0
 51
0.0
  0
LINE
  5
9E0
330
17
100
AcDbEntity
  8
4
100
AcDbLine
 10
412.4498643283289
 20
1303.725498502165
 30
0.0
 11
315.4498643283289
 21
1303.725498502165
 31
0.0
  0
LINE
  5
9E1
330
17
100
AcDbEntity
  8
4
100
AcDbLine
 10
412.4498643283289
 20
1349.725498502165
 30
0.0
 11
315.4498643283289
 21
1349.725498502165
 31
0.0
  0
LINE
  5
9E2
330
17
100
AcDbEntity
  8
4
100
AcDbLine
 10
314.4498643283289
 20
1320.725498502165
 30
0.0
 11
398.4498643283289
 21
1320.725498502165
 31
0.0
  0
LINE
  5
9E3
330
17
100
AcDbEntity
  8
4
100
AcDbLine
 10
314.4498643283289
 20
1332.725498502165
 30
0.0
 11
398.4498643283289
 21
1332.725498502165
 31
0.0
  0
LINE
  5
9E4
330
17
100
AcDbEntity
  8
4
100
AcDbLine
 10
414.4498643283289
 20
1301.725498502165
 30
0.0
 11
414.4498643283289
 21
1351.725498502165
 31
0.0
  0
ARC
  5
9E5
330
17
100
AcDbEntity
  8
4
100
AcDbCircle
 10
412.4498643283289
 20
1301.725498502165
 30
0.0
 40
2.0
100
AcDbArc
 50
0.0
 51
90.0
  0
LINE
  5
9E6
330
17
100
AcDbEntity
  8
4
100
AcDbLine
 10
427.2339683283285
 20
1290.725498502165
 30
0.0
 11
427.2339683283285
 21
1362.725498502165
 31
0.0
  0
LINE
  5
9E7
330
17
100
AcDbEntity
  8
4
100
AcDbLine
 10
428.2339683283285
 20
1290.725498502165
 30
0.0
 11
427.2339683283285
 21
1290.725498502165
 31
0.0
  0
LINE
  5
9E8
330
17
100
AcDbEntity
  8
4
100
AcDbLine
 10
428.2339683283285
 20
1362.725498502165
 30
0.0
 11
427.2339683283285
 21
1362.725498502164
 31
0.0
  0
LINE
  5
9E9
330
17
100
AcDbEntity
  8
4
100
AcDbLine
 10
315.4498663283289
 20
217.2289927331244
 30
0.0
 11
414.4498663283289
 21
217.2289927331244
 31
0.0
  0
LINE
  5
9EA
330
17
100
AcDbEntity
  8
4
100
AcDbLine
 10
314.4498643283289
 20
266.7289927331244
 30
0.0
 11
404.4498643283289
 21
266.7289927331244
 31
0.0
  0
LINE
  5
9EB
330
17
100
AcDbEntity
  8
4
100
AcDbLine
 10
315.4498663283289
 20
263.2289887331244
 30
0.0
 11
414.4498663283289
 21
263.2289887331244
 31
0.0
  0
LINE
  5
9EC
330
17
100
AcDbEntity
  8
4
100
AcDbLine
 10
426.4498663283289
 20
204.2289907331244
 30
0.0
 11
426.4498663283289
 21
276.2289907331244
 31
0.0
  0
LINE
  5
9ED
330
17
100
AcDbEntity
  8
4
100
AcDbLine
 10
426.4498663283289
 20
204.2289907331244
 30
0.0
 11
427.9498663283289
 21
204.2289907331244
 31
0.0
  0
LINE
  5
9EE
330
17
100
AcDbEntity
  8
4
100
AcDbLine
 10
414.4498663283289
 20
215.2289887331244
 30
0.0
 11
414.4498663283289
 21
265.2289927331244
 31
0.0
  0
LINE
  5
9EF
330
17
100
AcDbEntity
  8
4
100
AcDbLine
 10
414.4498663283289
 20
215.2289887331244
 30
0.0
 11
426.4498663283289
 21
215.2289887331244
 31
0.0
  0
LINE
  5
9F0
330
17
100
AcDbEntity
  8
4
100
AcDbLine
 10
414.4498663283289
 20
265.2289927331244
 30
0.0
 11
426.4498663283289
 21
265.2289927331244
 31
0.0
  0
LINE
  5
9F1
330
17
100
AcDbEntity
  8
4
100
AcDbLine
 10
404.4498643283289
 20
263.2289887331244
 30
0.0
 11
404.4498643283289
 21
266.7289927331244
 31
0.0
  0
LINE
  5
9F2
330
17
100
AcDbEntity
  8
4
100
AcDbLine
 10
426.4498663283289
 20
276.2289907331244
 30
0.0
 11
427.9498663283289
 21
276.2289907331244
 31
0.0
  0
LINE
  5
9F3
330
17
100
AcDbEntity
  8
4
100
AcDbLine
 10
314.4498643283289
 20
218.2289887331244
 30
0.0
 11
314.4498643283289
 21
266.7289927331244
 31
0.0
  0
LINE
  5
9F4
330
17
100
AcDbEntity
  8
4
100
AcDbLine
 10
315.4498663283289
 20
263.2289887331244
 30
0.0
 11
315.4498663283289
 21
217.2289927331244
 31
0.0
  0
LINE
  5
9F5
330
17
100
AcDbEntity
  8
4
100
AcDbLine
 10
315.4498663283289
 20
217.2289927331244
 30
0.0
 11
314.4498643283289
 21
218.2289887331244
 31
0.0
  0
LINE
  5
9F6
330
17
100
AcDbEntity
  8
4
100
AcDbLine
 10
314.4498643283289
 20
262.2289927331244
 30
0.0
 11
315.4498663283289
 21
263.2289887331244
 31
0.0
  0
CIRCLE
  5
A45
330
17
100
AcDbEntity
  8
4
100
AcDbCircle
 10
775.9498663283289
 20
146.2289947331244
 30
0.0
 40
9.331054
  0
ARC
  5
A47
330
17
100
AcDbEntity
  8
4
100
AcDbCircle
 10
1129.950354399269
 20
1370.629522791807
 30
0.0
 40
3.783613929059507
100
AcDbArc
 50
319.5701031551782
 51
40.42989684482174
  0
CIRCLE
  5
A7D
330
17
100
AcDbEntity
  8
4
100
AcDbCircle
 10
1725.000398650355
 20
240.2289907331244
 30
0.0
 40
60.0
  0
ENDSEC
  0
SECTION
  2
OBJECTS
  0
DICTIONARY
  5
5
330
0
100
AcDbDictionary
281
     1
  3
ACAD_COLOR
350
29
  3
ACAD_GROUP
350
27
  3
ACAD_LAYOUT
350
1E
  3
ACAD_MATERIAL
350
7
  3
ACAD_MLEADERSTYLE
350
94D
  3
ACAD_MLINESTYLE
350
15
  3
ACAD_PLOTSETTINGS
350
28
  3
ACAD_PLOTSTYLENAME
350
4
  3
ACAD_SCALELIST
350
2D
  3
ACAD_VISUALSTYLE
350
2A
  3
ACDBHEADERROUNDTRIPXREC
350
A81
  3
AcDbVariableDictionary
350
94A
  3
DWGPROPS
350
A84
  0
DICTIONARY
  5
A85
330
26
100
AcDbDictionary
280
     1
281
     1
  3
ACAD_XREC_ROUNDTRIP
360
A86
  0
DICTIONARY
  5
22C
330
22B
100
AcDbDictionary
280
     1
281
     1
  3
ADSK_XREC_LAYER_RECONCILED
360
22D
  0
DICTIONARY
  5
18
330
17
100
AcDbDictionary
280
     1
281
     1
  3
ACAD_SORTENTS
360
19
  0
DICTIONARY
  5
29
102
{ACAD_REACTORS
330
5
102
}
330
5
100
AcDbDictionary
281
     1
  0
DICTIONARY
  5
27
102
{ACAD_REACTORS
330
5
102
}
330
5
100
AcDbDictionary
281
     1
  0
DICTIONARY
  5
1E
102
{ACAD_REACTORS
330
5
102
}
330
5
100
AcDbDictionary
281
     1
  3
Model
350
1D
  3
ﾚｲｱｳﾄ1
350
23
  0
DICTIONARY
  5
7
102
{ACAD_REACTORS
330
5
102
}
330
5
100
AcDbDictionary
281
     1
  3
ByBlock
350
50
  3
ByLayer
350
10
  3
Global
350
6
  0
DICTIONARY
  5
94D
102
{ACAD_REACTORS
330
5
102
}
330
5
100
AcDbDictionary
281
     1
  3
Standard
350
A41
  0
DICTIONARY
  5
15
102
{ACAD_REACTORS
330
5
102
}
330
5
100
AcDbDictionary
281
     1
  3
STANDARD
350
14
  0
DICTIONARY
  5
28
102
{ACAD_REACTORS
330
5
102
}
330
5
100
AcDbDictionary
281
     1
  0
ACDBDICTIONARYWDFLT
  5
4
102
{ACAD_REACTORS
330
5
102
}
330
5
100
AcDbDictionary
281
     1
  3
Normal
350
3
100
AcDbDictionaryWithDefault
340
3
  0
DICTIONARY
  5
2D
102
{ACAD_REACTORS
330
5
102
}
330
5
100
AcDbDictionary
281
     1
  3
*A1
350
4F
  0
DICTIONARY
  5
2A
102
{ACAD_REACTORS
330
5
102
}
330
5
100
AcDbDictionary
281
     1
  3
2dWireframe
350
955
  3
Basic
350
958
  3
Brighten
350
95C
  3
ColorChange
350
960
  3
Conceptual
350
95A
  3
Dim
350
95B
  3
EdgeColorOff
350
963
  3
Facepattern
350
95F
  3
Flat
350
951
  3
FlatWithEdges
350
952
  3
Gouraud
350
953
  3
GouraudWithEdges
350
954
  3
Hidden
350
957
  3
JitterOff
350
961
  3
Linepattern
350
95E
  3
OverhangOff
350
962
  3
Realistic
350
959
  3
Shaded
350
968
  3
Shaded with edges
350
967
  3
Shades of Gray
350
964
  3
Sketchy
350
965
  3
Thicken
350
95D
  3
Wireframe
350
956
  3
X-Ray
350
966
  0
DICTIONARY
  5
A81
102
{ACAD_REACTORS
330
5
102
}
330
5
100
AcDbDictionary
281
     1
  3
COLORDICT
350
A82
  3
MATERIALDICT
350
A83
  0
DICTIONARY
  5
94A
102
{ACAD_REACTORS
330
5
102
}
330
5
100
AcDbDictionary
281
     1
  3
CANNOSCALE
350
94B
  3
CMLEADERSTYLE
350
A46
  3
DIMASSOC
350
A7F
  3
HIDETEXT
350
A80
  3
MSLTSCALE
350
A87
  3
XCLIPFRAME
350
94E
  0
XRECORD
  5
A84
102
{ACAD_REACTORS
330
5
102
}
330
5
100
AcDbXrecord
280
     1
  1
DWGPROPS COOKIE
  2

  3

  4

  6

  7

  8
sg-d03
  9

300
=
301
=
302
=
303
=
304
=
305
=
306
=
307
=
308
=
309
=
 40
0.0
 41
2457413.065462003
 42
2458114.165826262
  1

 90
        0
  0
XRECORD
  5
A86
102
{ACAD_REACTORS
330
A85
102
}
330
A85
100
AcDbXrecord
280
     1
102
VTR_0.000_0.000_1.000_1.000_GRIDDISPLAY
 70
     3
102
VTR_0.000_0.000_1.000_1.000_GRIDMAJOR
 70
     5
102
VTR_0.000_0.000_1.000_1.000_DEFAULTLIGHTING
280
     1
102
VTR_0.000_0.000_1.000_1.000_DEFAULTLIGHTINGTYPE
 70
     1
102
VTR_0.000_0.000_1.000_1.000_BRIGHTNESS
141
0.0
102
VTR_0.000_0.000_1.000_1.000_CONTRAST
142
0.0
  0
XRECORD
  5
22D
102
{ACAD_REACTORS
330
22C
102
}
330
22C
100
AcDbXrecord
280
     1
290
     1
  0
SORTENTSTABLE
  5
19
102
{ACAD_REACTORS
330
18
102
}
330
18
100
AcDbSortentsTable
330
17
331
0
  5
311
331
58
  5
3E4
331
5B
  5
3E3
331
5C
  5
3E2
331
5D
  5
3E1
331
5E
  5
3E0
331
5F
  5
3DF
331
60
  5
3DE
331
61
  5
3DD
331
62
  5
3DC
331
63
  5
3DB
331
64
  5
3DA
331
65
  5
3D9
331
66
  5
3D8
331
67
  5
3D7
331
68
  5
3D6
331
69
  5
3D5
331
6A
  5
3D4
331
6B
  5
3D3
331
6C
  5
3D2
331
6D
  5
3D1
331
6E
  5
3D0
331
6F
  5
3CF
331
70
  5
3CE
331
71
  5
3CD
331
72
  5
3CC
331
73
  5
3CB
331
74
  5
3CA
331
75
  5
3C9
331
76
  5
3C8
331
77
  5
3C7
331
78
  5
3C6
331
79
  5
3C5
331
7A
  5
3C4
331
7B
  5
3C3
331
7C
  5
3C2
331
7D
  5
3C1
331
7E
  5
3C0
331
7F
  5
3BF
331
80
  5
3BE
331
81
  5
3BD
331
82
  5
3BC
331
83
  5
3BB
331
84
  5
3BA
331
85
  5
3B9
331
86
  5
3B8
331
87
  5
3B7
331
88
  5
3B6
331
89
  5
3B5
331
8A
  5
3B4
331
8B
  5
3B3
331
8C
  5
3B2
331
8D
  5
3B1
331
8E
  5
3B0
331
8F
  5
3AF
331
90
  5
3AE
331
91
  5
3AD
331
92
  5
3AC
331
93
  5
3AB
331
94
  5
3AA
331
95
  5
3A9
331
96
  5
3A8
331
97
  5
3A7
331
98
  5
3A6
331
99
  5
3A5
331
9A
  5
3A4
331
9B
  5
3A3
331
9C
  5
3A2
331
9D
  5
3A1
331
9E
  5
3A0
331
9F
  5
39F
331
A0
  5
39E
331
A1
  5
39D
331
A2
  5
39C
331
A3
  5
39B
331
A4
  5
39A
331
A5
  5
399
331
A6
  5
398
331
A7
  5
397
331
A8
  5
396
331
A9
  5
395
331
AA
  5
394
331
AB
  5
393
331
AC
  5
392
331
AD
  5
391
331
AE
  5
390
331
AF
  5
38F
331
B0
  5
38E
331
B1
  5
38D
331
B2
  5
38C
331
B3
  5
38B
331
B4
  5
38A
331
B5
  5
389
331
B6
  5
388
331
B7
  5
387
331
B8
  5
386
331
B9
  5
385
331
BA
  5
384
331
BB
  5
383
331
BC
  5
382
331
BD
  5
381
331
BE
  5
380
331
BF
  5
37F
331
C0
  5
37E
331
C1
  5
37D
331
C2
  5
37C
331
C3
  5
37B
331
C4
  5
37A
331
C5
  5
379
331
C6
  5
378
331
C7
  5
377
331
C8
  5
376
331
C9
  5
375
331
CA
  5
374
331
CB
  5
373
331
CC
  5
372
331
CD
  5
371
331
CE
  5
370
331
CF
  5
36F
331
D0
  5
36E
331
D1
  5
36D
331
D2
  5
36C
331
D3
  5
36B
331
D4
  5
36A
331
D5
  5
369
331
D6
  5
368
331
D7
  5
367
331
D8
  5
366
331
D9
  5
365
331
DA
  5
364
331
DB
  5
363
331
DC
  5
362
331
DD
  5
361
331
DE
  5
360
331
DF
  5
35F
331
E0
  5
35E
331
E1
  5
35D
331
E2
  5
35C
331
E3
  5
35B
331
E4
  5
35A
331
E5
  5
359
331
E6
  5
358
331
E7
  5
357
331
E8
  5
356
331
E9
  5
355
331
EA
  5
354
331
EB
  5
353
331
EC
  5
352
331
ED
  5
351
331
EE
  5
350
331
EF
  5
34F
331
F0
  5
34E
331
F1
  5
34D
331
F2
  5
34C
331
F3
  5
34B
331
F4
  5
34A
331
F5
  5
349
331
F6
  5
348
331
F7
  5
347
331
F8
  5
346
331
F9
  5
345
331
FA
  5
344
331
FB
  5
343
331
FC
  5
342
331
FD
  5
341
331
FE
  5
340
331
FF
  5
33F
331
100
  5
33E
331
101
  5
33D
331
102
  5
33C
331
103
  5
33B
331
104
  5
33A
331
105
  5
339
331
106
  5
338
331
107
  5
337
331
108
  5
336
331
109
  5
335
331
10A
  5
334
331
10B
  5
333
331
10C
  5
332
331
10D
  5
331
331
10E
  5
330
331
10F
  5
32F
331
110
  5
32E
331
111
  5
32D
331
112
  5
32C
331
113
  5
32B
331
114
  5
32A
331
115
  5
329
331
116
  5
328
331
117
  5
327
331
118
  5
326
331
119
  5
325
331
11A
  5
324
331
11B
  5
323
331
11C
  5
322
331
11D
  5
321
331
11E
  5
320
331
11F
  5
31F
331
120
  5
31E
331
121
  5
31D
331
122
  5
31C
331
123
  5
31B
331
124
  5
31A
331
125
  5
319
331
126
  5
318
331
127
  5
317
331
128
  5
316
331
129
  5
315
331
12A
  5
314
331
12B
  5
313
331
150
  5
2EE
331
151
  5
2ED
331
152
  5
2EC
331
153
  5
2EB
331
154
  5
2EA
331
155
  5
2E9
331
156
  5
2E8
331
157
  5
2E7
331
158
  5
2E6
331
159
  5
2E5
331
15A
  5
2E4
331
15B
  5
2E3
331
15C
  5
2E2
331
15D
  5
2E1
331
15E
  5
2E0
331
15F
  5
2DF
331
160
  5
2DE
331
161
  5
2DD
331
162
  5
2DC
331
163
  5
2DB
331
164
  5
2DA
331
165
  5
2D9
331
166
  5
2D8
331
167
  5
2D7
331
168
  5
2D6
331
169
  5
2D5
331
16A
  5
2D4
331
16B
  5
2D3
331
16C
  5
2D2
331
16D
  5
2D1
331
16E
  5
2D0
331
16F
  5
2CF
331
170
  5
2CE
331
171
  5
2CD
331
172
  5
2CC
331
173
  5
2CB
331
174
  5
2CA
331
175
  5
2C9
331
176
  5
2C8
331
177
  5
2C7
331
178
  5
2C6
331
179
  5
2C5
331
17A
  5
2C4
331
17B
  5
2C3
331
17C
  5
2C2
331
17D
  5
2C1
331
17E
  5
2C0
331
17F
  5
2BF
331
180
  5
2BE
331
181
  5
2BD
331
182
  5
2BC
331
183
  5
2BB
331
184
  5
2BA
331
185
  5
2B9
331
186
  5
2B8
331
187
  5
2B7
331
188
  5
2B6
331
189
  5
2B5
331
18A
  5
2B4
331
18B
  5
2B3
331
18C
  5
2B2
331
18D
  5
2B1
331
18E
  5
2B0
331
18F
  5
2AF
331
190
  5
2AE
331
191
  5
2AD
331
192
  5
2AC
331
193
  5
2AB
331
194
  5
2AA
331
195
  5
2A9
331
196
  5
2A8
331
197
  5
2A7
331
198
  5
2A6
331
199
  5
2A5
331
19A
  5
2A4
331
19B
  5
2A3
331
19C
  5
2A2
331
19D
  5
2A1
331
19E
  5
2A0
331
19F
  5
29F
331
1A0
  5
29E
331
1A1
  5
29D
331
1A2
  5
29C
331
1A3
  5
29B
331
1A4
  5
29A
331
1A5
  5
299
331
1A6
  5
298
331
1A7
  5
297
331
1A8
  5
296
331
1A9
  5
295
331
1AA
  5
294
331
1AB
  5
293
331
1AC
  5
292
331
1AD
  5
291
331
1AE
  5
290
331
1AF
  5
28F
331
1B0
  5
28E
331
1B1
  5
28D
331
1B2
  5
28C
331
1B3
  5
28B
331
1B4
  5
28A
331
1B5
  5
289
331
1B6
  5
287
331
1B7
  5
286
331
1B8
  5
285
331
1B9
  5
284
331
1BA
  5
283
331
1BB
  5
282
331
1BC
  5
281
331
1BD
  5
280
331
1BE
  5
27F
331
1BF
  5
27E
331
1C0
  5
27D
331
1C1
  5
27C
331
1C2
  5
27B
331
1C3
  5
27A
331
1C4
  5
279
331
1C5
  5
278
331
1C6
  5
277
331
1C7
  5
276
331
1C8
  5
275
331
1C9
  5
274
331
1CA
  5
273
331
1CB
  5
272
331
1CC
  5
271
331
1CD
  5
270
331
1CE
  5
26F
331
1CF
  5
26E
331
1D0
  5
26D
331
1D1
  5
26C
331
1D2
  5
26B
331
1D3
  5
26A
331
1D4
  5
269
331
1D5
  5
268
331
1D6
  5
267
331
1D7
  5
266
331
1D8
  5
265
331
1D9
  5
264
331
0
  5
4E7
331
0
  5
4E8
331
0
  5
4E9
331
0
  5
4EA
331
0
  5
4EB
331
0
  5
4EC
331
0
  5
4ED
331
0
  5
4EE
331
0
  5
4EF
331
0
  5
4F0
331
0
  5
4F1
331
0
  5
4F2
331
0
  5
4F3
331
0
  5
4F4
331
0
  5
4F5
331
0
  5
4F6
331
0
  5
4F7
331
0
  5
4F8
331
4F8
  5
4F9
331
4F9
  5
4FA
331
4FA
  5
4FB
331
4FB
  5
4FC
331
4FC
  5
4FD
331
0
  5
4FE
331
0
  5
4FF
331
0
  5
500
331
500
  5
501
331
0
  5
502
331
502
  5
503
331
0
  5
504
331
0
  5
505
331
0
  5
506
331
0
  5
507
331
0
  5
508
331
0
  5
509
331
0
  5
50A
331
0
  5
50B
331
0
  5
50C
331
0
  5
50D
331
0
  5
50E
331
0
  5
50F
331
0
  5
510
331
0
  5
511
331
511
  5
512
331
0
  5
513
331
0
  5
514
331
0
  5
515
331
0
  5
516
331
0
  5
517
331
0
  5
518
331
0
  5
519
331
0
  5
51A
331
0
  5
51B
331
0
  5
51C
331
0
  5
51D
331
0
  5
51E
331
0
  5
51F
331
0
  5
520
331
0
  5
521
331
0
  5
522
331
0
  5
523
331
0
  5
524
331
0
  5
525
331
0
  5
526
331
0
  5
527
331
0
  5
528
331
0
  5
529
331
0
  5
52A
331
0
  5
52B
331
0
  5
52C
331
0
  5
52D
331
0
  5
52E
331
0
  5
52F
331
0
  5
530
331
0
  5
531
331
0
  5
532
331
0
  5
533
331
533
  5
534
331
0
  5
535
331
0
  5
536
331
0
  5
537
331
537
  5
538
331
0
  5
539
331
539
  5
53A
331
0
  5
53B
331
0
  5
53C
331
0
  5
53D
331
0
  5
541
331
541
  5
542
331
542
  5
544
331
543
  5
546
331
544
  5
547
331
545
  5
548
331
546
  5
549
331
547
  5
54A
331
548
  5
54B
331
549
  5
54C
331
54A
  5
54D
331
54B
  5
54E
331
54C
  5
550
331
54D
  5
551
331
54E
  5
552
331
550
  5
553
331
551
  5
554
331
552
  5
555
331
553
  5
556
331
554
  5
557
331
555
  5
558
331
556
  5
559
331
557
  5
55A
331
558
  5
55B
331
559
  5
55C
331
55A
  5
55D
331
55B
  5
55E
331
55C
  5
55F
331
55D
  5
560
331
55E
  5
561
331
55F
  5
562
331
560
  5
563
331
561
  5
564
331
562
  5
565
331
563
  5
569
331
564
  5
56A
331
565
  5
56B
331
569
  5
56C
331
0
  5
56E
331
0
  5
56F
331
56D
  5
570
331
56E
  5
571
331
56F
  5
572
331
570
  5
573
331
571
  5
574
331
572
  5
575
331
573
  5
576
331
574
  5
577
331
575
  5
579
331
576
  5
57A
331
577
  5
57B
331
579
  5
57C
331
57A
  5
57D
331
57B
  5
57E
331
57C
  5
57F
331
57D
  5
581
331
57E
  5
582
331
57F
  5
583
331
580
  5
584
331
581
  5
585
331
582
  5
586
331
583
  5
587
331
584
  5
588
331
585
  5
589
331
586
  5
58A
331
587
  5
58B
331
588
  5
58C
331
589
  5
58D
331
58A
  5
58E
331
58B
  5
58F
331
58C
  5
590
331
58D
  5
591
331
58E
  5
592
331
58F
  5
593
331
590
  5
594
331
591
  5
595
331
592
  5
596
331
593
  5
597
331
594
  5
598
331
595
  5
599
331
596
  5
59A
331
597
  5
59B
331
598
  5
59C
331
599
  5
59D
331
59A
  5
59E
331
59B
  5
59F
331
59C
  5
5A0
331
59D
  5
5A1
331
59E
  5
5A2
331
59F
  5
5A3
331
5A0
  5
5A4
331
5A1
  5
5A5
331
5A2
  5
5A6
331
5A3
  5
5A7
331
5A4
  5
5A8
331
5A5
  5
5A9
331
5A6
  5
5AA
331
5A7
  5
5AB
331
5A8
  5
5AC
331
5A9
  5
5AD
331
5AA
  5
5AE
331
5AB
  5
5AF
331
5AC
  5
5B0
331
5AD
  5
5B1
331
5AE
  5
5B2
331
5AF
  5
5B3
331
0
  5
5B4
331
0
  5
5B5
331
5B2
  5
5B6
331
5B3
  5
5B7
331
5B4
  5
5B8
331
5B5
  5
5B9
331
5B6
  5
5BA
331
5B7
  5
5BB
331
5B8
  5
5BC
331
5B9
  5
5BD
331
5BA
  5
5BE
331
5BB
  5
5BF
331
5BC
  5
5C0
331
5BD
  5
5C1
331
5BE
  5
5C2
331
5BF
  5
5C3
331
5C0
  5
5C4
331
5C1
  5
5C5
331
0
  5
5C6
331
0
  5
5C7
331
5C4
  5
5C8
331
5C5
  5
5C9
331
5C6
  5
5CA
331
5C7
  5
5CB
331
5C8
  5
5CC
331
5C9
  5
5CD
331
5CA
  5
5CE
331
5CB
  5
5CF
331
5CC
  5
5D0
331
5CD
  5
5D1
331
5CE
  5
5D2
331
5CF
  5
5D3
331
5D0
  5
5D4
331
5D1
  5
5D5
331
5D2
  5
5D6
331
5D3
  5
5D7
331
0
  5
5D8
331
0
  5
5D9
331
0
  5
5DA
331
5DC
  5
5E0
331
5DD
  5
5E1
331
5E0
  5
5E4
331
5E1
  5
5E5
331
5E2
  5
5E6
331
5E3
  5
5E7
331
5E4
  5
5E8
331
5E5
  5
5E9
331
5E6
  5
5EA
331
5E7
  5
5EB
331
5ED
  5
5F1
331
5EE
  5
5F2
331
5EF
  5
5F3
331
5F0
  5
5F4
331
5F3
  5
5F7
331
5F4
  5
5F8
331
5F5
  5
5F9
331
5F6
  5
5FB
331
0
  5
5FD
331
0
  5
602
331
0
  5
605
331
0
  5
606
331
0
  5
608
331
0
  5
609
331
606
  5
60B
331
607
  5
60C
331
608
  5
60D
331
609
  5
60E
331
0
  5
60F
331
0
  5
610
331
60C
  5
611
331
60D
  5
612
331
60E
  5
613
331
60F
  5
614
331
610
  5
615
331
611
  5
616
331
612
  5
618
331
613
  5
619
331
614
  5
61A
331
0
  5
61B
331
0
  5
61C
331
0
  5
61D
331
619
  5
61E
331
61A
  5
61F
331
61B
  5
620
331
61C
  5
621
331
61D
  5
623
331
61E
  5
624
331
61F
  5
625
331
620
  5
626
331
0
  5
629
331
0
  5
62B
331
625
  5
62C
331
62A
  5
62F
331
62B
  5
630
331
62C
  5
631
331
62D
  5
632
331
62E
  5
633
331
62F
  5
634
331
630
  5
635
331
631
  5
636
331
0
  5
63A
331
636
  5
63B
331
0
  5
63C
331
638
  5
63D
331
0
  5
63E
331
0
  5
645
331
0
  5
646
331
0
  5
647
331
0
  5
648
331
0
  5
649
331
0
  5
64A
331
0
  5
64B
331
0
  5
64C
331
0
  5
64D
331
0
  5
64E
331
0
  5
64F
331
0
  5
650
331
0
  5
651
331
0
  5
652
331
0
  5
653
331
64F
  5
659
331
655
  5
65A
331
656
  5
65B
331
657
  5
65C
331
658
  5
65D
331
659
  5
65E
331
65A
  5
65F
331
65B
  5
660
331
0
  5
662
331
65E
  5
663
331
65F
  5
664
331
660
  5
665
331
661
  5
666
331
662
  5
667
331
663
  5
668
331
664
  5
669
331
665
  5
66A
331
666
  5
66B
331
667
  5
66C
331
668
  5
66D
331
669
  5
66E
331
66A
  5
66F
331
66B
  5
670
331
66C
  5
671
331
66D
  5
677
331
673
  5
678
331
674
  5
679
331
675
  5
67A
331
676
  5
67B
331
677
  5
67C
331
678
  5
67D
331
679
  5
67E
331
67A
  5
67F
331
67B
  5
680
331
67C
  5
681
331
67D
  5
682
331
67E
  5
683
331
67F
  5
684
331
680
  5
685
331
681
  5
686
331
682
  5
687
331
683
  5
688
331
684
  5
689
331
685
  5
68A
331
686
  5
68B
331
687
  5
68C
331
688
  5
68D
331
689
  5
68E
331
68A
  5
68F
331
68B
  5
690
331
68C
  5
691
331
68D
  5
692
331
68E
  5
693
331
68F
  5
694
331
690
  5
695
331
691
  5
696
331
692
  5
697
331
693
  5
698
331
694
  5
699
331
695
  5
69A
331
696
  5
69B
331
697
  5
69C
331
698
  5
69D
331
699
  5
69E
331
69A
  5
69F
331
69B
  5
6A0
331
69C
  5
6A1
331
69D
  5
6A2
331
69E
  5
6A3
331
69F
  5
6A4
331
6A0
  5
6A5
331
6A1
  5
6A6
331
6A2
  5
6A7
331
6A3
  5
6A8
331
6A4
  5
6A9
331
6A5
  5
6AA
331
6A6
  5
6AB
331
6A7
  5
6AC
331
6A8
  5
6AD
331
6A9
  5
6AE
331
6AA
  5
6AF
331
6AB
  5
6B5
331
6B1
  5
6B6
331
6B2
  5
6B7
331
6B3
  5
6B8
331
6B4
  5
6B9
331
6B5
  5
6BA
331
6B6
  5
6BB
331
6B7
  5
6BC
331
6B8
  5
6BD
331
6B9
  5
6BE
331
6BA
  5
6BF
331
6BB
  5
6C0
331
6BC
  5
6C1
331
6BD
  5
6C2
331
6BE
  5
6C3
331
6BF
  5
6C4
331
6C0
  5
6C5
331
6C1
  5
6C6
331
6C2
  5
6C7
331
6C3
  5
6CA
331
0
  5
6CB
331
6C7
  5
6CC
331
6C8
  5
6CD
331
6C9
  5
6CE
331
6CA
  5
6CF
331
6CC
  5
6D1
331
6CD
  5
6D2
331
6CE
  5
6D3
331
6CF
  5
6D4
331
6D0
  5
6D5
331
6D1
  5
6D6
331
6D2
  5
6D7
331
6D3
  5
6D8
331
6D4
  5
6D9
331
6D5
  5
6DA
331
6DB
  5
6E0
331
6DC
  5
6E1
331
6DD
  5
6E2
331
6DE
  5
6E3
331
6DF
  5
6E4
331
6E0
  5
6E5
331
6E1
  5
6E6
331
6E2
  5
6E7
331
6E3
  5
6E8
331
6E4
  5
6E9
331
6E5
  5
6EA
331
6E6
  5
6EB
331
6E7
  5
6EC
331
6E8
  5
6ED
331
6E9
  5
6EE
331
6EA
  5
6EF
331
0
  5
6F0
331
6EC
  5
6F1
331
0
  5
6F2
331
0
  5
6F3
331
6EF
  5
6F4
331
6F0
  5
6F5
331
6F1
  5
6F6
331
6F2
  5
6F7
331
6F3
  5
6F8
331
6F4
  5
6F9
331
6F5
  5
6FA
331
6F6
  5
6FB
331
6F7
  5
6FC
331
6F8
  5
6FD
331
6F9
  5
6FE
331
6FA
  5
6FF
331
6FB
  5
700
331
6FC
  5
701
331
6FD
  5
702
331
6FE
  5
703
331
6FF
  5
704
331
700
  5
705
331
701
  5
706
331
702
  5
707
331
703
  5
708
331
704
  5
709
331
705
  5
70A
331
706
  5
70C
331
708
  5
70D
331
709
  5
70E
331
70A
  5
70F
331
70B
  5
710
331
70C
  5
712
331
70E
  5
713
331
70F
  5
714
331
710
  5
715
331
711
  5
716
331
712
  5
717
331
713
  5
718
331
714
  5
719
331
715
  5
71A
331
716
  5
71B
331
717
  5
71C
331
718
  5
71D
331
719
  5
71E
331
0
  5
71F
331
0
  5
720
331
0
  5
721
331
0
  5
722
331
71E
  5
723
331
71F
  5
724
331
720
  5
725
331
721
  5
727
331
723
  5
728
331
724
  5
729
331
725
  5
72A
331
726
  5
72B
331
727
  5
72E
331
72A
  5
72F
331
72B
  5
730
331
72C
  5
731
331
72D
  5
732
331
72E
  5
733
331
72F
  5
734
331
730
  5
735
331
731
  5
736
331
732
  5
737
331
733
  5
738
331
734
  5
739
331
735
  5
73A
331
736
  5
73B
331
737
  5
73C
331
738
  5
73D
331
739
  5
73E
331
73A
  5
73F
331
73B
  5
740
331
73C
  5
742
331
73E
  5
743
331
73F
  5
745
331
741
  5
74A
331
746
  5
74B
331
747
  5
74C
331
748
  5
74D
331
749
  5
74E
331
74A
  5
74F
331
74B
  5
750
331
74C
  5
751
331
74D
  5
752
331
74E
  5
753
331
74F
  5
754
331
750
  5
755
331
751
  5
756
331
752
  5
757
331
753
  5
758
331
754
  5
759
331
755
  5
75A
331
756
  5
75B
331
757
  5
75C
331
758
  5
75D
331
759
  5
75E
331
75A
  5
75F
331
75B
  5
760
331
75C
  5
761
331
75D
  5
762
331
75E
  5
763
331
75F
  5
764
331
760
  5
765
331
761
  5
766
331
762
  5
767
331
763
  5
768
331
764
  5
769
331
765
  5
76A
331
766
  5
76C
331
0
  5
76D
331
769
  5
76E
331
76A
  5
76F
331
76B
  5
770
331
76C
  5
771
331
76D
  5
772
331
76E
  5
773
331
76F
  5
774
331
770
  5
775
331
771
  5
776
331
772
  5
777
331
773
  5
778
331
774
  5
779
331
775
  5
77A
331
776
  5
792
331
0
  5
793
331
78F
  5
794
331
790
  5
795
331
791
  5
796
331
792
  5
797
331
793
  5
798
331
794
  5
799
331
795
  5
79A
331
796
  5
79B
331
797
  5
79C
331
798
  5
79D
331
799
  5
79E
331
79A
  5
79F
331
79B
  5
7A0
331
79C
  5
7A1
331
79D
  5
7A2
331
79E
  5
7A3
331
79F
  5
7A4
331
7A0
  5
7A5
331
7A1
  5
7A6
331
7A2
  5
7A7
331
7A3
  5
7A8
331
7A4
  5
7A9
331
7A5
  5
7AA
331
7A6
  5
7AB
331
7A7
  5
7AC
331
7A8
  5
7AD
331
7A9
  5
7AE
331
7AA
  5
7AF
331
7AB
  5
7B0
331
7AC
  5
7B1
331
7AD
  5
7B2
331
7AE
  5
7B3
331
7AF
  5
7B4
331
7B0
  5
7B5
331
7B1
  5
7B6
331
7B2
  5
7B7
331
7B3
  5
7B8
331
7B4
  5
7B9
331
7B5
  5
7BA
331
7B6
  5
7BB
331
7B7
  5
7BC
331
7B8
  5
7BD
331
7B9
  5
7BE
331
7BA
  5
7BF
331
7BB
  5
7C0
331
7BC
  5
7C1
331
7BD
  5
7C2
331
7BE
  5
7C3
331
7BF
  5
7C4
331
7C0
  5
7C5
331
7C1
  5
7C6
331
7C2
  5
7C7
331
7C3
  5
7C8
331
7C4
  5
7C9
331
7C5
  5
7CA
331
7C6
  5
7CB
331
7C7
  5
7CC
331
7C8
  5
7CD
331
7C9
  5
7CE
331
7CA
  5
7CF
331
7CB
  5
7D0
331
7CC
  5
7D1
331
7CD
  5
7D2
331
7CE
  5
7D3
331
7CF
  5
7D4
331
7D0
  5
7D5
331
7D1
  5
7D6
331
7D2
  5
7D7
331
7D3
  5
7D8
331
7D4
  5
7D9
331
7D5
  5
7DA
331
7D6
  5
7DB
331
7D7
  5
7DC
331
7D8
  5
7DD
331
7D9
  5
7DE
331
7DA
  5
7DF
331
0
  5
7E0
331
0
  5
7E1
331
0
  5
7E2
331
0
  5
7E3
331
0
  5
7E4
331
0
  5
7E5
331
0
  5
7E6
331
0
  5
7E7
331
0
  5
7E8
331
0
  5
7E9
331
0
  5
7EA
331
0
  5
7EB
331
0
  5
7EC
331
0
  5
7ED
331
0
  5
7EE
331
0
  5
7EF
331
0
  5
7F1
331
0
  5
7F2
331
0
  5
7F3
331
0
  5
7F4
331
0
  5
7F5
331
0
  5
7F6
331
0
  5
7F7
331
0
  5
7F8
331
0
  5
7F9
331
0
  5
7FA
331
0
  5
7FB
331
0
  5
7FC
331
0
  5
7FD
331
0
  5
7FE
331
0
  5
7FF
331
0
  5
800
331
0
  5
801
331
0
  5
802
331
0
  5
803
331
0
  5
804
331
0
  5
805
331
0
  5
806
331
0
  5
807
331
0
  5
808
331
0
  5
809
331
0
  5
80A
331
0
  5
80B
331
0
  5
80C
331
0
  5
80D
331
0
  5
80E
331
0
  5
80F
331
0
  5
810
331
0
  5
811
331
0
  5
812
331
0
  5
813
331
0
  5
814
331
0
  5
815
331
0
  5
816
331
0
  5
817
331
0
  5
818
331
0
  5
819
331
0
  5
81A
331
0
  5
81B
331
0
  5
81C
331
0
  5
81D
331
0
  5
81E
331
0
  5
81F
331
0
  5
820
331
0
  5
821
331
0
  5
822
331
0
  5
823
331
0
  5
824
331
0
  5
825
331
0
  5
826
331
0
  5
827
331
0
  5
828
331
0
  5
829
331
0
  5
82A
331
0
  5
82B
331
0
  5
82C
331
0
  5
82D
331
0
  5
82E
331
0
  5
82F
331
0
  5
830
331
0
  5
831
331
0
  5
832
331
0
  5
833
331
0
  5
834
331
0
  5
835
331
0
  5
836
331
0
  5
837
331
0
  5
838
331
0
  5
839
331
0
  5
83A
331
0
  5
83B
331
0
  5
83C
331
0
  5
83D
331
0
  5
83E
331
0
  5
83F
331
0
  5
840
331
0
  5
841
331
0
  5
842
331
0
  5
843
331
0
  5
844
331
0
  5
845
331
0
  5
846
331
0
  5
847
331
0
  5
848
331
0
  5
849
331
0
  5
84A
331
0
  5
84B
331
0
  5
84C
331
0
  5
84D
331
0
  5
84E
331
0
  5
84F
331
0
  5
850
331
0
  5
851
331
0
  5
852
331
0
  5
853
331
0
  5
854
331
0
  5
855
331
0
  5
856
331
0
  5
857
331
0
  5
858
331
0
  5
859
331
0
  5
85A
331
0
  5
85B
331
0
  5
85C
331
0
  5
85D
331
0
  5
85E
331
0
  5
85F
331
0
  5
860
331
0
  5
861
331
0
  5
862
331
0
  5
863
331
0
  5
864
331
0
  5
865
331
0
  5
866
331
0
  5
867
331
0
  5
868
331
0
  5
869
331
0
  5
86A
331
0
  5
86B
331
0
  5
86C
331
0
  5
86D
331
0
  5
86E
331
0
  5
86F
331
0
  5
870
331
0
  5
871
331
0
  5
872
331
0
  5
873
331
0
  5
874
331
0
  5
875
331
0
  5
876
331
0
  5
877
331
0
  5
87A
331
0
  5
87B
331
0
  5
87D
331
0
  5
87E
331
0
  5
87F
331
0
  5
880
331
0
  5
881
331
0
  5
883
331
0
  5
884
331
0
  5
885
331
0
  5
886
331
0
  5
887
331
0
  5
888
331
0
  5
889
331
0
  5
88A
331
0
  5
88B
331
0
  5
88C
331
0
  5
88D
331
0
  5
88E
331
0
  5
88F
331
0
  5
890
331
0
  5
891
331
0
  5
892
331
0
  5
893
331
0
  5
894
331
0
  5
895
331
0
  5
896
331
0
  5
897
331
0
  5
898
331
0
  5
899
331
0
  5
89A
331
0
  5
89B
331
0
  5
89C
331
0
  5
89D
331
0
  5
89E
331
0
  5
89F
331
0
  5
8A0
331
0
  5
8A1
331
0
  5
8A2
331
0
  5
8A3
331
0
  5
8A4
331
0
  5
8A5
331
0
  5
8A6
331
0
  5
8A7
331
0
  5
8A8
331
0
  5
8A9
331
0
  5
8AA
331
0
  5
8AB
331
0
  5
8AC
331
0
  5
8AD
331
0
  5
8AE
331
0
  5
8AF
331
0
  5
8B0
331
0
  5
8B1
331
0
  5
8B2
331
0
  5
8B3
331
0
  5
8B4
331
0
  5
8B5
331
0
  5
8B6
331
0
  5
8B7
331
0
  5
8B8
331
0
  5
8B9
331
0
  5
8BA
331
0
  5
8BB
331
0
  5
8BC
331
0
  5
8BD
331
0
  5
8BE
331
0
  5
8BF
331
0
  5
8C0
331
0
  5
8C1
331
0
  5
8C2
331
0
  5
8C3
331
0
  5
8C4
331
0
  5
8C5
331
0
  5
8C6
331
0
  5
8C7
331
0
  5
8C8
331
0
  5
8C9
331
0
  5
8CA
331
0
  5
8CB
331
0
  5
8CC
331
0
  5
8CD
331
0
  5
8CE
331
0
  5
8CF
331
0
  5
8D0
331
0
  5
8D1
331
0
  5
8D2
331
0
  5
8D3
331
0
  5
8D4
331
0
  5
8D5
331
0
  5
8D6
331
0
  5
8D7
331
0
  5
8D8
331
0
  5
8D9
331
0
  5
8DA
331
0
  5
8DB
331
0
  5
8DC
331
0
  5
8DD
331
0
  5
8DE
331
0
  5
8DF
331
0
  5
8E0
331
0
  5
8E1
331
0
  5
8E2
331
0
  5
8E3
331
0
  5
8E4
331
0
  5
8E5
331
0
  5
8E6
331
0
  5
8E7
331
0
  5
8E8
331
0
  5
8E9
331
0
  5
8EA
331
0
  5
8EB
331
0
  5
8EC
331
0
  5
8ED
331
0
  5
8EE
331
0
  5
8EF
331
0
  5
8F0
331
0
  5
8F1
331
0
  5
8F2
331
0
  5
8F3
331
0
  5
8F4
331
0
  5
8F5
331
0
  5
8F6
331
0
  5
8F7
331
0
  5
8F8
331
0
  5
8F9
331
0
  5
8FA
331
0
  5
8FB
331
0
  5
8FC
331
0
  5
8FD
331
0
  5
8FE
331
0
  5
8FF
331
0
  5
900
331
0
  5
901
331
0
  5
902
331
0
  5
903
331
0
  5
904
331
0
  5
905
331
0
  5
906
331
0
  5
907
331
0
  5
908
331
0
  5
909
331
0
  5
90A
331
0
  5
90B
331
0
  5
90C
331
0
  5
90D
331
0
  5
90E
331
0
  5
90F
331
0
  5
910
331
0
  5
911
331
0
  5
912
331
0
  5
913
331
0
  5
914
331
0
  5
915
331
0
  5
916
331
0
  5
917
331
0
  5
918
331
0
  5
919
331
0
  5
91A
331
0
  5
91B
331
0
  5
91C
331
0
  5
91D
331
0
  5
91E
331
0
  5
91F
331
0
  5
920
331
0
  5
921
331
0
  5
922
331
0
  5
923
331
0
  5
924
331
0
  5
925
331
0
  5
926
331
0
  5
927
331
0
  5
928
331
0
  5
929
331
0
  5
92A
331
0
  5
92B
331
0
  5
92C
331
0
  5
92D
331
0
  5
92E
331
0
  5
92F
331
0
  5
930
331
0
  5
931
331
0
  5
932
331
0
  5
933
331
0
  5
934
331
0
  5
935
331
0
  5
936
331
0
  5
937
331
0
  5
938
331
0
  5
939
331
0
  5
93A
331
0
  5
93B
331
0
  5
93C
331
0
  5
93D
331
0
  5
93E
331
0
  5
93F
331
0
  5
940
331
0
  5
941
331
0
  5
942
331
0
  5
943
331
0
  5
944
331
0
  5
945
331
0
  5
946
331
0
  5
947
331
0
  5
948
331
944
  5
949
331
945
  5
96A
331
946
  5
96C
331
947
  5
96D
331
948
  5
96E
331
949
  5
96F
331
0
  5
970
331
0
  5
971
331
0
  5
972
331
0
  5
973
331
96F
  5
974
331
970
  5
975
331
971
  5
976
331
972
  5
977
331
973
  5
978
331
974
  5
979
331
975
  5
97A
331
976
  5
97B
331
977
  5
97C
331
978
  5
97D
331
979
  5
97E
331
97A
  5
97F
331
97B
  5
980
331
97C
  5
983
331
97D
  5
984
331
97E
  5
985
331
97F
  5
986
331
980
  5
987
331
0
  5
989
331
0
  5
98A
331
0
  5
98B
331
0
  5
98C
331
0
  5
98D
331
0
  5
98E
331
0
  5
98F
331
0
  5
990
331
0
  5
991
331
0
  5
992
331
0
  5
993
331
0
  5
994
331
0
  5
995
331
0
  5
996
331
0
  5
997
331
0
  5
998
331
0
  5
99F
331
99B
  5
9A0
331
99C
  5
9A1
331
99D
  5
9A2
331
99E
  5
9A3
331
99F
  5
9A4
331
9A0
  5
9A5
331
9A1
  5
9A6
331
9A2
  5
9A7
331
9A3
  5
9A8
331
9A4
  5
9A9
331
9A5
  5
9AA
331
9A6
  5
9AB
331
9A7
  5
9AC
331
9A8
  5
9AD
331
9A9
  5
9AF
331
9AA
  5
9B0
331
9AB
  5
9B1
331
9AC
  5
9B2
331
9AD
  5
9DB
331
9D7
  5
9DC
331
9D8
  5
9DD
331
9D9
  5
9DE
331
9DA
  5
9DF
331
9DB
  5
9E0
331
9DC
  5
9E1
331
9DD
  5
9E2
331
9DE
  5
9E3
331
9DF
  5
9E4
331
9E0
  5
9E5
331
9E1
  5
9E6
331
9E2
  5
9E7
331
9E3
  5
9E8
331
9E4
  5
9E9
331
9E5
  5
9EA
331
9E6
  5
9EB
331
9E7
  5
9EC
331
9E8
  5
9ED
331
9E9
  5
9EE
331
9EA
  5
9EF
331
9EB
  5
9F0
331
9EC
  5
9F1
331
9ED
  5
9F2
331
9EE
  5
9F3
331
9EF
  5
9F6
331
9F0
  5
9F7
331
9F1
  5
9FB
331
9F2
  5
9FC
331
9F3
  5
9FD
331
9F4
  5
9FE
331
9F5
  5
9FF
331
9F6
  5
A00
331
0
  5
A02
331
0
  5
A07
331
0
  5
A08
331
0
  5
A09
331
0
  5
A0A
331
0
  5
A0B
331
0
  5
A0C
331
0
  5
A0D
331
0
  5
A0E
331
0
  5
A0F
331
0
  5
A10
331
0
  5
A11
331
0
  5
A12
331
0
  5
A1C
331
0
  5
A45
331
A45
  5
580
331
A47
  5
A4A
331
0
  5
A4B
331
0
  5
A4C
331
0
  5
A4D
331
0
  5
A4E
331
0
  5
A4F
331
0
  5
A50
331
0
  5
A51
331
0
  5
A52
331
0
  5
A53
331
0
  5
A54
331
0
  5
A55
331
0
  5
A56
331
0
  5
A57
331
0
  5
A58
331
0
  5
A59
331
0
  5
A5A
331
0
  5
A5B
331
0
  5
A5C
331
0
  5
A5D
331
0
  5
A5E
331
0
  5
A5F
331
0
  5
A60
331
0
  5
A61
331
0
  5
A62
331
0
  5
A63
331
0
  5
A64
331
0
  5
A65
331
0
  5
A66
331
0
  5
A67
331
0
  5
A68
331
0
  5
A69
331
0
  5
A6A
331
0
  5
A6B
331
0
  5
A6C
331
0
  5
A6D
331
0
  5
A6E
  0
LAYOUT
  5
1D
102
{ACAD_REACTORS
330
1E
102
}
330
1E
100
AcDbPlotSettings
  1

  2
Bullzip PDF Printer.pc3
  4
A3
  6

 40
0.2
 41
0.0
 42
0.0
 43
0.0
 44
420.2
 45
297.1
 46
25.0
 47
12.0
 48
119.9999998100002
 49
0.0
140
2411.99999456
141
1634.999996185
142
1.0
143
6.0
 70
 11936
 72
     1
 73
     0
 74
     4
  7
monochrome.ctb
 75
     0
147
0.1666666666666667
148
-119.9999998100002
149
0.0
100
AcDbLayout
  1
Model
 70
     0
 71
     0
 10
0.0
 20
0.0
 11
12.0
 21
9.0
 12
0.0
 22
0.0
 32
0.0
 14
163.4330557474494
 24
46.79361431732661
 34
0.0
 15
1967.000396650355
 25
1568.725498502165
 35
0.0
146
0.0
 13
0.0
 23
0.0
 33
0.0
 16
1.0
 26
0.0
 36
0.0
 17
0.0
 27
1.0
 37
0.0
 76
     0
330
17
331
2B
1001
ACAD_PSEXT
1000
Bullzip PDF Printer.pc3
1000
Bullzip PDF Printer
1000
BULLZIP
1000
Bullzip PDF Printer 10.1.0.1871
1070
     0
  0
LAYOUT
  5
23
102
{ACAD_REACTORS
330
1E
102
}
330
1E
100
AcDbPlotSettings
  1

  2
SR-LP8300F
  4

  6

 40
0.0
 41
0.0
 42
0.0
 43
0.0
 44
0.0
 45
0.0
 46
0.0
 47
0.0
 48
0.0
 49
0.0
140
0.0
141
0.0
142
1.0
143
1.0
 70
   688
 72
     0
 73
     0
 74
     5
  7
monochrome.ctb
 75
    16
147
1.0
148
0.0
149
0.0
100
AcDbLayout
  1
ﾚｲｱｳﾄ1
 70
     0
 71
     1
 10
0.0
 20
0.0
 11
12.0
 21
9.0
 12
0.0
 22
0.0
 32
0.0
 14
1000000000000000E+20
 24
1000000000000000E+20
 34
1000000000000000E+20
 15
-1000000000000000E+20
 25
-1000000000000000E+20
 35
-1000000000000000E+20
146
0.0
 13
0.0
 23
0.0
 33
0.0
 16
1.0
 26
0.0
 36
0.0
 17
0.0
 27
1.0
 37
0.0
 76
     0
330
20
  0
MATERIAL
  5
50
102
{ACAD_REACTORS
330
7
102
}
102
{ACAD_XDICTIONARY
360
A8C
102
}
330
7
100
AcDbMaterial
  1
ByBlock
  0
MATERIAL
  5
10
102
{ACAD_REACTORS
330
7
102
}
102
{ACAD_XDICTIONARY
360
A88
102
}
330
7
100
AcDbMaterial
  1
ByLayer
  0
MATERIAL
  5
6
102
{ACAD_REACTORS
330
7
102
}
102
{ACAD_XDICTIONARY
360
A8A
102
}
330
7
100
AcDbMaterial
  1
Global
1001
ACAD
1070
    -1
1070
     3
1070
     0
1000

1071
        0
  0
MLEADERSTYLE
  5
A41
102
{ACAD_REACTORS
330
94D
102
}
102
{ACAD_XDICTIONARY
360
ABE
102
}
330
94D
100
AcDbMLeaderStyle
170
     2
171
     1
172
     0
 90
        2
 40
0.0
 41
0.0
173
     1
 91
-1056964608
340
D
 92
       -2
290
     1
 42
0.09
291
     1
 43
0.36
  3
Standard
341
0
 44
0.18
300

342
E
174
     1
178
     6
175
     1
176
     0
 93
-1056964608
 45
0.18
292
     0
297
     0
 46
0.18
343
0
 94
-1056964608
 47
1.0
 49
1.0
140
1.0
293
     1
141
0.0
294
     1
177
     0
142
1.0
295
     0
296
     0
143
0.125
1001
ACAD_MLEADERVER
1070
     2
  0
MLINESTYLE
  5
14
102
{ACAD_REACTORS
330
15
102
}
330
15
100
AcDbMlineStyle
  2
STANDARD
 70
     0
  3

 62
     0
 51
90.0
 52
90.0
 71
     2
 49
0.5
 62
   256
  6
BYLAYER
 49
-0.5
 62
   256
  6
BYLAYER
  0
ACDBPLACEHOLDER
  5
3
102
{ACAD_REACTORS
330
4
102
}
330
4
  0
SCALE
  5
4F
102
{ACAD_REACTORS
330
2D
102
}
330
2D
100
AcDbScale
 70
     0
300
1:1
140
1.0
141
1.0
290
     1
  0
VISUALSTYLE
  5
955
102
{ACAD_REACTORS
330
2A
102
}
102
{ACAD_XDICTIONARY
360
A96
102
}
330
2A
100
AcDbVisualStyle
  2
2dWireframe
 70
     4
 71
     0
 72
     2
 73
     0
 90
        0
 40
0.6
 41
30.0
 62
     5
 63
     7
 74
     1
 91
        4
 64
     7
 65
   257
 75
     1
175
     1
 42
1.0
 92
        0
 66
   257
 43
1.0
 76
     1
 77
     6
 78
     2
 67
     7
 79
     5
170
     0
171
     0
290
     0
174
     0
 93
        1
 44
0.0
173
     0
291
     0
 45
0.0
1001
ACAD
1000
AcDbSavedByObjectVersion
1070
     0
  0
VISUALSTYLE
  5
958
102
{ACAD_REACTORS
330
2A
102
}
102
{ACAD_XDICTIONARY
360
A9C
102
}
330
2A
100
AcDbVisualStyle
  2
Basic
 70
     7
 71
     1
 72
     0
 73
     1
 90
        0
 40
0.6
 41
30.0
 62
     5
 63
     7
 74
     0
 91
        4
 64
     7
 65
   257
 75
     1
175
     1
 42
1.0
 92
        8
 66
     7
 43
1.0
 76
     1
 77
     6
 78
     2
 67
     7
 79
     5
170
     0
171
     0
290
     0
174
     0
 93
        1
 44
0.0
173
     0
291
     1
 45
0.0
1001
ACAD
1000
AcDbSavedByObjectVersion
1070
     0
  0
VISUALSTYLE
  5
95C
102
{ACAD_REACTORS
330
2A
102
}
102
{ACAD_XDICTIONARY
360
AA4
102
}
330
2A
100
AcDbVisualStyle
  2
Brighten
 70
    12
 71
     2
 72
     2
 73
     0
 90
        0
 40
0.6
 41
30.0
 62
     5
 63
     7
 74
     1
 91
        4
 64
     7
 65
   257
 75
     1
175
     1
 42
1.0
 92
        8
 66
     7
 43
1.0
 76
     1
 77
     6
 78
     2
 67
     7
 79
     5
170
     0
171
     0
290
     0
174
     0
 93
        1
 44
50.0
173
     0
291
     1
 45
0.0
1001
ACAD
1000
AcDbSavedByObjectVersion
1070
     0
  0
VISUALSTYLE
  5
960
102
{ACAD_REACTORS
330
2A
102
}
102
{ACAD_XDICTIONARY
360
AAC
102
}
330
2A
100
AcDbVisualStyle
  2
ColorChange
 70
    16
 71
     2
 72
     2
 73
     3
 90
        0
 40
0.6
 41
30.0
 62
     5
 63
     8
 74
     1
 91
        4
 64
     7
 65
   257
 75
     1
175
     1
 42
1.0
 92
        8
 66
     8
 43
1.0
 76
     1
 77
     6
 78
     2
 67
     7
 79
     5
170
     0
171
     0
290
     0
174
     0
 93
        1
 44
0.0
173
     0
291
     1
 45
0.0
1001
ACAD
1000
AcDbSavedByObjectVersion
1070
     0
  0
VISUALSTYLE
  5
95A
102
{ACAD_REACTORS
330
2A
102
}
102
{ACAD_XDICTIONARY
360
AA0
102
}
330
2A
100
AcDbVisualStyle
  2
Conceptual
 70
     9
 71
     3
 72
     2
 73
     0
 90
        0
 40
0.6
 41
30.0
 62
     5
 63
     7
 74
     2
 91
        2
 64
     7
 65
   257
 75
     1
175
     1
 42
40.0
 92
        8
 66
     7
 43
1.0
 76
     1
 77
     6
 78
     2
 67
     7
 79
     3
170
     0
171
     0
290
     0
174
     0
 93
        1
 44
0.0
173
     0
291
     0
 45
0.0
1001
ACAD
1000
AcDbSavedByObjectVersion
1070
     0
  0
VISUALSTYLE
  5
95B
102
{ACAD_REACTORS
330
2A
102
}
102
{ACAD_XDICTIONARY
360
AA2
102
}
330
2A
100
AcDbVisualStyle
  2
Dim
 70
    11
 71
     2
 72
     2
 73
     0
 90
        0
 40
0.6
 41
30.0
 62
     5
 63
     7
 74
     1
 91
        4
 64
     7
 65
   257
 75
     1
175
     1
 42
1.0
 92
        8
 66
     7
 43
1.0
 76
     1
 77
     6
 78
     2
 67
     7
 79
     5
170
     0
171
     0
290
     0
174
     0
 93
        1
 44
-50.0
173
     0
291
     1
 45
0.0
1001
ACAD
1000
AcDbSavedByObjectVersion
1070
     0
  0
VISUALSTYLE
  5
963
102
{ACAD_REACTORS
330
2A
102
}
102
{ACAD_XDICTIONARY
360
AB2
102
}
330
2A
100
AcDbVisualStyle
  2
EdgeColorOff
 70
    22
 71
     2
 72
     2
 73
     0
 90
        0
 40
0.6
 41
30.0
 62
     5
 63
     7
 74
     1
 91
        4
 64
     7
 65
   257
 75
     1
175
     1
 42
1.0
 92
        8
 66
     7
 43
1.0
 76
     1
 77
     6
 78
     2
 67
     7
 79
     5
170
     0
171
     0
290
     0
174
     0
 93
        1
 44
0.0
173
     0
291
     1
 45
0.0
1001
ACAD
1000
AcDbSavedByObjectVersion
1070
     0
  0
VISUALSTYLE
  5
95F
102
{ACAD_REACTORS
330
2A
102
}
102
{ACAD_XDICTIONARY
360
AAA
102
}
330
2A
100
AcDbVisualStyle
  2
Facepattern
 70
    15
 71
     2
 72
     2
 73
     0
 90
        0
 40
0.6
 41
30.0
 62
     5
 63
     7
 74
     1
 91
        4
 64
     7
 65
   257
 75
     1
175
     1
 42
1.0
 92
        8
 66
     7
 43
1.0
 76
     1
 77
     6
 78
     2
 67
     7
 79
     5
170
     0
171
     0
290
     0
174
     0
 93
        1
 44
0.0
173
     0
291
     1
 45
0.0
1001
ACAD
1000
AcDbSavedByObjectVersion
1070
     0
  0
VISUALSTYLE
  5
951
102
{ACAD_REACTORS
330
2A
102
}
102
{ACAD_XDICTIONARY
360
A8E
102
}
330
2A
100
AcDbVisualStyle
  2
Flat
 70
     0
 71
     2
 72
     1
 73
     1
 90
        2
 40
0.6
 41
30.0
 62
     5
 63
     7
 74
     0
 91
        4
 64
     7
 65
   257
 75
     1
175
     1
 42
1.0
 92
        8
 66
     7
 43
1.0
 76
     1
 77
     6
 78
     2
 67
     7
 79
     5
170
     0
171
     0
290
     0
174
     0
 93
       13
 44
0.0
173
     0
291
     1
 45
0.0
1001
ACAD
1000
AcDbSavedByObjectVersion
1070
     0
  0
VISUALSTYLE
  5
952
102
{ACAD_REACTORS
330
2A
102
}
102
{ACAD_XDICTIONARY
360
A90
102
}
330
2A
100
AcDbVisualStyle
  2
FlatWithEdges
 70
     1
 71
     2
 72
     1
 73
     1
 90
        2
 40
0.6
 41
30.0
 62
     5
 63
     7
 74
     1
 91
        4
 64
     7
 65
   257
 75
     1
175
     1
 42
1.0
 92
        0
 66
   257
 43
1.0
 76
     1
 77
     6
 78
     2
 67
     7
 79
     5
170
     0
171
     0
290
     0
174
     0
 93
       13
 44
0.0
173
     0
291
     1
 45
0.0
1001
ACAD
1000
AcDbSavedByObjectVersion
1070
     0
  0
VISUALSTYLE
  5
953
102
{ACAD_REACTORS
330
2A
102
}
102
{ACAD_XDICTIONARY
360
A92
102
}
330
2A
100
AcDbVisualStyle
  2
Gouraud
 70
     2
 71
     2
 72
     2
 73
     1
 90
        2
 40
0.6
 41
30.0
 62
     5
 63
     7
 74
     0
 91
        4
 64
     7
 65
   257
 75
     1
175
     1
 42
1.0
 92
        0
 66
     7
 43
1.0
 76
     1
 77
     6
 78
     2
 67
     7
 79
     5
170
     0
171
     0
290
     0
174
     0
 93
       13
 44
0.0
173
     0
291
     1
 45
0.0
1001
ACAD
1000
AcDbSavedByObjectVersion
1070
     0
  0
VISUALSTYLE
  5
954
102
{ACAD_REACTORS
330
2A
102
}
102
{ACAD_XDICTIONARY
360
A94
102
}
330
2A
100
AcDbVisualStyle
  2
GouraudWithEdges
 70
     3
 71
     2
 72
     2
 73
     1
 90
        2
 40
0.6
 41
30.0
 62
     5
 63
     7
 74
     1
 91
        4
 64
     7
 65
   257
 75
     1
175
     1
 42
1.0
 92
        0
 66
   257
 43
1.0
 76
     1
 77
     6
 78
     2
 67
     7
 79
     5
170
     0
171
     0
290
     0
174
     0
 93
       13
 44
0.0
173
     0
291
     1
 45
0.0
1001
ACAD
1000
AcDbSavedByObjectVersion
1070
     0
  0
VISUALSTYLE
  5
957
102
{ACAD_REACTORS
330
2A
102
}
102
{ACAD_XDICTIONARY
360
A9A
102
}
330
2A
100
AcDbVisualStyle
  2
Hidden
 70
     6
 71
     1
 72
     2
 73
     2
 90
        0
 40
0.6
 41
30.0
 62
     5
 63
     7
 74
     2
 91
        2
 64
     7
 65
   257
 75
     2
175
     1
 42
40.0
 92
        0
 66
   257
 43
1.0
 76
     1
 77
     6
 78
     2
 67
     7
 79
     3
170
     0
171
     0
290
     0
174
     0
 93
        1
 44
0.0
173
     0
291
     0
 45
0.0
1001
ACAD
1000
AcDbSavedByObjectVersion
1070
     0
  0
VISUALSTYLE
  5
961
102
{ACAD_REACTORS
330
2A
102
}
102
{ACAD_XDICTIONARY
360
AAE
102
}
330
2A
100
AcDbVisualStyle
  2
JitterOff
 70
    20
 71
     2
 72
     2
 73
     0
 90
        0
 40
0.6
 41
30.0
 62
     5
 63
     7
 74
     1
 91
        4
 64
     7
 65
   257
 75
     1
175
     1
 42
1.0
 92
       10
 66
     7
 43
1.0
 76
     1
 77
     6
 78
     2
 67
     7
 79
     5
170
     0
171
     0
290
     0
174
     0
 93
        1
 44
0.0
173
     0
291
     1
 45
0.0
1001
ACAD
1000
AcDbSavedByObjectVersion
1070
     0
  0
VISUALSTYLE
  5
95E
102
{ACAD_REACTORS
330
2A
102
}
102
{ACAD_XDICTIONARY
360
AA8
102
}
330
2A
100
AcDbVisualStyle
  2
Linepattern
 70
    14
 71
     2
 72
     2
 73
     0
 90
        0
 40
0.6
 41
30.0
 62
     5
 63
     7
 74
     1
 91
        4
 64
     7
 65
   257
 75
     7
175
     7
 42
1.0
 92
        8
 66
     7
 43
1.0
 76
     1
 77
     6
 78
     2
 67
     7
 79
     5
170
     0
171
     0
290
     0
174
     0
 93
        1
 44
0.0
173
     0
291
     1
 45
0.0
1001
ACAD
1000
AcDbSavedByObjectVersion
1070
     0
  0
VISUALSTYLE
  5
962
102
{ACAD_REACTORS
330
2A
102
}
102
{ACAD_XDICTIONARY
360
AB0
102
}
330
2A
100
AcDbVisualStyle
  2
OverhangOff
 70
    21
 71
     2
 72
     2
 73
     0
 90
        0
 40
0.6
 41
30.0
 62
     5
 63
     7
 74
     1
 91
        4
 64
     7
 65
   257
 75
     1
175
     1
 42
1.0
 92
        9
 66
     7
 43
1.0
 76
     1
 77
     6
 78
     2
 67
     7
 79
     5
170
     0
171
     0
290
     0
174
     0
 93
        1
 44
0.0
173
     0
291
     1
 45
0.0
1001
ACAD
1000
AcDbSavedByObjectVersion
1070
     0
  0
VISUALSTYLE
  5
959
102
{ACAD_REACTORS
330
2A
102
}
102
{ACAD_XDICTIONARY
360
A9E
102
}
330
2A
100
AcDbVisualStyle
  2
Realistic
 70
     8
 71
     2
 72
     3
 73
     0
 90
        2
 40
0.6
 41
30.0
 62
     5
 63
     7
 74
     0
 91
        0
 64
     7
 65
   257
 75
     1
175
     1
 42
1.0
 92
        8
 66
   257
 43
1.0
 76
     1
 77
     6
 78
     2
 67
     7
 79
     3
170
     0
171
     0
290
     0
174
     0
 93
       13
 44
0.0
173
     0
291
     0
 45
0.0
1001
ACAD
1000
AcDbSavedByObjectVersion
1070
     0
  0
VISUALSTYLE
  5
968
102
{ACAD_REACTORS
330
2A
102
}
102
{ACAD_XDICTIONARY
360
ABC
102
}
330
2A
100
AcDbVisualStyle
  2
Shaded
 70
    27
 71
     2
 72
     2
 73
     1
 90
        2
 40
0.6
 41
30.0
 62
     5
 63
     7
 74
     0
 91
        4
 64
     7
 65
   257
 75
     1
175
     1
 42
1.0
 92
        8
 66
   257
 43
1.0
 76
     1
 77
     6
 78
     2
 67
   251
 79
     3
170
     0
171
     0
290
     0
174
     0
 93
        5
 44
0.0
173
     0
291
     0
 45
0.0
1001
ACAD
1000
AcDbSavedByObjectVersion
1070
     0
  0
VISUALSTYLE
  5
967
102
{ACAD_REACTORS
330
2A
102
}
102
{ACAD_XDICTIONARY
360
ABA
102
}
330
2A
100
AcDbVisualStyle
  2
Shaded with edges
 70
    26
 71
     2
 72
     2
 73
     1
 90
        2
 40
0.6
 41
30.0
 62
     5
 63
     7
 74
     1
 91
       10
 64
     7
 65
   257
 75
     2
175
     1
 42
1.0
 92
        8
 66
   257
 43
1.0
 76
     1
 77
     6
 78
     2
 67
     7
 79
     3
170
     0
171
     0
290
     0
174
     0
 93
        5
 44
0.0
173
     0
291
     0
 45
0.0
1001
ACAD
1000
AcDbSavedByObjectVersion
1070
     0
  0
VISUALSTYLE
  5
964
102
{ACAD_REACTORS
330
2A
102
}
102
{ACAD_XDICTIONARY
360
AB4
102
}
330
2A
100
AcDbVisualStyle
  2
Shades of Gray
 70
    23
 71
     2
 72
     2
 73
     3
 90
        0
 40
0.6
 41
30.0
 62
     5
 63
     7
 74
     2
 91
        2
 64
     7
 65
     7
 75
     1
175
     1
 42
40.0
 92
        8
 66
     7
 43
1.0
 76
     1
 77
     6
 78
     2
 67
     7
 79
     3
170
     0
171
     0
290
     0
174
     0
 93
        1
 44
0.0
173
     0
291
     0
 45
0.0
1001
ACAD
1000
AcDbSavedByObjectVersion
1070
     0
  0
VISUALSTYLE
  5
965
102
{ACAD_REACTORS
330
2A
102
}
102
{ACAD_XDICTIONARY
360
AB6
102
}
330
2A
100
AcDbVisualStyle
  2
Sketchy
 70
    24
 71
     1
 72
     2
 73
     2
 90
        0
 40
0.6
 41
30.0
 62
     5
 63
     7
 74
     2
 91
        2
 64
     7
 65
     7
 75
     1
175
     1
 42
40.0
 92
       11
 66
     7
 43
1.0
 76
     1
 77
     6
 78
     2
 67
     7
 79
     6
170
     0
171
     0
290
     0
174
     0
 93
        1
 44
0.0
173
     0
291
     0
 45
0.0
1001
ACAD
1000
AcDbSavedByObjectVersion
1070
     0
  0
VISUALSTYLE
  5
95D
102
{ACAD_REACTORS
330
2A
102
}
102
{ACAD_XDICTIONARY
360
AA6
102
}
330
2A
100
AcDbVisualStyle
  2
Thicken
 70
    13
 71
     2
 72
     2
 73
     0
 90
        0
 40
0.6
 41
30.0
 62
     5
 63
     7
 74
     1
 91
        4
 64
     7
 65
   257
 75
     1
175
     1
 42
1.0
 92
       12
 66
     7
 43
1.0
 76
     1
 77
     6
 78
     2
 67
     7
 79
     5
170
     0
171
     0
290
     0
174
     0
 93
        1
 44
0.0
173
     0
291
     1
 45
0.0
1001
ACAD
1000
AcDbSavedByObjectVersion
1070
     0
  0
VISUALSTYLE
  5
956
102
{ACAD_REACTORS
330
2A
102
}
102
{ACAD_XDICTIONARY
360
A98
102
}
330
2A
100
AcDbVisualStyle
  2
Wireframe
 70
     5
 71
     0
 72
     2
 73
     0
 90
        0
 40
0.6
 41
30.0
 62
     5
 63
     7
 74
     1
 91
        4
 64
     7
 65
   257
 75
     1
175
     1
 42
1.0
 92
        0
 66
   257
 43
1.0
 76
     1
 77
     6
 78
     2
 67
     7
 79
     5
170
     0
171
     0
290
     0
174
     0
 93
        1
 44
0.0
173
     0
291
     0
 45
0.0
1001
ACAD
1000
AcDbSavedByObjectVersion
1070
     0
  0
VISUALSTYLE
  5
966
102
{ACAD_REACTORS
330
2A
102
}
102
{ACAD_XDICTIONARY
360
AB8
102
}
330
2A
100
AcDbVisualStyle
  2
X-Ray
 70
    25
 71
     2
 72
     2
 73
     1
 90
        1
 40
0.5
 41
30.0
 62
     5
 63
     7
 74
     1
 91
        0
 64
     7
 65
   257
 75
     1
175
     1
 42
1.0
 92
        8
 66
     7
 43
1.0
 76
     1
 77
     6
 78
     2
 67
     7
 79
     3
170
     0
171
     0
290
     0
174
     0
 93
       13
 44
0.0
173
     0
291
     0
 45
0.0
1001
ACAD
1000
AcDbSavedByObjectVersion
1070
     0
  0
XRECORD
  5
A82
102
{ACAD_REACTORS
330
A81
102
}
330
A81
100
AcDbXrecord
280
     1
340
29
  0
XRECORD
  5
A83
102
{ACAD_REACTORS
330
A81
102
}
330
A81
100
AcDbXrecord
280
     1
340
7
  0
DICTIONARYVAR
  5
94B
102
{ACAD_REACTORS
330
94A
102
}
330
94A
100
DictionaryVariables
280
     0
  1
1:1
  0
DICTIONARYVAR
  5
A46
102
{ACAD_REACTORS
330
94A
102
}
330
94A
100
DictionaryVariables
280
     0
  1
Standard
  0
DICTIONARYVAR
  5
A7F
102
{ACAD_REACTORS
330
94A
102
}
330
94A
100
DictionaryVariables
280
     0
  1
0
  0
DICTIONARYVAR
  5
A80
102
{ACAD_REACTORS
330
94A
102
}
330
94A
100
DictionaryVariables
280
     0
  1
1
  0
DICTIONARYVAR
  5
A87
102
{ACAD_REACTORS
330
94A
102
}
330
94A
100
DictionaryVariables
280
     0
  1
1
  0
DICTIONARYVAR
  5
94E
102
{ACAD_REACTORS
330
94A
102
}
330
94A
100
DictionaryVariables
280
     0
  1
0
  0
DICTIONARY
  5
A8C
330
50
100
AcDbDictionary
280
     1
281
     1
  3
ACAD_XREC_ROUNDTRIP
360
A8D
  0
DICTIONARY
  5
A88
330
10
100
AcDbDictionary
280
     1
281
     1
  3
ACAD_XREC_ROUNDTRIP
360
A89
  0
DICTIONARY
  5
A8A
330
6
100
AcDbDictionary
280
     1
281
     1
  3
ACAD_XREC_ROUNDTRIP
360
A8B
  0
DICTIONARY
  5
ABE
330
A41
100
AcDbDictionary
280
     1
281
     1
  3
ACAD_XREC_ROUNDTRIP
360
ABF
  0
DICTIONARY
  5
A96
330
955
100
AcDbDictionary
280
     1
281
     1
  3
ACAD_XREC_ROUNDTRIP
360
A97
  0
DICTIONARY
  5
A9C
330
958
100
AcDbDictionary
280
     1
281
     1
  3
ACAD_XREC_ROUNDTRIP
360
A9D
  0
DICTIONARY
  5
AA4
330
95C
100
AcDbDictionary
280
     1
281
     1
  3
ACAD_XREC_ROUNDTRIP
360
AA5
  0
DICTIONARY
  5
AAC
330
960
100
AcDbDictionary
280
     1
281
     1
  3
ACAD_XREC_ROUNDTRIP
360
AAD
  0
DICTIONARY
  5
AA0
330
95A
100
AcDbDictionary
280
     1
281
     1
  3
ACAD_XREC_ROUNDTRIP
360
AA1
  0
DICTIONARY
  5
AA2
330
95B
100
AcDbDictionary
280
     1
281
     1
  3
ACAD_XREC_ROUNDTRIP
360
AA3
  0
DICTIONARY
  5
AB2
330
963
100
AcDbDictionary
280
     1
281
     1
  3
ACAD_XREC_ROUNDTRIP
360
AB3
  0
DICTIONARY
  5
AAA
330
95F
100
AcDbDictionary
280
     1
281
     1
  3
ACAD_XREC_ROUNDTRIP
360
AAB
  0
DICTIONARY
  5
A8E
330
951
100
AcDbDictionary
280
     1
281
     1
  3
ACAD_XREC_ROUNDTRIP
360
A8F
  0
DICTIONARY
  5
A90
330
952
100
AcDbDictionary
280
     1
281
     1
  3
ACAD_XREC_ROUNDTRIP
360
A91
  0
DICTIONARY
  5
A92
330
953
100
AcDbDictionary
280
     1
281
     1
  3
ACAD_XREC_ROUNDTRIP
360
A93
  0
DICTIONARY
  5
A94
330
954
100
AcDbDictionary
280
     1
281
     1
  3
ACAD_XREC_ROUNDTRIP
360
A95
  0
DICTIONARY
  5
A9A
330
957
100
AcDbDictionary
280
     1
281
     1
  3
ACAD_XREC_ROUNDTRIP
360
A9B
  0
DICTIONARY
  5
AAE
330
961
100
AcDbDictionary
280
     1
281
     1
  3
ACAD_XREC_ROUNDTRIP
360
AAF
  0
DICTIONARY
  5
AA8
330
95E
100
AcDbDictionary
280
     1
281
     1
  3
ACAD_XREC_ROUNDTRIP
360
AA9
  0
DICTIONARY
  5
AB0
330
962
100
AcDbDictionary
280
     1
281
     1
  3
ACAD_XREC_ROUNDTRIP
360
AB1
  0
DICTIONARY
  5
A9E
330
959
100
AcDbDictionary
280
     1
281
     1
  3
ACAD_XREC_ROUNDTRIP
360
A9F
  0
DICTIONARY
  5
ABC
330
968
100
AcDbDictionary
280
     1
281
     1
  3
ACAD_XREC_ROUNDTRIP
360
ABD
  0
DICTIONARY
  5
ABA
330
967
100
AcDbDictionary
280
     1
281
     1
  3
ACAD_XREC_ROUNDTRIP
360
ABB
  0
DICTIONARY
  5
AB4
330
964
100
AcDbDictionary
280
     1
281
     1
  3
ACAD_XREC_ROUNDTRIP
360
AB5
  0
DICTIONARY
  5
AB6
330
965
100
AcDbDictionary
280
     1
281
     1
  3
ACAD_XREC_ROUNDTRIP
360
AB7
  0
DICTIONARY
  5
AA6
330
95D
100
AcDbDictionary
280
     1
281
     1
  3
ACAD_XREC_ROUNDTRIP
360
AA7
  0
DICTIONARY
  5
A98
330
956
100
AcDbDictionary
280
     1
281
     1
  3
ACAD_XREC_ROUNDTRIP
360
A99
  0
DICTIONARY
  5
AB8
330
966
100
AcDbDictionary
280
     1
281
     1
  3
ACAD_XREC_ROUNDTRIP
360
AB9
  0
XRECORD
  5
A8D
102
{ACAD_REACTORS
330
A8C
102
}
330
A8C
100
AcDbXrecord
280
     1
102
MATERIAL
148
0.0
149
0.0
149
0.0
 93
        0
 94
      127
282
     0
 72
     1
 77
     1
171
     1
175
     1
179
     1
273
     0
  0
XRECORD
  5
A89
102
{ACAD_REACTORS
330
A88
102
}
330
A88
100
AcDbXrecord
280
     1
102
MATERIAL
148
0.0
149
0.0
149
0.0
 93
        0
 94
      127
282
     0
 72
     1
 77
     1
171
     1
175
     1
179
     1
273
     0
  0
XRECORD
  5
A8B
102
{ACAD_REACTORS
330
A8A
102
}
330
A8A
100
AcDbXrecord
280
     1
102
MATERIAL
148
0.0
149
0.0
149
0.0
 93
        0
 94
      127
282
     0
 72
     1
 77
     1
171
     1
175
     1
179
     1
273
     0
  0
XRECORD
  5
ABF
102
{ACAD_REACTORS
330
ABE
102
}
330
ABE
100
AcDbXrecord
280
     1
102
ACAD_ROUNDTRIP_2010_MLEADER_STYLE
  0
XRECORD
  5
A97
102
{ACAD_REACTORS
330
A96
102
}
330
A96
100
AcDbXrecord
280
     1
102
RTVSPropertyOp0
 70
     1
102
RTVSPropertyOp1
 70
     1
102
RTVSPropertyOp2
 70
     1
102
RTVSPropertyOp3
 70
     1
102
RTVSPropertyOp4
 70
     1
102
RTVSPropertyOp5
 70
     1
102
RTVSPropertyOp6
 70
     1
102
RTVSPropertyOp7
 70
     1
102
RTVSPropertyOp8
 70
     1
102
RTVSPropertyOp9
 70
     1
102
RTVSPropertyOp10
 70
     1
102
RTVSPropertyOp11
 70
     1
102
RTVSPropertyOp12
 70
     1
102
RTVSPropertyOp13
 70
     1
102
RTVSPropertyOp14
 70
     1
102
RTVSPropertyOp15
 70
     1
102
RTVSPropertyOp16
 70
     1
102
RTVSPropertyOp17
 70
     1
102
RTVSPropertyOp18
 70
     1
102
RTVSPropertyOp19
 70
     1
102
RTVSPropertyOp20
 70
     1
102
RTVSPropertyOp21
 70
     1
102
RTVSPropertyOp22
 70
     1
102
RTVSPropertyOp23
 70
     1
102
RTVSPropertyOp24
 70
     1
102
RTVSPropertyOp25
 70
     1
102
RTVSPropertyOp26
 70
     1
102
RTVSPropertyOp27
 70
     1
102
RTVSPropertyOp28
 70
     1
102
RTVSPropertyOp29
 70
     1
102
RTVSPropertyOp30
 70
     1
102
RTVSPropertyOp31
 70
     1
102
RTVSPropertyOp32
 70
     1
102
RTVSPropertyOp33
 70
     1
102
RTVSPropertyOp34
 70
     1
102
RTVSPropertyOp35
 70
     1
102
RTVSPropertyOp36
 70
     1
102
RTVSPropertyOp37
 70
     1
102
RTVSPropertyOp38
 70
     1
102
RTVSPropertyOp39
 70
     1
102
RTVSPropertyOp40
 70
     1
102
RTVSPropertyOp41
 70
     1
102
RTVSPropertyOp42
 70
     1
102
RTVSPropertyOp43
 70
     1
102
RTVSPropertyOp44
 70
     1
102
RTVSPropertyOp45
 70
     1
102
RTVSPropertyOp46
 70
     1
102
RTVSPropertyOp47
 70
     1
102
RTVSPropertyOp48
 70
     1
102
RTVSPropertyOp49
 70
     1
102
RTVSPropertyOp50
 70
     1
102
RTVSPropertyOp51
 70
     0
102
RTVSPropertyOp52
 70
     0
102
RTVSPropertyOp53
 70
     1
102
RTVSPropertyOp54
 70
     1
102
RTVSPropertyOp55
 70
     1
102
RTVSPropertyOp56
 70
     1
102
RTVSPropertyOp57
 70
     1
102
RTVSPost2010Prop28
280
     1
102
RTVSPost2010PropOp28
 70
     1
102
RTVSPost2010Prop29
280
     1
102
RTVSPost2010PropOp29
 70
     1
102
RTVSPost2010Prop30
280
     0
102
RTVSPost2010PropOp30
 70
     1
102
RTVSPost2010Prop31
280
     0
102
RTVSPost2010PropOp31
 70
     1
102
RTVSPost2010Prop32
280
     0
102
RTVSPost2010PropOp32
 70
     1
102
RTVSPost2010Prop33
280
     0
102
RTVSPost2010PropOp33
 70
     1
102
RTVSPost2010Prop34
280
     0
102
RTVSPost2010PropOp34
 70
     1
102
RTVSPost2010Prop35
280
     0
102
RTVSPost2010PropOp35
 70
     1
102
RTVSPost2010Prop36
280
     0
102
RTVSPost2010PropOp36
 70
     1
102
RTVSPost2010Prop37
 90
       50
102
RTVSPost2010PropOp37
 70
     1
102
RTVSPost2010Prop38
140
0.0
102
RTVSPost2010PropOp38
 70
     1
102
RTVSPost2010Prop39
140
1.0
102
RTVSPost2010PropOp39
 70
     1
102
RTVSPost2010Prop40
 90
        0
102
RTVSPost2010PropOp40
 70
     1
102
RTVSPost2010Prop41ColorIndex
 90
       18
102
RTVSPost2010Prop41ColorRGB
 90
        0
102
RTVSPost2010PropOp41
 70
     1
102
RTVSPost2010Prop42
 90
       50
102
RTVSPost2010PropOp42
 70
     1
102
RTVSPost2010Prop43
 90
        3
102
RTVSPost2010PropOp43
 70
     1
102
RTVSPost2010Prop44ColorIndex
 90
        5
102
RTVSPost2010Prop44ColorRGB
 90
      255
102
RTVSPost2010PropOp44
 70
     1
102
RTVSPost2010Prop45
280
     0
102
RTVSPost2010PropOp45
 70
     1
102
RTVSPost2010Prop46
 90
       50
102
RTVSPost2010PropOp46
 70
     1
102
RTVSPost2010Prop47
 90
       50
102
RTVSPost2010PropOp47
 70
     1
102
RTVSPost2010Prop48
 90
       50
102
RTVSPost2010PropOp48
 70
     1
102
RTVSPost2010Prop49
280
     0
102
RTVSPost2010PropOp49
 70
     1
102
RTVSPost2010Prop50
 90
       50
102
RTVSPost2010PropOp50
 70
     1
102
RTVSPost2010Prop51ColorIndex
 90
      256
102
RTVSPost2010Prop51ColorRGB
 90
-16777216
102
RTVSPost2010PropOp51
 70
     0
102
RTVSPost2010Prop52
140
1.0
102
RTVSPost2010PropOp52
 70
     0
102
RTVSPost2010Prop53
 90
        2
102
RTVSPost2010PropOp53
 70
     1
102
RTVSPost2010Prop54
  1
strokes_ogs.tif
102
RTVSPost2010PropOp54
 70
     1
102
RTVSPost2010Prop55
280
     0
102
RTVSPost2010PropOp55
 70
     1
102
RTVSPost2010Prop56
140
1.0
102
RTVSPost2010PropOp56
 70
     1
102
RTVSPost2010Prop57
140
1.0
102
RTVSPost2010PropOp57
 70
     1
  0
XRECORD
  5
A9D
102
{ACAD_REACTORS
330
A9C
102
}
330
A9C
100
AcDbXrecord
280
     1
102
RTVSPropertyOp0
 70
     1
102
RTVSPropertyOp1
 70
     1
102
RTVSPropertyOp2
 70
     1
102
RTVSPropertyOp3
 70
     1
102
RTVSPropertyOp4
 70
     1
102
RTVSPropertyOp5
 70
     1
102
RTVSPropertyOp6
 70
     1
102
RTVSPropertyOp7
 70
     1
102
RTVSPropertyOp8
 70
     1
102
RTVSPropertyOp9
 70
     1
102
RTVSPropertyOp10
 70
     1
102
RTVSPropertyOp11
 70
     1
102
RTVSPropertyOp12
 70
     1
102
RTVSPropertyOp13
 70
     1
102
RTVSPropertyOp14
 70
     1
102
RTVSPropertyOp15
 70
     1
102
RTVSPropertyOp16
 70
     1
102
RTVSPropertyOp17
 70
     1
102
RTVSPropertyOp18
 70
     1
102
RTVSPropertyOp19
 70
     1
102
RTVSPropertyOp20
 70
     1
102
RTVSPropertyOp21
 70
     1
102
RTVSPropertyOp22
 70
     1
102
RTVSPropertyOp23
 70
     1
102
RTVSPropertyOp24
 70
     1
102
RTVSPropertyOp25
 70
     1
102
RTVSPropertyOp26
 70
     1
102
RTVSPropertyOp27
 70
     1
102
RTVSPropertyOp28
 70
     1
102
RTVSPropertyOp29
 70
     1
102
RTVSPropertyOp30
 70
     1
102
RTVSPropertyOp31
 70
     1
102
RTVSPropertyOp32
 70
     1
102
RTVSPropertyOp33
 70
     1
102
RTVSPropertyOp34
 70
     1
102
RTVSPropertyOp35
 70
     1
102
RTVSPropertyOp36
 70
     1
102
RTVSPropertyOp37
 70
     1
102
RTVSPropertyOp38
 70
     1
102
RTVSPropertyOp39
 70
     1
102
RTVSPropertyOp40
 70
     1
102
RTVSPropertyOp41
 70
     1
102
RTVSPropertyOp42
 70
     1
102
RTVSPropertyOp43
 70
     1
102
RTVSPropertyOp44
 70
     1
102
RTVSPropertyOp45
 70
     1
102
RTVSPropertyOp46
 70
     1
102
RTVSPropertyOp47
 70
     1
102
RTVSPropertyOp48
 70
     1
102
RTVSPropertyOp49
 70
     1
102
RTVSPropertyOp50
 70
     1
102
RTVSPropertyOp51
 70
     0
102
RTVSPropertyOp52
 70
     0
102
RTVSPropertyOp53
 70
     1
102
RTVSPropertyOp54
 70
     1
102
RTVSPropertyOp55
 70
     1
102
RTVSPropertyOp56
 70
     1
102
RTVSPropertyOp57
 70
     1
102
RTVSPost2010Prop28
280
     0
102
RTVSPost2010PropOp28
 70
     1
102
RTVSPost2010Prop29
280
     1
102
RTVSPost2010PropOp29
 70
     1
102
RTVSPost2010Prop30
280
     1
102
RTVSPost2010PropOp30
 70
     1
102
RTVSPost2010Prop31
280
     0
102
RTVSPost2010PropOp31
 70
     1
102
RTVSPost2010Prop32
280
     0
102
RTVSPost2010PropOp32
 70
     1
102
RTVSPost2010Prop33
280
     0
102
RTVSPost2010PropOp33
 70
     1
102
RTVSPost2010Prop34
280
     0
102
RTVSPost2010PropOp34
 70
     1
102
RTVSPost2010Prop35
280
     0
102
RTVSPost2010PropOp35
 70
     1
102
RTVSPost2010Prop36
280
     0
102
RTVSPost2010PropOp36
 70
     1
102
RTVSPost2010Prop37
 90
       50
102
RTVSPost2010PropOp37
 70
     1
102
RTVSPost2010Prop38
140
0.0
102
RTVSPost2010PropOp38
 70
     1
102
RTVSPost2010Prop39
140
1.0
102
RTVSPost2010PropOp39
 70
     1
102
RTVSPost2010Prop40
 90
        0
102
RTVSPost2010PropOp40
 70
     1
102
RTVSPost2010Prop41ColorIndex
 90
       18
102
RTVSPost2010Prop41ColorRGB
 90
        0
102
RTVSPost2010PropOp41
 70
     1
102
RTVSPost2010Prop42
 90
       50
102
RTVSPost2010PropOp42
 70
     1
102
RTVSPost2010Prop43
 90
        3
102
RTVSPost2010PropOp43
 70
     1
102
RTVSPost2010Prop44ColorIndex
 90
        5
102
RTVSPost2010Prop44ColorRGB
 90
      255
102
RTVSPost2010PropOp44
 70
     1
102
RTVSPost2010Prop45
280
     0
102
RTVSPost2010PropOp45
 70
     1
102
RTVSPost2010Prop46
 90
       50
102
RTVSPost2010PropOp46
 70
     1
102
RTVSPost2010Prop47
 90
       50
102
RTVSPost2010PropOp47
 70
     1
102
RTVSPost2010Prop48
 90
       50
102
RTVSPost2010PropOp48
 70
     1
102
RTVSPost2010Prop49
280
     0
102
RTVSPost2010PropOp49
 70
     1
102
RTVSPost2010Prop50
 90
       50
102
RTVSPost2010PropOp50
 70
     1
102
RTVSPost2010Prop51ColorIndex
 90
      256
102
RTVSPost2010Prop51ColorRGB
 90
-16777216
102
RTVSPost2010PropOp51
 70
     0
102
RTVSPost2010Prop52
140
1.0
102
RTVSPost2010PropOp52
 70
     0
102
RTVSPost2010Prop53
 90
        2
102
RTVSPost2010PropOp53
 70
     1
102
RTVSPost2010Prop54
  1
strokes_ogs.tif
102
RTVSPost2010PropOp54
 70
     1
102
RTVSPost2010Prop55
280
     0
102
RTVSPost2010PropOp55
 70
     1
102
RTVSPost2010Prop56
140
1.0
102
RTVSPost2010PropOp56
 70
     1
102
RTVSPost2010Prop57
140
1.0
102
RTVSPost2010PropOp57
 70
     1
  0
XRECORD
  5
AA5
102
{ACAD_REACTORS
330
AA4
102
}
330
AA4
100
AcDbXrecord
280
     1
102
RTVSPropertyOp0
 70
     1
102
RTVSPropertyOp1
 70
     1
102
RTVSPropertyOp2
 70
     1
102
RTVSPropertyOp3
 70
     1
102
RTVSPropertyOp4
 70
     1
102
RTVSPropertyOp5
 70
     1
102
RTVSPropertyOp6
 70
     1
102
RTVSPropertyOp7
 70
     1
102
RTVSPropertyOp8
 70
     1
102
RTVSPropertyOp9
 70
     1
102
RTVSPropertyOp10
 70
     1
102
RTVSPropertyOp11
 70
     1
102
RTVSPropertyOp12
 70
     1
102
RTVSPropertyOp13
 70
     1
102
RTVSPropertyOp14
 70
     1
102
RTVSPropertyOp15
 70
     1
102
RTVSPropertyOp16
 70
     1
102
RTVSPropertyOp17
 70
     1
102
RTVSPropertyOp18
 70
     1
102
RTVSPropertyOp19
 70
     1
102
RTVSPropertyOp20
 70
     1
102
RTVSPropertyOp21
 70
     1
102
RTVSPropertyOp22
 70
     1
102
RTVSPropertyOp23
 70
     1
102
RTVSPropertyOp24
 70
     1
102
RTVSPropertyOp25
 70
     1
102
RTVSPropertyOp26
 70
     1
102
RTVSPropertyOp27
 70
     1
102
RTVSPropertyOp28
 70
     1
102
RTVSPropertyOp29
 70
     1
102
RTVSPropertyOp30
 70
     1
102
RTVSPropertyOp31
 70
     1
102
RTVSPropertyOp32
 70
     1
102
RTVSPropertyOp33
 70
     1
102
RTVSPropertyOp34
 70
     1
102
RTVSPropertyOp35
 70
     1
102
RTVSPropertyOp36
 70
     1
102
RTVSPropertyOp37
 70
     1
102
RTVSPropertyOp38
 70
     1
102
RTVSPropertyOp39
 70
     1
102
RTVSPropertyOp40
 70
     1
102
RTVSPropertyOp41
 70
     1
102
RTVSPropertyOp42
 70
     1
102
RTVSPropertyOp43
 70
     1
102
RTVSPropertyOp44
 70
     1
102
RTVSPropertyOp45
 70
     1
102
RTVSPropertyOp46
 70
     1
102
RTVSPropertyOp47
 70
     1
102
RTVSPropertyOp48
 70
     1
102
RTVSPropertyOp49
 70
     1
102
RTVSPropertyOp50
 70
     1
102
RTVSPropertyOp51
 70
     0
102
RTVSPropertyOp52
 70
     0
102
RTVSPropertyOp53
 70
     1
102
RTVSPropertyOp54
 70
     1
102
RTVSPropertyOp55
 70
     1
102
RTVSPropertyOp56
 70
     1
102
RTVSPropertyOp57
 70
     1
102
RTVSPost2010Prop28
280
     0
102
RTVSPost2010PropOp28
 70
     1
102
RTVSPost2010Prop29
280
     1
102
RTVSPost2010PropOp29
 70
     1
102
RTVSPost2010Prop30
280
     1
102
RTVSPost2010PropOp30
 70
     1
102
RTVSPost2010Prop31
280
     0
102
RTVSPost2010PropOp31
 70
     1
102
RTVSPost2010Prop32
280
     0
102
RTVSPost2010PropOp32
 70
     1
102
RTVSPost2010Prop33
280
     0
102
RTVSPost2010PropOp33
 70
     1
102
RTVSPost2010Prop34
280
     0
102
RTVSPost2010PropOp34
 70
     1
102
RTVSPost2010Prop35
280
     0
102
RTVSPost2010PropOp35
 70
     1
102
RTVSPost2010Prop36
280
     0
102
RTVSPost2010PropOp36
 70
     1
102
RTVSPost2010Prop37
 90
       50
102
RTVSPost2010PropOp37
 70
     1
102
RTVSPost2010Prop38
140
0.0
102
RTVSPost2010PropOp38
 70
     1
102
RTVSPost2010Prop39
140
1.0
102
RTVSPost2010PropOp39
 70
     1
102
RTVSPost2010Prop40
 90
        0
102
RTVSPost2010PropOp40
 70
     1
102
RTVSPost2010Prop41ColorIndex
 90
       18
102
RTVSPost2010Prop41ColorRGB
 90
        0
102
RTVSPost2010PropOp41
 70
     1
102
RTVSPost2010Prop42
 90
       50
102
RTVSPost2010PropOp42
 70
     1
102
RTVSPost2010Prop43
 90
        3
102
RTVSPost2010PropOp43
 70
     1
102
RTVSPost2010Prop44ColorIndex
 90
        5
102
RTVSPost2010Prop44ColorRGB
 90
      255
102
RTVSPost2010PropOp44
 70
     1
102
RTVSPost2010Prop45
280
     0
102
RTVSPost2010PropOp45
 70
     1
102
RTVSPost2010Prop46
 90
       50
102
RTVSPost2010PropOp46
 70
     1
102
RTVSPost2010Prop47
 90
       50
102
RTVSPost2010PropOp47
 70
     1
102
RTVSPost2010Prop48
 90
       50
102
RTVSPost2010PropOp48
 70
     1
102
RTVSPost2010Prop49
280
     0
102
RTVSPost2010PropOp49
 70
     1
102
RTVSPost2010Prop50
 90
       50
102
RTVSPost2010PropOp50
 70
     1
102
RTVSPost2010Prop51ColorIndex
 90
      256
102
RTVSPost2010Prop51ColorRGB
 90
-16777216
102
RTVSPost2010PropOp51
 70
     0
102
RTVSPost2010Prop52
140
1.0
102
RTVSPost2010PropOp52
 70
     0
102
RTVSPost2010Prop53
 90
        2
102
RTVSPost2010PropOp53
 70
     1
102
RTVSPost2010Prop54
  1
strokes_ogs.tif
102
RTVSPost2010PropOp54
 70
     1
102
RTVSPost2010Prop55
280
     0
102
RTVSPost2010PropOp55
 70
     1
102
RTVSPost2010Prop56
140
1.0
102
RTVSPost2010PropOp56
 70
     1
102
RTVSPost2010Prop57
140
1.0
102
RTVSPost2010PropOp57
 70
     1
  0
XRECORD
  5
AAD
102
{ACAD_REACTORS
330
AAC
102
}
330
AAC
100
AcDbXrecord
280
     1
102
RTVSPropertyOp0
 70
     1
102
RTVSPropertyOp1
 70
     1
102
RTVSPropertyOp2
 70
     1
102
RTVSPropertyOp3
 70
     1
102
RTVSPropertyOp4
 70
     1
102
RTVSPropertyOp5
 70
     1
102
RTVSPropertyOp6
 70
     1
102
RTVSPropertyOp7
 70
     1
102
RTVSPropertyOp8
 70
     1
102
RTVSPropertyOp9
 70
     1
102
RTVSPropertyOp10
 70
     1
102
RTVSPropertyOp11
 70
     1
102
RTVSPropertyOp12
 70
     1
102
RTVSPropertyOp13
 70
     1
102
RTVSPropertyOp14
 70
     1
102
RTVSPropertyOp15
 70
     1
102
RTVSPropertyOp16
 70
     1
102
RTVSPropertyOp17
 70
     1
102
RTVSPropertyOp18
 70
     1
102
RTVSPropertyOp19
 70
     1
102
RTVSPropertyOp20
 70
     1
102
RTVSPropertyOp21
 70
     1
102
RTVSPropertyOp22
 70
     1
102
RTVSPropertyOp23
 70
     1
102
RTVSPropertyOp24
 70
     1
102
RTVSPropertyOp25
 70
     1
102
RTVSPropertyOp26
 70
     1
102
RTVSPropertyOp27
 70
     1
102
RTVSPropertyOp28
 70
     1
102
RTVSPropertyOp29
 70
     1
102
RTVSPropertyOp30
 70
     1
102
RTVSPropertyOp31
 70
     1
102
RTVSPropertyOp32
 70
     1
102
RTVSPropertyOp33
 70
     1
102
RTVSPropertyOp34
 70
     1
102
RTVSPropertyOp35
 70
     1
102
RTVSPropertyOp36
 70
     1
102
RTVSPropertyOp37
 70
     1
102
RTVSPropertyOp38
 70
     1
102
RTVSPropertyOp39
 70
     1
102
RTVSPropertyOp40
 70
     1
102
RTVSPropertyOp41
 70
     1
102
RTVSPropertyOp42
 70
     1
102
RTVSPropertyOp43
 70
     1
102
RTVSPropertyOp44
 70
     1
102
RTVSPropertyOp45
 70
     1
102
RTVSPropertyOp46
 70
     1
102
RTVSPropertyOp47
 70
     1
102
RTVSPropertyOp48
 70
     1
102
RTVSPropertyOp49
 70
     1
102
RTVSPropertyOp50
 70
     1
102
RTVSPropertyOp51
 70
     0
102
RTVSPropertyOp52
 70
     0
102
RTVSPropertyOp53
 70
     1
102
RTVSPropertyOp54
 70
     1
102
RTVSPropertyOp55
 70
     1
102
RTVSPropertyOp56
 70
     1
102
RTVSPropertyOp57
 70
     1
102
RTVSPost2010Prop28
280
     0
102
RTVSPost2010PropOp28
 70
     1
102
RTVSPost2010Prop29
280
     1
102
RTVSPost2010PropOp29
 70
     1
102
RTVSPost2010Prop30
280
     1
102
RTVSPost2010PropOp30
 70
     1
102
RTVSPost2010Prop31
280
     0
102
RTVSPost2010PropOp31
 70
     1
102
RTVSPost2010Prop32
280
     0
102
RTVSPost2010PropOp32
 70
     1
102
RTVSPost2010Prop33
280
     0
102
RTVSPost2010PropOp33
 70
     1
102
RTVSPost2010Prop34
280
     0
102
RTVSPost2010PropOp34
 70
     1
102
RTVSPost2010Prop35
280
     0
102
RTVSPost2010PropOp35
 70
     1
102
RTVSPost2010Prop36
280
     0
102
RTVSPost2010PropOp36
 70
     1
102
RTVSPost2010Prop37
 90
       50
102
RTVSPost2010PropOp37
 70
     1
102
RTVSPost2010Prop38
140
0.0
102
RTVSPost2010PropOp38
 70
     1
102
RTVSPost2010Prop39
140
1.0
102
RTVSPost2010PropOp39
 70
     1
102
RTVSPost2010Prop40
 90
        0
102
RTVSPost2010PropOp40
 70
     1
102
RTVSPost2010Prop41ColorIndex
 90
       18
102
RTVSPost2010Prop41ColorRGB
 90
        0
102
RTVSPost2010PropOp41
 70
     1
102
RTVSPost2010Prop42
 90
       50
102
RTVSPost2010PropOp42
 70
     1
102
RTVSPost2010Prop43
 90
        3
102
RTVSPost2010PropOp43
 70
     1
102
RTVSPost2010Prop44ColorIndex
 90
        5
102
RTVSPost2010Prop44ColorRGB
 90
      255
102
RTVSPost2010PropOp44
 70
     1
102
RTVSPost2010Prop45
280
     0
102
RTVSPost2010PropOp45
 70
     1
102
RTVSPost2010Prop46
 90
       50
102
RTVSPost2010PropOp46
 70
     1
102
RTVSPost2010Prop47
 90
       50
102
RTVSPost2010PropOp47
 70
     1
102
RTVSPost2010Prop48
 90
       50
102
RTVSPost2010PropOp48
 70
     1
102
RTVSPost2010Prop49
280
     0
102
RTVSPost2010PropOp49
 70
     1
102
RTVSPost2010Prop50
 90
       50
102
RTVSPost2010PropOp50
 70
     1
102
RTVSPost2010Prop51ColorIndex
 90
      256
102
RTVSPost2010Prop51ColorRGB
 90
-16777216
102
RTVSPost2010PropOp51
 70
     0
102
RTVSPost2010Prop52
140
1.0
102
RTVSPost2010PropOp52
 70
     0
102
RTVSPost2010Prop53
 90
        2
102
RTVSPost2010PropOp53
 70
     1
102
RTVSPost2010Prop54
  1
strokes_ogs.tif
102
RTVSPost2010PropOp54
 70
     1
102
RTVSPost2010Prop55
280
     0
102
RTVSPost2010PropOp55
 70
     1
102
RTVSPost2010Prop56
140
1.0
102
RTVSPost2010PropOp56
 70
     1
102
RTVSPost2010Prop57
140
1.0
102
RTVSPost2010PropOp57
 70
     1
  0
XRECORD
  5
AA1
102
{ACAD_REACTORS
330
AA0
102
}
330
AA0
100
AcDbXrecord
280
     1
102
RTVSPropertyOp0
 70
     1
102
RTVSPropertyOp1
 70
     1
102
RTVSPropertyOp2
 70
     1
102
RTVSPropertyOp3
 70
     1
102
RTVSPropertyOp4
 70
     1
102
RTVSPropertyOp5
 70
     1
102
RTVSPropertyOp6
 70
     1
102
RTVSPropertyOp7
 70
     1
102
RTVSPropertyOp8
 70
     1
102
RTVSPropertyOp9
 70
     1
102
RTVSPropertyOp10
 70
     1
102
RTVSPropertyOp11
 70
     1
102
RTVSPropertyOp12
 70
     1
102
RTVSPropertyOp13
 70
     1
102
RTVSPropertyOp14
 70
     1
102
RTVSPropertyOp15
 70
     1
102
RTVSPropertyOp16
 70
     1
102
RTVSPropertyOp17
 70
     1
102
RTVSPropertyOp18
 70
     1
102
RTVSPropertyOp19
 70
     1
102
RTVSPropertyOp20
 70
     1
102
RTVSPropertyOp21
 70
     1
102
RTVSPropertyOp22
 70
     1
102
RTVSPropertyOp23
 70
     1
102
RTVSPropertyOp24
 70
     1
102
RTVSPropertyOp25
 70
     1
102
RTVSPropertyOp26
 70
     1
102
RTVSPropertyOp27
 70
     1
102
RTVSPropertyOp28
 70
     1
102
RTVSPropertyOp29
 70
     1
102
RTVSPropertyOp30
 70
     1
102
RTVSPropertyOp31
 70
     1
102
RTVSPropertyOp32
 70
     1
102
RTVSPropertyOp33
 70
     1
102
RTVSPropertyOp34
 70
     1
102
RTVSPropertyOp35
 70
     1
102
RTVSPropertyOp36
 70
     1
102
RTVSPropertyOp37
 70
     1
102
RTVSPropertyOp38
 70
     1
102
RTVSPropertyOp39
 70
     1
102
RTVSPropertyOp40
 70
     1
102
RTVSPropertyOp41
 70
     1
102
RTVSPropertyOp42
 70
     1
102
RTVSPropertyOp43
 70
     1
102
RTVSPropertyOp44
 70
     1
102
RTVSPropertyOp45
 70
     1
102
RTVSPropertyOp46
 70
     1
102
RTVSPropertyOp47
 70
     1
102
RTVSPropertyOp48
 70
     1
102
RTVSPropertyOp49
 70
     1
102
RTVSPropertyOp50
 70
     1
102
RTVSPropertyOp51
 70
     0
102
RTVSPropertyOp52
 70
     0
102
RTVSPropertyOp53
 70
     1
102
RTVSPropertyOp54
 70
     1
102
RTVSPropertyOp55
 70
     1
102
RTVSPropertyOp56
 70
     1
102
RTVSPropertyOp57
 70
     1
102
RTVSPost2010Prop28
280
     0
102
RTVSPost2010PropOp28
 70
     1
102
RTVSPost2010Prop29
280
     1
102
RTVSPost2010PropOp29
 70
     1
102
RTVSPost2010Prop30
280
     1
102
RTVSPost2010PropOp30
 70
     1
102
RTVSPost2010Prop31
280
     0
102
RTVSPost2010PropOp31
 70
     1
102
RTVSPost2010Prop32
280
     0
102
RTVSPost2010PropOp32
 70
     1
102
RTVSPost2010Prop33
280
     0
102
RTVSPost2010PropOp33
 70
     1
102
RTVSPost2010Prop34
280
     0
102
RTVSPost2010PropOp34
 70
     1
102
RTVSPost2010Prop35
280
     0
102
RTVSPost2010PropOp35
 70
     1
102
RTVSPost2010Prop36
280
     0
102
RTVSPost2010PropOp36
 70
     1
102
RTVSPost2010Prop37
 90
       50
102
RTVSPost2010PropOp37
 70
     1
102
RTVSPost2010Prop38
140
0.0
102
RTVSPost2010PropOp38
 70
     1
102
RTVSPost2010Prop39
140
1.0
102
RTVSPost2010PropOp39
 70
     1
102
RTVSPost2010Prop40
 90
        0
102
RTVSPost2010PropOp40
 70
     1
102
RTVSPost2010Prop41ColorIndex
 90
       18
102
RTVSPost2010Prop41ColorRGB
 90
        0
102
RTVSPost2010PropOp41
 70
     1
102
RTVSPost2010Prop42
 90
       50
102
RTVSPost2010PropOp42
 70
     1
102
RTVSPost2010Prop43
 90
        3
102
RTVSPost2010PropOp43
 70
     1
102
RTVSPost2010Prop44ColorIndex
 90
        5
102
RTVSPost2010Prop44ColorRGB
 90
      255
102
RTVSPost2010PropOp44
 70
     1
102
RTVSPost2010Prop45
280
     0
102
RTVSPost2010PropOp45
 70
     1
102
RTVSPost2010Prop46
 90
       50
102
RTVSPost2010PropOp46
 70
     1
102
RTVSPost2010Prop47
 90
       50
102
RTVSPost2010PropOp47
 70
     1
102
RTVSPost2010Prop48
 90
       50
102
RTVSPost2010PropOp48
 70
     1
102
RTVSPost2010Prop49
280
     0
102
RTVSPost2010PropOp49
 70
     1
102
RTVSPost2010Prop50
 90
       50
102
RTVSPost2010PropOp50
 70
     1
102
RTVSPost2010Prop51ColorIndex
 90
      256
102
RTVSPost2010Prop51ColorRGB
 90
-16777216
102
RTVSPost2010PropOp51
 70
     0
102
RTVSPost2010Prop52
140
1.0
102
RTVSPost2010PropOp52
 70
     0
102
RTVSPost2010Prop53
 90
        2
102
RTVSPost2010PropOp53
 70
     1
102
RTVSPost2010Prop54
  1
strokes_ogs.tif
102
RTVSPost2010PropOp54
 70
     1
102
RTVSPost2010Prop55
280
     0
102
RTVSPost2010PropOp55
 70
     1
102
RTVSPost2010Prop56
140
1.0
102
RTVSPost2010PropOp56
 70
     1
102
RTVSPost2010Prop57
140
1.0
102
RTVSPost2010PropOp57
 70
     1
  0
XRECORD
  5
AA3
102
{ACAD_REACTORS
330
AA2
102
}
330
AA2
100
AcDbXrecord
280
     1
102
RTVSPropertyOp0
 70
     1
102
RTVSPropertyOp1
 70
     1
102
RTVSPropertyOp2
 70
     1
102
RTVSPropertyOp3
 70
     1
102
RTVSPropertyOp4
 70
     1
102
RTVSPropertyOp5
 70
     1
102
RTVSPropertyOp6
 70
     1
102
RTVSPropertyOp7
 70
     1
102
RTVSPropertyOp8
 70
     1
102
RTVSPropertyOp9
 70
     1
102
RTVSPropertyOp10
 70
     1
102
RTVSPropertyOp11
 70
     1
102
RTVSPropertyOp12
 70
     1
102
RTVSPropertyOp13
 70
     1
102
RTVSPropertyOp14
 70
     1
102
RTVSPropertyOp15
 70
     1
102
RTVSPropertyOp16
 70
     1
102
RTVSPropertyOp17
 70
     1
102
RTVSPropertyOp18
 70
     1
102
RTVSPropertyOp19
 70
     1
102
RTVSPropertyOp20
 70
     1
102
RTVSPropertyOp21
 70
     1
102
RTVSPropertyOp22
 70
     1
102
RTVSPropertyOp23
 70
     1
102
RTVSPropertyOp24
 70
     1
102
RTVSPropertyOp25
 70
     1
102
RTVSPropertyOp26
 70
     1
102
RTVSPropertyOp27
 70
     1
102
RTVSPropertyOp28
 70
     1
102
RTVSPropertyOp29
 70
     1
102
RTVSPropertyOp30
 70
     1
102
RTVSPropertyOp31
 70
     1
102
RTVSPropertyOp32
 70
     1
102
RTVSPropertyOp33
 70
     1
102
RTVSPropertyOp34
 70
     1
102
RTVSPropertyOp35
 70
     1
102
RTVSPropertyOp36
 70
     1
102
RTVSPropertyOp37
 70
     1
102
RTVSPropertyOp38
 70
     1
102
RTVSPropertyOp39
 70
     1
102
RTVSPropertyOp40
 70
     1
102
RTVSPropertyOp41
 70
     1
102
RTVSPropertyOp42
 70
     1
102
RTVSPropertyOp43
 70
     1
102
RTVSPropertyOp44
 70
     1
102
RTVSPropertyOp45
 70
     1
102
RTVSPropertyOp46
 70
     1
102
RTVSPropertyOp47
 70
     1
102
RTVSPropertyOp48
 70
     1
102
RTVSPropertyOp49
 70
     1
102
RTVSPropertyOp50
 70
     1
102
RTVSPropertyOp51
 70
     0
102
RTVSPropertyOp52
 70
     0
102
RTVSPropertyOp53
 70
     1
102
RTVSPropertyOp54
 70
     1
102
RTVSPropertyOp55
 70
     1
102
RTVSPropertyOp56
 70
     1
102
RTVSPropertyOp57
 70
     1
102
RTVSPost2010Prop28
280
     0
102
RTVSPost2010PropOp28
 70
     1
102
RTVSPost2010Prop29
280
     1
102
RTVSPost2010PropOp29
 70
     1
102
RTVSPost2010Prop30
280
     1
102
RTVSPost2010PropOp30
 70
     1
102
RTVSPost2010Prop31
280
     0
102
RTVSPost2010PropOp31
 70
     1
102
RTVSPost2010Prop32
280
     0
102
RTVSPost2010PropOp32
 70
     1
102
RTVSPost2010Prop33
280
     0
102
RTVSPost2010PropOp33
 70
     1
102
RTVSPost2010Prop34
280
     0
102
RTVSPost2010PropOp34
 70
     1
102
RTVSPost2010Prop35
280
     0
102
RTVSPost2010PropOp35
 70
     1
102
RTVSPost2010Prop36
280
     0
102
RTVSPost2010PropOp36
 70
     1
102
RTVSPost2010Prop37
 90
       50
102
RTVSPost2010PropOp37
 70
     1
102
RTVSPost2010Prop38
140
0.0
102
RTVSPost2010PropOp38
 70
     1
102
RTVSPost2010Prop39
140
1.0
102
RTVSPost2010PropOp39
 70
     1
102
RTVSPost2010Prop40
 90
        0
102
RTVSPost2010PropOp40
 70
     1
102
RTVSPost2010Prop41ColorIndex
 90
       18
102
RTVSPost2010Prop41ColorRGB
 90
        0
102
RTVSPost2010PropOp41
 70
     1
102
RTVSPost2010Prop42
 90
       50
102
RTVSPost2010PropOp42
 70
     1
102
RTVSPost2010Prop43
 90
        3
102
RTVSPost2010PropOp43
 70
     1
102
RTVSPost2010Prop44ColorIndex
 90
        5
102
RTVSPost2010Prop44ColorRGB
 90
      255
102
RTVSPost2010PropOp44
 70
     1
102
RTVSPost2010Prop45
280
     0
102
RTVSPost2010PropOp45
 70
     1
102
RTVSPost2010Prop46
 90
       50
102
RTVSPost2010PropOp46
 70
     1
102
RTVSPost2010Prop47
 90
       50
102
RTVSPost2010PropOp47
 70
     1
102
RTVSPost2010Prop48
 90
       50
102
RTVSPost2010PropOp48
 70
     1
102
RTVSPost2010Prop49
280
     0
102
RTVSPost2010PropOp49
 70
     1
102
RTVSPost2010Prop50
 90
       50
102
RTVSPost2010PropOp50
 70
     1
102
RTVSPost2010Prop51ColorIndex
 90
      256
102
RTVSPost2010Prop51ColorRGB
 90
-16777216
102
RTVSPost2010PropOp51
 70
     0
102
RTVSPost2010Prop52
140
1.0
102
RTVSPost2010PropOp52
 70
     0
102
RTVSPost2010Prop53
 90
        2
102
RTVSPost2010PropOp53
 70
     1
102
RTVSPost2010Prop54
  1
strokes_ogs.tif
102
RTVSPost2010PropOp54
 70
     1
102
RTVSPost2010Prop55
280
     0
102
RTVSPost2010PropOp55
 70
     1
102
RTVSPost2010Prop56
140
1.0
102
RTVSPost2010PropOp56
 70
     1
102
RTVSPost2010Prop57
140
1.0
102
RTVSPost2010PropOp57
 70
     1
  0
XRECORD
  5
AB3
102
{ACAD_REACTORS
330
AB2
102
}
330
AB2
100
AcDbXrecord
280
     1
102
RTVSPropertyOp0
 70
     0
102
RTVSPropertyOp1
 70
     0
102
RTVSPropertyOp2
 70
     0
102
RTVSPropertyOp3
 70
     0
102
RTVSPropertyOp4
 70
     0
102
RTVSPropertyOp5
 70
     0
102
RTVSPropertyOp6
 70
     0
102
RTVSPropertyOp7
 70
     0
102
RTVSPropertyOp8
 70
     0
102
RTVSPropertyOp9
 70
     0
102
RTVSPropertyOp10
 70
     0
102
RTVSPropertyOp11
 70
     0
102
RTVSPropertyOp12
 70
     0
102
RTVSPropertyOp13
 70
     0
102
RTVSPropertyOp14
 70
     0
102
RTVSPropertyOp15
 70
     0
102
RTVSPropertyOp16
 70
     0
102
RTVSPropertyOp17
 70
     0
102
RTVSPropertyOp18
 70
     0
102
RTVSPropertyOp19
 70
     0
102
RTVSPropertyOp20
 70
     0
102
RTVSPropertyOp21
 70
     0
102
RTVSPropertyOp22
 70
     0
102
RTVSPropertyOp23
 70
     0
102
RTVSPropertyOp24
 70
     0
102
RTVSPropertyOp25
 70
     0
102
RTVSPropertyOp26
 70
     0
102
RTVSPropertyOp27
 70
     0
102
RTVSPropertyOp28
 70
     1
102
RTVSPropertyOp29
 70
     1
102
RTVSPropertyOp30
 70
     1
102
RTVSPropertyOp31
 70
     1
102
RTVSPropertyOp32
 70
     1
102
RTVSPropertyOp33
 70
     1
102
RTVSPropertyOp34
 70
     1
102
RTVSPropertyOp35
 70
     1
102
RTVSPropertyOp36
 70
     1
102
RTVSPropertyOp37
 70
     1
102
RTVSPropertyOp38
 70
     1
102
RTVSPropertyOp39
 70
     1
102
RTVSPropertyOp40
 70
     1
102
RTVSPropertyOp41
 70
     1
102
RTVSPropertyOp42
 70
     1
102
RTVSPropertyOp43
 70
     1
102
RTVSPropertyOp44
 70
     1
102
RTVSPropertyOp45
 70
     1
102
RTVSPropertyOp46
 70
     1
102
RTVSPropertyOp47
 70
     1
102
RTVSPropertyOp48
 70
     1
102
RTVSPropertyOp49
 70
     1
102
RTVSPropertyOp50
 70
     1
102
RTVSPropertyOp51
 70
     0
102
RTVSPropertyOp52
 70
     0
102
RTVSPropertyOp53
 70
     1
102
RTVSPropertyOp54
 70
     1
102
RTVSPropertyOp55
 70
     1
102
RTVSPropertyOp56
 70
     1
102
RTVSPropertyOp57
 70
     1
102
RTVSPost2010Prop28
280
     0
102
RTVSPost2010PropOp28
 70
     1
102
RTVSPost2010Prop29
280
     1
102
RTVSPost2010PropOp29
 70
     1
102
RTVSPost2010Prop30
280
     1
102
RTVSPost2010PropOp30
 70
     1
102
RTVSPost2010Prop31
280
     0
102
RTVSPost2010PropOp31
 70
     1
102
RTVSPost2010Prop32
280
     0
102
RTVSPost2010PropOp32
 70
     1
102
RTVSPost2010Prop33
280
     0
102
RTVSPost2010PropOp33
 70
     1
102
RTVSPost2010Prop34
280
     0
102
RTVSPost2010PropOp34
 70
     1
102
RTVSPost2010Prop35
280
     0
102
RTVSPost2010PropOp35
 70
     1
102
RTVSPost2010Prop36
280
     0
102
RTVSPost2010PropOp36
 70
     1
102
RTVSPost2010Prop37
 90
       50
102
RTVSPost2010PropOp37
 70
     1
102
RTVSPost2010Prop38
140
0.0
102
RTVSPost2010PropOp38
 70
     1
102
RTVSPost2010Prop39
140
1.0
102
RTVSPost2010PropOp39
 70
     1
102
RTVSPost2010Prop40
 90
        0
102
RTVSPost2010PropOp40
 70
     1
102
RTVSPost2010Prop41ColorIndex
 90
       18
102
RTVSPost2010Prop41ColorRGB
 90
        0
102
RTVSPost2010PropOp41
 70
     1
102
RTVSPost2010Prop42
 90
       50
102
RTVSPost2010PropOp42
 70
     1
102
RTVSPost2010Prop43
 90
        3
102
RTVSPost2010PropOp43
 70
     1
102
RTVSPost2010Prop44ColorIndex
 90
        5
102
RTVSPost2010Prop44ColorRGB
 90
      255
102
RTVSPost2010PropOp44
 70
     1
102
RTVSPost2010Prop45
280
     0
102
RTVSPost2010PropOp45
 70
     1
102
RTVSPost2010Prop46
 90
       50
102
RTVSPost2010PropOp46
 70
     1
102
RTVSPost2010Prop47
 90
       50
102
RTVSPost2010PropOp47
 70
     1
102
RTVSPost2010Prop48
 90
       50
102
RTVSPost2010PropOp48
 70
     1
102
RTVSPost2010Prop49
280
     0
102
RTVSPost2010PropOp49
 70
     1
102
RTVSPost2010Prop50
 90
       50
102
RTVSPost2010PropOp50
 70
     1
102
RTVSPost2010Prop51ColorIndex
 90
      256
102
RTVSPost2010Prop51ColorRGB
 90
-16777216
102
RTVSPost2010PropOp51
 70
     0
102
RTVSPost2010Prop52
140
1.0
102
RTVSPost2010PropOp52
 70
     0
102
RTVSPost2010Prop53
 90
        2
102
RTVSPost2010PropOp53
 70
     1
102
RTVSPost2010Prop54
  1
strokes_ogs.tif
102
RTVSPost2010PropOp54
 70
     1
102
RTVSPost2010Prop55
280
     0
102
RTVSPost2010PropOp55
 70
     1
102
RTVSPost2010Prop56
140
1.0
102
RTVSPost2010PropOp56
 70
     1
102
RTVSPost2010Prop57
140
1.0
102
RTVSPost2010PropOp57
 70
     1
  0
XRECORD
  5
AAB
102
{ACAD_REACTORS
330
AAA
102
}
330
AAA
100
AcDbXrecord
280
     1
102
RTVSPropertyOp0
 70
     1
102
RTVSPropertyOp1
 70
     1
102
RTVSPropertyOp2
 70
     1
102
RTVSPropertyOp3
 70
     1
102
RTVSPropertyOp4
 70
     1
102
RTVSPropertyOp5
 70
     1
102
RTVSPropertyOp6
 70
     1
102
RTVSPropertyOp7
 70
     1
102
RTVSPropertyOp8
 70
     1
102
RTVSPropertyOp9
 70
     1
102
RTVSPropertyOp10
 70
     1
102
RTVSPropertyOp11
 70
     1
102
RTVSPropertyOp12
 70
     1
102
RTVSPropertyOp13
 70
     1
102
RTVSPropertyOp14
 70
     1
102
RTVSPropertyOp15
 70
     1
102
RTVSPropertyOp16
 70
     1
102
RTVSPropertyOp17
 70
     1
102
RTVSPropertyOp18
 70
     1
102
RTVSPropertyOp19
 70
     1
102
RTVSPropertyOp20
 70
     1
102
RTVSPropertyOp21
 70
     1
102
RTVSPropertyOp22
 70
     1
102
RTVSPropertyOp23
 70
     1
102
RTVSPropertyOp24
 70
     1
102
RTVSPropertyOp25
 70
     1
102
RTVSPropertyOp26
 70
     1
102
RTVSPropertyOp27
 70
     1
102
RTVSPropertyOp28
 70
     1
102
RTVSPropertyOp29
 70
     1
102
RTVSPropertyOp30
 70
     1
102
RTVSPropertyOp31
 70
     1
102
RTVSPropertyOp32
 70
     1
102
RTVSPropertyOp33
 70
     1
102
RTVSPropertyOp34
 70
     1
102
RTVSPropertyOp35
 70
     1
102
RTVSPropertyOp36
 70
     1
102
RTVSPropertyOp37
 70
     1
102
RTVSPropertyOp38
 70
     1
102
RTVSPropertyOp39
 70
     1
102
RTVSPropertyOp40
 70
     1
102
RTVSPropertyOp41
 70
     1
102
RTVSPropertyOp42
 70
     1
102
RTVSPropertyOp43
 70
     1
102
RTVSPropertyOp44
 70
     1
102
RTVSPropertyOp45
 70
     1
102
RTVSPropertyOp46
 70
     1
102
RTVSPropertyOp47
 70
     1
102
RTVSPropertyOp48
 70
     1
102
RTVSPropertyOp49
 70
     1
102
RTVSPropertyOp50
 70
     1
102
RTVSPropertyOp51
 70
     0
102
RTVSPropertyOp52
 70
     0
102
RTVSPropertyOp53
 70
     1
102
RTVSPropertyOp54
 70
     1
102
RTVSPropertyOp55
 70
     1
102
RTVSPropertyOp56
 70
     1
102
RTVSPropertyOp57
 70
     1
102
RTVSPost2010Prop28
280
     0
102
RTVSPost2010PropOp28
 70
     1
102
RTVSPost2010Prop29
280
     1
102
RTVSPost2010PropOp29
 70
     1
102
RTVSPost2010Prop30
280
     1
102
RTVSPost2010PropOp30
 70
     1
102
RTVSPost2010Prop31
280
     0
102
RTVSPost2010PropOp31
 70
     1
102
RTVSPost2010Prop32
280
     0
102
RTVSPost2010PropOp32
 70
     1
102
RTVSPost2010Prop33
280
     0
102
RTVSPost2010PropOp33
 70
     1
102
RTVSPost2010Prop34
280
     0
102
RTVSPost2010PropOp34
 70
     1
102
RTVSPost2010Prop35
280
     0
102
RTVSPost2010PropOp35
 70
     1
102
RTVSPost2010Prop36
280
     0
102
RTVSPost2010PropOp36
 70
     1
102
RTVSPost2010Prop37
 90
       50
102
RTVSPost2010PropOp37
 70
     1
102
RTVSPost2010Prop38
140
0.0
102
RTVSPost2010PropOp38
 70
     1
102
RTVSPost2010Prop39
140
1.0
102
RTVSPost2010PropOp39
 70
     1
102
RTVSPost2010Prop40
 90
        0
102
RTVSPost2010PropOp40
 70
     1
102
RTVSPost2010Prop41ColorIndex
 90
       18
102
RTVSPost2010Prop41ColorRGB
 90
        0
102
RTVSPost2010PropOp41
 70
     1
102
RTVSPost2010Prop42
 90
       50
102
RTVSPost2010PropOp42
 70
     1
102
RTVSPost2010Prop43
 90
        3
102
RTVSPost2010PropOp43
 70
     1
102
RTVSPost2010Prop44ColorIndex
 90
        5
102
RTVSPost2010Prop44ColorRGB
 90
      255
102
RTVSPost2010PropOp44
 70
     1
102
RTVSPost2010Prop45
280
     0
102
RTVSPost2010PropOp45
 70
     1
102
RTVSPost2010Prop46
 90
       50
102
RTVSPost2010PropOp46
 70
     1
102
RTVSPost2010Prop47
 90
       50
102
RTVSPost2010PropOp47
 70
     1
102
RTVSPost2010Prop48
 90
       50
102
RTVSPost2010PropOp48
 70
     1
102
RTVSPost2010Prop49
280
     0
102
RTVSPost2010PropOp49
 70
     1
102
RTVSPost2010Prop50
 90
       50
102
RTVSPost2010PropOp50
 70
     1
102
RTVSPost2010Prop51ColorIndex
 90
      256
102
RTVSPost2010Prop51ColorRGB
 90
-16777216
102
RTVSPost2010PropOp51
 70
     0
102
RTVSPost2010Prop52
140
1.0
102
RTVSPost2010PropOp52
 70
     0
102
RTVSPost2010Prop53
 90
        2
102
RTVSPost2010PropOp53
 70
     1
102
RTVSPost2010Prop54
  1
strokes_ogs.tif
102
RTVSPost2010PropOp54
 70
     1
102
RTVSPost2010Prop55
280
     0
102
RTVSPost2010PropOp55
 70
     1
102
RTVSPost2010Prop56
140
1.0
102
RTVSPost2010PropOp56
 70
     1
102
RTVSPost2010Prop57
140
1.0
102
RTVSPost2010PropOp57
 70
     1
  0
XRECORD
  5
A8F
102
{ACAD_REACTORS
330
A8E
102
}
330
A8E
100
AcDbXrecord
280
     1
102
RTVSPropertyOp0
 70
     1
102
RTVSPropertyOp1
 70
     1
102
RTVSPropertyOp2
 70
     1
102
RTVSPropertyOp3
 70
     1
102
RTVSPropertyOp4
 70
     1
102
RTVSPropertyOp5
 70
     1
102
RTVSPropertyOp6
 70
     1
102
RTVSPropertyOp7
 70
     1
102
RTVSPropertyOp8
 70
     1
102
RTVSPropertyOp9
 70
     1
102
RTVSPropertyOp10
 70
     1
102
RTVSPropertyOp11
 70
     1
102
RTVSPropertyOp12
 70
     1
102
RTVSPropertyOp13
 70
     1
102
RTVSPropertyOp14
 70
     1
102
RTVSPropertyOp15
 70
     1
102
RTVSPropertyOp16
 70
     1
102
RTVSPropertyOp17
 70
     1
102
RTVSPropertyOp18
 70
     1
102
RTVSPropertyOp19
 70
     1
102
RTVSPropertyOp20
 70
     1
102
RTVSPropertyOp21
 70
     1
102
RTVSPropertyOp22
 70
     1
102
RTVSPropertyOp23
 70
     1
102
RTVSPropertyOp24
 70
     1
102
RTVSPropertyOp25
 70
     1
102
RTVSPropertyOp26
 70
     1
102
RTVSPropertyOp27
 70
     1
102
RTVSPropertyOp28
 70
     1
102
RTVSPropertyOp29
 70
     1
102
RTVSPropertyOp30
 70
     1
102
RTVSPropertyOp31
 70
     1
102
RTVSPropertyOp32
 70
     1
102
RTVSPropertyOp33
 70
     1
102
RTVSPropertyOp34
 70
     1
102
RTVSPropertyOp35
 70
     1
102
RTVSPropertyOp36
 70
     1
102
RTVSPropertyOp37
 70
     1
102
RTVSPropertyOp38
 70
     1
102
RTVSPropertyOp39
 70
     1
102
RTVSPropertyOp40
 70
     1
102
RTVSPropertyOp41
 70
     1
102
RTVSPropertyOp42
 70
     1
102
RTVSPropertyOp43
 70
     1
102
RTVSPropertyOp44
 70
     1
102
RTVSPropertyOp45
 70
     1
102
RTVSPropertyOp46
 70
     1
102
RTVSPropertyOp47
 70
     1
102
RTVSPropertyOp48
 70
     1
102
RTVSPropertyOp49
 70
     1
102
RTVSPropertyOp50
 70
     1
102
RTVSPropertyOp51
 70
     0
102
RTVSPropertyOp52
 70
     0
102
RTVSPropertyOp53
 70
     1
102
RTVSPropertyOp54
 70
     1
102
RTVSPropertyOp55
 70
     1
102
RTVSPropertyOp56
 70
     1
102
RTVSPropertyOp57
 70
     1
102
RTVSPost2010Prop28
280
     0
102
RTVSPost2010PropOp28
 70
     1
102
RTVSPost2010Prop29
280
     1
102
RTVSPost2010PropOp29
 70
     1
102
RTVSPost2010Prop30
280
     1
102
RTVSPost2010PropOp30
 70
     1
102
RTVSPost2010Prop31
280
     0
102
RTVSPost2010PropOp31
 70
     1
102
RTVSPost2010Prop32
280
     0
102
RTVSPost2010PropOp32
 70
     1
102
RTVSPost2010Prop33
280
     0
102
RTVSPost2010PropOp33
 70
     1
102
RTVSPost2010Prop34
280
     0
102
RTVSPost2010PropOp34
 70
     1
102
RTVSPost2010Prop35
280
     0
102
RTVSPost2010PropOp35
 70
     1
102
RTVSPost2010Prop36
280
     0
102
RTVSPost2010PropOp36
 70
     1
102
RTVSPost2010Prop37
 90
       50
102
RTVSPost2010PropOp37
 70
     1
102
RTVSPost2010Prop38
140
0.0
102
RTVSPost2010PropOp38
 70
     1
102
RTVSPost2010Prop39
140
1.0
102
RTVSPost2010PropOp39
 70
     1
102
RTVSPost2010Prop40
 90
        0
102
RTVSPost2010PropOp40
 70
     1
102
RTVSPost2010Prop41ColorIndex
 90
       18
102
RTVSPost2010Prop41ColorRGB
 90
        0
102
RTVSPost2010PropOp41
 70
     1
102
RTVSPost2010Prop42
 90
       50
102
RTVSPost2010PropOp42
 70
     1
102
RTVSPost2010Prop43
 90
        3
102
RTVSPost2010PropOp43
 70
     1
102
RTVSPost2010Prop44ColorIndex
 90
        5
102
RTVSPost2010Prop44ColorRGB
 90
      255
102
RTVSPost2010PropOp44
 70
     1
102
RTVSPost2010Prop45
280
     0
102
RTVSPost2010PropOp45
 70
     1
102
RTVSPost2010Prop46
 90
       50
102
RTVSPost2010PropOp46
 70
     1
102
RTVSPost2010Prop47
 90
       50
102
RTVSPost2010PropOp47
 70
     1
102
RTVSPost2010Prop48
 90
       50
102
RTVSPost2010PropOp48
 70
     1
102
RTVSPost2010Prop49
280
     0
102
RTVSPost2010PropOp49
 70
     1
102
RTVSPost2010Prop50
 90
       50
102
RTVSPost2010PropOp50
 70
     1
102
RTVSPost2010Prop51ColorIndex
 90
      256
102
RTVSPost2010Prop51ColorRGB
 90
-16777216
102
RTVSPost2010PropOp51
 70
     0
102
RTVSPost2010Prop52
140
1.0
102
RTVSPost2010PropOp52
 70
     0
102
RTVSPost2010Prop53
 90
        2
102
RTVSPost2010PropOp53
 70
     1
102
RTVSPost2010Prop54
  1
strokes_ogs.tif
102
RTVSPost2010PropOp54
 70
     1
102
RTVSPost2010Prop55
280
     0
102
RTVSPost2010PropOp55
 70
     1
102
RTVSPost2010Prop56
140
1.0
102
RTVSPost2010PropOp56
 70
     1
102
RTVSPost2010Prop57
140
1.0
102
RTVSPost2010PropOp57
 70
     1
  0
XRECORD
  5
A91
102
{ACAD_REACTORS
330
A90
102
}
330
A90
100
AcDbXrecord
280
     1
102
RTVSPropertyOp0
 70
     1
102
RTVSPropertyOp1
 70
     1
102
RTVSPropertyOp2
 70
     1
102
RTVSPropertyOp3
 70
     1
102
RTVSPropertyOp4
 70
     1
102
RTVSPropertyOp5
 70
     1
102
RTVSPropertyOp6
 70
     1
102
RTVSPropertyOp7
 70
     1
102
RTVSPropertyOp8
 70
     1
102
RTVSPropertyOp9
 70
     1
102
RTVSPropertyOp10
 70
     1
102
RTVSPropertyOp11
 70
     1
102
RTVSPropertyOp12
 70
     1
102
RTVSPropertyOp13
 70
     1
102
RTVSPropertyOp14
 70
     1
102
RTVSPropertyOp15
 70
     1
102
RTVSPropertyOp16
 70
     1
102
RTVSPropertyOp17
 70
     1
102
RTVSPropertyOp18
 70
     1
102
RTVSPropertyOp19
 70
     1
102
RTVSPropertyOp20
 70
     1
102
RTVSPropertyOp21
 70
     1
102
RTVSPropertyOp22
 70
     1
102
RTVSPropertyOp23
 70
     1
102
RTVSPropertyOp24
 70
     1
102
RTVSPropertyOp25
 70
     1
102
RTVSPropertyOp26
 70
     1
102
RTVSPropertyOp27
 70
     1
102
RTVSPropertyOp28
 70
     1
102
RTVSPropertyOp29
 70
     1
102
RTVSPropertyOp30
 70
     1
102
RTVSPropertyOp31
 70
     1
102
RTVSPropertyOp32
 70
     1
102
RTVSPropertyOp33
 70
     1
102
RTVSPropertyOp34
 70
     1
102
RTVSPropertyOp35
 70
     1
102
RTVSPropertyOp36
 70
     1
102
RTVSPropertyOp37
 70
     1
102
RTVSPropertyOp38
 70
     1
102
RTVSPropertyOp39
 70
     1
102
RTVSPropertyOp40
 70
     1
102
RTVSPropertyOp41
 70
     1
102
RTVSPropertyOp42
 70
     1
102
RTVSPropertyOp43
 70
     1
102
RTVSPropertyOp44
 70
     1
102
RTVSPropertyOp45
 70
     1
102
RTVSPropertyOp46
 70
     1
102
RTVSPropertyOp47
 70
     1
102
RTVSPropertyOp48
 70
     1
102
RTVSPropertyOp49
 70
     1
102
RTVSPropertyOp50
 70
     1
102
RTVSPropertyOp51
 70
     0
102
RTVSPropertyOp52
 70
     0
102
RTVSPropertyOp53
 70
     1
102
RTVSPropertyOp54
 70
     1
102
RTVSPropertyOp55
 70
     1
102
RTVSPropertyOp56
 70
     1
102
RTVSPropertyOp57
 70
     1
102
RTVSPost2010Prop28
280
     0
102
RTVSPost2010PropOp28
 70
     1
102
RTVSPost2010Prop29
280
     1
102
RTVSPost2010PropOp29
 70
     1
102
RTVSPost2010Prop30
280
     1
102
RTVSPost2010PropOp30
 70
     1
102
RTVSPost2010Prop31
280
     0
102
RTVSPost2010PropOp31
 70
     1
102
RTVSPost2010Prop32
280
     0
102
RTVSPost2010PropOp32
 70
     1
102
RTVSPost2010Prop33
280
     0
102
RTVSPost2010PropOp33
 70
     1
102
RTVSPost2010Prop34
280
     0
102
RTVSPost2010PropOp34
 70
     1
102
RTVSPost2010Prop35
280
     0
102
RTVSPost2010PropOp35
 70
     1
102
RTVSPost2010Prop36
280
     0
102
RTVSPost2010PropOp36
 70
     1
102
RTVSPost2010Prop37
 90
       50
102
RTVSPost2010PropOp37
 70
     1
102
RTVSPost2010Prop38
140
0.0
102
RTVSPost2010PropOp38
 70
     1
102
RTVSPost2010Prop39
140
1.0
102
RTVSPost2010PropOp39
 70
     1
102
RTVSPost2010Prop40
 90
        0
102
RTVSPost2010PropOp40
 70
     1
102
RTVSPost2010Prop41ColorIndex
 90
       18
102
RTVSPost2010Prop41ColorRGB
 90
        0
102
RTVSPost2010PropOp41
 70
     1
102
RTVSPost2010Prop42
 90
       50
102
RTVSPost2010PropOp42
 70
     1
102
RTVSPost2010Prop43
 90
        3
102
RTVSPost2010PropOp43
 70
     1
102
RTVSPost2010Prop44ColorIndex
 90
        5
102
RTVSPost2010Prop44ColorRGB
 90
      255
102
RTVSPost2010PropOp44
 70
     1
102
RTVSPost2010Prop45
280
     0
102
RTVSPost2010PropOp45
 70
     1
102
RTVSPost2010Prop46
 90
       50
102
RTVSPost2010PropOp46
 70
     1
102
RTVSPost2010Prop47
 90
       50
102
RTVSPost2010PropOp47
 70
     1
102
RTVSPost2010Prop48
 90
       50
102
RTVSPost2010PropOp48
 70
     1
102
RTVSPost2010Prop49
280
     0
102
RTVSPost2010PropOp49
 70
     1
102
RTVSPost2010Prop50
 90
       50
102
RTVSPost2010PropOp50
 70
     1
102
RTVSPost2010Prop51ColorIndex
 90
      256
102
RTVSPost2010Prop51ColorRGB
 90
-16777216
102
RTVSPost2010PropOp51
 70
     0
102
RTVSPost2010Prop52
140
1.0
102
RTVSPost2010PropOp52
 70
     0
102
RTVSPost2010Prop53
 90
        2
102
RTVSPost2010PropOp53
 70
     1
102
RTVSPost2010Prop54
  1
strokes_ogs.tif
102
RTVSPost2010PropOp54
 70
     1
102
RTVSPost2010Prop55
280
     0
102
RTVSPost2010PropOp55
 70
     1
102
RTVSPost2010Prop56
140
1.0
102
RTVSPost2010PropOp56
 70
     1
102
RTVSPost2010Prop57
140
1.0
102
RTVSPost2010PropOp57
 70
     1
  0
XRECORD
  5
A93
102
{ACAD_REACTORS
330
A92
102
}
330
A92
100
AcDbXrecord
280
     1
102
RTVSPropertyOp0
 70
     1
102
RTVSPropertyOp1
 70
     1
102
RTVSPropertyOp2
 70
     1
102
RTVSPropertyOp3
 70
     1
102
RTVSPropertyOp4
 70
     1
102
RTVSPropertyOp5
 70
     1
102
RTVSPropertyOp6
 70
     1
102
RTVSPropertyOp7
 70
     1
102
RTVSPropertyOp8
 70
     1
102
RTVSPropertyOp9
 70
     1
102
RTVSPropertyOp10
 70
     1
102
RTVSPropertyOp11
 70
     1
102
RTVSPropertyOp12
 70
     1
102
RTVSPropertyOp13
 70
     1
102
RTVSPropertyOp14
 70
     1
102
RTVSPropertyOp15
 70
     1
102
RTVSPropertyOp16
 70
     1
102
RTVSPropertyOp17
 70
     1
102
RTVSPropertyOp18
 70
     1
102
RTVSPropertyOp19
 70
     1
102
RTVSPropertyOp20
 70
     1
102
RTVSPropertyOp21
 70
     1
102
RTVSPropertyOp22
 70
     1
102
RTVSPropertyOp23
 70
     1
102
RTVSPropertyOp24
 70
     1
102
RTVSPropertyOp25
 70
     1
102
RTVSPropertyOp26
 70
     1
102
RTVSPropertyOp27
 70
     1
102
RTVSPropertyOp28
 70
     1
102
RTVSPropertyOp29
 70
     1
102
RTVSPropertyOp30
 70
     1
102
RTVSPropertyOp31
 70
     1
102
RTVSPropertyOp32
 70
     1
102
RTVSPropertyOp33
 70
     1
102
RTVSPropertyOp34
 70
     1
102
RTVSPropertyOp35
 70
     1
102
RTVSPropertyOp36
 70
     1
102
RTVSPropertyOp37
 70
     1
102
RTVSPropertyOp38
 70
     1
102
RTVSPropertyOp39
 70
     1
102
RTVSPropertyOp40
 70
     1
102
RTVSPropertyOp41
 70
     1
102
RTVSPropertyOp42
 70
     1
102
RTVSPropertyOp43
 70
     1
102
RTVSPropertyOp44
 70
     1
102
RTVSPropertyOp45
 70
     1
102
RTVSPropertyOp46
 70
     1
102
RTVSPropertyOp47
 70
     1
102
RTVSPropertyOp48
 70
     1
102
RTVSPropertyOp49
 70
     1
102
RTVSPropertyOp50
 70
     1
102
RTVSPropertyOp51
 70
     0
102
RTVSPropertyOp52
 70
     0
102
RTVSPropertyOp53
 70
     1
102
RTVSPropertyOp54
 70
     1
102
RTVSPropertyOp55
 70
     1
102
RTVSPropertyOp56
 70
     1
102
RTVSPropertyOp57
 70
     1
102
RTVSPost2010Prop28
280
     0
102
RTVSPost2010PropOp28
 70
     1
102
RTVSPost2010Prop29
280
     1
102
RTVSPost2010PropOp29
 70
     1
102
RTVSPost2010Prop30
280
     1
102
RTVSPost2010PropOp30
 70
     1
102
RTVSPost2010Prop31
280
     0
102
RTVSPost2010PropOp31
 70
     1
102
RTVSPost2010Prop32
280
     0
102
RTVSPost2010PropOp32
 70
     1
102
RTVSPost2010Prop33
280
     0
102
RTVSPost2010PropOp33
 70
     1
102
RTVSPost2010Prop34
280
     0
102
RTVSPost2010PropOp34
 70
     1
102
RTVSPost2010Prop35
280
     0
102
RTVSPost2010PropOp35
 70
     1
102
RTVSPost2010Prop36
280
     0
102
RTVSPost2010PropOp36
 70
     1
102
RTVSPost2010Prop37
 90
       50
102
RTVSPost2010PropOp37
 70
     1
102
RTVSPost2010Prop38
140
0.0
102
RTVSPost2010PropOp38
 70
     1
102
RTVSPost2010Prop39
140
1.0
102
RTVSPost2010PropOp39
 70
     1
102
RTVSPost2010Prop40
 90
        0
102
RTVSPost2010PropOp40
 70
     1
102
RTVSPost2010Prop41ColorIndex
 90
       18
102
RTVSPost2010Prop41ColorRGB
 90
        0
102
RTVSPost2010PropOp41
 70
     1
102
RTVSPost2010Prop42
 90
       50
102
RTVSPost2010PropOp42
 70
     1
102
RTVSPost2010Prop43
 90
        3
102
RTVSPost2010PropOp43
 70
     1
102
RTVSPost2010Prop44ColorIndex
 90
        5
102
RTVSPost2010Prop44ColorRGB
 90
      255
102
RTVSPost2010PropOp44
 70
     1
102
RTVSPost2010Prop45
280
     0
102
RTVSPost2010PropOp45
 70
     1
102
RTVSPost2010Prop46
 90
       50
102
RTVSPost2010PropOp46
 70
     1
102
RTVSPost2010Prop47
 90
       50
102
RTVSPost2010PropOp47
 70
     1
102
RTVSPost2010Prop48
 90
       50
102
RTVSPost2010PropOp48
 70
     1
102
RTVSPost2010Prop49
280
     0
102
RTVSPost2010PropOp49
 70
     1
102
RTVSPost2010Prop50
 90
       50
102
RTVSPost2010PropOp50
 70
     1
102
RTVSPost2010Prop51ColorIndex
 90
      256
102
RTVSPost2010Prop51ColorRGB
 90
-16777216
102
RTVSPost2010PropOp51
 70
     0
102
RTVSPost2010Prop52
140
1.0
102
RTVSPost2010PropOp52
 70
     0
102
RTVSPost2010Prop53
 90
        2
102
RTVSPost2010PropOp53
 70
     1
102
RTVSPost2010Prop54
  1
strokes_ogs.tif
102
RTVSPost2010PropOp54
 70
     1
102
RTVSPost2010Prop55
280
     0
102
RTVSPost2010PropOp55
 70
     1
102
RTVSPost2010Prop56
140
1.0
102
RTVSPost2010PropOp56
 70
     1
102
RTVSPost2010Prop57
140
1.0
102
RTVSPost2010PropOp57
 70
     1
  0
XRECORD
  5
A95
102
{ACAD_REACTORS
330
A94
102
}
330
A94
100
AcDbXrecord
280
     1
102
RTVSPropertyOp0
 70
     1
102
RTVSPropertyOp1
 70
     1
102
RTVSPropertyOp2
 70
     1
102
RTVSPropertyOp3
 70
     1
102
RTVSPropertyOp4
 70
     1
102
RTVSPropertyOp5
 70
     1
102
RTVSPropertyOp6
 70
     1
102
RTVSPropertyOp7
 70
     1
102
RTVSPropertyOp8
 70
     1
102
RTVSPropertyOp9
 70
     1
102
RTVSPropertyOp10
 70
     1
102
RTVSPropertyOp11
 70
     1
102
RTVSPropertyOp12
 70
     1
102
RTVSPropertyOp13
 70
     1
102
RTVSPropertyOp14
 70
     1
102
RTVSPropertyOp15
 70
     1
102
RTVSPropertyOp16
 70
     1
102
RTVSPropertyOp17
 70
     1
102
RTVSPropertyOp18
 70
     1
102
RTVSPropertyOp19
 70
     1
102
RTVSPropertyOp20
 70
     1
102
RTVSPropertyOp21
 70
     1
102
RTVSPropertyOp22
 70
     1
102
RTVSPropertyOp23
 70
     1
102
RTVSPropertyOp24
 70
     1
102
RTVSPropertyOp25
 70
     1
102
RTVSPropertyOp26
 70
     1
102
RTVSPropertyOp27
 70
     1
102
RTVSPropertyOp28
 70
     1
102
RTVSPropertyOp29
 70
     1
102
RTVSPropertyOp30
 70
     1
102
RTVSPropertyOp31
 70
     1
102
RTVSPropertyOp32
 70
     1
102
RTVSPropertyOp33
 70
     1
102
RTVSPropertyOp34
 70
     1
102
RTVSPropertyOp35
 70
     1
102
RTVSPropertyOp36
 70
     1
102
RTVSPropertyOp37
 70
     1
102
RTVSPropertyOp38
 70
     1
102
RTVSPropertyOp39
 70
     1
102
RTVSPropertyOp40
 70
     1
102
RTVSPropertyOp41
 70
     1
102
RTVSPropertyOp42
 70
     1
102
RTVSPropertyOp43
 70
     1
102
RTVSPropertyOp44
 70
     1
102
RTVSPropertyOp45
 70
     1
102
RTVSPropertyOp46
 70
     1
102
RTVSPropertyOp47
 70
     1
102
RTVSPropertyOp48
 70
     1
102
RTVSPropertyOp49
 70
     1
102
RTVSPropertyOp50
 70
     1
102
RTVSPropertyOp51
 70
     0
102
RTVSPropertyOp52
 70
     0
102
RTVSPropertyOp53
 70
     1
102
RTVSPropertyOp54
 70
     1
102
RTVSPropertyOp55
 70
     1
102
RTVSPropertyOp56
 70
     1
102
RTVSPropertyOp57
 70
     1
102
RTVSPost2010Prop28
280
     0
102
RTVSPost2010PropOp28
 70
     1
102
RTVSPost2010Prop29
280
     1
102
RTVSPost2010PropOp29
 70
     1
102
RTVSPost2010Prop30
280
     1
102
RTVSPost2010PropOp30
 70
     1
102
RTVSPost2010Prop31
280
     0
102
RTVSPost2010PropOp31
 70
     1
102
RTVSPost2010Prop32
280
     0
102
RTVSPost2010PropOp32
 70
     1
102
RTVSPost2010Prop33
280
     0
102
RTVSPost2010PropOp33
 70
     1
102
RTVSPost2010Prop34
280
     0
102
RTVSPost2010PropOp34
 70
     1
102
RTVSPost2010Prop35
280
     0
102
RTVSPost2010PropOp35
 70
     1
102
RTVSPost2010Prop36
280
     0
102
RTVSPost2010PropOp36
 70
     1
102
RTVSPost2010Prop37
 90
       50
102
RTVSPost2010PropOp37
 70
     1
102
RTVSPost2010Prop38
140
0.0
102
RTVSPost2010PropOp38
 70
     1
102
RTVSPost2010Prop39
140
1.0
102
RTVSPost2010PropOp39
 70
     1
102
RTVSPost2010Prop40
 90
        0
102
RTVSPost2010PropOp40
 70
     1
102
RTVSPost2010Prop41ColorIndex
 90
       18
102
RTVSPost2010Prop41ColorRGB
 90
        0
102
RTVSPost2010PropOp41
 70
     1
102
RTVSPost2010Prop42
 90
       50
102
RTVSPost2010PropOp42
 70
     1
102
RTVSPost2010Prop43
 90
        3
102
RTVSPost2010PropOp43
 70
     1
102
RTVSPost2010Prop44ColorIndex
 90
        5
102
RTVSPost2010Prop44ColorRGB
 90
      255
102
RTVSPost2010PropOp44
 70
     1
102
RTVSPost2010Prop45
280
     0
102
RTVSPost2010PropOp45
 70
     1
102
RTVSPost2010Prop46
 90
       50
102
RTVSPost2010PropOp46
 70
     1
102
RTVSPost2010Prop47
 90
       50
102
RTVSPost2010PropOp47
 70
     1
102
RTVSPost2010Prop48
 90
       50
102
RTVSPost2010PropOp48
 70
     1
102
RTVSPost2010Prop49
280
     0
102
RTVSPost2010PropOp49
 70
     1
102
RTVSPost2010Prop50
 90
       50
102
RTVSPost2010PropOp50
 70
     1
102
RTVSPost2010Prop51ColorIndex
 90
      256
102
RTVSPost2010Prop51ColorRGB
 90
-16777216
102
RTVSPost2010PropOp51
 70
     0
102
RTVSPost2010Prop52
140
1.0
102
RTVSPost2010PropOp52
 70
     0
102
RTVSPost2010Prop53
 90
        2
102
RTVSPost2010PropOp53
 70
     1
102
RTVSPost2010Prop54
  1
strokes_ogs.tif
102
RTVSPost2010PropOp54
 70
     1
102
RTVSPost2010Prop55
280
     0
102
RTVSPost2010PropOp55
 70
     1
102
RTVSPost2010Prop56
140
1.0
102
RTVSPost2010PropOp56
 70
     1
102
RTVSPost2010Prop57
140
1.0
102
RTVSPost2010PropOp57
 70
     1
  0
XRECORD
  5
A9B
102
{ACAD_REACTORS
330
A9A
102
}
330
A9A
100
AcDbXrecord
280
     1
102
RTVSPropertyOp0
 70
     1
102
RTVSPropertyOp1
 70
     1
102
RTVSPropertyOp2
 70
     1
102
RTVSPropertyOp3
 70
     1
102
RTVSPropertyOp4
 70
     1
102
RTVSPropertyOp5
 70
     1
102
RTVSPropertyOp6
 70
     1
102
RTVSPropertyOp7
 70
     1
102
RTVSPropertyOp8
 70
     1
102
RTVSPropertyOp9
 70
     1
102
RTVSPropertyOp10
 70
     1
102
RTVSPropertyOp11
 70
     1
102
RTVSPropertyOp12
 70
     1
102
RTVSPropertyOp13
 70
     1
102
RTVSPropertyOp14
 70
     1
102
RTVSPropertyOp15
 70
     1
102
RTVSPropertyOp16
 70
     1
102
RTVSPropertyOp17
 70
     1
102
RTVSPropertyOp18
 70
     1
102
RTVSPropertyOp19
 70
     1
102
RTVSPropertyOp20
 70
     1
102
RTVSPropertyOp21
 70
     1
102
RTVSPropertyOp22
 70
     1
102
RTVSPropertyOp23
 70
     1
102
RTVSPropertyOp24
 70
     1
102
RTVSPropertyOp25
 70
     1
102
RTVSPropertyOp26
 70
     1
102
RTVSPropertyOp27
 70
     1
102
RTVSPropertyOp28
 70
     1
102
RTVSPropertyOp29
 70
     1
102
RTVSPropertyOp30
 70
     1
102
RTVSPropertyOp31
 70
     1
102
RTVSPropertyOp32
 70
     1
102
RTVSPropertyOp33
 70
     1
102
RTVSPropertyOp34
 70
     1
102
RTVSPropertyOp35
 70
     1
102
RTVSPropertyOp36
 70
     1
102
RTVSPropertyOp37
 70
     1
102
RTVSPropertyOp38
 70
     1
102
RTVSPropertyOp39
 70
     1
102
RTVSPropertyOp40
 70
     1
102
RTVSPropertyOp41
 70
     1
102
RTVSPropertyOp42
 70
     1
102
RTVSPropertyOp43
 70
     1
102
RTVSPropertyOp44
 70
     1
102
RTVSPropertyOp45
 70
     1
102
RTVSPropertyOp46
 70
     1
102
RTVSPropertyOp47
 70
     1
102
RTVSPropertyOp48
 70
     1
102
RTVSPropertyOp49
 70
     1
102
RTVSPropertyOp50
 70
     1
102
RTVSPropertyOp51
 70
     0
102
RTVSPropertyOp52
 70
     0
102
RTVSPropertyOp53
 70
     1
102
RTVSPropertyOp54
 70
     1
102
RTVSPropertyOp55
 70
     1
102
RTVSPropertyOp56
 70
     1
102
RTVSPropertyOp57
 70
     1
102
RTVSPost2010Prop28
280
     0
102
RTVSPost2010PropOp28
 70
     1
102
RTVSPost2010Prop29
280
     1
102
RTVSPost2010PropOp29
 70
     1
102
RTVSPost2010Prop30
280
     1
102
RTVSPost2010PropOp30
 70
     1
102
RTVSPost2010Prop31
280
     0
102
RTVSPost2010PropOp31
 70
     1
102
RTVSPost2010Prop32
280
     0
102
RTVSPost2010PropOp32
 70
     1
102
RTVSPost2010Prop33
280
     0
102
RTVSPost2010PropOp33
 70
     1
102
RTVSPost2010Prop34
280
     0
102
RTVSPost2010PropOp34
 70
     1
102
RTVSPost2010Prop35
280
     0
102
RTVSPost2010PropOp35
 70
     1
102
RTVSPost2010Prop36
280
     0
102
RTVSPost2010PropOp36
 70
     1
102
RTVSPost2010Prop37
 90
       50
102
RTVSPost2010PropOp37
 70
     1
102
RTVSPost2010Prop38
140
0.0
102
RTVSPost2010PropOp38
 70
     1
102
RTVSPost2010Prop39
140
1.0
102
RTVSPost2010PropOp39
 70
     1
102
RTVSPost2010Prop40
 90
        0
102
RTVSPost2010PropOp40
 70
     1
102
RTVSPost2010Prop41ColorIndex
 90
       18
102
RTVSPost2010Prop41ColorRGB
 90
        0
102
RTVSPost2010PropOp41
 70
     1
102
RTVSPost2010Prop42
 90
       50
102
RTVSPost2010PropOp42
 70
     1
102
RTVSPost2010Prop43
 90
        3
102
RTVSPost2010PropOp43
 70
     1
102
RTVSPost2010Prop44ColorIndex
 90
        5
102
RTVSPost2010Prop44ColorRGB
 90
      255
102
RTVSPost2010PropOp44
 70
     1
102
RTVSPost2010Prop45
280
     0
102
RTVSPost2010PropOp45
 70
     1
102
RTVSPost2010Prop46
 90
       50
102
RTVSPost2010PropOp46
 70
     1
102
RTVSPost2010Prop47
 90
       50
102
RTVSPost2010PropOp47
 70
     1
102
RTVSPost2010Prop48
 90
       50
102
RTVSPost2010PropOp48
 70
     1
102
RTVSPost2010Prop49
280
     0
102
RTVSPost2010PropOp49
 70
     1
102
RTVSPost2010Prop50
 90
       50
102
RTVSPost2010PropOp50
 70
     1
102
RTVSPost2010Prop51ColorIndex
 90
      256
102
RTVSPost2010Prop51ColorRGB
 90
-16777216
102
RTVSPost2010PropOp51
 70
     0
102
RTVSPost2010Prop52
140
1.0
102
RTVSPost2010PropOp52
 70
     0
102
RTVSPost2010Prop53
 90
        2
102
RTVSPost2010PropOp53
 70
     1
102
RTVSPost2010Prop54
  1
strokes_ogs.tif
102
RTVSPost2010PropOp54
 70
     1
102
RTVSPost2010Prop55
280
     0
102
RTVSPost2010PropOp55
 70
     1
102
RTVSPost2010Prop56
140
1.0
102
RTVSPost2010PropOp56
 70
     1
102
RTVSPost2010Prop57
140
1.0
102
RTVSPost2010PropOp57
 70
     1
  0
XRECORD
  5
AAF
102
{ACAD_REACTORS
330
AAE
102
}
330
AAE
100
AcDbXrecord
280
     1
102
RTVSPropertyOp0
 70
     0
102
RTVSPropertyOp1
 70
     0
102
RTVSPropertyOp2
 70
     0
102
RTVSPropertyOp3
 70
     0
102
RTVSPropertyOp4
 70
     0
102
RTVSPropertyOp5
 70
     0
102
RTVSPropertyOp6
 70
     0
102
RTVSPropertyOp7
 70
     0
102
RTVSPropertyOp8
 70
     0
102
RTVSPropertyOp9
 70
     0
102
RTVSPropertyOp10
 70
     0
102
RTVSPropertyOp11
 70
     0
102
RTVSPropertyOp12
 70
     0
102
RTVSPropertyOp13
 70
     0
102
RTVSPropertyOp14
 70
     0
102
RTVSPropertyOp15
 70
     0
102
RTVSPropertyOp16
 70
     0
102
RTVSPropertyOp17
 70
     0
102
RTVSPropertyOp18
 70
     0
102
RTVSPropertyOp19
 70
     0
102
RTVSPropertyOp20
 70
     0
102
RTVSPropertyOp21
 70
     0
102
RTVSPropertyOp22
 70
     0
102
RTVSPropertyOp23
 70
     0
102
RTVSPropertyOp24
 70
     0
102
RTVSPropertyOp25
 70
     0
102
RTVSPropertyOp26
 70
     0
102
RTVSPropertyOp27
 70
     0
102
RTVSPropertyOp28
 70
     1
102
RTVSPropertyOp29
 70
     1
102
RTVSPropertyOp30
 70
     1
102
RTVSPropertyOp31
 70
     1
102
RTVSPropertyOp32
 70
     1
102
RTVSPropertyOp33
 70
     1
102
RTVSPropertyOp34
 70
     1
102
RTVSPropertyOp35
 70
     1
102
RTVSPropertyOp36
 70
     1
102
RTVSPropertyOp37
 70
     1
102
RTVSPropertyOp38
 70
     1
102
RTVSPropertyOp39
 70
     1
102
RTVSPropertyOp40
 70
     1
102
RTVSPropertyOp41
 70
     1
102
RTVSPropertyOp42
 70
     1
102
RTVSPropertyOp43
 70
     1
102
RTVSPropertyOp44
 70
     1
102
RTVSPropertyOp45
 70
     1
102
RTVSPropertyOp46
 70
     1
102
RTVSPropertyOp47
 70
     1
102
RTVSPropertyOp48
 70
     1
102
RTVSPropertyOp49
 70
     1
102
RTVSPropertyOp50
 70
     1
102
RTVSPropertyOp51
 70
     0
102
RTVSPropertyOp52
 70
     0
102
RTVSPropertyOp53
 70
     1
102
RTVSPropertyOp54
 70
     1
102
RTVSPropertyOp55
 70
     1
102
RTVSPropertyOp56
 70
     1
102
RTVSPropertyOp57
 70
     1
102
RTVSPost2010Prop28
280
     0
102
RTVSPost2010PropOp28
 70
     1
102
RTVSPost2010Prop29
280
     1
102
RTVSPost2010PropOp29
 70
     1
102
RTVSPost2010Prop30
280
     1
102
RTVSPost2010PropOp30
 70
     1
102
RTVSPost2010Prop31
280
     0
102
RTVSPost2010PropOp31
 70
     1
102
RTVSPost2010Prop32
280
     0
102
RTVSPost2010PropOp32
 70
     1
102
RTVSPost2010Prop33
280
     0
102
RTVSPost2010PropOp33
 70
     1
102
RTVSPost2010Prop34
280
     0
102
RTVSPost2010PropOp34
 70
     1
102
RTVSPost2010Prop35
280
     0
102
RTVSPost2010PropOp35
 70
     1
102
RTVSPost2010Prop36
280
     0
102
RTVSPost2010PropOp36
 70
     1
102
RTVSPost2010Prop37
 90
       50
102
RTVSPost2010PropOp37
 70
     1
102
RTVSPost2010Prop38
140
0.0
102
RTVSPost2010PropOp38
 70
     1
102
RTVSPost2010Prop39
140
1.0
102
RTVSPost2010PropOp39
 70
     1
102
RTVSPost2010Prop40
 90
        0
102
RTVSPost2010PropOp40
 70
     1
102
RTVSPost2010Prop41ColorIndex
 90
       18
102
RTVSPost2010Prop41ColorRGB
 90
        0
102
RTVSPost2010PropOp41
 70
     1
102
RTVSPost2010Prop42
 90
       50
102
RTVSPost2010PropOp42
 70
     1
102
RTVSPost2010Prop43
 90
        3
102
RTVSPost2010PropOp43
 70
     1
102
RTVSPost2010Prop44ColorIndex
 90
        5
102
RTVSPost2010Prop44ColorRGB
 90
      255
102
RTVSPost2010PropOp44
 70
     1
102
RTVSPost2010Prop45
280
     0
102
RTVSPost2010PropOp45
 70
     1
102
RTVSPost2010Prop46
 90
       50
102
RTVSPost2010PropOp46
 70
     1
102
RTVSPost2010Prop47
 90
       50
102
RTVSPost2010PropOp47
 70
     1
102
RTVSPost2010Prop48
 90
       50
102
RTVSPost2010PropOp48
 70
     1
102
RTVSPost2010Prop49
280
     0
102
RTVSPost2010PropOp49
 70
     1
102
RTVSPost2010Prop50
 90
       50
102
RTVSPost2010PropOp50
 70
     1
102
RTVSPost2010Prop51ColorIndex
 90
      256
102
RTVSPost2010Prop51ColorRGB
 90
-16777216
102
RTVSPost2010PropOp51
 70
     0
102
RTVSPost2010Prop52
140
1.0
102
RTVSPost2010PropOp52
 70
     0
102
RTVSPost2010Prop53
 90
        2
102
RTVSPost2010PropOp53
 70
     1
102
RTVSPost2010Prop54
  1
strokes_ogs.tif
102
RTVSPost2010PropOp54
 70
     1
102
RTVSPost2010Prop55
280
     0
102
RTVSPost2010PropOp55
 70
     1
102
RTVSPost2010Prop56
140
1.0
102
RTVSPost2010PropOp56
 70
     1
102
RTVSPost2010Prop57
140
1.0
102
RTVSPost2010PropOp57
 70
     1
  0
XRECORD
  5
AA9
102
{ACAD_REACTORS
330
AA8
102
}
330
AA8
100
AcDbXrecord
280
     1
102
RTVSPropertyOp0
 70
     1
102
RTVSPropertyOp1
 70
     1
102
RTVSPropertyOp2
 70
     1
102
RTVSPropertyOp3
 70
     1
102
RTVSPropertyOp4
 70
     1
102
RTVSPropertyOp5
 70
     1
102
RTVSPropertyOp6
 70
     1
102
RTVSPropertyOp7
 70
     1
102
RTVSPropertyOp8
 70
     1
102
RTVSPropertyOp9
 70
     1
102
RTVSPropertyOp10
 70
     1
102
RTVSPropertyOp11
 70
     1
102
RTVSPropertyOp12
 70
     1
102
RTVSPropertyOp13
 70
     1
102
RTVSPropertyOp14
 70
     1
102
RTVSPropertyOp15
 70
     1
102
RTVSPropertyOp16
 70
     1
102
RTVSPropertyOp17
 70
     1
102
RTVSPropertyOp18
 70
     1
102
RTVSPropertyOp19
 70
     1
102
RTVSPropertyOp20
 70
     1
102
RTVSPropertyOp21
 70
     1
102
RTVSPropertyOp22
 70
     1
102
RTVSPropertyOp23
 70
     1
102
RTVSPropertyOp24
 70
     1
102
RTVSPropertyOp25
 70
     1
102
RTVSPropertyOp26
 70
     1
102
RTVSPropertyOp27
 70
     1
102
RTVSPropertyOp28
 70
     1
102
RTVSPropertyOp29
 70
     1
102
RTVSPropertyOp30
 70
     1
102
RTVSPropertyOp31
 70
     1
102
RTVSPropertyOp32
 70
     1
102
RTVSPropertyOp33
 70
     1
102
RTVSPropertyOp34
 70
     1
102
RTVSPropertyOp35
 70
     1
102
RTVSPropertyOp36
 70
     1
102
RTVSPropertyOp37
 70
     1
102
RTVSPropertyOp38
 70
     1
102
RTVSPropertyOp39
 70
     1
102
RTVSPropertyOp40
 70
     1
102
RTVSPropertyOp41
 70
     1
102
RTVSPropertyOp42
 70
     1
102
RTVSPropertyOp43
 70
     1
102
RTVSPropertyOp44
 70
     1
102
RTVSPropertyOp45
 70
     1
102
RTVSPropertyOp46
 70
     1
102
RTVSPropertyOp47
 70
     1
102
RTVSPropertyOp48
 70
     1
102
RTVSPropertyOp49
 70
     1
102
RTVSPropertyOp50
 70
     1
102
RTVSPropertyOp51
 70
     0
102
RTVSPropertyOp52
 70
     0
102
RTVSPropertyOp53
 70
     1
102
RTVSPropertyOp54
 70
     1
102
RTVSPropertyOp55
 70
     1
102
RTVSPropertyOp56
 70
     1
102
RTVSPropertyOp57
 70
     1
102
RTVSPost2010Prop28
280
     0
102
RTVSPost2010PropOp28
 70
     1
102
RTVSPost2010Prop29
280
     1
102
RTVSPost2010PropOp29
 70
     1
102
RTVSPost2010Prop30
280
     1
102
RTVSPost2010PropOp30
 70
     1
102
RTVSPost2010Prop31
280
     0
102
RTVSPost2010PropOp31
 70
     1
102
RTVSPost2010Prop32
280
     0
102
RTVSPost2010PropOp32
 70
     1
102
RTVSPost2010Prop33
280
     0
102
RTVSPost2010PropOp33
 70
     1
102
RTVSPost2010Prop34
280
     0
102
RTVSPost2010PropOp34
 70
     1
102
RTVSPost2010Prop35
280
     0
102
RTVSPost2010PropOp35
 70
     1
102
RTVSPost2010Prop36
280
     0
102
RTVSPost2010PropOp36
 70
     1
102
RTVSPost2010Prop37
 90
       50
102
RTVSPost2010PropOp37
 70
     1
102
RTVSPost2010Prop38
140
0.0
102
RTVSPost2010PropOp38
 70
     1
102
RTVSPost2010Prop39
140
1.0
102
RTVSPost2010PropOp39
 70
     1
102
RTVSPost2010Prop40
 90
        0
102
RTVSPost2010PropOp40
 70
     1
102
RTVSPost2010Prop41ColorIndex
 90
       18
102
RTVSPost2010Prop41ColorRGB
 90
        0
102
RTVSPost2010PropOp41
 70
     1
102
RTVSPost2010Prop42
 90
       50
102
RTVSPost2010PropOp42
 70
     1
102
RTVSPost2010Prop43
 90
        3
102
RTVSPost2010PropOp43
 70
     1
102
RTVSPost2010Prop44ColorIndex
 90
        5
102
RTVSPost2010Prop44ColorRGB
 90
      255
102
RTVSPost2010PropOp44
 70
     1
102
RTVSPost2010Prop45
280
     0
102
RTVSPost2010PropOp45
 70
     1
102
RTVSPost2010Prop46
 90
       50
102
RTVSPost2010PropOp46
 70
     1
102
RTVSPost2010Prop47
 90
       50
102
RTVSPost2010PropOp47
 70
     1
102
RTVSPost2010Prop48
 90
       50
102
RTVSPost2010PropOp48
 70
     1
102
RTVSPost2010Prop49
280
     0
102
RTVSPost2010PropOp49
 70
     1
102
RTVSPost2010Prop50
 90
       50
102
RTVSPost2010PropOp50
 70
     1
102
RTVSPost2010Prop51ColorIndex
 90
      256
102
RTVSPost2010Prop51ColorRGB
 90
-16777216
102
RTVSPost2010PropOp51
 70
     0
102
RTVSPost2010Prop52
140
1.0
102
RTVSPost2010PropOp52
 70
     0
102
RTVSPost2010Prop53
 90
        2
102
RTVSPost2010PropOp53
 70
     1
102
RTVSPost2010Prop54
  1
strokes_ogs.tif
102
RTVSPost2010PropOp54
 70
     1
102
RTVSPost2010Prop55
280
     0
102
RTVSPost2010PropOp55
 70
     1
102
RTVSPost2010Prop56
140
1.0
102
RTVSPost2010PropOp56
 70
     1
102
RTVSPost2010Prop57
140
1.0
102
RTVSPost2010PropOp57
 70
     1
  0
XRECORD
  5
AB1
102
{ACAD_REACTORS
330
AB0
102
}
330
AB0
100
AcDbXrecord
280
     1
102
RTVSPropertyOp0
 70
     0
102
RTVSPropertyOp1
 70
     0
102
RTVSPropertyOp2
 70
     0
102
RTVSPropertyOp3
 70
     0
102
RTVSPropertyOp4
 70
     0
102
RTVSPropertyOp5
 70
     0
102
RTVSPropertyOp6
 70
     0
102
RTVSPropertyOp7
 70
     0
102
RTVSPropertyOp8
 70
     0
102
RTVSPropertyOp9
 70
     0
102
RTVSPropertyOp10
 70
     0
102
RTVSPropertyOp11
 70
     0
102
RTVSPropertyOp12
 70
     0
102
RTVSPropertyOp13
 70
     0
102
RTVSPropertyOp14
 70
     0
102
RTVSPropertyOp15
 70
     0
102
RTVSPropertyOp16
 70
     0
102
RTVSPropertyOp17
 70
     0
102
RTVSPropertyOp18
 70
     0
102
RTVSPropertyOp19
 70
     0
102
RTVSPropertyOp20
 70
     0
102
RTVSPropertyOp21
 70
     0
102
RTVSPropertyOp22
 70
     0
102
RTVSPropertyOp23
 70
     0
102
RTVSPropertyOp24
 70
     0
102
RTVSPropertyOp25
 70
     0
102
RTVSPropertyOp26
 70
     0
102
RTVSPropertyOp27
 70
     0
102
RTVSPropertyOp28
 70
     1
102
RTVSPropertyOp29
 70
     1
102
RTVSPropertyOp30
 70
     1
102
RTVSPropertyOp31
 70
     1
102
RTVSPropertyOp32
 70
     1
102
RTVSPropertyOp33
 70
     1
102
RTVSPropertyOp34
 70
     1
102
RTVSPropertyOp35
 70
     1
102
RTVSPropertyOp36
 70
     1
102
RTVSPropertyOp37
 70
     1
102
RTVSPropertyOp38
 70
     1
102
RTVSPropertyOp39
 70
     1
102
RTVSPropertyOp40
 70
     1
102
RTVSPropertyOp41
 70
     1
102
RTVSPropertyOp42
 70
     1
102
RTVSPropertyOp43
 70
     1
102
RTVSPropertyOp44
 70
     1
102
RTVSPropertyOp45
 70
     1
102
RTVSPropertyOp46
 70
     1
102
RTVSPropertyOp47
 70
     1
102
RTVSPropertyOp48
 70
     1
102
RTVSPropertyOp49
 70
     1
102
RTVSPropertyOp50
 70
     1
102
RTVSPropertyOp51
 70
     0
102
RTVSPropertyOp52
 70
     0
102
RTVSPropertyOp53
 70
     1
102
RTVSPropertyOp54
 70
     1
102
RTVSPropertyOp55
 70
     1
102
RTVSPropertyOp56
 70
     1
102
RTVSPropertyOp57
 70
     1
102
RTVSPost2010Prop28
280
     0
102
RTVSPost2010PropOp28
 70
     1
102
RTVSPost2010Prop29
280
     1
102
RTVSPost2010PropOp29
 70
     1
102
RTVSPost2010Prop30
280
     1
102
RTVSPost2010PropOp30
 70
     1
102
RTVSPost2010Prop31
280
     0
102
RTVSPost2010PropOp31
 70
     1
102
RTVSPost2010Prop32
280
     0
102
RTVSPost2010PropOp32
 70
     1
102
RTVSPost2010Prop33
280
     0
102
RTVSPost2010PropOp33
 70
     1
102
RTVSPost2010Prop34
280
     0
102
RTVSPost2010PropOp34
 70
     1
102
RTVSPost2010Prop35
280
     0
102
RTVSPost2010PropOp35
 70
     1
102
RTVSPost2010Prop36
280
     0
102
RTVSPost2010PropOp36
 70
     1
102
RTVSPost2010Prop37
 90
       50
102
RTVSPost2010PropOp37
 70
     1
102
RTVSPost2010Prop38
140
0.0
102
RTVSPost2010PropOp38
 70
     1
102
RTVSPost2010Prop39
140
1.0
102
RTVSPost2010PropOp39
 70
     1
102
RTVSPost2010Prop40
 90
        0
102
RTVSPost2010PropOp40
 70
     1
102
RTVSPost2010Prop41ColorIndex
 90
       18
102
RTVSPost2010Prop41ColorRGB
 90
        0
102
RTVSPost2010PropOp41
 70
     1
102
RTVSPost2010Prop42
 90
       50
102
RTVSPost2010PropOp42
 70
     1
102
RTVSPost2010Prop43
 90
        3
102
RTVSPost2010PropOp43
 70
     1
102
RTVSPost2010Prop44ColorIndex
 90
        5
102
RTVSPost2010Prop44ColorRGB
 90
      255
102
RTVSPost2010PropOp44
 70
     1
102
RTVSPost2010Prop45
280
     0
102
RTVSPost2010PropOp45
 70
     1
102
RTVSPost2010Prop46
 90
       50
102
RTVSPost2010PropOp46
 70
     1
102
RTVSPost2010Prop47
 90
       50
102
RTVSPost2010PropOp47
 70
     1
102
RTVSPost2010Prop48
 90
       50
102
RTVSPost2010PropOp48
 70
     1
102
RTVSPost2010Prop49
280
     0
102
RTVSPost2010PropOp49
 70
     1
102
RTVSPost2010Prop50
 90
       50
102
RTVSPost2010PropOp50
 70
     1
102
RTVSPost2010Prop51ColorIndex
 90
      256
102
RTVSPost2010Prop51ColorRGB
 90
-16777216
102
RTVSPost2010PropOp51
 70
     0
102
RTVSPost2010Prop52
140
1.0
102
RTVSPost2010PropOp52
 70
     0
102
RTVSPost2010Prop53
 90
        2
102
RTVSPost2010PropOp53
 70
     1
102
RTVSPost2010Prop54
  1
strokes_ogs.tif
102
RTVSPost2010PropOp54
 70
     1
102
RTVSPost2010Prop55
280
     0
102
RTVSPost2010PropOp55
 70
     1
102
RTVSPost2010Prop56
140
1.0
102
RTVSPost2010PropOp56
 70
     1
102
RTVSPost2010Prop57
140
1.0
102
RTVSPost2010PropOp57
 70
     1
  0
XRECORD
  5
A9F
102
{ACAD_REACTORS
330
A9E
102
}
330
A9E
100
AcDbXrecord
280
     1
102
RTVSPropertyOp0
 70
     1
102
RTVSPropertyOp1
 70
     1
102
RTVSPropertyOp2
 70
     1
102
RTVSPropertyOp3
 70
     1
102
RTVSPropertyOp4
 70
     1
102
RTVSPropertyOp5
 70
     1
102
RTVSPropertyOp6
 70
     1
102
RTVSPropertyOp7
 70
     1
102
RTVSPropertyOp8
 70
     1
102
RTVSPropertyOp9
 70
     1
102
RTVSPropertyOp10
 70
     1
102
RTVSPropertyOp11
 70
     1
102
RTVSPropertyOp12
 70
     1
102
RTVSPropertyOp13
 70
     1
102
RTVSPropertyOp14
 70
     1
102
RTVSPropertyOp15
 70
     1
102
RTVSPropertyOp16
 70
     1
102
RTVSPropertyOp17
 70
     1
102
RTVSPropertyOp18
 70
     1
102
RTVSPropertyOp19
 70
     1
102
RTVSPropertyOp20
 70
     1
102
RTVSPropertyOp21
 70
     1
102
RTVSPropertyOp22
 70
     1
102
RTVSPropertyOp23
 70
     1
102
RTVSPropertyOp24
 70
     1
102
RTVSPropertyOp25
 70
     1
102
RTVSPropertyOp26
 70
     1
102
RTVSPropertyOp27
 70
     1
102
RTVSPropertyOp28
 70
     1
102
RTVSPropertyOp29
 70
     1
102
RTVSPropertyOp30
 70
     1
102
RTVSPropertyOp31
 70
     1
102
RTVSPropertyOp32
 70
     1
102
RTVSPropertyOp33
 70
     1
102
RTVSPropertyOp34
 70
     1
102
RTVSPropertyOp35
 70
     1
102
RTVSPropertyOp36
 70
     1
102
RTVSPropertyOp37
 70
     1
102
RTVSPropertyOp38
 70
     1
102
RTVSPropertyOp39
 70
     1
102
RTVSPropertyOp40
 70
     1
102
RTVSPropertyOp41
 70
     1
102
RTVSPropertyOp42
 70
     1
102
RTVSPropertyOp43
 70
     1
102
RTVSPropertyOp44
 70
     1
102
RTVSPropertyOp45
 70
     1
102
RTVSPropertyOp46
 70
     1
102
RTVSPropertyOp47
 70
     1
102
RTVSPropertyOp48
 70
     1
102
RTVSPropertyOp49
 70
     1
102
RTVSPropertyOp50
 70
     1
102
RTVSPropertyOp51
 70
     0
102
RTVSPropertyOp52
 70
     0
102
RTVSPropertyOp53
 70
     1
102
RTVSPropertyOp54
 70
     1
102
RTVSPropertyOp55
 70
     1
102
RTVSPropertyOp56
 70
     1
102
RTVSPropertyOp57
 70
     1
102
RTVSPost2010Prop28
280
     0
102
RTVSPost2010PropOp28
 70
     1
102
RTVSPost2010Prop29
280
     1
102
RTVSPost2010PropOp29
 70
     1
102
RTVSPost2010Prop30
280
     1
102
RTVSPost2010PropOp30
 70
     1
102
RTVSPost2010Prop31
280
     0
102
RTVSPost2010PropOp31
 70
     1
102
RTVSPost2010Prop32
280
     0
102
RTVSPost2010PropOp32
 70
     1
102
RTVSPost2010Prop33
280
     0
102
RTVSPost2010PropOp33
 70
     1
102
RTVSPost2010Prop34
280
     0
102
RTVSPost2010PropOp34
 70
     1
102
RTVSPost2010Prop35
280
     0
102
RTVSPost2010PropOp35
 70
     1
102
RTVSPost2010Prop36
280
     0
102
RTVSPost2010PropOp36
 70
     1
102
RTVSPost2010Prop37
 90
       50
102
RTVSPost2010PropOp37
 70
     1
102
RTVSPost2010Prop38
140
0.0
102
RTVSPost2010PropOp38
 70
     1
102
RTVSPost2010Prop39
140
1.0
102
RTVSPost2010PropOp39
 70
     1
102
RTVSPost2010Prop40
 90
        0
102
RTVSPost2010PropOp40
 70
     1
102
RTVSPost2010Prop41ColorIndex
 90
       18
102
RTVSPost2010Prop41ColorRGB
 90
        0
102
RTVSPost2010PropOp41
 70
     1
102
RTVSPost2010Prop42
 90
       50
102
RTVSPost2010PropOp42
 70
     1
102
RTVSPost2010Prop43
 90
        3
102
RTVSPost2010PropOp43
 70
     1
102
RTVSPost2010Prop44ColorIndex
 90
        5
102
RTVSPost2010Prop44ColorRGB
 90
      255
102
RTVSPost2010PropOp44
 70
     1
102
RTVSPost2010Prop45
280
     0
102
RTVSPost2010PropOp45
 70
     1
102
RTVSPost2010Prop46
 90
       50
102
RTVSPost2010PropOp46
 70
     1
102
RTVSPost2010Prop47
 90
       50
102
RTVSPost2010PropOp47
 70
     1
102
RTVSPost2010Prop48
 90
       50
102
RTVSPost2010PropOp48
 70
     1
102
RTVSPost2010Prop49
280
     0
102
RTVSPost2010PropOp49
 70
     1
102
RTVSPost2010Prop50
 90
       50
102
RTVSPost2010PropOp50
 70
     1
102
RTVSPost2010Prop51ColorIndex
 90
      256
102
RTVSPost2010Prop51ColorRGB
 90
-16777216
102
RTVSPost2010PropOp51
 70
     0
102
RTVSPost2010Prop52
140
1.0
102
RTVSPost2010PropOp52
 70
     0
102
RTVSPost2010Prop53
 90
        2
102
RTVSPost2010PropOp53
 70
     1
102
RTVSPost2010Prop54
  1
strokes_ogs.tif
102
RTVSPost2010PropOp54
 70
     1
102
RTVSPost2010Prop55
280
     0
102
RTVSPost2010PropOp55
 70
     1
102
RTVSPost2010Prop56
140
1.0
102
RTVSPost2010PropOp56
 70
     1
102
RTVSPost2010Prop57
140
1.0
102
RTVSPost2010PropOp57
 70
     1
  0
XRECORD
  5
ABD
102
{ACAD_REACTORS
330
ABC
102
}
330
ABC
100
AcDbXrecord
280
     1
102
RTVSPropertyOp0
 70
     1
102
RTVSPropertyOp1
 70
     1
102
RTVSPropertyOp2
 70
     1
102
RTVSPropertyOp3
 70
     1
102
RTVSPropertyOp4
 70
     1
102
RTVSPropertyOp5
 70
     1
102
RTVSPropertyOp6
 70
     1
102
RTVSPropertyOp7
 70
     1
102
RTVSPropertyOp8
 70
     1
102
RTVSPropertyOp9
 70
     1
102
RTVSPropertyOp10
 70
     1
102
RTVSPropertyOp11
 70
     1
102
RTVSPropertyOp12
 70
     1
102
RTVSPropertyOp13
 70
     1
102
RTVSPropertyOp14
 70
     1
102
RTVSPropertyOp15
 70
     1
102
RTVSPropertyOp16
 70
     1
102
RTVSPropertyOp17
 70
     1
102
RTVSPropertyOp18
 70
     1
102
RTVSPropertyOp19
 70
     1
102
RTVSPropertyOp20
 70
     1
102
RTVSPropertyOp21
 70
     1
102
RTVSPropertyOp22
 70
     1
102
RTVSPropertyOp23
 70
     1
102
RTVSPropertyOp24
 70
     1
102
RTVSPropertyOp25
 70
     1
102
RTVSPropertyOp26
 70
     1
102
RTVSPropertyOp27
 70
     1
102
RTVSPropertyOp28
 70
     1
102
RTVSPropertyOp29
 70
     1
102
RTVSPropertyOp30
 70
     1
102
RTVSPropertyOp31
 70
     1
102
RTVSPropertyOp32
 70
     1
102
RTVSPropertyOp33
 70
     1
102
RTVSPropertyOp34
 70
     1
102
RTVSPropertyOp35
 70
     1
102
RTVSPropertyOp36
 70
     1
102
RTVSPropertyOp37
 70
     1
102
RTVSPropertyOp38
 70
     1
102
RTVSPropertyOp39
 70
     1
102
RTVSPropertyOp40
 70
     1
102
RTVSPropertyOp41
 70
     1
102
RTVSPropertyOp42
 70
     1
102
RTVSPropertyOp43
 70
     1
102
RTVSPropertyOp44
 70
     1
102
RTVSPropertyOp45
 70
     1
102
RTVSPropertyOp46
 70
     1
102
RTVSPropertyOp47
 70
     1
102
RTVSPropertyOp48
 70
     1
102
RTVSPropertyOp49
 70
     1
102
RTVSPropertyOp50
 70
     1
102
RTVSPropertyOp51
 70
     0
102
RTVSPropertyOp52
 70
     0
102
RTVSPropertyOp53
 70
     1
102
RTVSPropertyOp54
 70
     1
102
RTVSPropertyOp55
 70
     1
102
RTVSPropertyOp56
 70
     1
102
RTVSPropertyOp57
 70
     1
102
RTVSPost2010Prop28
280
     0
102
RTVSPost2010PropOp28
 70
     1
102
RTVSPost2010Prop29
280
     1
102
RTVSPost2010PropOp29
 70
     1
102
RTVSPost2010Prop30
280
     1
102
RTVSPost2010PropOp30
 70
     1
102
RTVSPost2010Prop31
280
     0
102
RTVSPost2010PropOp31
 70
     1
102
RTVSPost2010Prop32
280
     0
102
RTVSPost2010PropOp32
 70
     1
102
RTVSPost2010Prop33
280
     0
102
RTVSPost2010PropOp33
 70
     1
102
RTVSPost2010Prop34
280
     0
102
RTVSPost2010PropOp34
 70
     1
102
RTVSPost2010Prop35
280
     0
102
RTVSPost2010PropOp35
 70
     1
102
RTVSPost2010Prop36
280
     0
102
RTVSPost2010PropOp36
 70
     1
102
RTVSPost2010Prop37
 90
       50
102
RTVSPost2010PropOp37
 70
     1
102
RTVSPost2010Prop38
140
0.0
102
RTVSPost2010PropOp38
 70
     1
102
RTVSPost2010Prop39
140
1.0
102
RTVSPost2010PropOp39
 70
     1
102
RTVSPost2010Prop40
 90
        0
102
RTVSPost2010PropOp40
 70
     1
102
RTVSPost2010Prop41ColorIndex
 90
       18
102
RTVSPost2010Prop41ColorRGB
 90
        0
102
RTVSPost2010PropOp41
 70
     1
102
RTVSPost2010Prop42
 90
       50
102
RTVSPost2010PropOp42
 70
     1
102
RTVSPost2010Prop43
 90
        3
102
RTVSPost2010PropOp43
 70
     1
102
RTVSPost2010Prop44ColorIndex
 90
        5
102
RTVSPost2010Prop44ColorRGB
 90
      255
102
RTVSPost2010PropOp44
 70
     1
102
RTVSPost2010Prop45
280
     0
102
RTVSPost2010PropOp45
 70
     1
102
RTVSPost2010Prop46
 90
       50
102
RTVSPost2010PropOp46
 70
     1
102
RTVSPost2010Prop47
 90
       50
102
RTVSPost2010PropOp47
 70
     1
102
RTVSPost2010Prop48
 90
       50
102
RTVSPost2010PropOp48
 70
     1
102
RTVSPost2010Prop49
280
     0
102
RTVSPost2010PropOp49
 70
     1
102
RTVSPost2010Prop50
 90
       50
102
RTVSPost2010PropOp50
 70
     1
102
RTVSPost2010Prop51ColorIndex
 90
      256
102
RTVSPost2010Prop51ColorRGB
 90
-16777216
102
RTVSPost2010PropOp51
 70
     0
102
RTVSPost2010Prop52
140
1.0
102
RTVSPost2010PropOp52
 70
     0
102
RTVSPost2010Prop53
 90
        2
102
RTVSPost2010PropOp53
 70
     1
102
RTVSPost2010Prop54
  1
strokes_ogs.tif
102
RTVSPost2010PropOp54
 70
     1
102
RTVSPost2010Prop55
280
     0
102
RTVSPost2010PropOp55
 70
     1
102
RTVSPost2010Prop56
140
1.0
102
RTVSPost2010PropOp56
 70
     1
102
RTVSPost2010Prop57
140
1.0
102
RTVSPost2010PropOp57
 70
     1
  0
XRECORD
  5
ABB
102
{ACAD_REACTORS
330
ABA
102
}
330
ABA
100
AcDbXrecord
280
     1
102
RTVSPropertyOp0
 70
     1
102
RTVSPropertyOp1
 70
     1
102
RTVSPropertyOp2
 70
     1
102
RTVSPropertyOp3
 70
     1
102
RTVSPropertyOp4
 70
     1
102
RTVSPropertyOp5
 70
     1
102
RTVSPropertyOp6
 70
     1
102
RTVSPropertyOp7
 70
     1
102
RTVSPropertyOp8
 70
     1
102
RTVSPropertyOp9
 70
     1
102
RTVSPropertyOp10
 70
     1
102
RTVSPropertyOp11
 70
     1
102
RTVSPropertyOp12
 70
     1
102
RTVSPropertyOp13
 70
     1
102
RTVSPropertyOp14
 70
     1
102
RTVSPropertyOp15
 70
     1
102
RTVSPropertyOp16
 70
     1
102
RTVSPropertyOp17
 70
     1
102
RTVSPropertyOp18
 70
     1
102
RTVSPropertyOp19
 70
     1
102
RTVSPropertyOp20
 70
     1
102
RTVSPropertyOp21
 70
     1
102
RTVSPropertyOp22
 70
     1
102
RTVSPropertyOp23
 70
     1
102
RTVSPropertyOp24
 70
     1
102
RTVSPropertyOp25
 70
     1
102
RTVSPropertyOp26
 70
     1
102
RTVSPropertyOp27
 70
     1
102
RTVSPropertyOp28
 70
     1
102
RTVSPropertyOp29
 70
     1
102
RTVSPropertyOp30
 70
     1
102
RTVSPropertyOp31
 70
     1
102
RTVSPropertyOp32
 70
     1
102
RTVSPropertyOp33
 70
     1
102
RTVSPropertyOp34
 70
     1
102
RTVSPropertyOp35
 70
     1
102
RTVSPropertyOp36
 70
     1
102
RTVSPropertyOp37
 70
     1
102
RTVSPropertyOp38
 70
     1
102
RTVSPropertyOp39
 70
     1
102
RTVSPropertyOp40
 70
     1
102
RTVSPropertyOp41
 70
     1
102
RTVSPropertyOp42
 70
     1
102
RTVSPropertyOp43
 70
     1
102
RTVSPropertyOp44
 70
     1
102
RTVSPropertyOp45
 70
     1
102
RTVSPropertyOp46
 70
     1
102
RTVSPropertyOp47
 70
     1
102
RTVSPropertyOp48
 70
     1
102
RTVSPropertyOp49
 70
     1
102
RTVSPropertyOp50
 70
     1
102
RTVSPropertyOp51
 70
     0
102
RTVSPropertyOp52
 70
     0
102
RTVSPropertyOp53
 70
     1
102
RTVSPropertyOp54
 70
     1
102
RTVSPropertyOp55
 70
     1
102
RTVSPropertyOp56
 70
     1
102
RTVSPropertyOp57
 70
     1
102
RTVSPost2010Prop28
280
     0
102
RTVSPost2010PropOp28
 70
     1
102
RTVSPost2010Prop29
280
     1
102
RTVSPost2010PropOp29
 70
     1
102
RTVSPost2010Prop30
280
     1
102
RTVSPost2010PropOp30
 70
     1
102
RTVSPost2010Prop31
280
     0
102
RTVSPost2010PropOp31
 70
     1
102
RTVSPost2010Prop32
280
     0
102
RTVSPost2010PropOp32
 70
     1
102
RTVSPost2010Prop33
280
     0
102
RTVSPost2010PropOp33
 70
     1
102
RTVSPost2010Prop34
280
     0
102
RTVSPost2010PropOp34
 70
     1
102
RTVSPost2010Prop35
280
     0
102
RTVSPost2010PropOp35
 70
     1
102
RTVSPost2010Prop36
280
     0
102
RTVSPost2010PropOp36
 70
     1
102
RTVSPost2010Prop37
 90
       50
102
RTVSPost2010PropOp37
 70
     1
102
RTVSPost2010Prop38
140
0.0
102
RTVSPost2010PropOp38
 70
     1
102
RTVSPost2010Prop39
140
1.0
102
RTVSPost2010PropOp39
 70
     1
102
RTVSPost2010Prop40
 90
        0
102
RTVSPost2010PropOp40
 70
     1
102
RTVSPost2010Prop41ColorIndex
 90
       18
102
RTVSPost2010Prop41ColorRGB
 90
        0
102
RTVSPost2010PropOp41
 70
     1
102
RTVSPost2010Prop42
 90
       50
102
RTVSPost2010PropOp42
 70
     1
102
RTVSPost2010Prop43
 90
        3
102
RTVSPost2010PropOp43
 70
     1
102
RTVSPost2010Prop44ColorIndex
 90
        5
102
RTVSPost2010Prop44ColorRGB
 90
      255
102
RTVSPost2010PropOp44
 70
     1
102
RTVSPost2010Prop45
280
     0
102
RTVSPost2010PropOp45
 70
     1
102
RTVSPost2010Prop46
 90
       50
102
RTVSPost2010PropOp46
 70
     1
102
RTVSPost2010Prop47
 90
       50
102
RTVSPost2010PropOp47
 70
     1
102
RTVSPost2010Prop48
 90
       50
102
RTVSPost2010PropOp48
 70
     1
102
RTVSPost2010Prop49
280
     0
102
RTVSPost2010PropOp49
 70
     1
102
RTVSPost2010Prop50
 90
       50
102
RTVSPost2010PropOp50
 70
     1
102
RTVSPost2010Prop51ColorIndex
 90
      256
102
RTVSPost2010Prop51ColorRGB
 90
-16777216
102
RTVSPost2010PropOp51
 70
     0
102
RTVSPost2010Prop52
140
1.0
102
RTVSPost2010PropOp52
 70
     0
102
RTVSPost2010Prop53
 90
        2
102
RTVSPost2010PropOp53
 70
     1
102
RTVSPost2010Prop54
  1
strokes_ogs.tif
102
RTVSPost2010PropOp54
 70
     1
102
RTVSPost2010Prop55
280
     0
102
RTVSPost2010PropOp55
 70
     1
102
RTVSPost2010Prop56
140
1.0
102
RTVSPost2010PropOp56
 70
     1
102
RTVSPost2010Prop57
140
1.0
102
RTVSPost2010PropOp57
 70
     1
  0
XRECORD
  5
AB5
102
{ACAD_REACTORS
330
AB4
102
}
330
AB4
100
AcDbXrecord
280
     1
102
RTVSPropertyOp0
 70
     1
102
RTVSPropertyOp1
 70
     1
102
RTVSPropertyOp2
 70
     1
102
RTVSPropertyOp3
 70
     1
102
RTVSPropertyOp4
 70
     1
102
RTVSPropertyOp5
 70
     1
102
RTVSPropertyOp6
 70
     1
102
RTVSPropertyOp7
 70
     1
102
RTVSPropertyOp8
 70
     1
102
RTVSPropertyOp9
 70
     1
102
RTVSPropertyOp10
 70
     1
102
RTVSPropertyOp11
 70
     1
102
RTVSPropertyOp12
 70
     1
102
RTVSPropertyOp13
 70
     1
102
RTVSPropertyOp14
 70
     1
102
RTVSPropertyOp15
 70
     1
102
RTVSPropertyOp16
 70
     1
102
RTVSPropertyOp17
 70
     1
102
RTVSPropertyOp18
 70
     1
102
RTVSPropertyOp19
 70
     1
102
RTVSPropertyOp20
 70
     1
102
RTVSPropertyOp21
 70
     1
102
RTVSPropertyOp22
 70
     1
102
RTVSPropertyOp23
 70
     1
102
RTVSPropertyOp24
 70
     1
102
RTVSPropertyOp25
 70
     1
102
RTVSPropertyOp26
 70
     1
102
RTVSPropertyOp27
 70
     1
102
RTVSPropertyOp28
 70
     1
102
RTVSPropertyOp29
 70
     1
102
RTVSPropertyOp30
 70
     1
102
RTVSPropertyOp31
 70
     1
102
RTVSPropertyOp32
 70
     1
102
RTVSPropertyOp33
 70
     1
102
RTVSPropertyOp34
 70
     1
102
RTVSPropertyOp35
 70
     1
102
RTVSPropertyOp36
 70
     1
102
RTVSPropertyOp37
 70
     1
102
RTVSPropertyOp38
 70
     1
102
RTVSPropertyOp39
 70
     1
102
RTVSPropertyOp40
 70
     1
102
RTVSPropertyOp41
 70
     1
102
RTVSPropertyOp42
 70
     1
102
RTVSPropertyOp43
 70
     1
102
RTVSPropertyOp44
 70
     1
102
RTVSPropertyOp45
 70
     1
102
RTVSPropertyOp46
 70
     1
102
RTVSPropertyOp47
 70
     1
102
RTVSPropertyOp48
 70
     1
102
RTVSPropertyOp49
 70
     1
102
RTVSPropertyOp50
 70
     1
102
RTVSPropertyOp51
 70
     0
102
RTVSPropertyOp52
 70
     0
102
RTVSPropertyOp53
 70
     1
102
RTVSPropertyOp54
 70
     1
102
RTVSPropertyOp55
 70
     1
102
RTVSPropertyOp56
 70
     1
102
RTVSPropertyOp57
 70
     1
102
RTVSPost2010Prop28
280
     0
102
RTVSPost2010PropOp28
 70
     1
102
RTVSPost2010Prop29
280
     1
102
RTVSPost2010PropOp29
 70
     1
102
RTVSPost2010Prop30
280
     1
102
RTVSPost2010PropOp30
 70
     1
102
RTVSPost2010Prop31
280
     0
102
RTVSPost2010PropOp31
 70
     1
102
RTVSPost2010Prop32
280
     0
102
RTVSPost2010PropOp32
 70
     1
102
RTVSPost2010Prop33
280
     0
102
RTVSPost2010PropOp33
 70
     1
102
RTVSPost2010Prop34
280
     0
102
RTVSPost2010PropOp34
 70
     1
102
RTVSPost2010Prop35
280
     0
102
RTVSPost2010PropOp35
 70
     1
102
RTVSPost2010Prop36
280
     0
102
RTVSPost2010PropOp36
 70
     1
102
RTVSPost2010Prop37
 90
       50
102
RTVSPost2010PropOp37
 70
     1
102
RTVSPost2010Prop38
140
0.0
102
RTVSPost2010PropOp38
 70
     1
102
RTVSPost2010Prop39
140
1.0
102
RTVSPost2010PropOp39
 70
     1
102
RTVSPost2010Prop40
 90
        0
102
RTVSPost2010PropOp40
 70
     1
102
RTVSPost2010Prop41ColorIndex
 90
       18
102
RTVSPost2010Prop41ColorRGB
 90
        0
102
RTVSPost2010PropOp41
 70
     1
102
RTVSPost2010Prop42
 90
       50
102
RTVSPost2010PropOp42
 70
     1
102
RTVSPost2010Prop43
 90
        3
102
RTVSPost2010PropOp43
 70
     1
102
RTVSPost2010Prop44ColorIndex
 90
        5
102
RTVSPost2010Prop44ColorRGB
 90
      255
102
RTVSPost2010PropOp44
 70
     1
102
RTVSPost2010Prop45
280
     0
102
RTVSPost2010PropOp45
 70
     1
102
RTVSPost2010Prop46
 90
       50
102
RTVSPost2010PropOp46
 70
     1
102
RTVSPost2010Prop47
 90
       50
102
RTVSPost2010PropOp47
 70
     1
102
RTVSPost2010Prop48
 90
       50
102
RTVSPost2010PropOp48
 70
     1
102
RTVSPost2010Prop49
280
     0
102
RTVSPost2010PropOp49
 70
     1
102
RTVSPost2010Prop50
 90
       50
102
RTVSPost2010PropOp50
 70
     1
102
RTVSPost2010Prop51ColorIndex
 90
      256
102
RTVSPost2010Prop51ColorRGB
 90
-16777216
102
RTVSPost2010PropOp51
 70
     0
102
RTVSPost2010Prop52
140
1.0
102
RTVSPost2010PropOp52
 70
     0
102
RTVSPost2010Prop53
 90
        2
102
RTVSPost2010PropOp53
 70
     1
102
RTVSPost2010Prop54
  1
strokes_ogs.tif
102
RTVSPost2010PropOp54
 70
     1
102
RTVSPost2010Prop55
280
     0
102
RTVSPost2010PropOp55
 70
     1
102
RTVSPost2010Prop56
140
1.0
102
RTVSPost2010PropOp56
 70
     1
102
RTVSPost2010Prop57
140
1.0
102
RTVSPost2010PropOp57
 70
     1
  0
XRECORD
  5
AB7
102
{ACAD_REACTORS
330
AB6
102
}
330
AB6
100
AcDbXrecord
280
     1
102
RTVSPropertyOp0
 70
     1
102
RTVSPropertyOp1
 70
     1
102
RTVSPropertyOp2
 70
     1
102
RTVSPropertyOp3
 70
     1
102
RTVSPropertyOp4
 70
     1
102
RTVSPropertyOp5
 70
     1
102
RTVSPropertyOp6
 70
     1
102
RTVSPropertyOp7
 70
     1
102
RTVSPropertyOp8
 70
     1
102
RTVSPropertyOp9
 70
     1
102
RTVSPropertyOp10
 70
     1
102
RTVSPropertyOp11
 70
     1
102
RTVSPropertyOp12
 70
     1
102
RTVSPropertyOp13
 70
     1
102
RTVSPropertyOp14
 70
     1
102
RTVSPropertyOp15
 70
     1
102
RTVSPropertyOp16
 70
     1
102
RTVSPropertyOp17
 70
     1
102
RTVSPropertyOp18
 70
     1
102
RTVSPropertyOp19
 70
     1
102
RTVSPropertyOp20
 70
     1
102
RTVSPropertyOp21
 70
     1
102
RTVSPropertyOp22
 70
     1
102
RTVSPropertyOp23
 70
     1
102
RTVSPropertyOp24
 70
     1
102
RTVSPropertyOp25
 70
     1
102
RTVSPropertyOp26
 70
     1
102
RTVSPropertyOp27
 70
     1
102
RTVSPropertyOp28
 70
     1
102
RTVSPropertyOp29
 70
     1
102
RTVSPropertyOp30
 70
     1
102
RTVSPropertyOp31
 70
     1
102
RTVSPropertyOp32
 70
     1
102
RTVSPropertyOp33
 70
     1
102
RTVSPropertyOp34
 70
     1
102
RTVSPropertyOp35
 70
     1
102
RTVSPropertyOp36
 70
     1
102
RTVSPropertyOp37
 70
     1
102
RTVSPropertyOp38
 70
     1
102
RTVSPropertyOp39
 70
     1
102
RTVSPropertyOp40
 70
     1
102
RTVSPropertyOp41
 70
     1
102
RTVSPropertyOp42
 70
     1
102
RTVSPropertyOp43
 70
     1
102
RTVSPropertyOp44
 70
     1
102
RTVSPropertyOp45
 70
     1
102
RTVSPropertyOp46
 70
     1
102
RTVSPropertyOp47
 70
     1
102
RTVSPropertyOp48
 70
     1
102
RTVSPropertyOp49
 70
     1
102
RTVSPropertyOp50
 70
     1
102
RTVSPropertyOp51
 70
     0
102
RTVSPropertyOp52
 70
     0
102
RTVSPropertyOp53
 70
     1
102
RTVSPropertyOp54
 70
     1
102
RTVSPropertyOp55
 70
     1
102
RTVSPropertyOp56
 70
     1
102
RTVSPropertyOp57
 70
     1
102
RTVSPost2010Prop28
280
     0
102
RTVSPost2010PropOp28
 70
     1
102
RTVSPost2010Prop29
280
     1
102
RTVSPost2010PropOp29
 70
     1
102
RTVSPost2010Prop30
280
     1
102
RTVSPost2010PropOp30
 70
     1
102
RTVSPost2010Prop31
280
     0
102
RTVSPost2010PropOp31
 70
     1
102
RTVSPost2010Prop32
280
     0
102
RTVSPost2010PropOp32
 70
     1
102
RTVSPost2010Prop33
280
     0
102
RTVSPost2010PropOp33
 70
     1
102
RTVSPost2010Prop34
280
     0
102
RTVSPost2010PropOp34
 70
     1
102
RTVSPost2010Prop35
280
     0
102
RTVSPost2010PropOp35
 70
     1
102
RTVSPost2010Prop36
280
     0
102
RTVSPost2010PropOp36
 70
     1
102
RTVSPost2010Prop37
 90
       50
102
RTVSPost2010PropOp37
 70
     1
102
RTVSPost2010Prop38
140
0.0
102
RTVSPost2010PropOp38
 70
     1
102
RTVSPost2010Prop39
140
1.0
102
RTVSPost2010PropOp39
 70
     1
102
RTVSPost2010Prop40
 90
        0
102
RTVSPost2010PropOp40
 70
     1
102
RTVSPost2010Prop41ColorIndex
 90
       18
102
RTVSPost2010Prop41ColorRGB
 90
        0
102
RTVSPost2010PropOp41
 70
     1
102
RTVSPost2010Prop42
 90
       50
102
RTVSPost2010PropOp42
 70
     1
102
RTVSPost2010Prop43
 90
        3
102
RTVSPost2010PropOp43
 70
     1
102
RTVSPost2010Prop44ColorIndex
 90
        5
102
RTVSPost2010Prop44ColorRGB
 90
      255
102
RTVSPost2010PropOp44
 70
     1
102
RTVSPost2010Prop45
280
     0
102
RTVSPost2010PropOp45
 70
     1
102
RTVSPost2010Prop46
 90
       50
102
RTVSPost2010PropOp46
 70
     1
102
RTVSPost2010Prop47
 90
       50
102
RTVSPost2010PropOp47
 70
     1
102
RTVSPost2010Prop48
 90
       50
102
RTVSPost2010PropOp48
 70
     1
102
RTVSPost2010Prop49
280
     0
102
RTVSPost2010PropOp49
 70
     1
102
RTVSPost2010Prop50
 90
       50
102
RTVSPost2010PropOp50
 70
     1
102
RTVSPost2010Prop51ColorIndex
 90
      256
102
RTVSPost2010Prop51ColorRGB
 90
-16777216
102
RTVSPost2010PropOp51
 70
     0
102
RTVSPost2010Prop52
140
1.0
102
RTVSPost2010PropOp52
 70
     0
102
RTVSPost2010Prop53
 90
        2
102
RTVSPost2010PropOp53
 70
     1
102
RTVSPost2010Prop54
  1
strokes_ogs.tif
102
RTVSPost2010PropOp54
 70
     1
102
RTVSPost2010Prop55
280
     0
102
RTVSPost2010PropOp55
 70
     1
102
RTVSPost2010Prop56
140
1.0
102
RTVSPost2010PropOp56
 70
     1
102
RTVSPost2010Prop57
140
1.0
102
RTVSPost2010PropOp57
 70
     1
  0
XRECORD
  5
AA7
102
{ACAD_REACTORS
330
AA6
102
}
330
AA6
100
AcDbXrecord
280
     1
102
RTVSPropertyOp0
 70
     1
102
RTVSPropertyOp1
 70
     1
102
RTVSPropertyOp2
 70
     1
102
RTVSPropertyOp3
 70
     1
102
RTVSPropertyOp4
 70
     1
102
RTVSPropertyOp5
 70
     1
102
RTVSPropertyOp6
 70
     1
102
RTVSPropertyOp7
 70
     1
102
RTVSPropertyOp8
 70
     1
102
RTVSPropertyOp9
 70
     1
102
RTVSPropertyOp10
 70
     1
102
RTVSPropertyOp11
 70
     1
102
RTVSPropertyOp12
 70
     1
102
RTVSPropertyOp13
 70
     1
102
RTVSPropertyOp14
 70
     1
102
RTVSPropertyOp15
 70
     1
102
RTVSPropertyOp16
 70
     1
102
RTVSPropertyOp17
 70
     1
102
RTVSPropertyOp18
 70
     1
102
RTVSPropertyOp19
 70
     1
102
RTVSPropertyOp20
 70
     1
102
RTVSPropertyOp21
 70
     1
102
RTVSPropertyOp22
 70
     1
102
RTVSPropertyOp23
 70
     1
102
RTVSPropertyOp24
 70
     1
102
RTVSPropertyOp25
 70
     1
102
RTVSPropertyOp26
 70
     1
102
RTVSPropertyOp27
 70
     1
102
RTVSPropertyOp28
 70
     1
102
RTVSPropertyOp29
 70
     1
102
RTVSPropertyOp30
 70
     1
102
RTVSPropertyOp31
 70
     1
102
RTVSPropertyOp32
 70
     1
102
RTVSPropertyOp33
 70
     1
102
RTVSPropertyOp34
 70
     1
102
RTVSPropertyOp35
 70
     1
102
RTVSPropertyOp36
 70
     1
102
RTVSPropertyOp37
 70
     1
102
RTVSPropertyOp38
 70
     1
102
RTVSPropertyOp39
 70
     1
102
RTVSPropertyOp40
 70
     1
102
RTVSPropertyOp41
 70
     1
102
RTVSPropertyOp42
 70
     1
102
RTVSPropertyOp43
 70
     1
102
RTVSPropertyOp44
 70
     1
102
RTVSPropertyOp45
 70
     1
102
RTVSPropertyOp46
 70
     1
102
RTVSPropertyOp47
 70
     1
102
RTVSPropertyOp48
 70
     1
102
RTVSPropertyOp49
 70
     1
102
RTVSPropertyOp50
 70
     1
102
RTVSPropertyOp51
 70
     0
102
RTVSPropertyOp52
 70
     0
102
RTVSPropertyOp53
 70
     1
102
RTVSPropertyOp54
 70
     1
102
RTVSPropertyOp55
 70
     1
102
RTVSPropertyOp56
 70
     1
102
RTVSPropertyOp57
 70
     1
102
RTVSPost2010Prop28
280
     0
102
RTVSPost2010PropOp28
 70
     1
102
RTVSPost2010Prop29
280
     1
102
RTVSPost2010PropOp29
 70
     1
102
RTVSPost2010Prop30
280
     1
102
RTVSPost2010PropOp30
 70
     1
102
RTVSPost2010Prop31
280
     0
102
RTVSPost2010PropOp31
 70
     1
102
RTVSPost2010Prop32
280
     0
102
RTVSPost2010PropOp32
 70
     1
102
RTVSPost2010Prop33
280
     0
102
RTVSPost2010PropOp33
 70
     1
102
RTVSPost2010Prop34
280
     0
102
RTVSPost2010PropOp34
 70
     1
102
RTVSPost2010Prop35
280
     0
102
RTVSPost2010PropOp35
 70
     1
102
RTVSPost2010Prop36
280
     0
102
RTVSPost2010PropOp36
 70
     1
102
RTVSPost2010Prop37
 90
       50
102
RTVSPost2010PropOp37
 70
     1
102
RTVSPost2010Prop38
140
0.0
102
RTVSPost2010PropOp38
 70
     1
102
RTVSPost2010Prop39
140
1.0
102
RTVSPost2010PropOp39
 70
     1
102
RTVSPost2010Prop40
 90
        0
102
RTVSPost2010PropOp40
 70
     1
102
RTVSPost2010Prop41ColorIndex
 90
       18
102
RTVSPost2010Prop41ColorRGB
 90
        0
102
RTVSPost2010PropOp41
 70
     1
102
RTVSPost2010Prop42
 90
       50
102
RTVSPost2010PropOp42
 70
     1
102
RTVSPost2010Prop43
 90
        3
102
RTVSPost2010PropOp43
 70
     1
102
RTVSPost2010Prop44ColorIndex
 90
        5
102
RTVSPost2010Prop44ColorRGB
 90
      255
102
RTVSPost2010PropOp44
 70
     1
102
RTVSPost2010Prop45
280
     0
102
RTVSPost2010PropOp45
 70
     1
102
RTVSPost2010Prop46
 90
       50
102
RTVSPost2010PropOp46
 70
     1
102
RTVSPost2010Prop47
 90
       50
102
RTVSPost2010PropOp47
 70
     1
102
RTVSPost2010Prop48
 90
       50
102
RTVSPost2010PropOp48
 70
     1
102
RTVSPost2010Prop49
280
     0
102
RTVSPost2010PropOp49
 70
     1
102
RTVSPost2010Prop50
 90
       50
102
RTVSPost2010PropOp50
 70
     1
102
RTVSPost2010Prop51ColorIndex
 90
      256
102
RTVSPost2010Prop51ColorRGB
 90
-16777216
102
RTVSPost2010PropOp51
 70
     0
102
RTVSPost2010Prop52
140
1.0
102
RTVSPost2010PropOp52
 70
     0
102
RTVSPost2010Prop53
 90
        2
102
RTVSPost2010PropOp53
 70
     1
102
RTVSPost2010Prop54
  1
strokes_ogs.tif
102
RTVSPost2010PropOp54
 70
     1
102
RTVSPost2010Prop55
280
     0
102
RTVSPost2010PropOp55
 70
     1
102
RTVSPost2010Prop56
140
1.0
102
RTVSPost2010PropOp56
 70
     1
102
RTVSPost2010Prop57
140
1.0
102
RTVSPost2010PropOp57
 70
     1
  0
XRECORD
  5
A99
102
{ACAD_REACTORS
330
A98
102
}
330
A98
100
AcDbXrecord
280
     1
102
RTVSPropertyOp0
 70
     1
102
RTVSPropertyOp1
 70
     1
102
RTVSPropertyOp2
 70
     1
102
RTVSPropertyOp3
 70
     1
102
RTVSPropertyOp4
 70
     1
102
RTVSPropertyOp5
 70
     1
102
RTVSPropertyOp6
 70
     1
102
RTVSPropertyOp7
 70
     1
102
RTVSPropertyOp8
 70
     1
102
RTVSPropertyOp9
 70
     1
102
RTVSPropertyOp10
 70
     1
102
RTVSPropertyOp11
 70
     1
102
RTVSPropertyOp12
 70
     1
102
RTVSPropertyOp13
 70
     1
102
RTVSPropertyOp14
 70
     1
102
RTVSPropertyOp15
 70
     1
102
RTVSPropertyOp16
 70
     1
102
RTVSPropertyOp17
 70
     1
102
RTVSPropertyOp18
 70
     1
102
RTVSPropertyOp19
 70
     1
102
RTVSPropertyOp20
 70
     1
102
RTVSPropertyOp21
 70
     1
102
RTVSPropertyOp22
 70
     1
102
RTVSPropertyOp23
 70
     1
102
RTVSPropertyOp24
 70
     1
102
RTVSPropertyOp25
 70
     1
102
RTVSPropertyOp26
 70
     1
102
RTVSPropertyOp27
 70
     1
102
RTVSPropertyOp28
 70
     1
102
RTVSPropertyOp29
 70
     1
102
RTVSPropertyOp30
 70
     1
102
RTVSPropertyOp31
 70
     1
102
RTVSPropertyOp32
 70
     1
102
RTVSPropertyOp33
 70
     1
102
RTVSPropertyOp34
 70
     1
102
RTVSPropertyOp35
 70
     1
102
RTVSPropertyOp36
 70
     1
102
RTVSPropertyOp37
 70
     1
102
RTVSPropertyOp38
 70
     1
102
RTVSPropertyOp39
 70
     1
102
RTVSPropertyOp40
 70
     1
102
RTVSPropertyOp41
 70
     1
102
RTVSPropertyOp42
 70
     1
102
RTVSPropertyOp43
 70
     1
102
RTVSPropertyOp44
 70
     1
102
RTVSPropertyOp45
 70
     1
102
RTVSPropertyOp46
 70
     1
102
RTVSPropertyOp47
 70
     1
102
RTVSPropertyOp48
 70
     1
102
RTVSPropertyOp49
 70
     1
102
RTVSPropertyOp50
 70
     1
102
RTVSPropertyOp51
 70
     0
102
RTVSPropertyOp52
 70
     0
102
RTVSPropertyOp53
 70
     1
102
RTVSPropertyOp54
 70
     1
102
RTVSPropertyOp55
 70
     1
102
RTVSPropertyOp56
 70
     1
102
RTVSPropertyOp57
 70
     1
102
RTVSPost2010Prop28
280
     0
102
RTVSPost2010PropOp28
 70
     1
102
RTVSPost2010Prop29
280
     1
102
RTVSPost2010PropOp29
 70
     1
102
RTVSPost2010Prop30
280
     1
102
RTVSPost2010PropOp30
 70
     1
102
RTVSPost2010Prop31
280
     0
102
RTVSPost2010PropOp31
 70
     1
102
RTVSPost2010Prop32
280
     0
102
RTVSPost2010PropOp32
 70
     1
102
RTVSPost2010Prop33
280
     0
102
RTVSPost2010PropOp33
 70
     1
102
RTVSPost2010Prop34
280
     0
102
RTVSPost2010PropOp34
 70
     1
102
RTVSPost2010Prop35
280
     0
102
RTVSPost2010PropOp35
 70
     1
102
RTVSPost2010Prop36
280
     0
102
RTVSPost2010PropOp36
 70
     1
102
RTVSPost2010Prop37
 90
       50
102
RTVSPost2010PropOp37
 70
     1
102
RTVSPost2010Prop38
140
0.0
102
RTVSPost2010PropOp38
 70
     1
102
RTVSPost2010Prop39
140
1.0
102
RTVSPost2010PropOp39
 70
     1
102
RTVSPost2010Prop40
 90
        0
102
RTVSPost2010PropOp40
 70
     1
102
RTVSPost2010Prop41ColorIndex
 90
       18
102
RTVSPost2010Prop41ColorRGB
 90
        0
102
RTVSPost2010PropOp41
 70
     1
102
RTVSPost2010Prop42
 90
       50
102
RTVSPost2010PropOp42
 70
     1
102
RTVSPost2010Prop43
 90
        3
102
RTVSPost2010PropOp43
 70
     1
102
RTVSPost2010Prop44ColorIndex
 90
        5
102
RTVSPost2010Prop44ColorRGB
 90
      255
102
RTVSPost2010PropOp44
 70
     1
102
RTVSPost2010Prop45
280
     0
102
RTVSPost2010PropOp45
 70
     1
102
RTVSPost2010Prop46
 90
       50
102
RTVSPost2010PropOp46
 70
     1
102
RTVSPost2010Prop47
 90
       50
102
RTVSPost2010PropOp47
 70
     1
102
RTVSPost2010Prop48
 90
       50
102
RTVSPost2010PropOp48
 70
     1
102
RTVSPost2010Prop49
280
     0
102
RTVSPost2010PropOp49
 70
     1
102
RTVSPost2010Prop50
 90
       50
102
RTVSPost2010PropOp50
 70
     1
102
RTVSPost2010Prop51ColorIndex
 90
      256
102
RTVSPost2010Prop51ColorRGB
 90
-16777216
102
RTVSPost2010PropOp51
 70
     0
102
RTVSPost2010Prop52
140
1.0
102
RTVSPost2010PropOp52
 70
     0
102
RTVSPost2010Prop53
 90
        2
102
RTVSPost2010PropOp53
 70
     1
102
RTVSPost2010Prop54
  1
strokes_ogs.tif
102
RTVSPost2010PropOp54
 70
     1
102
RTVSPost2010Prop55
280
     0
102
RTVSPost2010PropOp55
 70
     1
102
RTVSPost2010Prop56
140
1.0
102
RTVSPost2010PropOp56
 70
     1
102
RTVSPost2010Prop57
140
1.0
102
RTVSPost2010PropOp57
 70
     1
  0
XRECORD
  5
AB9
102
{ACAD_REACTORS
330
AB8
102
}
330
AB8
100
AcDbXrecord
280
     1
102
RTVSPropertyOp0
 70
     1
102
RTVSPropertyOp1
 70
     1
102
RTVSPropertyOp2
 70
     1
102
RTVSPropertyOp3
 70
     1
102
RTVSPropertyOp4
 70
     1
102
RTVSPropertyOp5
 70
     1
102
RTVSPropertyOp6
 70
     1
102
RTVSPropertyOp7
 70
     1
102
RTVSPropertyOp8
 70
     1
102
RTVSPropertyOp9
 70
     1
102
RTVSPropertyOp10
 70
     1
102
RTVSPropertyOp11
 70
     1
102
RTVSPropertyOp12
 70
     1
102
RTVSPropertyOp13
 70
     1
102
RTVSPropertyOp14
 70
     1
102
RTVSPropertyOp15
 70
     1
102
RTVSPropertyOp16
 70
     1
102
RTVSPropertyOp17
 70
     1
102
RTVSPropertyOp18
 70
     1
102
RTVSPropertyOp19
 70
     1
102
RTVSPropertyOp20
 70
     1
102
RTVSPropertyOp21
 70
     1
102
RTVSPropertyOp22
 70
     1
102
RTVSPropertyOp23
 70
     1
102
RTVSPropertyOp24
 70
     1
102
RTVSPropertyOp25
 70
     1
102
RTVSPropertyOp26
 70
     1
102
RTVSPropertyOp27
 70
     1
102
RTVSPropertyOp28
 70
     1
102
RTVSPropertyOp29
 70
     1
102
RTVSPropertyOp30
 70
     1
102
RTVSPropertyOp31
 70
     1
102
RTVSPropertyOp32
 70
     1
102
RTVSPropertyOp33
 70
     1
102
RTVSPropertyOp34
 70
     1
102
RTVSPropertyOp35
 70
     1
102
RTVSPropertyOp36
 70
     1
102
RTVSPropertyOp37
 70
     1
102
RTVSPropertyOp38
 70
     1
102
RTVSPropertyOp39
 70
     1
102
RTVSPropertyOp40
 70
     1
102
RTVSPropertyOp41
 70
     1
102
RTVSPropertyOp42
 70
     1
102
RTVSPropertyOp43
 70
     1
102
RTVSPropertyOp44
 70
     1
102
RTVSPropertyOp45
 70
     1
102
RTVSPropertyOp46
 70
     1
102
RTVSPropertyOp47
 70
     1
102
RTVSPropertyOp48
 70
     1
102
RTVSPropertyOp49
 70
     1
102
RTVSPropertyOp50
 70
     1
102
RTVSPropertyOp51
 70
     0
102
RTVSPropertyOp52
 70
     0
102
RTVSPropertyOp53
 70
     1
102
RTVSPropertyOp54
 70
     1
102
RTVSPropertyOp55
 70
     1
102
RTVSPropertyOp56
 70
     1
102
RTVSPropertyOp57
 70
     1
102
RTVSPost2010Prop28
280
     0
102
RTVSPost2010PropOp28
 70
     1
102
RTVSPost2010Prop29
280
     1
102
RTVSPost2010PropOp29
 70
     1
102
RTVSPost2010Prop30
280
     1
102
RTVSPost2010PropOp30
 70
     1
102
RTVSPost2010Prop31
280
     0
102
RTVSPost2010PropOp31
 70
     1
102
RTVSPost2010Prop32
280
     0
102
RTVSPost2010PropOp32
 70
     1
102
RTVSPost2010Prop33
280
     0
102
RTVSPost2010PropOp33
 70
     1
102
RTVSPost2010Prop34
280
     0
102
RTVSPost2010PropOp34
 70
     1
102
RTVSPost2010Prop35
280
     0
102
RTVSPost2010PropOp35
 70
     1
102
RTVSPost2010Prop36
280
     0
102
RTVSPost2010PropOp36
 70
     1
102
RTVSPost2010Prop37
 90
       50
102
RTVSPost2010PropOp37
 70
     1
102
RTVSPost2010Prop38
140
0.0
102
RTVSPost2010PropOp38
 70
     1
102
RTVSPost2010Prop39
140
1.0
102
RTVSPost2010PropOp39
 70
     1
102
RTVSPost2010Prop40
 90
        0
102
RTVSPost2010PropOp40
 70
     1
102
RTVSPost2010Prop41ColorIndex
 90
       18
102
RTVSPost2010Prop41ColorRGB
 90
        0
102
RTVSPost2010PropOp41
 70
     1
102
RTVSPost2010Prop42
 90
       50
102
RTVSPost2010PropOp42
 70
     1
102
RTVSPost2010Prop43
 90
        3
102
RTVSPost2010PropOp43
 70
     1
102
RTVSPost2010Prop44ColorIndex
 90
        5
102
RTVSPost2010Prop44ColorRGB
 90
      255
102
RTVSPost2010PropOp44
 70
     1
102
RTVSPost2010Prop45
280
     0
102
RTVSPost2010PropOp45
 70
     1
102
RTVSPost2010Prop46
 90
       50
102
RTVSPost2010PropOp46
 70
     1
102
RTVSPost2010Prop47
 90
       50
102
RTVSPost2010PropOp47
 70
     1
102
RTVSPost2010Prop48
 90
       50
102
RTVSPost2010PropOp48
 70
     1
102
RTVSPost2010Prop49
280
     0
102
RTVSPost2010PropOp49
 70
     1
102
RTVSPost2010Prop50
 90
       50
102
RTVSPost2010PropOp50
 70
     1
102
RTVSPost2010Prop51ColorIndex
 90
      256
102
RTVSPost2010Prop51ColorRGB
 90
-16777216
102
RTVSPost2010PropOp51
 70
     0
102
RTVSPost2010Prop52
140
1.0
102
RTVSPost2010PropOp52
 70
     0
102
RTVSPost2010Prop53
 90
        2
102
RTVSPost2010PropOp53
 70
     1
102
RTVSPost2010Prop54
  1
strokes_ogs.tif
102
RTVSPost2010PropOp54
 70
     1
102
RTVSPost2010Prop55
280
     0
102
RTVSPost2010PropOp55
 70
     1
102
RTVSPost2010Prop56
140
1.0
102
RTVSPost2010PropOp56
 70
     1
102
RTVSPost2010Prop57
140
1.0
102
RTVSPost2010PropOp57
 70
     1
  0
ENDSEC
  0
SECTION
  2
THUMBNAILIMAGE
 90
    16364
310
28000000B4000000550000000100080000000000C43B000000000000000000000001000000010000FFFFFF000000FF0000FFFF0000FF0000FFFF0000FF000000FF00FF000000000080808000C0C0C0000000FF007F7FFF000000A5005252A50000007F003F3F7F0000004C0026264C000000260013132600003FFF007F9FFF
310
000029A5005267A500001F7F003F4F7F0000134C00262F4C000009260013172600007FFF007FBFFF000052A500527CA500003F7F003F5F7F0000264C0026394C0000132600131C260000BFFF007FDFFF00007CA5005291A500005F7F003F6F7F0000394C0026424C00001C26001321260000FFFF007FFFFF0000A5A50052A5
310
A500007F7F003F7F7F00004C4C00264C4C00002626001326260000FFBF007FFFDF0000A57C0052A59100007F5F003F7F6F00004C3900264C420000261C001326210000FF7F007FFFBF0000A5520052A57C00007F3F003F7F5F00004C2600264C39000026130013261C0000FF3F007FFF9F0000A5290052A56700007F1F003F
310
7F4F00004C1300264C2F00002609001326170000FF00007FFF7F0000A5000052A55200007F00003F7F3F00004C0000264C260000260000132613003FFF00009FFF7F0029A5000067A552001F7F00004F7F3F00134C00002F4C260009260000172613007FFF0000BFFF7F0052A500007CA552003F7F00005F7F3F00264C0000
310
394C2600132600001C261300BFFF0000DFFF7F007CA5000091A552005F7F00006F7F3F00394C0000424C26001C26000021261300FFFF0000FFFF7F00A5A50000A5A552007F7F00007F7F3F004C4C00004C4C26002626000026261300FFBF0000FFDF7F00A57C0000A59152007F5F00007F6F3F004C3900004C422600261C00
310
0026211300FF7F0000FFBF7F00A5520000A57C52007F3F00007F5F3F004C2600004C39260026130000261C1300FF3F0000FF9F7F00A5290000A56752007F1F00007F4F3F004C1300004C2F26002609000026171300FF000000FF7F7F00A5000000A55252007F0000007F3F3F004C0000004C2626002600000026131300FF00
310
3F00FF7F9F00A5002900A55267007F001F007F3F4F004C0013004C262F002600090026131700FF007F00FF7FBF00A5005200A5527C007F003F007F3F5F004C0026004C2639002600130026131C00FF00BF00FF7FDF00A5007C00A55291007F005F007F3F6F004C0039004C26420026001C0026132100FF00FF00FF7FFF00A5
310
00A500A552A5007F007F007F3F7F004C004C004C264C002600260026132600BF00FF00DF7FFF007C00A5009152A5005F007F006F3F7F0039004C0042264C001C002600211326007F00FF00BF7FFF005200A5007C52A5003F007F005F3F7F0026004C0039264C00130026001C1326003F00FF009F7FFF002900A5006752A500
310
1F007F004F3F7F0013004C002F264C000900260017132600000000002D2D2D005B5B5B0089898900B7B7B700B3B3B30000000000000000000000000000000000000000000000000000000000000000000000000000000000000000000000000000000000000000000000000000000000000000000000000000000000000000
310
00000000000000000000000000000000000000000000000000000000000000000000000000000000000000000000000000000000000000000000000000000000000000000000000000000000000000000000000000000000000000000000000000000000000000000000000000000000000000000000000000000000000000
310
00000000000000000000000000000000000000000000000000000000000000000000000000000000000000000000000000000000000000000000000000000000000000000000000000000000000000000000000000000000000000000000000000000000000000000000000000000000000000000000000000000000000000
310
00000000000000000000000000000000000000000000000000000000000000000000000000000000000000000000000000000000000000000000000000000000000000000000000000000000000000000000000000000000000000000000000000000000000000000000000000000000000000000000000000000000000000
310
00000000000000000000000000000000000000000000000000000000000000000000000000000000000000000000000000000000000000000000000000000000000000000000000000000000000000000000000000000000000000000000000000000000000000000000000000000000000000000000000000000000000000
310
00000000000000000000000000000000000000000000000000000000000000000000020202020202000000000000000000000000000000000000000000000000000000000000000000000000000000000000000000000000000000000000000000000000000000000000000000000000000000000000000000000000000000
310
00000000000000000000000000000000000000000000000000000000000000000000000000000000000000000000000000000000000000000000000000000000000000000000000000000000000000000000000000000002020202020200000000000000000000000000000000000000000000000000000000000000000000
310
00000000000000000000000000000000000000000000000000000000000000000000000000000000000000000000000000000000000000000000000000000000000000000000000000000000000000000000000000000000000000000000000000000000000000000100000000000000000000000100000000000000000000
310
00000100000000000000000000000000000000000000000000000000000000010000000000000100000000000000010000000000000000000000000000000000000000000000000000000000000000000000000000000000000000000000000000000000000000000000000000000000000000000000000000000000000000
310
00000000000000000000000000000000000000000000000000000303030303030303030303030303030303030303030303030303030303030303030300000000000000000000000000000000000000000000030303030303030303030303030303030303030300000000000000000000000000000000000000000000000000
310
00000000000000000000000000000000000000000000000000000000000000000000000000000000000000000000000000000000000000000000000000000000000000000000000000000000000000030303030303030303000003030300000400000303030000030303030303030303030000000000000000000000000000
310
00000000000000000303030303030303030303030303030303030303000000000000000000000000000000000000000000000000000000000000000000000000000000000000000000000000000000000000000000000000000000000000000000000000000000000000000000000000000000000000000000000000000000
310
00000000000303000001000000000303000303030304040103030003030300000000010003030300000000000000000000000000000000000000000000000003030300000100010000000003030301000000000000000000000000000000000000000000000000000000000000000000000000000000000000000000000000
310
00000000000000000000000000000000000000000000000000000000000000000000000000000000000000000000000000000000000000000003030303030303030303000303000000000303000000030303030303030303030303030300000000000000000000000000000000000000000000000300030303030303030000
310
00030303000000000000000000000000000000000000000000000000000000000000000000000000000000000000000000000000000000000000000000000000000000000000000000000000000000000000000000000000000000000000000000000000000000000000000000000301010000000003030003000000000000
310
01000000000000000300030000000000010303000000000000000000000000000000000000000000000000030303030103030300000003030300000000000000000000000000000000000000000000000000000000000000000000000000000000000000000000000000000000000000000000000000000000000000000000
310
00000000000000000000000000000000000000000000000003030300000000030303030303030300000003000303000000000000000100000000000000000300030000000003030000000000000000000000000000000000000000000000000003030300010003030000000303030000000000000000000000000000000000
310
00000000000000000000000000000000000000000000000000000000000000000000000000000000000000000000000000000000000000000000000000000000000000000000000000000000010101010100000103010101010303030101010103010101010101010101010101010101010101010301010101030303010000
310
00000000000000000000000000000000000000000000030301010101010301000003030300000000000000000000000000000000000000000000000000000000000000000000000000000000000000000000000000000000000000000000000000000000000000000000000000000000000000000000000000000000000000
310
00000003030300000000030000000003030300030003000000000000000003030303030300000000000000030003000300030000000000000000000000000000000000000000000000000303030000010001030000000303030000000000000000000000000000000000000000000000000000000000000000000000000000
310
00000000000000000000000000000000000000000000000000000000000000000000000000000000000000000000000000000000000000000003000000000003030303030303000003000300030303030303030003030301000303030303030300030300000003030000000000000000000000000000000000000000000000
310
03010303000100030300000003030300000000000000000000000000000000000000000000000000000000000000000000000000000000000000000000000000000000000000000000000000000000000000000000000000000000000000000000000000000000000000000000000000000000000000000000030101000303
310
03030000000000010000000303000000000000000000030303030001010100000000000000000000000000000000000000000000000303030303030303030000000303030000000000000000000000000000000000000000000000000000000000000000000000000000000000000000000000000000000000000000000000
310
00000000000000000000000000000000000000000000000000000000000000000000000000000000000000000000000303030300030000000003030303030300010000000000000000000000000300030303000000000000000000000000000000000000000000000000030303030301030303000000010103030000000000
310
00000000000000000000000000000000000000000000000000000000000000000000000000000000000000000000000000000000000000000000000000000000000000000000000000000000000000000000000000000000000000000000000000000000000300030300000001030101010101010301000000000001000000
310
00000003000300030000000000000000000000000000000000000000000000030303030000010001000000000303030300000000000000000000000000000000000000000000000000000000000000000000000000000000000000000000000000000000000000000000000000000000000000000000000000000000000000
310
00000000000000000000000000000000000000000000000000000003000303000000030303030303030003030000000303010303030000000003030003000000000000000000000000000000000000000000000003010103000000000100000000030101010100000000000000000000000000000000000000000000000000
310
00000000000000000000000000000000000000000000000000000000000000000000000000000000000000000000000000000000000000000000000000000000000000000000000000000000000000000303000300000003010303030303030001030001030101010103010000000300030300000000000000000000000000
310
00000303030303030303030303030000000001000000000303030300000000000000000000000000000000000000000000000000000000000000000000000000000000000000000000000000000000000000000000000000000000000000000000000000000000000000000000000000000000000000000000000000000000
310
00000000000003030003000003010003030001030303010300030301010301030300000003000303000000000000000000000000000000030000000000000003010103000000000100000000030101010100000000000000000000000000000000000000000000000000000000000000000000000000000000000000000000
310
00000000000000000000000000000000000000000000000000000000000000000000000000000000000000000000000000000000000000000000000303030000010301030301010101030301030301030001000303010300000300030300000000000000000000000000000103010101010101010303030301010101010101
310
01010303030300000000000000000000000000000000000000000000000000000000000000000000000000000000000000000000000000000000000000000000000000000000000000000000000000000000000000000000000000000000000000000000000000000000000000000001030101010101030103030301010103
310
03010303010301010101030103010101010103000000000000000000000000000000030000000000000003030303000000000100000000030303030000000000000000000000000000000000000000000000000000000000000000000000000000000000000000000000000000000000000000000000000000000000000000
310
00000000000000000000000000000000000000000000000000000000000000000000000000000303030000000301000303030303030301030301030001000003010300000300030300000000000000000000000000000003000000000000000303030300000000010000000003030303000000000000000000000000000000
310
00000000000000000000000000000000000000000000000000000000000000000000000000000000000000000000000000000000000000000000000000000000000000000000000000000000000000000000000000000000000000030303000000000303030303030303030103030103010100010301030000030003030000
310
00000000000000000000000000030303030303030303030303000000000100000000030303030000000000000000000000000000000000000000000000000000000000000000000000000000000000000000000000000000000000000000000000000000000000000000000000000000000000000000000000000000000000
310
00000000000000000000000000000000000303000300000003030300030300010303000003030301030303030000000300030300000000000000000000000000000000000000000000000101010300000000010000000003010101010000000000000000000000000000000000000000000000000000000000000000000000
310
00000000000000000000000000000000000000000000000000000000000000000000000000000000000000000000000000000000000000000000000000000000000000000000030003030000000103030101010103030100000103010101010301000000030300030000000000000000000000000000000000000000000000
310
00030303000000000100000000030303030000000000000000000000000000000000000000000000000000000000000000000000000000000000000000000000000000000000000000000000000000000000000000000000000000000000000000000000000000000000000000000000000000000000000000000003000303
310
00000000000003030303000001000000000001030000000000000303030000000000000000000000000000000000000000000000000003030300000000010000000003030303000000000000000000000000000000000000000000000000000000000000000000000000000000000000000000000000000000000000000000
310
00000000000000000000000000000000000000000000000000000000000000000000000000000000000000000000000000030003000303030300000000010000000100000000000100000003030303000303000000000000000000000000000000000000000000000000000003030000000001000000000101030100000000
310
00000000000000000000000000000000000000000000000000000000000000000000000000000000000000000000000000000000000000000000000000000000000000000000000000000000000000000000000000000000000000000000000000000000000003000003030000000303030303030303030303030303030303
310
03000003000300030000000000000000000000000000000000000000000000000000030300000000010000000003030300000000000000000000000000000000000000000000000000000000000000000000000000000000000000000000000000000000000000000000000000000000000000000000000000000000000000
310
00000000000000000000000000000000000000000000000000000000030000030003000000000000000000000100000000000000000000030003000003000000000000000000000000000000000000000000000000000003030000000001000000000303030000000000000000000000000000000000000000000000000000
310
00000000000000000000000000000000000000000000000000000000000000000000000000000000000000000000000000000000000000000000000000000000000000000000000000000000000000000000030003000003000000000000000303030303030000000000000003000300000300000000000000000000000000
310
00000000000000000000000000030300000000010000000003030300000000000000000000000000000000000000000000000000000000000000000000000000000000000000000000000000000000000000000000000000000000000000000000000000000000000000000000000000000000000000000000000000000000
310
00000000000000000300000300000300000000000003030303030300000000000303000300000003000000000000000000000000000000000000000000000000000003030000000001000000000303030000000000000000000000000000000000000000000000000000000000000000000000000000000000000000000000
310
00000000000000000000000000000000000000000000000000000000000000000000000000000000000000000000000000000000000000000000000000030000000303000300000000000303030303030000000003000003000000000300000000000000000000000000000000000000000000000000000303000000000100
310
00000003030300000000000000000000000000000000000000000000000000000000000000000000000000000000000000000000000000000000000000000000000000000000000000000000000000000000000000000000000000000000000000000000000000000000000000000000000003000000000003000303000000
310
03030303030300000003000003000000000003000000000000000000000000000000000000000000000000000003030000000001000000000303030000000000000000000000000000000000000000000000000000000000000000000000000000000000000000000000000000000000000000000000000000000000000000
310
00000000000000000000000000000000000000000000000000000000000000000000000000000000030000000000010300000303000000010000000303030000030000000000000300000000000000000000000000000000000000000000000000000303000000000100000000010103010000000000000000000000000000
310
00000000000000000000000000000000000000000000000000000000000000000000000000000000000000000000000000000000000000000000000000000000000000000000000000000000000000000000000000000000000000000003030300000001000303030003030303030303000003030300000000000303000000
310
00000000000000000000000000000000000000000000000003030000000001000000000303030000000000000000000000000000000000000000000000000000000000000000000000000000000000000000000000000000000000000000000000000000000000000000000000000000000000000000000000000000000000
310
00000000000000000000000000000000000000000000030303010303030303030303030303030303030303030303030300000000000000000000000000000000000000000000000000000000000303000000000100000000030303000000000000000000000000000000000000000000000000000000000000000000000000
310
00000000000000000000000000000000000000000000000000000000000000000000000000000000000000000000000000000000000000000000000000000000000000000000000000000000000303030000000003030303030303000000000000000000000000000000000000000000000000000000000000000000000000
310
00000000030303030303030303030300000000000000000000000000000000000000000000000000000000000000000000000000000000000000000000000000000000000000000000000000000000000000000000000000000000000000000000000000000000000000000000000000000000000000000000000000000000
310
00000000000000000000000000030300000000000000000000000000000000000000000000000000000000000000000000000000000000000000000001010101010000000000000000000000000000000000000000000000000000000000000000000000000000000000000000000000000000000000000000000000000000
310
00000000000000000000000000000000000000000000000000000000000000000000000000000000000000000000000000000000000000000000000000000000000003030000000000000000000000000000000000000000000000000000000000000000000000000000000000000000000003030303000000000000000000
310
00000000000000000000000000000000000000000000000000000000000000000000000000000000000000000000000000000000000000000000000000000000000000000000000000000000000000000000000000000000000000000000000000000000000000000000000000000000000000000000000303000000000000
310
00000000000000000000000000000000000000000000000000000000000000000000000000000000000303000000000000000000000000000000000000000000000000000000000000000000000000000000000000000000000000000000000000000000000000000000000000000000000000000000000000000000000000
310
00000000000000000000000000000000000000000000000000000000000000000000000000000000000000000000000000000000000000000000000000000000000000000000000000000000000000000000000000000000000000000000000000000000000000000000000000000000000000000000000000000000000000
310
00000000000000000000000000000000000000000000000000000000000000000000000000000000000000000000000000000000000000000000000000000000000000000000000000000000000000000000000000000000000000000000000000000000000000000000000000000000000000000000000000000000000000
310
00000000000000000000000000000000000000000000000000000000000000000000000000000000000000000000000000000000000000000000000000000000000000000000000000000000000000000000000000000000000000000000000000000000000000000000000000000000000000000000000000000000000000
310
00000000000000000000000000000000000000000000000000000000000000000000000000000000000000000000000000000000000000000000000000000000000000000000000000000000000000000000000000000000000000000000000000000000000000000000000000000000000000000000000000000000000000
310
00000000000000000000000000000000000000000000000000000000000000000000000000000000000000000000000000000000000000000000000000000000000000000000000000000000000000000000000000000000000000000000000000000000000000000000000000000000000000000000000000000000000000
310
00000000000000000000000000000000000000000000000000000000000000000000000000000000000000000000000000000000000000000000000000000000000000000000000000000000000000000000000000000000000000000000000000000000000000000000000000000000000000000000000000000000000000
310
00000000000000000000000000000000000000000000000000000000000000000000000000000000000000000000000000000000000000000000000000000000000000000000000000000000000000000000000000000000000000000000000000000000000000000000000000000000000000000000000000000000000000
310
00000000000000000000000000000000000000000000000000000000000000000000000000000000000000000000000000000000000000000000000000000000000000000000000000000000000000000000000000000000000000000000000000000000000000000000000000000000000000000000000000000000000000
310
00000000000000000000000000000000000000000000000000000000000000000000000000000000000000000000000000000000000000000000000000000000000000000000000000000000000000000000000000000000000000000000000000000000000000000000000000000000000000000000000000000000000000
310
00000000000000000000000000000000000000000000000000000000000000000000000000000000000000000000000000000000000000000000000000000000000000000000000000000000000000000000000000000000000000000000000000000000000000000000000000000000000000000000000000000000000000
310
00000000000000000000000000000000000000000000000000000000000000000000000000000000000000000000000000000000000000000000000000000000000000000000000000000000000000000000000000000000000000000000000000000000000000000000000000000000000000000000000000000000000000
310
00000000000000000000000000000000000000000000000000000000000000000000000000000000000000000000000000000000000000000000000000000000000000000000000000000000000000000000000000000000000000000000000000000000000000000000000000000000000000000000000000000000000000
310
00000000000000000000000000000000000000000000000000000000000000000000000000000000000000000000000000000000000000000000000000000000000000000000000000000000000000000000000000000000000000000000000000000000000000000000000000000000000000000000000000000000000000
310
00000000000000000000010000000000000000000000000000000000000000000000000000000000000000000000000000000000000000000000000000000000000000000000000000000000000000000000000000000000000000000000000000000000000000000000000000000000000000000000000000000000000000
310
00000000000000000000000000000000000000000000000000000000000000000000000000000000000000000000000000000000000000000000000003030303030300000000000000000000000000000000000000000000000000000000000000000000000000000000000000000000000000000000000000000000000000
310
00000000000000000000000000000000000000000000000000000000000000000000000000000000000000000000000000000000000000000000000000000000000000000000000000000000000000000000000000000000000000000000000000000000000000000000000000000000000300030300030000000000000000
310
00000000000000000000000000000000000000000000000000000000000000000000000000000000000000000000000000000000000000000000000000000000000000000000000000000000000000000000000000000000000000000000000000000000000000000000000000000000000000000000000000000000000000
310
00000000000000000000000000000000000000000000000000000000000000000000000000000003000303000300000000000000000000000000000000000000000000000000000000000000000000000000000000000000000000000000000000000000000000000000000000000000000000000000000000000000000000
310
00000000000000000000000000000000000000000000000000000000000000000000000000000000000000000000000000000000000000000000000000000000000000000000000000000000000000000000000000000000000000000300030300030000000000000000000000000000000000000000000000000000000000
310
00000000000000000000000000000000000000000000000000000000000000000000000000000000000000000000000000000000000000000000000000000000000000000000000000000000000000000000000000000000000000000000000000000000000000000000000000000000000000000000000000000000000000
310
00000000000000000000000000000000000003000303000300000000000000000000000000000000000000000000000000000000000000000000000000000000000000000000000000000000000000000000000000000000000000000000000000000000000000000000000000000000000000000000000000000000000000
310
00000000000000000000000000000000000000000000000000000000000000000000000000000000000000000000000000000000000000000000000000000000000000000000000300030300030000000000000000000000000000000000000000000000000000000000000000000000000000000000000000000000000000
310
00000000000000000000000000000000000000000000000000000000000000000000000000000000000000000000000000000000000000000000000000000000000000000000000000000000000000000000000000000000000000000000000000000000000000000000000000000000000000000303030303030300030003
310
03000300000000000000000000030303030303030300000000000000000000000000000000000000000000000000000000000000000000000000000000000000000000000000000000000000000000000000000000000000000000000000000000000000000000000000000000000000000000000000000000000000000000
310
00000000000000000000000000000000000000000000000000000000000000000000000000000000000300000001000003030300030300030000000000000000000003000000010000030300000000000000000000000000000000000000000000000000000000000000000000000000000000000000000000000000000000
310
00000000000000000000000000000000000000000000000000000000000000000000000000000000000000000000000000000000000000000000000000000000000000000000000000000000000000000000000000000000000000000000030300030101030303030303030303030103030303030301030303030303010003
310
03000000000000000000000000000000000000000000000000000000000000000000000000000000000000000000000000000000000000000000000000000000000000000000000000000000000000000000000000000000000000000000000000000000000000000000000000000000000000000000000000000000000000
310
00000000000000000000000000000000000000000303000301000303030303030303030303030303030303030303030303030000030300000000000000000000000000000000000000000000000000000000000000000000000000000000000000000000000000000000000000000000000000000000000000000000000000
310
00000000000000000000000000000000000000000000000000000000000000000000000000000000000000000000000000000000000000000000000000000000000000000000000003030303030303030303030303030303030303030303030303030303030303030303030000000000000000000000000000000000000000
310
00000000000000000000000000000000000000000000000000000000000000000000000000000000000000000000000000000000000000000000000000000000000000000000000000000000000000000000000000000000000000000000000000000000000000000000000000000000000000000000000000000000000303
310
03030303030303030303030303030303030303030303030303030303030303030303000000000000000000000000000000000000000000000000000000000000000000000000000000000000000000000000000000000000000000000000000000000000000000000000000000000000000000000000000000000000000000
310
00000000000000000000000000000000000000000000000000000000000000000000000000000000000000000000000000000003030000000000000000000000010000000100000000000001000000000000000000030300000000000000000000000000000000000000000000000000000000000000000000000000000000
310
00000000000000000000000000000000000000000000000000000000000000000000000000000000000000000000000000000000000000000000000000000000000000000000000000000000000000000000000000000000000000000000000000000003030303030303000000000000000000000001000000010000000000
310
00010000000000000000000300000000000000000000000000000000000000000000000000000000000000000000000000000000000000000000000000000000000000000000000000000000000000000000000000000000000000000000000000000000000000000000000000000000000000000000000000000000000000
310
00000000000000000000000000000000000000000000000001030303030303030101010101010101010101010101010101010101010101010101010101010101030100000000000000000000000000000000000000000000000000000000000000000000000000000000000000000000000000000000000000000000000000
310
00000000000000000000000000000000000000000000000000000000000000000000000000000000000000000000000000000000000000000000000000000000000000000000000000000000000003030303030303000000000003030300000001000003010300000000000100000000000000000003000000000000000000
310
00000000000000000000000000000000000000000000000000000000000000000000000000000000000000000000000000000000000000000000000000000000000000000000000000000000000000000000000000000000000000000000000000000000000000000000000000000000000000000000000000000000000000
310
00000000000000000001010101010101010101010101010101010101010101010101010101010101010101010300000000000000000000000000000000000000000000000000000000000000000000000000000000000000000000000000000000000000000000000000000000000000000000000000000000000000000000
310
00000000000000000000000000000000000000000000000000000000000000000000000000000000000000000000000000000000000000000000000000000303000000000003030300000001000003010300000000000100000000000000000003030000000000000000000000000000000000000000000000000000000000
310
00000000000000000000000000000000000000000000000000000000000000000000000000000000000000000000000000000000000000000000000000000000000000000000000000000000000000000000000000000000000000000000000000000000000000000000000000000000000000000300000000000001000000
310
00010000030103000000000001000000000000000000030000000000000000000000000000000000000000000000000000000000000000000000000000000000000000000000000000000000000000000000000000000000000000000000000000000000000000000000000000000000000000000000000000000000000000
310
00000000000000000000000000000000000000000000000000000000000000000000000000000000000003000000000000000000000001000000010000000000000100000000000000000003000000000000000000000000000000000000000000000000000000000000000000000000000000000000000000000000000000
310
00000000000000000000000000000000000000000000000000000000000000000000000000000000000000000000000000000000000000000000000000000000000000000000000000000000000000000000000000000000000000000000000300000000000000000000000100000001000000000000010000000000000000
310
00030000000000000000000000000000000000000000000000000000000000000000000000000000000000000000000000000000000000000000000000000000000000000000000000000000000000000000000000000000000000000000000000000000000000000000000000000000000000000000000000000000000000
310
00000000000000000000000000000000000000000003030103010303030303030301030303030303030301030303030303010303010303000000000000000000000000000000000000000000000000000000000000000000000000000000000000000000000000000000000000000000000000000000000000000000000000
310
00000000000000000000000000000000000000000000000000000000000000000000000000000000000000000000000000000000000000000000000000000000000000000000000000000303010001000000010000000100000101000000010100010001000001010001030300000000000000000000000000000000000000
310
00000000000000000000000000000000000000000000000000000000000000000000000000000000000000000000000000000000000000000000000000000000000000000000000000000000000000000000000000000000000000000000000000000000000000000000000000000000000000000000000000000000000000
310
03030103010303030303030301030303010303030301030303030303010303010303000000000000000000000000000000000000000000000000000000000000000000000000000000000000000000000000000000000000000000000000000000000000000000000000000000000000000000000000000000000000000000
310
00000000000000000000000000000000000000000000000000000000000000000000000000000000000000000000000000000000000303000101010303030303030103030301030303030303010303030303010100030300000000000000000000000000000000000000000000000000000000000000000000000000000000
310
00000000000000000000000000000000000000000000000000000000000000000000000000000000000000000000000000000000000000000000000000000000000000000000000000000000000000000000000000000000000000000000000000000000000000000000030000000100000303000000000000000000000000
310
00000100030000000100000303000000000000000000000000000000000000000000000000000000000000000000000000000000000000000000000000000000000000000000000000000000000000000000000000000000000000000000000000000000000000000000000000000000000000000000000000000000000000
310
00000000000000000000000000000000000000000000000000000000000000000303030303030303000000000000000000000000000000000003030303030303030000000000000000000000000000000000000000000000000000000000000000000000000000000000000000000000000000000000000000000000000000
310
00000000000000000000000000000000000000000000000000000000000000000000000000000000000000000000000000000000000000000000000000000000000000000000000000000000000000000000000000000000000000000000000000000000000000000000000000000000000000000000000000000000000000
310
00000000000000000000000000000000000000000000000000000000000000000000000000000000000000000000000000000000000000000000000000000000000000000000000000000000000000000000000000000000000000000000000000000000000000000000000000000000000000000000000000000000000000
310
00000000000000000000000000000000000000000000000000000000000000000000000000000000000000000000000000000000000000000000000000000000000000000000000000000000000000000000000000000000000000000000000000000000000000000000000000000000000000000000000000000000000000
310
00000000000000000000000000000000000000000000000000000000000000000000000000000000000000000000000000000000000000000000000000000000000000000000000000000000000000000000000000000000000000000000000000000000000000000000000000000000000000000000000000000000000000
310
00000000000000000000000000000000000000000000000000000000000000000000000000000000000000000000000000000000000000000000000000000000000000000000000000000000000000000000000000000000000000000000000000000000000000000000000000000000000000000000000000000000000000
310
00000000000000000000000000000000000000000000000000000000000000000000000000000000000000000000000000000000000000000000000000000000000000000000000000000000000000000000000000000000000000000000000000000000000000000000000000000000000000000000000000000000000000
310
00000000000000000000000000000000000000000000000000000000000000000000000000000000000000000000000000000000000000000000000000000000000000000000000000000000000000000000000000000000000000000000000000000000000000000000000000000000000000000000000000000000000000
310
00000000000000000000000000000000000000000000000000000000000000000000000000000000000000000000000000000000000000000000000000000000000000000000000000000000000000000000000000000000000000000000000000000000000000000000000000000000000000000000000000000000000000
310
000000000000000000000000000000000000000000000000000000000000000000000000000000000000000000000000000000000000000000000000000000000000000000000000000000000000000000000000000000000000000000000000000000000000000000000000
  0
ENDSEC
  0
EOF
