  0
SECTION
  2
HEADER
  9
$ACADVER
  1
AC1015
  9
$ACADMAINTVER
 70
     6
  9
$DWGCODEPAGE
  3
ANSI_932
  9
$INSBASE
 10
3622.951418059088
 20
2364.273118638839
 30
0.0
  9
$EXTMIN
 10
190.8787146182754
 20
22.43091277375731
 30
0.0
  9
$EXTMAX
 10
1819.753678090798
 20
1563.056579017305
 30
0.0
  9
$LIMMIN
 10
0.0
 20
0.0
  9
$LIMMAX
 10
816.5000000000001
 20
565.0
  9
$ORTHOMODE
 70
     0
  9
$REGENMODE
 70
     1
  9
$FILLMODE
 70
     1
  9
$QTEXTMODE
 70
     0
  9
$MIRRTEXT
 70
     1
  9
$LTSCALE
 40
20.0
  9
$ATTMODE
 70
     1
  9
$TEXTSIZE
 40
18.0
  9
$TRACEWID
 40
0.05
  9
$TEXTSTYLE
  7
KANJI
  9
$CLAYER
  8
2
  9
$CELTYPE
  6
BYLAYER
  9
$CECOLOR
 62
   256
  9
$CELTSCALE
 40
1.0
  9
$DISPSILH
 70
     0
  9
$DIMSCALE
 40
6.0
  9
$DIMASZ
 40
2.0
  9
$DIMEXO
 40
0.5
  9
$DIMDLI
 40
0.0
  9
$DIMRND
 40
0.0
  9
$DIMDLE
 40
0.0
  9
$DIMEXE
 40
1.0
  9
$DIMTP
 40
0.0
  9
$DIMTM
 40
0.0
  9
$DIMTXT
 40
3.0
  9
$DIMCEN
 40
0.09
  9
$DIMTSZ
 40
0.0
  9
$DIMTOL
 70
     0
  9
$DIMLIM
 70
     0
  9
$DIMTIH
 70
     0
  9
$DIMTOH
 70
     0
  9
$DIMSE1
 70
     0
  9
$DIMSE2
 70
     0
  9
$DIMTAD
 70
     0
  9
$DIMZIN
 70
     8
  9
$DIMBLK
  1

  9
$DIMASO
 70
     0
  9
$DIMSHO
 70
     0
  9
$DIMPOST
  1

  9
$DIMAPOST
  1

  9
$DIMALT
 70
     0
  9
$DIMALTD
 70
     2
  9
$DIMALTF
 40
25.4
  9
$DIMLFAC
 40
1.0
  9
$DIMTOFL
 70
     1
  9
$DIMTVP
 40
1.0
  9
$DIMTIX
 70
     1
  9
$DIMSOXD
 70
     1
  9
$DIMSAH
 70
     0
  9
$DIMBLK1
  1

  9
$DIMBLK2
  1

  9
$DIMSTYLE
  2
STANDARD
  9
$DIMCLRD
 70
   256
  9
$DIMCLRE
 70
   256
  9
$DIMCLRT
 70
   256
  9
$DIMTFAC
 40
1.0
  9
$DIMGAP
 40
0.09
  9
$DIMJUST
 70
     0
  9
$DIMSD1
 70
     0
  9
$DIMSD2
 70
     0
  9
$DIMTOLJ
 70
     1
  9
$DIMTZIN
 70
     0
  9
$DIMALTZ
 70
     0
  9
$DIMALTTZ
 70
     0
  9
$DIMUPT
 70
     0
  9
$DIMDEC
 70
     1
  9
$DIMTDEC
 70
     4
  9
$DIMALTU
 70
     2
  9
$DIMALTTD
 70
     2
  9
$DIMTXSTY
  7
STANDARD
  9
$DIMAUNIT
 70
     0
  9
$DIMADEC
 70
     0
  9
$DIMALTRND
 40
0.0
  9
$DIMAZIN
 70
     0
  9
$DIMDSEP
 70
    46
  9
$DIMATFIT
 70
     3
  9
$DIMFRAC
 70
     0
  9
$DIMLDRBLK
  1

  9
$DIMLUNIT
 70
     2
  9
$DIMLWD
 70
    -2
  9
$DIMLWE
 70
    -2
  9
$DIMTMOVE
 70
     0
  9
$LUNITS
 70
     2
  9
$LUPREC
 70
     3
  9
$SKETCHINC
 40
0.1
  9
$FILLETRAD
 40
1.0
  9
$AUNITS
 70
     0
  9
$AUPREC
 70
     3
  9
$MENU
  1
C:\R13\WIN\SUPPORT\ACADFULL
  9
$ELEVATION
 40
0.0
  9
$PELEVATION
 40
0.0
  9
$THICKNESS
 40
0.0
  9
$LIMCHECK
 70
     0
  9
$CHAMFERA
 40
0.0
  9
$CHAMFERB
 40
0.0
  9
$CHAMFERC
 40
0.0
  9
$CHAMFERD
 40
0.0
  9
$SKPOLY
 70
     0
  9
$TDCREATE
 40
2457310.712184016
  9
$TDUCREATE
 40
2457310.337184016
  9
$TDUPDATE
 40
2458114.539265891
  9
$TDUUPDATE
 40
2458114.164265891
  9
$TDINDWG
 40
0.0227994676
  9
$TDUSRTIMER
 40
0.0227984491
  9
$USRTIMER
 70
     1
  9
$ANGBASE
 50
0.0
  9
$ANGDIR
 70
     0
  9
$PDMODE
 70
     0
  9
$PDSIZE
 40
0.0
  9
$PLINEWID
 40
0.0
  9
$SPLFRAME
 70
     0
  9
$SPLINETYPE
 70
     6
  9
$SPLINESEGS
 70
     8
  9
$HANDSEED
  5
A06
  9
$SURFTAB1
 70
     6
  9
$SURFTAB2
 70
     6
  9
$SURFTYPE
 70
     6
  9
$SURFU
 70
     6
  9
$SURFV
 70
     6
  9
$UCSBASE
  2

  9
$UCSNAME
  2

  9
$UCSORG
 10
0.0
 20
0.0
 30
0.0
  9
$UCSXDIR
 10
1.0
 20
0.0
 30
0.0
  9
$UCSYDIR
 10
0.0
 20
1.0
 30
0.0
  9
$UCSORTHOREF
  2

  9
$UCSORTHOVIEW
 70
     0
  9
$UCSORGTOP
 10
0.0
 20
0.0
 30
0.0
  9
$UCSORGBOTTOM
 10
0.0
 20
0.0
 30
0.0
  9
$UCSORGLEFT
 10
0.0
 20
0.0
 30
0.0
  9
$UCSORGRIGHT
 10
0.0
 20
0.0
 30
0.0
  9
$UCSORGFRONT
 10
0.0
 20
0.0
 30
0.0
  9
$UCSORGBACK
 10
0.0
 20
0.0
 30
0.0
  9
$PUCSBASE
  2

  9
$PUCSNAME
  2

  9
$PUCSORG
 10
0.0
 20
0.0
 30
0.0
  9
$PUCSXDIR
 10
1.0
 20
0.0
 30
0.0
  9
$PUCSYDIR
 10
0.0
 20
1.0
 30
0.0
  9
$PUCSORTHOREF
  2

  9
$PUCSORTHOVIEW
 70
     0
  9
$PUCSORGTOP
 10
0.0
 20
0.0
 30
0.0
  9
$PUCSORGBOTTOM
 10
0.0
 20
0.0
 30
0.0
  9
$PUCSORGLEFT
 10
0.0
 20
0.0
 30
0.0
  9
$PUCSORGRIGHT
 10
0.0
 20
0.0
 30
0.0
  9
$PUCSORGFRONT
 10
0.0
 20
0.0
 30
0.0
  9
$PUCSORGBACK
 10
0.0
 20
0.0
 30
0.0
  9
$USERI1
 70
     0
  9
$USERI2
 70
     0
  9
$USERI3
 70
     0
  9
$USERI4
 70
     0
  9
$USERI5
 70
     0
  9
$USERR1
 40
0.0
  9
$USERR2
 40
0.0
  9
$USERR3
 40
0.0
  9
$USERR4
 40
2448925.372986111
  9
$USERR5
 40
0.04166667
  9
$WORLDVIEW
 70
     1
  9
$SHADEDGE
 70
     3
  9
$SHADEDIF
 70
    70
  9
$TILEMODE
 70
     1
  9
$MAXACTVP
 70
    16
  9
$PINSBASE
 10
0.0
 20
0.0
 30
0.0
  9
$PLIMCHECK
 70
     0
  9
$PEXTMIN
 10
1000000000000000E+20
 20
1000000000000000E+20
 30
1000000000000000E+20
  9
$PEXTMAX
 10
-1000000000000000E+20
 20
-1000000000000000E+20
 30
-1000000000000000E+20
  9
$PLIMMIN
 10
0.0
 20
0.0
  9
$PLIMMAX
 10
12.0
 20
9.0
  9
$UNITMODE
 70
     0
  9
$VISRETAIN
 70
     0
  9
$PLINEGEN
 70
     0
  9
$PSLTSCALE
 70
     0
  9
$TREEDEPTH
 70
  3020
  9
$CMLSTYLE
  2
STANDARD
  9
$CMLJUST
 70
     0
  9
$CMLSCALE
 40
1.0
  9
$PROXYGRAPHICS
 70
     1
  9
$MEASUREMENT
 70
     0
  9
$CELWEIGHT
370
    -1
  9
$ENDCAPS
280
     0
  9
$JOINSTYLE
280
     0
  9
$LWDISPLAY
290
     0
  9
$INSUNITS
 70
     0
  9
$HYPERLINKBASE
  1

  9
$STYLESHEET
  1

  9
$XEDIT
290
     1
  9
$CEPSNTYPE
380
     0
  9
$PSTYLEMODE
290
     1
  9
$FINGERPRINTGUID
  2
{D96F28DB-B2DB-4AD8-9AEF-0C04C20878B1}
  9
$VERSIONGUID
  2
{6E15CFCB-A786-48F2-8C2A-AE2ED21AEAE9}
  9
$EXTNAMES
290
     1
  9
$PSVPSCALE
 40
0.0
  9
$OLESTARTUP
290
     0
  0
ENDSEC
  0
SECTION
  2
CLASSES
  0
CLASS
  1
ACDBDICTIONARYWDFLT
  2
AcDbDictionaryWithDefault
  3
ObjectDBX Classes
 90
        0
280
     0
281
     0
  0
CLASS
  1
MATERIAL
  2
AcDbMaterial
  3
ObjectDBX Classes
 90
     1153
280
     0
281
     0
  0
CLASS
  1
SORTENTSTABLE
  2
AcDbSortentsTable
  3
ObjectDBX Classes
 90
        0
280
     0
281
     0
  0
CLASS
  1
SCALE
  2
AcDbScale
  3
ObjectDBX Classes
 90
     1153
280
     0
281
     0
  0
CLASS
  1
DICTIONARYVAR
  2
AcDbDictionaryVar
  3
ObjectDBX Classes
 90
        0
280
     0
281
     0
  0
CLASS
  1
VISUALSTYLE
  2
AcDbVisualStyle
  3
ObjectDBX Classes
 90
     4095
280
     0
281
     0
  0
CLASS
  1
MLEADERSTYLE
  2
AcDbMLeaderStyle
  3
ACDB_MLEADERSTYLE_CLASS
 90
     4095
280
     0
281
     0
  0
CLASS
  1
ACDBPLACEHOLDER
  2
AcDbPlaceHolder
  3
ObjectDBX Classes
 90
        0
280
     0
281
     0
  0
CLASS
  1
LAYOUT
  2
AcDbLayout
  3
ObjectDBX Classes
 90
        0
280
     0
281
     0
  0
ENDSEC
  0
SECTION
  2
TABLES
  0
TABLE
  2
VPORT
  5
26
102
{ACAD_XDICTIONARY
360
9CB
102
}
330
0
100
AcDbSymbolTable
 70
     2
  0
VPORT
  5
2B
330
26
100
AcDbSymbolTableRecord
100
AcDbViewportTableRecord
  2
*ACTIVE
 70
     0
 10
0.0
 20
0.0
 11
1.0
 21
1.0
 12
1461.747640444416
 22
801.2182683954541
 13
0.0
 23
0.0
 14
1.0
 24
1.0
 15
50.0
 25
50.0
 16
0.0
 26
0.0
 36
1.0
 17
0.0
 27
0.0
 37
0.0
 40
1585.623589582514
 41
1.82716049382716
 42
50.0
 43
0.0
 44
0.0
 50
0.0
 51
0.0
 71
     0
 72
  5000
 73
     1
 74
     0
 75
     0
 76
     0
 77
     0
 78
     0
281
     0
 65
     1
110
0.0
120
0.0
130
0.0
111
1.0
121
0.0
131
0.0
112
0.0
122
1.0
132
0.0
 79
     0
146
0.0
  0
ENDTAB
  0
TABLE
  2
LTYPE
  5
B
330
0
100
AcDbSymbolTable
 70
     2
  0
LTYPE
  5
C
330
B
100
AcDbSymbolTableRecord
100
AcDbLinetypeTableRecord
  2
BYBLOCK
 70
     0
  3

 72
    65
 73
     0
 40
0.0
  0
LTYPE
  5
D
330
B
100
AcDbSymbolTableRecord
100
AcDbLinetypeTableRecord
  2
BYLAYER
 70
     0
  3

 72
    65
 73
     0
 40
0.0
  0
LTYPE
  5
A
330
B
100
AcDbSymbolTableRecord
100
AcDbLinetypeTableRecord
  2
CONTINUOUS
 70
     0
  3
Solid line
 72
    65
 73
     0
 40
0.0
  0
LTYPE
  5
5A
330
B
100
AcDbSymbolTableRecord
100
AcDbLinetypeTableRecord
  2
CENTER
 70
     0
  3
____ _ ____ _ ____ _ ____ _ ____ _ ____ _ ____
 72
    65
 73
     4
 40
2.0
 49
1.25
 74
     0
 49
-0.25
 74
     0
 49
0.25
 74
     0
 49
-0.25
 74
     0
  0
ENDTAB
  0
TABLE
  2
LAYER
  5
2
330
0
100
AcDbSymbolTable
 70
    10
  0
LAYER
  5
1B
330
2
100
AcDbSymbolTableRecord
100
AcDbLayerTableRecord
  2
0
 70
     0
 62
     7
  6
CONTINUOUS
370
    -3
390
3
  0
LAYER
  5
882
330
2
100
AcDbSymbolTableRecord
100
AcDbLayerTableRecord
  2
1
 70
     0
 62
     9
  6
CONTINUOUS
370
    -3
390
3
  0
LAYER
  5
1
330
2
100
AcDbSymbolTableRecord
100
AcDbLayerTableRecord
  2
2
 70
     0
 62
     4
  6
CONTINUOUS
370
    -3
390
3
  0
LAYER
  5
52
330
2
100
AcDbSymbolTableRecord
100
AcDbLayerTableRecord
  2
4
 70
     0
 62
     3
  6
CONTINUOUS
370
    -3
390
3
  0
LAYER
  5
59
330
2
100
AcDbSymbolTableRecord
100
AcDbLayerTableRecord
  2
L-CENTER
 70
     0
 62
     1
  6
CENTER
370
    -3
390
3
  0
LAYER
  5
288
330
2
100
AcDbSymbolTableRecord
100
AcDbLayerTableRecord
  2
3
 70
     0
 62
     2
  6
CONTINUOUS
370
    -3
390
3
  0
LAYER
  5
87C
330
2
100
AcDbSymbolTableRecord
100
AcDbLayerTableRecord
  2
5
 70
     0
 62
     6
  6
CONTINUOUS
370
    -3
390
3
  0
LAYER
  5
22B
102
{ACAD_XDICTIONARY
360
22C
102
}
330
2
100
AcDbSymbolTableRecord
100
AcDbLayerTableRecord
  2
CENTER
 70
     0
 62
     1
  6
CENTER
370
    -3
390
3
  0
LAYER
  5
97B
330
2
100
AcDbSymbolTableRecord
100
AcDbLayerTableRecord
  2
Defpoints
 70
     0
 62
     7
  6
CONTINUOUS
290
     0
370
    -3
390
3
  0
ENDTAB
  0
TABLE
  2
STYLE
  5
F
330
0
100
AcDbSymbolTable
 70
     2
  0
STYLE
  5
13
330
F
100
AcDbSymbolTableRecord
100
AcDbTextStyleTableRecord
  2
STANDARD
 70
     0
 40
0.0
 41
1.0
 50
0.0
 71
     0
 42
10.79999999999999
  3
TXT
  4

  0
STYLE
  5
E
330
F
100
AcDbSymbolTableRecord
100
AcDbTextStyleTableRecord
  2
KANJI
 70
     0
 40
0.0
 41
1.0
 50
0.0
 71
     0
 42
18.0
  3
TXT
  4
BIGFONT
  0
ENDTAB
  0
TABLE
  2
VIEW
  5
24
330
0
100
AcDbSymbolTable
 70
     0
  0
ENDTAB
  0
TABLE
  2
UCS
  5
25
330
0
100
AcDbSymbolTable
 70
     0
  0
ENDTAB
  0
TABLE
  2
APPID
  5
9
330
0
100
AcDbSymbolTable
 70
     3
  0
APPID
  5
8
330
9
100
AcDbSymbolTableRecord
100
AcDbRegAppTableRecord
  2
ACAD
 70
     0
  0
APPID
  5
1F
330
9
100
AcDbSymbolTableRecord
100
AcDbRegAppTableRecord
  2
ACAD_PSEXT
 70
     0
  0
APPID
  5
9BE
330
9
100
AcDbSymbolTableRecord
100
AcDbRegAppTableRecord
  2
ACAD_MLEADERVER
 70
     0
  0
ENDTAB
  0
TABLE
  2
DIMSTYLE
  5
12
330
0
100
AcDbSymbolTable
 70
     1
100
AcDbDimStyleTable
  0
DIMSTYLE
105
11
330
12
100
AcDbSymbolTableRecord
100
AcDbDimStyleTableRecord
  2
STANDARD
 70
     0
178
     0
340
13
  0
ENDTAB
  0
TABLE
  2
BLOCK_RECORD
  5
16
330
0
100
AcDbSymbolTable
 70
     0
  0
BLOCK_RECORD
  5
17
102
{ACAD_XDICTIONARY
360
18
102
}
330
16
100
AcDbSymbolTableRecord
100
AcDbBlockTableRecord
  2
*MODEL_SPACE
340
1D
  0
BLOCK_RECORD
  5
20
330
16
100
AcDbSymbolTableRecord
100
AcDbBlockTableRecord
  2
*PAPER_SPACE
340
23
  0
ENDTAB
  0
ENDSEC
  0
SECTION
  2
BLOCKS
  0
BLOCK
  5
1A
330
17
100
AcDbEntity
  8
0
100
AcDbBlockBegin
  2
*MODEL_SPACE
 70
     0
 10
0.0
 20
0.0
 30
0.0
  3
*MODEL_SPACE
  1

  0
ENDBLK
  5
1C
330
17
100
AcDbEntity
  8
0
100
AcDbBlockEnd
  0
BLOCK
  5
21
330
20
100
AcDbEntity
 67
     1
  8
0
100
AcDbBlockBegin
  2
*PAPER_SPACE
 70
     0
 10
0.0
 20
0.0
 30
0.0
  3
*PAPER_SPACE
  1

  0
ENDBLK
  5
22
330
20
100
AcDbEntity
 67
     1
  8
0
100
AcDbBlockEnd
  0
ENDSEC
  0
SECTION
  2
ENTITIES
  0
CIRCLE
  5
51
330
17
100
AcDbEntity
  8
4
100
AcDbCircle
 10
454.8987948728559
 20
398.8662891895551
 30
0.0
 40
65.0
  0
LINE
  5
53
330
17
100
AcDbEntity
  8
4
100
AcDbLine
 10
442.8987948728559
 20
435.8662911895551
 30
0.0
 11
442.8987948728559
 21
451.8662871895551
 31
0.0
  0
LINE
  5
54
330
17
100
AcDbEntity
  8
4
100
AcDbLine
 10
466.8987948728559
 20
451.8662871895551
 30
0.0
 11
466.8987948728559
 21
435.8662911895551
 31
0.0
  0
ARC
  5
55
330
17
100
AcDbEntity
  8
4
100
AcDbCircle
 10
454.8987948728559
 20
398.8662891895549
 30
0.0
 40
45.000102
100
AcDbArc
 50
105.4659730000001
 51
74.53402699999987
  0
LINE
  5
56
330
17
100
AcDbEntity
  8
4
100
AcDbLine
 10
466.8987948728559
 20
435.8662911895551
 30
0.0
 11
442.8987948728559
 21
435.8662911895551
 31
0.0
  0
LINE
  5
57
330
17
100
AcDbEntity
  8
4
100
AcDbLine
 10
466.8987948728559
 20
451.8662871895551
 30
0.0
 11
442.8987948728559
 21
451.8662871895551
 31
0.0
  0
LINE
  5
58
330
17
100
AcDbEntity
  8
L-CENTER
100
AcDbLine
 10
251.2466928728559
 20
1469.48394156961
 30
0.0
 11
251.2466928728559
 21
1513.824557271887
 31
0.0
  0
LINE
  5
5B
330
17
100
AcDbEntity
  8
4
100
AcDbLine
 10
261.0616474490794
 20
1510.053052071454
 30
0.0
 11
261.0616474490794
 21
1501.456579017306
 31
0.0
  0
LINE
  5
5C
330
17
100
AcDbEntity
  8
4
100
AcDbLine
 10
241.4317382966324
 20
1501.456579017306
 30
0.0
 11
241.4317382966324
 21
1510.053052071454
 31
0.0
  0
LINE
  5
5D
330
17
100
AcDbEntity
  8
4
100
AcDbLine
 10
256.1541701609681
 20
1510.053052071454
 30
0.0
 11
256.1541701609681
 21
1503.956579017306
 31
0.0
  0
ARC
  5
5E
330
17
100
AcDbEntity
  8
4
100
AcDbCircle
 10
258.6079088050242
 20
1507.172965088247
 30
0.0
 40
3.783613929059507
100
AcDbArc
 50
49.57010315517761
 51
130.4298968448224
  0
LINE
  5
5F
330
17
100
AcDbEntity
  8
4
100
AcDbLine
 10
243.8854769406885
 20
1510.956579017306
 30
0.0
 11
258.6079088050242
 21
1510.956579017306
 31
0.0
  0
ARC
  5
60
330
17
100
AcDbEntity
  8
4
100
AcDbCircle
 10
251.2466928728559
 20
1497.177413719847
 30
0.0
 40
13.77916529745958
100
AcDbArc
 50
69.13593563608119
 51
110.8640643639188
  0
LINE
  5
61
330
17
100
AcDbEntity
  8
4
100
AcDbLine
 10
246.3392155847446
 20
1510.053052071454
 30
0.0
 11
246.3392155847446
 21
1503.956579017306
 31
0.0
  0
LINE
  5
62
330
17
100
AcDbEntity
  8
4
100
AcDbLine
 10
261.0616474490794
 20
1501.456579017306
 30
0.0
 11
241.4317382966324
 21
1501.456579017306
 31
0.0
  0
LINE
  5
63
330
17
100
AcDbEntity
  8
4
100
AcDbLine
 10
261.0616474490794
 20
1503.956579017306
 30
0.0
 11
241.4317382966324
 21
1503.956579017306
 31
0.0
  0
ARC
  5
64
330
17
100
AcDbEntity
  8
4
100
AcDbCircle
 10
243.8854769406885
 20
1507.172965088247
 30
0.0
 40
3.783613929059507
100
AcDbArc
 50
49.57010315517761
 51
130.4298968448224
  0
LINE
  5
65
330
17
100
AcDbEntity
  8
L-CENTER
100
AcDbLine
 10
308.5415945603709
 20
1469.48394156961
 30
0.0
 11
308.5415945603709
 21
1513.824557271887
 31
0.0
  0
LINE
  5
66
330
17
100
AcDbEntity
  8
4
100
AcDbLine
 10
318.3565491365944
 20
1510.053052071454
 30
0.0
 11
318.3565491365944
 21
1501.456579017306
 31
0.0
  0
LINE
  5
67
330
17
100
AcDbEntity
  8
4
100
AcDbLine
 10
298.7266399841474
 20
1501.456579017306
 30
0.0
 11
298.7266399841474
 21
1510.053052071454
 31
0.0
  0
LINE
  5
68
330
17
100
AcDbEntity
  8
4
100
AcDbLine
 10
313.4490718484831
 20
1510.053052071454
 30
0.0
 11
313.4490718484831
 21
1503.956579017306
 31
0.0
  0
ARC
  5
69
330
17
100
AcDbEntity
  8
4
100
AcDbCircle
 10
315.9028104925392
 20
1507.172965088247
 30
0.0
 40
3.783613929059507
100
AcDbArc
 50
49.57010315517826
 51
130.4298968448217
  0
LINE
  5
6A
330
17
100
AcDbEntity
  8
4
100
AcDbLine
 10
301.1803786282035
 20
1510.956579017306
 30
0.0
 11
315.9028104925392
 21
1510.956579017306
 31
0.0
  0
ARC
  5
6B
330
17
100
AcDbEntity
  8
4
100
AcDbCircle
 10
308.5415945603709
 20
1497.177413719847
 30
0.0
 40
13.77916529745958
100
AcDbArc
 50
69.13593563608075
 51
110.8640643639193
  0
LINE
  5
6C
330
17
100
AcDbEntity
  8
4
100
AcDbLine
 10
303.6341172722596
 20
1510.053052071454
 30
0.0
 11
303.6341172722596
 21
1503.956579017306
 31
0.0
  0
LINE
  5
6D
330
17
100
AcDbEntity
  8
4
100
AcDbLine
 10
318.3565491365944
 20
1501.456579017306
 30
0.0
 11
298.7266399841474
 21
1501.456579017306
 31
0.0
  0
LINE
  5
6E
330
17
100
AcDbEntity
  8
4
100
AcDbLine
 10
318.3565491365944
 20
1503.956579017306
 30
0.0
 11
298.7266399841474
 21
1503.956579017306
 31
0.0
  0
ARC
  5
6F
330
17
100
AcDbEntity
  8
4
100
AcDbCircle
 10
301.1803786282035
 20
1507.172965088247
 30
0.0
 40
3.783613929059507
100
AcDbArc
 50
49.57010315517826
 51
130.4298968448217
  0
LINE
  5
70
330
17
100
AcDbEntity
  8
L-CENTER
100
AcDbLine
 10
458.5415945603713
 20
1469.48394156961
 30
0.0
 11
458.5415945603713
 21
1513.824557271887
 31
0.0
  0
LINE
  5
71
330
17
100
AcDbEntity
  8
4
100
AcDbLine
 10
468.3565491365948
 20
1510.053052071454
 30
0.0
 11
468.3565491365948
 21
1501.456579017306
 31
0.0
  0
LINE
  5
72
330
17
100
AcDbEntity
  8
4
100
AcDbLine
 10
448.7266399841478
 20
1501.456579017306
 30
0.0
 11
448.7266399841478
 21
1510.053052071454
 31
0.0
  0
LINE
  5
73
330
17
100
AcDbEntity
  8
4
100
AcDbLine
 10
463.4490718484835
 20
1510.053052071454
 30
0.0
 11
463.4490718484835
 21
1503.956579017306
 31
0.0
  0
ARC
  5
74
330
17
100
AcDbEntity
  8
4
100
AcDbCircle
 10
465.9028104925396
 20
1507.172965088247
 30
0.0
 40
3.783613929059507
100
AcDbArc
 50
49.57010315517826
 51
130.4298968448217
  0
LINE
  5
75
330
17
100
AcDbEntity
  8
4
100
AcDbLine
 10
451.1803786282039
 20
1510.956579017306
 30
0.0
 11
465.9028104925396
 21
1510.956579017306
 31
0.0
  0
ARC
  5
76
330
17
100
AcDbEntity
  8
4
100
AcDbCircle
 10
458.5415945603713
 20
1497.177413719847
 30
0.0
 40
13.77916529745958
100
AcDbArc
 50
69.13593563608075
 51
110.8640643639193
  0
LINE
  5
77
330
17
100
AcDbEntity
  8
4
100
AcDbLine
 10
453.63411727226
 20
1510.053052071454
 30
0.0
 11
453.63411727226
 21
1503.956579017306
 31
0.0
  0
LINE
  5
78
330
17
100
AcDbEntity
  8
4
100
AcDbLine
 10
468.3565491365948
 20
1501.456579017306
 30
0.0
 11
448.7266399841478
 21
1501.456579017306
 31
0.0
  0
LINE
  5
79
330
17
100
AcDbEntity
  8
4
100
AcDbLine
 10
468.3565491365948
 20
1503.956579017306
 30
0.0
 11
448.7266399841478
 21
1503.956579017306
 31
0.0
  0
ARC
  5
7A
330
17
100
AcDbEntity
  8
4
100
AcDbCircle
 10
451.1803786282039
 20
1507.172965088247
 30
0.0
 40
3.783613929059507
100
AcDbArc
 50
49.57010315517826
 51
130.4298968448217
  0
LINE
  5
7B
330
17
100
AcDbEntity
  8
L-CENTER
100
AcDbLine
 10
643.9517911853404
 20
1469.48394156961
 30
0.0
 11
643.9517911853404
 21
1513.824557271887
 31
0.0
  0
LINE
  5
7C
330
17
100
AcDbEntity
  8
4
100
AcDbLine
 10
653.7667457615639
 20
1510.053052071454
 30
0.0
 11
653.7667457615639
 21
1501.456579017306
 31
0.0
  0
LINE
  5
7D
330
17
100
AcDbEntity
  8
4
100
AcDbLine
 10
634.1368366091169
 20
1501.456579017306
 30
0.0
 11
634.1368366091169
 21
1510.053052071454
 31
0.0
  0
LINE
  5
7E
330
17
100
AcDbEntity
  8
4
100
AcDbLine
 10
648.8592684734526
 20
1510.053052071454
 30
0.0
 11
648.8592684734526
 21
1503.956579017306
 31
0.0
  0
ARC
  5
7F
330
17
100
AcDbEntity
  8
4
100
AcDbCircle
 10
651.3130071175087
 20
1507.172965088247
 30
0.0
 40
3.783613929059507
100
AcDbArc
 50
49.57010315517826
 51
130.4298968448217
  0
LINE
  5
80
330
17
100
AcDbEntity
  8
4
100
AcDbLine
 10
636.590575253173
 20
1510.956579017306
 30
0.0
 11
651.3130071175087
 21
1510.956579017306
 31
0.0
  0
ARC
  5
81
330
17
100
AcDbEntity
  8
4
100
AcDbCircle
 10
643.9517911853404
 20
1497.177413719847
 30
0.0
 40
13.77916529745958
100
AcDbArc
 50
69.13593563608075
 51
110.8640643639193
  0
LINE
  5
82
330
17
100
AcDbEntity
  8
4
100
AcDbLine
 10
639.0443138972291
 20
1510.053052071454
 30
0.0
 11
639.0443138972291
 21
1503.956579017306
 31
0.0
  0
LINE
  5
83
330
17
100
AcDbEntity
  8
4
100
AcDbLine
 10
653.7667457615639
 20
1501.456579017306
 30
0.0
 11
634.1368366091169
 21
1501.456579017306
 31
0.0
  0
LINE
  5
84
330
17
100
AcDbEntity
  8
4
100
AcDbLine
 10
653.7667457615639
 20
1503.956579017306
 30
0.0
 11
634.1368366091169
 21
1503.956579017306
 31
0.0
  0
ARC
  5
85
330
17
100
AcDbEntity
  8
4
100
AcDbCircle
 10
636.590575253173
 20
1507.172965088247
 30
0.0
 40
3.783613929059507
100
AcDbArc
 50
49.57010315517826
 51
130.4298968448217
  0
LINE
  5
86
330
17
100
AcDbEntity
  8
L-CENTER
100
AcDbLine
 10
793.9517911853409
 20
1469.48394156961
 30
0.0
 11
793.9517911853409
 21
1513.824557271887
 31
0.0
  0
LINE
  5
87
330
17
100
AcDbEntity
  8
4
100
AcDbLine
 10
803.7667457615644
 20
1510.053052071454
 30
0.0
 11
803.7667457615644
 21
1501.456579017306
 31
0.0
  0
LINE
  5
88
330
17
100
AcDbEntity
  8
4
100
AcDbLine
 10
784.1368366091174
 20
1501.456579017306
 30
0.0
 11
784.1368366091174
 21
1510.053052071454
 31
0.0
  0
LINE
  5
89
330
17
100
AcDbEntity
  8
4
100
AcDbLine
 10
798.8592684734531
 20
1510.053052071454
 30
0.0
 11
798.8592684734531
 21
1503.956579017306
 31
0.0
  0
ARC
  5
8A
330
17
100
AcDbEntity
  8
4
100
AcDbCircle
 10
801.3130071175092
 20
1507.172965088247
 30
0.0
 40
3.783613929059507
100
AcDbArc
 50
49.57010315517826
 51
130.4298968448217
  0
LINE
  5
8B
330
17
100
AcDbEntity
  8
4
100
AcDbLine
 10
786.5905752531735
 20
1510.956579017306
 30
0.0
 11
801.3130071175092
 21
1510.956579017306
 31
0.0
  0
ARC
  5
8C
330
17
100
AcDbEntity
  8
4
100
AcDbCircle
 10
793.9517911853409
 20
1497.177413719847
 30
0.0
 40
13.77916529745958
100
AcDbArc
 50
69.13593563608075
 51
110.8640643639193
  0
LINE
  5
8D
330
17
100
AcDbEntity
  8
4
100
AcDbLine
 10
789.0443138972296
 20
1510.053052071454
 30
0.0
 11
789.0443138972296
 21
1503.956579017306
 31
0.0
  0
LINE
  5
8E
330
17
100
AcDbEntity
  8
4
100
AcDbLine
 10
803.7667457615644
 20
1501.456579017306
 30
0.0
 11
784.1368366091174
 21
1501.456579017306
 31
0.0
  0
LINE
  5
8F
330
17
100
AcDbEntity
  8
4
100
AcDbLine
 10
803.7667457615644
 20
1503.956579017306
 30
0.0
 11
784.1368366091174
 21
1503.956579017306
 31
0.0
  0
ARC
  5
90
330
17
100
AcDbEntity
  8
4
100
AcDbCircle
 10
786.5905752531735
 20
1507.172965088247
 30
0.0
 40
3.783613929059507
100
AcDbArc
 50
49.57010315517826
 51
130.4298968448217
  0
LINE
  5
91
330
17
100
AcDbEntity
  8
L-CENTER
100
AcDbLine
 10
851.2466928728559
 20
1469.48394156961
 30
0.0
 11
851.2466928728559
 21
1513.824557271887
 31
0.0
  0
LINE
  5
92
330
17
100
AcDbEntity
  8
4
100
AcDbLine
 10
861.0616474490794
 20
1510.053052071454
 30
0.0
 11
861.0616474490794
 21
1501.456579017306
 31
0.0
  0
LINE
  5
93
330
17
100
AcDbEntity
  8
4
100
AcDbLine
 10
841.4317382966324
 20
1501.456579017306
 30
0.0
 11
841.4317382966324
 21
1510.053052071454
 31
0.0
  0
LINE
  5
94
330
17
100
AcDbEntity
  8
4
100
AcDbLine
 10
856.1541701609681
 20
1510.053052071454
 30
0.0
 11
856.1541701609681
 21
1503.956579017306
 31
0.0
  0
ARC
  5
95
330
17
100
AcDbEntity
  8
4
100
AcDbCircle
 10
858.6079088050242
 20
1507.172965088247
 30
0.0
 40
3.783613929059507
100
AcDbArc
 50
49.57010315517826
 51
130.4298968448217
  0
LINE
  5
96
330
17
100
AcDbEntity
  8
4
100
AcDbLine
 10
843.8854769406885
 20
1510.956579017306
 30
0.0
 11
858.6079088050242
 21
1510.956579017306
 31
0.0
  0
ARC
  5
97
330
17
100
AcDbEntity
  8
4
100
AcDbCircle
 10
851.2466928728559
 20
1497.177413719847
 30
0.0
 40
13.77916529745958
100
AcDbArc
 50
69.13593563608075
 51
110.8640643639193
  0
LINE
  5
98
330
17
100
AcDbEntity
  8
4
100
AcDbLine
 10
846.3392155847446
 20
1510.053052071454
 30
0.0
 11
846.3392155847446
 21
1503.956579017306
 31
0.0
  0
LINE
  5
99
330
17
100
AcDbEntity
  8
4
100
AcDbLine
 10
861.0616474490794
 20
1501.456579017306
 30
0.0
 11
841.4317382966324
 21
1501.456579017306
 31
0.0
  0
LINE
  5
9A
330
17
100
AcDbEntity
  8
4
100
AcDbLine
 10
861.0616474490794
 20
1503.956579017306
 30
0.0
 11
841.4317382966324
 21
1503.956579017306
 31
0.0
  0
ARC
  5
9B
330
17
100
AcDbEntity
  8
4
100
AcDbCircle
 10
843.8854769406885
 20
1507.172965088247
 30
0.0
 40
3.783613929059507
100
AcDbArc
 50
49.57010315517826
 51
130.4298968448217
  0
LINE
  5
9C
330
17
100
AcDbEntity
  8
4
100
AcDbLine
 10
236.5307948728555
 20
1476.056579017305
 30
0.0
 11
866.5307948728555
 21
1476.056579017305
 31
0.0
  0
LINE
  5
9D
330
17
100
AcDbEntity
  8
L-CENTER
100
AcDbLine
 10
200.5307948728546
 20
1368.056579017305
 30
0.0
 11
902.5307948728555
 21
1368.056579017305
 31
0.0
  0
LINE
  5
9E
330
17
100
AcDbEntity
  8
4
100
AcDbLine
 10
339.898794872855
 20
1226.056579017305
 30
0.0
 11
569.8987948728554
 21
1226.056579017305
 31
0.0
  0
LINE
  5
9F
330
17
100
AcDbEntity
  8
4
100
AcDbLine
 10
220.5307948728564
 20
1183.056579017305
 30
0.0
 11
220.5307948728546
 21
1553.056579017305
 31
0.0
  0
LINE
  5
A0
330
17
100
AcDbEntity
  8
4
100
AcDbLine
 10
215.5307948728546
 20
1249.056579017305
 30
0.0
 11
215.5307948728555
 21
1393.056579017305
 31
0.0
  0
LINE
  5
A1
330
17
100
AcDbEntity
  8
4
100
AcDbLine
 10
362.509078809197
 20
1173.056579017305
 30
0.0
 11
230.5307948728564
 21
1173.056579017305
 31
0.0
  0
ARC
  5
A2
330
17
100
AcDbEntity
  8
4
100
AcDbCircle
 10
551.5307948728564
 20
8033.081527455457
 30
0.0
 40
6803.0
100
AcDbArc
 50
267.5989890658384
 51
272.4010109341617
  0
LINE
  5
A3
330
17
100
AcDbEntity
  8
L-CENTER
100
AcDbLine
 10
296.5307948728564
 20
1188.056579017303
 30
0.0
 11
296.5307948728555
 21
1238.056579017307
 31
0.0
  0
LINE
  5
A4
330
17
100
AcDbEntity
  8
4
100
AcDbLine
 10
242.5307948728546
 20
1213.056579017305
 30
0.0
 11
242.5307948728546
 21
1242.056579017305
 31
0.0
  0
CIRCLE
  5
A5
330
17
100
AcDbEntity
  8
4
100
AcDbCircle
 10
296.5307948728555
 20
1213.056579017305
 30
0.0
 40
11.0
  0
LINE
  5
A6
330
17
100
AcDbEntity
  8
4
100
AcDbLine
 10
242.5307948728546
 20
1213.056579017305
 30
0.0
 11
220.5307948728546
 21
1213.056579017305
 31
0.0
  0
ARC
  5
A7
330
17
100
AcDbEntity
  8
4
100
AcDbCircle
 10
230.5307948728564
 20
1183.056579017305
 30
0.0
 40
10.0
100
AcDbArc
 50
180.0
 51
270.0
  0
LINE
  5
A8
330
17
100
AcDbEntity
  8
L-CENTER
100
AcDbLine
 10
321.5307948728573
 20
1213.056579017305
 30
0.0
 11
271.5307948728546
 21
1213.056579017305
 31
0.0
  0
ARC
  5
A9
330
17
100
AcDbEntity
  8
4
100
AcDbCircle
 10
263.5307948728555
 20
1239.056579017305
 30
0.0
 40
3.0
100
AcDbArc
 50
0.0
 51
90.0
  0
ARC
  5
AA
330
17
100
AcDbEntity
  8
4
100
AcDbCircle
 10
222.5307948728564
 20
1265.056579017305
 30
0.0
 40
2.0
100
AcDbArc
 50
180.0
 51
270.0
  0
LINE
  5
AB
330
17
100
AcDbEntity
  8
4
100
AcDbLine
 10
222.5307948728564
 20
1263.056579017305
 30
0.0
 11
880.5307948728555
 21
1263.056579017305
 31
0.0
  0
ARC
  5
AC
330
17
100
AcDbEntity
  8
4
100
AcDbCircle
 10
234.5307948728555
 20
1261.056579017305
 30
0.0
 40
2.0
100
AcDbArc
 50
0.0
 51
90.0
  0
LINE
  5
AD
330
17
100
AcDbEntity
  8
4
100
AcDbLine
 10
215.5307948728546
 20
1249.056579017305
 30
0.0
 11
217.5307948728564
 21
1249.056579017305
 31
0.0
  0
ARC
  5
AE
330
17
100
AcDbEntity
  8
4
100
AcDbCircle
 10
217.5307948728564
 20
1246.056579017305
 30
0.0
 40
3.0
100
AcDbArc
 50
0.0
 51
90.0
  0
ARC
  5
AF
330
17
100
AcDbEntity
  8
4
100
AcDbCircle
 10
238.5307948728555
 20
1244.056579017305
 30
0.0
 40
2.0
100
AcDbArc
 50
180.0
 51
270.0
  0
LINE
  5
B0
330
17
100
AcDbEntity
  8
4
100
AcDbLine
 10
238.5307948728555
 20
1242.056579017305
 30
0.0
 11
864.5307948728555
 21
1242.056579017305
 31
0.0
  0
LINE
  5
B1
330
17
100
AcDbEntity
  8
4
100
AcDbLine
 10
236.5307948728555
 20
1261.056579017305
 30
0.0
 11
236.5307948728555
 21
1244.056579017305
 31
0.0
  0
LINE
  5
B2
330
17
100
AcDbEntity
  8
4
100
AcDbLine
 10
266.5307948728555
 20
1239.056579017305
 30
0.0
 11
266.5307948728555
 21
1236.053941811861
 31
0.0
  0
LINE
  5
B3
330
17
100
AcDbEntity
  8
4
100
AcDbLine
 10
378.9752393173007
 20
1211.056579017305
 30
0.0
 11
372.2709494110363
 21
1180.887274439118
 31
0.0
  0
ARC
  5
B4
330
17
100
AcDbEntity
  8
4
100
AcDbCircle
 10
362.509078809197
 20
1183.056579017305
 30
0.0
 40
10.0
100
AcDbArc
 50
270.0
 51
347.4711922908477
  0
ARC
  5
B5
330
17
100
AcDbEntity
  8
4
100
AcDbCircle
 10
336.898794872855
 20
1230.466654880646
 30
0.0
 40
3.0
100
AcDbArc
 50
0.0
 51
88.19283764707886
  0
LINE
  5
B6
330
17
100
AcDbEntity
  8
4
100
AcDbLine
 10
339.898794872855
 20
1230.466654880646
 30
0.0
 11
339.898794872855
 21
1226.056579017305
 31
0.0
  0
LINE
  5
B7
330
17
100
AcDbEntity
  8
4
100
AcDbLine
 10
215.5307948728546
 20
1393.056579017305
 30
0.0
 11
217.5307948728564
 21
1393.056579017305
 31
0.0
  0
ARC
  5
B8
330
17
100
AcDbEntity
  8
4
100
AcDbCircle
 10
217.5307948728564
 20
1396.056579017305
 30
0.0
 40
3.0
100
AcDbArc
 50
270.0
 51
0.0
  0
LINE
  5
B9
330
17
100
AcDbEntity
  8
4
100
AcDbLine
 10
230.5307948728546
 20
1563.056579017305
 30
0.0
 11
362.5090788091961
 21
1563.056579017305
 31
0.0
  0
LINE
  5
BA
330
17
100
AcDbEntity
  8
L-CENTER
100
AcDbLine
 10
296.5307948728564
 20
1548.056579017307
 30
0.0
 11
296.5307948728555
 21
1498.056579017303
 31
0.0
  0
LINE
  5
BB
330
17
100
AcDbEntity
  8
4
100
AcDbLine
 10
242.5307948728559
 20
1501.456579017306
 30
0.0
 11
242.5307948728564
 21
1523.056579017305
 31
0.0
  0
ARC
  5
BC
330
17
100
AcDbEntity
  8
4
100
AcDbCircle
 10
222.5307948728564
 20
1471.056579017305
 30
0.0
 40
2.0
100
AcDbArc
 50
90.0
 51
180.0
  0
LINE
  5
BD
330
17
100
AcDbEntity
  8
4
100
AcDbLine
 10
236.5307948728555
 20
1476.056579017306
 30
0.0
 11
236.5307948728555
 21
1473.056579017305
 31
0.0
  0
LINE
  5
BE
330
17
100
AcDbEntity
  8
4
100
AcDbLine
 10
222.5307948728564
 20
1473.056579017305
 30
0.0
 11
880.5307948728555
 21
1473.056579017305
 31
0.0
  0
ARC
  5
BF
330
17
100
AcDbEntity
  8
4
100
AcDbCircle
 10
230.5307948728546
 20
1553.056579017305
 30
0.0
 40
10.0
100
AcDbArc
 50
90.0
 51
180.0
  0
LINE
  5
C0
330
17
100
AcDbEntity
  8
4
100
AcDbLine
 10
242.5307948728564
 20
1523.056579017305
 30
0.0
 11
220.5307948728564
 21
1523.056579017305
 31
0.0
  0
LINE
  5
C1
330
17
100
AcDbEntity
  8
L-CENTER
100
AcDbLine
 10
321.5307948728573
 20
1523.056579017305
 30
0.0
 11
271.5307948728546
 21
1523.056579017305
 31
0.0
  0
CIRCLE
  5
C2
330
17
100
AcDbEntity
  8
4
100
AcDbCircle
 10
296.5307948728555
 20
1523.056579017305
 30
0.0
 40
11.0
  0
LINE
  5
C3
330
17
100
AcDbEntity
  8
4
100
AcDbLine
 10
372.2709494110345
 20
1555.225883595491
 30
0.0
 11
376.7784970988237
 21
1534.941919000442
 31
0.0
  0
ARC
  5
C4
330
17
100
AcDbEntity
  8
4
100
AcDbCircle
 10
362.5090788091961
 20
1553.056579017305
 30
0.0
 40
10.0
100
AcDbArc
 50
12.52880770915234
 51
90.0
  0
LINE
  5
C5
330
17
100
AcDbEntity
  8
4
100
AcDbLine
 10
882.5307948728555
 20
1183.056579017305
 30
0.0
 11
882.5307948728555
 21
1553.056579017305
 31
0.0
  0
LINE
  5
C6
330
17
100
AcDbEntity
  8
L-CENTER
100
AcDbLine
 10
551.5307948728555
 20
1525.954659326172
 30
0.0
 11
551.5307948728555
 21
1206.056579017305
 31
0.0
  0
LINE
  5
C7
330
17
100
AcDbEntity
  8
4
100
AcDbLine
 10
586.8987948728554
 20
1226.056579017305
 30
0.0
 11
766.8987948728554
 21
1226.056579017305
 31
0.0
  0
ARC
  5
C8
330
17
100
AcDbEntity
  8
4
100
AcDbCircle
 10
572.8987948728554
 20
1227.115070839908
 30
0.0
 40
3.0
100
AcDbArc
 50
90.17988513487896
 51
180.0
  0
LINE
  5
C9
330
17
100
AcDbEntity
  8
4
100
AcDbLine
 10
569.8987948728554
 20
1227.115070839908
 30
0.0
 11
569.8987948728554
 21
1226.056579017305
 31
0.0
  0
ARC
  5
CA
330
17
100
AcDbEntity
  8
4
100
AcDbCircle
 10
583.8987948728554
 20
1227.158495817793
 30
0.0
 40
3.0
100
AcDbArc
 50
0.0
 51
90.27248850750303
  0
LINE
  5
CB
330
17
100
AcDbEntity
  8
4
100
AcDbLine
 10
586.8987948728554
 20
1227.158495817793
 30
0.0
 11
586.8987948728554
 21
1226.056579017305
 31
0.0
  0
LINE
  5
CC
330
17
100
AcDbEntity
  8
4
100
AcDbLine
 10
887.5307948728555
 20
1249.056579017305
 30
0.0
 11
887.5307948728555
 21
1393.056579017305
 31
0.0
  0
LINE
  5
CD
330
17
100
AcDbEntity
  8
4
100
AcDbLine
 10
872.5307948728555
 20
1173.056579017305
 30
0.0
 11
740.5525109365149
 21
1173.056579017305
 31
0.0
  0
CIRCLE
  5
CE
330
17
100
AcDbEntity
  8
4
100
AcDbCircle
 10
806.5307948728555
 20
1213.056579017305
 30
0.0
 40
11.0
  0
LINE
  5
CF
330
17
100
AcDbEntity
  8
L-CENTER
100
AcDbLine
 10
806.530794872855
 20
1188.056579017303
 30
0.0
 11
806.5307948728555
 21
1238.056579017307
 31
0.0
  0
LINE
  5
D0
330
17
100
AcDbEntity
  8
4
100
AcDbLine
 10
726.1974615395234
 20
1201.556579017304
 30
0.0
 11
730.7906403346751
 21
1180.887274439118
 31
0.0
  0
ARC
  5
D1
330
17
100
AcDbEntity
  8
4
100
AcDbCircle
 10
740.5525109365149
 20
1183.056579017305
 30
0.0
 40
10.0
100
AcDbArc
 50
192.5288077091523
 51
270.0
  0
LINE
  5
D2
330
17
100
AcDbEntity
  8
L-CENTER
100
AcDbLine
 10
781.5307948728537
 20
1213.056579017305
 30
0.0
 11
831.5307948728573
 21
1213.056579017305
 31
0.0
  0
ARC
  5
D3
330
17
100
AcDbEntity
  8
4
100
AcDbCircle
 10
769.8987948728554
 20
1230.585557844302
 30
0.0
 40
3.0
100
AcDbArc
 50
91.8386295021807
 51
180.0
  0
LINE
  5
D4
330
17
100
AcDbEntity
  8
4
100
AcDbLine
 10
766.8987948728554
 20
1230.585557844302
 30
0.0
 11
766.8987948728554
 21
1226.056579017305
 31
0.0
  0
LINE
  5
D5
330
17
100
AcDbEntity
  8
4
100
AcDbLine
 10
860.5307948728555
 20
1213.056579017305
 30
0.0
 11
860.5307948728555
 21
1242.056579017305
 31
0.0
  0
LINE
  5
D6
330
17
100
AcDbEntity
  8
4
100
AcDbLine
 10
860.5307948728555
 20
1213.056579017305
 30
0.0
 11
882.5307948728555
 21
1213.056579017305
 31
0.0
  0
ARC
  5
D7
330
17
100
AcDbEntity
  8
4
100
AcDbCircle
 10
872.5307948728555
 20
1183.056579017305
 30
0.0
 40
10.0
100
AcDbArc
 50
270.0
 51
0.0
  0
ARC
  5
D8
330
17
100
AcDbEntity
  8
4
100
AcDbCircle
 10
868.5307948728555
 20
1261.056579017305
 30
0.0
 40
2.0
100
AcDbArc
 50
90.0
 51
180.0
  0
ARC
  5
D9
330
17
100
AcDbEntity
  8
4
100
AcDbCircle
 10
885.5307948728555
 20
1246.056579017305
 30
0.0
 40
3.0
100
AcDbArc
 50
90.0
 51
180.0
  0
LINE
  5
DA
330
17
100
AcDbEntity
  8
4
100
AcDbLine
 10
887.5307948728555
 20
1249.056579017305
 30
0.0
 11
885.5307948728555
 21
1249.056579017305
 31
0.0
  0
ARC
  5
DB
330
17
100
AcDbEntity
  8
4
100
AcDbCircle
 10
880.5307948728555
 20
1265.056579017305
 30
0.0
 40
2.0
100
AcDbArc
 50
270.0
 51
0.0
  0
ARC
  5
DC
330
17
100
AcDbEntity
  8
4
100
AcDbCircle
 10
864.5307948728555
 20
1244.056579017305
 30
0.0
 40
2.0
100
AcDbArc
 50
270.0
 51
0.0
  0
ARC
  5
DD
330
17
100
AcDbEntity
  8
4
100
AcDbCircle
 10
839.5307948728555
 20
1239.056579017305
 30
0.0
 40
3.0
100
AcDbArc
 50
90.0
 51
180.0
  0
LINE
  5
DE
330
17
100
AcDbEntity
  8
4
100
AcDbLine
 10
836.5307948728555
 20
1239.056579017305
 30
0.0
 11
836.5307948728555
 21
1236.053941811861
 31
0.0
  0
LINE
  5
DF
330
17
100
AcDbEntity
  8
4
100
AcDbLine
 10
866.5307948728555
 20
1261.056579017305
 30
0.0
 11
866.5307948728555
 21
1244.056579017305
 31
0.0
  0
ARC
  5
E0
330
17
100
AcDbEntity
  8
4
100
AcDbCircle
 10
885.5307948728555
 20
1396.056579017305
 30
0.0
 40
3.0
100
AcDbArc
 50
180.0
 51
270.0
  0
LINE
  5
E1
330
17
100
AcDbEntity
  8
4
100
AcDbLine
 10
887.5307948728555
 20
1393.056579017305
 30
0.0
 11
885.5307948728555
 21
1393.056579017305
 31
0.0
  0
LINE
  5
E2
330
17
100
AcDbEntity
  8
4
100
AcDbLine
 10
740.552510936514
 20
1563.056579017305
 30
0.0
 11
872.5307948728555
 21
1563.056579017305
 31
0.0
  0
LINE
  5
E3
330
17
100
AcDbEntity
  8
4
100
AcDbLine
 10
730.7906403346742
 20
1555.225883595491
 30
0.0
 11
726.286350428411
 21
1534.956579017306
 31
0.0
  0
LINE
  5
E4
330
17
100
AcDbEntity
  8
L-CENTER
100
AcDbLine
 10
806.530794872855
 20
1548.056579017307
 30
0.0
 11
806.5307948728555
 21
1498.056579017303
 31
0.0
  0
ARC
  5
E5
330
17
100
AcDbEntity
  8
4
100
AcDbCircle
 10
740.552510936514
 20
1553.056579017305
 30
0.0
 40
10.0
100
AcDbArc
 50
90.0
 51
167.4711922908477
  0
CIRCLE
  5
E6
330
17
100
AcDbEntity
  8
4
100
AcDbCircle
 10
806.5307948728555
 20
1523.056579017305
 30
0.0
 40
11.0
  0
LINE
  5
E7
330
17
100
AcDbEntity
  8
L-CENTER
100
AcDbLine
 10
781.5307948728537
 20
1523.056579017305
 30
0.0
 11
831.5307948728573
 21
1523.056579017305
 31
0.0
  0
LINE
  5
E8
330
17
100
AcDbEntity
  8
4
100
AcDbLine
 10
860.5307948728555
 20
1510.431529731509
 30
0.0
 11
860.5307948728555
 21
1523.056579017305
 31
0.0
  0
LINE
  5
E9
330
17
100
AcDbEntity
  8
4
100
AcDbLine
 10
866.5307948728555
 20
1476.056579017306
 30
0.0
 11
866.5307948728555
 21
1473.056579017305
 31
0.0
  0
ARC
  5
EA
330
17
100
AcDbEntity
  8
4
100
AcDbCircle
 10
880.5307948728555
 20
1471.056579017305
 30
0.0
 40
2.0
100
AcDbArc
 50
0.0
 51
90.0
  0
ARC
  5
EB
330
17
100
AcDbEntity
  8
4
100
AcDbCircle
 10
872.5307948728555
 20
1553.056579017305
 30
0.0
 40
10.0
100
AcDbArc
 50
0.0
 51
90.0
  0
LINE
  5
EC
330
17
100
AcDbEntity
  8
4
100
AcDbLine
 10
860.5307948728555
 20
1523.056579017305
 30
0.0
 11
882.5307948728555
 21
1523.056579017305
 31
0.0
  0
LINE
  5
ED
330
17
100
AcDbEntity
  8
L-CENTER
100
AcDbLine
 10
200.5307948728546
 20
1321.056579017305
 30
0.0
 11
1026.042754889565
 21
1321.056579017305
 31
0.0
  0
ARC
  5
EE
330
17
100
AcDbEntity
  8
4
100
AcDbCircle
 10
568.5307948728555
 20
1324.056579017305
 30
0.0
 40
3.0
100
AcDbArc
 50
270.0
 51
0.0
  0
LINE
  5
EF
330
17
100
AcDbEntity
  8
4
100
AcDbLine
 10
571.5307948728555
 20
1324.056579017305
 30
0.0
 11
571.5307948728555
 21
1412.056579017305
 31
0.0
  0
LINE
  5
F0
330
17
100
AcDbEntity
  8
4
100
AcDbLine
 10
534.5307948728555
 20
1321.056579017305
 30
0.0
 11
568.5307948728555
 21
1321.056579017305
 31
0.0
  0
LINE
  5
F1
330
17
100
AcDbEntity
  8
4
100
AcDbLine
 10
531.5307948728555
 20
1324.056579017305
 30
0.0
 11
531.5307948728555
 21
1412.056579017305
 31
0.0
  0
ARC
  5
F2
330
17
100
AcDbEntity
  8
4
100
AcDbCircle
 10
534.5307948728555
 20
1324.056579017305
 30
0.0
 40
3.0
100
AcDbArc
 50
180.0
 51
270.0
  0
LINE
  5
F3
330
17
100
AcDbEntity
  8
4
100
AcDbLine
 10
534.5307948728555
 20
1415.056579017305
 30
0.0
 11
568.5307948728555
 21
1415.056579017305
 31
0.0
  0
ARC
  5
F4
330
17
100
AcDbEntity
  8
4
100
AcDbCircle
 10
534.5307948728555
 20
1412.056579017305
 30
0.0
 40
3.0
100
AcDbArc
 50
90.0
 51
180.0
  0
ARC
  5
F5
330
17
100
AcDbEntity
  8
4
100
AcDbCircle
 10
568.5307948728555
 20
1412.056579017305
 30
0.0
 40
3.0
100
AcDbArc
 50
0.0
 51
90.0
  0
CIRCLE
  5
F6
330
17
100
AcDbEntity
  8
4
100
AcDbCircle
 10
356.5307948728555
 20
1368.056579017305
 30
0.0
 40
25.0
  0
LINE
  5
F7
330
17
100
AcDbEntity
  8
L-CENTER
100
AcDbLine
 10
356.5307948728555
 20
1333.056579017306
 30
0.0
 11
356.5307948728555
 21
1403.056579017304
 31
0.0
  0
ARC
  5
F8
330
17
100
AcDbEntity
  8
4
100
AcDbCircle
 10
551.530794872856
 20
-5296.568369420846
 30
0.0
 40
6803.0
100
AcDbArc
 50
92.12964087392041
 51
92.19135459156894
  0
ARC
  5
F9
330
17
100
AcDbEntity
  8
4
100
AcDbCircle
 10
551.530794872856
 20
-5296.568369420846
 30
0.0
 40
6803.0
100
AcDbArc
 50
90.86586335402778
 51
91.96420952546504
  0
ARC
  5
FA
330
17
100
AcDbEntity
  8
4
100
AcDbCircle
 10
551.530794872856
 20
-5296.568369420846
 30
0.0
 40
6803.0
100
AcDbArc
 50
89.3042637265186
 51
90.7005221191324
  0
ARC
  5
FB
330
17
100
AcDbEntity
  8
4
100
AcDbCircle
 10
551.530794872856
 20
-5296.568369420846
 30
0.0
 40
6803.0
100
AcDbArc
 50
88.04057877151865
 51
89.13892267984498
  0
ARC
  5
FC
330
17
100
AcDbEntity
  8
4
100
AcDbCircle
 10
551.530794872856
 20
-5296.568369420846
 30
0.0
 40
6803.0
100
AcDbArc
 50
87.80864540843123
 51
87.87514791664329
  0
LINE
  5
FD
330
17
100
AcDbEntity
  8
4
100
AcDbLine
 10
236.4057071191096
 20
1476.456579017305
 30
0.0
 11
866.8210074905078
 21
1476.456579017305
 31
0.0
  0
LINE
  5
FE
330
17
100
AcDbEntity
  8
4
100
AcDbLine
 10
238.4057071191105
 20
1501.456579017306
 30
0.0
 11
864.8210074905078
 21
1501.456579017306
 31
0.0
  0
LINE
  5
FF
330
17
100
AcDbEntity
  8
4
100
AcDbLine
 10
586.8987948728559
 20
1510.456579017306
 30
0.0
 11
766.8987948728559
 21
1510.456579017305
 31
0.0
  0
ARC
  5
100
330
17
100
AcDbEntity
  8
4
100
AcDbCircle
 10
551.530794872856
 20
-5296.568369420846
 30
0.0
 40
6800.0
100
AcDbArc
 50
90.86624538166811
 51
91.38096574237609
  0
ARC
  5
101
330
17
100
AcDbEntity
  8
4
100
AcDbCircle
 10
551.530794872856
 20
-5296.568369420846
 30
0.0
 40
6800.0
100
AcDbArc
 50
89.30395676894861
 51
90.70083118841946
  0
ARC
  5
102
330
17
100
AcDbEntity
  8
4
100
AcDbCircle
 10
551.530794872856
 20
-5296.568369420846
 30
0.0
 40
6800.0
100
AcDbArc
 50
88.61903425762404
 51
89.13854276416987
  0
LINE
  5
103
330
17
100
AcDbEntity
  8
4
100
AcDbLine
 10
467.7826014194952
 20
1510.456579017306
 30
0.0
 11
569.8987948728559
 21
1510.456579017306
 31
0.0
  0
LINE
  5
104
330
17
100
AcDbEntity
  8
4
100
AcDbLine
 10
339.8987948728559
 20
1510.456579017306
 30
0.0
 11
449.3005877012483
 21
1510.456579017306
 31
0.0
  0
ARC
  5
105
330
17
100
AcDbEntity
  8
4
100
AcDbCircle
 10
238.4057071191105
 20
1499.456579017306
 30
0.0
 40
2.0
100
AcDbArc
 50
90.0
 51
180.0
  0
LINE
  5
106
330
17
100
AcDbEntity
  8
4
100
AcDbLine
 10
236.4057071191105
 20
1476.456579017305
 30
0.0
 11
236.4057071191105
 21
1499.456579017306
 31
0.0
  0
LINE
  5
107
330
17
100
AcDbEntity
  8
4
100
AcDbLine
 10
339.8987948728559
 20
1506.046503153965
 30
0.0
 11
339.8987948728559
 21
1510.456579017305
 31
0.0
  0
ARC
  5
108
330
17
100
AcDbEntity
  8
4
100
AcDbCircle
 10
336.8987948728559
 20
1506.046503153965
 30
0.0
 40
3.0
100
AcDbArc
 50
271.8071623529213
 51
0.0
  0
LINE
  5
109
330
17
100
AcDbEntity
  8
L-CENTER
100
AcDbLine
 10
454.8987948728559
 20
1025.321632540057
 30
0.0
 11
454.8987948728559
 21
1535.511117359921
 31
0.0
  0
ARC
  5
10A
330
17
100
AcDbEntity
  8
4
100
AcDbCircle
 10
583.8987948728559
 20
1509.354662216818
 30
0.0
 40
3.0
100
AcDbArc
 50
269.7275114924969
 51
0.0
  0
LINE
  5
10B
330
17
100
AcDbEntity
  8
4
100
AcDbLine
 10
586.8987948728559
 20
1509.354662216818
 30
0.0
 11
586.8987948728559
 21
1510.456579017305
 31
0.0
  0
LINE
  5
10C
330
17
100
AcDbEntity
  8
4
100
AcDbLine
 10
569.8987948728559
 20
1509.398087194703
 30
0.0
 11
569.8987948728559
 21
1510.456579017305
 31
0.0
  0
ARC
  5
10D
330
17
100
AcDbEntity
  8
4
100
AcDbCircle
 10
572.8987948728559
 20
1509.398087194703
 30
0.0
 40
3.0
100
AcDbArc
 50
180.0
 51
269.8201148651211
  0
LINE
  5
10E
330
17
100
AcDbEntity
  8
L-CENTER
100
AcDbLine
 10
676.8987948728559
 20
1537.6664074126
 30
0.0
 11
676.8987948728559
 21
1194.83519846692
 31
0.0
  0
LINE
  5
10F
330
17
100
AcDbEntity
  8
4
100
AcDbLine
 10
766.8987948728559
 20
1505.92760019031
 30
0.0
 11
766.8987948728559
 21
1510.456579017305
 31
0.0
  0
ARC
  5
110
330
17
100
AcDbEntity
  8
4
100
AcDbCircle
 10
769.8987948728559
 20
1505.92760019031
 30
0.0
 40
3.0
100
AcDbArc
 50
180.0
 51
268.1613704978108
  0
ARC
  5
111
330
17
100
AcDbEntity
  8
4
100
AcDbCircle
 10
864.8210074905078
 20
1499.456579017306
 30
0.0
 40
2.0
100
AcDbArc
 50
0.0
 51
90.0
  0
LINE
  5
112
330
17
100
AcDbEntity
  8
4
100
AcDbLine
 10
866.8210074905078
 20
1476.456579017307
 30
0.0
 11
866.8210074905078
 21
1499.456579017306
 31
0.0
  0
LINE
  5
113
330
17
100
AcDbEntity
  8
4
100
AcDbLine
 10
339.898794872855
 20
1211.056579017305
 30
0.0
 11
569.8987948728554
 21
1211.056579017305
 31
0.0
  0
LINE
  5
114
330
17
100
AcDbEntity
  8
4
100
AcDbLine
 10
339.8987948728559
 20
1525.456579017306
 30
0.0
 11
569.8987948728559
 21
1525.456579017306
 31
0.0
  0
LINE
  5
115
330
17
100
AcDbEntity
  8
4
100
AcDbLine
 10
339.8987948728559
 20
1525.456579017306
 30
0.0
 11
339.8987948728559
 21
1510.456579017305
 31
0.0
  0
LINE
  5
116
330
17
100
AcDbEntity
  8
4
100
AcDbLine
 10
569.8987948728559
 20
1525.456579017306
 30
0.0
 11
569.8987948728559
 21
1510.456579017306
 31
0.0
  0
LINE
  5
117
330
17
100
AcDbEntity
  8
4
100
AcDbLine
 10
339.898794872855
 20
1211.056579017305
 30
0.0
 11
339.898794872855
 21
1226.056579017305
 31
0.0
  0
LINE
  5
118
330
17
100
AcDbEntity
  8
4
100
AcDbLine
 10
569.8987948728554
 20
1211.056579017305
 30
0.0
 11
569.8987948728554
 21
1226.056579017305
 31
0.0
  0
LINE
  5
119
330
17
100
AcDbEntity
  8
4
100
AcDbLine
 10
339.898794872855
 20
1225.656579017305
 30
0.0
 11
569.8987948728554
 21
1225.656579017305
 31
0.0
  0
LINE
  5
11A
330
17
100
AcDbEntity
  8
4
100
AcDbLine
 10
466.7669417243656
 20
1510.856579017306
 30
0.0
 11
569.8987948728559
 21
1510.856579017306
 31
0.0
  0
LINE
  5
11B
330
17
100
AcDbEntity
  8
4
100
AcDbLine
 10
339.8987948728559
 20
1510.856579017306
 30
0.0
 11
450.316247396378
 21
1510.856579017306
 31
0.0
  0
LINE
  5
11C
330
17
100
AcDbEntity
  8
4
100
AcDbLine
 10
586.8987948728554
 20
1211.056579017305
 30
0.0
 11
766.8987948728554
 21
1211.056579017305
 31
0.0
  0
LINE
  5
11D
330
17
100
AcDbEntity
  8
4
100
AcDbLine
 10
586.8987948728559
 20
1525.456579017306
 30
0.0
 11
766.8987948728559
 21
1525.456579017305
 31
0.0
  0
LINE
  5
11E
330
17
100
AcDbEntity
  8
4
100
AcDbLine
 10
586.8987948728559
 20
1525.456579017306
 30
0.0
 11
586.8987948728559
 21
1510.456579017306
 31
0.0
  0
LINE
  5
11F
330
17
100
AcDbEntity
  8
4
100
AcDbLine
 10
766.8987948728559
 20
1525.456579017305
 30
0.0
 11
766.8987948728559
 21
1510.456579017305
 31
0.0
  0
LINE
  5
120
330
17
100
AcDbEntity
  8
4
100
AcDbLine
 10
766.8987948728554
 20
1226.056579017305
 30
0.0
 11
766.8987948728554
 21
1211.056579017305
 31
0.0
  0
LINE
  5
121
330
17
100
AcDbEntity
  8
4
100
AcDbLine
 10
586.8987948728554
 20
1226.056579017305
 30
0.0
 11
586.8987948728554
 21
1211.056579017305
 31
0.0
  0
LINE
  5
122
330
17
100
AcDbEntity
  8
4
100
AcDbLine
 10
586.8987948728554
 20
1225.656579017305
 30
0.0
 11
766.8987948728554
 21
1225.656579017305
 31
0.0
  0
LINE
  5
123
330
17
100
AcDbEntity
  8
4
100
AcDbLine
 10
586.8987948728559
 20
1510.856579017306
 30
0.0
 11
766.8987948728559
 21
1510.856579017305
 31
0.0
  0
LINE
  5
124
330
17
100
AcDbEntity
  8
4
100
AcDbLine
 10
899.5307948728555
 20
1249.056579017305
 30
0.0
 11
899.5307948728555
 21
1393.056579017305
 31
0.0
  0
LINE
  5
125
330
17
100
AcDbEntity
  8
4
100
AcDbLine
 10
203.5307948728546
 20
1249.056579017305
 30
0.0
 11
203.5307948728555
 21
1393.056579017305
 31
0.0
  0
LINE
  5
126
330
17
100
AcDbEntity
  8
4
100
AcDbLine
 10
887.5307948728555
 20
1393.056579017305
 30
0.0
 11
899.5307948728555
 21
1393.056579017305
 31
0.0
  0
LINE
  5
127
330
17
100
AcDbEntity
  8
4
100
AcDbLine
 10
899.5307948728555
 20
1249.056579017305
 30
0.0
 11
887.5307948728555
 21
1249.056579017305
 31
0.0
  0
LINE
  5
128
330
17
100
AcDbEntity
  8
4
100
AcDbLine
 10
203.5307948728555
 20
1393.056579017305
 30
0.0
 11
215.5307948728546
 21
1393.056579017305
 31
0.0
  0
LINE
  5
129
330
17
100
AcDbEntity
  8
4
100
AcDbLine
 10
203.5307948728546
 20
1249.056579017305
 30
0.0
 11
215.5307948728546
 21
1249.056579017305
 31
0.0
  0
LINE
  5
12A
330
17
100
AcDbEntity
  8
4
100
AcDbLine
 10
887.9307948728556
 20
1249.056579017305
 30
0.0
 11
887.9307948728556
 21
1393.056579017305
 31
0.0
  0
LINE
  5
12B
330
17
100
AcDbEntity
  8
4
100
AcDbLine
 10
215.1307948728549
 20
1249.056579017305
 30
0.0
 11
215.1307948728559
 21
1393.056579017305
 31
0.0
  0
LINE
  5
12C
330
17
100
AcDbEntity
  8
4
100
AcDbLine
 10
394.2874149166287
 20
1209.656579017304
 30
0.0
 11
515.5101748290831
 21
1209.656579017304
 31
0.0
  0
LINE
  5
12D
330
17
100
AcDbEntity
  8
4
100
AcDbLine
 10
899.5307948728555
 20
1357.056579017305
 30
0.0
 11
900.5307948728555
 21
1357.056579017305
 31
0.0
  0
LINE
  5
12E
330
17
100
AcDbEntity
  8
4
100
AcDbLine
 10
899.5307948728555
 20
1285.056579017305
 30
0.0
 11
900.5307948728555
 21
1285.056579017305
 31
0.0
  0
LINE
  5
12F
330
17
100
AcDbEntity
  8
4
100
AcDbLine
 10
900.5307948728555
 20
1285.056579017305
 30
0.0
 11
900.5307948728555
 21
1357.056579017305
 31
0.0
  0
ARC
  5
130
330
17
100
AcDbEntity
  8
4
100
AcDbCircle
 10
914.8987948728559
 20
1296.056579017305
 30
0.0
 40
2.0
100
AcDbArc
 50
90.0
 51
180.0
  0
LINE
  5
131
330
17
100
AcDbEntity
  8
4
100
AcDbLine
 10
912.8987948728559
 20
1296.056579017305
 30
0.0
 11
912.8987948728559
 21
1346.056579017305
 31
0.0
  0
LINE
  5
132
330
17
100
AcDbEntity
  8
4
100
AcDbLine
 10
1012.898794872856
 20
1327.056579017305
 30
0.0
 11
928.8987948728559
 21
1327.056579017305
 31
0.0
  0
LINE
  5
133
330
17
100
AcDbEntity
  8
4
100
AcDbLine
 10
1012.898794872856
 20
1315.056579017305
 30
0.0
 11
928.8987948728559
 21
1315.056579017305
 31
0.0
  0
LINE
  5
134
330
17
100
AcDbEntity
  8
4
100
AcDbLine
 10
914.8987948728559
 20
1344.056579017305
 30
0.0
 11
1011.898794872856
 21
1344.056579017305
 31
0.0
  0
LINE
  5
135
330
17
100
AcDbEntity
  8
4
100
AcDbLine
 10
914.8987948728559
 20
1298.056579017305
 30
0.0
 11
1011.898794872856
 21
1298.056579017305
 31
0.0
  0
ARC
  5
136
330
17
100
AcDbEntity
  8
4
100
AcDbCircle
 10
914.8987948728559
 20
1346.056579017305
 30
0.0
 40
2.0
100
AcDbArc
 50
180.0
 51
270.0
  0
ARC
  5
137
330
17
100
AcDbEntity
  8
4
100
AcDbCircle
 10
928.8987948728559
 20
1321.056579017305
 30
0.0
 40
6.0
100
AcDbArc
 50
90.0
 51
270.0
  0
LINE
  5
138
330
17
100
AcDbEntity
  8
4
100
AcDbLine
 10
1011.898794872856
 20
1344.056579017305
 30
0.0
 11
1012.898794872856
 21
1343.056579017305
 31
0.0
  0
LINE
  5
139
330
17
100
AcDbEntity
  8
4
100
AcDbLine
 10
1011.898794872856
 20
1344.056579017305
 30
0.0
 11
1011.898794872856
 21
1327.056579017305
 31
0.0
  0
LINE
  5
13A
330
17
100
AcDbEntity
  8
4
100
AcDbLine
 10
1012.898794872856
 20
1299.056579017305
 30
0.0
 11
1011.898794872856
 21
1298.056579017305
 31
0.0
  0
LINE
  5
13B
330
17
100
AcDbEntity
  8
4
100
AcDbLine
 10
1011.898794872856
 20
1315.056579017305
 30
0.0
 11
1011.898794872856
 21
1298.056579017305
 31
0.0
  0
LINE
  5
13C
330
17
100
AcDbEntity
  8
4
100
AcDbLine
 10
1012.898794872856
 20
1343.056579017305
 30
0.0
 11
1012.898794872856
 21
1299.056579017305
 31
0.0
  0
LINE
  5
13D
330
17
100
AcDbEntity
  8
4
100
AcDbLine
 10
912.8987948728559
 20
1346.056579017305
 30
0.0
 11
900.5307948728555
 21
1346.056579017305
 31
0.0
  0
LINE
  5
13E
330
17
100
AcDbEntity
  8
4
100
AcDbLine
 10
912.8987948728559
 20
1296.056579017305
 30
0.0
 11
900.5307948728555
 21
1296.056579017305
 31
0.0
  0
LINE
  5
13F
330
17
100
AcDbEntity
  8
4
100
AcDbLine
 10
466.8987948728559
 20
1173.056579017305
 30
0.0
 11
466.8987948728559
 21
1035.056579017305
 31
0.0
  0
LINE
  5
140
330
17
100
AcDbEntity
  8
4
100
AcDbLine
 10
442.8987948728559
 20
1173.056579017305
 30
0.0
 11
442.8987948728559
 21
1035.056579017305
 31
0.0
  0
LINE
  5
141
330
17
100
AcDbEntity
  8
4
100
AcDbLine
 10
499.8987948728559
 20
1193.056579017305
 30
0.0
 11
499.8987948728559
 21
1036.056579017305
 31
0.0
  0
LINE
  5
142
330
17
100
AcDbEntity
  8
4
100
AcDbLine
 10
409.8987948728559
 20
1193.056579017305
 30
0.0
 11
409.8987948728559
 21
1036.056579017305
 31
0.0
  0
LINE
  5
143
330
17
100
AcDbEntity
  8
4
100
AcDbLine
 10
407.3987948728559
 20
1195.056579017305
 30
0.0
 11
502.3987948728559
 21
1195.056579017305
 31
0.0
  0
LINE
  5
144
330
17
100
AcDbEntity
  8
4
100
AcDbLine
 10
454.8987948728559
 20
1185.056579017305
 30
0.0
 11
454.8987948728559
 21
1185.056579017305
 31
0.0
  0
ARC
  5
145
330
17
100
AcDbEntity
  8
4
100
AcDbCircle
 10
454.8987948728559
 20
1173.056579017305
 30
0.0
 40
12.0
100
AcDbArc
 50
0.0
 51
90.0
  0
ARC
  5
146
330
17
100
AcDbEntity
  8
4
100
AcDbCircle
 10
454.8987948728559
 20
1173.056579017305
 30
0.0
 40
12.0
100
AcDbArc
 50
90.0
 51
180.0
  0
ARC
  5
147
330
17
100
AcDbEntity
  8
4
100
AcDbCircle
 10
501.8987948728559
 20
1193.056579017305
 30
0.0
 40
2.0
100
AcDbArc
 50
90.0
 51
180.0
  0
ARC
  5
148
330
17
100
AcDbEntity
  8
4
100
AcDbCircle
 10
407.8987948728559
 20
1193.056579017305
 30
0.0
 40
2.0
100
AcDbArc
 50
0.0
 51
90.0
  0
LINE
  5
149
330
17
100
AcDbEntity
  8
4
100
AcDbLine
 10
409.8987948728559
 20
1036.056579017305
 30
0.0
 11
442.8987948728559
 21
1036.056579017305
 31
0.0
  0
LINE
  5
14A
330
17
100
AcDbEntity
  8
4
100
AcDbLine
 10
410.8987948728559
 20
1035.056579017305
 30
0.0
 11
498.8987948728559
 21
1035.056579017305
 31
0.0
  0
LINE
  5
14B
330
17
100
AcDbEntity
  8
4
100
AcDbLine
 10
498.8987948728559
 20
1035.056579017305
 30
0.0
 11
499.8987948728559
 21
1036.056579017305
 31
0.0
  0
LINE
  5
14C
330
17
100
AcDbEntity
  8
4
100
AcDbLine
 10
466.8987948728559
 20
1036.056579017305
 30
0.0
 11
499.8987948728559
 21
1036.056579017305
 31
0.0
  0
LINE
  5
14D
330
17
100
AcDbEntity
  8
4
100
AcDbLine
 10
409.8987948728559
 20
1036.056579017305
 30
0.0
 11
410.8987948728559
 21
1035.056579017305
 31
0.0
  0
LINE
  5
14E
330
17
100
AcDbEntity
  8
4
100
AcDbLine
 10
407.3987948728559
 20
1195.056579017305
 30
0.0
 11
407.3987948728559
 21
1209.656579017305
 31
0.0
  0
LINE
  5
14F
330
17
100
AcDbEntity
  8
4
100
AcDbLine
 10
502.3987948728559
 20
1195.056579017305
 30
0.0
 11
502.3987948728559
 21
1209.656579017305
 31
0.0
  0
ARC
  5
150
330
17
100
AcDbEntity
  8
4
100
AcDbCircle
 10
391.8336762725717
 20
1531.172965088247
 30
0.0
 40
3.783613929059507
100
AcDbArc
 50
49.57010315516725
 51
130.429896844812
  0
LINE
  5
151
330
17
100
AcDbEntity
  8
4
100
AcDbLine
 10
374.6575057641817
 20
1527.956579017306
 30
0.0
 11
394.2874149166287
 21
1527.956579017306
 31
0.0
  0
LINE
  5
152
330
17
100
AcDbEntity
  8
4
100
AcDbLine
 10
374.6575057641817
 20
1525.456579017306
 30
0.0
 11
394.2874149166287
 21
1525.456579017306
 31
0.0
  0
LINE
  5
153
330
17
100
AcDbEntity
  8
L-CENTER
100
AcDbLine
 10
384.4724603404052
 20
1493.48394156961
 30
0.0
 11
384.4724603404052
 21
1537.824557271887
 31
0.0
  0
LINE
  5
154
330
17
100
AcDbEntity
  8
4
100
AcDbLine
 10
389.3799376285165
 20
1534.053052071454
 30
0.0
 11
389.3799376285165
 21
1527.956579017306
 31
0.0
  0
ARC
  5
155
330
17
100
AcDbEntity
  8
4
100
AcDbCircle
 10
384.4724603404043
 20
1521.177413719847
 30
0.0
 40
13.77916529745958
100
AcDbArc
 50
69.13593563607742
 51
110.8640643639175
  0
LINE
  5
156
330
17
100
AcDbEntity
  8
4
100
AcDbLine
 10
391.8336762725726
 20
1534.956579017306
 30
0.0
 11
377.1112444082369
 21
1534.956579017306
 31
0.0
  0
ARC
  5
157
330
17
100
AcDbEntity
  8
4
100
AcDbCircle
 10
377.1112444082369
 20
1531.172965088247
 30
0.0
 40
3.783613929059507
100
AcDbArc
 50
49.57010315518797
 51
130.4298968448327
  0
LINE
  5
158
330
17
100
AcDbEntity
  8
4
100
AcDbLine
 10
374.6575057641817
 20
1534.053052071454
 30
0.0
 11
374.6575057641817
 21
1525.456579017306
 31
0.0
  0
LINE
  5
159
330
17
100
AcDbEntity
  8
4
100
AcDbLine
 10
379.564983052293
 20
1534.053052071454
 30
0.0
 11
379.564983052293
 21
1527.956579017306
 31
0.0
  0
LINE
  5
15A
330
17
100
AcDbEntity
  8
4
100
AcDbLine
 10
394.2874149166287
 20
1525.456579017306
 30
0.0
 11
394.2874149166287
 21
1534.053052071454
 31
0.0
  0
LINE
  5
15B
330
17
100
AcDbEntity
  8
L-CENTER
100
AcDbLine
 10
525.325129405307
 20
1493.48394156961
 30
0.0
 11
525.325129405307
 21
1537.824557271887
 31
0.0
  0
LINE
  5
15C
330
17
100
AcDbEntity
  8
4
100
AcDbLine
 10
515.5101748290836
 20
1525.456579017306
 30
0.0
 11
515.5101748290836
 21
1534.053052071454
 31
0.0
  0
LINE
  5
15D
330
17
100
AcDbEntity
  8
4
100
AcDbLine
 10
530.2326066934193
 20
1534.053052071454
 30
0.0
 11
530.2326066934193
 21
1527.956579017306
 31
0.0
  0
LINE
  5
15E
330
17
100
AcDbEntity
  8
4
100
AcDbLine
 10
535.1400839815306
 20
1534.053052071454
 30
0.0
 11
535.1400839815306
 21
1525.456579017306
 31
0.0
  0
ARC
  5
15F
330
17
100
AcDbEntity
  8
4
100
AcDbCircle
 10
532.6863453374754
 20
1531.172965088247
 30
0.0
 40
3.783613929059507
100
AcDbArc
 50
49.57010315516725
 51
130.4298968448327
  0
LINE
  5
160
330
17
100
AcDbEntity
  8
4
100
AcDbLine
 10
517.9639134731397
 20
1534.956579017306
 30
0.0
 11
532.6863453374754
 21
1534.956579017306
 31
0.0
  0
ARC
  5
161
330
17
100
AcDbEntity
  8
4
100
AcDbCircle
 10
525.325129405307
 20
1521.177413719847
 30
0.0
 40
13.77916529745958
100
AcDbArc
 50
69.13593563608075
 51
110.8640643639193
  0
LINE
  5
162
330
17
100
AcDbEntity
  8
4
100
AcDbLine
 10
520.4176521171958
 20
1534.053052071454
 30
0.0
 11
520.4176521171958
 21
1527.956579017306
 31
0.0
  0
LINE
  5
163
330
17
100
AcDbEntity
  8
4
100
AcDbLine
 10
535.1400839815306
 20
1525.456579017306
 30
0.0
 11
515.5101748290836
 21
1525.456579017306
 31
0.0
  0
LINE
  5
164
330
17
100
AcDbEntity
  8
4
100
AcDbLine
 10
535.1400839815306
 20
1527.956579017306
 30
0.0
 11
515.5101748290836
 21
1527.956579017306
 31
0.0
  0
ARC
  5
165
330
17
100
AcDbEntity
  8
4
100
AcDbCircle
 10
517.9639134731397
 20
1531.172965088247
 30
0.0
 40
3.783613929059507
100
AcDbArc
 50
49.57010315516725
 51
130.4298968448327
  0
LINE
  5
166
330
17
100
AcDbEntity
  8
4
100
AcDbLine
 10
394.2874149166287
 20
1211.056579017304
 30
0.0
 11
394.2874149166287
 21
1202.460105963157
 31
0.0
  0
LINE
  5
167
330
17
100
AcDbEntity
  8
4
100
AcDbLine
 10
379.564983052293
 20
1202.460105963157
 30
0.0
 11
379.564983052293
 21
1208.556579017304
 31
0.0
  0
LINE
  5
168
330
17
100
AcDbEntity
  8
4
100
AcDbLine
 10
374.6575057641817
 20
1202.460105963157
 30
0.0
 11
374.6575057641817
 21
1211.056579017304
 31
0.0
  0
ARC
  5
169
330
17
100
AcDbEntity
  8
4
100
AcDbCircle
 10
377.1112444082369
 20
1205.340192946363
 30
0.0
 40
3.783613929059507
100
AcDbArc
 50
229.5701031551686
 51
310.4298968448156
  0
LINE
  5
16A
330
17
100
AcDbEntity
  8
4
100
AcDbLine
 10
391.8336762725726
 20
1201.556579017304
 30
0.0
 11
377.1112444082369
 21
1201.556579017304
 31
0.0
  0
ARC
  5
16B
330
17
100
AcDbEntity
  8
4
100
AcDbCircle
 10
384.4724603404043
 20
1215.335744314763
 30
0.0
 40
13.77916529745958
100
AcDbArc
 50
249.1359356360825
 51
290.8640643639221
  0
LINE
  5
16C
330
17
100
AcDbEntity
  8
4
100
AcDbLine
 10
389.3799376285165
 20
1202.460105963157
 30
0.0
 11
389.3799376285165
 21
1208.556579017304
 31
0.0
  0
LINE
  5
16D
330
17
100
AcDbEntity
  8
4
100
AcDbLine
 10
374.6575057641817
 20
1211.056579017304
 30
0.0
 11
394.2874149166287
 21
1211.056579017304
 31
0.0
  0
LINE
  5
16E
330
17
100
AcDbEntity
  8
4
100
AcDbLine
 10
374.6575057641817
 20
1208.556579017304
 30
0.0
 11
394.2874149166287
 21
1208.556579017304
 31
0.0
  0
ARC
  5
16F
330
17
100
AcDbEntity
  8
4
100
AcDbCircle
 10
391.8336762725717
 20
1205.340192946363
 30
0.0
 40
3.783613929059507
100
AcDbArc
 50
229.5701031551844
 51
310.4298968448314
  0
LINE
  5
170
330
17
100
AcDbEntity
  8
L-CENTER
100
AcDbLine
 10
384.4724603404052
 20
1243.029216465
 30
0.0
 11
384.4724603404052
 21
1198.688600762724
 31
0.0
  0
LINE
  5
171
330
17
100
AcDbEntity
  8
4
100
AcDbLine
 10
535.1400839815306
 20
1208.556579017304
 30
0.0
 11
515.5101748290836
 21
1208.556579017304
 31
0.0
  0
LINE
  5
172
330
17
100
AcDbEntity
  8
4
100
AcDbLine
 10
535.1400839815306
 20
1211.056579017304
 30
0.0
 11
515.5101748290836
 21
1211.056579017304
 31
0.0
  0
ARC
  5
173
330
17
100
AcDbEntity
  8
4
100
AcDbCircle
 10
525.325129405307
 20
1215.335744314763
 30
0.0
 40
13.77916529745958
100
AcDbArc
 50
249.1359356360807
 51
290.8640643639193
  0
LINE
  5
174
330
17
100
AcDbEntity
  8
4
100
AcDbLine
 10
517.9639134731397
 20
1201.556579017304
 30
0.0
 11
532.6863453374754
 21
1201.556579017304
 31
0.0
  0
ARC
  5
175
330
17
100
AcDbEntity
  8
4
100
AcDbCircle
 10
517.9639134731397
 20
1205.340192946363
 30
0.0
 40
3.783613929059507
100
AcDbArc
 50
229.5701031551782
 51
310.4298968448218
  0
LINE
  5
176
330
17
100
AcDbEntity
  8
4
100
AcDbLine
 10
520.4176521171958
 20
1202.460105963157
 30
0.0
 11
520.4176521171958
 21
1208.556579017304
 31
0.0
  0
LINE
  5
177
330
17
100
AcDbEntity
  8
4
100
AcDbLine
 10
515.5101748290836
 20
1211.056579017304
 30
0.0
 11
515.5101748290836
 21
1202.460105963157
 31
0.0
  0
ARC
  5
178
330
17
100
AcDbEntity
  8
4
100
AcDbCircle
 10
532.6863453374754
 20
1205.340192946363
 30
0.0
 40
3.783613929059507
100
AcDbArc
 50
229.5701031551782
 51
310.4298968448218
  0
LINE
  5
179
330
17
100
AcDbEntity
  8
4
100
AcDbLine
 10
535.1400839815306
 20
1202.460105963157
 30
0.0
 11
535.1400839815306
 21
1211.056579017304
 31
0.0
  0
LINE
  5
17A
330
17
100
AcDbEntity
  8
4
100
AcDbLine
 10
530.2326066934193
 20
1202.460105963157
 30
0.0
 11
530.2326066934193
 21
1208.556579017304
 31
0.0
  0
LINE
  5
17B
330
17
100
AcDbEntity
  8
L-CENTER
100
AcDbLine
 10
525.325129405307
 20
1243.029216465
 30
0.0
 11
525.325129405307
 21
1198.688600762724
 31
0.0
  0
ARC
  5
17C
330
17
100
AcDbEntity
  8
4
100
AcDbCircle
 10
630.8590014160318
 20
1531.172965088247
 30
0.0
 40
3.783613929059507
100
AcDbArc
 50
49.57010315516725
 51
130.4298968448327
  0
LINE
  5
17D
330
17
100
AcDbEntity
  8
4
100
AcDbLine
 10
613.6828309076409
 20
1527.956579017306
 30
0.0
 11
633.3127400600879
 21
1527.956579017306
 31
0.0
  0
LINE
  5
17E
330
17
100
AcDbEntity
  8
4
100
AcDbLine
 10
613.6828309076409
 20
1525.456579017306
 30
0.0
 11
633.3127400600879
 21
1525.456579017306
 31
0.0
  0
LINE
  5
17F
330
17
100
AcDbEntity
  8
L-CENTER
100
AcDbLine
 10
623.4977854838644
 20
1493.48394156961
 30
0.0
 11
623.4977854838644
 21
1537.824557271887
 31
0.0
  0
LINE
  5
180
330
17
100
AcDbEntity
  8
4
100
AcDbLine
 10
628.4052627719757
 20
1534.053052071454
 30
0.0
 11
628.4052627719757
 21
1527.956579017306
 31
0.0
  0
ARC
  5
181
330
17
100
AcDbEntity
  8
4
100
AcDbCircle
 10
623.4977854838644
 20
1521.177413719847
 30
0.0
 40
13.77916529745958
100
AcDbArc
 50
69.13593563608075
 51
110.8640643639193
  0
LINE
  5
182
330
17
100
AcDbEntity
  8
4
100
AcDbLine
 10
630.8590014160318
 20
1534.956579017306
 30
0.0
 11
616.1365695516961
 21
1534.956579017306
 31
0.0
  0
ARC
  5
183
330
17
100
AcDbEntity
  8
4
100
AcDbCircle
 10
616.1365695516961
 20
1531.172965088247
 30
0.0
 40
3.783613929059507
100
AcDbArc
 50
49.57010315516725
 51
130.4298968448327
  0
LINE
  5
184
330
17
100
AcDbEntity
  8
4
100
AcDbLine
 10
618.5903081957522
 20
1534.053052071454
 30
0.0
 11
618.5903081957522
 21
1527.956579017306
 31
0.0
  0
LINE
  5
185
330
17
100
AcDbEntity
  8
4
100
AcDbLine
 10
633.3127400600879
 20
1525.456579017306
 30
0.0
 11
633.3127400600879
 21
1534.053052071454
 31
0.0
  0
LINE
  5
186
330
17
100
AcDbEntity
  8
4
100
AcDbLine
 10
613.6828309076409
 20
1534.053052071454
 30
0.0
 11
613.6828309076409
 21
1525.456579017306
 31
0.0
  0
LINE
  5
187
330
17
100
AcDbEntity
  8
L-CENTER
100
AcDbLine
 10
730.2998042618474
 20
1493.48394156961
 30
0.0
 11
730.2998042618474
 21
1537.824557271887
 31
0.0
  0
LINE
  5
188
330
17
100
AcDbEntity
  8
4
100
AcDbLine
 10
740.1147588380709
 20
1534.053052071454
 30
0.0
 11
740.1147588380709
 21
1525.456579017306
 31
0.0
  0
LINE
  5
189
330
17
100
AcDbEntity
  8
4
100
AcDbLine
 10
720.4848496856239
 20
1525.456579017306
 30
0.0
 11
720.4848496856239
 21
1534.053052071454
 31
0.0
  0
LINE
  5
18A
330
17
100
AcDbEntity
  8
4
100
AcDbLine
 10
735.2072815499596
 20
1534.053052071454
 30
0.0
 11
735.2072815499596
 21
1527.956579017306
 31
0.0
  0
ARC
  5
18B
330
17
100
AcDbEntity
  8
4
100
AcDbCircle
 10
737.6610201940157
 20
1531.172965088247
 30
0.0
 40
3.783613929059507
100
AcDbArc
 50
49.57010315516725
 51
130.4298968448327
  0
LINE
  5
18C
330
17
100
AcDbEntity
  8
4
100
AcDbLine
 10
722.93858832968
 20
1534.956579017306
 30
0.0
 11
737.6610201940157
 21
1534.956579017306
 31
0.0
  0
ARC
  5
18D
330
17
100
AcDbEntity
  8
4
100
AcDbCircle
 10
730.2998042618474
 20
1521.177413719847
 30
0.0
 40
13.77916529745958
100
AcDbArc
 50
69.13593563608075
 51
110.8640643639193
  0
LINE
  5
18E
330
17
100
AcDbEntity
  8
4
100
AcDbLine
 10
725.3923269737361
 20
1534.053052071454
 30
0.0
 11
725.3923269737361
 21
1527.956579017306
 31
0.0
  0
LINE
  5
18F
330
17
100
AcDbEntity
  8
4
100
AcDbLine
 10
740.1147588380709
 20
1525.456579017306
 30
0.0
 11
720.4848496856239
 21
1525.456579017306
 31
0.0
  0
LINE
  5
190
330
17
100
AcDbEntity
  8
4
100
AcDbLine
 10
740.1147588380709
 20
1527.956579017306
 30
0.0
 11
720.4848496856239
 21
1527.956579017306
 31
0.0
  0
ARC
  5
191
330
17
100
AcDbEntity
  8
4
100
AcDbCircle
 10
722.93858832968
 20
1531.172965088247
 30
0.0
 40
3.783613929059507
100
AcDbArc
 50
49.57010315516725
 51
130.4298968448327
  0
LINE
  5
192
330
17
100
AcDbEntity
  8
4
100
AcDbLine
 10
613.6828309076409
 20
1202.460105963157
 30
0.0
 11
613.6828309076409
 21
1211.056579017304
 31
0.0
  0
LINE
  5
193
330
17
100
AcDbEntity
  8
4
100
AcDbLine
 10
633.3127400600879
 20
1211.056579017304
 30
0.0
 11
633.3127400600879
 21
1202.460105963157
 31
0.0
  0
LINE
  5
194
330
17
100
AcDbEntity
  8
4
100
AcDbLine
 10
618.5903081957522
 20
1202.460105963157
 30
0.0
 11
618.5903081957522
 21
1208.556579017304
 31
0.0
  0
ARC
  5
195
330
17
100
AcDbEntity
  8
4
100
AcDbCircle
 10
616.1365695516961
 20
1205.340192946363
 30
0.0
 40
3.783613929059507
100
AcDbArc
 50
229.5701031551782
 51
310.4298968448218
  0
LINE
  5
196
330
17
100
AcDbEntity
  8
4
100
AcDbLine
 10
630.8590014160318
 20
1201.556579017304
 30
0.0
 11
616.1365695516961
 21
1201.556579017304
 31
0.0
  0
ARC
  5
197
330
17
100
AcDbEntity
  8
4
100
AcDbCircle
 10
623.4977854838644
 20
1215.335744314763
 30
0.0
 40
13.77916529745958
100
AcDbArc
 50
249.1359356360807
 51
290.8640643639193
  0
LINE
  5
198
330
17
100
AcDbEntity
  8
4
100
AcDbLine
 10
628.4052627719757
 20
1202.460105963157
 30
0.0
 11
628.4052627719757
 21
1208.556579017304
 31
0.0
  0
LINE
  5
199
330
17
100
AcDbEntity
  8
4
100
AcDbLine
 10
613.6828309076409
 20
1211.056579017304
 30
0.0
 11
633.3127400600879
 21
1211.056579017304
 31
0.0
  0
LINE
  5
19A
330
17
100
AcDbEntity
  8
4
100
AcDbLine
 10
613.6828309076409
 20
1208.556579017304
 30
0.0
 11
633.3127400600879
 21
1208.556579017304
 31
0.0
  0
ARC
  5
19B
330
17
100
AcDbEntity
  8
4
100
AcDbCircle
 10
630.8590014160318
 20
1205.340192946363
 30
0.0
 40
3.783613929059507
100
AcDbArc
 50
229.5701031551782
 51
310.4298968448218
  0
LINE
  5
19C
330
17
100
AcDbEntity
  8
L-CENTER
100
AcDbLine
 10
623.4977854838644
 20
1243.029216465
 30
0.0
 11
623.4977854838644
 21
1198.688600762724
 31
0.0
  0
LINE
  5
19D
330
17
100
AcDbEntity
  8
L-CENTER
100
AcDbLine
 10
730.2998042618474
 20
1243.029216465
 30
0.0
 11
730.2998042618474
 21
1198.688600762724
 31
0.0
  0
ARC
  5
19E
330
17
100
AcDbEntity
  8
4
100
AcDbCircle
 10
722.93858832968
 20
1205.340192946363
 30
0.0
 40
3.783613929059507
100
AcDbArc
 50
229.5701031551782
 51
310.4298968448218
  0
LINE
  5
19F
330
17
100
AcDbEntity
  8
4
100
AcDbLine
 10
740.1147588380709
 20
1208.556579017304
 30
0.0
 11
720.4848496856239
 21
1208.556579017304
 31
0.0
  0
LINE
  5
1A0
330
17
100
AcDbEntity
  8
4
100
AcDbLine
 10
740.1147588380709
 20
1211.056579017304
 30
0.0
 11
720.4848496856239
 21
1211.056579017304
 31
0.0
  0
LINE
  5
1A1
330
17
100
AcDbEntity
  8
4
100
AcDbLine
 10
725.3923269737361
 20
1202.460105963157
 30
0.0
 11
725.3923269737361
 21
1208.556579017304
 31
0.0
  0
ARC
  5
1A2
330
17
100
AcDbEntity
  8
4
100
AcDbCircle
 10
730.2998042618474
 20
1215.335744314763
 30
0.0
 40
13.77916529745958
100
AcDbArc
 50
249.1359356360807
 51
290.8640643639193
  0
LINE
  5
1A3
330
17
100
AcDbEntity
  8
4
100
AcDbLine
 10
722.93858832968
 20
1201.556579017304
 30
0.0
 11
737.6610201940157
 21
1201.556579017304
 31
0.0
  0
ARC
  5
1A4
330
17
100
AcDbEntity
  8
4
100
AcDbCircle
 10
737.6610201940157
 20
1205.340192946363
 30
0.0
 40
3.783613929059507
100
AcDbArc
 50
229.5701031551782
 51
310.4298968448218
  0
LINE
  5
1A5
330
17
100
AcDbEntity
  8
4
100
AcDbLine
 10
735.2072815499596
 20
1202.460105963157
 30
0.0
 11
735.2072815499596
 21
1208.556579017304
 31
0.0
  0
LINE
  5
1A6
330
17
100
AcDbEntity
  8
4
100
AcDbLine
 10
720.4848496856239
 20
1211.056579017304
 30
0.0
 11
720.4848496856239
 21
1202.460105963157
 31
0.0
  0
LINE
  5
1A7
330
17
100
AcDbEntity
  8
4
100
AcDbLine
 10
740.1147588380709
 20
1202.460105963157
 30
0.0
 11
740.1147588380709
 21
1211.056579017304
 31
0.0
  0
CIRCLE
  5
1A8
330
17
100
AcDbEntity
  8
4
100
AcDbCircle
 10
356.5307948728555
 20
1368.056579017305
 30
0.0
 40
23.0
  0
LWPOLYLINE
  5
1A9
330
17
100
AcDbEntity
  8
4
100
AcDbPolyline
 90
        6
 70
     1
 43
0.0
 10
379.5307948728555
 20
1368.056579017305
 10
368.0307948728555
 20
1387.975163304347
 10
345.0307948728555
 20
1387.975163304347
 10
333.5307948728555
 20
1368.056579017305
 10
345.0307948728555
 20
1348.137994730263
 10
368.0307948728555
 20
1348.137994730263
  0
LINE
  5
1AA
330
17
100
AcDbEntity
  8
4
100
AcDbLine
 10
557.7807948728555
 20
1344.306579017305
 30
0.0
 11
557.7807948728555
 21
1391.806579017305
 31
0.0
  0
ARC
  5
1AB
330
17
100
AcDbEntity
  8
4
100
AcDbCircle
 10
551.5307948728555
 20
1368.056579017305
 30
0.0
 40
13.5
100
AcDbArc
 50
297.578467978125
 51
62.4215320218767
  0
LINE
  5
1AC
330
17
100
AcDbEntity
  8
4
100
AcDbLine
 10
545.2807948728555
 20
1344.306579017305
 30
0.0
 11
545.2807948728555
 21
1391.806579017305
 31
0.0
  0
ARC
  5
1AD
330
17
100
AcDbEntity
  8
4
100
AcDbCircle
 10
551.5307948728555
 20
1344.306579017305
 30
0.0
 40
6.25
100
AcDbArc
 50
180.0
 51
0.0
  0
ARC
  5
1AE
330
17
100
AcDbEntity
  8
4
100
AcDbCircle
 10
551.5307948728555
 20
1391.806579017305
 30
0.0
 40
6.25
100
AcDbArc
 50
0.0
 51
180.0
  0
ARC
  5
1AF
330
17
100
AcDbEntity
  8
4
100
AcDbCircle
 10
551.5307948728555
 20
1368.056579017305
 30
0.0
 40
15.0
100
AcDbArc
 50
294.6243183521654
 51
65.37568164783498
  0
ARC
  5
1B0
330
17
100
AcDbEntity
  8
4
100
AcDbCircle
 10
551.5307948728555
 20
1368.056579017305
 30
0.0
 40
13.5
100
AcDbArc
 50
117.578467978122
 51
242.4215320218793
  0
ARC
  5
1B1
330
17
100
AcDbEntity
  8
4
100
AcDbCircle
 10
551.5307948728555
 20
1368.056579017305
 30
0.0
 40
15.0
100
AcDbArc
 50
114.6243183521615
 51
245.3756816478377
  0
LINE
  5
1B2
330
17
100
AcDbEntity
  8
4
100
AcDbLine
 10
908.1272679270028
 20
1279.606293371718
 30
0.0
 11
899.5307948728555
 21
1279.606293371718
 31
0.0
  0
LINE
  5
1B3
330
17
100
AcDbEntity
  8
4
100
AcDbLine
 10
908.1272679270028
 20
1264.883861507383
 30
0.0
 11
902.0307948728555
 21
1264.883861507383
 31
0.0
  0
LINE
  5
1B4
330
17
100
AcDbEntity
  8
4
100
AcDbLine
 10
908.1272679270028
 20
1274.698816083606
 30
0.0
 11
902.0307948728555
 21
1274.698816083606
 31
0.0
  0
LINE
  5
1B5
330
17
100
AcDbEntity
  8
4
100
AcDbLine
 10
899.5307948728555
 20
1259.976384219271
 30
0.0
 11
908.1272679270028
 21
1259.976384219271
 31
0.0
  0
LINE
  5
1B6
330
17
100
AcDbEntity
  8
L-CENTER
100
AcDbLine
 10
867.5581574251596
 20
1269.791338795494
 30
0.0
 11
911.898773127436
 21
1269.791338795494
 31
0.0
  0
LINE
  5
1B7
330
17
100
AcDbEntity
  8
4
100
AcDbLine
 10
902.0307948728555
 20
1279.606293371718
 30
0.0
 11
902.0307948728555
 21
1259.976384219271
 31
0.0
  0
ARC
  5
1B8
330
17
100
AcDbEntity
  8
4
100
AcDbCircle
 10
905.2471809437961
 20
1277.152554727662
 30
0.0
 40
3.783613929059507
100
AcDbArc
 50
319.5701031551782
 51
40.42989684482174
  0
ARC
  5
1B9
330
17
100
AcDbEntity
  8
4
100
AcDbCircle
 10
905.2471809437961
 20
1262.430122863327
 30
0.0
 40
3.783613929059507
100
AcDbArc
 50
319.5701031551782
 51
40.42989684482174
  0
ARC
  5
1BA
330
17
100
AcDbEntity
  8
4
100
AcDbCircle
 10
895.2516295753962
 20
1269.791338795494
 30
0.0
 40
13.77916529745958
100
AcDbArc
 50
339.1359356360808
 51
20.86406436391924
  0
LINE
  5
1BB
330
17
100
AcDbEntity
  8
4
100
AcDbLine
 10
909.0307948728555
 20
1262.430122863327
 30
0.0
 11
909.0307948728555
 21
1277.152554727662
 31
0.0
  0
LINE
  5
1BC
330
17
100
AcDbEntity
  8
L-CENTER
100
AcDbLine
 10
867.5581574251596
 20
1372.321819239116
 30
0.0
 11
911.898773127436
 21
1372.321819239116
 31
0.0
  0
LINE
  5
1BD
330
17
100
AcDbEntity
  8
4
100
AcDbLine
 10
899.5307948728555
 20
1382.13677381534
 30
0.0
 11
908.1272679270028
 21
1382.13677381534
 31
0.0
  0
LINE
  5
1BE
330
17
100
AcDbEntity
  8
4
100
AcDbLine
 10
908.1272679270028
 20
1367.414341951004
 30
0.0
 11
902.0307948728555
 21
1367.414341951004
 31
0.0
  0
LINE
  5
1BF
330
17
100
AcDbEntity
  8
4
100
AcDbLine
 10
908.1272679270028
 20
1377.229296527227
 30
0.0
 11
902.0307948728555
 21
1377.229296527227
 31
0.0
  0
LINE
  5
1C0
330
17
100
AcDbEntity
  8
4
100
AcDbLine
 10
909.0307948728555
 20
1379.683035171284
 30
0.0
 11
909.0307948728555
 21
1364.960603306948
 31
0.0
  0
ARC
  5
1C1
330
17
100
AcDbEntity
  8
4
100
AcDbCircle
 10
895.2516295753962
 20
1372.321819239116
 30
0.0
 40
13.77916529745958
100
AcDbArc
 50
339.1359356360786
 51
20.8640643639175
  0
ARC
  5
1C2
330
17
100
AcDbEntity
  8
4
100
AcDbCircle
 10
905.2471809437961
 20
1379.683035171284
 30
0.0
 40
3.783613929059507
100
AcDbArc
 50
319.5701031551761
 51
40.42989684481427
  0
LINE
  5
1C3
330
17
100
AcDbEntity
  8
4
100
AcDbLine
 10
908.1272679270028
 20
1362.506864662892
 30
0.0
 11
899.5307948728555
 21
1362.506864662892
 31
0.0
  0
LINE
  5
1C4
330
17
100
AcDbEntity
  8
4
100
AcDbLine
 10
902.0307948728555
 20
1362.506864662892
 30
0.0
 11
902.0307948728555
 21
1382.13677381534
 31
0.0
  0
LINE
  5
1C5
330
17
100
AcDbEntity
  8
L-CENTER
100
AcDbLine
 10
235.5034323205514
 20
1269.791338795494
 30
0.0
 11
191.162816618275
 21
1269.791338795494
 31
0.0
  0
LINE
  5
1C6
330
17
100
AcDbEntity
  8
4
100
AcDbLine
 10
194.0307948728555
 20
1262.430122863327
 30
0.0
 11
194.0307948728555
 21
1277.152554727662
 31
0.0
  0
ARC
  5
1C7
330
17
100
AcDbEntity
  8
4
100
AcDbCircle
 10
207.8099601703148
 20
1269.791338795494
 30
0.0
 40
13.77916529745958
100
AcDbArc
 50
159.1359356360806
 51
200.8640643639194
  0
ARC
  5
1C8
330
17
100
AcDbEntity
  8
4
100
AcDbCircle
 10
197.8144088019149
 20
1262.430122863327
 30
0.0
 40
3.783613929059507
100
AcDbArc
 50
139.5701031551777
 51
220.4298968448223
  0
ARC
  5
1C9
330
17
100
AcDbEntity
  8
4
100
AcDbCircle
 10
197.8144088019149
 20
1277.152554727662
 30
0.0
 40
3.783613929059507
100
AcDbArc
 50
139.5701031551777
 51
220.4298968448223
  0
LINE
  5
1CA
330
17
100
AcDbEntity
  8
4
100
AcDbLine
 10
201.0307948728555
 20
1279.606293371718
 30
0.0
 11
201.0307948728555
 21
1259.976384219271
 31
0.0
  0
LINE
  5
1CB
330
17
100
AcDbEntity
  8
4
100
AcDbLine
 10
203.5307948728555
 20
1259.976384219271
 30
0.0
 11
194.9343218187082
 21
1259.976384219271
 31
0.0
  0
LINE
  5
1CC
330
17
100
AcDbEntity
  8
4
100
AcDbLine
 10
194.9343218187082
 20
1274.698816083606
 30
0.0
 11
201.0307948728555
 21
1274.698816083606
 31
0.0
  0
LINE
  5
1CD
330
17
100
AcDbEntity
  8
4
100
AcDbLine
 10
194.9343218187082
 20
1264.883861507383
 30
0.0
 11
201.0307948728555
 21
1264.883861507383
 31
0.0
  0
LINE
  5
1CE
330
17
100
AcDbEntity
  8
4
100
AcDbLine
 10
194.9343218187082
 20
1279.606293371718
 30
0.0
 11
203.5307948728555
 21
1279.606293371718
 31
0.0
  0
LINE
  5
1CF
330
17
100
AcDbEntity
  8
L-CENTER
100
AcDbLine
 10
235.5034323205514
 20
1372.321819239116
 30
0.0
 11
191.162816618275
 21
1372.321819239116
 31
0.0
  0
ARC
  5
1D0
330
17
100
AcDbEntity
  8
4
100
AcDbCircle
 10
197.8144088019149
 20
1379.683035171284
 30
0.0
 40
3.783613929059507
100
AcDbArc
 50
139.5701031551852
 51
220.4298968448298
  0
ARC
  5
1D1
330
17
100
AcDbEntity
  8
4
100
AcDbCircle
 10
207.8099601703148
 20
1372.321819239116
 30
0.0
 40
13.77916529745958
100
AcDbArc
 50
159.1359356360826
 51
200.8640643639214
  0
LINE
  5
1D2
330
17
100
AcDbEntity
  8
4
100
AcDbLine
 10
194.0307948728555
 20
1379.683035171284
 30
0.0
 11
194.0307948728555
 21
1364.960603306948
 31
0.0
  0
ARC
  5
1D3
330
17
100
AcDbEntity
  8
4
100
AcDbCircle
 10
197.8144088019149
 20
1364.960603306948
 30
0.0
 40
3.783613929059507
100
AcDbArc
 50
139.5701031551814
 51
220.4298968448223
  0
LINE
  5
1D4
330
17
100
AcDbEntity
  8
4
100
AcDbLine
 10
201.0307948728555
 20
1362.506864662892
 30
0.0
 11
201.0307948728555
 21
1382.13677381534
 31
0.0
  0
LINE
  5
1D5
330
17
100
AcDbEntity
  8
4
100
AcDbLine
 10
203.5307948728555
 20
1362.506864662892
 30
0.0
 11
203.5307948728555
 21
1382.13677381534
 31
0.0
  0
LINE
  5
1D6
330
17
100
AcDbEntity
  8
4
100
AcDbLine
 10
194.9343218187082
 20
1377.229296527227
 30
0.0
 11
201.0307948728555
 21
1377.229296527227
 31
0.0
  0
LINE
  5
1D7
330
17
100
AcDbEntity
  8
4
100
AcDbLine
 10
194.9343218187082
 20
1367.414341951004
 30
0.0
 11
201.0307948728555
 21
1367.414341951004
 31
0.0
  0
LINE
  5
1D8
330
17
100
AcDbEntity
  8
4
100
AcDbLine
 10
203.5307948728555
 20
1382.13677381534
 30
0.0
 11
194.9343218187082
 21
1382.13677381534
 31
0.0
  0
LINE
  5
1D9
330
17
100
AcDbEntity
  8
4
100
AcDbLine
 10
194.9343218187082
 20
1362.506864662892
 30
0.0
 11
203.5307948728555
 21
1362.506864662892
 31
0.0
  0
LINE
  5
4D8
330
17
100
AcDbEntity
  8
L-CENTER
100
AcDbLine
 10
551.2466928728559
 20
73.67785718955508
 30
0.0
 11
551.2466928728559
 21
805.3015785423481
 31
0.0
  0
LINE
  5
4D9
330
17
100
AcDbEntity
  8
4
100
AcDbLine
 10
220.2466968728559
 20
408.8662911895551
 30
0.0
 11
220.2466968728559
 21
75.86629118955511
 31
0.0
  0
LINE
  5
4DA
330
17
100
AcDbEntity
  8
4
100
AcDbLine
 10
882.2466888728559
 20
408.8662911895551
 30
0.0
 11
882.2466888728559
 21
75.86629118955511
 31
0.0
  0
CIRCLE
  5
4DB
330
17
100
AcDbEntity
  8
4
100
AcDbCircle
 10
551.2466928728559
 20
408.8662911895551
 30
0.0
 40
315.0
  0
LINE
  5
4DC
330
17
100
AcDbEntity
  8
L-CENTER
100
AcDbLine
 10
296.2466928728559
 20
55.86629118955511
 30
0.0
 11
296.2466928728559
 21
135.8662931895551
 31
0.0
  0
LINE
  5
4DD
330
17
100
AcDbEntity
  8
4
100
AcDbLine
 10
390.2466948728556
 20
112.8662931895551
 30
0.0
 11
390.2466948728556
 21
75.86629118955511
 31
0.0
  0
LINE
  5
4DE
330
17
100
AcDbEntity
  8
4
100
AcDbLine
 10
370.2466908728561
 20
112.8662931895551
 30
0.0
 11
370.2466908728561
 21
75.86629118955511
 31
0.0
  0
LINE
  5
4DF
330
17
100
AcDbEntity
  8
L-CENTER
100
AcDbLine
 10
806.2466928728559
 20
55.86629118955511
 30
0.0
 11
806.2466928728559
 21
135.8662931895551
 31
0.0
  0
LINE
  5
4E0
330
17
100
AcDbEntity
  8
4
100
AcDbLine
 10
732.2466948728559
 20
112.8662931895551
 30
0.0
 11
732.2466948728559
 21
75.86629118955511
 31
0.0
  0
LINE
  5
4E1
330
17
100
AcDbEntity
  8
4
100
AcDbLine
 10
712.2466908728559
 20
112.8662931895551
 30
0.0
 11
712.2466908728559
 21
75.86629118955511
 31
0.0
  0
LINE
  5
4E5
330
17
100
AcDbEntity
  8
4
100
AcDbLine
 10
390.2466948728556
 20
75.86629118955511
 30
0.0
 11
220.2466968728559
 21
75.86629118955511
 31
0.0
  0
LINE
  5
511
330
17
100
AcDbEntity
  8
4
100
AcDbLine
 10
712.2466908728559
 20
75.86629118955511
 30
0.0
 11
882.2466888728559
 21
75.86629118955511
 31
0.0
  0
LINE
  5
533
330
17
100
AcDbEntity
  8
4
100
AcDbLine
 10
396.2466948728556
 20
87.86629118955511
 30
0.0
 11
706.2466908728559
 21
87.86629118955511
 31
0.0
  0
ARC
  5
537
330
17
100
AcDbEntity
  8
4
100
AcDbCircle
 10
396.2466948728556
 20
81.86629118955511
 30
0.0
 40
6.0
100
AcDbArc
 50
90.0
 51
180.0
  0
ARC
  5
539
330
17
100
AcDbEntity
  8
4
100
AcDbCircle
 10
706.2466908728559
 20
81.86629118955511
 30
0.0
 40
6.0
100
AcDbArc
 50
0.0
 51
90.0
  0
LINE
  5
541
330
17
100
AcDbEntity
  8
L-CENTER
100
AcDbLine
 10
1022.758652889566
 20
215.8662891895551
 30
0.0
 11
195.8739994909537
 21
215.8662891895552
 31
0.0
  0
ARC
  5
542
330
17
100
AcDbEntity
  8
4
100
AcDbCircle
 10
551.2466928728559
 20
408.8662911895551
 30
0.0
 40
285.000018
100
AcDbArc
 50
273.988196
 51
266.012937
  0
LINE
  5
543
330
17
100
AcDbEntity
  8
4
100
AcDbLine
 10
223.2466968728559
 20
115.8662931895551
 30
0.0
 11
387.2466948728556
 21
115.8662931895551
 31
0.0
  0
LINE
  5
544
330
17
100
AcDbEntity
  8
4
100
AcDbLine
 10
242.2466928728559
 20
140.8662891895551
 30
0.0
 11
385.7142228728558
 21
140.8662891895551
 31
0.0
  0
LINE
  5
545
330
17
100
AcDbEntity
  8
4
100
AcDbLine
 10
242.2466928728559
 20
143.8662891895551
 30
0.0
 11
380.9527488728559
 21
143.8662891895551
 31
0.0
  0
LINE
  5
546
330
17
100
AcDbEntity
  8
L-CENTER
100
AcDbLine
 10
207.348985909533
 20
408.8662911895551
 30
0.0
 11
895.1443998361788
 21
408.8662911895551
 31
0.0
  0
ARC
  5
547
330
17
100
AcDbEntity
  8
4
100
AcDbCircle
 10
551.2466928728559
 20
-439.1337068104449
 30
0.0
 40
1000.000008
100
AcDbArc
 50
74.95685300000001
 51
105.043554
  0
ARC
  5
548
330
17
100
AcDbEntity
  8
4
100
AcDbCircle
 10
551.2466928728559
 20
-770.1337088104449
 30
0.0
 40
1499.99997
100
AcDbArc
 50
78.53761300000001
 51
101.462408
  0
LINE
  5
549
330
17
100
AcDbEntity
  8
L-CENTER
100
AcDbLine
 10
590.8204248728559
 20
398.8662891895551
 30
0.0
 11
318.9771648728558
 21
398.8662891895551
 31
0.0
  0
ARC
  5
54A
330
17
100
AcDbEntity
  8
4
100
AcDbCircle
 10
551.2466928728559
 20
1236.866285189555
 30
0.0
 40
999.9999360000002
100
AcDbArc
 50
255.654203
 51
268.888258
  0
LINE
  5
54B
330
17
100
AcDbEntity
  8
4
100
AcDbLine
 10
333.2466948728556
 20
723.7017351895552
 30
0.0
 11
379.2466908728561
 21
723.7017351895552
 31
0.0
  0
LINE
  5
54C
330
17
100
AcDbEntity
  8
4
100
AcDbLine
 10
333.2466948728556
 20
727.7017371895552
 30
0.0
 11
379.2466908728561
 21
727.7017371895552
 31
0.0
  0
LINE
  5
54D
330
17
100
AcDbEntity
  8
4
100
AcDbLine
 10
333.2466948728556
 20
732.7017351895552
 30
0.0
 11
379.2466908728561
 21
732.7017351895552
 31
0.0
  0
LINE
  5
54E
330
17
100
AcDbEntity
  8
4
100
AcDbLine
 10
381.2466948728556
 20
722.2017351895552
 30
0.0
 11
331.2466908728561
 21
722.2017351895552
 31
0.0
  0
ARC
  5
550
330
17
100
AcDbEntity
  8
4
100
AcDbCircle
 10
1720.246690872856
 20
408.8660451895551
 30
0.0
 40
1500.000018
100
AcDbArc
 50
169.026148
 51
180.0004010010402
  0
LINE
  5
551
330
17
100
AcDbEntity
  8
4
100
AcDbLine
 10
215.2466928728559
 20
143.8662891895551
 30
0.0
 11
215.2466928728559
 21
287.8662891895551
 31
0.0
  0
LINE
  5
552
330
17
100
AcDbEntity
  8
4
100
AcDbLine
 10
203.2466928728559
 20
286.8662871895551
 30
0.0
 11
203.2466928728559
 21
144.8662911895551
 31
0.0
  0
ARC
  5
553
330
17
100
AcDbEntity
  8
4
100
AcDbCircle
 10
223.2466968728559
 20
112.8662931895551
 30
0.0
 40
3.0
100
AcDbArc
 50
90.0
 51
180.0
  0
ARC
  5
554
330
17
100
AcDbEntity
  8
4
100
AcDbCircle
 10
217.2466968728559
 20
140.8662891895551
 30
0.0
 40
3.0
100
AcDbArc
 50
0.0
 51
90.0
  0
LINE
  5
555
330
17
100
AcDbEntity
  8
4
100
AcDbLine
 10
215.2466928728559
 20
143.8662891895551
 30
0.0
 11
217.2466968728559
 21
143.8662891895551
 31
0.0
  0
ARC
  5
556
330
17
100
AcDbEntity
  8
4
100
AcDbCircle
 10
204.2466948728556
 20
144.8662911895551
 30
0.0
 40
1.000002
100
AcDbArc
 50
180.0
 51
270.0
  0
LINE
  5
557
330
17
100
AcDbEntity
  8
4
100
AcDbLine
 10
204.2466948728556
 20
143.8662891895551
 30
0.0
 11
215.2466928728559
 21
143.8662891895551
 31
0.0
  0
LINE
  5
558
330
17
100
AcDbEntity
  8
4
100
AcDbLine
 10
242.2466928728559
 20
123.8662911895551
 30
0.0
 11
242.2466928728559
 21
215.8662891895551
 31
0.0
  0
ARC
  5
559
330
17
100
AcDbEntity
  8
4
100
AcDbCircle
 10
250.2466908728561
 20
123.8662911895551
 30
0.0
 40
7.999998000000001
100
AcDbArc
 50
180.0
 51
270.0
  0
ARC
  5
55A
330
17
100
AcDbEntity
  8
4
100
AcDbCircle
 10
246.2466948728556
 20
215.8662891895551
 30
0.0
 40
4.000002
100
AcDbArc
 50
90.0
 51
180.0
  0
LINE
  5
55B
330
17
100
AcDbEntity
  8
4
100
AcDbLine
 10
250.419544872856
 20
290.8662891895551
 30
0.0
 11
220.2466968728559
 21
290.8662891895551
 31
0.0
  0
LINE
  5
55C
330
17
100
AcDbEntity
  8
4
100
AcDbLine
 10
251.5535808728559
 20
287.8662891895551
 30
0.0
 11
220.2466968728559
 21
287.8662891895551
 31
0.0
  0
ARC
  5
55D
330
17
100
AcDbEntity
  8
4
100
AcDbCircle
 10
217.2466968728559
 20
290.8662891895551
 30
0.0
 40
3.0
100
AcDbArc
 50
270.0
 51
0.0
  0
LINE
  5
55E
330
17
100
AcDbEntity
  8
4
100
AcDbLine
 10
215.2466928728559
 20
287.8662891895551
 30
0.0
 11
217.2466968728559
 21
287.8662891895551
 31
0.0
  0
ARC
  5
55F
330
17
100
AcDbEntity
  8
4
100
AcDbCircle
 10
204.2466948728556
 20
286.8662871895551
 30
0.0
 40
1.000002
100
AcDbArc
 50
90.0
 51
180.0
  0
LINE
  5
560
330
17
100
AcDbEntity
  8
4
100
AcDbLine
 10
204.2466948728556
 20
287.8662891895551
 30
0.0
 11
215.2466928728559
 21
287.8662891895551
 31
0.0
  0
ARC
  5
561
330
17
100
AcDbEntity
  8
4
100
AcDbCircle
 10
251.5535808728559
 20
293.8662891895551
 30
0.0
 40
6.000005999999999
100
AcDbArc
 50
270.0
 51
20.99181699999964
  0
ARC
  5
562
330
17
100
AcDbEntity
  8
4
100
AcDbCircle
 10
250.419544872856
 20
296.8662891895551
 30
0.0
 40
5.999946
100
AcDbArc
 50
270.0
 51
20.4215229999994
  0
ARC
  5
563
330
17
100
AcDbEntity
  8
4
100
AcDbCircle
 10
254.5501608728559
 20
693.0886971895552
 30
0.0
 40
7.000044
100
AcDbArc
 50
101.46278
 51
169.0243550000008
  0
LINE
  5
564
330
17
100
AcDbEntity
  8
4
100
AcDbLine
 10
333.2466948728556
 20
723.7017351895552
 30
0.0
 11
333.2466948728556
 21
732.7017351895552
 31
0.0
  0
LINE
  5
565
330
17
100
AcDbEntity
  8
4
100
AcDbLine
 10
331.2466908728561
 20
713.6453391895552
 30
0.0
 11
331.2466908728561
 21
722.2017351895552
 31
0.0
  0
ARC
  5
569
330
17
100
AcDbEntity
  8
4
100
AcDbCircle
 10
-617.7533051271439
 20
408.8660451895551
 30
0.0
 40
1499.999976
100
AcDbArc
 50
0.0000089950635202
 51
10.97442300000002
  0
LINE
  5
56D
330
17
100
AcDbEntity
  8
4
100
AcDbLine
 10
860.2466928728559
 20
143.8662891895551
 30
0.0
 11
721.5406368728559
 21
143.8662891895551
 31
0.0
  0
LINE
  5
56E
330
17
100
AcDbEntity
  8
4
100
AcDbLine
 10
860.2466928728559
 20
140.8662891895551
 30
0.0
 11
716.779162872856
 21
140.8662891895551
 31
0.0
  0
LINE
  5
56F
330
17
100
AcDbEntity
  8
4
100
AcDbLine
 10
879.2466888728559
 20
115.8662931895551
 30
0.0
 11
715.2466908728559
 21
115.8662931895551
 31
0.0
  0
LINE
  5
570
330
17
100
AcDbEntity
  8
L-CENTER
100
AcDbLine
 10
788.2813608728559
 20
415.8662871895551
 30
0.0
 11
564.2120208728559
 21
415.8662871895551
 31
0.0
  0
ARC
  5
571
330
17
100
AcDbEntity
  8
4
100
AcDbCircle
 10
551.2466928728559
 20
1236.866285189555
 30
0.0
 40
1000.000038
100
AcDbArc
 50
271.112777
 51
284.346835
  0
CIRCLE
  5
572
330
17
100
AcDbEntity
  8
4
100
AcDbCircle
 10
676.2466908728559
 20
415.8662871895551
 30
0.0
 40
90.0
  0
CIRCLE
  5
573
330
17
100
AcDbEntity
  8
L-CENTER
100
AcDbCircle
 10
676.2466908728559
 20
415.8662871895551
 30
0.0
 40
75.0
  0
CIRCLE
  5
574
330
17
100
AcDbEntity
  8
4
100
AcDbCircle
 10
676.2466908728559
 20
415.8662871895551
 30
0.0
 40
52.5
  0
LINE
  5
575
330
17
100
AcDbEntity
  8
L-CENTER
100
AcDbLine
 10
454.8987948728559
 20
534.7879191895552
 30
0.0
 11
454.8987948728559
 21
262.9446591895551
 31
0.0
  0
CIRCLE
  5
576
330
17
100
AcDbEntity
  8
L-CENTER
100
AcDbCircle
 10
454.8987948728559
 20
398.8662891895551
 30
0.0
 40
100.000002
  0
CIRCLE
  5
577
330
17
100
AcDbEntity
  8
4
100
AcDbCircle
 10
454.8987948728559
 20
398.8662891895551
 30
0.0
 40
115.000002
  0
LINE
  5
579
330
17
100
AcDbEntity
  8
L-CENTER
100
AcDbLine
 10
676.2466908728559
 20
527.9009571895551
 30
0.0
 11
676.2466908728559
 21
303.8316171895551
 31
0.0
  0
LINE
  5
57A
330
17
100
AcDbEntity
  8
L-CENTER
100
AcDbLine
 10
527.618122872856
 20
121.8662931895551
 30
0.0
 11
574.8752628728557
 21
121.8662931895551
 31
0.0
  0
ARC
  5
57B
330
17
100
AcDbEntity
  8
4
100
AcDbCircle
 10
551.2466928728559
 20
121.8662931895551
 30
0.0
 40
20.000064
100
AcDbArc
 50
7.729509999999903
 51
172.2711849999999
  0
CIRCLE
  5
57C
330
17
100
AcDbEntity
  8
2
100
AcDbCircle
 10
551.2466928728559
 20
121.8662931895551
 30
0.0
 40
8.331054
  0
LINE
  5
57D
330
17
100
AcDbEntity
  8
2
100
AcDbLine
 10
545.0318208728559
 20
118.2780591895552
 30
0.0
 11
551.2466928728559
 21
114.6899331895551
 31
0.0
  0
LINE
  5
57E
330
17
100
AcDbEntity
  8
2
100
AcDbLine
 10
551.2466928728559
 20
129.0426471895551
 30
0.0
 11
545.0318208728559
 21
125.4545211895552
 31
0.0
  0
LINE
  5
57F
330
17
100
AcDbEntity
  8
L-CENTER
100
AcDbLine
 10
581.749419599486
 20
241.8662871895551
 30
0.0
 11
520.7439661462257
 21
241.8662871895551
 31
0.0
  0
CIRCLE
  5
580
330
17
100
AcDbEntity
  8
4
100
AcDbCircle
 10
551.2466928728559
 20
241.8662871895551
 30
0.0
 40
18.0
  0
LINE
  5
581
330
17
100
AcDbEntity
  8
4
100
AcDbLine
 10
551.2466928728559
 20
259.8662871895551
 30
0.0
 11
535.6580688728559
 21
250.8662871895551
 31
0.0
  0
LINE
  5
582
330
17
100
AcDbEntity
  8
4
100
AcDbLine
 10
535.6580688728559
 20
232.8662871895551
 30
0.0
 11
551.2466928728559
 21
223.8662871895551
 31
0.0
  0
CIRCLE
  5
583
330
17
100
AcDbEntity
  8
4
100
AcDbCircle
 10
551.2466928728559
 20
241.8662871895551
 30
0.0
 40
19.999998
  0
ARC
  5
584
330
17
100
AcDbEntity
  8
4
100
AcDbCircle
 10
367.2466908728561
 20
112.8662931895551
 30
0.0
 40
3.0
100
AcDbArc
 50
0.0
 51
90.0
  0
ARC
  5
585
330
17
100
AcDbEntity
  8
4
100
AcDbCircle
 10
387.2466948728556
 20
112.8662931895551
 30
0.0
 40
3.0
100
AcDbArc
 50
0.0
 51
90.0
  0
LINE
  5
586
330
17
100
AcDbEntity
  8
2
100
AcDbLine
 10
545.0318208728559
 20
125.4545211895552
 30
0.0
 11
545.0318208728559
 21
118.2780591895552
 31
0.0
  0
LINE
  5
587
330
17
100
AcDbEntity
  8
4
100
AcDbLine
 10
535.6580688728559
 20
232.8662871895551
 30
0.0
 11
535.6580688728559
 21
250.8662871895551
 31
0.0
  0
LINE
  5
588
330
17
100
AcDbEntity
  8
L-CENTER
100
AcDbLine
 10
369.6774594261632
 20
313.6451989147062
 30
0.0
 11
398.6987360695229
 21
342.6664817144291
 31
0.0
  0
CIRCLE
  5
589
330
17
100
AcDbEntity
  8
4
100
AcDbCircle
 10
384.1880988728558
 20
328.1558391895551
 30
0.0
 40
8.660154
  0
LINE
  5
58A
330
17
100
AcDbEntity
  8
4
100
AcDbLine
 10
393.8472768728557
 20
325.5679491895551
 30
0.0
 11
386.7764808728557
 21
318.4966611895551
 31
0.0
  0
LINE
  5
58B
330
17
100
AcDbEntity
  8
4
100
AcDbLine
 10
377.1172968728561
 20
321.0845511895551
 30
0.0
 11
374.5289208728559
 21
330.7437291895551
 31
0.0
  0
LINE
  5
58C
330
17
100
AcDbEntity
  8
4
100
AcDbLine
 10
386.7764808728557
 20
318.4966611895551
 30
0.0
 11
377.1172968728561
 21
321.0845511895551
 31
0.0
  0
LINE
  5
58D
330
17
100
AcDbEntity
  8
4
100
AcDbLine
 10
381.5997228728561
 20
337.8150231895552
 30
0.0
 11
391.259146872856
 21
335.2271271895552
 31
0.0
  0
LINE
  5
58E
330
17
100
AcDbEntity
  8
4
100
AcDbLine
 10
374.5289208728559
 20
330.7437291895551
 30
0.0
 11
381.5997228728561
 21
337.8150231895552
 31
0.0
  0
LINE
  5
58F
330
17
100
AcDbEntity
  8
4
100
AcDbLine
 10
391.259146872856
 20
335.2271271895552
 30
0.0
 11
393.8472768728557
 21
325.5679491895551
 31
0.0
  0
LINE
  5
590
330
17
100
AcDbEntity
  8
L-CENTER
100
AcDbLine
 10
540.1202372663879
 20
313.6450927960229
 30
0.0
 11
511.0989575448464
 21
342.6663725175647
 31
0.0
  0
CIRCLE
  5
591
330
17
100
AcDbEntity
  8
4
100
AcDbCircle
 10
525.6094848728558
 20
328.1558391895551
 30
0.0
 40
8.660154
  0
LINE
  5
592
330
17
100
AcDbEntity
  8
4
100
AcDbLine
 10
535.2686628728559
 20
330.7437291895551
 30
0.0
 11
532.680286872856
 21
321.0845511895551
 31
0.0
  0
LINE
  5
593
330
17
100
AcDbEntity
  8
4
100
AcDbLine
 10
523.0211088728558
 20
318.4966611895551
 30
0.0
 11
515.9503068728559
 21
325.5679491895551
 31
0.0
  0
LINE
  5
594
330
17
100
AcDbEntity
  8
4
100
AcDbLine
 10
532.680286872856
 20
321.0845511895551
 30
0.0
 11
523.0211088728558
 21
318.4966611895551
 31
0.0
  0
LINE
  5
595
330
17
100
AcDbEntity
  8
4
100
AcDbLine
 10
518.5384428728557
 20
335.2271271895552
 30
0.0
 11
528.1978668728559
 21
337.8150231895552
 31
0.0
  0
LINE
  5
596
330
17
100
AcDbEntity
  8
4
100
AcDbLine
 10
515.9503068728559
 20
325.5679491895551
 30
0.0
 11
518.5384428728557
 21
335.2271271895552
 31
0.0
  0
LINE
  5
597
330
17
100
AcDbEntity
  8
4
100
AcDbLine
 10
528.1978668728559
 20
337.8150231895552
 30
0.0
 11
535.2686628728559
 21
330.7437291895551
 31
0.0
  0
LINE
  5
598
330
17
100
AcDbEntity
  8
4
100
AcDbLine
 10
566.8350708728558
 20
250.8662871895551
 30
0.0
 11
551.2466928728559
 21
259.8662871895551
 31
0.0
  0
LINE
  5
599
330
17
100
AcDbEntity
  8
2
100
AcDbLine
 10
557.4615648728559
 20
118.2780591895552
 30
0.0
 11
551.2466928728559
 21
114.6899331895551
 31
0.0
  0
LINE
  5
59A
330
17
100
AcDbEntity
  8
2
100
AcDbLine
 10
557.4615648728559
 20
125.4545211895552
 30
0.0
 11
557.4615648728559
 21
118.2780591895552
 31
0.0
  0
LINE
  5
59B
330
17
100
AcDbEntity
  8
2
100
AcDbLine
 10
551.2466928728559
 20
129.0426471895551
 30
0.0
 11
557.4615648728559
 21
125.4545211895552
 31
0.0
  0
LINE
  5
59C
330
17
100
AcDbEntity
  8
4
100
AcDbLine
 10
551.2466928728559
 20
223.8662871895551
 30
0.0
 11
566.8350708728558
 21
232.8662871895551
 31
0.0
  0
LINE
  5
59D
330
17
100
AcDbEntity
  8
4
100
AcDbLine
 10
566.8350708728558
 20
232.8662871895551
 30
0.0
 11
566.8350708728558
 21
250.8662871895551
 31
0.0
  0
ARC
  5
59E
330
17
100
AcDbEntity
  8
4
100
AcDbCircle
 10
735.2466948728559
 20
112.8662931895551
 30
0.0
 40
3.0
100
AcDbArc
 50
90.0
 51
180.0
  0
ARC
  5
59F
330
17
100
AcDbEntity
  8
4
100
AcDbCircle
 10
715.2466908728559
 20
112.8662931895551
 30
0.0
 40
3.0
100
AcDbArc
 50
90.0
 51
180.0
  0
LINE
  5
5A0
330
17
100
AcDbEntity
  8
L-CENTER
100
AcDbLine
 10
608.703095012085
 20
348.3226913287842
 30
0.0
 11
637.7243747336265
 21
377.343971050326
 31
0.0
  0
CIRCLE
  5
5A1
330
17
100
AcDbEntity
  8
4
100
AcDbCircle
 10
623.2137348728559
 20
362.8333311895551
 30
0.0
 40
8.660154
  0
LINE
  5
5A2
330
17
100
AcDbEntity
  8
4
100
AcDbLine
 10
632.8729128728557
 20
360.2454411895551
 30
0.0
 11
625.8021108728558
 21
353.1741531895552
 31
0.0
  0
LINE
  5
5A3
330
17
100
AcDbEntity
  8
4
100
AcDbLine
 10
616.1429328728559
 20
355.762043189555
 30
0.0
 11
613.554550872856
 21
365.4212211895551
 31
0.0
  0
LINE
  5
5A4
330
17
100
AcDbEntity
  8
4
100
AcDbLine
 10
625.8021108728558
 20
353.1741531895552
 30
0.0
 11
616.1429328728559
 21
355.762043189555
 31
0.0
  0
LINE
  5
5A5
330
17
100
AcDbEntity
  8
4
100
AcDbLine
 10
620.6253528728557
 20
372.4925091895552
 30
0.0
 11
630.2847768728559
 21
369.904619189555
 31
0.0
  0
LINE
  5
5A6
330
17
100
AcDbEntity
  8
4
100
AcDbLine
 10
613.554550872856
 20
365.4212211895551
 30
0.0
 11
620.6253528728557
 21
372.4925091895552
 31
0.0
  0
LINE
  5
5A7
330
17
100
AcDbEntity
  8
4
100
AcDbLine
 10
630.2847768728559
 20
369.904619189555
 30
0.0
 11
632.8729128728557
 21
360.2454411895551
 31
0.0
  0
LINE
  5
5A8
330
17
100
AcDbEntity
  8
L-CENTER
100
AcDbLine
 10
743.7902892919462
 20
348.3226878871048
 30
0.0
 11
714.7690128537761
 21
377.3439708920168
 31
0.0
  0
CIRCLE
  5
5A9
330
17
100
AcDbEntity
  8
4
100
AcDbCircle
 10
729.2796528728559
 20
362.8333311895551
 30
0.0
 40
8.660154
  0
LINE
  5
5AA
330
17
100
AcDbEntity
  8
4
100
AcDbLine
 10
738.9388308728558
 20
365.4212211895551
 30
0.0
 11
736.3504548728558
 21
355.762043189555
 31
0.0
  0
LINE
  5
5AB
330
17
100
AcDbEntity
  8
4
100
AcDbLine
 10
726.691270872856
 20
353.1741531895552
 30
0.0
 11
719.6204688728558
 21
360.2454411895551
 31
0.0
  0
LINE
  5
5AC
330
17
100
AcDbEntity
  8
4
100
AcDbLine
 10
736.3504548728558
 20
355.762043189555
 30
0.0
 11
726.691270872856
 21
353.1741531895552
 31
0.0
  0
LINE
  5
5AD
330
17
100
AcDbEntity
  8
4
100
AcDbLine
 10
722.2086048728559
 20
369.904619189555
 30
0.0
 11
731.8680288728558
 21
372.4925091895552
 31
0.0
  0
LINE
  5
5AE
330
17
100
AcDbEntity
  8
4
100
AcDbLine
 10
719.6204688728558
 20
360.2454411895551
 30
0.0
 11
722.2086048728559
 21
369.904619189555
 31
0.0
  0
LINE
  5
5AF
330
17
100
AcDbEntity
  8
4
100
AcDbLine
 10
731.8680288728558
 20
372.4925091895552
 30
0.0
 11
738.9388308728558
 21
365.4212211895551
 31
0.0
  0
LINE
  5
5B2
330
17
100
AcDbEntity
  8
L-CENTER
100
AcDbLine
 10
369.6777184796343
 20
484.0878515827769
 30
0.0
 11
398.698998201176
 21
455.0665718612354
 31
0.0
  0
CIRCLE
  5
5B3
330
17
100
AcDbEntity
  8
4
100
AcDbCircle
 10
384.1883448728559
 20
469.5772251895551
 30
0.0
 40
8.660154
  0
LINE
  5
5B4
330
17
100
AcDbEntity
  8
4
100
AcDbLine
 10
391.259146872856
 20
462.5059371895552
 30
0.0
 11
381.5999628728559
 21
459.9180471895552
 31
0.0
  0
LINE
  5
5B5
330
17
100
AcDbEntity
  8
4
100
AcDbLine
 10
381.5999628728559
 20
459.9180471895552
 30
0.0
 11
374.529166872856
 21
466.989335189555
 31
0.0
  0
LINE
  5
5B6
330
17
100
AcDbEntity
  8
4
100
AcDbLine
 10
377.1172968728561
 20
476.6485131895552
 30
0.0
 11
386.776720872856
 21
479.2364031895552
 31
0.0
  0
LINE
  5
5B7
330
17
100
AcDbEntity
  8
4
100
AcDbLine
 10
374.529166872856
 20
466.989335189555
 30
0.0
 11
377.1172968728561
 21
476.6485131895552
 31
0.0
  0
LINE
  5
5B8
330
17
100
AcDbEntity
  8
4
100
AcDbLine
 10
386.776720872856
 20
479.2364031895552
 30
0.0
 11
393.8475228728562
 21
472.1651151895551
 31
0.0
  0
LINE
  5
5B9
330
17
100
AcDbEntity
  8
4
100
AcDbLine
 10
393.8475228728562
 20
472.1651151895551
 30
0.0
 11
391.259146872856
 21
462.5059371895552
 31
0.0
  0
LINE
  5
5BA
330
17
100
AcDbEntity
  8
L-CENTER
100
AcDbLine
 10
540.1198787336268
 20
484.0878650503257
 30
0.0
 11
511.0985990120851
 21
455.0665853287844
 31
0.0
  0
CIRCLE
  5
5BB
330
17
100
AcDbEntity
  8
4
100
AcDbCircle
 10
525.6092388728559
 20
469.5772251895551
 30
0.0
 40
8.660154
  0
LINE
  5
5BC
330
17
100
AcDbEntity
  8
4
100
AcDbLine
 10
535.2684228728558
 20
466.989335189555
 30
0.0
 11
528.1976208728559
 21
459.9180471895552
 31
0.0
  0
LINE
  5
5BD
330
17
100
AcDbEntity
  8
4
100
AcDbLine
 10
528.1976208728559
 20
459.9180471895552
 30
0.0
 11
518.5384428728557
 21
462.5059371895552
 31
0.0
  0
LINE
  5
5BE
330
17
100
AcDbEntity
  8
4
100
AcDbLine
 10
515.9500608728558
 20
472.1651151895551
 30
0.0
 11
523.0208628728558
 21
479.2364031895552
 31
0.0
  0
LINE
  5
5BF
330
17
100
AcDbEntity
  8
4
100
AcDbLine
 10
518.5384428728557
 20
462.5059371895552
 30
0.0
 11
515.9500608728558
 21
472.1651151895551
 31
0.0
  0
LINE
  5
5C0
330
17
100
AcDbEntity
  8
4
100
AcDbLine
 10
532.680286872856
 20
476.6485131895552
 30
0.0
 11
535.2684228728558
 21
466.989335189555
 31
0.0
  0
LINE
  5
5C1
330
17
100
AcDbEntity
  8
4
100
AcDbLine
 10
523.0208628728558
 20
479.2364031895552
 30
0.0
 11
532.680286872856
 21
476.6485131895552
 31
0.0
  0
LINE
  5
5C4
330
17
100
AcDbEntity
  8
L-CENTER
100
AcDbLine
 10
608.7030419814087
 20
483.4099351976313
 30
0.0
 11
637.724324986321
 21
454.3886587594607
 31
0.0
  0
CIRCLE
  5
5C5
330
17
100
AcDbEntity
  8
4
100
AcDbCircle
 10
623.2137348728559
 20
468.8992491895551
 30
0.0
 40
8.660154
  0
LINE
  5
5C6
330
17
100
AcDbEntity
  8
4
100
AcDbLine
 10
620.6253528728557
 20
459.240071189555
 30
0.0
 11
613.554550872856
 21
466.3113591895551
 31
0.0
  0
LINE
  5
5C7
330
17
100
AcDbEntity
  8
4
100
AcDbLine
 10
630.2845368728558
 20
461.827961189555
 30
0.0
 11
620.6253528728557
 21
459.240071189555
 31
0.0
  0
LINE
  5
5C8
330
17
100
AcDbEntity
  8
4
100
AcDbLine
 10
616.1426868728558
 20
475.9705371895552
 30
0.0
 11
625.8021108728558
 21
478.558427189555
 31
0.0
  0
LINE
  5
5C9
330
17
100
AcDbEntity
  8
4
100
AcDbLine
 10
613.554550872856
 20
466.3113591895551
 30
0.0
 11
616.1426868728558
 21
475.9705371895552
 31
0.0
  0
LINE
  5
5CA
330
17
100
AcDbEntity
  8
4
100
AcDbLine
 10
632.8729128728557
 20
471.4871391895551
 30
0.0
 11
630.2845368728558
 21
461.827961189555
 31
0.0
  0
LINE
  5
5CB
330
17
100
AcDbEntity
  8
4
100
AcDbLine
 10
625.8021108728558
 20
478.558427189555
 30
0.0
 11
632.8729128728557
 21
471.4871391895551
 31
0.0
  0
LINE
  5
5CC
330
17
100
AcDbEntity
  8
L-CENTER
100
AcDbLine
 10
743.7902927336268
 20
483.4098890503258
 30
0.0
 11
714.7690130120851
 21
454.3886093287842
 31
0.0
  0
CIRCLE
  5
5CD
330
17
100
AcDbEntity
  8
4
100
AcDbCircle
 10
729.2796528728559
 20
468.8992491895551
 30
0.0
 40
8.660154
  0
LINE
  5
5CE
330
17
100
AcDbEntity
  8
4
100
AcDbLine
 10
738.9388308728558
 20
466.3113591895551
 30
0.0
 11
731.8680288728558
 21
459.240071189555
 31
0.0
  0
LINE
  5
5CF
330
17
100
AcDbEntity
  8
4
100
AcDbLine
 10
731.8680288728558
 20
459.240071189555
 30
0.0
 11
722.2088508728559
 21
461.827961189555
 31
0.0
  0
LINE
  5
5D0
330
17
100
AcDbEntity
  8
4
100
AcDbLine
 10
726.691270872856
 20
478.558427189555
 30
0.0
 11
736.3506948728559
 21
475.9705371895552
 31
0.0
  0
LINE
  5
5D1
330
17
100
AcDbEntity
  8
4
100
AcDbLine
 10
722.2088508728559
 20
461.827961189555
 30
0.0
 11
719.6204688728558
 21
471.4871391895551
 31
0.0
  0
LINE
  5
5D2
330
17
100
AcDbEntity
  8
4
100
AcDbLine
 10
719.6204688728558
 20
471.4871391895551
 30
0.0
 11
726.691270872856
 21
478.558427189555
 31
0.0
  0
LINE
  5
5D3
330
17
100
AcDbEntity
  8
4
100
AcDbLine
 10
736.3506948728559
 20
475.9705371895552
 30
0.0
 11
738.9388308728558
 21
466.3113591895551
 31
0.0
  0
LINE
  5
5D7
330
17
100
AcDbEntity
  8
4
100
AcDbLine
 10
1011.246688872856
 20
192.8662911895551
 30
0.0
 11
912.2466888728559
 21
192.8662911895551
 31
0.0
  0
LINE
  5
5D8
330
17
100
AcDbEntity
  8
4
100
AcDbLine
 10
1012.246690872856
 20
242.3662911895551
 30
0.0
 11
922.2466908728559
 21
242.3662911895551
 31
0.0
  0
LINE
  5
5D9
330
17
100
AcDbEntity
  8
4
100
AcDbLine
 10
1011.246688872856
 20
238.8662871895551
 30
0.0
 11
912.2466888728559
 21
238.8662871895551
 31
0.0
  0
LINE
  5
5DC
330
17
100
AcDbEntity
  8
4
100
AcDbLine
 10
887.2466928728559
 20
143.8662891895551
 30
0.0
 11
887.2466928728559
 21
287.8662891895551
 31
0.0
  0
LINE
  5
5DD
330
17
100
AcDbEntity
  8
4
100
AcDbLine
 10
899.2466928728559
 20
286.8662871895551
 30
0.0
 11
899.2466928728559
 21
144.8662911895551
 31
0.0
  0
LINE
  5
5DE
330
17
100
AcDbEntity
  8
4
100
AcDbLine
 10
900.7466928728559
 20
179.8662891895551
 30
0.0
 11
900.7466928728559
 21
251.8662891895551
 31
0.0
  0
LINE
  5
5E0
330
17
100
AcDbEntity
  8
4
100
AcDbLine
 10
860.2466928728559
 20
123.8662911895551
 30
0.0
 11
860.2466928728559
 21
215.8662891895551
 31
0.0
  0
ARC
  5
5E1
330
17
100
AcDbEntity
  8
4
100
AcDbCircle
 10
852.2466888728559
 20
123.8662911895551
 30
0.0
 40
7.999998000000001
100
AcDbArc
 50
270.0017479999999
 51
0.0
  0
ARC
  5
5E2
330
17
100
AcDbEntity
  8
4
100
AcDbCircle
 10
856.2466908728559
 20
215.8662891895551
 30
0.0
 40
4.000002
100
AcDbArc
 50
0.0
 51
90.0
  0
LINE
  5
5E3
330
17
100
AcDbEntity
  8
4
100
AcDbLine
 10
898.2466908728559
 20
143.8662891895551
 30
0.0
 11
887.2466928728559
 21
143.8662891895551
 31
0.0
  0
ARC
  5
5E4
330
17
100
AcDbEntity
  8
4
100
AcDbCircle
 10
885.2466888728559
 20
140.8662891895551
 30
0.0
 40
3.0
100
AcDbArc
 50
90.0
 51
180.0
  0
ARC
  5
5E5
330
17
100
AcDbEntity
  8
4
100
AcDbCircle
 10
879.2466888728559
 20
112.8662931895551
 30
0.0
 40
3.0
100
AcDbArc
 50
0.0
 51
90.0
  0
LINE
  5
5E6
330
17
100
AcDbEntity
  8
4
100
AcDbLine
 10
887.2466928728559
 20
143.8662891895551
 30
0.0
 11
885.2466888728559
 21
143.8662891895551
 31
0.0
  0
ARC
  5
5E7
330
17
100
AcDbEntity
  8
4
100
AcDbCircle
 10
898.2466908728559
 20
144.8662911895551
 30
0.0
 40
1.000002
100
AcDbArc
 50
270.0
 51
0.0
  0
LINE
  5
5E8
330
17
100
AcDbEntity
  8
4
100
AcDbLine
 10
900.7466928728559
 20
179.8662891895551
 30
0.0
 11
899.2466928728559
 21
179.8662891895551
 31
0.0
  0
LINE
  5
5E9
330
17
100
AcDbEntity
  8
4
100
AcDbLine
 10
912.2466888728559
 20
190.8662871895551
 30
0.0
 11
912.2466888728559
 21
240.8662911895551
 31
0.0
  0
LINE
  5
5EA
330
17
100
AcDbEntity
  8
4
100
AcDbLine
 10
912.2466888728559
 20
190.8662871895551
 30
0.0
 11
900.7466928728559
 21
190.8662871895551
 31
0.0
  0
LINE
  5
5EB
330
17
100
AcDbEntity
  8
4
100
AcDbLine
 10
912.2466888728559
 20
240.8662911895551
 30
0.0
 11
900.7466928728559
 21
240.8662911895551
 31
0.0
  0
LINE
  5
5EC
330
17
100
AcDbEntity
  8
4
100
AcDbLine
 10
922.2466908728559
 20
238.8662871895551
 30
0.0
 11
922.2466908728559
 21
242.3662911895551
 31
0.0
  0
LINE
  5
5ED
330
17
100
AcDbEntity
  8
4
100
AcDbLine
 10
850.9398048728558
 20
287.8662891895551
 30
0.0
 11
882.2466888728559
 21
287.8662891895551
 31
0.0
  0
LINE
  5
5EE
330
17
100
AcDbEntity
  8
4
100
AcDbLine
 10
852.073840872856
 20
290.8662891895551
 30
0.0
 11
882.2466888728559
 21
290.8662891895551
 31
0.0
  0
ARC
  5
5EF
330
17
100
AcDbEntity
  8
4
100
AcDbCircle
 10
850.9398048728558
 20
293.8662891895551
 30
0.0
 40
6.000005999999999
100
AcDbArc
 50
159.0081830000002
 51
270.0
  0
ARC
  5
5F0
330
17
100
AcDbEntity
  8
4
100
AcDbCircle
 10
852.073840872856
 20
296.8662891895551
 30
0.0
 40
6.00006
100
AcDbArc
 50
159.5792900000008
 51
270.0
  0
LINE
  5
5F2
330
17
100
AcDbEntity
  8
4
100
AcDbLine
 10
900.7466928728559
 20
251.8662891895551
 30
0.0
 11
899.2466928728559
 21
251.8662891895551
 31
0.0
  0
LINE
  5
5F3
330
17
100
AcDbEntity
  8
4
100
AcDbLine
 10
898.2466908728559
 20
287.8662891895551
 30
0.0
 11
887.2466928728559
 21
287.8662891895551
 31
0.0
  0
ARC
  5
5F4
330
17
100
AcDbEntity
  8
4
100
AcDbCircle
 10
885.2466888728559
 20
290.8662891895551
 30
0.0
 40
3.0
100
AcDbArc
 50
180.0
 51
270.0
  0
LINE
  5
5F5
330
17
100
AcDbEntity
  8
4
100
AcDbLine
 10
887.2466928728559
 20
287.8662891895551
 30
0.0
 11
885.2466888728559
 21
287.8662891895551
 31
0.0
  0
ARC
  5
5F6
330
17
100
AcDbEntity
  8
4
100
AcDbCircle
 10
898.2466908728559
 20
286.8662871895551
 30
0.0
 40
1.000002
100
AcDbArc
 50
0.0
 51
90.0
  0
LINE
  5
5F9
330
17
100
AcDbEntity
  8
4
100
AcDbLine
 10
1012.246690872856
 20
193.8662871895551
 30
0.0
 11
1012.246690872856
 21
242.3662911895551
 31
0.0
  0
LINE
  5
5FA
330
17
100
AcDbEntity
  8
4
100
AcDbLine
 10
1011.246688872856
 20
238.8662871895551
 30
0.0
 11
1011.246688872856
 21
192.8662911895551
 31
0.0
  0
LINE
  5
5FB
330
17
100
AcDbEntity
  8
4
100
AcDbLine
 10
1011.246688872856
 20
192.8662911895551
 30
0.0
 11
1012.246690872856
 21
193.8662871895551
 31
0.0
  0
LINE
  5
5FC
330
17
100
AcDbEntity
  8
4
100
AcDbLine
 10
1012.246690872856
 20
237.8662911895551
 30
0.0
 11
1011.246688872856
 21
238.8662871895551
 31
0.0
  0
LINE
  5
606
330
17
100
AcDbEntity
  8
4
100
AcDbLine
 10
531.2466948728559
 20
731.8662891895551
 30
0.0
 11
571.2466908728559
 21
731.8662891895551
 31
0.0
  0
LINE
  5
607
330
17
100
AcDbEntity
  8
4
100
AcDbLine
 10
546.2466948728559
 20
742.045733189555
 30
0.0
 11
539.0609028728559
 21
740.8662891895551
 31
0.0
  0
LINE
  5
608
330
17
100
AcDbEntity
  8
4
100
AcDbLine
 10
539.0609028728559
 20
740.8662891895551
 30
0.0
 11
546.2466948728559
 21
740.8662891895551
 31
0.0
  0
ARC
  5
609
330
17
100
AcDbEntity
  8
4
100
AcDbCircle
 10
545.2466928728559
 20
734.8662891895551
 30
0.0
 40
1.000002
100
AcDbArc
 50
270.0
 51
0.0
  0
LINE
  5
60C
330
17
100
AcDbEntity
  8
L-CENTER
100
AcDbLine
 10
356.2466928728559
 20
738.7040031895551
 30
0.0
 11
356.2466928728559
 21
685.8736203919686
 31
0.0
  0
LINE
  5
60D
330
17
100
AcDbEntity
  8
4
100
AcDbLine
 10
334.2466908728561
 20
723.7017351895552
 30
0.0
 11
334.2466908728561
 21
722.2017351895552
 31
0.0
  0
LINE
  5
60E
330
17
100
AcDbEntity
  8
4
100
AcDbLine
 10
344.7466908728561
 20
727.7017371895552
 30
0.0
 11
344.7466908728561
 21
732.7017351895552
 31
0.0
  0
LINE
  5
60F
330
17
100
AcDbEntity
  8
4
100
AcDbLine
 10
378.2466948728556
 20
723.7017351895552
 30
0.0
 11
378.2466948728556
 21
722.2017351895552
 31
0.0
  0
LINE
  5
610
330
17
100
AcDbEntity
  8
4
100
AcDbLine
 10
379.2466908728561
 20
723.7017351895552
 30
0.0
 11
379.2466908728561
 21
732.7017351895552
 31
0.0
  0
LINE
  5
611
330
17
100
AcDbEntity
  8
4
100
AcDbLine
 10
367.7466948728556
 20
727.7017371895552
 30
0.0
 11
367.7466948728556
 21
732.7017351895552
 31
0.0
  0
LINE
  5
612
330
17
100
AcDbEntity
  8
4
100
AcDbLine
 10
381.2466948728556
 20
722.2017351895552
 30
0.0
 11
381.2466948728556
 21
720.2017371895552
 31
0.0
  0
LINE
  5
613
330
17
100
AcDbEntity
  8
4
100
AcDbLine
 10
539.0609028728559
 20
740.8662891895551
 30
0.0
 11
538.7466948728559
 21
731.8662891895551
 31
0.0
  0
LINE
  5
614
330
17
100
AcDbEntity
  8
4
100
AcDbLine
 10
531.2466948728559
 20
729.7329891895552
 30
0.0
 11
531.2466948728559
 21
731.8662891895551
 31
0.0
  0
LINE
  5
619
330
17
100
AcDbEntity
  8
4
100
AcDbLine
 10
556.2466908728559
 20
734.8662891895551
 30
0.0
 11
556.2466908728559
 21
786.8662851895551
 31
0.0
  0
LINE
  5
61A
330
17
100
AcDbEntity
  8
4
100
AcDbLine
 10
546.2466948728559
 20
734.8662891895551
 30
0.0
 11
546.2466948728559
 21
786.8662851895551
 31
0.0
  0
LINE
  5
61B
330
17
100
AcDbEntity
  8
4
100
AcDbLine
 10
556.2466908728559
 20
742.045733189555
 30
0.0
 11
563.4324828728559
 21
740.8662891895551
 31
0.0
  0
LINE
  5
61C
330
17
100
AcDbEntity
  8
4
100
AcDbLine
 10
563.4324828728559
 20
740.8662891895551
 30
0.0
 11
563.7466908728559
 21
731.8662891895551
 31
0.0
  0
LINE
  5
61D
330
17
100
AcDbEntity
  8
4
100
AcDbLine
 10
556.2466908728559
 20
740.8662891895551
 30
0.0
 11
563.4324828728559
 21
740.8662891895551
 31
0.0
  0
ARC
  5
61E
330
17
100
AcDbEntity
  8
4
100
AcDbCircle
 10
557.2466928728559
 20
734.8662891895551
 30
0.0
 40
1.000002
100
AcDbArc
 50
180.0
 51
270.0
  0
LINE
  5
61F
330
17
100
AcDbEntity
  8
4
100
AcDbLine
 10
571.2466908728559
 20
729.7329891895552
 30
0.0
 11
571.2466908728559
 21
731.8662891895551
 31
0.0
  0
ARC
  5
620
330
17
100
AcDbEntity
  8
4
100
AcDbCircle
 10
551.2466928728559
 20
786.8662851895551
 30
0.0
 40
4.999998
100
AcDbArc
 50
0.0
 51
180.0
  0
ARC
  5
625
330
17
100
AcDbEntity
  8
4
100
AcDbCircle
 10
847.9432248728558
 20
693.0886971895552
 30
0.0
 40
7.000044
100
AcDbArc
 50
10.97564600000024
 51
78.53722799999996
  0
LINE
  5
62A
330
17
100
AcDbEntity
  8
L-CENTER
100
AcDbLine
 10
1624.753678090798
 20
803.6658471895553
 30
0.0
 11
1624.753678090798
 21
64.84813118955515
 31
0.0
  0
LINE
  5
62B
330
17
100
AcDbEntity
  8
L-CENTER
100
AcDbLine
 10
1469.753680090798
 20
55.86629118955511
 30
0.0
 11
1469.753680090798
 21
135.8662931895551
 31
0.0
  0
LINE
  5
62C
330
17
100
AcDbEntity
  8
4
100
AcDbLine
 10
1429.753678090798
 20
112.8662931895551
 30
0.0
 11
1429.753678090798
 21
75.86629118955511
 31
0.0
  0
LWPOLYLINE
  5
62D
330
17
100
AcDbEntity
  8
4
100
AcDbPolyline
 90
       43
 70
     0
 43
0.0
 10
1753.240378090798
 20
115.7866011895551
 10
1753.734748090798
 20
115.1832771895552
 10
1754.216188090798
 20
114.5794131895551
 10
1754.671786090798
 20
113.9744691895551
 10
1755.754240090798
 20
112.1477751895551
 10
1755.977206090798
 20
111.5331291895551
 10
1756.109698090798
 20
110.9147031895551
 10
1756.138804090798
 20
110.2919631895552
 10
1756.070140090798
 20
109.7246271895551
 10
1755.925672090798
 20
109.1525271895551
 10
1755.724678090798
 20
108.5748411895552
 10
1754.975542090798
 20
106.8002931895551
 10
1754.741416090798
 20
106.1922591895551
 10
1754.547238090798
 20
105.5746251895551
 10
1754.412298090798
 20
104.9465871895551
 10
1754.346622090798
 20
103.9969251895551
 10
1754.421118090798
 20
103.0296951895551
 10
1754.603608090798
 20
102.0519231895551
 10
1755.477124090798
 20
99.12562118955509
 10
1756.163746090798
 20
96.35743118955509
 10
1756.200874090798
 20
95.50263518955512
 10
1756.088482090798
 20
94.69351718955511
 10
1755.794380090798
 20
93.93710318955516
 10
1755.312202090798
 20
93.25010318955515
 10
1754.674996090798
 20
92.60602118955512
 10
1753.933228090798
 20
91.99038518955513
 10
1751.585296090798
 20
90.16951718955511
 10
1750.930006090798
 20
89.52300518955508
 10
1750.422520090798
 20
88.83259718955514
 10
1750.113304090798
 20
88.0838331895551
 10
1750.036840090798
 20
87.2476431895551
 10
1750.167226090798
 20
86.35376918955512
 10
1750.450780090798
 20
85.42081118955514
 10
1751.683450090798
 20
82.57342118955512
 10
1752.042688090798
 20
81.67012118955518
 10
1752.286612090798
 20
80.82074318955506
 10
1752.361522090798
 20
80.04388718955511
 10
1752.023836090798
 20
78.94265918955512
 10
1751.164870090798
 20
78.05470718955507
 10
1749.878662090798
 20
77.34157118955511
 10
1748.259226090798
 20
76.76476118955509
 10
1746.400588090798
 20
76.2858291895551
 10
1744.396774090798
 20
75.86629118955511
  0
LINE
  5
62E
330
17
100
AcDbEntity
  8
4
100
AcDbLine
 10
1790.753680090798
 20
115.8662931895551
 30
0.0
 11
1790.753680090798
 21
75.86629118955511
 31
0.0
  0
LINE
  5
62F
330
17
100
AcDbEntity
  8
4
100
AcDbLine
 10
1768.753678090798
 20
115.8662931895551
 30
0.0
 11
1768.753678090798
 21
75.86629118955511
 31
0.0
  0
LINE
  5
630
330
17
100
AcDbEntity
  8
L-CENTER
100
AcDbLine
 10
1779.753676090798
 20
55.86629118955511
 30
0.0
 11
1779.753676090798
 21
135.8662931895551
 31
0.0
  0
LINE
  5
631
330
17
100
AcDbEntity
  8
4
100
AcDbLine
 10
1819.753678090798
 20
112.8662931895551
 30
0.0
 11
1819.753678090798
 21
75.86629118955511
 31
0.0
  0
TEXT
  5
636
330
17
100
AcDbEntity
  8
3
100
AcDbText
 10
1083.478796644146
 20
22.43091277375731
 30
0.0
 40
17.85075324173629
  1
LD8-02
  7
KANJI
100
AcDbText
  0
LINE
  5
638
330
17
100
AcDbEntity
  8
4
100
AcDbLine
 10
1819.753678090798
 20
75.86629118955511
 30
0.0
 11
1429.753678090798
 21
75.86629118955511
 31
0.0
  0
LINE
  5
64F
330
17
100
AcDbEntity
  8
L-CENTER
100
AcDbLine
 10
1788.71200675357
 20
398.8662891895551
 30
0.0
 11
1278.722206090798
 21
398.8662891895551
 31
0.0
  0
LINE
  5
655
330
17
100
AcDbEntity
  8
4
100
AcDbLine
 10
1757.753680090798
 20
721.8662871895551
 30
0.0
 11
1757.753680090798
 21
159.8662911895551
 31
0.0
  0
LINE
  5
656
330
17
100
AcDbEntity
  8
4
100
AcDbLine
 10
1729.753678090798
 20
727.8662871895551
 30
0.0
 11
1729.753678090798
 21
135.8662911895551
 31
0.0
  0
LINE
  5
657
330
17
100
AcDbEntity
  8
4
100
AcDbLine
 10
1498.753678090798
 20
721.8662871895551
 30
0.0
 11
1498.753678090798
 21
203.7451971895551
 31
0.0
  0
LINE
  5
658
330
17
100
AcDbEntity
  8
4
100
AcDbLine
 10
1495.722184090798
 20
194.5586751895551
 30
0.0
 11
1495.722184090798
 21
693.8662851895551
 31
0.0
  0
ARC
  5
659
330
17
100
AcDbEntity
  8
4
100
AcDbCircle
 10
8289.747058090796
 20
408.8662911895551
 30
0.0
 40
6799.999968
100
AcDbArc
 50
177.5984690000001
 51
181.866518
  0
LINE
  5
65A
330
17
100
AcDbEntity
  8
4
100
AcDbLine
 10
1732.753678090798
 20
125.3306451895551
 30
0.0
 11
1732.753678090798
 21
723.8662851895551
 31
0.0
  0
LINE
  5
65B
330
17
100
AcDbEntity
  8
4
100
AcDbLine
 10
1519.753678090798
 20
727.8662871895551
 30
0.0
 11
1519.753678090798
 21
290.9361111895552
 31
0.0
  0
CIRCLE
  5
65E
330
17
100
AcDbEntity
  8
L-CENTER
100
AcDbCircle
 10
1577.753680090798
 20
215.8662891895551
 30
0.0
 40
72.499998
  0
LINE
  5
65F
330
17
100
AcDbEntity
  8
4
100
AcDbLine
 10
1816.753678090798
 20
115.8662931895551
 30
0.0
 11
1432.753678090798
 21
115.8662931895551
 31
0.0
  0
LINE
  5
660
330
17
100
AcDbEntity
  8
L-CENTER
100
AcDbLine
 10
1661.762290090798
 20
215.8662891895551
 30
0.0
 11
1493.745070090798
 21
215.8662891895551
 31
0.0
  0
ARC
  5
661
330
17
100
AcDbEntity
  8
4
100
AcDbCircle
 10
1577.753434090798
 20
543.8665311895552
 30
0.0
 40
399.9999240000001
100
AcDbArc
 50
260.956666
 51
279.044432
  0
LINE
  5
662
330
17
100
AcDbEntity
  8
L-CENTER
100
AcDbLine
 10
1511.97780046459
 20
150.0904086506
 30
0.0
 11
1540.999075890153
 21
179.1116926681198
 31
0.0
  0
LINE
  5
663
330
17
100
AcDbEntity
  8
4
100
AcDbLine
 10
1516.829362090798
 20
167.1890451895551
 30
0.0
 11
1523.900164090798
 21
174.2603331895551
 31
0.0
  0
ARC
  5
664
330
17
100
AcDbEntity
  8
4
100
AcDbCircle
 10
1499.753680090798
 20
135.8662911895551
 30
0.0
 40
19.999998
100
AcDbArc
 50
270.0006990000002
 51
0.0
  0
CIRCLE
  5
665
330
17
100
AcDbEntity
  8
4
100
AcDbCircle
 10
1526.488540090798
 20
164.6011551895551
 30
0.0
 40
8.660154
  0
LINE
  5
666
330
17
100
AcDbEntity
  8
4
100
AcDbLine
 10
1529.076922090798
 20
154.9419711895551
 30
0.0
 11
1519.417738090798
 21
157.5298611895552
 31
0.0
  0
ARC
  5
667
330
17
100
AcDbEntity
  8
4
100
AcDbCircle
 10
1577.753434090798
 20
-112.1339528104448
 30
0.0
 40
399.99999
100
AcDbArc
 50
80.95620699999999
 51
99.04386300000003
  0
LINE
  5
668
330
17
100
AcDbEntity
  8
L-CENTER
100
AcDbLine
 10
1511.977900230027
 20
281.6420690503259
 30
0.0
 11
1540.999179951569
 21
252.6207893287842
 31
0.0
  0
LINE
  5
669
330
17
100
AcDbEntity
  8
4
100
AcDbLine
 10
1523.900164090798
 20
257.4722451895551
 30
0.0
 11
1516.829362090798
 21
264.5435331895551
 31
0.0
  0
CIRCLE
  5
66A
330
17
100
AcDbEntity
  8
4
100
AcDbCircle
 10
1526.488540090798
 20
267.1314291895551
 30
0.0
 40
8.660154
  0
LINE
  5
66B
330
17
100
AcDbEntity
  8
4
100
AcDbLine
 10
1519.417498090798
 20
274.2027171895551
 30
0.0
 11
1529.076922090798
 21
276.7906071895551
 31
0.0
  0
LINE
  5
66C
330
17
100
AcDbEntity
  8
4
100
AcDbLine
 10
1467.753676090798
 20
513.8662911895551
 30
0.0
 11
1467.753676090798
 21
283.8662871895551
 31
0.0
  0
LINE
  5
66D
330
17
100
AcDbEntity
  8
4
100
AcDbLine
 10
1482.753676090798
 20
283.8662871895551
 30
0.0
 11
1482.753676090798
 21
513.8662911895551
 31
0.0
  0
ARC
  5
673
330
17
100
AcDbEntity
  8
4
100
AcDbCircle
 10
1902.753676090798
 20
215.8662891895551
 30
0.0
 40
399.999906
100
AcDbArc
 50
170.5774619999999
 51
189.423211
  0
ARC
  5
674
330
17
100
AcDbEntity
  8
4
100
AcDbCircle
 10
1905.753676090798
 20
215.8662891895551
 30
0.0
 40
399.99996
100
AcDbArc
 50
170.956666
 51
189.043828
  0
LINE
  5
675
330
17
100
AcDbEntity
  8
4
100
AcDbLine
 10
1484.298112090798
 20
223.8662871895551
 30
0.0
 11
1484.298112090798
 21
259.8662871895551
 31
0.0
  0
LINE
  5
676
330
17
100
AcDbEntity
  8
4
100
AcDbLine
 10
1486.298110090798
 20
223.8662871895551
 30
0.0
 11
1486.298110090798
 21
259.8662871895551
 31
0.0
  0
LINE
  5
677
330
17
100
AcDbEntity
  8
4
100
AcDbLine
 10
1487.798110090798
 20
224.8662891895551
 30
0.0
 11
1487.798110090798
 21
258.8662911895551
 31
0.0
  0
LINE
  5
678
330
17
100
AcDbEntity
  8
4
100
AcDbLine
 10
1479.298114090798
 20
223.8662871895551
 30
0.0
 11
1479.298114090798
 21
259.8662871895551
 31
0.0
  0
LINE
  5
679
330
17
100
AcDbEntity
  8
4
100
AcDbLine
 10
1487.798110090798
 20
221.8662891895551
 30
0.0
 11
1487.798110090798
 21
261.8662911895551
 31
0.0
  0
LINE
  5
67A
330
17
100
AcDbEntity
  8
4
100
AcDbLine
 10
1469.753680090798
 20
115.8662931895551
 30
0.0
 11
1502.753680090798
 21
215.8662891895551
 31
0.0
  0
ARC
  5
67B
330
17
100
AcDbEntity
  8
4
100
AcDbCircle
 10
1432.753678090798
 20
112.8662931895551
 30
0.0
 40
3.0
100
AcDbArc
 50
90.0
 51
180.0
  0
ARC
  5
67C
330
17
100
AcDbEntity
  8
4
100
AcDbCircle
 10
1514.753680090798
 20
140.7964671895551
 30
0.0
 40
5.00004
100
AcDbArc
 50
0.0
 51
81.05049899999867
  0
ARC
  5
67D
330
17
100
AcDbEntity
  8
4
100
AcDbCircle
 10
1513.083514090798
 20
151.1963691895551
 30
0.0
 40
5.000082
100
AcDbArc
 50
189.4227630000002
 51
260.5772250000001
  0
ARC
  5
67E
330
17
100
AcDbEntity
  8
4
100
AcDbCircle
 10
1577.753434090798
 20
540.8665311895552
 30
0.0
 40
399.999954
100
AcDbArc
 50
260.577462
 51
261.051415
  0
LINE
  5
67F
330
17
100
AcDbEntity
  8
4
100
AcDbLine
 10
1519.753678090798
 20
140.7964671895551
 30
0.0
 11
1519.753678090798
 21
135.8662911895551
 31
0.0
  0
LINE
  5
680
330
17
100
AcDbEntity
  8
4
100
AcDbLine
 10
1519.417738090798
 20
157.5298611895552
 30
0.0
 11
1516.829362090798
 21
167.1890451895551
 31
0.0
  0
ARC
  5
681
330
17
100
AcDbEntity
  8
4
100
AcDbCircle
 10
1515.664078090798
 20
153.7769331895552
 30
0.0
 40
4.999896
100
AcDbArc
 50
189.0433169999993
 51
260.9566940000012
  0
LINE
  5
682
330
17
100
AcDbEntity
  8
L-CENTER
100
AcDbLine
 10
1475.184820090798
 20
241.8662871895551
 30
0.0
 11
1500.448354090798
 21
241.8662871895551
 31
0.0
  0
LINE
  5
683
330
17
100
AcDbEntity
  8
4
100
AcDbLine
 10
1486.298110090798
 20
223.8662871895551
 30
0.0
 11
1479.298114090798
 21
223.8662871895551
 31
0.0
  0
LINE
  5
684
330
17
100
AcDbEntity
  8
4
100
AcDbLine
 10
1486.298110090798
 20
224.8662891895551
 30
0.0
 11
1487.798110090798
 21
224.8662891895551
 31
0.0
  0
LINE
  5
685
330
17
100
AcDbEntity
  8
4
100
AcDbLine
 10
1484.298112090798
 20
250.8662871895551
 30
0.0
 11
1479.298114090798
 21
250.8662871895551
 31
0.0
  0
LINE
  5
686
330
17
100
AcDbEntity
  8
4
100
AcDbLine
 10
1484.298112090798
 20
232.8662871895551
 30
0.0
 11
1479.298114090798
 21
232.8662871895551
 31
0.0
  0
LINE
  5
687
330
17
100
AcDbEntity
  8
4
100
AcDbLine
 10
1487.798110090798
 20
221.8662891895551
 30
0.0
 11
1492.318864090798
 21
221.8662891895551
 31
0.0
  0
LINE
  5
688
330
17
100
AcDbEntity
  8
4
100
AcDbLine
 10
1457.753680090798
 20
320.6558391895551
 30
0.0
 11
1457.753680090798
 21
335.6558391895551
 31
0.0
  0
LINE
  5
689
330
17
100
AcDbEntity
  8
4
100
AcDbLine
 10
1465.253680090798
 20
318.1558431895551
 30
0.0
 11
1465.253680090798
 21
338.1558411895551
 31
0.0
  0
ARC
  5
68A
330
17
100
AcDbEntity
  8
4
100
AcDbCircle
 10
1461.573502090798
 20
320.6558391895551
 30
0.0
 40
3.819708
100
AcDbArc
 50
139.1182680000003
 51
220.8817319999997
  0
LINE
  5
68B
330
17
100
AcDbEntity
  8
4
100
AcDbLine
 10
1467.753676090798
 20
318.1558431895551
 30
0.0
 11
1467.753676090798
 21
338.1558411895551
 31
0.0
  0
LINE
  5
68C
330
17
100
AcDbEntity
  8
4
100
AcDbLine
 10
1467.753676090798
 20
283.8662871895551
 30
0.0
 11
1482.753676090798
 21
283.8662871895551
 31
0.0
  0
LINE
  5
68D
330
17
100
AcDbEntity
  8
4
100
AcDbLine
 10
1458.611590090798
 20
318.1558431895551
 30
0.0
 11
1467.753676090798
 21
318.1558431895551
 31
0.0
  0
ARC
  5
68E
330
17
100
AcDbEntity
  8
4
100
AcDbCircle
 10
1514.753680090798
 20
290.9361111895552
 30
0.0
 40
5.00004
100
AcDbArc
 50
278.9495009999987
 51
0.0
  0
LINE
  5
68F
330
17
100
AcDbEntity
  8
4
100
AcDbLine
 10
1487.798110090798
 20
258.8662911895551
 30
0.0
 11
1486.298110090798
 21
258.8662911895551
 31
0.0
  0
LINE
  5
690
330
17
100
AcDbEntity
  8
4
100
AcDbLine
 10
1486.298110090798
 20
259.8662871895551
 30
0.0
 11
1479.298114090798
 21
259.8662871895551
 31
0.0
  0
LINE
  5
691
330
17
100
AcDbEntity
  8
4
100
AcDbLine
 10
1487.798110090798
 20
261.8662911895551
 30
0.0
 11
1491.336196090798
 21
261.8662911895551
 31
0.0
  0
LINE
  5
692
330
17
100
AcDbEntity
  8
4
100
AcDbLine
 10
1490.896012090798
 20
283.8662871895551
 30
0.0
 11
1482.753676090798
 21
283.8662871895551
 31
0.0
  0
LINE
  5
693
330
17
100
AcDbEntity
  8
4
100
AcDbLine
 10
1516.829362090798
 20
264.5435331895551
 30
0.0
 11
1519.417498090798
 21
274.2027171895551
 31
0.0
  0
ARC
  5
694
330
17
100
AcDbEntity
  8
4
100
AcDbCircle
 10
1577.753434090798
 20
-109.1339528104448
 30
0.0
 40
400.0000319999999
100
AcDbArc
 50
98.94922300000002
 51
99.42313600000003
  0
ARC
  5
695
330
17
100
AcDbEntity
  8
4
100
AcDbCircle
 10
1513.083514090798
 20
280.5362091895552
 30
0.0
 40
5.000082
100
AcDbArc
 50
99.42277499999994
 51
170.5772250000002
  0
ARC
  5
696
330
17
100
AcDbEntity
  8
4
100
AcDbCircle
 10
1515.664078090798
 20
277.9556451895551
 30
0.0
 40
4.999896
100
AcDbArc
 50
99.04330599999884
 51
170.9566939999997
  0
LINE
  5
697
330
17
100
AcDbEntity
  8
4
100
AcDbLine
 10
1467.753676090798
 20
325.8662871895551
 30
0.0
 11
1482.753676090798
 21
325.8662871895551
 31
0.0
  0
LINE
  5
698
330
17
100
AcDbEntity
  8
4
100
AcDbLine
 10
1457.753680090798
 20
355.3333311895551
 30
0.0
 11
1457.753680090798
 21
370.3333311895551
 31
0.0
  0
LINE
  5
699
330
17
100
AcDbEntity
  8
4
100
AcDbLine
 10
1465.253680090798
 20
352.8333291895551
 30
0.0
 11
1465.253680090798
 21
372.8333331895551
 31
0.0
  0
LINE
  5
69A
330
17
100
AcDbEntity
  8
4
100
AcDbLine
 10
1467.753676090798
 20
352.8333291895551
 30
0.0
 11
1467.753676090798
 21
372.8333331895551
 31
0.0
  0
ARC
  5
69B
330
17
100
AcDbEntity
  8
4
100
AcDbCircle
 10
1461.573502090798
 20
355.3333311895551
 30
0.0
 40
3.819708
100
AcDbArc
 50
139.1182680000003
 51
220.8817319999997
  0
LINE
  5
69C
330
17
100
AcDbEntity
  8
4
100
AcDbLine
 10
1458.611590090798
 20
338.1558411895551
 30
0.0
 11
1467.753676090798
 21
338.1558411895551
 31
0.0
  0
LINE
  5
69D
330
17
100
AcDbEntity
  8
4
100
AcDbLine
 10
1467.753676090798
 20
325.6555971895551
 30
0.0
 11
1465.253680090798
 21
328.1555991895551
 31
0.0
  0
LINE
  5
69E
330
17
100
AcDbEntity
  8
4
100
AcDbLine
 10
1467.753676090798
 20
328.1558391895551
 30
0.0
 11
1465.253680090798
 21
330.6558411895551
 31
0.0
  0
LINE
  5
69F
330
17
100
AcDbEntity
  8
4
100
AcDbLine
 10
1458.611590090798
 20
352.8333291895551
 30
0.0
 11
1467.753676090798
 21
352.8333291895551
 31
0.0
  0
ARC
  5
6A0
330
17
100
AcDbEntity
  8
4
100
AcDbCircle
 10
1472.753680090798
 20
328.1558391895551
 30
0.0
 40
14.999958
100
AcDbArc
 50
160.5287209999997
 51
199.4712789999999
  0
LINE
  5
6A1
330
17
100
AcDbEntity
  8
4
100
AcDbLine
 10
1465.253680090798
 20
323.1558411895551
 30
0.0
 11
1458.611590090798
 21
323.1558411895551
 31
0.0
  0
ARC
  5
6A2
330
17
100
AcDbEntity
  8
4
100
AcDbCircle
 10
1461.573502090798
 20
335.6558391895551
 30
0.0
 40
3.819708
100
AcDbArc
 50
139.1182680000003
 51
220.8817319999997
  0
LINE
  5
6A3
330
17
100
AcDbEntity
  8
4
100
AcDbLine
 10
1465.253680090798
 20
333.1558431895551
 30
0.0
 11
1458.611590090798
 21
333.1558431895551
 31
0.0
  0
ARC
  5
6A4
330
17
100
AcDbEntity
  8
4
100
AcDbCircle
 10
1472.753680090798
 20
362.8333311895551
 30
0.0
 40
14.999958
100
AcDbArc
 50
160.5287209999997
 51
199.4712790000003
  0
LINE
  5
6A5
330
17
100
AcDbEntity
  8
4
100
AcDbLine
 10
1465.253680090798
 20
357.8333331895551
 30
0.0
 11
1458.611590090798
 21
357.8333331895551
 31
0.0
  0
LINE
  5
6A6
330
17
100
AcDbEntity
  8
4
100
AcDbLine
 10
1458.611590090798
 20
372.8333331895551
 30
0.0
 11
1467.753676090798
 21
372.8333331895551
 31
0.0
  0
LINE
  5
6A7
330
17
100
AcDbEntity
  8
4
100
AcDbLine
 10
1467.753676090798
 20
360.333089189555
 30
0.0
 11
1465.253680090798
 21
362.833085189555
 31
0.0
  0
LINE
  5
6A8
330
17
100
AcDbEntity
  8
4
100
AcDbLine
 10
1467.753676090798
 20
362.8333311895551
 30
0.0
 11
1465.253680090798
 21
365.3333331895551
 31
0.0
  0
ARC
  5
6A9
330
17
100
AcDbEntity
  8
4
100
AcDbCircle
 10
1461.573502090798
 20
370.3333311895551
 30
0.0
 40
3.819708
100
AcDbArc
 50
139.1182680000003
 51
220.8817319999997
  0
LINE
  5
6AA
330
17
100
AcDbEntity
  8
4
100
AcDbLine
 10
1465.253680090798
 20
367.8333291895551
 30
0.0
 11
1458.611590090798
 21
367.8333291895551
 31
0.0
  0
LINE
  5
6AB
330
17
100
AcDbEntity
  8
4
100
AcDbLine
 10
1490.253676090798
 20
325.8662871895551
 30
0.0
 11
1482.753676090798
 21
325.8662871895551
 31
0.0
  0
ARC
  5
6B1
330
17
100
AcDbEntity
  8
4
100
AcDbCircle
 10
1461.573502090798
 20
461.3992491895551
 30
0.0
 40
3.819708
100
AcDbArc
 50
139.1182680000003
 51
220.8817319999997
  0
LINE
  5
6B2
330
17
100
AcDbEntity
  8
4
100
AcDbLine
 10
1457.753680090798
 20
461.3992491895551
 30
0.0
 11
1457.753680090798
 21
476.3992491895551
 31
0.0
  0
LINE
  5
6B3
330
17
100
AcDbEntity
  8
4
100
AcDbLine
 10
1465.253680090798
 20
458.8992471895551
 30
0.0
 11
1465.253680090798
 21
478.8992451895551
 31
0.0
  0
LINE
  5
6B4
330
17
100
AcDbEntity
  8
4
100
AcDbLine
 10
1467.753676090798
 20
458.8992471895551
 30
0.0
 11
1467.753676090798
 21
478.8992451895551
 31
0.0
  0
LINE
  5
6B5
330
17
100
AcDbEntity
  8
4
100
AcDbLine
 10
1458.611590090798
 20
458.8992471895551
 30
0.0
 11
1467.753676090798
 21
458.8992471895551
 31
0.0
  0
LINE
  5
6B6
330
17
100
AcDbEntity
  8
4
100
AcDbLine
 10
1467.753676090798
 20
513.8662911895551
 30
0.0
 11
1482.753676090798
 21
513.8662911895551
 31
0.0
  0
LINE
  5
6B7
330
17
100
AcDbEntity
  8
4
100
AcDbLine
 10
1467.753676090798
 20
505.8662871895551
 30
0.0
 11
1482.753676090798
 21
505.8662871895551
 31
0.0
  0
LINE
  5
6B8
330
17
100
AcDbEntity
  8
4
100
AcDbLine
 10
1458.611590090798
 20
478.8992451895551
 30
0.0
 11
1467.753676090798
 21
478.8992451895551
 31
0.0
  0
LINE
  5
6B9
330
17
100
AcDbEntity
  8
4
100
AcDbLine
 10
1467.753676090798
 20
466.3990011895551
 30
0.0
 11
1465.253680090798
 21
468.8990031895551
 31
0.0
  0
LINE
  5
6BA
330
17
100
AcDbEntity
  8
4
100
AcDbLine
 10
1467.753676090798
 20
468.8992491895551
 30
0.0
 11
1465.253680090798
 21
471.3992451895551
 31
0.0
  0
ARC
  5
6BB
330
17
100
AcDbEntity
  8
4
100
AcDbCircle
 10
1472.753680090798
 20
468.8992491895551
 30
0.0
 40
14.999958
100
AcDbArc
 50
160.5287209999997
 51
199.4712790000003
  0
ARC
  5
6BC
330
17
100
AcDbEntity
  8
4
100
AcDbCircle
 10
1461.573502090798
 20
476.3992491895551
 30
0.0
 40
3.819708
100
AcDbArc
 50
139.1182680000003
 51
220.8817319999997
  0
LINE
  5
6BD
330
17
100
AcDbEntity
  8
4
100
AcDbLine
 10
1465.253680090798
 20
473.8992471895551
 30
0.0
 11
1458.611590090798
 21
473.8992471895551
 31
0.0
  0
LINE
  5
6BE
330
17
100
AcDbEntity
  8
4
100
AcDbLine
 10
1465.253680090798
 20
463.8992451895551
 30
0.0
 11
1458.611590090798
 21
463.8992451895551
 31
0.0
  0
LINE
  5
6BF
330
17
100
AcDbEntity
  8
4
100
AcDbLine
 10
1482.753676090798
 20
513.8662911895551
 30
0.0
 11
1490.557876090798
 21
513.8662911895551
 31
0.0
  0
LINE
  5
6C0
330
17
100
AcDbEntity
  8
4
100
AcDbLine
 10
1490.438980090798
 20
505.8662871895551
 30
0.0
 11
1482.753676090798
 21
505.8662871895551
 31
0.0
  0
ARC
  5
6C1
330
17
100
AcDbEntity
  8
4
100
AcDbCircle
 10
-5040.241165909203
 20
408.8662911895551
 30
0.0
 40
6800.000058
100
AcDbArc
 50
359.1338589999999
 51
0.8662479999998799
  0
LINE
  5
6C2
330
17
100
AcDbEntity
  8
4
100
AcDbLine
 10
1781.753680090798
 20
513.8662911895551
 30
0.0
 11
1781.753680090798
 21
283.8662871895551
 31
0.0
  0
LINE
  5
6C3
330
17
100
AcDbEntity
  8
4
100
AcDbLine
 10
1766.753680090798
 20
306.0604251895551
 30
0.0
 11
1766.753680090798
 21
511.6705311895553
 31
0.0
  0
LINE
  5
6C7
330
17
100
AcDbEntity
  8
4
100
AcDbLine
 10
1779.753676090798
 20
115.8662931895551
 30
0.0
 11
1729.753678090798
 21
215.8662891895551
 31
0.0
  0
ARC
  5
6C8
330
17
100
AcDbEntity
  8
4
100
AcDbCircle
 10
1749.753676090798
 20
135.8662911895551
 30
0.0
 40
19.999998
100
AcDbArc
 50
180.0006989997668
 51
270.0006990000002
  0
LINE
  5
6C9
330
17
100
AcDbEntity
  8
L-CENTER
100
AcDbLine
 10
1727.834031023728
 20
294.0630651895551
 30
0.0
 11
1773.834033023728
 21
294.0594051895552
 31
0.0
  0
LINE
  5
6CA
330
17
100
AcDbEntity
  8
L-CENTER
100
AcDbLine
 10
1577.753680090798
 20
299.8748991895551
 30
0.0
 11
1577.753680090798
 21
131.8576791895551
 31
0.0
  0
CIRCLE
  5
6CB
330
17
100
AcDbEntity
  8
4
100
AcDbCircle
 10
1577.753680090798
 20
215.8662891895551
 30
0.0
 40
36.0
  0
ARC
  5
6CC
330
17
100
AcDbEntity
  8
4
100
AcDbCircle
 10
1249.753678090798
 20
215.8662891895551
 30
0.0
 40
399.9999300000001
100
AcDbArc
 50
350.957092
 51
9.043759000000014
  0
LINE
  5
6CD
330
17
100
AcDbEntity
  8
L-CENTER
100
AcDbLine
 10
1614.508281291443
 20
179.1116896681192
 30
0.0
 11
1643.529556717006
 21
150.0904056505997
 31
0.0
  0
CIRCLE
  5
6CE
330
17
100
AcDbEntity
  8
4
100
AcDbCircle
 10
1629.018814090798
 20
164.6011551895551
 30
0.0
 40
8.660154
  0
LINE
  5
6CF
330
17
100
AcDbEntity
  8
4
100
AcDbLine
 10
1621.947772090798
 20
171.6724431895551
 30
0.0
 11
1631.607190090798
 21
174.2603331895551
 31
0.0
  0
LINE
  5
6D0
330
17
100
AcDbEntity
  8
4
100
AcDbLine
 10
1636.089616090798
 20
157.5298611895552
 30
0.0
 11
1626.430438090798
 21
154.9419711895551
 31
0.0
  0
LINE
  5
6D1
330
17
100
AcDbEntity
  8
4
100
AcDbLine
 10
1533.559588090798
 20
171.6724431895551
 30
0.0
 11
1536.147724090798
 21
162.0132651895551
 31
0.0
  0
LINE
  5
6D2
330
17
100
AcDbEntity
  8
4
100
AcDbLine
 10
1536.147724090798
 20
162.0132651895551
 30
0.0
 11
1529.076922090798
 21
154.9419711895551
 31
0.0
  0
LINE
  5
6D3
330
17
100
AcDbEntity
  8
4
100
AcDbLine
 10
1523.900164090798
 20
174.2603331895551
 30
0.0
 11
1533.559588090798
 21
171.6724431895551
 31
0.0
  0
LINE
  5
6D4
330
17
100
AcDbEntity
  8
4
100
AcDbLine
 10
1626.430438090798
 20
154.9419711895551
 30
0.0
 11
1619.359636090798
 21
162.0132651895551
 31
0.0
  0
LINE
  5
6D5
330
17
100
AcDbEntity
  8
4
100
AcDbLine
 10
1619.359636090798
 20
162.0132651895551
 30
0.0
 11
1621.947772090798
 21
171.6724431895551
 31
0.0
  0
ARC
  5
6D6
330
17
100
AcDbEntity
  8
4
100
AcDbCircle
 10
1577.753680090798
 20
215.8662891895551
 30
0.0
 40
23.00001
100
AcDbArc
 50
105.1216580000003
 51
74.87834199999975
  0
LINE
  5
6D7
330
17
100
AcDbEntity
  8
4
100
AcDbLine
 10
1583.753680090798
 20
242.3662911895551
 30
0.0
 11
1571.753680090798
 21
242.3662911895551
 31
0.0
  0
LINE
  5
6D8
330
17
100
AcDbEntity
  8
4
100
AcDbLine
 10
1583.753680090798
 20
234.3662871895551
 30
0.0
 11
1571.753680090798
 21
234.3662871895551
 31
0.0
  0
LINE
  5
6D9
330
17
100
AcDbEntity
  8
4
100
AcDbLine
 10
1571.753680090798
 20
242.3662911895551
 30
0.0
 11
1571.753680090798
 21
234.3662871895551
 31
0.0
  0
LINE
  5
6DA
330
17
100
AcDbEntity
  8
4
100
AcDbLine
 10
1583.753680090798
 20
234.3662871895551
 30
0.0
 11
1583.753680090798
 21
242.3662911895551
 31
0.0
  0
ARC
  5
6DB
330
17
100
AcDbEntity
  8
4
100
AcDbCircle
 10
1639.843276090798
 20
153.7769331895552
 30
0.0
 40
4.999896
100
AcDbArc
 50
279.0433169999993
 51
350.956685
  0
LINE
  5
6DC
330
17
100
AcDbEntity
  8
4
100
AcDbLine
 10
1631.607190090798
 20
174.2603331895551
 30
0.0
 11
1638.677992090798
 21
167.1890451895551
 31
0.0
  0
LINE
  5
6DD
330
17
100
AcDbEntity
  8
4
100
AcDbLine
 10
1638.677992090798
 20
167.1890451895551
 30
0.0
 11
1636.089616090798
 21
157.5298611895552
 31
0.0
  0
LINE
  5
6DE
330
17
100
AcDbEntity
  8
L-CENTER
100
AcDbLine
 10
1614.508277451838
 20
252.6208925505953
 30
0.0
 11
1643.52955717338
 21
281.6421722721368
 31
0.0
  0
CIRCLE
  5
6DF
330
17
100
AcDbEntity
  8
4
100
AcDbCircle
 10
1629.018814090798
 20
267.1314291895551
 30
0.0
 40
8.660154
  0
LINE
  5
6E0
330
17
100
AcDbEntity
  8
4
100
AcDbLine
 10
1631.607190090798
 20
257.4722451895551
 30
0.0
 11
1621.948012090798
 21
260.0601351895551
 31
0.0
  0
LINE
  5
6E1
330
17
100
AcDbEntity
  8
4
100
AcDbLine
 10
1626.430438090798
 20
276.7906071895551
 30
0.0
 11
1636.089856090798
 21
274.2027171895551
 31
0.0
  0
LINE
  5
6E2
330
17
100
AcDbEntity
  8
4
100
AcDbLine
 10
1529.076922090798
 20
276.7906071895551
 30
0.0
 11
1536.147724090798
 21
269.7193191895551
 31
0.0
  0
LINE
  5
6E3
330
17
100
AcDbEntity
  8
4
100
AcDbLine
 10
1536.147724090798
 20
269.7193191895551
 30
0.0
 11
1533.559342090798
 21
260.0601351895551
 31
0.0
  0
LINE
  5
6E4
330
17
100
AcDbEntity
  8
4
100
AcDbLine
 10
1533.559342090798
 20
260.0601351895551
 30
0.0
 11
1523.900164090798
 21
257.4722451895551
 31
0.0
  0
LINE
  5
6E5
330
17
100
AcDbEntity
  8
4
100
AcDbLine
 10
1621.948012090798
 20
260.0601351895551
 30
0.0
 11
1619.359636090798
 21
269.7193191895551
 31
0.0
  0
LINE
  5
6E6
330
17
100
AcDbEntity
  8
4
100
AcDbLine
 10
1619.359636090798
 20
269.7193191895551
 30
0.0
 11
1626.430438090798
 21
276.7906071895551
 31
0.0
  0
LINE
  5
6E7
330
17
100
AcDbEntity
  8
4
100
AcDbLine
 10
1636.089856090798
 20
274.2027171895551
 30
0.0
 11
1638.677992090798
 21
264.5435331895551
 31
0.0
  0
LINE
  5
6E8
330
17
100
AcDbEntity
  8
4
100
AcDbLine
 10
1638.677992090798
 20
264.5435331895551
 30
0.0
 11
1631.607190090798
 21
257.4722451895551
 31
0.0
  0
ARC
  5
6E9
330
17
100
AcDbEntity
  8
4
100
AcDbCircle
 10
1639.843276090798
 20
277.9556451895551
 30
0.0
 40
4.999896
100
AcDbArc
 50
9.043304000000497
 51
80.95668300000064
  0
ARC
  5
6EA
330
17
100
AcDbEntity
  8
4
100
AcDbCircle
 10
-5040.241165909203
 20
408.8662911895551
 30
0.0
 40
6799.999986000001
100
AcDbArc
 50
358.608554
 51
358.9316859999999
  0
ARC
  5
6EC
330
17
100
AcDbEntity
  8
4
100
AcDbCircle
 10
1816.753678090798
 20
112.8662931895551
 30
0.0
 40
3.0
100
AcDbArc
 50
0.0
 51
90.0
  0
LINE
  5
6EF
330
17
100
AcDbEntity
  8
4
100
AcDbLine
 10
1791.754408090798
 20
335.6548611895552
 30
0.0
 11
1791.753190090798
 21
320.6548611895552
 31
0.0
  0
LINE
  5
6F0
330
17
100
AcDbEntity
  8
4
100
AcDbLine
 10
1784.254654090798
 20
338.1555951895551
 30
0.0
 11
1784.252944090798
 21
318.1555971895551
 31
0.0
  0
LINE
  5
6F1
330
17
100
AcDbEntity
  8
4
100
AcDbLine
 10
1781.754652090798
 20
338.1558411895551
 30
0.0
 11
1781.752942090798
 21
318.1558431895551
 31
0.0
  0
ARC
  5
6F2
330
17
100
AcDbEntity
  8
4
100
AcDbCircle
 10
1787.933362090798
 20
320.6553531895552
 30
0.0
 40
3.819713999999999
100
AcDbArc
 50
319.113114999999
 51
40.87656000000063
  0
LINE
  5
6F3
330
17
100
AcDbEntity
  8
4
100
AcDbLine
 10
1790.895034090798
 20
318.1551111895551
 30
0.0
 11
1781.752942090798
 21
318.1558431895551
 31
0.0
  0
LINE
  5
6F4
330
17
100
AcDbEntity
  8
4
100
AcDbLine
 10
1769.254654090798
 20
303.0603831895551
 30
0.0
 11
1769.252944090798
 21
285.0603831895551
 31
0.0
  0
LINE
  5
6F5
330
17
100
AcDbEntity
  8
4
100
AcDbLine
 10
1760.254900090798
 20
306.0611151895552
 30
0.0
 11
1760.252698090798
 21
282.0611151895552
 31
0.0
  0
LINE
  5
6F6
330
17
100
AcDbEntity
  8
4
100
AcDbLine
 10
1757.754898090798
 20
306.0613611895551
 30
0.0
 11
1757.752702090798
 21
282.0613611895551
 31
0.0
  0
ARC
  5
6F7
330
17
100
AcDbEntity
  8
4
100
AcDbCircle
 10
1764.669202090798
 20
285.0606231895551
 30
0.0
 40
4.583598
100
AcDbArc
 50
319.1123719999998
 51
40.87702700000057
  0
LINE
  5
6F8
330
17
100
AcDbEntity
  8
4
100
AcDbLine
 10
1768.223158090798
 20
282.0603831895551
 30
0.0
 11
1757.752702090798
 21
282.0613611895551
 31
0.0
  0
LINE
  5
6F9
330
17
100
AcDbEntity
  8
4
100
AcDbLine
 10
1781.753680090798
 20
283.8662871895551
 30
0.0
 11
1769.094466090798
 21
283.8662871895551
 31
0.0
  0
LINE
  5
6FA
330
17
100
AcDbEntity
  8
4
100
AcDbLine
 10
1768.225354090798
 20
306.0603831895551
 30
0.0
 11
1757.754898090798
 21
306.0613611895551
 31
0.0
  0
LINE
  5
6FB
330
17
100
AcDbEntity
  8
4
100
AcDbLine
 10
1760.253676090798
 20
294.0611151895552
 30
0.0
 11
1757.753920090798
 21
296.5613571895551
 31
0.0
  0
LINE
  5
6FC
330
17
100
AcDbEntity
  8
4
100
AcDbLine
 10
1760.253676090798
 20
291.5611131895552
 30
0.0
 11
1757.753680090798
 21
294.0613611895551
 31
0.0
  0
ARC
  5
6FD
330
17
100
AcDbEntity
  8
4
100
AcDbCircle
 10
1751.253676090798
 20
294.0618471895551
 30
0.0
 40
18.000018
100
AcDbArc
 50
340.5237549999999
 51
19.46615800000007
  0
LINE
  5
6FE
330
17
100
AcDbEntity
  8
4
100
AcDbLine
 10
1760.253190090798
 20
288.0611151895552
 30
0.0
 11
1760.254408090798
 21
300.0611151895552
 31
0.0
  0
LINE
  5
6FF
330
17
100
AcDbEntity
  8
4
100
AcDbLine
 10
1760.253190090798
 20
288.0611151895552
 30
0.0
 11
1768.223650090798
 21
288.0603831895551
 31
0.0
  0
LINE
  5
700
330
17
100
AcDbEntity
  8
4
100
AcDbLine
 10
1760.254408090798
 20
300.0611151895552
 30
0.0
 11
1768.224868090798
 21
300.0603831895551
 31
0.0
  0
ARC
  5
701
330
17
100
AcDbEntity
  8
4
100
AcDbCircle
 10
1764.670912090798
 20
303.0606231895551
 30
0.0
 40
4.583598
100
AcDbArc
 50
319.1123719999998
 51
40.87702700000057
  0
LINE
  5
702
330
17
100
AcDbEntity
  8
4
100
AcDbLine
 10
1784.253436090798
 20
323.1555951895551
 30
0.0
 11
1790.895526090798
 21
323.1551091895551
 31
0.0
  0
LINE
  5
703
330
17
100
AcDbEntity
  8
4
100
AcDbLine
 10
1784.254168090798
 20
333.1555971895551
 30
0.0
 11
1790.896258090798
 21
333.1551111895551
 31
0.0
  0
LINE
  5
704
330
17
100
AcDbEntity
  8
4
100
AcDbLine
 10
1790.896744090798
 20
338.1551091895551
 30
0.0
 11
1781.754652090798
 21
338.1558411895551
 31
0.0
  0
LINE
  5
705
330
17
100
AcDbEntity
  8
4
100
AcDbLine
 10
1784.253436090798
 20
357.833087189555
 30
0.0
 11
1790.895526090798
 21
357.8326011895551
 31
0.0
  0
LINE
  5
706
330
17
100
AcDbEntity
  8
4
100
AcDbLine
 10
1790.895034090798
 20
352.8325971895551
 30
0.0
 11
1781.752942090798
 21
352.8333291895551
 31
0.0
  0
LINE
  5
708
330
17
100
AcDbEntity
  8
4
100
AcDbLine
 10
1784.254168090798
 20
367.833089189555
 30
0.0
 11
1790.896258090798
 21
367.8325971895551
 31
0.0
  0
LINE
  5
709
330
17
100
AcDbEntity
  8
4
100
AcDbLine
 10
1790.896744090798
 20
372.8326011895551
 30
0.0
 11
1781.754652090798
 21
372.8333331895551
 31
0.0
  0
LINE
  5
70A
330
17
100
AcDbEntity
  8
4
100
AcDbLine
 10
1784.254654090798
 20
372.833087189555
 30
0.0
 11
1784.252944090798
 21
352.833089189555
 31
0.0
  0
LINE
  5
70B
330
17
100
AcDbEntity
  8
4
100
AcDbLine
 10
1781.754652090798
 20
372.8333331895551
 30
0.0
 11
1781.752942090798
 21
352.8333291895551
 31
0.0
  0
LINE
  5
70C
330
17
100
AcDbEntity
  8
4
100
AcDbLine
 10
1759.253680090798
 20
325.8662871895551
 30
0.0
 11
1766.753680090798
 21
325.8662871895551
 31
0.0
  0
LINE
  5
70D
330
17
100
AcDbEntity
  8
4
100
AcDbLine
 10
1783.253680090798
 20
338.1558411895551
 30
0.0
 11
1783.253680090798
 21
352.8333291895551
 31
0.0
  0
LINE
  5
70E
330
17
100
AcDbEntity
  8
4
100
AcDbLine
 10
1781.753920090798
 20
330.6560871895551
 30
0.0
 11
1784.253676090798
 21
328.1558391895551
 31
0.0
  0
LINE
  5
70F
330
17
100
AcDbEntity
  8
4
100
AcDbLine
 10
1781.753680090798
 20
328.1558391895551
 30
0.0
 11
1784.253676090798
 21
325.6555971895551
 31
0.0
  0
LINE
  5
710
330
17
100
AcDbEntity
  8
4
100
AcDbLine
 10
1781.753680090798
 20
325.8662871895551
 30
0.0
 11
1766.753680090798
 21
325.8662871895551
 31
0.0
  0
LINE
  5
711
330
17
100
AcDbEntity
  8
4
100
AcDbLine
 10
1781.753920090798
 20
365.3335731895552
 30
0.0
 11
1784.253676090798
 21
362.8333311895551
 31
0.0
  0
LINE
  5
712
330
17
100
AcDbEntity
  8
4
100
AcDbLine
 10
1781.753680090798
 20
362.8333311895551
 30
0.0
 11
1784.253676090798
 21
360.333089189555
 31
0.0
  0
LINE
  5
713
330
17
100
AcDbEntity
  8
4
100
AcDbLine
 10
1791.754408090798
 20
370.3323531895551
 30
0.0
 11
1791.753190090798
 21
355.3323531895551
 31
0.0
  0
ARC
  5
714
330
17
100
AcDbEntity
  8
4
100
AcDbCircle
 10
1787.933362090798
 20
355.3328451895552
 30
0.0
 40
3.819713999999999
100
AcDbArc
 50
319.1131149999977
 51
40.87656000000063
  0
ARC
  5
715
330
17
100
AcDbEntity
  8
4
100
AcDbCircle
 10
1776.753676090798
 20
328.1563311895551
 30
0.0
 40
14.999958
100
AcDbArc
 50
340.5237049999998
 51
19.46626399999993
  0
ARC
  5
716
330
17
100
AcDbEntity
  8
4
100
AcDbCircle
 10
1787.934586090798
 20
335.6553531895552
 30
0.0
 40
3.819713999999999
100
AcDbArc
 50
319.1131049999983
 51
40.87656000000063
  0
ARC
  5
717
330
17
100
AcDbEntity
  8
4
100
AcDbCircle
 10
1776.753676090798
 20
362.8338171895552
 30
0.0
 40
14.999958
100
AcDbArc
 50
340.5237009999997
 51
19.4662599999999
  0
ARC
  5
718
330
17
100
AcDbEntity
  8
4
100
AcDbCircle
 10
1787.934586090798
 20
370.3328451895552
 30
0.0
 40
3.819713999999999
100
AcDbArc
 50
319.1131049999983
 51
40.87656000000063
  0
LINE
  5
719
330
17
100
AcDbEntity
  8
L-CENTER
100
AcDbLine
 10
1727.834031023728
 20
523.673171189555
 30
0.0
 11
1773.834033023728
 21
523.6695111895551
 31
0.0
  0
LINE
  5
71E
330
17
100
AcDbEntity
  8
4
100
AcDbLine
 10
1760.254900090798
 20
535.6712211895551
 30
0.0
 11
1760.252698090798
 21
511.6712211895551
 31
0.0
  0
LINE
  5
71F
330
17
100
AcDbEntity
  8
4
100
AcDbLine
 10
1757.754898090798
 20
535.6714671895552
 30
0.0
 11
1757.752702090798
 21
511.6714671895552
 31
0.0
  0
ARC
  5
720
330
17
100
AcDbEntity
  8
4
100
AcDbCircle
 10
1764.670912090798
 20
532.6707351895552
 30
0.0
 40
4.583598
100
AcDbArc
 50
319.1123619999994
 51
40.87701799999994
  0
LINE
  5
721
330
17
100
AcDbEntity
  8
4
100
AcDbLine
 10
1769.254654090798
 20
532.6704891895552
 30
0.0
 11
1769.252944090798
 21
514.6702971895552
 31
0.0
  0
ARC
  5
723
330
17
100
AcDbEntity
  8
4
100
AcDbCircle
 10
1787.933362090798
 20
461.3987571895552
 30
0.0
 40
3.819713999999999
100
AcDbArc
 50
319.1131150000003
 51
40.87656000000063
  0
LINE
  5
724
330
17
100
AcDbEntity
  8
4
100
AcDbLine
 10
1791.754408090798
 20
476.3982711895551
 30
0.0
 11
1791.753190090798
 21
461.3982711895551
 31
0.0
  0
LINE
  5
725
330
17
100
AcDbEntity
  8
4
100
AcDbLine
 10
1784.254654090798
 20
478.8990051895551
 30
0.0
 11
1784.252944090798
 21
458.8990011895551
 31
0.0
  0
LINE
  5
726
330
17
100
AcDbEntity
  8
4
100
AcDbLine
 10
1781.754652090798
 20
478.8992451895551
 30
0.0
 11
1781.752942090798
 21
458.8992471895551
 31
0.0
  0
LINE
  5
727
330
17
100
AcDbEntity
  8
4
100
AcDbLine
 10
1790.895034090798
 20
458.8985151895552
 30
0.0
 11
1781.752942090798
 21
458.8992471895551
 31
0.0
  0
LINE
  5
72A
330
17
100
AcDbEntity
  8
4
100
AcDbLine
 10
1784.253436090798
 20
463.8990051895551
 30
0.0
 11
1790.895526090798
 21
463.8985131895552
 31
0.0
  0
LINE
  5
72B
330
17
100
AcDbEntity
  8
4
100
AcDbLine
 10
1784.254168090798
 20
473.8990011895551
 30
0.0
 11
1790.896258090798
 21
473.8985151895552
 31
0.0
  0
LINE
  5
72C
330
17
100
AcDbEntity
  8
4
100
AcDbLine
 10
1790.896744090798
 20
478.8985131895552
 30
0.0
 11
1781.754652090798
 21
478.8992451895551
 31
0.0
  0
LINE
  5
72D
330
17
100
AcDbEntity
  8
4
100
AcDbLine
 10
1781.753920090798
 20
471.3994911895552
 30
0.0
 11
1784.253676090798
 21
468.8992491895551
 31
0.0
  0
LINE
  5
72E
330
17
100
AcDbEntity
  8
4
100
AcDbLine
 10
1781.753680090798
 20
468.8992491895551
 30
0.0
 11
1784.253676090798
 21
466.3990011895551
 31
0.0
  0
LINE
  5
72F
330
17
100
AcDbEntity
  8
4
100
AcDbLine
 10
1768.134454090798
 20
511.6704951895551
 30
0.0
 11
1757.752702090798
 21
511.6714671895552
 31
0.0
  0
LINE
  5
730
330
17
100
AcDbEntity
  8
4
100
AcDbLine
 10
1759.068376090798
 20
505.8662871895551
 30
0.0
 11
1766.753680090798
 21
505.8662871895551
 31
0.0
  0
LINE
  5
731
330
17
100
AcDbEntity
  8
4
100
AcDbLine
 10
1760.253676090798
 20
523.6712211895551
 30
0.0
 11
1757.753920090798
 21
526.1714631895552
 31
0.0
  0
LINE
  5
732
330
17
100
AcDbEntity
  8
4
100
AcDbLine
 10
1760.253676090798
 20
521.1712191895551
 30
0.0
 11
1757.753680090798
 21
523.6714671895552
 31
0.0
  0
LINE
  5
733
330
17
100
AcDbEntity
  8
4
100
AcDbLine
 10
1760.253190090798
 20
517.6712211895551
 30
0.0
 11
1768.223650090798
 21
517.6704891895552
 31
0.0
  0
LINE
  5
734
330
17
100
AcDbEntity
  8
4
100
AcDbLine
 10
1760.254408090798
 20
529.6712211895551
 30
0.0
 11
1768.224868090798
 21
529.6704891895552
 31
0.0
  0
LINE
  5
735
330
17
100
AcDbEntity
  8
4
100
AcDbLine
 10
1760.253190090798
 20
517.6712211895551
 30
0.0
 11
1760.254408090798
 21
529.6712211895551
 31
0.0
  0
LINE
  5
736
330
17
100
AcDbEntity
  8
4
100
AcDbLine
 10
1768.181656090798
 20
513.8662911895551
 30
0.0
 11
1772.753680090798
 21
513.8662911895551
 31
0.0
  0
ARC
  5
737
330
17
100
AcDbEntity
  8
4
100
AcDbCircle
 10
1751.253676090798
 20
523.6719531895551
 30
0.0
 40
18.000018
100
AcDbArc
 50
340.5237549999997
 51
19.46615799999971
  0
ARC
  5
738
330
17
100
AcDbEntity
  8
4
100
AcDbCircle
 10
1764.669202090798
 20
514.6707351895552
 30
0.0
 40
4.583598
100
AcDbArc
 50
319.1137590000013
 51
40.87701799999994
  0
LINE
  5
739
330
17
100
AcDbEntity
  8
4
100
AcDbLine
 10
1781.753680090798
 20
513.8662911895551
 30
0.0
 11
1769.181658090798
 21
513.8662911895551
 31
0.0
  0
LINE
  5
73A
330
17
100
AcDbEntity
  8
4
100
AcDbLine
 10
1781.753680090798
 20
505.8662871895551
 30
0.0
 11
1766.753680090798
 21
505.8662871895551
 31
0.0
  0
ARC
  5
73B
330
17
100
AcDbEntity
  8
4
100
AcDbCircle
 10
1776.753676090798
 20
468.899735189555
 30
0.0
 40
14.999958
100
AcDbArc
 50
340.5237050000003
 51
19.46626399999953
  0
ARC
  5
73C
330
17
100
AcDbEntity
  8
4
100
AcDbCircle
 10
1787.934586090798
 20
476.3987571895552
 30
0.0
 40
3.819713999999999
100
AcDbArc
 50
319.1131049999983
 51
40.87656000000063
  0
ARC
  5
73E
330
17
100
AcDbEntity
  8
4
100
AcDbCircle
 10
-5040.241165909203
 20
408.8662911895551
 30
0.0
 40
6800.000028
100
AcDbArc
 50
1.068497000000521
 51
1.391460000000105
  0
LINE
  5
73F
330
17
100
AcDbEntity
  8
4
100
AcDbLine
 10
1768.225354090798
 20
535.6704891895552
 30
0.0
 11
1757.754898090798
 21
535.6714671895552
 31
0.0
  0
ARC
  5
741
330
17
100
AcDbEntity
  8
4
100
AcDbCircle
 10
1521.753676090798
 20
727.8662871895551
 30
0.0
 40
1.999998
100
AcDbArc
 50
90.0
 51
180.0
  0
LINE
  5
746
330
17
100
AcDbEntity
  8
4
100
AcDbLine
 10
1498.753678090798
 20
693.8662851895551
 30
0.0
 11
1495.722184090798
 21
693.8662851895551
 31
0.0
  0
LINE
  5
747
330
17
100
AcDbEntity
  8
4
100
AcDbLine
 10
1500.753676090798
 20
723.8662851895551
 30
0.0
 11
1519.753678090798
 21
723.8662851895551
 31
0.0
  0
ARC
  5
748
330
17
100
AcDbEntity
  8
4
100
AcDbCircle
 10
1500.753676090798
 20
721.8662871895551
 30
0.0
 40
1.999998
100
AcDbArc
 50
90.0
 51
180.0
  0
LINE
  5
749
330
17
100
AcDbEntity
  8
L-CENTER
100
AcDbLine
 10
1727.834031023728
 20
686.0320611895552
 30
0.0
 11
1773.834033023728
 21
686.0283951895551
 31
0.0
  0
LINE
  5
74A
330
17
100
AcDbEntity
  8
4
100
AcDbLine
 10
1755.753676090798
 20
723.8662851895551
 30
0.0
 11
1732.753678090798
 21
723.8662851895551
 31
0.0
  0
ARC
  5
74B
330
17
100
AcDbEntity
  8
4
100
AcDbCircle
 10
1624.753678090798
 20
761.8662891895551
 30
0.0
 40
29.999904
100
AcDbArc
 50
294.4275930000003
 51
245.5724069999997
  0
CIRCLE
  5
74C
330
17
100
AcDbEntity
  8
4
100
AcDbCircle
 10
1624.753678090798
 20
761.8662891895551
 30
0.0
 40
17.500002
  0
LINE
  5
74D
330
17
100
AcDbEntity
  8
L-CENTER
100
AcDbLine
 10
1666.553236090798
 20
761.8662891895551
 30
0.0
 11
1582.954120090798
 21
761.8662891895551
 31
0.0
  0
LINE
  5
74E
330
17
100
AcDbEntity
  8
4
100
AcDbLine
 10
1727.753680090798
 20
729.8662851895551
 30
0.0
 11
1521.753676090798
 21
729.8662851895551
 31
0.0
  0
LINE
  5
74F
330
17
100
AcDbEntity
  8
4
100
AcDbLine
 10
1671.753676090798
 20
731.8662891895551
 30
0.0
 11
1577.753680090798
 21
731.8662891895551
 31
0.0
  0
LINE
  5
750
330
17
100
AcDbEntity
  8
4
100
AcDbLine
 10
1646.753680090798
 20
731.8662891895551
 30
0.0
 11
1602.753676090798
 21
731.8662891895551
 31
0.0
  0
LINE
  5
751
330
17
100
AcDbEntity
  8
4
100
AcDbLine
 10
1602.753676090798
 20
731.8662891895551
 30
0.0
 11
1646.753680090798
 21
731.8662891895551
 31
0.0
  0
LINE
  5
752
330
17
100
AcDbEntity
  8
4
100
AcDbLine
 10
1646.753680090798
 20
731.8662891895551
 30
0.0
 11
1602.753676090798
 21
731.8662891895551
 31
0.0
  0
LINE
  5
753
330
17
100
AcDbEntity
  8
4
100
AcDbLine
 10
1602.753676090798
 20
731.8662891895551
 30
0.0
 11
1646.753680090798
 21
731.8662891895551
 31
0.0
  0
LINE
  5
754
330
17
100
AcDbEntity
  8
4
100
AcDbLine
 10
1636.939468090798
 20
740.8662891895551
 30
0.0
 11
1612.567888090798
 21
740.8662891895551
 31
0.0
  0
LINE
  5
755
330
17
100
AcDbEntity
  8
4
100
AcDbLine
 10
1624.753678090798
 20
744.3662871895551
 30
0.0
 11
1636.939468090798
 21
740.8662891895551
 31
0.0
  0
LINE
  5
756
330
17
100
AcDbEntity
  8
4
100
AcDbLine
 10
1612.567888090798
 20
740.8662891895551
 30
0.0
 11
1624.753678090798
 21
744.3662871895551
 31
0.0
  0
LINE
  5
757
330
17
100
AcDbEntity
  8
4
100
AcDbLine
 10
1577.753680090798
 20
729.8662851895551
 30
0.0
 11
1577.753680090798
 21
731.8662891895551
 31
0.0
  0
LINE
  5
758
330
17
100
AcDbEntity
  8
4
100
AcDbLine
 10
1606.753678090798
 20
737.8662891895551
 30
0.0
 11
1601.753680090798
 21
737.8662891895551
 31
0.0
  0
LINE
  5
759
330
17
100
AcDbEntity
  8
4
100
AcDbLine
 10
1604.834980090798
 20
739.4331831895552
 30
0.0
 11
1604.834980090798
 21
737.8662891895551
 31
0.0
  0
LINE
  5
75A
330
17
100
AcDbEntity
  8
4
100
AcDbLine
 10
1601.753680090798
 20
733.8662871895551
 30
0.0
 11
1612.323502090798
 21
733.8662871895551
 31
0.0
  0
LINE
  5
75B
330
17
100
AcDbEntity
  8
4
100
AcDbLine
 10
1602.753676090798
 20
731.8662891895551
 30
0.0
 11
1602.753676090798
 21
733.8662871895551
 31
0.0
  0
LINE
  5
75C
330
17
100
AcDbEntity
  8
4
100
AcDbLine
 10
1601.753680090798
 20
733.8662871895551
 30
0.0
 11
1601.753680090798
 21
737.8662891895551
 31
0.0
  0
LINE
  5
75D
330
17
100
AcDbEntity
  8
4
100
AcDbLine
 10
1612.567888090798
 20
740.8662891895551
 30
0.0
 11
1612.253680090798
 21
731.8662891895551
 31
0.0
  0
LINE
  5
75E
330
17
100
AcDbEntity
  8
4
100
AcDbLine
 10
1637.183854090798
 20
733.8662871895551
 30
0.0
 11
1647.753676090798
 21
733.8662871895551
 31
0.0
  0
LINE
  5
75F
330
17
100
AcDbEntity
  8
4
100
AcDbLine
 10
1636.939468090798
 20
740.8662891895551
 30
0.0
 11
1637.253676090798
 21
731.8662891895551
 31
0.0
  0
LINE
  5
760
330
17
100
AcDbEntity
  8
4
100
AcDbLine
 10
1644.672136090798
 20
739.4329371895551
 30
0.0
 11
1644.672136090798
 21
737.8662891895551
 31
0.0
  0
LINE
  5
761
330
17
100
AcDbEntity
  8
4
100
AcDbLine
 10
1642.753678090798
 20
737.8662891895551
 30
0.0
 11
1647.753676090798
 21
737.8662891895551
 31
0.0
  0
LINE
  5
762
330
17
100
AcDbEntity
  8
4
100
AcDbLine
 10
1647.753676090798
 20
733.8662871895551
 30
0.0
 11
1647.753676090798
 21
737.8662891895551
 31
0.0
  0
LINE
  5
763
330
17
100
AcDbEntity
  8
4
100
AcDbLine
 10
1646.753680090798
 20
733.8662871895551
 30
0.0
 11
1646.753680090798
 21
731.8662891895551
 31
0.0
  0
LINE
  5
764
330
17
100
AcDbEntity
  8
4
100
AcDbLine
 10
1671.753676090798
 20
731.8662891895551
 30
0.0
 11
1671.753676090798
 21
729.8662851895551
 31
0.0
  0
ARC
  5
765
330
17
100
AcDbEntity
  8
4
100
AcDbCircle
 10
1727.753680090798
 20
727.8662871895551
 30
0.0
 40
1.999998
100
AcDbArc
 50
0.0
 51
90.0
  0
LINE
  5
766
330
17
100
AcDbEntity
  8
4
100
AcDbLine
 10
1729.753678090798
 20
723.8662851895551
 30
0.0
 11
1732.753678090798
 21
723.8662851895551
 31
0.0
  0
LINE
  5
769
330
17
100
AcDbEntity
  8
4
100
AcDbLine
 10
1768.223158090798
 20
674.0293731895551
 30
0.0
 11
1757.752702090798
 21
674.030351189555
 31
0.0
  0
LINE
  5
76A
330
17
100
AcDbEntity
  8
4
100
AcDbLine
 10
1768.225354090798
 20
698.0293731895551
 30
0.0
 11
1757.754898090798
 21
698.030351189555
 31
0.0
  0
LINE
  5
76B
330
17
100
AcDbEntity
  8
4
100
AcDbLine
 10
1760.253676090798
 20
686.0301051895551
 30
0.0
 11
1757.753920090798
 21
688.5303531895552
 31
0.0
  0
LINE
  5
76C
330
17
100
AcDbEntity
  8
4
100
AcDbLine
 10
1760.253676090798
 20
683.5301091895551
 30
0.0
 11
1757.753680090798
 21
686.030351189555
 31
0.0
  0
LINE
  5
76D
330
17
100
AcDbEntity
  8
4
100
AcDbLine
 10
1757.754898090798
 20
698.030351189555
 30
0.0
 11
1757.752702090798
 21
674.030351189555
 31
0.0
  0
LINE
  5
76E
330
17
100
AcDbEntity
  8
4
100
AcDbLine
 10
1760.253190090798
 20
680.0301051895551
 30
0.0
 11
1768.223650090798
 21
680.0293731895551
 31
0.0
  0
LINE
  5
76F
330
17
100
AcDbEntity
  8
4
100
AcDbLine
 10
1760.254408090798
 20
692.0301051895551
 30
0.0
 11
1768.224868090798
 21
692.0293731895551
 31
0.0
  0
LINE
  5
770
330
17
100
AcDbEntity
  8
4
100
AcDbLine
 10
1760.254900090798
 20
698.0301051895551
 30
0.0
 11
1760.252698090798
 21
674.0301051895551
 31
0.0
  0
LINE
  5
771
330
17
100
AcDbEntity
  8
4
100
AcDbLine
 10
1760.253190090798
 20
680.0301051895551
 30
0.0
 11
1760.254408090798
 21
692.0301051895551
 31
0.0
  0
ARC
  5
772
330
17
100
AcDbEntity
  8
4
100
AcDbCircle
 10
1751.253676090798
 20
686.0308371895551
 30
0.0
 40
18.000018
100
AcDbArc
 50
340.5237549999997
 51
19.46615799999971
  0
ARC
  5
773
330
17
100
AcDbEntity
  8
4
100
AcDbCircle
 10
1764.669202090798
 20
677.0296191895552
 30
0.0
 40
4.583598
100
AcDbArc
 50
319.1123719999998
 51
40.87702699999949
  0
ARC
  5
774
330
17
100
AcDbEntity
  8
4
100
AcDbCircle
 10
1764.670912090798
 20
695.0296191895552
 30
0.0
 40
4.583598
100
AcDbArc
 50
319.1123719999998
 51
40.87702699999949
  0
LINE
  5
775
330
17
100
AcDbEntity
  8
4
100
AcDbLine
 10
1769.254654090798
 20
695.0293731895551
 30
0.0
 11
1769.252944090798
 21
677.0293731895551
 31
0.0
  0
ARC
  5
776
330
17
100
AcDbEntity
  8
4
100
AcDbCircle
 10
1755.753676090798
 20
721.8662871895551
 30
0.0
 40
1.999998
100
AcDbArc
 50
0.0
 51
90.0
  0
LINE
  5
78F
330
17
100
AcDbEntity
  8
4
100
AcDbLine
 10
601.2466928728563
 20
604.8662911895549
 30
0.0
 11
601.2466928728563
 21
648.8662911895549
 31
0.0
  0
CIRCLE
  5
790
330
17
100
AcDbEntity
  8
4
100
AcDbCircle
 10
586.2466928728563
 20
617.8662911895553
 30
0.0
 40
5.0
  0
LINE
  5
791
330
17
100
AcDbEntity
  8
4
100
AcDbLine
 10
551.2466928728559
 20
614.8662911895549
 30
0.0
 11
551.2466928728563
 21
638.8662911895549
 31
0.0
  0
LINE
  5
792
330
17
100
AcDbEntity
  8
4
100
AcDbLine
 10
536.2466928728559
 20
611.8662911895549
 30
0.0
 11
536.2466928728559
 21
641.8662911895549
 31
0.0
  0
LINE
  5
793
330
17
100
AcDbEntity
  8
4
100
AcDbLine
 10
546.2466928728559
 20
614.8662911895549
 30
0.0
 11
546.2466928728563
 21
638.8662911895549
 31
0.0
  0
LINE
  5
794
330
17
100
AcDbEntity
  8
4
100
AcDbLine
 10
531.2466928728559
 20
606.8662911895549
 30
0.0
 11
531.2466928728559
 21
646.8662911895549
 31
0.0
  0
ARC
  5
795
330
17
100
AcDbEntity
  8
4
100
AcDbCircle
 10
586.2466928728563
 20
617.8662911895553
 30
0.0
 40
11.0
100
AcDbArc
 50
113.9534516247513
 51
66.04654837524868
  0
LINE
  5
796
330
17
100
AcDbEntity
  8
4
100
AcDbLine
 10
501.2466928728563
 20
604.8662911895549
 30
0.0
 11
501.2466928728563
 21
648.8662911895549
 31
0.0
  0
LINE
  5
797
330
17
100
AcDbEntity
  8
4
100
AcDbLine
 10
506.2466928728559
 20
606.8662911895549
 30
0.0
 11
506.2466928728559
 21
646.8662911895549
 31
0.0
  0
LINE
  5
798
330
17
100
AcDbEntity
  8
4
100
AcDbLine
 10
511.2466928728563
 20
611.8662911895549
 30
0.0
 11
511.2466928728563
 21
646.8662911895549
 31
0.0
  0
LINE
  5
799
330
17
100
AcDbEntity
  8
4
100
AcDbLine
 10
504.2466928728563
 20
601.8662911895549
 30
0.0
 11
598.2466928728563
 21
601.8662911895549
 31
0.0
  0
ARC
  5
79A
330
17
100
AcDbEntity
  8
4
100
AcDbCircle
 10
543.2466928728559
 20
614.8662911895549
 30
0.0
 40
8.0
100
AcDbArc
 50
270.0
 51
0.0
  0
ARC
  5
79B
330
17
100
AcDbEntity
  8
4
100
AcDbCircle
 10
543.2466928728559
 20
614.8662911895549
 30
0.0
 40
3.0
100
AcDbArc
 50
270.0000000000021
 51
0.0
  0
LINE
  5
79C
330
17
100
AcDbEntity
  8
4
100
AcDbLine
 10
536.2466928728559
 20
611.8662911895549
 30
0.0
 11
543.2466928728559
 21
611.8662911895549
 31
0.0
  0
LINE
  5
79D
330
17
100
AcDbEntity
  8
4
100
AcDbLine
 10
531.2466928728559
 20
606.8662911895549
 30
0.0
 11
543.2466928728559
 21
606.8662911895549
 31
0.0
  0
LINE
  5
79E
330
17
100
AcDbEntity
  8
4
100
AcDbLine
 10
506.2466928728559
 20
606.8662911895549
 30
0.0
 11
526.2466928728559
 21
606.8662911895549
 31
0.0
  0
LINE
  5
79F
330
17
100
AcDbEntity
  8
4
100
AcDbLine
 10
511.2466928728563
 20
611.8662911895549
 30
0.0
 11
526.2466928728559
 21
611.8662911895549
 31
0.0
  0
ARC
  5
7A0
330
17
100
AcDbEntity
  8
4
100
AcDbCircle
 10
504.2466928728563
 20
604.8662911895549
 30
0.0
 40
3.0
100
AcDbArc
 50
180.0
 51
270.0
  0
LINE
  5
7A1
330
17
100
AcDbEntity
  8
4
100
AcDbLine
 10
526.2466928728559
 20
606.8662911895549
 30
0.0
 11
526.2466928728559
 21
611.8662911895549
 31
0.0
  0
ARC
  5
7A2
330
17
100
AcDbEntity
  8
4
100
AcDbCircle
 10
598.2466928728563
 20
604.8662911895549
 30
0.0
 40
3.0
100
AcDbArc
 50
270.0
 51
0.0
  0
ARC
  5
7A3
330
17
100
AcDbEntity
  8
4
100
AcDbCircle
 10
543.2466928728563
 20
638.8662911895549
 30
0.0
 40
8.0
100
AcDbArc
 50
0.0
 51
90.0
  0
LINE
  5
7A4
330
17
100
AcDbEntity
  8
4
100
AcDbLine
 10
504.2466928728563
 20
651.8662911895549
 30
0.0
 11
598.2466928728563
 21
651.8662911895549
 31
0.0
  0
ARC
  5
7A5
330
17
100
AcDbEntity
  8
4
100
AcDbCircle
 10
543.2466928728563
 20
638.8662911895549
 30
0.0
 40
3.0
100
AcDbArc
 50
0.0
 51
90.0
  0
LINE
  5
7A6
330
17
100
AcDbEntity
  8
4
100
AcDbLine
 10
536.2466928728559
 20
641.8662911895549
 30
0.0
 11
543.2466928728563
 21
641.8662911895549
 31
0.0
  0
LINE
  5
7A7
330
17
100
AcDbEntity
  8
4
100
AcDbLine
 10
531.2466928728559
 20
646.8662911895549
 30
0.0
 11
543.2466928728563
 21
646.8662911895549
 31
0.0
  0
LINE
  5
7A8
330
17
100
AcDbEntity
  8
4
100
AcDbLine
 10
506.2466928728559
 20
646.8662911895549
 30
0.0
 11
511.2466928728563
 21
646.8662911895549
 31
0.0
  0
ARC
  5
7A9
330
17
100
AcDbEntity
  8
4
100
AcDbCircle
 10
504.2466928728563
 20
648.8662911895549
 30
0.0
 40
3.0
100
AcDbArc
 50
90.0
 51
180.0
  0
ARC
  5
7AA
330
17
100
AcDbEntity
  8
4
100
AcDbCircle
 10
598.2466928728563
 20
648.8662911895549
 30
0.0
 40
3.0
100
AcDbArc
 50
0.0
 51
90.0
  0
LINE
  5
7AB
330
17
100
AcDbEntity
  8
4
100
AcDbLine
 10
571.2466928728563
 20
624.3662911895549
 30
0.0
 11
571.2466928728563
 21
629.3662911895549
 31
0.0
  0
LINE
  5
7AC
330
17
100
AcDbEntity
  8
4
100
AcDbLine
 10
556.2466928728563
 20
624.3662911895549
 30
0.0
 11
556.2466928728563
 21
629.3662911895549
 31
0.0
  0
LINE
  5
7AD
330
17
100
AcDbEntity
  8
4
100
AcDbLine
 10
556.2466928728563
 20
629.3662911895549
 30
0.0
 11
571.2466928728563
 21
629.3662911895549
 31
0.0
  0
LINE
  5
7AE
330
17
100
AcDbEntity
  8
4
100
AcDbLine
 10
556.2466928728563
 20
624.3662911895549
 30
0.0
 11
571.2466928728563
 21
624.3662911895549
 31
0.0
  0
CIRCLE
  5
7AF
330
17
100
AcDbEntity
  8
4
100
AcDbCircle
 10
586.2466928728563
 20
636.8662911895549
 30
0.0
 40
5.0
  0
ARC
  5
7B0
330
17
100
AcDbEntity
  8
4
100
AcDbCircle
 10
586.2466928728563
 20
636.8662911895549
 30
0.0
 40
10.0
100
AcDbArc
 50
296.5253520166134
 51
243.4746479833866
  0
ARC
  5
7B1
330
17
100
AcDbEntity
  8
4
100
AcDbCircle
 10
904.9630789437965
 20
274.4927453435334
 30
0.0
 40
3.783613929059507
100
AcDbArc
 50
319.5701031551734
 51
40.42989684482659
  0
LINE
  5
7B2
330
17
100
AcDbEntity
  8
4
100
AcDbLine
 10
901.7466928728559
 20
257.3165748351425
 30
0.0
 11
901.7466928728559
 21
276.9464839875895
 31
0.0
  0
LINE
  5
7B3
330
17
100
AcDbEntity
  8
4
100
AcDbLine
 10
899.2466928728559
 20
257.3165748351425
 30
0.0
 11
899.2466928728559
 21
276.9464839875895
 31
0.0
  0
LINE
  5
7B4
330
17
100
AcDbEntity
  8
4
100
AcDbLine
 10
907.8431659270032
 20
272.0390066994773
 30
0.0
 11
901.7466928728559
 21
272.0390066994773
 31
0.0
  0
ARC
  5
7B5
330
17
100
AcDbEntity
  8
4
100
AcDbCircle
 10
894.9675275753966
 20
267.131529411366
 30
0.0
 40
13.77916529745958
100
AcDbArc
 50
339.1359356360799
 51
20.86406436392003
  0
LINE
  5
7B6
330
17
100
AcDbEntity
  8
4
100
AcDbLine
 10
908.7466928728559
 20
274.4927453435334
 30
0.0
 11
908.7466928728559
 21
259.7703134791977
 31
0.0
  0
ARC
  5
7B7
330
17
100
AcDbEntity
  8
4
100
AcDbCircle
 10
904.9630789437965
 20
259.7703134791977
 30
0.0
 40
3.783613929059507
100
AcDbArc
 50
319.5701031551734
 51
40.42989684482659
  0
LINE
  5
7B8
330
17
100
AcDbEntity
  8
4
100
AcDbLine
 10
907.8431659270032
 20
262.2240521232538
 30
0.0
 11
901.7466928728559
 21
262.2240521232538
 31
0.0
  0
LINE
  5
7B9
330
17
100
AcDbEntity
  8
4
100
AcDbLine
 10
899.2466928728559
 20
276.9464839875895
 30
0.0
 11
907.8431659270032
 21
276.9464839875895
 31
0.0
  0
LINE
  5
7BA
330
17
100
AcDbEntity
  8
4
100
AcDbLine
 10
907.8431659270032
 20
257.3165748351425
 30
0.0
 11
899.2466928728559
 21
257.3165748351425
 31
0.0
  0
LINE
  5
7BB
330
17
100
AcDbEntity
  8
L-CENTER
100
AcDbLine
 10
867.27405542516
 20
267.131529411366
 30
0.0
 11
911.6146711274364
 21
267.131529411366
 31
0.0
  0
LINE
  5
7BC
330
17
100
AcDbEntity
  8
L-CENTER
100
AcDbLine
 10
867.27405542516
 20
164.6010489677442
 30
0.0
 11
911.6146711274364
 21
164.6010489677442
 31
0.0
  0
LINE
  5
7BD
330
17
100
AcDbEntity
  8
4
100
AcDbLine
 10
899.2466928728559
 20
154.7860943915207
 30
0.0
 11
907.8431659270032
 21
154.7860943915207
 31
0.0
  0
LINE
  5
7BE
330
17
100
AcDbEntity
  8
4
100
AcDbLine
 10
907.8431659270032
 20
169.5085262558564
 30
0.0
 11
901.7466928728559
 21
169.5085262558564
 31
0.0
  0
LINE
  5
7BF
330
17
100
AcDbEntity
  8
4
100
AcDbLine
 10
907.8431659270032
 20
159.6935716796329
 30
0.0
 11
901.7466928728559
 21
159.6935716796329
 31
0.0
  0
LINE
  5
7C0
330
17
100
AcDbEntity
  8
4
100
AcDbLine
 10
908.7466928728559
 20
157.2398330355768
 30
0.0
 11
908.7466928728559
 21
171.9622648999125
 31
0.0
  0
ARC
  5
7C1
330
17
100
AcDbEntity
  8
4
100
AcDbCircle
 10
894.9675275753966
 20
164.6010489677442
 30
0.0
 40
13.77916529745958
100
AcDbArc
 50
339.1359356360799
 51
20.86406436392003
  0
ARC
  5
7C2
330
17
100
AcDbEntity
  8
4
100
AcDbCircle
 10
904.9630789437965
 20
157.2398330355768
 30
0.0
 40
3.783613929059507
100
AcDbArc
 50
319.5701031551734
 51
40.42989684482659
  0
LINE
  5
7C3
330
17
100
AcDbEntity
  8
4
100
AcDbLine
 10
907.8431659270032
 20
174.4160035439677
 30
0.0
 11
899.2466928728559
 21
174.4160035439677
 31
0.0
  0
LINE
  5
7C4
330
17
100
AcDbEntity
  8
4
100
AcDbLine
 10
901.7466928728559
 20
174.4160035439677
 30
0.0
 11
901.7466928728559
 21
154.7860943915207
 31
0.0
  0
ARC
  5
7C5
330
17
100
AcDbEntity
  8
4
100
AcDbCircle
 10
904.9630789437965
 20
171.9622648999125
 30
0.0
 40
3.783613929059507
100
AcDbArc
 50
319.5701031551734
 51
40.42989684482659
  0
LINE
  5
7C6
330
17
100
AcDbEntity
  8
L-CENTER
100
AcDbLine
 10
235.2193303205518
 20
267.131529411366
 30
0.0
 11
190.8787146182754
 21
267.131529411366
 31
0.0
  0
LINE
  5
7C7
330
17
100
AcDbEntity
  8
4
100
AcDbLine
 10
194.6502198187086
 20
257.3165748351425
 30
0.0
 11
203.2466928728559
 21
257.3165748351425
 31
0.0
  0
LINE
  5
7C8
330
17
100
AcDbEntity
  8
4
100
AcDbLine
 10
203.2466928728559
 20
276.9464839875895
 30
0.0
 11
194.6502198187086
 21
276.9464839875895
 31
0.0
  0
LINE
  5
7C9
330
17
100
AcDbEntity
  8
4
100
AcDbLine
 10
194.6502198187086
 20
262.2240521232538
 30
0.0
 11
200.7466928728559
 21
262.2240521232538
 31
0.0
  0
LINE
  5
7CA
330
17
100
AcDbEntity
  8
4
100
AcDbLine
 10
194.6502198187086
 20
272.0390066994773
 30
0.0
 11
200.7466928728559
 21
272.0390066994773
 31
0.0
  0
LINE
  5
7CB
330
17
100
AcDbEntity
  8
4
100
AcDbLine
 10
203.2466928728559
 20
257.3165748351425
 30
0.0
 11
203.2466928728559
 21
276.9464839875895
 31
0.0
  0
LINE
  5
7CC
330
17
100
AcDbEntity
  8
4
100
AcDbLine
 10
200.7466928728559
 20
257.3165748351425
 30
0.0
 11
200.7466928728559
 21
276.9464839875895
 31
0.0
  0
ARC
  5
7CD
330
17
100
AcDbEntity
  8
4
100
AcDbCircle
 10
197.5303068019152
 20
259.7703134791977
 30
0.0
 40
3.783613929059507
100
AcDbArc
 50
139.5701031551729
 51
220.4298968448271
  0
LINE
  5
7CE
330
17
100
AcDbEntity
  8
4
100
AcDbLine
 10
193.7466928728559
 20
274.4927453435334
 30
0.0
 11
193.7466928728559
 21
259.7703134791977
 31
0.0
  0
ARC
  5
7CF
330
17
100
AcDbEntity
  8
4
100
AcDbCircle
 10
207.5258581703151
 20
267.131529411366
 30
0.0
 40
13.77916529745958
100
AcDbArc
 50
159.1359356360801
 51
200.8640643639199
  0
ARC
  5
7D0
330
17
100
AcDbEntity
  8
4
100
AcDbCircle
 10
197.5303068019152
 20
274.4927453435334
 30
0.0
 40
3.783613929059507
100
AcDbArc
 50
139.5701031551729
 51
220.4298968448271
  0
LINE
  5
7D1
330
17
100
AcDbEntity
  8
4
100
AcDbLine
 10
194.6502198187086
 20
174.4160035439677
 30
0.0
 11
203.2466928728559
 21
174.4160035439677
 31
0.0
  0
LINE
  5
7D2
330
17
100
AcDbEntity
  8
4
100
AcDbLine
 10
194.6502198187086
 20
159.6935716796329
 30
0.0
 11
200.7466928728559
 21
159.6935716796329
 31
0.0
  0
LINE
  5
7D3
330
17
100
AcDbEntity
  8
4
100
AcDbLine
 10
194.6502198187086
 20
169.5085262558564
 30
0.0
 11
200.7466928728559
 21
169.5085262558564
 31
0.0
  0
LINE
  5
7D4
330
17
100
AcDbEntity
  8
4
100
AcDbLine
 10
203.2466928728559
 20
154.7860943915207
 30
0.0
 11
194.6502198187086
 21
154.7860943915207
 31
0.0
  0
LINE
  5
7D5
330
17
100
AcDbEntity
  8
L-CENTER
100
AcDbLine
 10
235.2193303205518
 20
164.6010489677442
 30
0.0
 11
190.8787146182754
 21
164.6010489677442
 31
0.0
  0
LINE
  5
7D6
330
17
100
AcDbEntity
  8
4
100
AcDbLine
 10
200.7466928728559
 20
174.4160035439677
 30
0.0
 11
200.7466928728559
 21
154.7860943915207
 31
0.0
  0
ARC
  5
7D7
330
17
100
AcDbEntity
  8
4
100
AcDbCircle
 10
197.5303068019152
 20
171.9622648999125
 30
0.0
 40
3.783613929059507
100
AcDbArc
 50
139.5701031551729
 51
220.4298968448271
  0
ARC
  5
7D8
330
17
100
AcDbEntity
  8
4
100
AcDbCircle
 10
197.5303068019152
 20
157.2398330355768
 30
0.0
 40
3.783613929059507
100
AcDbArc
 50
139.5701031551729
 51
220.4298968448271
  0
ARC
  5
7D9
330
17
100
AcDbEntity
  8
4
100
AcDbCircle
 10
207.5258581703151
 20
164.6010489677442
 30
0.0
 40
13.77916529745958
100
AcDbArc
 50
159.1359356360801
 51
200.8640643639199
  0
LINE
  5
7DA
330
17
100
AcDbEntity
  8
4
100
AcDbLine
 10
193.7466928728559
 20
157.2398330355768
 30
0.0
 11
193.7466928728559
 21
171.9622648999125
 31
0.0
  0
LINE
  5
944
330
17
100
AcDbEntity
  8
L-CENTER
100
AcDbLine
 10
1750.333971071987
 20
328.1581607581999
 30
0.0
 11
1796.333973071987
 21
328.1545007581999
 31
0.0
  0
LINE
  5
945
330
17
100
AcDbEntity
  8
L-CENTER
100
AcDbLine
 10
1750.334136143591
 20
362.8356483420696
 30
0.0
 11
1796.334138143591
 21
362.8319883420695
 31
0.0
  0
LINE
  5
946
330
17
100
AcDbEntity
  8
L-CENTER
100
AcDbLine
 10
1750.334136143591
 20
468.9015663420694
 30
0.0
 11
1796.334138143591
 21
468.8979063420695
 31
0.0
  0
LINE
  5
947
330
17
100
AcDbEntity
  8
L-CENTER
100
AcDbLine
 10
1499.173343037972
 20
468.8959536252116
 30
0.0
 11
1453.173341037972
 21
468.8996136252115
 31
0.0
  0
LINE
  5
948
330
17
100
AcDbEntity
  8
L-CENTER
100
AcDbLine
 10
1499.173301037972
 20
362.830035631895
 30
0.0
 11
1453.173299037972
 21
362.8336956318949
 31
0.0
  0
LINE
  5
949
330
17
100
AcDbEntity
  8
L-CENTER
100
AcDbLine
 10
1499.173343037972
 20
328.1525436252118
 30
0.0
 11
1453.173341037972
 21
328.1562036252117
 31
0.0
  0
LINE
  5
969
330
17
100
AcDbEntity
  8
4
100
AcDbLine
 10
1291.753678090798
 20
451.8662871895538
 30
0.0
 11
1441.753678090798
 21
451.8662871895542
 31
0.0
  0
LINE
  5
96A
330
17
100
AcDbEntity
  8
4
100
AcDbLine
 10
1292.753680090798
 20
353.8662891895538
 30
0.0
 11
1451.753680090798
 21
353.8662891895542
 31
0.0
  0
LINE
  5
96B
330
17
100
AcDbEntity
  8
4
100
AcDbLine
 10
1292.753680090798
 20
443.8662891895538
 30
0.0
 11
1451.753680090798
 21
443.8662891895542
 31
0.0
  0
LINE
  5
96C
330
17
100
AcDbEntity
  8
4
100
AcDbLine
 10
1451.753680090798
 20
351.3662871895542
 30
0.0
 11
1451.753680090798
 21
446.3662911895542
 31
0.0
  0
LINE
  5
96D
330
17
100
AcDbEntity
  8
4
100
AcDbLine
 10
1466.253676090799
 20
372.8333331895544
 30
0.0
 11
1466.253676090798
 21
458.8992471895544
 31
0.0
  0
LINE
  5
96E
330
17
100
AcDbEntity
  8
4
100
AcDbLine
 10
1466.253676090799
 20
351.3662871895544
 30
0.0
 11
1451.753680090798
 21
351.3662871895542
 31
0.0
  0
LINE
  5
96F
330
17
100
AcDbEntity
  8
4
100
AcDbLine
 10
1466.253676090798
 20
446.3662911895544
 30
0.0
 11
1451.753680090798
 21
446.3662911895542
 31
0.0
  0
LINE
  5
970
330
17
100
AcDbEntity
  8
4
100
AcDbLine
 10
1441.753678090798
 20
451.8662871895542
 30
0.0
 11
1441.753678090798
 21
443.8662891895542
 31
0.0
  0
LINE
  5
971
330
17
100
AcDbEntity
  8
4
100
AcDbLine
 10
1291.753678090799
 20
354.8662911895537
 30
0.0
 11
1291.753678090798
 21
451.8662871895538
 31
0.0
  0
LINE
  5
972
330
17
100
AcDbEntity
  8
4
100
AcDbLine
 10
1292.753680090798
 20
443.8662891895538
 30
0.0
 11
1292.753680090798
 21
353.8662891895538
 31
0.0
  0
LINE
  5
973
330
17
100
AcDbEntity
  8
4
100
AcDbLine
 10
1291.753678090799
 20
354.8662911895537
 30
0.0
 11
1292.753680090798
 21
353.8662891895538
 31
0.0
  0
LINE
  5
976
330
17
100
AcDbEntity
  8
4
100
AcDbLine
 10
1291.753678090798
 20
442.8662871895538
 30
0.0
 11
1292.753680090798
 21
443.8662891895538
 31
0.0
  0
CIRCLE
  5
9C2
330
17
100
AcDbEntity
  8
4
100
AcDbCircle
 10
551.2466928728559
 20
121.8662931895551
 30
0.0
 40
9.331054
  0
ARC
  5
9C3
330
17
100
AcDbEntity
  8
4
100
AcDbCircle
 10
905.2471809437961
 20
1364.960603306948
 30
0.0
 40
3.783613929059507
100
AcDbArc
 50
319.5701031551782
 51
40.42989684481911
  0
ENDSEC
  0
SECTION
  2
OBJECTS
  0
DICTIONARY
  5
5
330
0
100
AcDbDictionary
281
     1
  3
ACAD_COLOR
350
29
  3
ACAD_GROUP
350
27
  3
ACAD_LAYOUT
350
1E
  3
ACAD_MATERIAL
350
7
  3
ACAD_MLEADERSTYLE
350
94D
  3
ACAD_MLINESTYLE
350
15
  3
ACAD_PLOTSETTINGS
350
28
  3
ACAD_PLOTSTYLENAME
350
4
  3
ACAD_SCALELIST
350
2D
  3
ACAD_VISUALSTYLE
350
2A
  3
ACDBHEADERROUNDTRIPXREC
350
9C7
  3
AcDbVariableDictionary
350
94A
  3
DWGPROPS
350
9CA
  0
DICTIONARY
  5
9CB
330
26
100
AcDbDictionary
280
     1
281
     1
  3
ACAD_XREC_ROUNDTRIP
360
9CC
  0
DICTIONARY
  5
22C
330
22B
100
AcDbDictionary
280
     1
281
     1
  3
ADSK_XREC_LAYER_RECONCILED
360
22D
  0
DICTIONARY
  5
18
330
17
100
AcDbDictionary
280
     1
281
     1
  3
ACAD_SORTENTS
360
19
  0
DICTIONARY
  5
29
102
{ACAD_REACTORS
330
5
102
}
330
5
100
AcDbDictionary
281
     1
  0
DICTIONARY
  5
27
102
{ACAD_REACTORS
330
5
102
}
330
5
100
AcDbDictionary
281
     1
  0
DICTIONARY
  5
1E
102
{ACAD_REACTORS
330
5
102
}
330
5
100
AcDbDictionary
281
     1
  3
Model
350
1D
  3
ﾚｲｱｳﾄ1
350
23
  0
DICTIONARY
  5
7
102
{ACAD_REACTORS
330
5
102
}
330
5
100
AcDbDictionary
281
     1
  3
ByBlock
350
50
  3
ByLayer
350
10
  3
Global
350
6
  0
DICTIONARY
  5
94D
102
{ACAD_REACTORS
330
5
102
}
330
5
100
AcDbDictionary
281
     1
  3
Standard
350
9BD
  0
DICTIONARY
  5
15
102
{ACAD_REACTORS
330
5
102
}
330
5
100
AcDbDictionary
281
     1
  3
STANDARD
350
14
  0
DICTIONARY
  5
28
102
{ACAD_REACTORS
330
5
102
}
330
5
100
AcDbDictionary
281
     1
  0
ACDBDICTIONARYWDFLT
  5
4
102
{ACAD_REACTORS
330
5
102
}
330
5
100
AcDbDictionary
281
     1
  3
Normal
350
3
100
AcDbDictionaryWithDefault
340
3
  0
DICTIONARY
  5
2D
102
{ACAD_REACTORS
330
5
102
}
330
5
100
AcDbDictionary
281
     1
  3
*A1
350
4F
  0
DICTIONARY
  5
2A
102
{ACAD_REACTORS
330
5
102
}
330
5
100
AcDbDictionary
281
     1
  3
2dWireframe
350
955
  3
Basic
350
958
  3
Brighten
350
95C
  3
ColorChange
350
960
  3
Conceptual
350
95A
  3
Dim
350
95B
  3
EdgeColorOff
350
963
  3
Facepattern
350
95F
  3
Flat
350
951
  3
FlatWithEdges
350
952
  3
Gouraud
350
953
  3
GouraudWithEdges
350
954
  3
Hidden
350
957
  3
JitterOff
350
961
  3
Linepattern
350
95E
  3
OverhangOff
350
962
  3
Realistic
350
959
  3
Shaded
350
968
  3
Shaded with edges
350
967
  3
Shades of Gray
350
964
  3
Sketchy
350
965
  3
Thicken
350
95D
  3
Wireframe
350
956
  3
X-Ray
350
966
  0
DICTIONARY
  5
9C7
102
{ACAD_REACTORS
330
5
102
}
330
5
100
AcDbDictionary
281
     1
  3
COLORDICT
350
9C8
  3
MATERIALDICT
350
9C9
  0
DICTIONARY
  5
94A
102
{ACAD_REACTORS
330
5
102
}
330
5
100
AcDbDictionary
281
     1
  3
CANNOSCALE
350
94B
  3
CMLEADERSTYLE
350
9C1
  3
DIMASSOC
350
9C5
  3
HIDETEXT
350
9C6
  3
MSLTSCALE
350
9CD
  3
XCLIPFRAME
350
94E
  0
XRECORD
  5
9CA
102
{ACAD_REACTORS
330
5
102
}
330
5
100
AcDbXrecord
280
     1
  1
DWGPROPS COOKIE
  2

  3

  4

  6

  7

  8
sg-d03
  9

300
=
301
=
302
=
303
=
304
=
305
=
306
=
307
=
308
=
309
=
 40
0.0
 41
2457310.337184016
 42
2458114.164265891
  1

 90
        0
  0
XRECORD
  5
9CC
102
{ACAD_REACTORS
330
9CB
102
}
330
9CB
100
AcDbXrecord
280
     1
102
VTR_0.000_0.000_1.000_1.000_GRIDDISPLAY
 70
     3
102
VTR_0.000_0.000_1.000_1.000_GRIDMAJOR
 70
     5
102
VTR_0.000_0.000_1.000_1.000_DEFAULTLIGHTING
280
     1
102
VTR_0.000_0.000_1.000_1.000_DEFAULTLIGHTINGTYPE
 70
     1
102
VTR_0.000_0.000_1.000_1.000_BRIGHTNESS
141
0.0
102
VTR_0.000_0.000_1.000_1.000_CONTRAST
142
0.0
  0
XRECORD
  5
22D
102
{ACAD_REACTORS
330
22C
102
}
330
22C
100
AcDbXrecord
280
     1
290
     1
  0
SORTENTSTABLE
  5
19
102
{ACAD_REACTORS
330
18
102
}
330
18
100
AcDbSortentsTable
330
17
331
0
  5
263
331
51
  5
3EA
331
53
  5
3E9
331
54
  5
3E8
331
55
  5
3E7
331
56
  5
3E6
331
57
  5
3E5
331
58
  5
3E4
331
5B
  5
3E3
331
5C
  5
3E2
331
5D
  5
3E1
331
5E
  5
3E0
331
5F
  5
3DF
331
60
  5
3DE
331
61
  5
3DD
331
62
  5
3DC
331
63
  5
3DB
331
64
  5
3DA
331
65
  5
3D9
331
66
  5
3D8
331
67
  5
3D7
331
68
  5
3D6
331
69
  5
3D5
331
6A
  5
3D4
331
6B
  5
3D3
331
6C
  5
3D2
331
6D
  5
3D1
331
6E
  5
3D0
331
6F
  5
3CF
331
70
  5
3CE
331
71
  5
3CD
331
72
  5
3CC
331
73
  5
3CB
331
74
  5
3CA
331
75
  5
3C9
331
76
  5
3C8
331
77
  5
3C7
331
78
  5
3C6
331
79
  5
3C5
331
7A
  5
3C4
331
7B
  5
3C3
331
7C
  5
3C2
331
7D
  5
3C1
331
7E
  5
3C0
331
7F
  5
3BF
331
80
  5
3BE
331
81
  5
3BD
331
82
  5
3BC
331
83
  5
3BB
331
84
  5
3BA
331
85
  5
3B9
331
86
  5
3B8
331
87
  5
3B7
331
88
  5
3B6
331
89
  5
3B5
331
8A
  5
3B4
331
8B
  5
3B3
331
8C
  5
3B2
331
8D
  5
3B1
331
8E
  5
3B0
331
8F
  5
3AF
331
90
  5
3AE
331
91
  5
3AD
331
92
  5
3AC
331
93
  5
3AB
331
94
  5
3AA
331
95
  5
3A9
331
96
  5
3A8
331
97
  5
3A7
331
98
  5
3A6
331
99
  5
3A5
331
9A
  5
3A4
331
9B
  5
3A3
331
9C
  5
3A2
331
9D
  5
3A1
331
9E
  5
3A0
331
9F
  5
39F
331
A0
  5
39E
331
A1
  5
39D
331
A2
  5
39C
331
A3
  5
39B
331
A4
  5
39A
331
A5
  5
399
331
A6
  5
398
331
A7
  5
397
331
A8
  5
396
331
A9
  5
395
331
AA
  5
394
331
AB
  5
393
331
AC
  5
392
331
AD
  5
391
331
AE
  5
390
331
AF
  5
38F
331
B0
  5
38E
331
B1
  5
38D
331
B2
  5
38C
331
B3
  5
38B
331
B4
  5
38A
331
B5
  5
389
331
B6
  5
388
331
B7
  5
387
331
B8
  5
386
331
B9
  5
385
331
BA
  5
384
331
BB
  5
383
331
BC
  5
382
331
BD
  5
381
331
BE
  5
380
331
BF
  5
37F
331
C0
  5
37E
331
C1
  5
37D
331
C2
  5
37C
331
C3
  5
37B
331
C4
  5
37A
331
C5
  5
379
331
C6
  5
378
331
C7
  5
377
331
C8
  5
376
331
C9
  5
375
331
CA
  5
374
331
CB
  5
373
331
CC
  5
372
331
CD
  5
371
331
CE
  5
370
331
CF
  5
36F
331
D0
  5
36E
331
D1
  5
36D
331
D2
  5
36C
331
D3
  5
36B
331
D4
  5
36A
331
D5
  5
369
331
D6
  5
368
331
D7
  5
367
331
D8
  5
366
331
D9
  5
365
331
DA
  5
364
331
DB
  5
363
331
DC
  5
362
331
DD
  5
361
331
DE
  5
360
331
DF
  5
35F
331
E0
  5
35E
331
E1
  5
35D
331
E2
  5
35C
331
E3
  5
35B
331
E4
  5
35A
331
E5
  5
359
331
E6
  5
358
331
E7
  5
357
331
E8
  5
356
331
E9
  5
355
331
EA
  5
354
331
EB
  5
353
331
EC
  5
352
331
ED
  5
351
331
EE
  5
350
331
EF
  5
34F
331
F0
  5
34E
331
F1
  5
34D
331
F2
  5
34C
331
F3
  5
34B
331
F4
  5
34A
331
F5
  5
349
331
F6
  5
348
331
F7
  5
347
331
F8
  5
346
331
F9
  5
345
331
FA
  5
344
331
FB
  5
343
331
FC
  5
342
331
FD
  5
341
331
FE
  5
340
331
FF
  5
33F
331
100
  5
33E
331
101
  5
33D
331
102
  5
33C
331
103
  5
33B
331
104
  5
33A
331
105
  5
339
331
106
  5
338
331
107
  5
337
331
108
  5
336
331
109
  5
335
331
10A
  5
334
331
10B
  5
333
331
10C
  5
332
331
10D
  5
331
331
10E
  5
330
331
10F
  5
32F
331
110
  5
32E
331
111
  5
32D
331
112
  5
32C
331
113
  5
32B
331
114
  5
32A
331
115
  5
329
331
116
  5
328
331
117
  5
327
331
118
  5
326
331
119
  5
325
331
11A
  5
324
331
11B
  5
323
331
11C
  5
322
331
11D
  5
321
331
11E
  5
320
331
11F
  5
31F
331
120
  5
31E
331
121
  5
31D
331
122
  5
31C
331
123
  5
31B
331
124
  5
31A
331
125
  5
319
331
126
  5
318
331
127
  5
317
331
128
  5
316
331
129
  5
315
331
12A
  5
314
331
12B
  5
313
331
12C
  5
312
331
12D
  5
311
331
12E
  5
310
331
12F
  5
30F
331
130
  5
30E
331
131
  5
30D
331
132
  5
30C
331
133
  5
30B
331
134
  5
30A
331
135
  5
309
331
136
  5
308
331
137
  5
307
331
138
  5
306
331
139
  5
305
331
13A
  5
304
331
13B
  5
303
331
13C
  5
302
331
13D
  5
301
331
13E
  5
300
331
13F
  5
2FF
331
140
  5
2FE
331
141
  5
2FD
331
142
  5
2FC
331
143
  5
2FB
331
144
  5
2FA
331
145
  5
2F9
331
146
  5
2F8
331
147
  5
2F7
331
148
  5
2F6
331
149
  5
2F5
331
14A
  5
2F4
331
14B
  5
2F3
331
14C
  5
2F2
331
14D
  5
2F1
331
14E
  5
2F0
331
14F
  5
2EF
331
150
  5
2EE
331
151
  5
2ED
331
152
  5
2EC
331
153
  5
2EB
331
154
  5
2EA
331
155
  5
2E9
331
156
  5
2E8
331
157
  5
2E7
331
158
  5
2E6
331
159
  5
2E5
331
15A
  5
2E4
331
15B
  5
2E3
331
15C
  5
2E2
331
15D
  5
2E1
331
15E
  5
2E0
331
15F
  5
2DF
331
160
  5
2DE
331
161
  5
2DD
331
162
  5
2DC
331
163
  5
2DB
331
164
  5
2DA
331
165
  5
2D9
331
166
  5
2D8
331
167
  5
2D7
331
168
  5
2D6
331
169
  5
2D5
331
16A
  5
2D4
331
16B
  5
2D3
331
16C
  5
2D2
331
16D
  5
2D1
331
16E
  5
2D0
331
16F
  5
2CF
331
170
  5
2CE
331
171
  5
2CD
331
172
  5
2CC
331
173
  5
2CB
331
174
  5
2CA
331
175
  5
2C9
331
176
  5
2C8
331
177
  5
2C7
331
178
  5
2C6
331
179
  5
2C5
331
17A
  5
2C4
331
17B
  5
2C3
331
17C
  5
2C2
331
17D
  5
2C1
331
17E
  5
2C0
331
17F
  5
2BF
331
180
  5
2BE
331
181
  5
2BD
331
182
  5
2BC
331
183
  5
2BB
331
184
  5
2BA
331
185
  5
2B9
331
186
  5
2B8
331
187
  5
2B7
331
188
  5
2B6
331
189
  5
2B5
331
18A
  5
2B4
331
18B
  5
2B3
331
18C
  5
2B2
331
18D
  5
2B1
331
18E
  5
2B0
331
18F
  5
2AF
331
190
  5
2AE
331
191
  5
2AD
331
192
  5
2AC
331
193
  5
2AB
331
194
  5
2AA
331
195
  5
2A9
331
196
  5
2A8
331
197
  5
2A7
331
198
  5
2A6
331
199
  5
2A5
331
19A
  5
2A4
331
19B
  5
2A3
331
19C
  5
2A2
331
19D
  5
2A1
331
19E
  5
2A0
331
19F
  5
29F
331
1A0
  5
29E
331
1A1
  5
29D
331
1A2
  5
29C
331
1A3
  5
29B
331
1A4
  5
29A
331
1A5
  5
299
331
1A6
  5
298
331
1A7
  5
297
331
1A8
  5
296
331
1A9
  5
295
331
1AA
  5
294
331
1AB
  5
293
331
1AC
  5
292
331
1AD
  5
291
331
1AE
  5
290
331
1AF
  5
28F
331
1B0
  5
28E
331
1B1
  5
28D
331
1B2
  5
28C
331
1B3
  5
28B
331
1B4
  5
28A
331
1B5
  5
289
331
1B6
  5
287
331
1B7
  5
286
331
1B8
  5
285
331
1B9
  5
284
331
1BA
  5
283
331
1BB
  5
282
331
1BC
  5
281
331
1BD
  5
280
331
1BE
  5
27F
331
1BF
  5
27E
331
1C0
  5
27D
331
1C1
  5
27C
331
1C2
  5
27B
331
1C3
  5
27A
331
1C4
  5
279
331
1C5
  5
278
331
1C6
  5
277
331
1C7
  5
276
331
1C8
  5
275
331
1C9
  5
274
331
1CA
  5
273
331
1CB
  5
272
331
1CC
  5
271
331
1CD
  5
270
331
1CE
  5
26F
331
1CF
  5
26E
331
1D0
  5
26D
331
1D1
  5
26C
331
1D2
  5
26B
331
1D3
  5
26A
331
1D4
  5
269
331
1D5
  5
268
331
1D6
  5
267
331
1D7
  5
266
331
1D8
  5
265
331
1D9
  5
264
331
511
  5
512
331
533
  5
534
331
537
  5
538
331
539
  5
53A
331
541
  5
542
331
542
  5
543
331
543
  5
544
331
544
  5
546
331
545
  5
547
331
546
  5
548
331
547
  5
549
331
548
  5
54A
331
549
  5
54B
331
54A
  5
54C
331
54B
  5
54D
331
54C
  5
54E
331
54D
  5
54F
331
54E
  5
550
331
550
  5
552
331
551
  5
553
331
552
  5
554
331
553
  5
555
331
554
  5
556
331
555
  5
557
331
556
  5
558
331
557
  5
559
331
558
  5
55A
331
559
  5
55B
331
55A
  5
55C
331
55B
  5
55D
331
55C
  5
55E
331
55D
  5
55F
331
55E
  5
560
331
55F
  5
561
331
560
  5
562
331
561
  5
563
331
562
  5
564
331
563
  5
565
331
564
  5
566
331
565
  5
567
331
569
  5
56B
331
56D
  5
56F
331
56E
  5
570
331
56F
  5
571
331
570
  5
572
331
571
  5
573
331
572
  5
574
331
573
  5
575
331
574
  5
576
331
575
  5
577
331
576
  5
578
331
577
  5
579
331
579
  5
57B
331
57A
  5
57C
331
57B
  5
57D
331
57C
  5
57E
331
57D
  5
580
331
57E
  5
581
331
57F
  5
582
331
580
  5
583
331
581
  5
584
331
582
  5
585
331
583
  5
586
331
584
  5
587
331
585
  5
588
331
586
  5
589
331
587
  5
58A
331
588
  5
58B
331
589
  5
58C
331
58A
  5
58D
331
58B
  5
58E
331
58C
  5
58F
331
58D
  5
590
331
58E
  5
591
331
58F
  5
592
331
590
  5
593
331
591
  5
594
331
592
  5
595
331
593
  5
596
331
594
  5
597
331
595
  5
598
331
596
  5
599
331
597
  5
59A
331
598
  5
59B
331
599
  5
59C
331
59A
  5
59D
331
59B
  5
59E
331
59C
  5
59F
331
59D
  5
5A0
331
59E
  5
5A1
331
59F
  5
5A2
331
5A0
  5
5A3
331
5A1
  5
5A4
331
5A2
  5
5A5
331
5A3
  5
5A6
331
5A4
  5
5A7
331
5A5
  5
5A8
331
5A6
  5
5A9
331
5A7
  5
5AA
331
5A8
  5
5AB
331
5A9
  5
5AC
331
5AA
  5
5AD
331
5AB
  5
5AE
331
5AC
  5
5AF
331
5AD
  5
5B0
331
5AE
  5
5B1
331
5AF
  5
5B2
331
5B2
  5
5B5
331
5B3
  5
5B6
331
5B4
  5
5B7
331
5B5
  5
5B8
331
5B6
  5
5B9
331
5B7
  5
5BA
331
5B8
  5
5BB
331
5B9
  5
5BC
331
5BA
  5
5BD
331
5BB
  5
5BE
331
5BC
  5
5BF
331
5BD
  5
5C0
331
5BE
  5
5C1
331
5BF
  5
5C2
331
5C0
  5
5C3
331
5C1
  5
5C4
331
5C4
  5
5C7
331
5C5
  5
5C8
331
5C6
  5
5C9
331
5C7
  5
5CA
331
5C8
  5
5CB
331
5C9
  5
5CC
331
5CA
  5
5CD
331
5CB
  5
5CE
331
5CC
  5
5CF
331
5CD
  5
5D0
331
5CE
  5
5D1
331
5CF
  5
5D2
331
5D0
  5
5D3
331
5D1
  5
5D4
331
5D2
  5
5D5
331
5D3
  5
5D6
331
5D7
  5
5DA
331
5D8
  5
5DB
331
5D9
  5
5DC
331
5DC
  5
5DF
331
5DD
  5
5E0
331
5DE
  5
5E1
331
5E0
  5
5E3
331
5E1
  5
5E4
331
5E2
  5
5E5
331
5E3
  5
5E6
331
5E4
  5
5E7
331
5E5
  5
5E8
331
5E6
  5
5E9
331
5E7
  5
5EA
331
5E8
  5
5EB
331
5E9
  5
5EC
331
5EA
  5
5ED
331
5EB
  5
5EE
331
5EC
  5
5EF
331
5ED
  5
5F0
331
5EE
  5
5F1
331
5EF
  5
5F2
331
5F0
  5
5F3
331
5F2
  5
5F5
331
5F3
  5
5F6
331
5F4
  5
5F7
331
5F5
  5
5F8
331
5F6
  5
5F9
331
5F9
  5
5FC
331
5FA
  5
5FD
331
5FB
  5
5FE
331
5FC
  5
5FF
331
606
  5
609
331
607
  5
60A
331
608
  5
60B
331
609
  5
60C
331
60C
  5
60F
331
60D
  5
610
331
60E
  5
611
331
60F
  5
612
331
610
  5
613
331
611
  5
614
331
612
  5
615
331
613
  5
616
331
614
  5
617
331
619
  5
61C
331
61A
  5
61D
331
61B
  5
61E
331
61C
  5
61F
331
61D
  5
620
331
61E
  5
621
331
61F
  5
622
331
620
  5
623
331
625
  5
628
331
62A
  5
62D
331
62B
  5
62E
331
62C
  5
62F
331
62D
  5
630
331
62E
  5
631
331
62F
  5
632
331
630
  5
636
331
631
  5
637
331
636
  5
639
331
638
  5
641
331
64F
  5
657
331
655
  5
658
331
656
  5
659
331
657
  5
65A
331
658
  5
65B
331
659
  5
65E
331
65A
  5
65F
331
65B
  5
660
331
65E
  5
661
331
65F
  5
662
331
660
  5
663
331
661
  5
664
331
662
  5
665
331
663
  5
666
331
664
  5
667
331
665
  5
668
331
666
  5
669
331
667
  5
66A
331
668
  5
66B
331
669
  5
66C
331
66A
  5
66D
331
66B
  5
673
331
66C
  5
674
331
66D
  5
675
331
673
  5
676
331
674
  5
677
331
675
  5
678
331
676
  5
679
331
677
  5
67A
331
678
  5
67B
331
679
  5
67C
331
67A
  5
67D
331
67B
  5
67E
331
67C
  5
67F
331
67D
  5
680
331
67E
  5
681
331
67F
  5
682
331
680
  5
683
331
681
  5
684
331
682
  5
685
331
683
  5
686
331
684
  5
687
331
685
  5
688
331
686
  5
689
331
687
  5
68A
331
688
  5
68B
331
689
  5
68C
331
68A
  5
68D
331
68B
  5
68E
331
68C
  5
68F
331
68D
  5
690
331
68E
  5
691
331
68F
  5
692
331
690
  5
693
331
691
  5
694
331
692
  5
695
331
693
  5
696
331
694
  5
697
331
695
  5
698
331
696
  5
699
331
697
  5
69A
331
698
  5
69B
331
699
  5
69C
331
69A
  5
69D
331
69B
  5
69E
331
69C
  5
69F
331
69D
  5
6A0
331
69E
  5
6A1
331
69F
  5
6A2
331
6A0
  5
6A3
331
6A1
  5
6A4
331
6A2
  5
6A5
331
6A3
  5
6A6
331
6A4
  5
6A7
331
6A5
  5
6A8
331
6A6
  5
6A9
331
6A7
  5
6AA
331
6A8
  5
6AB
331
6A9
  5
6B1
331
6AA
  5
6B2
331
6AB
  5
6B3
331
6B1
  5
6B4
331
6B2
  5
6B5
331
6B3
  5
6B6
331
6B4
  5
6B7
331
6B5
  5
6B8
331
6B6
  5
6B9
331
6B7
  5
6BA
331
6B8
  5
6BB
331
6B9
  5
6BC
331
6BA
  5
6BD
331
6BB
  5
6BE
331
6BC
  5
6BF
331
6BD
  5
6C0
331
6BE
  5
6C1
331
6BF
  5
6C2
331
6C0
  5
6C3
331
6C1
  5
6C6
331
6C2
  5
6C7
331
6C3
  5
6C8
331
6C7
  5
6CA
331
6C8
  5
6CB
331
6C9
  5
6CC
331
6CA
  5
6CD
331
6CB
  5
6CE
331
6CC
  5
6CF
331
6CD
  5
6D0
331
6CE
  5
6D1
331
6CF
  5
6D2
331
6D0
  5
6D3
331
6D1
  5
6D4
331
6D2
  5
6D5
331
6D3
  5
6D6
331
6D4
  5
6D7
331
6D5
  5
6D8
331
6D6
  5
6D9
331
6D7
  5
6DA
331
6D8
  5
6DB
331
6D9
  5
6DC
331
6DA
  5
6DD
331
6DB
  5
6DE
331
6DC
  5
6DF
331
6DD
  5
6E0
331
6DE
  5
6E1
331
6DF
  5
6E2
331
6E0
  5
6E3
331
6E1
  5
6E4
331
6E2
  5
6E5
331
6E3
  5
6E6
331
6E4
  5
6E7
331
6E5
  5
6E8
331
6E6
  5
6E9
331
6E7
  5
6EA
331
6E8
  5
6EB
331
6E9
  5
6EC
331
6EA
  5
6ED
331
6EC
  5
6EF
331
6EF
  5
6F2
331
6F0
  5
6F3
331
6F1
  5
6F4
331
6F2
  5
6F5
331
6F3
  5
6F6
331
6F4
  5
6F7
331
6F5
  5
6F8
331
6F6
  5
6F9
331
6F7
  5
6FA
331
6F8
  5
6FB
331
6F9
  5
6FC
331
6FA
  5
6FD
331
6FB
  5
6FE
331
6FC
  5
6FF
331
6FD
  5
700
331
6FE
  5
701
331
6FF
  5
702
331
700
  5
703
331
701
  5
704
331
702
  5
705
331
703
  5
706
331
704
  5
708
331
705
  5
709
331
706
  5
70A
331
708
  5
70B
331
709
  5
70C
331
70A
  5
70D
331
70B
  5
70E
331
70C
  5
70F
331
70D
  5
710
331
70E
  5
711
331
70F
  5
712
331
710
  5
713
331
711
  5
714
331
712
  5
715
331
713
  5
716
331
714
  5
717
331
715
  5
718
331
716
  5
719
331
717
  5
71A
331
718
  5
71B
331
719
  5
71C
331
71E
  5
721
331
71F
  5
723
331
720
  5
724
331
721
  5
725
331
723
  5
726
331
724
  5
727
331
725
  5
72A
331
726
  5
72B
331
727
  5
72C
331
72A
  5
72D
331
72B
  5
72E
331
72C
  5
72F
331
72D
  5
730
331
72E
  5
731
331
72F
  5
732
331
730
  5
733
331
731
  5
734
331
732
  5
735
331
733
  5
736
331
734
  5
737
331
735
  5
738
331
736
  5
739
331
737
  5
73A
331
738
  5
73B
331
739
  5
73C
331
73A
  5
73E
331
73B
  5
73F
331
73C
  5
741
331
73E
  5
746
331
73F
  5
747
331
741
  5
748
331
746
  5
749
331
747
  5
74A
331
748
  5
74B
331
749
  5
74C
331
74A
  5
74D
331
74B
  5
74E
331
74C
  5
74F
331
74D
  5
750
331
74E
  5
751
331
74F
  5
752
331
750
  5
753
331
751
  5
754
331
752
  5
755
331
753
  5
756
331
754
  5
757
331
755
  5
758
331
756
  5
759
331
757
  5
75A
331
758
  5
75B
331
759
  5
75C
331
75A
  5
75D
331
75B
  5
75E
331
75C
  5
75F
331
75D
  5
760
331
75E
  5
761
331
75F
  5
762
331
760
  5
763
331
761
  5
764
331
762
  5
765
331
763
  5
766
331
764
  5
769
331
765
  5
76A
331
766
  5
76B
331
769
  5
76C
331
76A
  5
76D
331
76B
  5
76E
331
76C
  5
76F
331
76D
  5
770
331
76E
  5
771
331
76F
  5
772
331
770
  5
773
331
771
  5
774
331
772
  5
775
331
773
  5
776
331
774
  5
780
331
775
  5
78F
331
776
  5
790
331
78F
  5
792
331
790
  5
793
331
791
  5
794
331
792
  5
795
331
793
  5
796
331
794
  5
797
331
795
  5
798
331
796
  5
799
331
797
  5
79A
331
798
  5
79B
331
799
  5
79C
331
79A
  5
79D
331
79B
  5
79E
331
79C
  5
79F
331
79D
  5
7A0
331
79E
  5
7A1
331
79F
  5
7A2
331
7A0
  5
7A3
331
7A1
  5
7A4
331
7A2
  5
7A5
331
7A3
  5
7A6
331
7A4
  5
7A7
331
7A5
  5
7A8
331
7A6
  5
7A9
331
7A7
  5
7AA
331
7A8
  5
7AB
331
7A9
  5
7AC
331
7AA
  5
7AD
331
7AB
  5
7AE
331
7AC
  5
7AF
331
7AD
  5
7B0
331
7AE
  5
7B1
331
7AF
  5
7B2
331
7B0
  5
7B3
331
7B1
  5
7B4
331
7B2
  5
7B5
331
7B3
  5
7B6
331
7B4
  5
7B7
331
7B5
  5
7B8
331
7B6
  5
7B9
331
7B7
  5
7BA
331
7B8
  5
7BB
331
7B9
  5
7BC
331
7BA
  5
7BD
331
7BB
  5
7BE
331
7BC
  5
7BF
331
7BD
  5
7C0
331
7BE
  5
7C1
331
7BF
  5
7C2
331
7C0
  5
7C3
331
7C1
  5
7C4
331
7C2
  5
7C5
331
7C3
  5
7C6
331
7C4
  5
7C7
331
7C5
  5
7C8
331
7C6
  5
7C9
331
7C7
  5
7CA
331
7C8
  5
7CB
331
7C9
  5
7CC
331
7CA
  5
7CD
331
7CB
  5
7CE
331
7CC
  5
7CF
331
7CD
  5
7D0
331
7CE
  5
7D1
331
7CF
  5
7D2
331
7D0
  5
7D3
331
7D1
  5
7D4
331
7D2
  5
7D5
331
7D3
  5
7D6
331
7D4
  5
7D7
331
7D5
  5
7D8
331
7D6
  5
7D9
331
7D7
  5
7DA
331
7D8
  5
7DB
331
7D9
  5
7DC
331
7DA
  5
7DD
331
0
  5
868
331
944
  5
947
331
945
  5
948
331
946
  5
949
331
947
  5
969
331
948
  5
96A
331
949
  5
96B
331
969
  5
96C
331
96A
  5
96D
331
96B
  5
96E
331
96C
  5
96F
331
96D
  5
970
331
96E
  5
971
331
96F
  5
972
331
970
  5
973
331
971
  5
974
331
972
  5
975
331
973
  5
976
331
976
  5
97E
331
9C2
  5
57F
  0
LAYOUT
  5
1D
102
{ACAD_REACTORS
330
1E
102
}
330
1E
100
AcDbPlotSettings
  1

  2
Bullzip PDF Printer.pc3
  4
A3
  6

 40
0.2
 41
0.0
 42
0.0
 43
0.0
 44
420.2
 45
297.1
 46
25.0
 47
12.0
 48
119.9999998100002
 49
0.0
140
2411.99999456
141
1634.999996185
142
1.0
143
6.0
 70
 11936
 72
     1
 73
     0
 74
     4
  7
monochrome.ctb
 75
     0
147
0.1666666666666667
148
-119.9999998100002
149
0.0
100
AcDbLayout
  1
Model
 70
     0
 71
     0
 10
0.0
 20
0.0
 11
12.0
 21
9.0
 12
0.0
 22
0.0
 32
0.0
 14
190.8787146182754
 24
22.43091277375731
 34
0.0
 15
1819.753678090798
 25
1563.056579017305
 35
0.0
146
0.0
 13
0.0
 23
0.0
 33
0.0
 16
1.0
 26
0.0
 36
0.0
 17
0.0
 27
1.0
 37
0.0
 76
     0
330
17
331
2B
1001
ACAD_PSEXT
1000
Bullzip PDF Printer.pc3
1000
Bullzip PDF Printer
1000
BULLZIP
1000
Bullzip PDF Printer 10.1.0.1871
1070
     0
  0
LAYOUT
  5
23
102
{ACAD_REACTORS
330
1E
102
}
330
1E
100
AcDbPlotSettings
  1

  2
SR-LP8300F
  4

  6

 40
0.0
 41
0.0
 42
0.0
 43
0.0
 44
0.0
 45
0.0
 46
0.0
 47
0.0
 48
0.0
 49
0.0
140
0.0
141
0.0
142
1.0
143
1.0
 70
   688
 72
     0
 73
     0
 74
     5
  7
monochrome.ctb
 75
    16
147
1.0
148
0.0
149
0.0
100
AcDbLayout
  1
ﾚｲｱｳﾄ1
 70
     0
 71
     1
 10
0.0
 20
0.0
 11
12.0
 21
9.0
 12
0.0
 22
0.0
 32
0.0
 14
1000000000000000E+20
 24
1000000000000000E+20
 34
1000000000000000E+20
 15
-1000000000000000E+20
 25
-1000000000000000E+20
 35
-1000000000000000E+20
146
0.0
 13
0.0
 23
0.0
 33
0.0
 16
1.0
 26
0.0
 36
0.0
 17
0.0
 27
1.0
 37
0.0
 76
     0
330
20
  0
MATERIAL
  5
50
102
{ACAD_REACTORS
330
7
102
}
102
{ACAD_XDICTIONARY
360
9D2
102
}
330
7
100
AcDbMaterial
  1
ByBlock
  0
MATERIAL
  5
10
102
{ACAD_REACTORS
330
7
102
}
102
{ACAD_XDICTIONARY
360
9CE
102
}
330
7
100
AcDbMaterial
  1
ByLayer
  0
MATERIAL
  5
6
102
{ACAD_REACTORS
330
7
102
}
102
{ACAD_XDICTIONARY
360
9D0
102
}
330
7
100
AcDbMaterial
  1
Global
1001
ACAD
1070
    -1
1070
     3
1070
     0
1000

1071
        0
  0
MLEADERSTYLE
  5
9BD
102
{ACAD_REACTORS
330
94D
102
}
102
{ACAD_XDICTIONARY
360
A04
102
}
330
94D
100
AcDbMLeaderStyle
170
     2
171
     1
172
     0
 90
        2
 40
0.0
 41
0.0
173
     1
 91
-1056964608
340
D
 92
       -2
290
     1
 42
0.09
291
     1
 43
0.36
  3
Standard
341
0
 44
0.18
300

342
E
174
     1
178
     6
175
     1
176
     0
 93
-1056964608
 45
0.18
292
     0
297
     0
 46
0.18
343
0
 94
-1056964608
 47
1.0
 49
1.0
140
1.0
293
     1
141
0.0
294
     1
177
     0
142
1.0
295
     0
296
     0
143
0.125
1001
ACAD_MLEADERVER
1070
     2
  0
MLINESTYLE
  5
14
102
{ACAD_REACTORS
330
15
102
}
330
15
100
AcDbMlineStyle
  2
STANDARD
 70
     0
  3

 62
     0
 51
90.0
 52
90.0
 71
     2
 49
0.5
 62
   256
  6
BYLAYER
 49
-0.5
 62
   256
  6
BYLAYER
  0
ACDBPLACEHOLDER
  5
3
102
{ACAD_REACTORS
330
4
102
}
330
4
  0
SCALE
  5
4F
102
{ACAD_REACTORS
330
2D
102
}
330
2D
100
AcDbScale
 70
     0
300
1:1
140
1.0
141
1.0
290
     1
  0
VISUALSTYLE
  5
955
102
{ACAD_REACTORS
330
2A
102
}
102
{ACAD_XDICTIONARY
360
9DC
102
}
330
2A
100
AcDbVisualStyle
  2
2dWireframe
 70
     4
 71
     0
 72
     2
 73
     0
 90
        0
 40
0.6
 41
30.0
 62
     5
 63
     7
 74
     1
 91
        4
 64
     7
 65
   257
 75
     1
175
     1
 42
1.0
 92
        0
 66
   257
 43
1.0
 76
     1
 77
     6
 78
     2
 67
     7
 79
     5
170
     0
171
     0
290
     0
174
     0
 93
        1
 44
0.0
173
     0
291
     0
 45
0.0
1001
ACAD
1000
AcDbSavedByObjectVersion
1070
     0
  0
VISUALSTYLE
  5
958
102
{ACAD_REACTORS
330
2A
102
}
102
{ACAD_XDICTIONARY
360
9E2
102
}
330
2A
100
AcDbVisualStyle
  2
Basic
 70
     7
 71
     1
 72
     0
 73
     1
 90
        0
 40
0.6
 41
30.0
 62
     5
 63
     7
 74
     0
 91
        4
 64
     7
 65
   257
 75
     1
175
     1
 42
1.0
 92
        8
 66
     7
 43
1.0
 76
     1
 77
     6
 78
     2
 67
     7
 79
     5
170
     0
171
     0
290
     0
174
     0
 93
        1
 44
0.0
173
     0
291
     1
 45
0.0
1001
ACAD
1000
AcDbSavedByObjectVersion
1070
     0
  0
VISUALSTYLE
  5
95C
102
{ACAD_REACTORS
330
2A
102
}
102
{ACAD_XDICTIONARY
360
9EA
102
}
330
2A
100
AcDbVisualStyle
  2
Brighten
 70
    12
 71
     2
 72
     2
 73
     0
 90
        0
 40
0.6
 41
30.0
 62
     5
 63
     7
 74
     1
 91
        4
 64
     7
 65
   257
 75
     1
175
     1
 42
1.0
 92
        8
 66
     7
 43
1.0
 76
     1
 77
     6
 78
     2
 67
     7
 79
     5
170
     0
171
     0
290
     0
174
     0
 93
        1
 44
50.0
173
     0
291
     1
 45
0.0
1001
ACAD
1000
AcDbSavedByObjectVersion
1070
     0
  0
VISUALSTYLE
  5
960
102
{ACAD_REACTORS
330
2A
102
}
102
{ACAD_XDICTIONARY
360
9F2
102
}
330
2A
100
AcDbVisualStyle
  2
ColorChange
 70
    16
 71
     2
 72
     2
 73
     3
 90
        0
 40
0.6
 41
30.0
 62
     5
 63
     8
 74
     1
 91
        4
 64
     7
 65
   257
 75
     1
175
     1
 42
1.0
 92
        8
 66
     8
 43
1.0
 76
     1
 77
     6
 78
     2
 67
     7
 79
     5
170
     0
171
     0
290
     0
174
     0
 93
        1
 44
0.0
173
     0
291
     1
 45
0.0
1001
ACAD
1000
AcDbSavedByObjectVersion
1070
     0
  0
VISUALSTYLE
  5
95A
102
{ACAD_REACTORS
330
2A
102
}
102
{ACAD_XDICTIONARY
360
9E6
102
}
330
2A
100
AcDbVisualStyle
  2
Conceptual
 70
     9
 71
     3
 72
     2
 73
     0
 90
        0
 40
0.6
 41
30.0
 62
     5
 63
     7
 74
     2
 91
        2
 64
     7
 65
   257
 75
     1
175
     1
 42
40.0
 92
        8
 66
     7
 43
1.0
 76
     1
 77
     6
 78
     2
 67
     7
 79
     3
170
     0
171
     0
290
     0
174
     0
 93
        1
 44
0.0
173
     0
291
     0
 45
0.0
1001
ACAD
1000
AcDbSavedByObjectVersion
1070
     0
  0
VISUALSTYLE
  5
95B
102
{ACAD_REACTORS
330
2A
102
}
102
{ACAD_XDICTIONARY
360
9E8
102
}
330
2A
100
AcDbVisualStyle
  2
Dim
 70
    11
 71
     2
 72
     2
 73
     0
 90
        0
 40
0.6
 41
30.0
 62
     5
 63
     7
 74
     1
 91
        4
 64
     7
 65
   257
 75
     1
175
     1
 42
1.0
 92
        8
 66
     7
 43
1.0
 76
     1
 77
     6
 78
     2
 67
     7
 79
     5
170
     0
171
     0
290
     0
174
     0
 93
        1
 44
-50.0
173
     0
291
     1
 45
0.0
1001
ACAD
1000
AcDbSavedByObjectVersion
1070
     0
  0
VISUALSTYLE
  5
963
102
{ACAD_REACTORS
330
2A
102
}
102
{ACAD_XDICTIONARY
360
9F8
102
}
330
2A
100
AcDbVisualStyle
  2
EdgeColorOff
 70
    22
 71
     2
 72
     2
 73
     0
 90
        0
 40
0.6
 41
30.0
 62
     5
 63
     7
 74
     1
 91
        4
 64
     7
 65
   257
 75
     1
175
     1
 42
1.0
 92
        8
 66
     7
 43
1.0
 76
     1
 77
     6
 78
     2
 67
     7
 79
     5
170
     0
171
     0
290
     0
174
     0
 93
        1
 44
0.0
173
     0
291
     1
 45
0.0
1001
ACAD
1000
AcDbSavedByObjectVersion
1070
     0
  0
VISUALSTYLE
  5
95F
102
{ACAD_REACTORS
330
2A
102
}
102
{ACAD_XDICTIONARY
360
9F0
102
}
330
2A
100
AcDbVisualStyle
  2
Facepattern
 70
    15
 71
     2
 72
     2
 73
     0
 90
        0
 40
0.6
 41
30.0
 62
     5
 63
     7
 74
     1
 91
        4
 64
     7
 65
   257
 75
     1
175
     1
 42
1.0
 92
        8
 66
     7
 43
1.0
 76
     1
 77
     6
 78
     2
 67
     7
 79
     5
170
     0
171
     0
290
     0
174
     0
 93
        1
 44
0.0
173
     0
291
     1
 45
0.0
1001
ACAD
1000
AcDbSavedByObjectVersion
1070
     0
  0
VISUALSTYLE
  5
951
102
{ACAD_REACTORS
330
2A
102
}
102
{ACAD_XDICTIONARY
360
9D4
102
}
330
2A
100
AcDbVisualStyle
  2
Flat
 70
     0
 71
     2
 72
     1
 73
     1
 90
        2
 40
0.6
 41
30.0
 62
     5
 63
     7
 74
     0
 91
        4
 64
     7
 65
   257
 75
     1
175
     1
 42
1.0
 92
        8
 66
     7
 43
1.0
 76
     1
 77
     6
 78
     2
 67
     7
 79
     5
170
     0
171
     0
290
     0
174
     0
 93
       13
 44
0.0
173
     0
291
     1
 45
0.0
1001
ACAD
1000
AcDbSavedByObjectVersion
1070
     0
  0
VISUALSTYLE
  5
952
102
{ACAD_REACTORS
330
2A
102
}
102
{ACAD_XDICTIONARY
360
9D6
102
}
330
2A
100
AcDbVisualStyle
  2
FlatWithEdges
 70
     1
 71
     2
 72
     1
 73
     1
 90
        2
 40
0.6
 41
30.0
 62
     5
 63
     7
 74
     1
 91
        4
 64
     7
 65
   257
 75
     1
175
     1
 42
1.0
 92
        0
 66
   257
 43
1.0
 76
     1
 77
     6
 78
     2
 67
     7
 79
     5
170
     0
171
     0
290
     0
174
     0
 93
       13
 44
0.0
173
     0
291
     1
 45
0.0
1001
ACAD
1000
AcDbSavedByObjectVersion
1070
     0
  0
VISUALSTYLE
  5
953
102
{ACAD_REACTORS
330
2A
102
}
102
{ACAD_XDICTIONARY
360
9D8
102
}
330
2A
100
AcDbVisualStyle
  2
Gouraud
 70
     2
 71
     2
 72
     2
 73
     1
 90
        2
 40
0.6
 41
30.0
 62
     5
 63
     7
 74
     0
 91
        4
 64
     7
 65
   257
 75
     1
175
     1
 42
1.0
 92
        0
 66
     7
 43
1.0
 76
     1
 77
     6
 78
     2
 67
     7
 79
     5
170
     0
171
     0
290
     0
174
     0
 93
       13
 44
0.0
173
     0
291
     1
 45
0.0
1001
ACAD
1000
AcDbSavedByObjectVersion
1070
     0
  0
VISUALSTYLE
  5
954
102
{ACAD_REACTORS
330
2A
102
}
102
{ACAD_XDICTIONARY
360
9DA
102
}
330
2A
100
AcDbVisualStyle
  2
GouraudWithEdges
 70
     3
 71
     2
 72
     2
 73
     1
 90
        2
 40
0.6
 41
30.0
 62
     5
 63
     7
 74
     1
 91
        4
 64
     7
 65
   257
 75
     1
175
     1
 42
1.0
 92
        0
 66
   257
 43
1.0
 76
     1
 77
     6
 78
     2
 67
     7
 79
     5
170
     0
171
     0
290
     0
174
     0
 93
       13
 44
0.0
173
     0
291
     1
 45
0.0
1001
ACAD
1000
AcDbSavedByObjectVersion
1070
     0
  0
VISUALSTYLE
  5
957
102
{ACAD_REACTORS
330
2A
102
}
102
{ACAD_XDICTIONARY
360
9E0
102
}
330
2A
100
AcDbVisualStyle
  2
Hidden
 70
     6
 71
     1
 72
     2
 73
     2
 90
        0
 40
0.6
 41
30.0
 62
     5
 63
     7
 74
     2
 91
        2
 64
     7
 65
   257
 75
     2
175
     1
 42
40.0
 92
        0
 66
   257
 43
1.0
 76
     1
 77
     6
 78
     2
 67
     7
 79
     3
170
     0
171
     0
290
     0
174
     0
 93
        1
 44
0.0
173
     0
291
     0
 45
0.0
1001
ACAD
1000
AcDbSavedByObjectVersion
1070
     0
  0
VISUALSTYLE
  5
961
102
{ACAD_REACTORS
330
2A
102
}
102
{ACAD_XDICTIONARY
360
9F4
102
}
330
2A
100
AcDbVisualStyle
  2
JitterOff
 70
    20
 71
     2
 72
     2
 73
     0
 90
        0
 40
0.6
 41
30.0
 62
     5
 63
     7
 74
     1
 91
        4
 64
     7
 65
   257
 75
     1
175
     1
 42
1.0
 92
       10
 66
     7
 43
1.0
 76
     1
 77
     6
 78
     2
 67
     7
 79
     5
170
     0
171
     0
290
     0
174
     0
 93
        1
 44
0.0
173
     0
291
     1
 45
0.0
1001
ACAD
1000
AcDbSavedByObjectVersion
1070
     0
  0
VISUALSTYLE
  5
95E
102
{ACAD_REACTORS
330
2A
102
}
102
{ACAD_XDICTIONARY
360
9EE
102
}
330
2A
100
AcDbVisualStyle
  2
Linepattern
 70
    14
 71
     2
 72
     2
 73
     0
 90
        0
 40
0.6
 41
30.0
 62
     5
 63
     7
 74
     1
 91
        4
 64
     7
 65
   257
 75
     7
175
     7
 42
1.0
 92
        8
 66
     7
 43
1.0
 76
     1
 77
     6
 78
     2
 67
     7
 79
     5
170
     0
171
     0
290
     0
174
     0
 93
        1
 44
0.0
173
     0
291
     1
 45
0.0
1001
ACAD
1000
AcDbSavedByObjectVersion
1070
     0
  0
VISUALSTYLE
  5
962
102
{ACAD_REACTORS
330
2A
102
}
102
{ACAD_XDICTIONARY
360
9F6
102
}
330
2A
100
AcDbVisualStyle
  2
OverhangOff
 70
    21
 71
     2
 72
     2
 73
     0
 90
        0
 40
0.6
 41
30.0
 62
     5
 63
     7
 74
     1
 91
        4
 64
     7
 65
   257
 75
     1
175
     1
 42
1.0
 92
        9
 66
     7
 43
1.0
 76
     1
 77
     6
 78
     2
 67
     7
 79
     5
170
     0
171
     0
290
     0
174
     0
 93
        1
 44
0.0
173
     0
291
     1
 45
0.0
1001
ACAD
1000
AcDbSavedByObjectVersion
1070
     0
  0
VISUALSTYLE
  5
959
102
{ACAD_REACTORS
330
2A
102
}
102
{ACAD_XDICTIONARY
360
9E4
102
}
330
2A
100
AcDbVisualStyle
  2
Realistic
 70
     8
 71
     2
 72
     3
 73
     0
 90
        2
 40
0.6
 41
30.0
 62
     5
 63
     7
 74
     0
 91
        0
 64
     7
 65
   257
 75
     1
175
     1
 42
1.0
 92
        8
 66
   257
 43
1.0
 76
     1
 77
     6
 78
     2
 67
     7
 79
     3
170
     0
171
     0
290
     0
174
     0
 93
       13
 44
0.0
173
     0
291
     0
 45
0.0
1001
ACAD
1000
AcDbSavedByObjectVersion
1070
     0
  0
VISUALSTYLE
  5
968
102
{ACAD_REACTORS
330
2A
102
}
102
{ACAD_XDICTIONARY
360
A02
102
}
330
2A
100
AcDbVisualStyle
  2
Shaded
 70
    27
 71
     2
 72
     2
 73
     1
 90
        2
 40
0.6
 41
30.0
 62
     5
 63
     7
 74
     0
 91
        4
 64
     7
 65
   257
 75
     1
175
     1
 42
1.0
 92
        8
 66
   257
 43
1.0
 76
     1
 77
     6
 78
     2
 67
   251
 79
     3
170
     0
171
     0
290
     0
174
     0
 93
        5
 44
0.0
173
     0
291
     0
 45
0.0
1001
ACAD
1000
AcDbSavedByObjectVersion
1070
     0
  0
VISUALSTYLE
  5
967
102
{ACAD_REACTORS
330
2A
102
}
102
{ACAD_XDICTIONARY
360
A00
102
}
330
2A
100
AcDbVisualStyle
  2
Shaded with edges
 70
    26
 71
     2
 72
     2
 73
     1
 90
        2
 40
0.6
 41
30.0
 62
     5
 63
     7
 74
     1
 91
       10
 64
     7
 65
   257
 75
     2
175
     1
 42
1.0
 92
        8
 66
   257
 43
1.0
 76
     1
 77
     6
 78
     2
 67
     7
 79
     3
170
     0
171
     0
290
     0
174
     0
 93
        5
 44
0.0
173
     0
291
     0
 45
0.0
1001
ACAD
1000
AcDbSavedByObjectVersion
1070
     0
  0
VISUALSTYLE
  5
964
102
{ACAD_REACTORS
330
2A
102
}
102
{ACAD_XDICTIONARY
360
9FA
102
}
330
2A
100
AcDbVisualStyle
  2
Shades of Gray
 70
    23
 71
     2
 72
     2
 73
     3
 90
        0
 40
0.6
 41
30.0
 62
     5
 63
     7
 74
     2
 91
        2
 64
     7
 65
     7
 75
     1
175
     1
 42
40.0
 92
        8
 66
     7
 43
1.0
 76
     1
 77
     6
 78
     2
 67
     7
 79
     3
170
     0
171
     0
290
     0
174
     0
 93
        1
 44
0.0
173
     0
291
     0
 45
0.0
1001
ACAD
1000
AcDbSavedByObjectVersion
1070
     0
  0
VISUALSTYLE
  5
965
102
{ACAD_REACTORS
330
2A
102
}
102
{ACAD_XDICTIONARY
360
9FC
102
}
330
2A
100
AcDbVisualStyle
  2
Sketchy
 70
    24
 71
     1
 72
     2
 73
     2
 90
        0
 40
0.6
 41
30.0
 62
     5
 63
     7
 74
     2
 91
        2
 64
     7
 65
     7
 75
     1
175
     1
 42
40.0
 92
       11
 66
     7
 43
1.0
 76
     1
 77
     6
 78
     2
 67
     7
 79
     6
170
     0
171
     0
290
     0
174
     0
 93
        1
 44
0.0
173
     0
291
     0
 45
0.0
1001
ACAD
1000
AcDbSavedByObjectVersion
1070
     0
  0
VISUALSTYLE
  5
95D
102
{ACAD_REACTORS
330
2A
102
}
102
{ACAD_XDICTIONARY
360
9EC
102
}
330
2A
100
AcDbVisualStyle
  2
Thicken
 70
    13
 71
     2
 72
     2
 73
     0
 90
        0
 40
0.6
 41
30.0
 62
     5
 63
     7
 74
     1
 91
        4
 64
     7
 65
   257
 75
     1
175
     1
 42
1.0
 92
       12
 66
     7
 43
1.0
 76
     1
 77
     6
 78
     2
 67
     7
 79
     5
170
     0
171
     0
290
     0
174
     0
 93
        1
 44
0.0
173
     0
291
     1
 45
0.0
1001
ACAD
1000
AcDbSavedByObjectVersion
1070
     0
  0
VISUALSTYLE
  5
956
102
{ACAD_REACTORS
330
2A
102
}
102
{ACAD_XDICTIONARY
360
9DE
102
}
330
2A
100
AcDbVisualStyle
  2
Wireframe
 70
     5
 71
     0
 72
     2
 73
     0
 90
        0
 40
0.6
 41
30.0
 62
     5
 63
     7
 74
     1
 91
        4
 64
     7
 65
   257
 75
     1
175
     1
 42
1.0
 92
        0
 66
   257
 43
1.0
 76
     1
 77
     6
 78
     2
 67
     7
 79
     5
170
     0
171
     0
290
     0
174
     0
 93
        1
 44
0.0
173
     0
291
     0
 45
0.0
1001
ACAD
1000
AcDbSavedByObjectVersion
1070
     0
  0
VISUALSTYLE
  5
966
102
{ACAD_REACTORS
330
2A
102
}
102
{ACAD_XDICTIONARY
360
9FE
102
}
330
2A
100
AcDbVisualStyle
  2
X-Ray
 70
    25
 71
     2
 72
     2
 73
     1
 90
        1
 40
0.5
 41
30.0
 62
     5
 63
     7
 74
     1
 91
        0
 64
     7
 65
   257
 75
     1
175
     1
 42
1.0
 92
        8
 66
     7
 43
1.0
 76
     1
 77
     6
 78
     2
 67
     7
 79
     3
170
     0
171
     0
290
     0
174
     0
 93
       13
 44
0.0
173
     0
291
     0
 45
0.0
1001
ACAD
1000
AcDbSavedByObjectVersion
1070
     0
  0
XRECORD
  5
9C8
102
{ACAD_REACTORS
330
9C7
102
}
330
9C7
100
AcDbXrecord
280
     1
340
29
  0
XRECORD
  5
9C9
102
{ACAD_REACTORS
330
9C7
102
}
330
9C7
100
AcDbXrecord
280
     1
340
7
  0
DICTIONARYVAR
  5
94B
102
{ACAD_REACTORS
330
94A
102
}
330
94A
100
DictionaryVariables
280
     0
  1
1:1
  0
DICTIONARYVAR
  5
9C1
102
{ACAD_REACTORS
330
94A
102
}
330
94A
100
DictionaryVariables
280
     0
  1
Standard
  0
DICTIONARYVAR
  5
9C5
102
{ACAD_REACTORS
330
94A
102
}
330
94A
100
DictionaryVariables
280
     0
  1
0
  0
DICTIONARYVAR
  5
9C6
102
{ACAD_REACTORS
330
94A
102
}
330
94A
100
DictionaryVariables
280
     0
  1
1
  0
DICTIONARYVAR
  5
9CD
102
{ACAD_REACTORS
330
94A
102
}
330
94A
100
DictionaryVariables
280
     0
  1
1
  0
DICTIONARYVAR
  5
94E
102
{ACAD_REACTORS
330
94A
102
}
330
94A
100
DictionaryVariables
280
     0
  1
0
  0
DICTIONARY
  5
9D2
330
50
100
AcDbDictionary
280
     1
281
     1
  3
ACAD_XREC_ROUNDTRIP
360
9D3
  0
DICTIONARY
  5
9CE
330
10
100
AcDbDictionary
280
     1
281
     1
  3
ACAD_XREC_ROUNDTRIP
360
9CF
  0
DICTIONARY
  5
9D0
330
6
100
AcDbDictionary
280
     1
281
     1
  3
ACAD_XREC_ROUNDTRIP
360
9D1
  0
DICTIONARY
  5
A04
330
9BD
100
AcDbDictionary
280
     1
281
     1
  3
ACAD_XREC_ROUNDTRIP
360
A05
  0
DICTIONARY
  5
9DC
330
955
100
AcDbDictionary
280
     1
281
     1
  3
ACAD_XREC_ROUNDTRIP
360
9DD
  0
DICTIONARY
  5
9E2
330
958
100
AcDbDictionary
280
     1
281
     1
  3
ACAD_XREC_ROUNDTRIP
360
9E3
  0
DICTIONARY
  5
9EA
330
95C
100
AcDbDictionary
280
     1
281
     1
  3
ACAD_XREC_ROUNDTRIP
360
9EB
  0
DICTIONARY
  5
9F2
330
960
100
AcDbDictionary
280
     1
281
     1
  3
ACAD_XREC_ROUNDTRIP
360
9F3
  0
DICTIONARY
  5
9E6
330
95A
100
AcDbDictionary
280
     1
281
     1
  3
ACAD_XREC_ROUNDTRIP
360
9E7
  0
DICTIONARY
  5
9E8
330
95B
100
AcDbDictionary
280
     1
281
     1
  3
ACAD_XREC_ROUNDTRIP
360
9E9
  0
DICTIONARY
  5
9F8
330
963
100
AcDbDictionary
280
     1
281
     1
  3
ACAD_XREC_ROUNDTRIP
360
9F9
  0
DICTIONARY
  5
9F0
330
95F
100
AcDbDictionary
280
     1
281
     1
  3
ACAD_XREC_ROUNDTRIP
360
9F1
  0
DICTIONARY
  5
9D4
330
951
100
AcDbDictionary
280
     1
281
     1
  3
ACAD_XREC_ROUNDTRIP
360
9D5
  0
DICTIONARY
  5
9D6
330
952
100
AcDbDictionary
280
     1
281
     1
  3
ACAD_XREC_ROUNDTRIP
360
9D7
  0
DICTIONARY
  5
9D8
330
953
100
AcDbDictionary
280
     1
281
     1
  3
ACAD_XREC_ROUNDTRIP
360
9D9
  0
DICTIONARY
  5
9DA
330
954
100
AcDbDictionary
280
     1
281
     1
  3
ACAD_XREC_ROUNDTRIP
360
9DB
  0
DICTIONARY
  5
9E0
330
957
100
AcDbDictionary
280
     1
281
     1
  3
ACAD_XREC_ROUNDTRIP
360
9E1
  0
DICTIONARY
  5
9F4
330
961
100
AcDbDictionary
280
     1
281
     1
  3
ACAD_XREC_ROUNDTRIP
360
9F5
  0
DICTIONARY
  5
9EE
330
95E
100
AcDbDictionary
280
     1
281
     1
  3
ACAD_XREC_ROUNDTRIP
360
9EF
  0
DICTIONARY
  5
9F6
330
962
100
AcDbDictionary
280
     1
281
     1
  3
ACAD_XREC_ROUNDTRIP
360
9F7
  0
DICTIONARY
  5
9E4
330
959
100
AcDbDictionary
280
     1
281
     1
  3
ACAD_XREC_ROUNDTRIP
360
9E5
  0
DICTIONARY
  5
A02
330
968
100
AcDbDictionary
280
     1
281
     1
  3
ACAD_XREC_ROUNDTRIP
360
A03
  0
DICTIONARY
  5
A00
330
967
100
AcDbDictionary
280
     1
281
     1
  3
ACAD_XREC_ROUNDTRIP
360
A01
  0
DICTIONARY
  5
9FA
330
964
100
AcDbDictionary
280
     1
281
     1
  3
ACAD_XREC_ROUNDTRIP
360
9FB
  0
DICTIONARY
  5
9FC
330
965
100
AcDbDictionary
280
     1
281
     1
  3
ACAD_XREC_ROUNDTRIP
360
9FD
  0
DICTIONARY
  5
9EC
330
95D
100
AcDbDictionary
280
     1
281
     1
  3
ACAD_XREC_ROUNDTRIP
360
9ED
  0
DICTIONARY
  5
9DE
330
956
100
AcDbDictionary
280
     1
281
     1
  3
ACAD_XREC_ROUNDTRIP
360
9DF
  0
DICTIONARY
  5
9FE
330
966
100
AcDbDictionary
280
     1
281
     1
  3
ACAD_XREC_ROUNDTRIP
360
9FF
  0
XRECORD
  5
9D3
102
{ACAD_REACTORS
330
9D2
102
}
330
9D2
100
AcDbXrecord
280
     1
102
MATERIAL
148
0.0
149
0.0
149
0.0
 93
        0
 94
      127
282
     0
 72
     1
 77
     1
171
     1
175
     1
179
     1
273
     0
  0
XRECORD
  5
9CF
102
{ACAD_REACTORS
330
9CE
102
}
330
9CE
100
AcDbXrecord
280
     1
102
MATERIAL
148
0.0
149
0.0
149
0.0
 93
        0
 94
      127
282
     0
 72
     1
 77
     1
171
     1
175
     1
179
     1
273
     0
  0
XRECORD
  5
9D1
102
{ACAD_REACTORS
330
9D0
102
}
330
9D0
100
AcDbXrecord
280
     1
102
MATERIAL
148
0.0
149
0.0
149
0.0
 93
        0
 94
      127
282
     0
 72
     1
 77
     1
171
     1
175
     1
179
     1
273
     0
  0
XRECORD
  5
A05
102
{ACAD_REACTORS
330
A04
102
}
330
A04
100
AcDbXrecord
280
     1
102
ACAD_ROUNDTRIP_2010_MLEADER_STYLE
  0
XRECORD
  5
9DD
102
{ACAD_REACTORS
330
9DC
102
}
330
9DC
100
AcDbXrecord
280
     1
102
RTVSPropertyOp0
 70
     1
102
RTVSPropertyOp1
 70
     1
102
RTVSPropertyOp2
 70
     1
102
RTVSPropertyOp3
 70
     1
102
RTVSPropertyOp4
 70
     1
102
RTVSPropertyOp5
 70
     1
102
RTVSPropertyOp6
 70
     1
102
RTVSPropertyOp7
 70
     1
102
RTVSPropertyOp8
 70
     1
102
RTVSPropertyOp9
 70
     1
102
RTVSPropertyOp10
 70
     1
102
RTVSPropertyOp11
 70
     1
102
RTVSPropertyOp12
 70
     1
102
RTVSPropertyOp13
 70
     1
102
RTVSPropertyOp14
 70
     1
102
RTVSPropertyOp15
 70
     1
102
RTVSPropertyOp16
 70
     1
102
RTVSPropertyOp17
 70
     1
102
RTVSPropertyOp18
 70
     1
102
RTVSPropertyOp19
 70
     1
102
RTVSPropertyOp20
 70
     1
102
RTVSPropertyOp21
 70
     1
102
RTVSPropertyOp22
 70
     1
102
RTVSPropertyOp23
 70
     1
102
RTVSPropertyOp24
 70
     1
102
RTVSPropertyOp25
 70
     1
102
RTVSPropertyOp26
 70
     1
102
RTVSPropertyOp27
 70
     1
102
RTVSPropertyOp28
 70
     1
102
RTVSPropertyOp29
 70
     1
102
RTVSPropertyOp30
 70
     1
102
RTVSPropertyOp31
 70
     1
102
RTVSPropertyOp32
 70
     1
102
RTVSPropertyOp33
 70
     1
102
RTVSPropertyOp34
 70
     1
102
RTVSPropertyOp35
 70
     1
102
RTVSPropertyOp36
 70
     1
102
RTVSPropertyOp37
 70
     1
102
RTVSPropertyOp38
 70
     1
102
RTVSPropertyOp39
 70
     1
102
RTVSPropertyOp40
 70
     1
102
RTVSPropertyOp41
 70
     1
102
RTVSPropertyOp42
 70
     1
102
RTVSPropertyOp43
 70
     1
102
RTVSPropertyOp44
 70
     1
102
RTVSPropertyOp45
 70
     1
102
RTVSPropertyOp46
 70
     1
102
RTVSPropertyOp47
 70
     1
102
RTVSPropertyOp48
 70
     1
102
RTVSPropertyOp49
 70
     1
102
RTVSPropertyOp50
 70
     1
102
RTVSPropertyOp51
 70
     0
102
RTVSPropertyOp52
 70
     0
102
RTVSPropertyOp53
 70
     1
102
RTVSPropertyOp54
 70
     1
102
RTVSPropertyOp55
 70
     1
102
RTVSPropertyOp56
 70
     1
102
RTVSPropertyOp57
 70
     1
102
RTVSPost2010Prop28
280
     1
102
RTVSPost2010PropOp28
 70
     1
102
RTVSPost2010Prop29
280
     1
102
RTVSPost2010PropOp29
 70
     1
102
RTVSPost2010Prop30
280
     0
102
RTVSPost2010PropOp30
 70
     1
102
RTVSPost2010Prop31
280
     0
102
RTVSPost2010PropOp31
 70
     1
102
RTVSPost2010Prop32
280
     0
102
RTVSPost2010PropOp32
 70
     1
102
RTVSPost2010Prop33
280
     0
102
RTVSPost2010PropOp33
 70
     1
102
RTVSPost2010Prop34
280
     0
102
RTVSPost2010PropOp34
 70
     1
102
RTVSPost2010Prop35
280
     0
102
RTVSPost2010PropOp35
 70
     1
102
RTVSPost2010Prop36
280
     0
102
RTVSPost2010PropOp36
 70
     1
102
RTVSPost2010Prop37
 90
       50
102
RTVSPost2010PropOp37
 70
     1
102
RTVSPost2010Prop38
140
0.0
102
RTVSPost2010PropOp38
 70
     1
102
RTVSPost2010Prop39
140
1.0
102
RTVSPost2010PropOp39
 70
     1
102
RTVSPost2010Prop40
 90
        0
102
RTVSPost2010PropOp40
 70
     1
102
RTVSPost2010Prop41ColorIndex
 90
       18
102
RTVSPost2010Prop41ColorRGB
 90
        0
102
RTVSPost2010PropOp41
 70
     1
102
RTVSPost2010Prop42
 90
       50
102
RTVSPost2010PropOp42
 70
     1
102
RTVSPost2010Prop43
 90
        3
102
RTVSPost2010PropOp43
 70
     1
102
RTVSPost2010Prop44ColorIndex
 90
        5
102
RTVSPost2010Prop44ColorRGB
 90
      255
102
RTVSPost2010PropOp44
 70
     1
102
RTVSPost2010Prop45
280
     0
102
RTVSPost2010PropOp45
 70
     1
102
RTVSPost2010Prop46
 90
       50
102
RTVSPost2010PropOp46
 70
     1
102
RTVSPost2010Prop47
 90
       50
102
RTVSPost2010PropOp47
 70
     1
102
RTVSPost2010Prop48
 90
       50
102
RTVSPost2010PropOp48
 70
     1
102
RTVSPost2010Prop49
280
     0
102
RTVSPost2010PropOp49
 70
     1
102
RTVSPost2010Prop50
 90
       50
102
RTVSPost2010PropOp50
 70
     1
102
RTVSPost2010Prop51ColorIndex
 90
      256
102
RTVSPost2010Prop51ColorRGB
 90
-16777216
102
RTVSPost2010PropOp51
 70
     0
102
RTVSPost2010Prop52
140
1.0
102
RTVSPost2010PropOp52
 70
     0
102
RTVSPost2010Prop53
 90
        2
102
RTVSPost2010PropOp53
 70
     1
102
RTVSPost2010Prop54
  1
strokes_ogs.tif
102
RTVSPost2010PropOp54
 70
     1
102
RTVSPost2010Prop55
280
     0
102
RTVSPost2010PropOp55
 70
     1
102
RTVSPost2010Prop56
140
1.0
102
RTVSPost2010PropOp56
 70
     1
102
RTVSPost2010Prop57
140
1.0
102
RTVSPost2010PropOp57
 70
     1
  0
XRECORD
  5
9E3
102
{ACAD_REACTORS
330
9E2
102
}
330
9E2
100
AcDbXrecord
280
     1
102
RTVSPropertyOp0
 70
     1
102
RTVSPropertyOp1
 70
     1
102
RTVSPropertyOp2
 70
     1
102
RTVSPropertyOp3
 70
     1
102
RTVSPropertyOp4
 70
     1
102
RTVSPropertyOp5
 70
     1
102
RTVSPropertyOp6
 70
     1
102
RTVSPropertyOp7
 70
     1
102
RTVSPropertyOp8
 70
     1
102
RTVSPropertyOp9
 70
     1
102
RTVSPropertyOp10
 70
     1
102
RTVSPropertyOp11
 70
     1
102
RTVSPropertyOp12
 70
     1
102
RTVSPropertyOp13
 70
     1
102
RTVSPropertyOp14
 70
     1
102
RTVSPropertyOp15
 70
     1
102
RTVSPropertyOp16
 70
     1
102
RTVSPropertyOp17
 70
     1
102
RTVSPropertyOp18
 70
     1
102
RTVSPropertyOp19
 70
     1
102
RTVSPropertyOp20
 70
     1
102
RTVSPropertyOp21
 70
     1
102
RTVSPropertyOp22
 70
     1
102
RTVSPropertyOp23
 70
     1
102
RTVSPropertyOp24
 70
     1
102
RTVSPropertyOp25
 70
     1
102
RTVSPropertyOp26
 70
     1
102
RTVSPropertyOp27
 70
     1
102
RTVSPropertyOp28
 70
     1
102
RTVSPropertyOp29
 70
     1
102
RTVSPropertyOp30
 70
     1
102
RTVSPropertyOp31
 70
     1
102
RTVSPropertyOp32
 70
     1
102
RTVSPropertyOp33
 70
     1
102
RTVSPropertyOp34
 70
     1
102
RTVSPropertyOp35
 70
     1
102
RTVSPropertyOp36
 70
     1
102
RTVSPropertyOp37
 70
     1
102
RTVSPropertyOp38
 70
     1
102
RTVSPropertyOp39
 70
     1
102
RTVSPropertyOp40
 70
     1
102
RTVSPropertyOp41
 70
     1
102
RTVSPropertyOp42
 70
     1
102
RTVSPropertyOp43
 70
     1
102
RTVSPropertyOp44
 70
     1
102
RTVSPropertyOp45
 70
     1
102
RTVSPropertyOp46
 70
     1
102
RTVSPropertyOp47
 70
     1
102
RTVSPropertyOp48
 70
     1
102
RTVSPropertyOp49
 70
     1
102
RTVSPropertyOp50
 70
     1
102
RTVSPropertyOp51
 70
     0
102
RTVSPropertyOp52
 70
     0
102
RTVSPropertyOp53
 70
     1
102
RTVSPropertyOp54
 70
     1
102
RTVSPropertyOp55
 70
     1
102
RTVSPropertyOp56
 70
     1
102
RTVSPropertyOp57
 70
     1
102
RTVSPost2010Prop28
280
     0
102
RTVSPost2010PropOp28
 70
     1
102
RTVSPost2010Prop29
280
     1
102
RTVSPost2010PropOp29
 70
     1
102
RTVSPost2010Prop30
280
     1
102
RTVSPost2010PropOp30
 70
     1
102
RTVSPost2010Prop31
280
     0
102
RTVSPost2010PropOp31
 70
     1
102
RTVSPost2010Prop32
280
     0
102
RTVSPost2010PropOp32
 70
     1
102
RTVSPost2010Prop33
280
     0
102
RTVSPost2010PropOp33
 70
     1
102
RTVSPost2010Prop34
280
     0
102
RTVSPost2010PropOp34
 70
     1
102
RTVSPost2010Prop35
280
     0
102
RTVSPost2010PropOp35
 70
     1
102
RTVSPost2010Prop36
280
     0
102
RTVSPost2010PropOp36
 70
     1
102
RTVSPost2010Prop37
 90
       50
102
RTVSPost2010PropOp37
 70
     1
102
RTVSPost2010Prop38
140
0.0
102
RTVSPost2010PropOp38
 70
     1
102
RTVSPost2010Prop39
140
1.0
102
RTVSPost2010PropOp39
 70
     1
102
RTVSPost2010Prop40
 90
        0
102
RTVSPost2010PropOp40
 70
     1
102
RTVSPost2010Prop41ColorIndex
 90
       18
102
RTVSPost2010Prop41ColorRGB
 90
        0
102
RTVSPost2010PropOp41
 70
     1
102
RTVSPost2010Prop42
 90
       50
102
RTVSPost2010PropOp42
 70
     1
102
RTVSPost2010Prop43
 90
        3
102
RTVSPost2010PropOp43
 70
     1
102
RTVSPost2010Prop44ColorIndex
 90
        5
102
RTVSPost2010Prop44ColorRGB
 90
      255
102
RTVSPost2010PropOp44
 70
     1
102
RTVSPost2010Prop45
280
     0
102
RTVSPost2010PropOp45
 70
     1
102
RTVSPost2010Prop46
 90
       50
102
RTVSPost2010PropOp46
 70
     1
102
RTVSPost2010Prop47
 90
       50
102
RTVSPost2010PropOp47
 70
     1
102
RTVSPost2010Prop48
 90
       50
102
RTVSPost2010PropOp48
 70
     1
102
RTVSPost2010Prop49
280
     0
102
RTVSPost2010PropOp49
 70
     1
102
RTVSPost2010Prop50
 90
       50
102
RTVSPost2010PropOp50
 70
     1
102
RTVSPost2010Prop51ColorIndex
 90
      256
102
RTVSPost2010Prop51ColorRGB
 90
-16777216
102
RTVSPost2010PropOp51
 70
     0
102
RTVSPost2010Prop52
140
1.0
102
RTVSPost2010PropOp52
 70
     0
102
RTVSPost2010Prop53
 90
        2
102
RTVSPost2010PropOp53
 70
     1
102
RTVSPost2010Prop54
  1
strokes_ogs.tif
102
RTVSPost2010PropOp54
 70
     1
102
RTVSPost2010Prop55
280
     0
102
RTVSPost2010PropOp55
 70
     1
102
RTVSPost2010Prop56
140
1.0
102
RTVSPost2010PropOp56
 70
     1
102
RTVSPost2010Prop57
140
1.0
102
RTVSPost2010PropOp57
 70
     1
  0
XRECORD
  5
9EB
102
{ACAD_REACTORS
330
9EA
102
}
330
9EA
100
AcDbXrecord
280
     1
102
RTVSPropertyOp0
 70
     1
102
RTVSPropertyOp1
 70
     1
102
RTVSPropertyOp2
 70
     1
102
RTVSPropertyOp3
 70
     1
102
RTVSPropertyOp4
 70
     1
102
RTVSPropertyOp5
 70
     1
102
RTVSPropertyOp6
 70
     1
102
RTVSPropertyOp7
 70
     1
102
RTVSPropertyOp8
 70
     1
102
RTVSPropertyOp9
 70
     1
102
RTVSPropertyOp10
 70
     1
102
RTVSPropertyOp11
 70
     1
102
RTVSPropertyOp12
 70
     1
102
RTVSPropertyOp13
 70
     1
102
RTVSPropertyOp14
 70
     1
102
RTVSPropertyOp15
 70
     1
102
RTVSPropertyOp16
 70
     1
102
RTVSPropertyOp17
 70
     1
102
RTVSPropertyOp18
 70
     1
102
RTVSPropertyOp19
 70
     1
102
RTVSPropertyOp20
 70
     1
102
RTVSPropertyOp21
 70
     1
102
RTVSPropertyOp22
 70
     1
102
RTVSPropertyOp23
 70
     1
102
RTVSPropertyOp24
 70
     1
102
RTVSPropertyOp25
 70
     1
102
RTVSPropertyOp26
 70
     1
102
RTVSPropertyOp27
 70
     1
102
RTVSPropertyOp28
 70
     1
102
RTVSPropertyOp29
 70
     1
102
RTVSPropertyOp30
 70
     1
102
RTVSPropertyOp31
 70
     1
102
RTVSPropertyOp32
 70
     1
102
RTVSPropertyOp33
 70
     1
102
RTVSPropertyOp34
 70
     1
102
RTVSPropertyOp35
 70
     1
102
RTVSPropertyOp36
 70
     1
102
RTVSPropertyOp37
 70
     1
102
RTVSPropertyOp38
 70
     1
102
RTVSPropertyOp39
 70
     1
102
RTVSPropertyOp40
 70
     1
102
RTVSPropertyOp41
 70
     1
102
RTVSPropertyOp42
 70
     1
102
RTVSPropertyOp43
 70
     1
102
RTVSPropertyOp44
 70
     1
102
RTVSPropertyOp45
 70
     1
102
RTVSPropertyOp46
 70
     1
102
RTVSPropertyOp47
 70
     1
102
RTVSPropertyOp48
 70
     1
102
RTVSPropertyOp49
 70
     1
102
RTVSPropertyOp50
 70
     1
102
RTVSPropertyOp51
 70
     0
102
RTVSPropertyOp52
 70
     0
102
RTVSPropertyOp53
 70
     1
102
RTVSPropertyOp54
 70
     1
102
RTVSPropertyOp55
 70
     1
102
RTVSPropertyOp56
 70
     1
102
RTVSPropertyOp57
 70
     1
102
RTVSPost2010Prop28
280
     0
102
RTVSPost2010PropOp28
 70
     1
102
RTVSPost2010Prop29
280
     1
102
RTVSPost2010PropOp29
 70
     1
102
RTVSPost2010Prop30
280
     1
102
RTVSPost2010PropOp30
 70
     1
102
RTVSPost2010Prop31
280
     0
102
RTVSPost2010PropOp31
 70
     1
102
RTVSPost2010Prop32
280
     0
102
RTVSPost2010PropOp32
 70
     1
102
RTVSPost2010Prop33
280
     0
102
RTVSPost2010PropOp33
 70
     1
102
RTVSPost2010Prop34
280
     0
102
RTVSPost2010PropOp34
 70
     1
102
RTVSPost2010Prop35
280
     0
102
RTVSPost2010PropOp35
 70
     1
102
RTVSPost2010Prop36
280
     0
102
RTVSPost2010PropOp36
 70
     1
102
RTVSPost2010Prop37
 90
       50
102
RTVSPost2010PropOp37
 70
     1
102
RTVSPost2010Prop38
140
0.0
102
RTVSPost2010PropOp38
 70
     1
102
RTVSPost2010Prop39
140
1.0
102
RTVSPost2010PropOp39
 70
     1
102
RTVSPost2010Prop40
 90
        0
102
RTVSPost2010PropOp40
 70
     1
102
RTVSPost2010Prop41ColorIndex
 90
       18
102
RTVSPost2010Prop41ColorRGB
 90
        0
102
RTVSPost2010PropOp41
 70
     1
102
RTVSPost2010Prop42
 90
       50
102
RTVSPost2010PropOp42
 70
     1
102
RTVSPost2010Prop43
 90
        3
102
RTVSPost2010PropOp43
 70
     1
102
RTVSPost2010Prop44ColorIndex
 90
        5
102
RTVSPost2010Prop44ColorRGB
 90
      255
102
RTVSPost2010PropOp44
 70
     1
102
RTVSPost2010Prop45
280
     0
102
RTVSPost2010PropOp45
 70
     1
102
RTVSPost2010Prop46
 90
       50
102
RTVSPost2010PropOp46
 70
     1
102
RTVSPost2010Prop47
 90
       50
102
RTVSPost2010PropOp47
 70
     1
102
RTVSPost2010Prop48
 90
       50
102
RTVSPost2010PropOp48
 70
     1
102
RTVSPost2010Prop49
280
     0
102
RTVSPost2010PropOp49
 70
     1
102
RTVSPost2010Prop50
 90
       50
102
RTVSPost2010PropOp50
 70
     1
102
RTVSPost2010Prop51ColorIndex
 90
      256
102
RTVSPost2010Prop51ColorRGB
 90
-16777216
102
RTVSPost2010PropOp51
 70
     0
102
RTVSPost2010Prop52
140
1.0
102
RTVSPost2010PropOp52
 70
     0
102
RTVSPost2010Prop53
 90
        2
102
RTVSPost2010PropOp53
 70
     1
102
RTVSPost2010Prop54
  1
strokes_ogs.tif
102
RTVSPost2010PropOp54
 70
     1
102
RTVSPost2010Prop55
280
     0
102
RTVSPost2010PropOp55
 70
     1
102
RTVSPost2010Prop56
140
1.0
102
RTVSPost2010PropOp56
 70
     1
102
RTVSPost2010Prop57
140
1.0
102
RTVSPost2010PropOp57
 70
     1
  0
XRECORD
  5
9F3
102
{ACAD_REACTORS
330
9F2
102
}
330
9F2
100
AcDbXrecord
280
     1
102
RTVSPropertyOp0
 70
     1
102
RTVSPropertyOp1
 70
     1
102
RTVSPropertyOp2
 70
     1
102
RTVSPropertyOp3
 70
     1
102
RTVSPropertyOp4
 70
     1
102
RTVSPropertyOp5
 70
     1
102
RTVSPropertyOp6
 70
     1
102
RTVSPropertyOp7
 70
     1
102
RTVSPropertyOp8
 70
     1
102
RTVSPropertyOp9
 70
     1
102
RTVSPropertyOp10
 70
     1
102
RTVSPropertyOp11
 70
     1
102
RTVSPropertyOp12
 70
     1
102
RTVSPropertyOp13
 70
     1
102
RTVSPropertyOp14
 70
     1
102
RTVSPropertyOp15
 70
     1
102
RTVSPropertyOp16
 70
     1
102
RTVSPropertyOp17
 70
     1
102
RTVSPropertyOp18
 70
     1
102
RTVSPropertyOp19
 70
     1
102
RTVSPropertyOp20
 70
     1
102
RTVSPropertyOp21
 70
     1
102
RTVSPropertyOp22
 70
     1
102
RTVSPropertyOp23
 70
     1
102
RTVSPropertyOp24
 70
     1
102
RTVSPropertyOp25
 70
     1
102
RTVSPropertyOp26
 70
     1
102
RTVSPropertyOp27
 70
     1
102
RTVSPropertyOp28
 70
     1
102
RTVSPropertyOp29
 70
     1
102
RTVSPropertyOp30
 70
     1
102
RTVSPropertyOp31
 70
     1
102
RTVSPropertyOp32
 70
     1
102
RTVSPropertyOp33
 70
     1
102
RTVSPropertyOp34
 70
     1
102
RTVSPropertyOp35
 70
     1
102
RTVSPropertyOp36
 70
     1
102
RTVSPropertyOp37
 70
     1
102
RTVSPropertyOp38
 70
     1
102
RTVSPropertyOp39
 70
     1
102
RTVSPropertyOp40
 70
     1
102
RTVSPropertyOp41
 70
     1
102
RTVSPropertyOp42
 70
     1
102
RTVSPropertyOp43
 70
     1
102
RTVSPropertyOp44
 70
     1
102
RTVSPropertyOp45
 70
     1
102
RTVSPropertyOp46
 70
     1
102
RTVSPropertyOp47
 70
     1
102
RTVSPropertyOp48
 70
     1
102
RTVSPropertyOp49
 70
     1
102
RTVSPropertyOp50
 70
     1
102
RTVSPropertyOp51
 70
     0
102
RTVSPropertyOp52
 70
     0
102
RTVSPropertyOp53
 70
     1
102
RTVSPropertyOp54
 70
     1
102
RTVSPropertyOp55
 70
     1
102
RTVSPropertyOp56
 70
     1
102
RTVSPropertyOp57
 70
     1
102
RTVSPost2010Prop28
280
     0
102
RTVSPost2010PropOp28
 70
     1
102
RTVSPost2010Prop29
280
     1
102
RTVSPost2010PropOp29
 70
     1
102
RTVSPost2010Prop30
280
     1
102
RTVSPost2010PropOp30
 70
     1
102
RTVSPost2010Prop31
280
     0
102
RTVSPost2010PropOp31
 70
     1
102
RTVSPost2010Prop32
280
     0
102
RTVSPost2010PropOp32
 70
     1
102
RTVSPost2010Prop33
280
     0
102
RTVSPost2010PropOp33
 70
     1
102
RTVSPost2010Prop34
280
     0
102
RTVSPost2010PropOp34
 70
     1
102
RTVSPost2010Prop35
280
     0
102
RTVSPost2010PropOp35
 70
     1
102
RTVSPost2010Prop36
280
     0
102
RTVSPost2010PropOp36
 70
     1
102
RTVSPost2010Prop37
 90
       50
102
RTVSPost2010PropOp37
 70
     1
102
RTVSPost2010Prop38
140
0.0
102
RTVSPost2010PropOp38
 70
     1
102
RTVSPost2010Prop39
140
1.0
102
RTVSPost2010PropOp39
 70
     1
102
RTVSPost2010Prop40
 90
        0
102
RTVSPost2010PropOp40
 70
     1
102
RTVSPost2010Prop41ColorIndex
 90
       18
102
RTVSPost2010Prop41ColorRGB
 90
        0
102
RTVSPost2010PropOp41
 70
     1
102
RTVSPost2010Prop42
 90
       50
102
RTVSPost2010PropOp42
 70
     1
102
RTVSPost2010Prop43
 90
        3
102
RTVSPost2010PropOp43
 70
     1
102
RTVSPost2010Prop44ColorIndex
 90
        5
102
RTVSPost2010Prop44ColorRGB
 90
      255
102
RTVSPost2010PropOp44
 70
     1
102
RTVSPost2010Prop45
280
     0
102
RTVSPost2010PropOp45
 70
     1
102
RTVSPost2010Prop46
 90
       50
102
RTVSPost2010PropOp46
 70
     1
102
RTVSPost2010Prop47
 90
       50
102
RTVSPost2010PropOp47
 70
     1
102
RTVSPost2010Prop48
 90
       50
102
RTVSPost2010PropOp48
 70
     1
102
RTVSPost2010Prop49
280
     0
102
RTVSPost2010PropOp49
 70
     1
102
RTVSPost2010Prop50
 90
       50
102
RTVSPost2010PropOp50
 70
     1
102
RTVSPost2010Prop51ColorIndex
 90
      256
102
RTVSPost2010Prop51ColorRGB
 90
-16777216
102
RTVSPost2010PropOp51
 70
     0
102
RTVSPost2010Prop52
140
1.0
102
RTVSPost2010PropOp52
 70
     0
102
RTVSPost2010Prop53
 90
        2
102
RTVSPost2010PropOp53
 70
     1
102
RTVSPost2010Prop54
  1
strokes_ogs.tif
102
RTVSPost2010PropOp54
 70
     1
102
RTVSPost2010Prop55
280
     0
102
RTVSPost2010PropOp55
 70
     1
102
RTVSPost2010Prop56
140
1.0
102
RTVSPost2010PropOp56
 70
     1
102
RTVSPost2010Prop57
140
1.0
102
RTVSPost2010PropOp57
 70
     1
  0
XRECORD
  5
9E7
102
{ACAD_REACTORS
330
9E6
102
}
330
9E6
100
AcDbXrecord
280
     1
102
RTVSPropertyOp0
 70
     1
102
RTVSPropertyOp1
 70
     1
102
RTVSPropertyOp2
 70
     1
102
RTVSPropertyOp3
 70
     1
102
RTVSPropertyOp4
 70
     1
102
RTVSPropertyOp5
 70
     1
102
RTVSPropertyOp6
 70
     1
102
RTVSPropertyOp7
 70
     1
102
RTVSPropertyOp8
 70
     1
102
RTVSPropertyOp9
 70
     1
102
RTVSPropertyOp10
 70
     1
102
RTVSPropertyOp11
 70
     1
102
RTVSPropertyOp12
 70
     1
102
RTVSPropertyOp13
 70
     1
102
RTVSPropertyOp14
 70
     1
102
RTVSPropertyOp15
 70
     1
102
RTVSPropertyOp16
 70
     1
102
RTVSPropertyOp17
 70
     1
102
RTVSPropertyOp18
 70
     1
102
RTVSPropertyOp19
 70
     1
102
RTVSPropertyOp20
 70
     1
102
RTVSPropertyOp21
 70
     1
102
RTVSPropertyOp22
 70
     1
102
RTVSPropertyOp23
 70
     1
102
RTVSPropertyOp24
 70
     1
102
RTVSPropertyOp25
 70
     1
102
RTVSPropertyOp26
 70
     1
102
RTVSPropertyOp27
 70
     1
102
RTVSPropertyOp28
 70
     1
102
RTVSPropertyOp29
 70
     1
102
RTVSPropertyOp30
 70
     1
102
RTVSPropertyOp31
 70
     1
102
RTVSPropertyOp32
 70
     1
102
RTVSPropertyOp33
 70
     1
102
RTVSPropertyOp34
 70
     1
102
RTVSPropertyOp35
 70
     1
102
RTVSPropertyOp36
 70
     1
102
RTVSPropertyOp37
 70
     1
102
RTVSPropertyOp38
 70
     1
102
RTVSPropertyOp39
 70
     1
102
RTVSPropertyOp40
 70
     1
102
RTVSPropertyOp41
 70
     1
102
RTVSPropertyOp42
 70
     1
102
RTVSPropertyOp43
 70
     1
102
RTVSPropertyOp44
 70
     1
102
RTVSPropertyOp45
 70
     1
102
RTVSPropertyOp46
 70
     1
102
RTVSPropertyOp47
 70
     1
102
RTVSPropertyOp48
 70
     1
102
RTVSPropertyOp49
 70
     1
102
RTVSPropertyOp50
 70
     1
102
RTVSPropertyOp51
 70
     0
102
RTVSPropertyOp52
 70
     0
102
RTVSPropertyOp53
 70
     1
102
RTVSPropertyOp54
 70
     1
102
RTVSPropertyOp55
 70
     1
102
RTVSPropertyOp56
 70
     1
102
RTVSPropertyOp57
 70
     1
102
RTVSPost2010Prop28
280
     0
102
RTVSPost2010PropOp28
 70
     1
102
RTVSPost2010Prop29
280
     1
102
RTVSPost2010PropOp29
 70
     1
102
RTVSPost2010Prop30
280
     1
102
RTVSPost2010PropOp30
 70
     1
102
RTVSPost2010Prop31
280
     0
102
RTVSPost2010PropOp31
 70
     1
102
RTVSPost2010Prop32
280
     0
102
RTVSPost2010PropOp32
 70
     1
102
RTVSPost2010Prop33
280
     0
102
RTVSPost2010PropOp33
 70
     1
102
RTVSPost2010Prop34
280
     0
102
RTVSPost2010PropOp34
 70
     1
102
RTVSPost2010Prop35
280
     0
102
RTVSPost2010PropOp35
 70
     1
102
RTVSPost2010Prop36
280
     0
102
RTVSPost2010PropOp36
 70
     1
102
RTVSPost2010Prop37
 90
       50
102
RTVSPost2010PropOp37
 70
     1
102
RTVSPost2010Prop38
140
0.0
102
RTVSPost2010PropOp38
 70
     1
102
RTVSPost2010Prop39
140
1.0
102
RTVSPost2010PropOp39
 70
     1
102
RTVSPost2010Prop40
 90
        0
102
RTVSPost2010PropOp40
 70
     1
102
RTVSPost2010Prop41ColorIndex
 90
       18
102
RTVSPost2010Prop41ColorRGB
 90
        0
102
RTVSPost2010PropOp41
 70
     1
102
RTVSPost2010Prop42
 90
       50
102
RTVSPost2010PropOp42
 70
     1
102
RTVSPost2010Prop43
 90
        3
102
RTVSPost2010PropOp43
 70
     1
102
RTVSPost2010Prop44ColorIndex
 90
        5
102
RTVSPost2010Prop44ColorRGB
 90
      255
102
RTVSPost2010PropOp44
 70
     1
102
RTVSPost2010Prop45
280
     0
102
RTVSPost2010PropOp45
 70
     1
102
RTVSPost2010Prop46
 90
       50
102
RTVSPost2010PropOp46
 70
     1
102
RTVSPost2010Prop47
 90
       50
102
RTVSPost2010PropOp47
 70
     1
102
RTVSPost2010Prop48
 90
       50
102
RTVSPost2010PropOp48
 70
     1
102
RTVSPost2010Prop49
280
     0
102
RTVSPost2010PropOp49
 70
     1
102
RTVSPost2010Prop50
 90
       50
102
RTVSPost2010PropOp50
 70
     1
102
RTVSPost2010Prop51ColorIndex
 90
      256
102
RTVSPost2010Prop51ColorRGB
 90
-16777216
102
RTVSPost2010PropOp51
 70
     0
102
RTVSPost2010Prop52
140
1.0
102
RTVSPost2010PropOp52
 70
     0
102
RTVSPost2010Prop53
 90
        2
102
RTVSPost2010PropOp53
 70
     1
102
RTVSPost2010Prop54
  1
strokes_ogs.tif
102
RTVSPost2010PropOp54
 70
     1
102
RTVSPost2010Prop55
280
     0
102
RTVSPost2010PropOp55
 70
     1
102
RTVSPost2010Prop56
140
1.0
102
RTVSPost2010PropOp56
 70
     1
102
RTVSPost2010Prop57
140
1.0
102
RTVSPost2010PropOp57
 70
     1
  0
XRECORD
  5
9E9
102
{ACAD_REACTORS
330
9E8
102
}
330
9E8
100
AcDbXrecord
280
     1
102
RTVSPropertyOp0
 70
     1
102
RTVSPropertyOp1
 70
     1
102
RTVSPropertyOp2
 70
     1
102
RTVSPropertyOp3
 70
     1
102
RTVSPropertyOp4
 70
     1
102
RTVSPropertyOp5
 70
     1
102
RTVSPropertyOp6
 70
     1
102
RTVSPropertyOp7
 70
     1
102
RTVSPropertyOp8
 70
     1
102
RTVSPropertyOp9
 70
     1
102
RTVSPropertyOp10
 70
     1
102
RTVSPropertyOp11
 70
     1
102
RTVSPropertyOp12
 70
     1
102
RTVSPropertyOp13
 70
     1
102
RTVSPropertyOp14
 70
     1
102
RTVSPropertyOp15
 70
     1
102
RTVSPropertyOp16
 70
     1
102
RTVSPropertyOp17
 70
     1
102
RTVSPropertyOp18
 70
     1
102
RTVSPropertyOp19
 70
     1
102
RTVSPropertyOp20
 70
     1
102
RTVSPropertyOp21
 70
     1
102
RTVSPropertyOp22
 70
     1
102
RTVSPropertyOp23
 70
     1
102
RTVSPropertyOp24
 70
     1
102
RTVSPropertyOp25
 70
     1
102
RTVSPropertyOp26
 70
     1
102
RTVSPropertyOp27
 70
     1
102
RTVSPropertyOp28
 70
     1
102
RTVSPropertyOp29
 70
     1
102
RTVSPropertyOp30
 70
     1
102
RTVSPropertyOp31
 70
     1
102
RTVSPropertyOp32
 70
     1
102
RTVSPropertyOp33
 70
     1
102
RTVSPropertyOp34
 70
     1
102
RTVSPropertyOp35
 70
     1
102
RTVSPropertyOp36
 70
     1
102
RTVSPropertyOp37
 70
     1
102
RTVSPropertyOp38
 70
     1
102
RTVSPropertyOp39
 70
     1
102
RTVSPropertyOp40
 70
     1
102
RTVSPropertyOp41
 70
     1
102
RTVSPropertyOp42
 70
     1
102
RTVSPropertyOp43
 70
     1
102
RTVSPropertyOp44
 70
     1
102
RTVSPropertyOp45
 70
     1
102
RTVSPropertyOp46
 70
     1
102
RTVSPropertyOp47
 70
     1
102
RTVSPropertyOp48
 70
     1
102
RTVSPropertyOp49
 70
     1
102
RTVSPropertyOp50
 70
     1
102
RTVSPropertyOp51
 70
     0
102
RTVSPropertyOp52
 70
     0
102
RTVSPropertyOp53
 70
     1
102
RTVSPropertyOp54
 70
     1
102
RTVSPropertyOp55
 70
     1
102
RTVSPropertyOp56
 70
     1
102
RTVSPropertyOp57
 70
     1
102
RTVSPost2010Prop28
280
     0
102
RTVSPost2010PropOp28
 70
     1
102
RTVSPost2010Prop29
280
     1
102
RTVSPost2010PropOp29
 70
     1
102
RTVSPost2010Prop30
280
     1
102
RTVSPost2010PropOp30
 70
     1
102
RTVSPost2010Prop31
280
     0
102
RTVSPost2010PropOp31
 70
     1
102
RTVSPost2010Prop32
280
     0
102
RTVSPost2010PropOp32
 70
     1
102
RTVSPost2010Prop33
280
     0
102
RTVSPost2010PropOp33
 70
     1
102
RTVSPost2010Prop34
280
     0
102
RTVSPost2010PropOp34
 70
     1
102
RTVSPost2010Prop35
280
     0
102
RTVSPost2010PropOp35
 70
     1
102
RTVSPost2010Prop36
280
     0
102
RTVSPost2010PropOp36
 70
     1
102
RTVSPost2010Prop37
 90
       50
102
RTVSPost2010PropOp37
 70
     1
102
RTVSPost2010Prop38
140
0.0
102
RTVSPost2010PropOp38
 70
     1
102
RTVSPost2010Prop39
140
1.0
102
RTVSPost2010PropOp39
 70
     1
102
RTVSPost2010Prop40
 90
        0
102
RTVSPost2010PropOp40
 70
     1
102
RTVSPost2010Prop41ColorIndex
 90
       18
102
RTVSPost2010Prop41ColorRGB
 90
        0
102
RTVSPost2010PropOp41
 70
     1
102
RTVSPost2010Prop42
 90
       50
102
RTVSPost2010PropOp42
 70
     1
102
RTVSPost2010Prop43
 90
        3
102
RTVSPost2010PropOp43
 70
     1
102
RTVSPost2010Prop44ColorIndex
 90
        5
102
RTVSPost2010Prop44ColorRGB
 90
      255
102
RTVSPost2010PropOp44
 70
     1
102
RTVSPost2010Prop45
280
     0
102
RTVSPost2010PropOp45
 70
     1
102
RTVSPost2010Prop46
 90
       50
102
RTVSPost2010PropOp46
 70
     1
102
RTVSPost2010Prop47
 90
       50
102
RTVSPost2010PropOp47
 70
     1
102
RTVSPost2010Prop48
 90
       50
102
RTVSPost2010PropOp48
 70
     1
102
RTVSPost2010Prop49
280
     0
102
RTVSPost2010PropOp49
 70
     1
102
RTVSPost2010Prop50
 90
       50
102
RTVSPost2010PropOp50
 70
     1
102
RTVSPost2010Prop51ColorIndex
 90
      256
102
RTVSPost2010Prop51ColorRGB
 90
-16777216
102
RTVSPost2010PropOp51
 70
     0
102
RTVSPost2010Prop52
140
1.0
102
RTVSPost2010PropOp52
 70
     0
102
RTVSPost2010Prop53
 90
        2
102
RTVSPost2010PropOp53
 70
     1
102
RTVSPost2010Prop54
  1
strokes_ogs.tif
102
RTVSPost2010PropOp54
 70
     1
102
RTVSPost2010Prop55
280
     0
102
RTVSPost2010PropOp55
 70
     1
102
RTVSPost2010Prop56
140
1.0
102
RTVSPost2010PropOp56
 70
     1
102
RTVSPost2010Prop57
140
1.0
102
RTVSPost2010PropOp57
 70
     1
  0
XRECORD
  5
9F9
102
{ACAD_REACTORS
330
9F8
102
}
330
9F8
100
AcDbXrecord
280
     1
102
RTVSPropertyOp0
 70
     0
102
RTVSPropertyOp1
 70
     0
102
RTVSPropertyOp2
 70
     0
102
RTVSPropertyOp3
 70
     0
102
RTVSPropertyOp4
 70
     0
102
RTVSPropertyOp5
 70
     0
102
RTVSPropertyOp6
 70
     0
102
RTVSPropertyOp7
 70
     0
102
RTVSPropertyOp8
 70
     0
102
RTVSPropertyOp9
 70
     0
102
RTVSPropertyOp10
 70
     0
102
RTVSPropertyOp11
 70
     0
102
RTVSPropertyOp12
 70
     0
102
RTVSPropertyOp13
 70
     0
102
RTVSPropertyOp14
 70
     0
102
RTVSPropertyOp15
 70
     0
102
RTVSPropertyOp16
 70
     0
102
RTVSPropertyOp17
 70
     0
102
RTVSPropertyOp18
 70
     0
102
RTVSPropertyOp19
 70
     0
102
RTVSPropertyOp20
 70
     0
102
RTVSPropertyOp21
 70
     0
102
RTVSPropertyOp22
 70
     0
102
RTVSPropertyOp23
 70
     0
102
RTVSPropertyOp24
 70
     0
102
RTVSPropertyOp25
 70
     0
102
RTVSPropertyOp26
 70
     0
102
RTVSPropertyOp27
 70
     0
102
RTVSPropertyOp28
 70
     1
102
RTVSPropertyOp29
 70
     1
102
RTVSPropertyOp30
 70
     1
102
RTVSPropertyOp31
 70
     1
102
RTVSPropertyOp32
 70
     1
102
RTVSPropertyOp33
 70
     1
102
RTVSPropertyOp34
 70
     1
102
RTVSPropertyOp35
 70
     1
102
RTVSPropertyOp36
 70
     1
102
RTVSPropertyOp37
 70
     1
102
RTVSPropertyOp38
 70
     1
102
RTVSPropertyOp39
 70
     1
102
RTVSPropertyOp40
 70
     1
102
RTVSPropertyOp41
 70
     1
102
RTVSPropertyOp42
 70
     1
102
RTVSPropertyOp43
 70
     1
102
RTVSPropertyOp44
 70
     1
102
RTVSPropertyOp45
 70
     1
102
RTVSPropertyOp46
 70
     1
102
RTVSPropertyOp47
 70
     1
102
RTVSPropertyOp48
 70
     1
102
RTVSPropertyOp49
 70
     1
102
RTVSPropertyOp50
 70
     1
102
RTVSPropertyOp51
 70
     0
102
RTVSPropertyOp52
 70
     0
102
RTVSPropertyOp53
 70
     1
102
RTVSPropertyOp54
 70
     1
102
RTVSPropertyOp55
 70
     1
102
RTVSPropertyOp56
 70
     1
102
RTVSPropertyOp57
 70
     1
102
RTVSPost2010Prop28
280
     0
102
RTVSPost2010PropOp28
 70
     1
102
RTVSPost2010Prop29
280
     1
102
RTVSPost2010PropOp29
 70
     1
102
RTVSPost2010Prop30
280
     1
102
RTVSPost2010PropOp30
 70
     1
102
RTVSPost2010Prop31
280
     0
102
RTVSPost2010PropOp31
 70
     1
102
RTVSPost2010Prop32
280
     0
102
RTVSPost2010PropOp32
 70
     1
102
RTVSPost2010Prop33
280
     0
102
RTVSPost2010PropOp33
 70
     1
102
RTVSPost2010Prop34
280
     0
102
RTVSPost2010PropOp34
 70
     1
102
RTVSPost2010Prop35
280
     0
102
RTVSPost2010PropOp35
 70
     1
102
RTVSPost2010Prop36
280
     0
102
RTVSPost2010PropOp36
 70
     1
102
RTVSPost2010Prop37
 90
       50
102
RTVSPost2010PropOp37
 70
     1
102
RTVSPost2010Prop38
140
0.0
102
RTVSPost2010PropOp38
 70
     1
102
RTVSPost2010Prop39
140
1.0
102
RTVSPost2010PropOp39
 70
     1
102
RTVSPost2010Prop40
 90
        0
102
RTVSPost2010PropOp40
 70
     1
102
RTVSPost2010Prop41ColorIndex
 90
       18
102
RTVSPost2010Prop41ColorRGB
 90
        0
102
RTVSPost2010PropOp41
 70
     1
102
RTVSPost2010Prop42
 90
       50
102
RTVSPost2010PropOp42
 70
     1
102
RTVSPost2010Prop43
 90
        3
102
RTVSPost2010PropOp43
 70
     1
102
RTVSPost2010Prop44ColorIndex
 90
        5
102
RTVSPost2010Prop44ColorRGB
 90
      255
102
RTVSPost2010PropOp44
 70
     1
102
RTVSPost2010Prop45
280
     0
102
RTVSPost2010PropOp45
 70
     1
102
RTVSPost2010Prop46
 90
       50
102
RTVSPost2010PropOp46
 70
     1
102
RTVSPost2010Prop47
 90
       50
102
RTVSPost2010PropOp47
 70
     1
102
RTVSPost2010Prop48
 90
       50
102
RTVSPost2010PropOp48
 70
     1
102
RTVSPost2010Prop49
280
     0
102
RTVSPost2010PropOp49
 70
     1
102
RTVSPost2010Prop50
 90
       50
102
RTVSPost2010PropOp50
 70
     1
102
RTVSPost2010Prop51ColorIndex
 90
      256
102
RTVSPost2010Prop51ColorRGB
 90
-16777216
102
RTVSPost2010PropOp51
 70
     0
102
RTVSPost2010Prop52
140
1.0
102
RTVSPost2010PropOp52
 70
     0
102
RTVSPost2010Prop53
 90
        2
102
RTVSPost2010PropOp53
 70
     1
102
RTVSPost2010Prop54
  1
strokes_ogs.tif
102
RTVSPost2010PropOp54
 70
     1
102
RTVSPost2010Prop55
280
     0
102
RTVSPost2010PropOp55
 70
     1
102
RTVSPost2010Prop56
140
1.0
102
RTVSPost2010PropOp56
 70
     1
102
RTVSPost2010Prop57
140
1.0
102
RTVSPost2010PropOp57
 70
     1
  0
XRECORD
  5
9F1
102
{ACAD_REACTORS
330
9F0
102
}
330
9F0
100
AcDbXrecord
280
     1
102
RTVSPropertyOp0
 70
     1
102
RTVSPropertyOp1
 70
     1
102
RTVSPropertyOp2
 70
     1
102
RTVSPropertyOp3
 70
     1
102
RTVSPropertyOp4
 70
     1
102
RTVSPropertyOp5
 70
     1
102
RTVSPropertyOp6
 70
     1
102
RTVSPropertyOp7
 70
     1
102
RTVSPropertyOp8
 70
     1
102
RTVSPropertyOp9
 70
     1
102
RTVSPropertyOp10
 70
     1
102
RTVSPropertyOp11
 70
     1
102
RTVSPropertyOp12
 70
     1
102
RTVSPropertyOp13
 70
     1
102
RTVSPropertyOp14
 70
     1
102
RTVSPropertyOp15
 70
     1
102
RTVSPropertyOp16
 70
     1
102
RTVSPropertyOp17
 70
     1
102
RTVSPropertyOp18
 70
     1
102
RTVSPropertyOp19
 70
     1
102
RTVSPropertyOp20
 70
     1
102
RTVSPropertyOp21
 70
     1
102
RTVSPropertyOp22
 70
     1
102
RTVSPropertyOp23
 70
     1
102
RTVSPropertyOp24
 70
     1
102
RTVSPropertyOp25
 70
     1
102
RTVSPropertyOp26
 70
     1
102
RTVSPropertyOp27
 70
     1
102
RTVSPropertyOp28
 70
     1
102
RTVSPropertyOp29
 70
     1
102
RTVSPropertyOp30
 70
     1
102
RTVSPropertyOp31
 70
     1
102
RTVSPropertyOp32
 70
     1
102
RTVSPropertyOp33
 70
     1
102
RTVSPropertyOp34
 70
     1
102
RTVSPropertyOp35
 70
     1
102
RTVSPropertyOp36
 70
     1
102
RTVSPropertyOp37
 70
     1
102
RTVSPropertyOp38
 70
     1
102
RTVSPropertyOp39
 70
     1
102
RTVSPropertyOp40
 70
     1
102
RTVSPropertyOp41
 70
     1
102
RTVSPropertyOp42
 70
     1
102
RTVSPropertyOp43
 70
     1
102
RTVSPropertyOp44
 70
     1
102
RTVSPropertyOp45
 70
     1
102
RTVSPropertyOp46
 70
     1
102
RTVSPropertyOp47
 70
     1
102
RTVSPropertyOp48
 70
     1
102
RTVSPropertyOp49
 70
     1
102
RTVSPropertyOp50
 70
     1
102
RTVSPropertyOp51
 70
     0
102
RTVSPropertyOp52
 70
     0
102
RTVSPropertyOp53
 70
     1
102
RTVSPropertyOp54
 70
     1
102
RTVSPropertyOp55
 70
     1
102
RTVSPropertyOp56
 70
     1
102
RTVSPropertyOp57
 70
     1
102
RTVSPost2010Prop28
280
     0
102
RTVSPost2010PropOp28
 70
     1
102
RTVSPost2010Prop29
280
     1
102
RTVSPost2010PropOp29
 70
     1
102
RTVSPost2010Prop30
280
     1
102
RTVSPost2010PropOp30
 70
     1
102
RTVSPost2010Prop31
280
     0
102
RTVSPost2010PropOp31
 70
     1
102
RTVSPost2010Prop32
280
     0
102
RTVSPost2010PropOp32
 70
     1
102
RTVSPost2010Prop33
280
     0
102
RTVSPost2010PropOp33
 70
     1
102
RTVSPost2010Prop34
280
     0
102
RTVSPost2010PropOp34
 70
     1
102
RTVSPost2010Prop35
280
     0
102
RTVSPost2010PropOp35
 70
     1
102
RTVSPost2010Prop36
280
     0
102
RTVSPost2010PropOp36
 70
     1
102
RTVSPost2010Prop37
 90
       50
102
RTVSPost2010PropOp37
 70
     1
102
RTVSPost2010Prop38
140
0.0
102
RTVSPost2010PropOp38
 70
     1
102
RTVSPost2010Prop39
140
1.0
102
RTVSPost2010PropOp39
 70
     1
102
RTVSPost2010Prop40
 90
        0
102
RTVSPost2010PropOp40
 70
     1
102
RTVSPost2010Prop41ColorIndex
 90
       18
102
RTVSPost2010Prop41ColorRGB
 90
        0
102
RTVSPost2010PropOp41
 70
     1
102
RTVSPost2010Prop42
 90
       50
102
RTVSPost2010PropOp42
 70
     1
102
RTVSPost2010Prop43
 90
        3
102
RTVSPost2010PropOp43
 70
     1
102
RTVSPost2010Prop44ColorIndex
 90
        5
102
RTVSPost2010Prop44ColorRGB
 90
      255
102
RTVSPost2010PropOp44
 70
     1
102
RTVSPost2010Prop45
280
     0
102
RTVSPost2010PropOp45
 70
     1
102
RTVSPost2010Prop46
 90
       50
102
RTVSPost2010PropOp46
 70
     1
102
RTVSPost2010Prop47
 90
       50
102
RTVSPost2010PropOp47
 70
     1
102
RTVSPost2010Prop48
 90
       50
102
RTVSPost2010PropOp48
 70
     1
102
RTVSPost2010Prop49
280
     0
102
RTVSPost2010PropOp49
 70
     1
102
RTVSPost2010Prop50
 90
       50
102
RTVSPost2010PropOp50
 70
     1
102
RTVSPost2010Prop51ColorIndex
 90
      256
102
RTVSPost2010Prop51ColorRGB
 90
-16777216
102
RTVSPost2010PropOp51
 70
     0
102
RTVSPost2010Prop52
140
1.0
102
RTVSPost2010PropOp52
 70
     0
102
RTVSPost2010Prop53
 90
        2
102
RTVSPost2010PropOp53
 70
     1
102
RTVSPost2010Prop54
  1
strokes_ogs.tif
102
RTVSPost2010PropOp54
 70
     1
102
RTVSPost2010Prop55
280
     0
102
RTVSPost2010PropOp55
 70
     1
102
RTVSPost2010Prop56
140
1.0
102
RTVSPost2010PropOp56
 70
     1
102
RTVSPost2010Prop57
140
1.0
102
RTVSPost2010PropOp57
 70
     1
  0
XRECORD
  5
9D5
102
{ACAD_REACTORS
330
9D4
102
}
330
9D4
100
AcDbXrecord
280
     1
102
RTVSPropertyOp0
 70
     1
102
RTVSPropertyOp1
 70
     1
102
RTVSPropertyOp2
 70
     1
102
RTVSPropertyOp3
 70
     1
102
RTVSPropertyOp4
 70
     1
102
RTVSPropertyOp5
 70
     1
102
RTVSPropertyOp6
 70
     1
102
RTVSPropertyOp7
 70
     1
102
RTVSPropertyOp8
 70
     1
102
RTVSPropertyOp9
 70
     1
102
RTVSPropertyOp10
 70
     1
102
RTVSPropertyOp11
 70
     1
102
RTVSPropertyOp12
 70
     1
102
RTVSPropertyOp13
 70
     1
102
RTVSPropertyOp14
 70
     1
102
RTVSPropertyOp15
 70
     1
102
RTVSPropertyOp16
 70
     1
102
RTVSPropertyOp17
 70
     1
102
RTVSPropertyOp18
 70
     1
102
RTVSPropertyOp19
 70
     1
102
RTVSPropertyOp20
 70
     1
102
RTVSPropertyOp21
 70
     1
102
RTVSPropertyOp22
 70
     1
102
RTVSPropertyOp23
 70
     1
102
RTVSPropertyOp24
 70
     1
102
RTVSPropertyOp25
 70
     1
102
RTVSPropertyOp26
 70
     1
102
RTVSPropertyOp27
 70
     1
102
RTVSPropertyOp28
 70
     1
102
RTVSPropertyOp29
 70
     1
102
RTVSPropertyOp30
 70
     1
102
RTVSPropertyOp31
 70
     1
102
RTVSPropertyOp32
 70
     1
102
RTVSPropertyOp33
 70
     1
102
RTVSPropertyOp34
 70
     1
102
RTVSPropertyOp35
 70
     1
102
RTVSPropertyOp36
 70
     1
102
RTVSPropertyOp37
 70
     1
102
RTVSPropertyOp38
 70
     1
102
RTVSPropertyOp39
 70
     1
102
RTVSPropertyOp40
 70
     1
102
RTVSPropertyOp41
 70
     1
102
RTVSPropertyOp42
 70
     1
102
RTVSPropertyOp43
 70
     1
102
RTVSPropertyOp44
 70
     1
102
RTVSPropertyOp45
 70
     1
102
RTVSPropertyOp46
 70
     1
102
RTVSPropertyOp47
 70
     1
102
RTVSPropertyOp48
 70
     1
102
RTVSPropertyOp49
 70
     1
102
RTVSPropertyOp50
 70
     1
102
RTVSPropertyOp51
 70
     0
102
RTVSPropertyOp52
 70
     0
102
RTVSPropertyOp53
 70
     1
102
RTVSPropertyOp54
 70
     1
102
RTVSPropertyOp55
 70
     1
102
RTVSPropertyOp56
 70
     1
102
RTVSPropertyOp57
 70
     1
102
RTVSPost2010Prop28
280
     0
102
RTVSPost2010PropOp28
 70
     1
102
RTVSPost2010Prop29
280
     1
102
RTVSPost2010PropOp29
 70
     1
102
RTVSPost2010Prop30
280
     1
102
RTVSPost2010PropOp30
 70
     1
102
RTVSPost2010Prop31
280
     0
102
RTVSPost2010PropOp31
 70
     1
102
RTVSPost2010Prop32
280
     0
102
RTVSPost2010PropOp32
 70
     1
102
RTVSPost2010Prop33
280
     0
102
RTVSPost2010PropOp33
 70
     1
102
RTVSPost2010Prop34
280
     0
102
RTVSPost2010PropOp34
 70
     1
102
RTVSPost2010Prop35
280
     0
102
RTVSPost2010PropOp35
 70
     1
102
RTVSPost2010Prop36
280
     0
102
RTVSPost2010PropOp36
 70
     1
102
RTVSPost2010Prop37
 90
       50
102
RTVSPost2010PropOp37
 70
     1
102
RTVSPost2010Prop38
140
0.0
102
RTVSPost2010PropOp38
 70
     1
102
RTVSPost2010Prop39
140
1.0
102
RTVSPost2010PropOp39
 70
     1
102
RTVSPost2010Prop40
 90
        0
102
RTVSPost2010PropOp40
 70
     1
102
RTVSPost2010Prop41ColorIndex
 90
       18
102
RTVSPost2010Prop41ColorRGB
 90
        0
102
RTVSPost2010PropOp41
 70
     1
102
RTVSPost2010Prop42
 90
       50
102
RTVSPost2010PropOp42
 70
     1
102
RTVSPost2010Prop43
 90
        3
102
RTVSPost2010PropOp43
 70
     1
102
RTVSPost2010Prop44ColorIndex
 90
        5
102
RTVSPost2010Prop44ColorRGB
 90
      255
102
RTVSPost2010PropOp44
 70
     1
102
RTVSPost2010Prop45
280
     0
102
RTVSPost2010PropOp45
 70
     1
102
RTVSPost2010Prop46
 90
       50
102
RTVSPost2010PropOp46
 70
     1
102
RTVSPost2010Prop47
 90
       50
102
RTVSPost2010PropOp47
 70
     1
102
RTVSPost2010Prop48
 90
       50
102
RTVSPost2010PropOp48
 70
     1
102
RTVSPost2010Prop49
280
     0
102
RTVSPost2010PropOp49
 70
     1
102
RTVSPost2010Prop50
 90
       50
102
RTVSPost2010PropOp50
 70
     1
102
RTVSPost2010Prop51ColorIndex
 90
      256
102
RTVSPost2010Prop51ColorRGB
 90
-16777216
102
RTVSPost2010PropOp51
 70
     0
102
RTVSPost2010Prop52
140
1.0
102
RTVSPost2010PropOp52
 70
     0
102
RTVSPost2010Prop53
 90
        2
102
RTVSPost2010PropOp53
 70
     1
102
RTVSPost2010Prop54
  1
strokes_ogs.tif
102
RTVSPost2010PropOp54
 70
     1
102
RTVSPost2010Prop55
280
     0
102
RTVSPost2010PropOp55
 70
     1
102
RTVSPost2010Prop56
140
1.0
102
RTVSPost2010PropOp56
 70
     1
102
RTVSPost2010Prop57
140
1.0
102
RTVSPost2010PropOp57
 70
     1
  0
XRECORD
  5
9D7
102
{ACAD_REACTORS
330
9D6
102
}
330
9D6
100
AcDbXrecord
280
     1
102
RTVSPropertyOp0
 70
     1
102
RTVSPropertyOp1
 70
     1
102
RTVSPropertyOp2
 70
     1
102
RTVSPropertyOp3
 70
     1
102
RTVSPropertyOp4
 70
     1
102
RTVSPropertyOp5
 70
     1
102
RTVSPropertyOp6
 70
     1
102
RTVSPropertyOp7
 70
     1
102
RTVSPropertyOp8
 70
     1
102
RTVSPropertyOp9
 70
     1
102
RTVSPropertyOp10
 70
     1
102
RTVSPropertyOp11
 70
     1
102
RTVSPropertyOp12
 70
     1
102
RTVSPropertyOp13
 70
     1
102
RTVSPropertyOp14
 70
     1
102
RTVSPropertyOp15
 70
     1
102
RTVSPropertyOp16
 70
     1
102
RTVSPropertyOp17
 70
     1
102
RTVSPropertyOp18
 70
     1
102
RTVSPropertyOp19
 70
     1
102
RTVSPropertyOp20
 70
     1
102
RTVSPropertyOp21
 70
     1
102
RTVSPropertyOp22
 70
     1
102
RTVSPropertyOp23
 70
     1
102
RTVSPropertyOp24
 70
     1
102
RTVSPropertyOp25
 70
     1
102
RTVSPropertyOp26
 70
     1
102
RTVSPropertyOp27
 70
     1
102
RTVSPropertyOp28
 70
     1
102
RTVSPropertyOp29
 70
     1
102
RTVSPropertyOp30
 70
     1
102
RTVSPropertyOp31
 70
     1
102
RTVSPropertyOp32
 70
     1
102
RTVSPropertyOp33
 70
     1
102
RTVSPropertyOp34
 70
     1
102
RTVSPropertyOp35
 70
     1
102
RTVSPropertyOp36
 70
     1
102
RTVSPropertyOp37
 70
     1
102
RTVSPropertyOp38
 70
     1
102
RTVSPropertyOp39
 70
     1
102
RTVSPropertyOp40
 70
     1
102
RTVSPropertyOp41
 70
     1
102
RTVSPropertyOp42
 70
     1
102
RTVSPropertyOp43
 70
     1
102
RTVSPropertyOp44
 70
     1
102
RTVSPropertyOp45
 70
     1
102
RTVSPropertyOp46
 70
     1
102
RTVSPropertyOp47
 70
     1
102
RTVSPropertyOp48
 70
     1
102
RTVSPropertyOp49
 70
     1
102
RTVSPropertyOp50
 70
     1
102
RTVSPropertyOp51
 70
     0
102
RTVSPropertyOp52
 70
     0
102
RTVSPropertyOp53
 70
     1
102
RTVSPropertyOp54
 70
     1
102
RTVSPropertyOp55
 70
     1
102
RTVSPropertyOp56
 70
     1
102
RTVSPropertyOp57
 70
     1
102
RTVSPost2010Prop28
280
     0
102
RTVSPost2010PropOp28
 70
     1
102
RTVSPost2010Prop29
280
     1
102
RTVSPost2010PropOp29
 70
     1
102
RTVSPost2010Prop30
280
     1
102
RTVSPost2010PropOp30
 70
     1
102
RTVSPost2010Prop31
280
     0
102
RTVSPost2010PropOp31
 70
     1
102
RTVSPost2010Prop32
280
     0
102
RTVSPost2010PropOp32
 70
     1
102
RTVSPost2010Prop33
280
     0
102
RTVSPost2010PropOp33
 70
     1
102
RTVSPost2010Prop34
280
     0
102
RTVSPost2010PropOp34
 70
     1
102
RTVSPost2010Prop35
280
     0
102
RTVSPost2010PropOp35
 70
     1
102
RTVSPost2010Prop36
280
     0
102
RTVSPost2010PropOp36
 70
     1
102
RTVSPost2010Prop37
 90
       50
102
RTVSPost2010PropOp37
 70
     1
102
RTVSPost2010Prop38
140
0.0
102
RTVSPost2010PropOp38
 70
     1
102
RTVSPost2010Prop39
140
1.0
102
RTVSPost2010PropOp39
 70
     1
102
RTVSPost2010Prop40
 90
        0
102
RTVSPost2010PropOp40
 70
     1
102
RTVSPost2010Prop41ColorIndex
 90
       18
102
RTVSPost2010Prop41ColorRGB
 90
        0
102
RTVSPost2010PropOp41
 70
     1
102
RTVSPost2010Prop42
 90
       50
102
RTVSPost2010PropOp42
 70
     1
102
RTVSPost2010Prop43
 90
        3
102
RTVSPost2010PropOp43
 70
     1
102
RTVSPost2010Prop44ColorIndex
 90
        5
102
RTVSPost2010Prop44ColorRGB
 90
      255
102
RTVSPost2010PropOp44
 70
     1
102
RTVSPost2010Prop45
280
     0
102
RTVSPost2010PropOp45
 70
     1
102
RTVSPost2010Prop46
 90
       50
102
RTVSPost2010PropOp46
 70
     1
102
RTVSPost2010Prop47
 90
       50
102
RTVSPost2010PropOp47
 70
     1
102
RTVSPost2010Prop48
 90
       50
102
RTVSPost2010PropOp48
 70
     1
102
RTVSPost2010Prop49
280
     0
102
RTVSPost2010PropOp49
 70
     1
102
RTVSPost2010Prop50
 90
       50
102
RTVSPost2010PropOp50
 70
     1
102
RTVSPost2010Prop51ColorIndex
 90
      256
102
RTVSPost2010Prop51ColorRGB
 90
-16777216
102
RTVSPost2010PropOp51
 70
     0
102
RTVSPost2010Prop52
140
1.0
102
RTVSPost2010PropOp52
 70
     0
102
RTVSPost2010Prop53
 90
        2
102
RTVSPost2010PropOp53
 70
     1
102
RTVSPost2010Prop54
  1
strokes_ogs.tif
102
RTVSPost2010PropOp54
 70
     1
102
RTVSPost2010Prop55
280
     0
102
RTVSPost2010PropOp55
 70
     1
102
RTVSPost2010Prop56
140
1.0
102
RTVSPost2010PropOp56
 70
     1
102
RTVSPost2010Prop57
140
1.0
102
RTVSPost2010PropOp57
 70
     1
  0
XRECORD
  5
9D9
102
{ACAD_REACTORS
330
9D8
102
}
330
9D8
100
AcDbXrecord
280
     1
102
RTVSPropertyOp0
 70
     1
102
RTVSPropertyOp1
 70
     1
102
RTVSPropertyOp2
 70
     1
102
RTVSPropertyOp3
 70
     1
102
RTVSPropertyOp4
 70
     1
102
RTVSPropertyOp5
 70
     1
102
RTVSPropertyOp6
 70
     1
102
RTVSPropertyOp7
 70
     1
102
RTVSPropertyOp8
 70
     1
102
RTVSPropertyOp9
 70
     1
102
RTVSPropertyOp10
 70
     1
102
RTVSPropertyOp11
 70
     1
102
RTVSPropertyOp12
 70
     1
102
RTVSPropertyOp13
 70
     1
102
RTVSPropertyOp14
 70
     1
102
RTVSPropertyOp15
 70
     1
102
RTVSPropertyOp16
 70
     1
102
RTVSPropertyOp17
 70
     1
102
RTVSPropertyOp18
 70
     1
102
RTVSPropertyOp19
 70
     1
102
RTVSPropertyOp20
 70
     1
102
RTVSPropertyOp21
 70
     1
102
RTVSPropertyOp22
 70
     1
102
RTVSPropertyOp23
 70
     1
102
RTVSPropertyOp24
 70
     1
102
RTVSPropertyOp25
 70
     1
102
RTVSPropertyOp26
 70
     1
102
RTVSPropertyOp27
 70
     1
102
RTVSPropertyOp28
 70
     1
102
RTVSPropertyOp29
 70
     1
102
RTVSPropertyOp30
 70
     1
102
RTVSPropertyOp31
 70
     1
102
RTVSPropertyOp32
 70
     1
102
RTVSPropertyOp33
 70
     1
102
RTVSPropertyOp34
 70
     1
102
RTVSPropertyOp35
 70
     1
102
RTVSPropertyOp36
 70
     1
102
RTVSPropertyOp37
 70
     1
102
RTVSPropertyOp38
 70
     1
102
RTVSPropertyOp39
 70
     1
102
RTVSPropertyOp40
 70
     1
102
RTVSPropertyOp41
 70
     1
102
RTVSPropertyOp42
 70
     1
102
RTVSPropertyOp43
 70
     1
102
RTVSPropertyOp44
 70
     1
102
RTVSPropertyOp45
 70
     1
102
RTVSPropertyOp46
 70
     1
102
RTVSPropertyOp47
 70
     1
102
RTVSPropertyOp48
 70
     1
102
RTVSPropertyOp49
 70
     1
102
RTVSPropertyOp50
 70
     1
102
RTVSPropertyOp51
 70
     0
102
RTVSPropertyOp52
 70
     0
102
RTVSPropertyOp53
 70
     1
102
RTVSPropertyOp54
 70
     1
102
RTVSPropertyOp55
 70
     1
102
RTVSPropertyOp56
 70
     1
102
RTVSPropertyOp57
 70
     1
102
RTVSPost2010Prop28
280
     0
102
RTVSPost2010PropOp28
 70
     1
102
RTVSPost2010Prop29
280
     1
102
RTVSPost2010PropOp29
 70
     1
102
RTVSPost2010Prop30
280
     1
102
RTVSPost2010PropOp30
 70
     1
102
RTVSPost2010Prop31
280
     0
102
RTVSPost2010PropOp31
 70
     1
102
RTVSPost2010Prop32
280
     0
102
RTVSPost2010PropOp32
 70
     1
102
RTVSPost2010Prop33
280
     0
102
RTVSPost2010PropOp33
 70
     1
102
RTVSPost2010Prop34
280
     0
102
RTVSPost2010PropOp34
 70
     1
102
RTVSPost2010Prop35
280
     0
102
RTVSPost2010PropOp35
 70
     1
102
RTVSPost2010Prop36
280
     0
102
RTVSPost2010PropOp36
 70
     1
102
RTVSPost2010Prop37
 90
       50
102
RTVSPost2010PropOp37
 70
     1
102
RTVSPost2010Prop38
140
0.0
102
RTVSPost2010PropOp38
 70
     1
102
RTVSPost2010Prop39
140
1.0
102
RTVSPost2010PropOp39
 70
     1
102
RTVSPost2010Prop40
 90
        0
102
RTVSPost2010PropOp40
 70
     1
102
RTVSPost2010Prop41ColorIndex
 90
       18
102
RTVSPost2010Prop41ColorRGB
 90
        0
102
RTVSPost2010PropOp41
 70
     1
102
RTVSPost2010Prop42
 90
       50
102
RTVSPost2010PropOp42
 70
     1
102
RTVSPost2010Prop43
 90
        3
102
RTVSPost2010PropOp43
 70
     1
102
RTVSPost2010Prop44ColorIndex
 90
        5
102
RTVSPost2010Prop44ColorRGB
 90
      255
102
RTVSPost2010PropOp44
 70
     1
102
RTVSPost2010Prop45
280
     0
102
RTVSPost2010PropOp45
 70
     1
102
RTVSPost2010Prop46
 90
       50
102
RTVSPost2010PropOp46
 70
     1
102
RTVSPost2010Prop47
 90
       50
102
RTVSPost2010PropOp47
 70
     1
102
RTVSPost2010Prop48
 90
       50
102
RTVSPost2010PropOp48
 70
     1
102
RTVSPost2010Prop49
280
     0
102
RTVSPost2010PropOp49
 70
     1
102
RTVSPost2010Prop50
 90
       50
102
RTVSPost2010PropOp50
 70
     1
102
RTVSPost2010Prop51ColorIndex
 90
      256
102
RTVSPost2010Prop51ColorRGB
 90
-16777216
102
RTVSPost2010PropOp51
 70
     0
102
RTVSPost2010Prop52
140
1.0
102
RTVSPost2010PropOp52
 70
     0
102
RTVSPost2010Prop53
 90
        2
102
RTVSPost2010PropOp53
 70
     1
102
RTVSPost2010Prop54
  1
strokes_ogs.tif
102
RTVSPost2010PropOp54
 70
     1
102
RTVSPost2010Prop55
280
     0
102
RTVSPost2010PropOp55
 70
     1
102
RTVSPost2010Prop56
140
1.0
102
RTVSPost2010PropOp56
 70
     1
102
RTVSPost2010Prop57
140
1.0
102
RTVSPost2010PropOp57
 70
     1
  0
XRECORD
  5
9DB
102
{ACAD_REACTORS
330
9DA
102
}
330
9DA
100
AcDbXrecord
280
     1
102
RTVSPropertyOp0
 70
     1
102
RTVSPropertyOp1
 70
     1
102
RTVSPropertyOp2
 70
     1
102
RTVSPropertyOp3
 70
     1
102
RTVSPropertyOp4
 70
     1
102
RTVSPropertyOp5
 70
     1
102
RTVSPropertyOp6
 70
     1
102
RTVSPropertyOp7
 70
     1
102
RTVSPropertyOp8
 70
     1
102
RTVSPropertyOp9
 70
     1
102
RTVSPropertyOp10
 70
     1
102
RTVSPropertyOp11
 70
     1
102
RTVSPropertyOp12
 70
     1
102
RTVSPropertyOp13
 70
     1
102
RTVSPropertyOp14
 70
     1
102
RTVSPropertyOp15
 70
     1
102
RTVSPropertyOp16
 70
     1
102
RTVSPropertyOp17
 70
     1
102
RTVSPropertyOp18
 70
     1
102
RTVSPropertyOp19
 70
     1
102
RTVSPropertyOp20
 70
     1
102
RTVSPropertyOp21
 70
     1
102
RTVSPropertyOp22
 70
     1
102
RTVSPropertyOp23
 70
     1
102
RTVSPropertyOp24
 70
     1
102
RTVSPropertyOp25
 70
     1
102
RTVSPropertyOp26
 70
     1
102
RTVSPropertyOp27
 70
     1
102
RTVSPropertyOp28
 70
     1
102
RTVSPropertyOp29
 70
     1
102
RTVSPropertyOp30
 70
     1
102
RTVSPropertyOp31
 70
     1
102
RTVSPropertyOp32
 70
     1
102
RTVSPropertyOp33
 70
     1
102
RTVSPropertyOp34
 70
     1
102
RTVSPropertyOp35
 70
     1
102
RTVSPropertyOp36
 70
     1
102
RTVSPropertyOp37
 70
     1
102
RTVSPropertyOp38
 70
     1
102
RTVSPropertyOp39
 70
     1
102
RTVSPropertyOp40
 70
     1
102
RTVSPropertyOp41
 70
     1
102
RTVSPropertyOp42
 70
     1
102
RTVSPropertyOp43
 70
     1
102
RTVSPropertyOp44
 70
     1
102
RTVSPropertyOp45
 70
     1
102
RTVSPropertyOp46
 70
     1
102
RTVSPropertyOp47
 70
     1
102
RTVSPropertyOp48
 70
     1
102
RTVSPropertyOp49
 70
     1
102
RTVSPropertyOp50
 70
     1
102
RTVSPropertyOp51
 70
     0
102
RTVSPropertyOp52
 70
     0
102
RTVSPropertyOp53
 70
     1
102
RTVSPropertyOp54
 70
     1
102
RTVSPropertyOp55
 70
     1
102
RTVSPropertyOp56
 70
     1
102
RTVSPropertyOp57
 70
     1
102
RTVSPost2010Prop28
280
     0
102
RTVSPost2010PropOp28
 70
     1
102
RTVSPost2010Prop29
280
     1
102
RTVSPost2010PropOp29
 70
     1
102
RTVSPost2010Prop30
280
     1
102
RTVSPost2010PropOp30
 70
     1
102
RTVSPost2010Prop31
280
     0
102
RTVSPost2010PropOp31
 70
     1
102
RTVSPost2010Prop32
280
     0
102
RTVSPost2010PropOp32
 70
     1
102
RTVSPost2010Prop33
280
     0
102
RTVSPost2010PropOp33
 70
     1
102
RTVSPost2010Prop34
280
     0
102
RTVSPost2010PropOp34
 70
     1
102
RTVSPost2010Prop35
280
     0
102
RTVSPost2010PropOp35
 70
     1
102
RTVSPost2010Prop36
280
     0
102
RTVSPost2010PropOp36
 70
     1
102
RTVSPost2010Prop37
 90
       50
102
RTVSPost2010PropOp37
 70
     1
102
RTVSPost2010Prop38
140
0.0
102
RTVSPost2010PropOp38
 70
     1
102
RTVSPost2010Prop39
140
1.0
102
RTVSPost2010PropOp39
 70
     1
102
RTVSPost2010Prop40
 90
        0
102
RTVSPost2010PropOp40
 70
     1
102
RTVSPost2010Prop41ColorIndex
 90
       18
102
RTVSPost2010Prop41ColorRGB
 90
        0
102
RTVSPost2010PropOp41
 70
     1
102
RTVSPost2010Prop42
 90
       50
102
RTVSPost2010PropOp42
 70
     1
102
RTVSPost2010Prop43
 90
        3
102
RTVSPost2010PropOp43
 70
     1
102
RTVSPost2010Prop44ColorIndex
 90
        5
102
RTVSPost2010Prop44ColorRGB
 90
      255
102
RTVSPost2010PropOp44
 70
     1
102
RTVSPost2010Prop45
280
     0
102
RTVSPost2010PropOp45
 70
     1
102
RTVSPost2010Prop46
 90
       50
102
RTVSPost2010PropOp46
 70
     1
102
RTVSPost2010Prop47
 90
       50
102
RTVSPost2010PropOp47
 70
     1
102
RTVSPost2010Prop48
 90
       50
102
RTVSPost2010PropOp48
 70
     1
102
RTVSPost2010Prop49
280
     0
102
RTVSPost2010PropOp49
 70
     1
102
RTVSPost2010Prop50
 90
       50
102
RTVSPost2010PropOp50
 70
     1
102
RTVSPost2010Prop51ColorIndex
 90
      256
102
RTVSPost2010Prop51ColorRGB
 90
-16777216
102
RTVSPost2010PropOp51
 70
     0
102
RTVSPost2010Prop52
140
1.0
102
RTVSPost2010PropOp52
 70
     0
102
RTVSPost2010Prop53
 90
        2
102
RTVSPost2010PropOp53
 70
     1
102
RTVSPost2010Prop54
  1
strokes_ogs.tif
102
RTVSPost2010PropOp54
 70
     1
102
RTVSPost2010Prop55
280
     0
102
RTVSPost2010PropOp55
 70
     1
102
RTVSPost2010Prop56
140
1.0
102
RTVSPost2010PropOp56
 70
     1
102
RTVSPost2010Prop57
140
1.0
102
RTVSPost2010PropOp57
 70
     1
  0
XRECORD
  5
9E1
102
{ACAD_REACTORS
330
9E0
102
}
330
9E0
100
AcDbXrecord
280
     1
102
RTVSPropertyOp0
 70
     1
102
RTVSPropertyOp1
 70
     1
102
RTVSPropertyOp2
 70
     1
102
RTVSPropertyOp3
 70
     1
102
RTVSPropertyOp4
 70
     1
102
RTVSPropertyOp5
 70
     1
102
RTVSPropertyOp6
 70
     1
102
RTVSPropertyOp7
 70
     1
102
RTVSPropertyOp8
 70
     1
102
RTVSPropertyOp9
 70
     1
102
RTVSPropertyOp10
 70
     1
102
RTVSPropertyOp11
 70
     1
102
RTVSPropertyOp12
 70
     1
102
RTVSPropertyOp13
 70
     1
102
RTVSPropertyOp14
 70
     1
102
RTVSPropertyOp15
 70
     1
102
RTVSPropertyOp16
 70
     1
102
RTVSPropertyOp17
 70
     1
102
RTVSPropertyOp18
 70
     1
102
RTVSPropertyOp19
 70
     1
102
RTVSPropertyOp20
 70
     1
102
RTVSPropertyOp21
 70
     1
102
RTVSPropertyOp22
 70
     1
102
RTVSPropertyOp23
 70
     1
102
RTVSPropertyOp24
 70
     1
102
RTVSPropertyOp25
 70
     1
102
RTVSPropertyOp26
 70
     1
102
RTVSPropertyOp27
 70
     1
102
RTVSPropertyOp28
 70
     1
102
RTVSPropertyOp29
 70
     1
102
RTVSPropertyOp30
 70
     1
102
RTVSPropertyOp31
 70
     1
102
RTVSPropertyOp32
 70
     1
102
RTVSPropertyOp33
 70
     1
102
RTVSPropertyOp34
 70
     1
102
RTVSPropertyOp35
 70
     1
102
RTVSPropertyOp36
 70
     1
102
RTVSPropertyOp37
 70
     1
102
RTVSPropertyOp38
 70
     1
102
RTVSPropertyOp39
 70
     1
102
RTVSPropertyOp40
 70
     1
102
RTVSPropertyOp41
 70
     1
102
RTVSPropertyOp42
 70
     1
102
RTVSPropertyOp43
 70
     1
102
RTVSPropertyOp44
 70
     1
102
RTVSPropertyOp45
 70
     1
102
RTVSPropertyOp46
 70
     1
102
RTVSPropertyOp47
 70
     1
102
RTVSPropertyOp48
 70
     1
102
RTVSPropertyOp49
 70
     1
102
RTVSPropertyOp50
 70
     1
102
RTVSPropertyOp51
 70
     0
102
RTVSPropertyOp52
 70
     0
102
RTVSPropertyOp53
 70
     1
102
RTVSPropertyOp54
 70
     1
102
RTVSPropertyOp55
 70
     1
102
RTVSPropertyOp56
 70
     1
102
RTVSPropertyOp57
 70
     1
102
RTVSPost2010Prop28
280
     0
102
RTVSPost2010PropOp28
 70
     1
102
RTVSPost2010Prop29
280
     1
102
RTVSPost2010PropOp29
 70
     1
102
RTVSPost2010Prop30
280
     1
102
RTVSPost2010PropOp30
 70
     1
102
RTVSPost2010Prop31
280
     0
102
RTVSPost2010PropOp31
 70
     1
102
RTVSPost2010Prop32
280
     0
102
RTVSPost2010PropOp32
 70
     1
102
RTVSPost2010Prop33
280
     0
102
RTVSPost2010PropOp33
 70
     1
102
RTVSPost2010Prop34
280
     0
102
RTVSPost2010PropOp34
 70
     1
102
RTVSPost2010Prop35
280
     0
102
RTVSPost2010PropOp35
 70
     1
102
RTVSPost2010Prop36
280
     0
102
RTVSPost2010PropOp36
 70
     1
102
RTVSPost2010Prop37
 90
       50
102
RTVSPost2010PropOp37
 70
     1
102
RTVSPost2010Prop38
140
0.0
102
RTVSPost2010PropOp38
 70
     1
102
RTVSPost2010Prop39
140
1.0
102
RTVSPost2010PropOp39
 70
     1
102
RTVSPost2010Prop40
 90
        0
102
RTVSPost2010PropOp40
 70
     1
102
RTVSPost2010Prop41ColorIndex
 90
       18
102
RTVSPost2010Prop41ColorRGB
 90
        0
102
RTVSPost2010PropOp41
 70
     1
102
RTVSPost2010Prop42
 90
       50
102
RTVSPost2010PropOp42
 70
     1
102
RTVSPost2010Prop43
 90
        3
102
RTVSPost2010PropOp43
 70
     1
102
RTVSPost2010Prop44ColorIndex
 90
        5
102
RTVSPost2010Prop44ColorRGB
 90
      255
102
RTVSPost2010PropOp44
 70
     1
102
RTVSPost2010Prop45
280
     0
102
RTVSPost2010PropOp45
 70
     1
102
RTVSPost2010Prop46
 90
       50
102
RTVSPost2010PropOp46
 70
     1
102
RTVSPost2010Prop47
 90
       50
102
RTVSPost2010PropOp47
 70
     1
102
RTVSPost2010Prop48
 90
       50
102
RTVSPost2010PropOp48
 70
     1
102
RTVSPost2010Prop49
280
     0
102
RTVSPost2010PropOp49
 70
     1
102
RTVSPost2010Prop50
 90
       50
102
RTVSPost2010PropOp50
 70
     1
102
RTVSPost2010Prop51ColorIndex
 90
      256
102
RTVSPost2010Prop51ColorRGB
 90
-16777216
102
RTVSPost2010PropOp51
 70
     0
102
RTVSPost2010Prop52
140
1.0
102
RTVSPost2010PropOp52
 70
     0
102
RTVSPost2010Prop53
 90
        2
102
RTVSPost2010PropOp53
 70
     1
102
RTVSPost2010Prop54
  1
strokes_ogs.tif
102
RTVSPost2010PropOp54
 70
     1
102
RTVSPost2010Prop55
280
     0
102
RTVSPost2010PropOp55
 70
     1
102
RTVSPost2010Prop56
140
1.0
102
RTVSPost2010PropOp56
 70
     1
102
RTVSPost2010Prop57
140
1.0
102
RTVSPost2010PropOp57
 70
     1
  0
XRECORD
  5
9F5
102
{ACAD_REACTORS
330
9F4
102
}
330
9F4
100
AcDbXrecord
280
     1
102
RTVSPropertyOp0
 70
     0
102
RTVSPropertyOp1
 70
     0
102
RTVSPropertyOp2
 70
     0
102
RTVSPropertyOp3
 70
     0
102
RTVSPropertyOp4
 70
     0
102
RTVSPropertyOp5
 70
     0
102
RTVSPropertyOp6
 70
     0
102
RTVSPropertyOp7
 70
     0
102
RTVSPropertyOp8
 70
     0
102
RTVSPropertyOp9
 70
     0
102
RTVSPropertyOp10
 70
     0
102
RTVSPropertyOp11
 70
     0
102
RTVSPropertyOp12
 70
     0
102
RTVSPropertyOp13
 70
     0
102
RTVSPropertyOp14
 70
     0
102
RTVSPropertyOp15
 70
     0
102
RTVSPropertyOp16
 70
     0
102
RTVSPropertyOp17
 70
     0
102
RTVSPropertyOp18
 70
     0
102
RTVSPropertyOp19
 70
     0
102
RTVSPropertyOp20
 70
     0
102
RTVSPropertyOp21
 70
     0
102
RTVSPropertyOp22
 70
     0
102
RTVSPropertyOp23
 70
     0
102
RTVSPropertyOp24
 70
     0
102
RTVSPropertyOp25
 70
     0
102
RTVSPropertyOp26
 70
     0
102
RTVSPropertyOp27
 70
     0
102
RTVSPropertyOp28
 70
     1
102
RTVSPropertyOp29
 70
     1
102
RTVSPropertyOp30
 70
     1
102
RTVSPropertyOp31
 70
     1
102
RTVSPropertyOp32
 70
     1
102
RTVSPropertyOp33
 70
     1
102
RTVSPropertyOp34
 70
     1
102
RTVSPropertyOp35
 70
     1
102
RTVSPropertyOp36
 70
     1
102
RTVSPropertyOp37
 70
     1
102
RTVSPropertyOp38
 70
     1
102
RTVSPropertyOp39
 70
     1
102
RTVSPropertyOp40
 70
     1
102
RTVSPropertyOp41
 70
     1
102
RTVSPropertyOp42
 70
     1
102
RTVSPropertyOp43
 70
     1
102
RTVSPropertyOp44
 70
     1
102
RTVSPropertyOp45
 70
     1
102
RTVSPropertyOp46
 70
     1
102
RTVSPropertyOp47
 70
     1
102
RTVSPropertyOp48
 70
     1
102
RTVSPropertyOp49
 70
     1
102
RTVSPropertyOp50
 70
     1
102
RTVSPropertyOp51
 70
     0
102
RTVSPropertyOp52
 70
     0
102
RTVSPropertyOp53
 70
     1
102
RTVSPropertyOp54
 70
     1
102
RTVSPropertyOp55
 70
     1
102
RTVSPropertyOp56
 70
     1
102
RTVSPropertyOp57
 70
     1
102
RTVSPost2010Prop28
280
     0
102
RTVSPost2010PropOp28
 70
     1
102
RTVSPost2010Prop29
280
     1
102
RTVSPost2010PropOp29
 70
     1
102
RTVSPost2010Prop30
280
     1
102
RTVSPost2010PropOp30
 70
     1
102
RTVSPost2010Prop31
280
     0
102
RTVSPost2010PropOp31
 70
     1
102
RTVSPost2010Prop32
280
     0
102
RTVSPost2010PropOp32
 70
     1
102
RTVSPost2010Prop33
280
     0
102
RTVSPost2010PropOp33
 70
     1
102
RTVSPost2010Prop34
280
     0
102
RTVSPost2010PropOp34
 70
     1
102
RTVSPost2010Prop35
280
     0
102
RTVSPost2010PropOp35
 70
     1
102
RTVSPost2010Prop36
280
     0
102
RTVSPost2010PropOp36
 70
     1
102
RTVSPost2010Prop37
 90
       50
102
RTVSPost2010PropOp37
 70
     1
102
RTVSPost2010Prop38
140
0.0
102
RTVSPost2010PropOp38
 70
     1
102
RTVSPost2010Prop39
140
1.0
102
RTVSPost2010PropOp39
 70
     1
102
RTVSPost2010Prop40
 90
        0
102
RTVSPost2010PropOp40
 70
     1
102
RTVSPost2010Prop41ColorIndex
 90
       18
102
RTVSPost2010Prop41ColorRGB
 90
        0
102
RTVSPost2010PropOp41
 70
     1
102
RTVSPost2010Prop42
 90
       50
102
RTVSPost2010PropOp42
 70
     1
102
RTVSPost2010Prop43
 90
        3
102
RTVSPost2010PropOp43
 70
     1
102
RTVSPost2010Prop44ColorIndex
 90
        5
102
RTVSPost2010Prop44ColorRGB
 90
      255
102
RTVSPost2010PropOp44
 70
     1
102
RTVSPost2010Prop45
280
     0
102
RTVSPost2010PropOp45
 70
     1
102
RTVSPost2010Prop46
 90
       50
102
RTVSPost2010PropOp46
 70
     1
102
RTVSPost2010Prop47
 90
       50
102
RTVSPost2010PropOp47
 70
     1
102
RTVSPost2010Prop48
 90
       50
102
RTVSPost2010PropOp48
 70
     1
102
RTVSPost2010Prop49
280
     0
102
RTVSPost2010PropOp49
 70
     1
102
RTVSPost2010Prop50
 90
       50
102
RTVSPost2010PropOp50
 70
     1
102
RTVSPost2010Prop51ColorIndex
 90
      256
102
RTVSPost2010Prop51ColorRGB
 90
-16777216
102
RTVSPost2010PropOp51
 70
     0
102
RTVSPost2010Prop52
140
1.0
102
RTVSPost2010PropOp52
 70
     0
102
RTVSPost2010Prop53
 90
        2
102
RTVSPost2010PropOp53
 70
     1
102
RTVSPost2010Prop54
  1
strokes_ogs.tif
102
RTVSPost2010PropOp54
 70
     1
102
RTVSPost2010Prop55
280
     0
102
RTVSPost2010PropOp55
 70
     1
102
RTVSPost2010Prop56
140
1.0
102
RTVSPost2010PropOp56
 70
     1
102
RTVSPost2010Prop57
140
1.0
102
RTVSPost2010PropOp57
 70
     1
  0
XRECORD
  5
9EF
102
{ACAD_REACTORS
330
9EE
102
}
330
9EE
100
AcDbXrecord
280
     1
102
RTVSPropertyOp0
 70
     1
102
RTVSPropertyOp1
 70
     1
102
RTVSPropertyOp2
 70
     1
102
RTVSPropertyOp3
 70
     1
102
RTVSPropertyOp4
 70
     1
102
RTVSPropertyOp5
 70
     1
102
RTVSPropertyOp6
 70
     1
102
RTVSPropertyOp7
 70
     1
102
RTVSPropertyOp8
 70
     1
102
RTVSPropertyOp9
 70
     1
102
RTVSPropertyOp10
 70
     1
102
RTVSPropertyOp11
 70
     1
102
RTVSPropertyOp12
 70
     1
102
RTVSPropertyOp13
 70
     1
102
RTVSPropertyOp14
 70
     1
102
RTVSPropertyOp15
 70
     1
102
RTVSPropertyOp16
 70
     1
102
RTVSPropertyOp17
 70
     1
102
RTVSPropertyOp18
 70
     1
102
RTVSPropertyOp19
 70
     1
102
RTVSPropertyOp20
 70
     1
102
RTVSPropertyOp21
 70
     1
102
RTVSPropertyOp22
 70
     1
102
RTVSPropertyOp23
 70
     1
102
RTVSPropertyOp24
 70
     1
102
RTVSPropertyOp25
 70
     1
102
RTVSPropertyOp26
 70
     1
102
RTVSPropertyOp27
 70
     1
102
RTVSPropertyOp28
 70
     1
102
RTVSPropertyOp29
 70
     1
102
RTVSPropertyOp30
 70
     1
102
RTVSPropertyOp31
 70
     1
102
RTVSPropertyOp32
 70
     1
102
RTVSPropertyOp33
 70
     1
102
RTVSPropertyOp34
 70
     1
102
RTVSPropertyOp35
 70
     1
102
RTVSPropertyOp36
 70
     1
102
RTVSPropertyOp37
 70
     1
102
RTVSPropertyOp38
 70
     1
102
RTVSPropertyOp39
 70
     1
102
RTVSPropertyOp40
 70
     1
102
RTVSPropertyOp41
 70
     1
102
RTVSPropertyOp42
 70
     1
102
RTVSPropertyOp43
 70
     1
102
RTVSPropertyOp44
 70
     1
102
RTVSPropertyOp45
 70
     1
102
RTVSPropertyOp46
 70
     1
102
RTVSPropertyOp47
 70
     1
102
RTVSPropertyOp48
 70
     1
102
RTVSPropertyOp49
 70
     1
102
RTVSPropertyOp50
 70
     1
102
RTVSPropertyOp51
 70
     0
102
RTVSPropertyOp52
 70
     0
102
RTVSPropertyOp53
 70
     1
102
RTVSPropertyOp54
 70
     1
102
RTVSPropertyOp55
 70
     1
102
RTVSPropertyOp56
 70
     1
102
RTVSPropertyOp57
 70
     1
102
RTVSPost2010Prop28
280
     0
102
RTVSPost2010PropOp28
 70
     1
102
RTVSPost2010Prop29
280
     1
102
RTVSPost2010PropOp29
 70
     1
102
RTVSPost2010Prop30
280
     1
102
RTVSPost2010PropOp30
 70
     1
102
RTVSPost2010Prop31
280
     0
102
RTVSPost2010PropOp31
 70
     1
102
RTVSPost2010Prop32
280
     0
102
RTVSPost2010PropOp32
 70
     1
102
RTVSPost2010Prop33
280
     0
102
RTVSPost2010PropOp33
 70
     1
102
RTVSPost2010Prop34
280
     0
102
RTVSPost2010PropOp34
 70
     1
102
RTVSPost2010Prop35
280
     0
102
RTVSPost2010PropOp35
 70
     1
102
RTVSPost2010Prop36
280
     0
102
RTVSPost2010PropOp36
 70
     1
102
RTVSPost2010Prop37
 90
       50
102
RTVSPost2010PropOp37
 70
     1
102
RTVSPost2010Prop38
140
0.0
102
RTVSPost2010PropOp38
 70
     1
102
RTVSPost2010Prop39
140
1.0
102
RTVSPost2010PropOp39
 70
     1
102
RTVSPost2010Prop40
 90
        0
102
RTVSPost2010PropOp40
 70
     1
102
RTVSPost2010Prop41ColorIndex
 90
       18
102
RTVSPost2010Prop41ColorRGB
 90
        0
102
RTVSPost2010PropOp41
 70
     1
102
RTVSPost2010Prop42
 90
       50
102
RTVSPost2010PropOp42
 70
     1
102
RTVSPost2010Prop43
 90
        3
102
RTVSPost2010PropOp43
 70
     1
102
RTVSPost2010Prop44ColorIndex
 90
        5
102
RTVSPost2010Prop44ColorRGB
 90
      255
102
RTVSPost2010PropOp44
 70
     1
102
RTVSPost2010Prop45
280
     0
102
RTVSPost2010PropOp45
 70
     1
102
RTVSPost2010Prop46
 90
       50
102
RTVSPost2010PropOp46
 70
     1
102
RTVSPost2010Prop47
 90
       50
102
RTVSPost2010PropOp47
 70
     1
102
RTVSPost2010Prop48
 90
       50
102
RTVSPost2010PropOp48
 70
     1
102
RTVSPost2010Prop49
280
     0
102
RTVSPost2010PropOp49
 70
     1
102
RTVSPost2010Prop50
 90
       50
102
RTVSPost2010PropOp50
 70
     1
102
RTVSPost2010Prop51ColorIndex
 90
      256
102
RTVSPost2010Prop51ColorRGB
 90
-16777216
102
RTVSPost2010PropOp51
 70
     0
102
RTVSPost2010Prop52
140
1.0
102
RTVSPost2010PropOp52
 70
     0
102
RTVSPost2010Prop53
 90
        2
102
RTVSPost2010PropOp53
 70
     1
102
RTVSPost2010Prop54
  1
strokes_ogs.tif
102
RTVSPost2010PropOp54
 70
     1
102
RTVSPost2010Prop55
280
     0
102
RTVSPost2010PropOp55
 70
     1
102
RTVSPost2010Prop56
140
1.0
102
RTVSPost2010PropOp56
 70
     1
102
RTVSPost2010Prop57
140
1.0
102
RTVSPost2010PropOp57
 70
     1
  0
XRECORD
  5
9F7
102
{ACAD_REACTORS
330
9F6
102
}
330
9F6
100
AcDbXrecord
280
     1
102
RTVSPropertyOp0
 70
     0
102
RTVSPropertyOp1
 70
     0
102
RTVSPropertyOp2
 70
     0
102
RTVSPropertyOp3
 70
     0
102
RTVSPropertyOp4
 70
     0
102
RTVSPropertyOp5
 70
     0
102
RTVSPropertyOp6
 70
     0
102
RTVSPropertyOp7
 70
     0
102
RTVSPropertyOp8
 70
     0
102
RTVSPropertyOp9
 70
     0
102
RTVSPropertyOp10
 70
     0
102
RTVSPropertyOp11
 70
     0
102
RTVSPropertyOp12
 70
     0
102
RTVSPropertyOp13
 70
     0
102
RTVSPropertyOp14
 70
     0
102
RTVSPropertyOp15
 70
     0
102
RTVSPropertyOp16
 70
     0
102
RTVSPropertyOp17
 70
     0
102
RTVSPropertyOp18
 70
     0
102
RTVSPropertyOp19
 70
     0
102
RTVSPropertyOp20
 70
     0
102
RTVSPropertyOp21
 70
     0
102
RTVSPropertyOp22
 70
     0
102
RTVSPropertyOp23
 70
     0
102
RTVSPropertyOp24
 70
     0
102
RTVSPropertyOp25
 70
     0
102
RTVSPropertyOp26
 70
     0
102
RTVSPropertyOp27
 70
     0
102
RTVSPropertyOp28
 70
     1
102
RTVSPropertyOp29
 70
     1
102
RTVSPropertyOp30
 70
     1
102
RTVSPropertyOp31
 70
     1
102
RTVSPropertyOp32
 70
     1
102
RTVSPropertyOp33
 70
     1
102
RTVSPropertyOp34
 70
     1
102
RTVSPropertyOp35
 70
     1
102
RTVSPropertyOp36
 70
     1
102
RTVSPropertyOp37
 70
     1
102
RTVSPropertyOp38
 70
     1
102
RTVSPropertyOp39
 70
     1
102
RTVSPropertyOp40
 70
     1
102
RTVSPropertyOp41
 70
     1
102
RTVSPropertyOp42
 70
     1
102
RTVSPropertyOp43
 70
     1
102
RTVSPropertyOp44
 70
     1
102
RTVSPropertyOp45
 70
     1
102
RTVSPropertyOp46
 70
     1
102
RTVSPropertyOp47
 70
     1
102
RTVSPropertyOp48
 70
     1
102
RTVSPropertyOp49
 70
     1
102
RTVSPropertyOp50
 70
     1
102
RTVSPropertyOp51
 70
     0
102
RTVSPropertyOp52
 70
     0
102
RTVSPropertyOp53
 70
     1
102
RTVSPropertyOp54
 70
     1
102
RTVSPropertyOp55
 70
     1
102
RTVSPropertyOp56
 70
     1
102
RTVSPropertyOp57
 70
     1
102
RTVSPost2010Prop28
280
     0
102
RTVSPost2010PropOp28
 70
     1
102
RTVSPost2010Prop29
280
     1
102
RTVSPost2010PropOp29
 70
     1
102
RTVSPost2010Prop30
280
     1
102
RTVSPost2010PropOp30
 70
     1
102
RTVSPost2010Prop31
280
     0
102
RTVSPost2010PropOp31
 70
     1
102
RTVSPost2010Prop32
280
     0
102
RTVSPost2010PropOp32
 70
     1
102
RTVSPost2010Prop33
280
     0
102
RTVSPost2010PropOp33
 70
     1
102
RTVSPost2010Prop34
280
     0
102
RTVSPost2010PropOp34
 70
     1
102
RTVSPost2010Prop35
280
     0
102
RTVSPost2010PropOp35
 70
     1
102
RTVSPost2010Prop36
280
     0
102
RTVSPost2010PropOp36
 70
     1
102
RTVSPost2010Prop37
 90
       50
102
RTVSPost2010PropOp37
 70
     1
102
RTVSPost2010Prop38
140
0.0
102
RTVSPost2010PropOp38
 70
     1
102
RTVSPost2010Prop39
140
1.0
102
RTVSPost2010PropOp39
 70
     1
102
RTVSPost2010Prop40
 90
        0
102
RTVSPost2010PropOp40
 70
     1
102
RTVSPost2010Prop41ColorIndex
 90
       18
102
RTVSPost2010Prop41ColorRGB
 90
        0
102
RTVSPost2010PropOp41
 70
     1
102
RTVSPost2010Prop42
 90
       50
102
RTVSPost2010PropOp42
 70
     1
102
RTVSPost2010Prop43
 90
        3
102
RTVSPost2010PropOp43
 70
     1
102
RTVSPost2010Prop44ColorIndex
 90
        5
102
RTVSPost2010Prop44ColorRGB
 90
      255
102
RTVSPost2010PropOp44
 70
     1
102
RTVSPost2010Prop45
280
     0
102
RTVSPost2010PropOp45
 70
     1
102
RTVSPost2010Prop46
 90
       50
102
RTVSPost2010PropOp46
 70
     1
102
RTVSPost2010Prop47
 90
       50
102
RTVSPost2010PropOp47
 70
     1
102
RTVSPost2010Prop48
 90
       50
102
RTVSPost2010PropOp48
 70
     1
102
RTVSPost2010Prop49
280
     0
102
RTVSPost2010PropOp49
 70
     1
102
RTVSPost2010Prop50
 90
       50
102
RTVSPost2010PropOp50
 70
     1
102
RTVSPost2010Prop51ColorIndex
 90
      256
102
RTVSPost2010Prop51ColorRGB
 90
-16777216
102
RTVSPost2010PropOp51
 70
     0
102
RTVSPost2010Prop52
140
1.0
102
RTVSPost2010PropOp52
 70
     0
102
RTVSPost2010Prop53
 90
        2
102
RTVSPost2010PropOp53
 70
     1
102
RTVSPost2010Prop54
  1
strokes_ogs.tif
102
RTVSPost2010PropOp54
 70
     1
102
RTVSPost2010Prop55
280
     0
102
RTVSPost2010PropOp55
 70
     1
102
RTVSPost2010Prop56
140
1.0
102
RTVSPost2010PropOp56
 70
     1
102
RTVSPost2010Prop57
140
1.0
102
RTVSPost2010PropOp57
 70
     1
  0
XRECORD
  5
9E5
102
{ACAD_REACTORS
330
9E4
102
}
330
9E4
100
AcDbXrecord
280
     1
102
RTVSPropertyOp0
 70
     1
102
RTVSPropertyOp1
 70
     1
102
RTVSPropertyOp2
 70
     1
102
RTVSPropertyOp3
 70
     1
102
RTVSPropertyOp4
 70
     1
102
RTVSPropertyOp5
 70
     1
102
RTVSPropertyOp6
 70
     1
102
RTVSPropertyOp7
 70
     1
102
RTVSPropertyOp8
 70
     1
102
RTVSPropertyOp9
 70
     1
102
RTVSPropertyOp10
 70
     1
102
RTVSPropertyOp11
 70
     1
102
RTVSPropertyOp12
 70
     1
102
RTVSPropertyOp13
 70
     1
102
RTVSPropertyOp14
 70
     1
102
RTVSPropertyOp15
 70
     1
102
RTVSPropertyOp16
 70
     1
102
RTVSPropertyOp17
 70
     1
102
RTVSPropertyOp18
 70
     1
102
RTVSPropertyOp19
 70
     1
102
RTVSPropertyOp20
 70
     1
102
RTVSPropertyOp21
 70
     1
102
RTVSPropertyOp22
 70
     1
102
RTVSPropertyOp23
 70
     1
102
RTVSPropertyOp24
 70
     1
102
RTVSPropertyOp25
 70
     1
102
RTVSPropertyOp26
 70
     1
102
RTVSPropertyOp27
 70
     1
102
RTVSPropertyOp28
 70
     1
102
RTVSPropertyOp29
 70
     1
102
RTVSPropertyOp30
 70
     1
102
RTVSPropertyOp31
 70
     1
102
RTVSPropertyOp32
 70
     1
102
RTVSPropertyOp33
 70
     1
102
RTVSPropertyOp34
 70
     1
102
RTVSPropertyOp35
 70
     1
102
RTVSPropertyOp36
 70
     1
102
RTVSPropertyOp37
 70
     1
102
RTVSPropertyOp38
 70
     1
102
RTVSPropertyOp39
 70
     1
102
RTVSPropertyOp40
 70
     1
102
RTVSPropertyOp41
 70
     1
102
RTVSPropertyOp42
 70
     1
102
RTVSPropertyOp43
 70
     1
102
RTVSPropertyOp44
 70
     1
102
RTVSPropertyOp45
 70
     1
102
RTVSPropertyOp46
 70
     1
102
RTVSPropertyOp47
 70
     1
102
RTVSPropertyOp48
 70
     1
102
RTVSPropertyOp49
 70
     1
102
RTVSPropertyOp50
 70
     1
102
RTVSPropertyOp51
 70
     0
102
RTVSPropertyOp52
 70
     0
102
RTVSPropertyOp53
 70
     1
102
RTVSPropertyOp54
 70
     1
102
RTVSPropertyOp55
 70
     1
102
RTVSPropertyOp56
 70
     1
102
RTVSPropertyOp57
 70
     1
102
RTVSPost2010Prop28
280
     0
102
RTVSPost2010PropOp28
 70
     1
102
RTVSPost2010Prop29
280
     1
102
RTVSPost2010PropOp29
 70
     1
102
RTVSPost2010Prop30
280
     1
102
RTVSPost2010PropOp30
 70
     1
102
RTVSPost2010Prop31
280
     0
102
RTVSPost2010PropOp31
 70
     1
102
RTVSPost2010Prop32
280
     0
102
RTVSPost2010PropOp32
 70
     1
102
RTVSPost2010Prop33
280
     0
102
RTVSPost2010PropOp33
 70
     1
102
RTVSPost2010Prop34
280
     0
102
RTVSPost2010PropOp34
 70
     1
102
RTVSPost2010Prop35
280
     0
102
RTVSPost2010PropOp35
 70
     1
102
RTVSPost2010Prop36
280
     0
102
RTVSPost2010PropOp36
 70
     1
102
RTVSPost2010Prop37
 90
       50
102
RTVSPost2010PropOp37
 70
     1
102
RTVSPost2010Prop38
140
0.0
102
RTVSPost2010PropOp38
 70
     1
102
RTVSPost2010Prop39
140
1.0
102
RTVSPost2010PropOp39
 70
     1
102
RTVSPost2010Prop40
 90
        0
102
RTVSPost2010PropOp40
 70
     1
102
RTVSPost2010Prop41ColorIndex
 90
       18
102
RTVSPost2010Prop41ColorRGB
 90
        0
102
RTVSPost2010PropOp41
 70
     1
102
RTVSPost2010Prop42
 90
       50
102
RTVSPost2010PropOp42
 70
     1
102
RTVSPost2010Prop43
 90
        3
102
RTVSPost2010PropOp43
 70
     1
102
RTVSPost2010Prop44ColorIndex
 90
        5
102
RTVSPost2010Prop44ColorRGB
 90
      255
102
RTVSPost2010PropOp44
 70
     1
102
RTVSPost2010Prop45
280
     0
102
RTVSPost2010PropOp45
 70
     1
102
RTVSPost2010Prop46
 90
       50
102
RTVSPost2010PropOp46
 70
     1
102
RTVSPost2010Prop47
 90
       50
102
RTVSPost2010PropOp47
 70
     1
102
RTVSPost2010Prop48
 90
       50
102
RTVSPost2010PropOp48
 70
     1
102
RTVSPost2010Prop49
280
     0
102
RTVSPost2010PropOp49
 70
     1
102
RTVSPost2010Prop50
 90
       50
102
RTVSPost2010PropOp50
 70
     1
102
RTVSPost2010Prop51ColorIndex
 90
      256
102
RTVSPost2010Prop51ColorRGB
 90
-16777216
102
RTVSPost2010PropOp51
 70
     0
102
RTVSPost2010Prop52
140
1.0
102
RTVSPost2010PropOp52
 70
     0
102
RTVSPost2010Prop53
 90
        2
102
RTVSPost2010PropOp53
 70
     1
102
RTVSPost2010Prop54
  1
strokes_ogs.tif
102
RTVSPost2010PropOp54
 70
     1
102
RTVSPost2010Prop55
280
     0
102
RTVSPost2010PropOp55
 70
     1
102
RTVSPost2010Prop56
140
1.0
102
RTVSPost2010PropOp56
 70
     1
102
RTVSPost2010Prop57
140
1.0
102
RTVSPost2010PropOp57
 70
     1
  0
XRECORD
  5
A03
102
{ACAD_REACTORS
330
A02
102
}
330
A02
100
AcDbXrecord
280
     1
102
RTVSPropertyOp0
 70
     1
102
RTVSPropertyOp1
 70
     1
102
RTVSPropertyOp2
 70
     1
102
RTVSPropertyOp3
 70
     1
102
RTVSPropertyOp4
 70
     1
102
RTVSPropertyOp5
 70
     1
102
RTVSPropertyOp6
 70
     1
102
RTVSPropertyOp7
 70
     1
102
RTVSPropertyOp8
 70
     1
102
RTVSPropertyOp9
 70
     1
102
RTVSPropertyOp10
 70
     1
102
RTVSPropertyOp11
 70
     1
102
RTVSPropertyOp12
 70
     1
102
RTVSPropertyOp13
 70
     1
102
RTVSPropertyOp14
 70
     1
102
RTVSPropertyOp15
 70
     1
102
RTVSPropertyOp16
 70
     1
102
RTVSPropertyOp17
 70
     1
102
RTVSPropertyOp18
 70
     1
102
RTVSPropertyOp19
 70
     1
102
RTVSPropertyOp20
 70
     1
102
RTVSPropertyOp21
 70
     1
102
RTVSPropertyOp22
 70
     1
102
RTVSPropertyOp23
 70
     1
102
RTVSPropertyOp24
 70
     1
102
RTVSPropertyOp25
 70
     1
102
RTVSPropertyOp26
 70
     1
102
RTVSPropertyOp27
 70
     1
102
RTVSPropertyOp28
 70
     1
102
RTVSPropertyOp29
 70
     1
102
RTVSPropertyOp30
 70
     1
102
RTVSPropertyOp31
 70
     1
102
RTVSPropertyOp32
 70
     1
102
RTVSPropertyOp33
 70
     1
102
RTVSPropertyOp34
 70
     1
102
RTVSPropertyOp35
 70
     1
102
RTVSPropertyOp36
 70
     1
102
RTVSPropertyOp37
 70
     1
102
RTVSPropertyOp38
 70
     1
102
RTVSPropertyOp39
 70
     1
102
RTVSPropertyOp40
 70
     1
102
RTVSPropertyOp41
 70
     1
102
RTVSPropertyOp42
 70
     1
102
RTVSPropertyOp43
 70
     1
102
RTVSPropertyOp44
 70
     1
102
RTVSPropertyOp45
 70
     1
102
RTVSPropertyOp46
 70
     1
102
RTVSPropertyOp47
 70
     1
102
RTVSPropertyOp48
 70
     1
102
RTVSPropertyOp49
 70
     1
102
RTVSPropertyOp50
 70
     1
102
RTVSPropertyOp51
 70
     0
102
RTVSPropertyOp52
 70
     0
102
RTVSPropertyOp53
 70
     1
102
RTVSPropertyOp54
 70
     1
102
RTVSPropertyOp55
 70
     1
102
RTVSPropertyOp56
 70
     1
102
RTVSPropertyOp57
 70
     1
102
RTVSPost2010Prop28
280
     0
102
RTVSPost2010PropOp28
 70
     1
102
RTVSPost2010Prop29
280
     1
102
RTVSPost2010PropOp29
 70
     1
102
RTVSPost2010Prop30
280
     1
102
RTVSPost2010PropOp30
 70
     1
102
RTVSPost2010Prop31
280
     0
102
RTVSPost2010PropOp31
 70
     1
102
RTVSPost2010Prop32
280
     0
102
RTVSPost2010PropOp32
 70
     1
102
RTVSPost2010Prop33
280
     0
102
RTVSPost2010PropOp33
 70
     1
102
RTVSPost2010Prop34
280
     0
102
RTVSPost2010PropOp34
 70
     1
102
RTVSPost2010Prop35
280
     0
102
RTVSPost2010PropOp35
 70
     1
102
RTVSPost2010Prop36
280
     0
102
RTVSPost2010PropOp36
 70
     1
102
RTVSPost2010Prop37
 90
       50
102
RTVSPost2010PropOp37
 70
     1
102
RTVSPost2010Prop38
140
0.0
102
RTVSPost2010PropOp38
 70
     1
102
RTVSPost2010Prop39
140
1.0
102
RTVSPost2010PropOp39
 70
     1
102
RTVSPost2010Prop40
 90
        0
102
RTVSPost2010PropOp40
 70
     1
102
RTVSPost2010Prop41ColorIndex
 90
       18
102
RTVSPost2010Prop41ColorRGB
 90
        0
102
RTVSPost2010PropOp41
 70
     1
102
RTVSPost2010Prop42
 90
       50
102
RTVSPost2010PropOp42
 70
     1
102
RTVSPost2010Prop43
 90
        3
102
RTVSPost2010PropOp43
 70
     1
102
RTVSPost2010Prop44ColorIndex
 90
        5
102
RTVSPost2010Prop44ColorRGB
 90
      255
102
RTVSPost2010PropOp44
 70
     1
102
RTVSPost2010Prop45
280
     0
102
RTVSPost2010PropOp45
 70
     1
102
RTVSPost2010Prop46
 90
       50
102
RTVSPost2010PropOp46
 70
     1
102
RTVSPost2010Prop47
 90
       50
102
RTVSPost2010PropOp47
 70
     1
102
RTVSPost2010Prop48
 90
       50
102
RTVSPost2010PropOp48
 70
     1
102
RTVSPost2010Prop49
280
     0
102
RTVSPost2010PropOp49
 70
     1
102
RTVSPost2010Prop50
 90
       50
102
RTVSPost2010PropOp50
 70
     1
102
RTVSPost2010Prop51ColorIndex
 90
      256
102
RTVSPost2010Prop51ColorRGB
 90
-16777216
102
RTVSPost2010PropOp51
 70
     0
102
RTVSPost2010Prop52
140
1.0
102
RTVSPost2010PropOp52
 70
     0
102
RTVSPost2010Prop53
 90
        2
102
RTVSPost2010PropOp53
 70
     1
102
RTVSPost2010Prop54
  1
strokes_ogs.tif
102
RTVSPost2010PropOp54
 70
     1
102
RTVSPost2010Prop55
280
     0
102
RTVSPost2010PropOp55
 70
     1
102
RTVSPost2010Prop56
140
1.0
102
RTVSPost2010PropOp56
 70
     1
102
RTVSPost2010Prop57
140
1.0
102
RTVSPost2010PropOp57
 70
     1
  0
XRECORD
  5
A01
102
{ACAD_REACTORS
330
A00
102
}
330
A00
100
AcDbXrecord
280
     1
102
RTVSPropertyOp0
 70
     1
102
RTVSPropertyOp1
 70
     1
102
RTVSPropertyOp2
 70
     1
102
RTVSPropertyOp3
 70
     1
102
RTVSPropertyOp4
 70
     1
102
RTVSPropertyOp5
 70
     1
102
RTVSPropertyOp6
 70
     1
102
RTVSPropertyOp7
 70
     1
102
RTVSPropertyOp8
 70
     1
102
RTVSPropertyOp9
 70
     1
102
RTVSPropertyOp10
 70
     1
102
RTVSPropertyOp11
 70
     1
102
RTVSPropertyOp12
 70
     1
102
RTVSPropertyOp13
 70
     1
102
RTVSPropertyOp14
 70
     1
102
RTVSPropertyOp15
 70
     1
102
RTVSPropertyOp16
 70
     1
102
RTVSPropertyOp17
 70
     1
102
RTVSPropertyOp18
 70
     1
102
RTVSPropertyOp19
 70
     1
102
RTVSPropertyOp20
 70
     1
102
RTVSPropertyOp21
 70
     1
102
RTVSPropertyOp22
 70
     1
102
RTVSPropertyOp23
 70
     1
102
RTVSPropertyOp24
 70
     1
102
RTVSPropertyOp25
 70
     1
102
RTVSPropertyOp26
 70
     1
102
RTVSPropertyOp27
 70
     1
102
RTVSPropertyOp28
 70
     1
102
RTVSPropertyOp29
 70
     1
102
RTVSPropertyOp30
 70
     1
102
RTVSPropertyOp31
 70
     1
102
RTVSPropertyOp32
 70
     1
102
RTVSPropertyOp33
 70
     1
102
RTVSPropertyOp34
 70
     1
102
RTVSPropertyOp35
 70
     1
102
RTVSPropertyOp36
 70
     1
102
RTVSPropertyOp37
 70
     1
102
RTVSPropertyOp38
 70
     1
102
RTVSPropertyOp39
 70
     1
102
RTVSPropertyOp40
 70
     1
102
RTVSPropertyOp41
 70
     1
102
RTVSPropertyOp42
 70
     1
102
RTVSPropertyOp43
 70
     1
102
RTVSPropertyOp44
 70
     1
102
RTVSPropertyOp45
 70
     1
102
RTVSPropertyOp46
 70
     1
102
RTVSPropertyOp47
 70
     1
102
RTVSPropertyOp48
 70
     1
102
RTVSPropertyOp49
 70
     1
102
RTVSPropertyOp50
 70
     1
102
RTVSPropertyOp51
 70
     0
102
RTVSPropertyOp52
 70
     0
102
RTVSPropertyOp53
 70
     1
102
RTVSPropertyOp54
 70
     1
102
RTVSPropertyOp55
 70
     1
102
RTVSPropertyOp56
 70
     1
102
RTVSPropertyOp57
 70
     1
102
RTVSPost2010Prop28
280
     0
102
RTVSPost2010PropOp28
 70
     1
102
RTVSPost2010Prop29
280
     1
102
RTVSPost2010PropOp29
 70
     1
102
RTVSPost2010Prop30
280
     1
102
RTVSPost2010PropOp30
 70
     1
102
RTVSPost2010Prop31
280
     0
102
RTVSPost2010PropOp31
 70
     1
102
RTVSPost2010Prop32
280
     0
102
RTVSPost2010PropOp32
 70
     1
102
RTVSPost2010Prop33
280
     0
102
RTVSPost2010PropOp33
 70
     1
102
RTVSPost2010Prop34
280
     0
102
RTVSPost2010PropOp34
 70
     1
102
RTVSPost2010Prop35
280
     0
102
RTVSPost2010PropOp35
 70
     1
102
RTVSPost2010Prop36
280
     0
102
RTVSPost2010PropOp36
 70
     1
102
RTVSPost2010Prop37
 90
       50
102
RTVSPost2010PropOp37
 70
     1
102
RTVSPost2010Prop38
140
0.0
102
RTVSPost2010PropOp38
 70
     1
102
RTVSPost2010Prop39
140
1.0
102
RTVSPost2010PropOp39
 70
     1
102
RTVSPost2010Prop40
 90
        0
102
RTVSPost2010PropOp40
 70
     1
102
RTVSPost2010Prop41ColorIndex
 90
       18
102
RTVSPost2010Prop41ColorRGB
 90
        0
102
RTVSPost2010PropOp41
 70
     1
102
RTVSPost2010Prop42
 90
       50
102
RTVSPost2010PropOp42
 70
     1
102
RTVSPost2010Prop43
 90
        3
102
RTVSPost2010PropOp43
 70
     1
102
RTVSPost2010Prop44ColorIndex
 90
        5
102
RTVSPost2010Prop44ColorRGB
 90
      255
102
RTVSPost2010PropOp44
 70
     1
102
RTVSPost2010Prop45
280
     0
102
RTVSPost2010PropOp45
 70
     1
102
RTVSPost2010Prop46
 90
       50
102
RTVSPost2010PropOp46
 70
     1
102
RTVSPost2010Prop47
 90
       50
102
RTVSPost2010PropOp47
 70
     1
102
RTVSPost2010Prop48
 90
       50
102
RTVSPost2010PropOp48
 70
     1
102
RTVSPost2010Prop49
280
     0
102
RTVSPost2010PropOp49
 70
     1
102
RTVSPost2010Prop50
 90
       50
102
RTVSPost2010PropOp50
 70
     1
102
RTVSPost2010Prop51ColorIndex
 90
      256
102
RTVSPost2010Prop51ColorRGB
 90
-16777216
102
RTVSPost2010PropOp51
 70
     0
102
RTVSPost2010Prop52
140
1.0
102
RTVSPost2010PropOp52
 70
     0
102
RTVSPost2010Prop53
 90
        2
102
RTVSPost2010PropOp53
 70
     1
102
RTVSPost2010Prop54
  1
strokes_ogs.tif
102
RTVSPost2010PropOp54
 70
     1
102
RTVSPost2010Prop55
280
     0
102
RTVSPost2010PropOp55
 70
     1
102
RTVSPost2010Prop56
140
1.0
102
RTVSPost2010PropOp56
 70
     1
102
RTVSPost2010Prop57
140
1.0
102
RTVSPost2010PropOp57
 70
     1
  0
XRECORD
  5
9FB
102
{ACAD_REACTORS
330
9FA
102
}
330
9FA
100
AcDbXrecord
280
     1
102
RTVSPropertyOp0
 70
     1
102
RTVSPropertyOp1
 70
     1
102
RTVSPropertyOp2
 70
     1
102
RTVSPropertyOp3
 70
     1
102
RTVSPropertyOp4
 70
     1
102
RTVSPropertyOp5
 70
     1
102
RTVSPropertyOp6
 70
     1
102
RTVSPropertyOp7
 70
     1
102
RTVSPropertyOp8
 70
     1
102
RTVSPropertyOp9
 70
     1
102
RTVSPropertyOp10
 70
     1
102
RTVSPropertyOp11
 70
     1
102
RTVSPropertyOp12
 70
     1
102
RTVSPropertyOp13
 70
     1
102
RTVSPropertyOp14
 70
     1
102
RTVSPropertyOp15
 70
     1
102
RTVSPropertyOp16
 70
     1
102
RTVSPropertyOp17
 70
     1
102
RTVSPropertyOp18
 70
     1
102
RTVSPropertyOp19
 70
     1
102
RTVSPropertyOp20
 70
     1
102
RTVSPropertyOp21
 70
     1
102
RTVSPropertyOp22
 70
     1
102
RTVSPropertyOp23
 70
     1
102
RTVSPropertyOp24
 70
     1
102
RTVSPropertyOp25
 70
     1
102
RTVSPropertyOp26
 70
     1
102
RTVSPropertyOp27
 70
     1
102
RTVSPropertyOp28
 70
     1
102
RTVSPropertyOp29
 70
     1
102
RTVSPropertyOp30
 70
     1
102
RTVSPropertyOp31
 70
     1
102
RTVSPropertyOp32
 70
     1
102
RTVSPropertyOp33
 70
     1
102
RTVSPropertyOp34
 70
     1
102
RTVSPropertyOp35
 70
     1
102
RTVSPropertyOp36
 70
     1
102
RTVSPropertyOp37
 70
     1
102
RTVSPropertyOp38
 70
     1
102
RTVSPropertyOp39
 70
     1
102
RTVSPropertyOp40
 70
     1
102
RTVSPropertyOp41
 70
     1
102
RTVSPropertyOp42
 70
     1
102
RTVSPropertyOp43
 70
     1
102
RTVSPropertyOp44
 70
     1
102
RTVSPropertyOp45
 70
     1
102
RTVSPropertyOp46
 70
     1
102
RTVSPropertyOp47
 70
     1
102
RTVSPropertyOp48
 70
     1
102
RTVSPropertyOp49
 70
     1
102
RTVSPropertyOp50
 70
     1
102
RTVSPropertyOp51
 70
     0
102
RTVSPropertyOp52
 70
     0
102
RTVSPropertyOp53
 70
     1
102
RTVSPropertyOp54
 70
     1
102
RTVSPropertyOp55
 70
     1
102
RTVSPropertyOp56
 70
     1
102
RTVSPropertyOp57
 70
     1
102
RTVSPost2010Prop28
280
     0
102
RTVSPost2010PropOp28
 70
     1
102
RTVSPost2010Prop29
280
     1
102
RTVSPost2010PropOp29
 70
     1
102
RTVSPost2010Prop30
280
     1
102
RTVSPost2010PropOp30
 70
     1
102
RTVSPost2010Prop31
280
     0
102
RTVSPost2010PropOp31
 70
     1
102
RTVSPost2010Prop32
280
     0
102
RTVSPost2010PropOp32
 70
     1
102
RTVSPost2010Prop33
280
     0
102
RTVSPost2010PropOp33
 70
     1
102
RTVSPost2010Prop34
280
     0
102
RTVSPost2010PropOp34
 70
     1
102
RTVSPost2010Prop35
280
     0
102
RTVSPost2010PropOp35
 70
     1
102
RTVSPost2010Prop36
280
     0
102
RTVSPost2010PropOp36
 70
     1
102
RTVSPost2010Prop37
 90
       50
102
RTVSPost2010PropOp37
 70
     1
102
RTVSPost2010Prop38
140
0.0
102
RTVSPost2010PropOp38
 70
     1
102
RTVSPost2010Prop39
140
1.0
102
RTVSPost2010PropOp39
 70
     1
102
RTVSPost2010Prop40
 90
        0
102
RTVSPost2010PropOp40
 70
     1
102
RTVSPost2010Prop41ColorIndex
 90
       18
102
RTVSPost2010Prop41ColorRGB
 90
        0
102
RTVSPost2010PropOp41
 70
     1
102
RTVSPost2010Prop42
 90
       50
102
RTVSPost2010PropOp42
 70
     1
102
RTVSPost2010Prop43
 90
        3
102
RTVSPost2010PropOp43
 70
     1
102
RTVSPost2010Prop44ColorIndex
 90
        5
102
RTVSPost2010Prop44ColorRGB
 90
      255
102
RTVSPost2010PropOp44
 70
     1
102
RTVSPost2010Prop45
280
     0
102
RTVSPost2010PropOp45
 70
     1
102
RTVSPost2010Prop46
 90
       50
102
RTVSPost2010PropOp46
 70
     1
102
RTVSPost2010Prop47
 90
       50
102
RTVSPost2010PropOp47
 70
     1
102
RTVSPost2010Prop48
 90
       50
102
RTVSPost2010PropOp48
 70
     1
102
RTVSPost2010Prop49
280
     0
102
RTVSPost2010PropOp49
 70
     1
102
RTVSPost2010Prop50
 90
       50
102
RTVSPost2010PropOp50
 70
     1
102
RTVSPost2010Prop51ColorIndex
 90
      256
102
RTVSPost2010Prop51ColorRGB
 90
-16777216
102
RTVSPost2010PropOp51
 70
     0
102
RTVSPost2010Prop52
140
1.0
102
RTVSPost2010PropOp52
 70
     0
102
RTVSPost2010Prop53
 90
        2
102
RTVSPost2010PropOp53
 70
     1
102
RTVSPost2010Prop54
  1
strokes_ogs.tif
102
RTVSPost2010PropOp54
 70
     1
102
RTVSPost2010Prop55
280
     0
102
RTVSPost2010PropOp55
 70
     1
102
RTVSPost2010Prop56
140
1.0
102
RTVSPost2010PropOp56
 70
     1
102
RTVSPost2010Prop57
140
1.0
102
RTVSPost2010PropOp57
 70
     1
  0
XRECORD
  5
9FD
102
{ACAD_REACTORS
330
9FC
102
}
330
9FC
100
AcDbXrecord
280
     1
102
RTVSPropertyOp0
 70
     1
102
RTVSPropertyOp1
 70
     1
102
RTVSPropertyOp2
 70
     1
102
RTVSPropertyOp3
 70
     1
102
RTVSPropertyOp4
 70
     1
102
RTVSPropertyOp5
 70
     1
102
RTVSPropertyOp6
 70
     1
102
RTVSPropertyOp7
 70
     1
102
RTVSPropertyOp8
 70
     1
102
RTVSPropertyOp9
 70
     1
102
RTVSPropertyOp10
 70
     1
102
RTVSPropertyOp11
 70
     1
102
RTVSPropertyOp12
 70
     1
102
RTVSPropertyOp13
 70
     1
102
RTVSPropertyOp14
 70
     1
102
RTVSPropertyOp15
 70
     1
102
RTVSPropertyOp16
 70
     1
102
RTVSPropertyOp17
 70
     1
102
RTVSPropertyOp18
 70
     1
102
RTVSPropertyOp19
 70
     1
102
RTVSPropertyOp20
 70
     1
102
RTVSPropertyOp21
 70
     1
102
RTVSPropertyOp22
 70
     1
102
RTVSPropertyOp23
 70
     1
102
RTVSPropertyOp24
 70
     1
102
RTVSPropertyOp25
 70
     1
102
RTVSPropertyOp26
 70
     1
102
RTVSPropertyOp27
 70
     1
102
RTVSPropertyOp28
 70
     1
102
RTVSPropertyOp29
 70
     1
102
RTVSPropertyOp30
 70
     1
102
RTVSPropertyOp31
 70
     1
102
RTVSPropertyOp32
 70
     1
102
RTVSPropertyOp33
 70
     1
102
RTVSPropertyOp34
 70
     1
102
RTVSPropertyOp35
 70
     1
102
RTVSPropertyOp36
 70
     1
102
RTVSPropertyOp37
 70
     1
102
RTVSPropertyOp38
 70
     1
102
RTVSPropertyOp39
 70
     1
102
RTVSPropertyOp40
 70
     1
102
RTVSPropertyOp41
 70
     1
102
RTVSPropertyOp42
 70
     1
102
RTVSPropertyOp43
 70
     1
102
RTVSPropertyOp44
 70
     1
102
RTVSPropertyOp45
 70
     1
102
RTVSPropertyOp46
 70
     1
102
RTVSPropertyOp47
 70
     1
102
RTVSPropertyOp48
 70
     1
102
RTVSPropertyOp49
 70
     1
102
RTVSPropertyOp50
 70
     1
102
RTVSPropertyOp51
 70
     0
102
RTVSPropertyOp52
 70
     0
102
RTVSPropertyOp53
 70
     1
102
RTVSPropertyOp54
 70
     1
102
RTVSPropertyOp55
 70
     1
102
RTVSPropertyOp56
 70
     1
102
RTVSPropertyOp57
 70
     1
102
RTVSPost2010Prop28
280
     0
102
RTVSPost2010PropOp28
 70
     1
102
RTVSPost2010Prop29
280
     1
102
RTVSPost2010PropOp29
 70
     1
102
RTVSPost2010Prop30
280
     1
102
RTVSPost2010PropOp30
 70
     1
102
RTVSPost2010Prop31
280
     0
102
RTVSPost2010PropOp31
 70
     1
102
RTVSPost2010Prop32
280
     0
102
RTVSPost2010PropOp32
 70
     1
102
RTVSPost2010Prop33
280
     0
102
RTVSPost2010PropOp33
 70
     1
102
RTVSPost2010Prop34
280
     0
102
RTVSPost2010PropOp34
 70
     1
102
RTVSPost2010Prop35
280
     0
102
RTVSPost2010PropOp35
 70
     1
102
RTVSPost2010Prop36
280
     0
102
RTVSPost2010PropOp36
 70
     1
102
RTVSPost2010Prop37
 90
       50
102
RTVSPost2010PropOp37
 70
     1
102
RTVSPost2010Prop38
140
0.0
102
RTVSPost2010PropOp38
 70
     1
102
RTVSPost2010Prop39
140
1.0
102
RTVSPost2010PropOp39
 70
     1
102
RTVSPost2010Prop40
 90
        0
102
RTVSPost2010PropOp40
 70
     1
102
RTVSPost2010Prop41ColorIndex
 90
       18
102
RTVSPost2010Prop41ColorRGB
 90
        0
102
RTVSPost2010PropOp41
 70
     1
102
RTVSPost2010Prop42
 90
       50
102
RTVSPost2010PropOp42
 70
     1
102
RTVSPost2010Prop43
 90
        3
102
RTVSPost2010PropOp43
 70
     1
102
RTVSPost2010Prop44ColorIndex
 90
        5
102
RTVSPost2010Prop44ColorRGB
 90
      255
102
RTVSPost2010PropOp44
 70
     1
102
RTVSPost2010Prop45
280
     0
102
RTVSPost2010PropOp45
 70
     1
102
RTVSPost2010Prop46
 90
       50
102
RTVSPost2010PropOp46
 70
     1
102
RTVSPost2010Prop47
 90
       50
102
RTVSPost2010PropOp47
 70
     1
102
RTVSPost2010Prop48
 90
       50
102
RTVSPost2010PropOp48
 70
     1
102
RTVSPost2010Prop49
280
     0
102
RTVSPost2010PropOp49
 70
     1
102
RTVSPost2010Prop50
 90
       50
102
RTVSPost2010PropOp50
 70
     1
102
RTVSPost2010Prop51ColorIndex
 90
      256
102
RTVSPost2010Prop51ColorRGB
 90
-16777216
102
RTVSPost2010PropOp51
 70
     0
102
RTVSPost2010Prop52
140
1.0
102
RTVSPost2010PropOp52
 70
     0
102
RTVSPost2010Prop53
 90
        2
102
RTVSPost2010PropOp53
 70
     1
102
RTVSPost2010Prop54
  1
strokes_ogs.tif
102
RTVSPost2010PropOp54
 70
     1
102
RTVSPost2010Prop55
280
     0
102
RTVSPost2010PropOp55
 70
     1
102
RTVSPost2010Prop56
140
1.0
102
RTVSPost2010PropOp56
 70
     1
102
RTVSPost2010Prop57
140
1.0
102
RTVSPost2010PropOp57
 70
     1
  0
XRECORD
  5
9ED
102
{ACAD_REACTORS
330
9EC
102
}
330
9EC
100
AcDbXrecord
280
     1
102
RTVSPropertyOp0
 70
     1
102
RTVSPropertyOp1
 70
     1
102
RTVSPropertyOp2
 70
     1
102
RTVSPropertyOp3
 70
     1
102
RTVSPropertyOp4
 70
     1
102
RTVSPropertyOp5
 70
     1
102
RTVSPropertyOp6
 70
     1
102
RTVSPropertyOp7
 70
     1
102
RTVSPropertyOp8
 70
     1
102
RTVSPropertyOp9
 70
     1
102
RTVSPropertyOp10
 70
     1
102
RTVSPropertyOp11
 70
     1
102
RTVSPropertyOp12
 70
     1
102
RTVSPropertyOp13
 70
     1
102
RTVSPropertyOp14
 70
     1
102
RTVSPropertyOp15
 70
     1
102
RTVSPropertyOp16
 70
     1
102
RTVSPropertyOp17
 70
     1
102
RTVSPropertyOp18
 70
     1
102
RTVSPropertyOp19
 70
     1
102
RTVSPropertyOp20
 70
     1
102
RTVSPropertyOp21
 70
     1
102
RTVSPropertyOp22
 70
     1
102
RTVSPropertyOp23
 70
     1
102
RTVSPropertyOp24
 70
     1
102
RTVSPropertyOp25
 70
     1
102
RTVSPropertyOp26
 70
     1
102
RTVSPropertyOp27
 70
     1
102
RTVSPropertyOp28
 70
     1
102
RTVSPropertyOp29
 70
     1
102
RTVSPropertyOp30
 70
     1
102
RTVSPropertyOp31
 70
     1
102
RTVSPropertyOp32
 70
     1
102
RTVSPropertyOp33
 70
     1
102
RTVSPropertyOp34
 70
     1
102
RTVSPropertyOp35
 70
     1
102
RTVSPropertyOp36
 70
     1
102
RTVSPropertyOp37
 70
     1
102
RTVSPropertyOp38
 70
     1
102
RTVSPropertyOp39
 70
     1
102
RTVSPropertyOp40
 70
     1
102
RTVSPropertyOp41
 70
     1
102
RTVSPropertyOp42
 70
     1
102
RTVSPropertyOp43
 70
     1
102
RTVSPropertyOp44
 70
     1
102
RTVSPropertyOp45
 70
     1
102
RTVSPropertyOp46
 70
     1
102
RTVSPropertyOp47
 70
     1
102
RTVSPropertyOp48
 70
     1
102
RTVSPropertyOp49
 70
     1
102
RTVSPropertyOp50
 70
     1
102
RTVSPropertyOp51
 70
     0
102
RTVSPropertyOp52
 70
     0
102
RTVSPropertyOp53
 70
     1
102
RTVSPropertyOp54
 70
     1
102
RTVSPropertyOp55
 70
     1
102
RTVSPropertyOp56
 70
     1
102
RTVSPropertyOp57
 70
     1
102
RTVSPost2010Prop28
280
     0
102
RTVSPost2010PropOp28
 70
     1
102
RTVSPost2010Prop29
280
     1
102
RTVSPost2010PropOp29
 70
     1
102
RTVSPost2010Prop30
280
     1
102
RTVSPost2010PropOp30
 70
     1
102
RTVSPost2010Prop31
280
     0
102
RTVSPost2010PropOp31
 70
     1
102
RTVSPost2010Prop32
280
     0
102
RTVSPost2010PropOp32
 70
     1
102
RTVSPost2010Prop33
280
     0
102
RTVSPost2010PropOp33
 70
     1
102
RTVSPost2010Prop34
280
     0
102
RTVSPost2010PropOp34
 70
     1
102
RTVSPost2010Prop35
280
     0
102
RTVSPost2010PropOp35
 70
     1
102
RTVSPost2010Prop36
280
     0
102
RTVSPost2010PropOp36
 70
     1
102
RTVSPost2010Prop37
 90
       50
102
RTVSPost2010PropOp37
 70
     1
102
RTVSPost2010Prop38
140
0.0
102
RTVSPost2010PropOp38
 70
     1
102
RTVSPost2010Prop39
140
1.0
102
RTVSPost2010PropOp39
 70
     1
102
RTVSPost2010Prop40
 90
        0
102
RTVSPost2010PropOp40
 70
     1
102
RTVSPost2010Prop41ColorIndex
 90
       18
102
RTVSPost2010Prop41ColorRGB
 90
        0
102
RTVSPost2010PropOp41
 70
     1
102
RTVSPost2010Prop42
 90
       50
102
RTVSPost2010PropOp42
 70
     1
102
RTVSPost2010Prop43
 90
        3
102
RTVSPost2010PropOp43
 70
     1
102
RTVSPost2010Prop44ColorIndex
 90
        5
102
RTVSPost2010Prop44ColorRGB
 90
      255
102
RTVSPost2010PropOp44
 70
     1
102
RTVSPost2010Prop45
280
     0
102
RTVSPost2010PropOp45
 70
     1
102
RTVSPost2010Prop46
 90
       50
102
RTVSPost2010PropOp46
 70
     1
102
RTVSPost2010Prop47
 90
       50
102
RTVSPost2010PropOp47
 70
     1
102
RTVSPost2010Prop48
 90
       50
102
RTVSPost2010PropOp48
 70
     1
102
RTVSPost2010Prop49
280
     0
102
RTVSPost2010PropOp49
 70
     1
102
RTVSPost2010Prop50
 90
       50
102
RTVSPost2010PropOp50
 70
     1
102
RTVSPost2010Prop51ColorIndex
 90
      256
102
RTVSPost2010Prop51ColorRGB
 90
-16777216
102
RTVSPost2010PropOp51
 70
     0
102
RTVSPost2010Prop52
140
1.0
102
RTVSPost2010PropOp52
 70
     0
102
RTVSPost2010Prop53
 90
        2
102
RTVSPost2010PropOp53
 70
     1
102
RTVSPost2010Prop54
  1
strokes_ogs.tif
102
RTVSPost2010PropOp54
 70
     1
102
RTVSPost2010Prop55
280
     0
102
RTVSPost2010PropOp55
 70
     1
102
RTVSPost2010Prop56
140
1.0
102
RTVSPost2010PropOp56
 70
     1
102
RTVSPost2010Prop57
140
1.0
102
RTVSPost2010PropOp57
 70
     1
  0
XRECORD
  5
9DF
102
{ACAD_REACTORS
330
9DE
102
}
330
9DE
100
AcDbXrecord
280
     1
102
RTVSPropertyOp0
 70
     1
102
RTVSPropertyOp1
 70
     1
102
RTVSPropertyOp2
 70
     1
102
RTVSPropertyOp3
 70
     1
102
RTVSPropertyOp4
 70
     1
102
RTVSPropertyOp5
 70
     1
102
RTVSPropertyOp6
 70
     1
102
RTVSPropertyOp7
 70
     1
102
RTVSPropertyOp8
 70
     1
102
RTVSPropertyOp9
 70
     1
102
RTVSPropertyOp10
 70
     1
102
RTVSPropertyOp11
 70
     1
102
RTVSPropertyOp12
 70
     1
102
RTVSPropertyOp13
 70
     1
102
RTVSPropertyOp14
 70
     1
102
RTVSPropertyOp15
 70
     1
102
RTVSPropertyOp16
 70
     1
102
RTVSPropertyOp17
 70
     1
102
RTVSPropertyOp18
 70
     1
102
RTVSPropertyOp19
 70
     1
102
RTVSPropertyOp20
 70
     1
102
RTVSPropertyOp21
 70
     1
102
RTVSPropertyOp22
 70
     1
102
RTVSPropertyOp23
 70
     1
102
RTVSPropertyOp24
 70
     1
102
RTVSPropertyOp25
 70
     1
102
RTVSPropertyOp26
 70
     1
102
RTVSPropertyOp27
 70
     1
102
RTVSPropertyOp28
 70
     1
102
RTVSPropertyOp29
 70
     1
102
RTVSPropertyOp30
 70
     1
102
RTVSPropertyOp31
 70
     1
102
RTVSPropertyOp32
 70
     1
102
RTVSPropertyOp33
 70
     1
102
RTVSPropertyOp34
 70
     1
102
RTVSPropertyOp35
 70
     1
102
RTVSPropertyOp36
 70
     1
102
RTVSPropertyOp37
 70
     1
102
RTVSPropertyOp38
 70
     1
102
RTVSPropertyOp39
 70
     1
102
RTVSPropertyOp40
 70
     1
102
RTVSPropertyOp41
 70
     1
102
RTVSPropertyOp42
 70
     1
102
RTVSPropertyOp43
 70
     1
102
RTVSPropertyOp44
 70
     1
102
RTVSPropertyOp45
 70
     1
102
RTVSPropertyOp46
 70
     1
102
RTVSPropertyOp47
 70
     1
102
RTVSPropertyOp48
 70
     1
102
RTVSPropertyOp49
 70
     1
102
RTVSPropertyOp50
 70
     1
102
RTVSPropertyOp51
 70
     0
102
RTVSPropertyOp52
 70
     0
102
RTVSPropertyOp53
 70
     1
102
RTVSPropertyOp54
 70
     1
102
RTVSPropertyOp55
 70
     1
102
RTVSPropertyOp56
 70
     1
102
RTVSPropertyOp57
 70
     1
102
RTVSPost2010Prop28
280
     0
102
RTVSPost2010PropOp28
 70
     1
102
RTVSPost2010Prop29
280
     1
102
RTVSPost2010PropOp29
 70
     1
102
RTVSPost2010Prop30
280
     1
102
RTVSPost2010PropOp30
 70
     1
102
RTVSPost2010Prop31
280
     0
102
RTVSPost2010PropOp31
 70
     1
102
RTVSPost2010Prop32
280
     0
102
RTVSPost2010PropOp32
 70
     1
102
RTVSPost2010Prop33
280
     0
102
RTVSPost2010PropOp33
 70
     1
102
RTVSPost2010Prop34
280
     0
102
RTVSPost2010PropOp34
 70
     1
102
RTVSPost2010Prop35
280
     0
102
RTVSPost2010PropOp35
 70
     1
102
RTVSPost2010Prop36
280
     0
102
RTVSPost2010PropOp36
 70
     1
102
RTVSPost2010Prop37
 90
       50
102
RTVSPost2010PropOp37
 70
     1
102
RTVSPost2010Prop38
140
0.0
102
RTVSPost2010PropOp38
 70
     1
102
RTVSPost2010Prop39
140
1.0
102
RTVSPost2010PropOp39
 70
     1
102
RTVSPost2010Prop40
 90
        0
102
RTVSPost2010PropOp40
 70
     1
102
RTVSPost2010Prop41ColorIndex
 90
       18
102
RTVSPost2010Prop41ColorRGB
 90
        0
102
RTVSPost2010PropOp41
 70
     1
102
RTVSPost2010Prop42
 90
       50
102
RTVSPost2010PropOp42
 70
     1
102
RTVSPost2010Prop43
 90
        3
102
RTVSPost2010PropOp43
 70
     1
102
RTVSPost2010Prop44ColorIndex
 90
        5
102
RTVSPost2010Prop44ColorRGB
 90
      255
102
RTVSPost2010PropOp44
 70
     1
102
RTVSPost2010Prop45
280
     0
102
RTVSPost2010PropOp45
 70
     1
102
RTVSPost2010Prop46
 90
       50
102
RTVSPost2010PropOp46
 70
     1
102
RTVSPost2010Prop47
 90
       50
102
RTVSPost2010PropOp47
 70
     1
102
RTVSPost2010Prop48
 90
       50
102
RTVSPost2010PropOp48
 70
     1
102
RTVSPost2010Prop49
280
     0
102
RTVSPost2010PropOp49
 70
     1
102
RTVSPost2010Prop50
 90
       50
102
RTVSPost2010PropOp50
 70
     1
102
RTVSPost2010Prop51ColorIndex
 90
      256
102
RTVSPost2010Prop51ColorRGB
 90
-16777216
102
RTVSPost2010PropOp51
 70
     0
102
RTVSPost2010Prop52
140
1.0
102
RTVSPost2010PropOp52
 70
     0
102
RTVSPost2010Prop53
 90
        2
102
RTVSPost2010PropOp53
 70
     1
102
RTVSPost2010Prop54
  1
strokes_ogs.tif
102
RTVSPost2010PropOp54
 70
     1
102
RTVSPost2010Prop55
280
     0
102
RTVSPost2010PropOp55
 70
     1
102
RTVSPost2010Prop56
140
1.0
102
RTVSPost2010PropOp56
 70
     1
102
RTVSPost2010Prop57
140
1.0
102
RTVSPost2010PropOp57
 70
     1
  0
XRECORD
  5
9FF
102
{ACAD_REACTORS
330
9FE
102
}
330
9FE
100
AcDbXrecord
280
     1
102
RTVSPropertyOp0
 70
     1
102
RTVSPropertyOp1
 70
     1
102
RTVSPropertyOp2
 70
     1
102
RTVSPropertyOp3
 70
     1
102
RTVSPropertyOp4
 70
     1
102
RTVSPropertyOp5
 70
     1
102
RTVSPropertyOp6
 70
     1
102
RTVSPropertyOp7
 70
     1
102
RTVSPropertyOp8
 70
     1
102
RTVSPropertyOp9
 70
     1
102
RTVSPropertyOp10
 70
     1
102
RTVSPropertyOp11
 70
     1
102
RTVSPropertyOp12
 70
     1
102
RTVSPropertyOp13
 70
     1
102
RTVSPropertyOp14
 70
     1
102
RTVSPropertyOp15
 70
     1
102
RTVSPropertyOp16
 70
     1
102
RTVSPropertyOp17
 70
     1
102
RTVSPropertyOp18
 70
     1
102
RTVSPropertyOp19
 70
     1
102
RTVSPropertyOp20
 70
     1
102
RTVSPropertyOp21
 70
     1
102
RTVSPropertyOp22
 70
     1
102
RTVSPropertyOp23
 70
     1
102
RTVSPropertyOp24
 70
     1
102
RTVSPropertyOp25
 70
     1
102
RTVSPropertyOp26
 70
     1
102
RTVSPropertyOp27
 70
     1
102
RTVSPropertyOp28
 70
     1
102
RTVSPropertyOp29
 70
     1
102
RTVSPropertyOp30
 70
     1
102
RTVSPropertyOp31
 70
     1
102
RTVSPropertyOp32
 70
     1
102
RTVSPropertyOp33
 70
     1
102
RTVSPropertyOp34
 70
     1
102
RTVSPropertyOp35
 70
     1
102
RTVSPropertyOp36
 70
     1
102
RTVSPropertyOp37
 70
     1
102
RTVSPropertyOp38
 70
     1
102
RTVSPropertyOp39
 70
     1
102
RTVSPropertyOp40
 70
     1
102
RTVSPropertyOp41
 70
     1
102
RTVSPropertyOp42
 70
     1
102
RTVSPropertyOp43
 70
     1
102
RTVSPropertyOp44
 70
     1
102
RTVSPropertyOp45
 70
     1
102
RTVSPropertyOp46
 70
     1
102
RTVSPropertyOp47
 70
     1
102
RTVSPropertyOp48
 70
     1
102
RTVSPropertyOp49
 70
     1
102
RTVSPropertyOp50
 70
     1
102
RTVSPropertyOp51
 70
     0
102
RTVSPropertyOp52
 70
     0
102
RTVSPropertyOp53
 70
     1
102
RTVSPropertyOp54
 70
     1
102
RTVSPropertyOp55
 70
     1
102
RTVSPropertyOp56
 70
     1
102
RTVSPropertyOp57
 70
     1
102
RTVSPost2010Prop28
280
     0
102
RTVSPost2010PropOp28
 70
     1
102
RTVSPost2010Prop29
280
     1
102
RTVSPost2010PropOp29
 70
     1
102
RTVSPost2010Prop30
280
     1
102
RTVSPost2010PropOp30
 70
     1
102
RTVSPost2010Prop31
280
     0
102
RTVSPost2010PropOp31
 70
     1
102
RTVSPost2010Prop32
280
     0
102
RTVSPost2010PropOp32
 70
     1
102
RTVSPost2010Prop33
280
     0
102
RTVSPost2010PropOp33
 70
     1
102
RTVSPost2010Prop34
280
     0
102
RTVSPost2010PropOp34
 70
     1
102
RTVSPost2010Prop35
280
     0
102
RTVSPost2010PropOp35
 70
     1
102
RTVSPost2010Prop36
280
     0
102
RTVSPost2010PropOp36
 70
     1
102
RTVSPost2010Prop37
 90
       50
102
RTVSPost2010PropOp37
 70
     1
102
RTVSPost2010Prop38
140
0.0
102
RTVSPost2010PropOp38
 70
     1
102
RTVSPost2010Prop39
140
1.0
102
RTVSPost2010PropOp39
 70
     1
102
RTVSPost2010Prop40
 90
        0
102
RTVSPost2010PropOp40
 70
     1
102
RTVSPost2010Prop41ColorIndex
 90
       18
102
RTVSPost2010Prop41ColorRGB
 90
        0
102
RTVSPost2010PropOp41
 70
     1
102
RTVSPost2010Prop42
 90
       50
102
RTVSPost2010PropOp42
 70
     1
102
RTVSPost2010Prop43
 90
        3
102
RTVSPost2010PropOp43
 70
     1
102
RTVSPost2010Prop44ColorIndex
 90
        5
102
RTVSPost2010Prop44ColorRGB
 90
      255
102
RTVSPost2010PropOp44
 70
     1
102
RTVSPost2010Prop45
280
     0
102
RTVSPost2010PropOp45
 70
     1
102
RTVSPost2010Prop46
 90
       50
102
RTVSPost2010PropOp46
 70
     1
102
RTVSPost2010Prop47
 90
       50
102
RTVSPost2010PropOp47
 70
     1
102
RTVSPost2010Prop48
 90
       50
102
RTVSPost2010PropOp48
 70
     1
102
RTVSPost2010Prop49
280
     0
102
RTVSPost2010PropOp49
 70
     1
102
RTVSPost2010Prop50
 90
       50
102
RTVSPost2010PropOp50
 70
     1
102
RTVSPost2010Prop51ColorIndex
 90
      256
102
RTVSPost2010Prop51ColorRGB
 90
-16777216
102
RTVSPost2010PropOp51
 70
     0
102
RTVSPost2010Prop52
140
1.0
102
RTVSPost2010PropOp52
 70
     0
102
RTVSPost2010Prop53
 90
        2
102
RTVSPost2010PropOp53
 70
     1
102
RTVSPost2010Prop54
  1
strokes_ogs.tif
102
RTVSPost2010PropOp54
 70
     1
102
RTVSPost2010Prop55
280
     0
102
RTVSPost2010PropOp55
 70
     1
102
RTVSPost2010Prop56
140
1.0
102
RTVSPost2010PropOp56
 70
     1
102
RTVSPost2010Prop57
140
1.0
102
RTVSPost2010PropOp57
 70
     1
  0
ENDSEC
  0
SECTION
  2
THUMBNAILIMAGE
 90
    16364
310
28000000B4000000550000000100080000000000C43B000000000000000000000001000000010000FFFFFF000000FF0000FFFF0000FF0000FFFF0000FF000000FF00FF000000000080808000C0C0C0000000FF007F7FFF000000A5005252A50000007F003F3F7F0000004C0026264C000000260013132600003FFF007F9FFF
310
000029A5005267A500001F7F003F4F7F0000134C00262F4C000009260013172600007FFF007FBFFF000052A500527CA500003F7F003F5F7F0000264C0026394C0000132600131C260000BFFF007FDFFF00007CA5005291A500005F7F003F6F7F0000394C0026424C00001C26001321260000FFFF007FFFFF0000A5A50052A5
310
A500007F7F003F7F7F00004C4C00264C4C00002626001326260000FFBF007FFFDF0000A57C0052A59100007F5F003F7F6F00004C3900264C420000261C001326210000FF7F007FFFBF0000A5520052A57C00007F3F003F7F5F00004C2600264C39000026130013261C0000FF3F007FFF9F0000A5290052A56700007F1F003F
310
7F4F00004C1300264C2F00002609001326170000FF00007FFF7F0000A5000052A55200007F00003F7F3F00004C0000264C260000260000132613003FFF00009FFF7F0029A5000067A552001F7F00004F7F3F00134C00002F4C260009260000172613007FFF0000BFFF7F0052A500007CA552003F7F00005F7F3F00264C0000
310
394C2600132600001C261300BFFF0000DFFF7F007CA5000091A552005F7F00006F7F3F00394C0000424C26001C26000021261300FFFF0000FFFF7F00A5A50000A5A552007F7F00007F7F3F004C4C00004C4C26002626000026261300FFBF0000FFDF7F00A57C0000A59152007F5F00007F6F3F004C3900004C422600261C00
310
0026211300FF7F0000FFBF7F00A5520000A57C52007F3F00007F5F3F004C2600004C39260026130000261C1300FF3F0000FF9F7F00A5290000A56752007F1F00007F4F3F004C1300004C2F26002609000026171300FF000000FF7F7F00A5000000A55252007F0000007F3F3F004C0000004C2626002600000026131300FF00
310
3F00FF7F9F00A5002900A55267007F001F007F3F4F004C0013004C262F002600090026131700FF007F00FF7FBF00A5005200A5527C007F003F007F3F5F004C0026004C2639002600130026131C00FF00BF00FF7FDF00A5007C00A55291007F005F007F3F6F004C0039004C26420026001C0026132100FF00FF00FF7FFF00A5
310
00A500A552A5007F007F007F3F7F004C004C004C264C002600260026132600BF00FF00DF7FFF007C00A5009152A5005F007F006F3F7F0039004C0042264C001C002600211326007F00FF00BF7FFF005200A5007C52A5003F007F005F3F7F0026004C0039264C00130026001C1326003F00FF009F7FFF002900A5006752A500
310
1F007F004F3F7F0013004C002F264C000900260017132600000000002D2D2D005B5B5B0089898900B7B7B700B3B3B30000000000000000000000000000000000000000000000000000000000000000000000000000000000000000000000000000000000000000000000000000000000000000000000020202020202000000
310
00000000000000000000000000000000000000000000000000000000000000000000000000000000000000000000000000000000000000000000000000000000000000000000000000000000000000000000000000000000000000000000000000000000000000000000000000000000000000000000000000000000000000
310
00000000000000000000000000000000000000000000000000000000000000000000000000000000000000000202020002020000000000000000000000000000000000000000000000000000000000000000000000000000000000000000000000000000000000000000000000000000000000000000000000000000000000
310
00000000000000000000000000000000000000000000000000000000000000000000000000000000000000000000000000000000000000010000000000000000000000000000000000000000000000000000010000000000000000000000000000000000000000000000000000000000000000000001000000000000000001
310
00000000000000010000000000000000000000000000000000000000000000000000000000000000000000000000000000000000000000000000000000000000000000000000000000000000000000000000000000000000000000000000000000000000000000030303030303030303030303030303030303030303030303
310
03030303030303030303030303000000000000000000000000000000000000000000000000000000000303030303030303030303030303030303030303030300000000000000000000000000000000000000000000000000000000000000000000000000000000000000000000000000000000000000000000000000000000
310
00000000000000000000000000000000000000000000000000000000000300000000010000000303000003030303030303030303030000000303000000010000000300000000000000000000000000000000000000000000000000000000030001000000000000000001000000000000030103030000000000000000000000
310
00000000000000000000000000000000000000000000000000000000000000000000000000000000000000000000000000000000000000000000000000000000000000000000000000000000000000000000030303030303030303030303030000030303040403030000030303030303030303030303030000000000000000
310
00000000000000000000000000000000000000000303030303030303030303030303030303030303030300000000000000000000000000000000000000000000000000000000000000000000000000000000000000000000000000000000000000000000000000000000000000000000000000000000000000000000000000
310
00000000000000000300030303030303030300000003030000030303000003030000000303030303030303030303000000000000000000000000000000000000000000000000000000000003000003030301030303000000000303030100000000000000000000000000000000000000000000000000000000000000000000
310
00000000000000000000000000000000000000000000000000000000000000000000000000000000000000000000000000000000000000000000000003010103000000000003000303030000000000010000000000030303000303000000000001010301000000000000000000000000000000000000000000000000000000
310
00000303030301010003030300000003030300000000000000000000000000000000000000000000000000000000000000000000000000000000000000000000000000000000000000000000000000000000000000000000000000000000000000000000000000000000000000000000000303000300000000030003000000
310
00000000000100000000000000000300000300000000030303000000000000000000000000000000000000000000000000000000000000030303030303030103030000000303030000000000000000000000000000000000000000000000000000000000000000000000000000000000000000000000000000000000000000
310
00000000000000000000000000000000000000000000000000000000000000000000000000000000030003000000030003000000000000000000010000000000000000000300000300000003030303030303030300000000000000000000000000000000000000000000000000030100030303030103000000030303000000
310
00000000000000000000000000000000000000000000000000000000000000000000000000000000000000000000000000000000000000000000000000000000000000000000000000000000000000000000000000000000000000000103010301010101030101010101010101010103010101010101010101010301010101
310
01030303030101010103000000000000000000000000000000000000000000000000030301030301030301030100000303030000000000000000000000000000000000000000000000000000000000000000000000000000000000000000000000000000000000000000000000000000000000000000000000000000000000
310
00000000000000000000000000000000000000030000000003030000000000000003030303030303030303000000000000030003000000030303030303030300000000000000000000000000000000000000000000000003030103030303030103000000030303000000000000000000000000000000000000000000000000
310
00000000000000000000000000000000000000000000000000000000000000000000000000000000000000000000000000000000000000000000000000000000000000000000000303000000030003030303030303030000000303030100000003030303030300030003000003030303030303030000000000000000000000
310
00000000000000000000000000030103030303030103030000000303030000000000000000000000000000000000000000000000000000000000000000000000000000000000000000000000000000000000000000000000000000000000000000000000000000000000000000000000000000000000000000000000030301
310
00030003030000000000000100000000030300000000000000000000030303030001010101000000000000000000000000000000000000000000000000000000000003030303000100030303000000030303000000000000000000000000000000000000000000000000000000000000000000000000000000000000000000
310
00000000000000000000000000000000000000000000000000000000000000000000000000000000000000000000000000000003030300030000000000030303030303030001000000000000000000000000000300030303030000000000000000000000000000000000000000000000000000000000030303030303010303
310
03030000000101030300000000000000000000000000000000000000000000000000000000000000000000000000000000000000000000000000000000000000000000000000000000000000000000000000000000000000000000000000000000000000000000000300030003000000010301010101010101030100000000
310
00000100000000000003000300030000000000000000000000000000000000000000000000000000000000000303030300000100000100000000030303030000000000000000000000000000000000000000000000000000000000000000000000000000000000000000000000000000000000000000000000000000000000
310
00000000000000000000000000000000000000000000000000000000000003000300030000000303030000010000030303000000000303010303000000000003030003000000000000000000000000000000000000000000000000000000000000010101030000000000010000000003010101010000000000000000000000
310
00000000000000000000000000000000000000000000000000000000000000000000000000000000000000000000000000000000000000000000000000000000000000000000000000000000000000000000000300030300000000030303030301030303030103000103010101010103010000000300030300000000000000
310
00000000000000000000000000000000000000000000030303030300000000000100000000030303030300000000000000000000000000000000000000000000000000000000000000000000000000000000000000000000000000000000000000000000000000000000000000000000000000000000000000000000000000
310
00000000000000000003000303000000030100030303010303030001030003030303010303030300000003000303000000000000000000000000000000000000000000030303030303030303010101030000000000010000000003010101010000000000000000000000000000000000000000000000000000000000000000
310
00000000000000000000000000000000000000000000000000000000000000000000000000000000000000000000000000000000000000000000000000000303000300000003010003030001000303000103030103010001000103010000000300030300000000000000000000000000000000000000000003000000000000
310
00030303030300000000000100000000030303030300000000000000000000000000000000000000000000000000000000000000000000000000000000000000000000000000000000000000000000000000000000000000000000000000000000000000000000000000000000000000000000030101010101010301010101
310
01010101010101030301030101010103030103010101010103010000000000000000000000000000000000000001030101010101010103030303030101010101010101010103030303010000000000000000000000000000000000000000000000000000000000000000000000000000000000000000000000000000000000
310
00000000000000000000000000000000000000000000000000000000000000000000000000000000000303000300000003010003030001000303000103030103010101010103010301000300030300000000000000000000000000000000000000000003000000000000000303030303000000000001000000000303030300
310
00000000000000000000000000000000000000000000000000000000000000000000000000000000000000000000000000000000000000000000000000000000000000000000000000000000000000000000000000000000000000000000030300030000000301000303030103030300010303010300000100030001030000
310
03000303000000000000000000000000000000000000000000030303030303030303030303030000000000010000000003030303000000000000000000000000000000000000000000000000000000000000000000000000000000000000000000000000000000000000000000000000000000000000000000000000000000
310
00000000000000000000000000000000000000000303000300000000030303030301030303030103000103010301030303010000000300030300000000000000000000000000000000000000000003030303030303030303030303000000000001000000000303030303000000000000000000000000000000000000000000
310
00000000000000000000000000000000000000000000000000000000000000000000000000000000000000000000000000000000000000000000000000000000000000000000000000000303030000000003030300000100000303030000010303030103030301000000030003030000000000000000000000000000000000
310
00000000000000000000000000010101030000000000010000000003010101010000000000000000000000000000000000000000000000000000000000000000000000000000000000000000000000000000000000000000000000000000000000000000000000000000000000000000000000000000000000000000000000
310
03030003000000010303010101010103030100000003010101010303000000000303000300000000000000000000000000000000000000000000000000000000000003030303000000000001000000000303030300000000000000000000000000000000000000000000000000000000000000000000000000000000000000
310
00000000000000000000000000000000000000000000000000000000000000000000000000000000000000000000000000000000000303000300000000000003030303030000010000000000030103000000000000030300030000000000000000000000000000000000000000000000000000000000000303030300000000
310
00010000000003030303000000000000000000000000000000000000000000000000000000000000000000000000000000000000000000000000000000000000000000000000000000000000000000000000000000000000000000000000000000000000000000000000030300030303030300000000010000000001000000
310
00000001000000030303030003000300000000000000000000000000000000000000000000000000000000000000000303000000000001000000000101030100000000000000000000000000000000000000000000000000000000000000000000000000000000000000000000000000000000000000000000000000000000
310
00000000000000000000000000000000000000000000000000000000000000000300030003000000030303030303030000010000000303030303030300000003030000030000000000000000000000000000000000000000000000000000000000000000030300000000000100000000030303000000000000000000000000
310
00000000000000000000000000000000000000000000000000000000000000000000000000000000000000000000000000000000000000000000000000000000000000000000000000000000000000000000000000030000030003000000000000000000030303030303000000000000000000030003000003000000000000
310
00000000000000000000000000000000000000000000000000000303000000000001000000000303030000000000000000000000000000000000000000000000000000000000000000000000000000000000000000000000000000000000000000000000000000000000000000000000000000000000000000000000000000
310
00000000000000000000000300000300000300000000000000000000010000000000000000000000030000030003000000000000000000000000000000000000000000000000000000000000000000030300000000000100000000030303000000000000000000000000000000000000000000000000000000000000000000
310
00000000000000000000000000000000000000000000000000000000000000000000000000000000000000000000000000000000000000000000000000000000030000000300000300000000000000030303030303000000000000000300000300000300000000000000000000000000000000000000000000000000000000
310
00000000000303000000000001000000000303030000000000000000000000000000000000000000000000000000000000000000000000000000000000000000000000000000000000000000000000000000000000000000000000000000000000000000000000000000000000000000000000000003000000000300000300
310
00000000000303030303030000000000000300000300000003000000000000000000000000000000000000000000000000000000000000000000030300000000000100000000030303000000000000000000000000000000000000000000000000000000000000000000000000000000000000000000000000000000000000
310
00000000000000000000000000000000000000000000000000000000000000000000000000000000000000030000000000030000030000000000030303030303000000000303000303000000000300000000000000000000000000000000000000000000000000000000000000000003030000000000010000000003030300
310
00000000000000000000000000000000000000000000000000000000000000000000000000000000000000000000000000000000000000000000000000000000000000000000000000000000000000000000000000000000000000000000000000030000000000030000030000000000000100000000000003000003000000
310
00000003000000000000000000000000000000000000000000000000000000000000000000030300000000000100000000030303000000000000000000000000000000000000000000000000000000000000000000000000000000000000000000000000000000000000000000000000000000000000000000000000000000
310
00000000000000000000000000000000000000000000000300000000000103030003030303030001000003030303000003000000000000000300000000000000000000000000000000000000000000000000000000000000000003030000000000010000000001010301000000000000000000000000000000000000000000
310
00000000000000000000000000000000000000000000000000000000000000000000000000000000000000000000000000000000000000000000000000000000000000000000000000000000030300000000010000030303000000030303030000000303030000000000000303000000000000000000000000000000000000
310
00000000000000000000000000000000030300000000000100000000030303000000000000000000000000000000000000000000000000000000000000000000000000000000000000000000000000000000000000000000000000000000000000000000000000000000000000000000000000000000000000000000000000
310
00000000030303030103030303030303030303030303030303030303030303030300000000000000000000000000000000000000000000000000000000000000000000000003030000000000010000000003030300000000000000000000000000000000000000000000000000000000000000000000000000000000000000
310
00000000000000000000000000000000000000000000000000000000000000000000000000000000000000000000000000000000000000000000000003030300000000000303030303030303000000000000000000000000000000000000000000000000000000000000000000000000000000000000000000000003030303
310
03030303030303030000000000000000000000000000000000000000000000000000000000000000000000000000000000000000000000000000000000000000000000000000000000000000000000000000000000000000000000000000000000000000000000000000000000000000000000000000000000000000030000
310
00000000000000000000000000000000000000000000000000000000000000000000000000000000000000000000000000000000000101010101000000000000000000000000000000000000000000000000000000000000000000000000000000000000000000000000000000000000000000000000000000000000000000
310
00000000000000000000000000000000000000000000000000000000000000000000000000000000000000000000000000000300000000000000000000000000000000000000000000000000000000000000000000000000000000000000000000000000000000000000030303030000000000000000000000000000000000
310
00000000000000000000000000000000000000000000000000000000000000000000000000000000000000000000000000000000000000000000000000000000000000000000000000000000000000000000000000000000000000000000000000000000000000030000000000000000000000000000000000000000000000
310
00000000000000000000000000000000000000000000000000000000000000000003030300000000000000000000000000000000000000000000000000000000000000000000000000000000000000000000000000000000000000000000000000000000000000000000000000000000000000000000000000000000000000
310
00000000000000000000000000000000000000000000000000000000000100000000000000000000000000000000000000000000000000000000000000000000000000000000000000000000000000000000000000000001000000000000000000000000000000000000000000000000000000000000000000000000000000
310
00000000000000000000000000000000000000000000000000000000000000000000000000000000000000000000000000000000000000000000000000000000000000000000000000000000000000000000000000000000000000000000000000000000000000000000000000000000000000000000000000000000000000
310
00000000000000000000000000000000000000000000000000000000000000000000000000000000000000000000000000000000000000000000000000000000000000000000000000000000000000000000000000000000000000000000000000000000000000000000000000000000000000000000000000000000000000
310
00000000000000000000000000000000000000000000000000000000000000000000000000000000000000000000000000000000000000000000000000000000000000000000000000000000000000000000000000000000000000000000000000000000000000000000000000000000000000000000000000000000000000
310
00000000000000000000000000000000000000000000000000000000000000000000000000000000000000000000000000000000000000000000000000000000000000000000000000000000000000000000000000000000000000000000000000000000000000000000000000000000000000000000000000000000000000
310
00000000000000000000000000000000000000000000000000000000000000000000000000000000000000000000000000000000000000000000000000000000000000000000000000000000000000000000000000000000000000000000000000000000000000000000000000000000000000000000000000000000000000
310
00000000000000000000000000000000000000000000000000000000000000000000000000000000000000000000000000000000000000000000000000000000000000000000000000000000000000000000000000000000000000000000000000000000000000000000000000000000000000000000000000000000000000
310
00000000000000000000000000000000000000000000000000000000000000000000000000000000000000000000000000000000000000000000000000000000000000000000000000000000000000000000000000000000000000000000000000000000000000000000000000000000000000000000000000000000000000
310
00000000000000000000000000000000000000000000000000000000000000000000000000000000000000000000000000000000000000000000000000000000000000000000000000000000000000000000000000000000000000000000000000000000000000000000000000000000000000000000000000000000000000
310
00000000000000000000000000000000000000000000000000000000000000000000000000000000000000000000000000000000000000000000000000000000000000000000000000000000000000000000000000000000000000000000000000000000000000000000000000000000000000000000000000000000000000
310
00000000000000000000000000000000000000000000000000000000000000000000000000000000000000000000000000000000000000000000000000000000000000000000000000000000000000000000000000000000000000000000000000000000000000000000000000000000000000000000000000000000000000
310
00000000000000000000000000000000000000000000000000000000000000000000000000000000000000000000000000000000000000000000000000000000000000000000000000000000000000000000000000000000000000000000000000000000000000000000000000000000000000000000000000000000000000
310
00000000000000000000000000000000000000000000000000000000000000000000000000000000000000000000000000000000000000000000000000000000000000000000000000000000000000000000000000000000000000000000000000000000000000000000000000000000000000000000000000000000000000
310
00000000000000000000000000000000000000000000000000000000000000000000000000000000000000000000000000000000000000000000000000000000000000000000000000000000000000000000000000000000000000000000000000000000000000000000000000000000000000000000000000000000000000
310
00000000000000000000000000000000000000000000000000000000000000000000000000000000000000000000000000000000000000000000000000000000000000000000000000000000000000000000000000000000000000000000000000000000000000000000000000000000000000000000000000000000000000
310
00000000000000000000000000000000000000000000000000000000000000000000000000000000000000000000000000000000000000000000000000000000000000000000000000000000000000000000000000000000000000000000000000000000000000000000000000000000000000000000000000000000000000
310
00000000000000000000000000000000000000000000000000000000000000000000000000000000000000000000000000000000000000000000000000000000000000000000000000000000000000000000000000000000000000000000000000000000000000000000000000000000000000000000000000000000000000
310
00000000000000000000000000000000000000000000000303010303000000000000000000000000000000000000000000000000000000000000000000000000000000000000000000000000000000000000000000000000000000000000000000000000000000000000000000000000000000000000000000000000000000
310
00000000000000000000000000000000000000000000000000000000000000000000000000000000000000000000000000000000000000000000000000000000000000000000000000000000030301030300000000000000000000000000000000000000000000000000000000000000000000000000000000000000000000
310
00000000000000000000000000000000000000000000000000000000000000000000000000000000000000000000000000000000000000000000000000000000000000000000000000000000000000000000000000000000000000000000000000000000000000000000000000000000000000000000000000000000000000
310
00000303010303000000000000000000000000000000000000000000000000000000000000000000000000000000000000000000000000000000000000000000000000000000000000000000000000000000000000000000000000000000000000000000000000000000000000000000000000000000000000000000000000
310
00000000000000000000000000000000000000000000000000000000000000000000000000000000000000000000000000000000000000030301030300000000000000000000000000000000000000000000000000000000000000000000000000000000000000000000000000000000000000000000000000000000000000
310
00000000000000000000000000000000000000000000000000000000000000000000000000000000000000000000000000000000000000000000000000000000000000000000000000000000000000000000000000000000000000000000000000000000000000000000000003030103030000000000000000000000000000
310
00000000000000000000000000000000000000000000000000000000000000000000000000000000000000000000000000000000000000000000000000000000000000000000000000000000000000000000000000000000000000000000000000000000000000000000000000000000000000000000000000000000000000
310
00000000000000000000000000000000000000000000000000000000000000000000030301030300000000000000000000000000000000000000000000000000000000000000000000000000000000000000000000000000000000000000000000000000000000000000000000000000000000000000000000000000000000
310
00000000000000000000000000000000000000000000000000000000000000000000000000000000000000000000000000000000000000000000000000000000000000000000000000000000000000000000000000000003030103030000000000000000000000000000000000000000000000000000000000000000000000
310
00000000000000000000000000000000000000000000000000000000000000000000000000000000000000000000000000000000000000000000000000000000000000000000000000000000000000000000000000000000000000000000000000000000000000000000000000000000000000000000000000000000000000
310
00000003030303030303030000030301030300000000000000000000000003030303030303030300000000000000000000000000000000000000000000000000000000000000000000000000000000000000000000000000000000000000000000000000000000000000000000000000000000000000000000000000000000
310
00000000000000000000000000000000000000000000000000000000000000000000000000000000000000000000000000000000000000030300000001000003030003030103030000000000000000000000000300000001000000030000000000000000000000000000000000000000000000000000000000000000000000
310
00000000000000000000000000000000000000000000000000000000000000000000000000000000000000000000000000000000000000000000000000000000000000000000000000000000000000000000000000000000000000000000000000000000000000000000000003000000030100030303030303010303030301
310
03030303030301030303030303030000000300000000000000000000000000000000000000000000000000000000000000000000000000000000000000000000000000000000000000000000000000000000000000000000000000000000000000000000000000000000000000000000000000000000000000000000000000
310
00000000000000000000000000000000000000000000000000000000000000000000030303010301010303030303030303030303030303030303030303030303030303010003030000000000000000000000000000000000000000000000000000000000000000000000000000000000000000000000000000000000000000
310
00000000000000000000000000000000000000000000000000000000000000000000000000000000000000000000000000000000000000000000000000000000000000000000000000000000000000000000000000000003030303030303030303030303030303030303030303030303030303030303030303030303000000
310
00000000000000000000000000000000000000000000000000000000000000000000000000000000000000000000000000000000000000000000000000000000000000000000000000000000000000000000000000000000000000000000000000000000000000000000000000000000000000000000000000000000000000
310
00000000000000000000000003030303030303030303030303030303030303030303030303030303030303030303030303030300000000000000000000000000000000000000000000000000000000000000000000000000000000000000000000000000000000000000000000000000000000000000000000000000000000
310
00000000000000000000000000000000000000000000000000000000000000000000000000000000000000000000000000000000000000000000000000000000000103010000000000000000000000010000000001000000000000010000000000000000000103030100000000000000000000000000000000000000000000
310
00000000000000000000000000000000000000000000000000000000000000000000000000000000000000000000000000000000000000000000000000000000000000000000000000000000000000000000000000000000000000000000000000000000000000000000000000000000000000000000000300000000000000
310
00000000000100000000010000000000000100000000000000000000030303030303030300000000000000000000000000000000000000000000000000000000000000000000000000000000000000000000000000000000000000000000000000000000000000000000000000000000000000000000000000000000000000
310
00000000000000000000000000000000000000000000000000000000000000000000000000000000000000000103010101010101010101010101010101010101010101010101010101010101010101010103010101010101010100000000000000000000000000000000000000000000000000000000000000000000000000
310
00000000000000000000000000000000000000000000000000000000000000000000000000000000000000000000000000000000000000000000000000000000000000000000000000000000000000000000000000000000000000000000000000000300000000000000010000000001000000030103000000000001000000
310
00000000000000030303030303030300000000000000000000000000000000000000000000000000000000000000000000000000000000000000000000000000000000000000000000000000000000000000000000000000000000000000000000000000000000000000000000000000000000000000000000000000000000
310
00000000000000000000000000000000000000000000000003000000000003030303000000010000000301030000000000010000000000000000000003030303030303030000000000000000000000000000000000000000000000000000000000000000000000000000000000000000000000000000000000000000000000
310
00000000000000000000000000000000000000000000000000000000000000000000000000000000000000000000000000000000000000000000000000000000000000000000000000000000010101010101010101010101010101010101010101010101010101010101010101010101010103010000000000000000000000
310
00000000000000000000000000000000000000000000000000000000000000000000000000000000000000000000000000000000000000000000000000000000000000000000000000000000000000000000000000000000000000000000000000000000000000000000000000000000000000000000000000000000000000
310
00000303000000000000030303000000010000000301030000000000010000000000000000000003030000000000000000000000000000000000000000000000000000000000000000000000000000000000000000000000000000000000000000000000000000000000000000000000000000000000000000000000000000
310
00000000000000000000000000000000000000000000000000000000000000000000000000000000000000000000000000000000000000000300000000000000010000000001000000030103000000000001000000000000000000000300000000000000000000000000000000000000000000000000000000000000000000
310
00000000000000000000000000000000000000000000000000000000000000000000000000000000000000000000000000000000000000000000000000000000000000000000000000000000000000000000000000000000000000000000000000000000000000000000000000030000000000000000000000000100000000
310
01000000000000010000000000000000000003000000000000000000000000000000000000000000000000000000000000000000000000000000000000000000000000000000000000000000000000000000000000000000000000000000000000000000000000000000000000000000000000000000000000000000000000
310
00000000000000000000000000000000000000000000000000000000000000000000000300000000000000000000000001000000000100000000000001000000000000000000000300000000000000000000000000000000000000000000000000000000000000000000000000000000000000000000000000000000000000
310
00000000000000000000000000000000000000000000000000000000000000000000000000000000000000000000000000000000000000000000000000000000000000000000000000000000000000000000000000000000030301000001000000000000000100000000010000000001000100000000000100000100030000
310
00000000000000000000000000000000000000000000000000000000000000000000000000000000000000000000000000000000000000000000000000000000000000000000000000000000000000000000000000000000000000000000000000000000000000000000000000000000000000000000000000000000000000
310
00000000000000000000000000000303010303010303030303030301030303030303030303010303030303030301030301030300000000000000000000000000000000000000000000000000000000000000000000000000000000000000000000000000000000000000000000000000000000000000000000000000000000
310
00000000000000000000000000000000000000000000000000000000000000000000000000000000000000000000000000000000000000000000000000000000000000030301030301030303030303030103030303010303030301030303030303030103030103030000000000000000000000000000000000000000000000
310
00000000000000000000000000000000000000000000000000000000000000000000000000000000000000000000000000000000000000000000000000000000000000000000000000000000000000000000000000000000000000000000000000000000000000000000000000000000000000000000000003030103010103
310
03030303030301030303030103030303010303030303030301030101030300000000000000000000000000000000000000000000000000000000000000000000000000000000000000000000000000000000000000000000000000000000000000000000000000000000000000000000000000000000000000000000000000
310
00000000000000000000000000000000000000000000000000000000000000000000000000000000000000000000030000000301000000030300000100000301000000000303000100030300000301000000030000000000000000000000000000000000000000000000000000000000000000000000000000000000000000
310
00000000000000000000000000000000000000000000000000000000000000000000000000000000000000000000000000000000000000000000000000000000000000000000000000000000000000000000000000000000000000000000000000000003030303030303030303000000000000000000000000000000000000
310
03030303030303030300000000000000000000000000000000000000000000000000000000000000000000000000000000000000000000000000000000000000000000000000000000000000000000000000000000000000000000000000000000000000000000000000000000000000000000000000000000000000000000
310
00000000000000000000000000000000000000000000000000000000000000000000000000000000000000000000000000000000000000000000000000000000000000000000000000000000000000000000000000000000000000000000000000000000000000000000000000000000000000000000000000000000000000
310
00000000000000000000000000000000000000000000000000000000000000000000000000000000000000000000000000000000000000000000000000000000000000000000000000000000000000000000000000000000000000000000000000000000000000000000000000000000000000000000000000000000000000
310
000000000000000000000000000000000000000000000000000000000000000000000000000000000000000000000000000000000000000000000000000000000000000000000000000000000000000000000000000000000000000000000000000000000000000000000000
  0
ENDSEC
  0
EOF
